  0
SECTION
  2
HEADER
  9
$ACADVER
  1
AC1024
  9
$ACADMAINTVER
 70
   226
  9
$DWGCODEPAGE
  3
ANSI_932
  9
$INSBASE
 10
0.0
 20
0.0
 30
0.0
  9
$EXTMIN
 10
1.000000000000000E+20
 20
1.000000000000000E+20
 30
1.000000000000000E+20
  9
$EXTMAX
 10
-1.000000000000000E+20
 20
-1.000000000000000E+20
 30
-1.000000000000000E+20
  9
$LIMMIN
 10
0.0
 20
0.0
  9
$LIMMAX
 10
12.0
 20
9.0
  9
$ORTHOMODE
 70
     0
  9
$REGENMODE
 70
     1
  9
$FILLMODE
 70
     1
  9
$QTEXTMODE
 70
     0
  9
$MIRRTEXT
 70
     0
  9
$LTSCALE
 40
1.0
  9
$ATTMODE
 70
     1
  9
$TEXTSIZE
 40
0.2
  9
$TRACEWID
 40
0.05
  9
$TEXTSTYLE
  7
Standard
  9
$CLAYER
  8
0
  9
$CELTYPE
  6
ByLayer
  9
$CECOLOR
 62
   256
  9
$CELTSCALE
 40
1.0
  9
$DISPSILH
 70
     0
  9
$DIMSCALE
 40
1.0
  9
$DIMASZ
 40
0.18
  9
$DIMEXO
 40
0.0625
  9
$DIMDLI
 40
0.38
  9
$DIMRND
 40
0.0
  9
$DIMDLE
 40
0.0
  9
$DIMEXE
 40
0.18
  9
$DIMTP
 40
0.0
  9
$DIMTM
 40
0.0
  9
$DIMTXT
 40
0.18
  9
$DIMCEN
 40
0.09
  9
$DIMTSZ
 40
0.0
  9
$DIMTOL
 70
     0
  9
$DIMLIM
 70
     0
  9
$DIMTIH
 70
     1
  9
$DIMTOH
 70
     1
  9
$DIMSE1
 70
     0
  9
$DIMSE2
 70
     0
  9
$DIMTAD
 70
     0
  9
$DIMZIN
 70
     0
  9
$DIMBLK
  1

  9
$DIMASO
 70
     1
  9
$DIMSHO
 70
     1
  9
$DIMPOST
  1

  9
$DIMAPOST
  1

  9
$DIMALT
 70
     0
  9
$DIMALTD
 70
     2
  9
$DIMALTF
 40
25.4
  9
$DIMLFAC
 40
1.0
  9
$DIMTOFL
 70
     0
  9
$DIMTVP
 40
0.0
  9
$DIMTIX
 70
     0
  9
$DIMSOXD
 70
     0
  9
$DIMSAH
 70
     0
  9
$DIMBLK1
  1

  9
$DIMBLK2
  1

  9
$DIMSTYLE
  2
Standard
  9
$DIMCLRD
 70
     0
  9
$DIMCLRE
 70
     0
  9
$DIMCLRT
 70
     0
  9
$DIMTFAC
 40
1.0
  9
$DIMGAP
 40
0.09
  9
$DIMJUST
 70
     0
  9
$DIMSD1
 70
     0
  9
$DIMSD2
 70
     0
  9
$DIMTOLJ
 70
     1
  9
$DIMTZIN
 70
     0
  9
$DIMALTZ
 70
     0
  9
$DIMALTTZ
 70
     0
  9
$DIMUPT
 70
     0
  9
$DIMDEC
 70
     4
  9
$DIMTDEC
 70
     4
  9
$DIMALTU
 70
     2
  9
$DIMALTTD
 70
     2
  9
$DIMTXSTY
  7
Standard
  9
$DIMAUNIT
 70
     0
  9
$DIMADEC
 70
     0
  9
$DIMALTRND
 40
0.0
  9
$DIMAZIN
 70
     0
  9
$DIMDSEP
 70
    46
  9
$DIMATFIT
 70
     3
  9
$DIMFRAC
 70
     0
  9
$DIMLDRBLK
  1

  9
$DIMLUNIT
 70
     2
  9
$DIMLWD
 70
    -2
  9
$DIMLWE
 70
    -2
  9
$DIMTMOVE
 70
     0
  9
$DIMFXL
 40
1.0
  9
$DIMFXLON
 70
     0
  9
$DIMJOGANG
 40
0.7853981633974483
  9
$DIMTFILL
 70
     0
  9
$DIMTFILLCLR
 70
     0
  9
$DIMARCSYM
 70
     0
  9
$DIMLTYPE
  6

  9
$DIMLTEX1
  6

  9
$DIMLTEX2
  6

  9
$DIMTXTDIRECTION
 70
     0
  9
$LUNITS
 70
     2
  9
$LUPREC
 70
     4
  9
$SKETCHINC
 40
0.1
  9
$FILLETRAD
 40
0.0
  9
$AUNITS
 70
     0
  9
$AUPREC
 70
     0
  9
$MENU
  1
.
  9
$ELEVATION
 40
0.0
  9
$PELEVATION
 40
0.0
  9
$THICKNESS
 40
0.0
  9
$LIMCHECK
 70
     0
  9
$CHAMFERA
 40
0.0
  9
$CHAMFERB
 40
0.0
  9
$CHAMFERC
 40
0.0
  9
$CHAMFERD
 40
0.0
  9
$SKPOLY
 70
     0
  9
$TDCREATE
 40
2459569.489097222
  9
$TDUCREATE
 40
2459569.114097222
  9
$TDUPDATE
 40
2459569.489097222
  9
$TDUUPDATE
 40
2459569.114097222
  9
$TDINDWG
 40
0.0000000000
  9
$TDUSRTIMER
 40
0.0000000000
  9
$USRTIMER
 70
     1
  9
$ANGBASE
 50
0.0
  9
$ANGDIR
 70
     0
  9
$PDMODE
 70
     0
  9
$PDSIZE
 40
0.0
  9
$PLINEWID
 40
0.0
  9
$SPLFRAME
 70
     0
  9
$SPLINETYPE
 70
     6
  9
$SPLINESEGS
 70
     8
  9
$HANDSEED
  5
10F
  9
$SURFTAB1
 70
     6
  9
$SURFTAB2
 70
     6
  9
$SURFTYPE
 70
     6
  9
$SURFU
 70
     6
  9
$SURFV
 70
     6
  9
$UCSBASE
  2

  9
$UCSNAME
  2

  9
$UCSORG
 10
0.0
 20
0.0
 30
0.0
  9
$UCSXDIR
 10
1.0
 20
0.0
 30
0.0
  9
$UCSYDIR
 10
0.0
 20
1.0
 30
0.0
  9
$UCSORTHOREF
  2

  9
$UCSORTHOVIEW
 70
     0
  9
$UCSORGTOP
 10
0.0
 20
0.0
 30
0.0
  9
$UCSORGBOTTOM
 10
0.0
 20
0.0
 30
0.0
  9
$UCSORGLEFT
 10
0.0
 20
0.0
 30
0.0
  9
$UCSORGRIGHT
 10
0.0
 20
0.0
 30
0.0
  9
$UCSORGFRONT
 10
0.0
 20
0.0
 30
0.0
  9
$UCSORGBACK
 10
0.0
 20
0.0
 30
0.0
  9
$PUCSBASE
  2

  9
$PUCSNAME
  2

  9
$PUCSORG
 10
0.0
 20
0.0
 30
0.0
  9
$PUCSXDIR
 10
1.0
 20
0.0
 30
0.0
  9
$PUCSYDIR
 10
0.0
 20
1.0
 30
0.0
  9
$PUCSORTHOREF
  2

  9
$PUCSORTHOVIEW
 70
     0
  9
$PUCSORGTOP
 10
0.0
 20
0.0
 30
0.0
  9
$PUCSORGBOTTOM
 10
0.0
 20
0.0
 30
0.0
  9
$PUCSORGLEFT
 10
0.0
 20
0.0
 30
0.0
  9
$PUCSORGRIGHT
 10
0.0
 20
0.0
 30
0.0
  9
$PUCSORGFRONT
 10
0.0
 20
0.0
 30
0.0
  9
$PUCSORGBACK
 10
0.0
 20
0.0
 30
0.0
  9
$USERI1
 70
     0
  9
$USERI2
 70
     0
  9
$USERI3
 70
     0
  9
$USERI4
 70
     0
  9
$USERI5
 70
     0
  9
$USERR1
 40
0.0
  9
$USERR2
 40
0.0
  9
$USERR3
 40
0.0
  9
$USERR4
 40
0.0
  9
$USERR5
 40
0.0
  9
$WORLDVIEW
 70
     1
  9
$SHADEDGE
 70
     3
  9
$SHADEDIF
 70
    70
  9
$TILEMODE
 70
     1
  9
$MAXACTVP
 70
    64
  9
$PINSBASE
 10
0.0
 20
0.0
 30
0.0
  9
$PLIMCHECK
 70
     0
  9
$PEXTMIN
 10
1.000000000000000E+20
 20
1.000000000000000E+20
 30
1.000000000000000E+20
  9
$PEXTMAX
 10
-1.000000000000000E+20
 20
-1.000000000000000E+20
 30
-1.000000000000000E+20
  9
$PLIMMIN
 10
0.0
 20
0.0
  9
$PLIMMAX
 10
12.0
 20
9.0
  9
$UNITMODE
 70
     0
  9
$VISRETAIN
 70
     1
  9
$PLINEGEN
 70
     0
  9
$PSLTSCALE
 70
     1
  9
$TREEDEPTH
 70
  3020
  9
$CMLSTYLE
  2
Standard
  9
$CMLJUST
 70
     0
  9
$CMLSCALE
 40
1.0
  9
$PROXYGRAPHICS
 70
     1
  9
$MEASUREMENT
 70
     0
  9
$CELWEIGHT
370
    -1
  9
$ENDCAPS
280
     0
  9
$JOINSTYLE
280
     0
  9
$LWDISPLAY
290
     1
  9
$INSUNITS
 70
     4
  9
$HYPERLINKBASE
  1

  9
$STYLESHEET
  1

  9
$XEDIT
290
     1
  9
$CEPSNTYPE
380
     0
  9
$PSTYLEMODE
290
     1
  9
$FINGERPRINTGUID
  2
{59A8F7EE-9D08-224F-8987-E33EEF561954}
  9
$VERSIONGUID
  2
{07AAA3D0-2630-4B4A-B7A6-08B19F86DE7C}
  9
$EXTNAMES
290
     1
  9
$PSVPSCALE
 40
0.0
  9
$OLESTARTUP
290
     0
  9
$SORTENTS
280
   127
  9
$INDEXCTL
280
     0
  9
$HIDETEXT
280
     1
  9
$XCLIPFRAME
280
     2
  9
$HALOGAP
280
     0
  9
$OBSCOLOR
 70
   257
  9
$OBSLTYPE
280
     0
  9
$INTERSECTIONDISPLAY
280
     0
  9
$INTERSECTIONCOLOR
 70
   257
  9
$DIMASSOC
280
     2
  9
$PROJECTNAME
  1

  9
$CAMERADISPLAY
290
     0
  9
$LENSLENGTH
 40
50.0
  9
$CAMERAHEIGHT
 40
0.0
  9
$STEPSPERSEC
 40
2.0
  9
$STEPSIZE
 40
6.0
  9
$3DDWFPREC
 40
2.0
  9
$PSOLWIDTH
 40
0.25
  9
$PSOLHEIGHT
 40
4.0
  9
$LOFTANG1
 40
1.570796326794896
  9
$LOFTANG2
 40
1.570796326794896
  9
$LOFTMAG1
 40
0.0
  9
$LOFTMAG2
 40
0.0
  9
$LOFTPARAM
 70
     7
  9
$LOFTNORMALS
280
     1
  9
$LATITUDE
 40
37.795
  9
$LONGITUDE
 40
-122.394
  9
$NORTHDIRECTION
 40
0.0
  9
$TIMEZONE
 70
 -8000
  9
$LIGHTGLYPHDISPLAY
280
     1
  9
$TILEMODELIGHTSYNCH
280
     1
  9
$CMATERIAL
347
11
  9
$SOLIDHIST
280
     0
  9
$SHOWHIST
280
     1
  9
$DWFFRAME
280
     2
  9
$DGNFRAME
280
     0
  9
$REALWORLDSCALE
290
     1
  9
$INTERFERECOLOR
 62
     1
  9
$INTERFEREOBJVS
345
33
  9
$INTERFEREVPVS
346
30
  9
$CSHADOW
280
     0
  9
$SHADOWPLANELOCATION
 40
0.0
  0
ENDSEC
  0
SECTION
  2
CLASSES
  0
CLASS
  1
ACDBDICTIONARYWDFLT
  2
AcDbDictionaryWithDefault
  3
ObjectDBX Classes
 90
        0
 91
        1
280
     0
281
     0
  0
CLASS
  1
MATERIAL
  2
AcDbMaterial
  3
ObjectDBX Classes
 90
     1153
 91
        3
280
     0
281
     0
  0
CLASS
  1
VISUALSTYLE
  2
AcDbVisualStyle
  3
ObjectDBX Classes
 90
     4095
 91
       24
280
     0
281
     0
  0
CLASS
  1
SCALE
  2
AcDbScale
  3
ObjectDBX Classes
 90
     1153
 91
       17
280
     0
281
     0
  0
CLASS
  1
TABLESTYLE
  2
AcDbTableStyle
  3
ObjectDBX Classes
 90
     4095
 91
        1
280
     0
281
     0
  0
CLASS
  1
MLEADERSTYLE
  2
AcDbMLeaderStyle
  3
ACDB_MLEADERSTYLE_CLASS
 90
     4095
 91
        1
280
     0
281
     0
  0
CLASS
  1
ACDBSECTIONVIEWSTYLE
  2
AcDbSectionViewStyle
  3
ObjectDBX Classes
 90
     1025
 91
        1
280
     0
281
     0
  0
CLASS
  1
ACDBDETAILVIEWSTYLE
  2
AcDbDetailViewStyle
  3
ObjectDBX Classes
 90
     1025
 91
        1
280
     0
281
     0
  0
CLASS
  1
DICTIONARYVAR
  2
AcDbDictionaryVar
  3
ObjectDBX Classes
 90
        0
 91
        5
280
     0
281
     0
  0
CLASS
  1
CELLSTYLEMAP
  2
AcDbCellStyleMap
  3
ObjectDBX Classes
 90
     1152
 91
        1
280
     0
281
     0
  0
ENDSEC
  0
SECTION
  2
TABLES
  0
TABLE
  2
VPORT
  5
8
330
0
100
AcDbSymbolTable
 70
     1
  0
VPORT
  5
57
330
8
100
AcDbSymbolTableRecord
100
AcDbViewportTableRecord
  2
*Active
 70
     0
 10
0.0
 20
0.0
 11
1.0
 21
1.0
 12
0.0
 22
0.0
 13
0.0
 23
0.0
 14
1.0
 24
1.0
 15
0.0
 25
0.0
 16
0.0
 26
0.0
 36
1.0
 17
104.9999999737534
 27
-148.4999999628701
 37
0.0
 40
302.939999924255
 41
0.7070707070707534
 42
50.0
 43
0.0
 44
0.0
 50
0.0
 51
0.0
 71
     0
 72
   100
 73
     1
 74
     0
 75
     1
 76
     0
 77
     0
 78
     0
281
     0
 65
     1
110
0.0
120
0.0
130
0.0
111
1.0
121
0.0
131
0.0
112
0.0
122
1.0
132
0.0
 79
     0
146
0.0
 60
     3
 61
     5
292
     1
282
     1
141
0.0
142
0.0
 63
   250
421
  3355443
  0
ENDTAB
  0
TABLE
  2
LTYPE
  5
5
330
0
100
AcDbSymbolTable
 70
     2
  0
LTYPE
  5
5B
330
5
100
AcDbSymbolTableRecord
100
AcDbLinetypeTableRecord
  2
ByBlock
 70
     0
  3

 72
    65
 73
     0
 40
0.0
  0
LTYPE
  5
5C
330
5
100
AcDbSymbolTableRecord
100
AcDbLinetypeTableRecord
  2
ByLayer
 70
     0
  3

 72
    65
 73
     0
 40
0.0
  0
LTYPE
  5
5D
330
5
100
AcDbSymbolTableRecord
100
AcDbLinetypeTableRecord
  2
Continuous
 70
     0
  3
Solid line
 72
    65
 73
     0
 40
0.0
  0
LTYPE
  5
A5
330
5
100
AcDbSymbolTableRecord
100
AcDbLinetypeTableRecord
  2
AI-Linetype-0
 70
     0
  3
Adobe Illustrator Linetype No. 0
 72
    65
 73
     2
 40
1.411111110758333
 49
0.7055555553791667
 74
     0
 49
-0.7055555553791667
 74
     0
  0
ENDTAB
  0
TABLE
  2
LAYER
  5
2
330
0
100
AcDbSymbolTable
 70
     2
  0
LAYER
  5
54
330
2
100
AcDbSymbolTableRecord
100
AcDbLayerTableRecord
  2
0
 70
     0
 62
     7
  6
Continuous
370
    -3
390
F
347
21
  0
LAYER
  5
78
330
2
100
AcDbSymbolTableRecord
100
AcDbLayerTableRecord
  2
レイヤー 1
 70
     0
 62
     7
  6
Continuous
370
     0
390
F
347
21
  0
ENDTAB
  0
TABLE
  2
STYLE
  5
3
330
0
100
AcDbSymbolTable
 70
     2
  0
STYLE
  5
55
330
3
100
AcDbSymbolTableRecord
100
AcDbTextStyleTableRecord
  2
Standard
 70
     0
 40
0.0
 41
1.0
 50
0.0
 71
     0
 42
0.2
  3
txt
  4

  0
STYLE
  5
5A
330
3
100
AcDbSymbolTableRecord
100
AcDbTextStyleTableRecord
  2
Annotative
 70
     0
 40
0.0
 41
1.0
 50
0.0
 71
     0
 42
0.2
  3
txt
  4

1001
AcadAnnotative
1000
AnnotativeData
1002
{
1070
     1
1070
     1
1002
}
  0
ENDTAB
  0
TABLE
  2
VIEW
  5
6
330
0
100
AcDbSymbolTable
 70
     0
  0
ENDTAB
  0
TABLE
  2
UCS
  5
7
330
0
100
AcDbSymbolTable
 70
     0
  0
ENDTAB
  0
TABLE
  2
APPID
  5
9
330
0
100
AcDbSymbolTable
 70
     2
  0
APPID
  5
56
330
9
100
AcDbSymbolTableRecord
100
AcDbRegAppTableRecord
  2
ACAD
 70
     0
  0
APPID
  5
5E
330
9
100
AcDbSymbolTableRecord
100
AcDbRegAppTableRecord
  2
AcadAnnotative
 70
     0
  0
ENDTAB
  0
TABLE
  2
DIMSTYLE
  5
A
330
0
100
AcDbSymbolTable
 70
     2
100
AcDbDimStyleTable
 71
     0
  0
DIMSTYLE
105
58
330
A
100
AcDbSymbolTableRecord
100
AcDbDimStyleTableRecord
  2
Standard
 70
     0
340
55
  0
DIMSTYLE
105
59
330
A
100
AcDbSymbolTableRecord
100
AcDbDimStyleTableRecord
  2
Annotative
 70
     0
340
55
1001
AcadAnnotative
1000
AnnotativeData
1002
{
1070
     1
1070
     1
1002
}
  0
ENDTAB
  0
TABLE
  2
BLOCK_RECORD
  5
1
330
0
100
AcDbSymbolTable
 70
    10
  0
BLOCK_RECORD
  5
70
330
1
100
AcDbSymbolTableRecord
100
AcDbBlockTableRecord
  2
*Model_Space
340
73
 70
     0
280
     1
281
     0
  0
BLOCK_RECORD
  5
6C
330
1
100
AcDbSymbolTableRecord
100
AcDbBlockTableRecord
  2
*Paper_Space
340
6F
 70
     0
280
     1
281
     0
  0
BLOCK_RECORD
  5
74
330
1
100
AcDbSymbolTableRecord
100
AcDbBlockTableRecord
  2
*Paper_Space0
340
77
 70
     0
280
     1
281
     0
  0
BLOCK_RECORD
  5
79
330
1
100
AcDbSymbolTableRecord
100
AcDbBlockTableRecord
  2
Block_0
340
0
102
{BLKREFS
331
7A
102
}
 70
     0
280
     1
281
     0
  0
BLOCK_RECORD
  5
83
330
1
100
AcDbSymbolTableRecord
100
AcDbBlockTableRecord
  2
Block_1
340
0
102
{BLKREFS
331
84
102
}
 70
     0
280
     1
281
     0
  0
BLOCK_RECORD
  5
8A
330
1
100
AcDbSymbolTableRecord
100
AcDbBlockTableRecord
  2
Block_2
340
0
102
{BLKREFS
331
8B
102
}
 70
     0
280
     1
281
     0
  0
BLOCK_RECORD
  5
90
330
1
100
AcDbSymbolTableRecord
100
AcDbBlockTableRecord
  2
Block_3
340
0
102
{BLKREFS
331
91
102
}
 70
     0
280
     1
281
     0
  0
BLOCK_RECORD
  5
97
330
1
100
AcDbSymbolTableRecord
100
AcDbBlockTableRecord
  2
Block_4
340
0
102
{BLKREFS
331
98
102
}
 70
     0
280
     1
281
     0
  0
BLOCK_RECORD
  5
9B
330
1
100
AcDbSymbolTableRecord
100
AcDbBlockTableRecord
  2
Block_5
340
0
102
{BLKREFS
331
9C
102
}
 70
     0
280
     1
281
     0
  0
BLOCK_RECORD
  5
A6
330
1
100
AcDbSymbolTableRecord
100
AcDbBlockTableRecord
  2
Block_6
340
0
102
{BLKREFS
331
A7
102
}
 70
     0
280
     1
281
     0
  0
BLOCK_RECORD
  5
AD
330
1
100
AcDbSymbolTableRecord
100
AcDbBlockTableRecord
  2
Block_7
340
0
102
{BLKREFS
331
AE
102
}
 70
     0
280
     1
281
     0
  0
BLOCK_RECORD
  5
B1
330
1
100
AcDbSymbolTableRecord
100
AcDbBlockTableRecord
  2
Block_8
340
0
102
{BLKREFS
331
B2
102
}
 70
     0
280
     1
281
     0
  0
ENDTAB
  0
ENDSEC
  0
SECTION
  2
BLOCKS
  0
BLOCK
  5
71
330
70
100
AcDbEntity
  8
0
100
AcDbBlockBegin
  2
*Model_Space
 70
     0
 10
0.0
 20
0.0
 30
0.0
  3
*Model_Space
  1

  0
ENDBLK
  5
72
330
70
100
AcDbEntity
  8
0
100
AcDbBlockEnd
  0
BLOCK
  5
6D
330
6C
100
AcDbEntity
 67
     1
  8
0
100
AcDbBlockBegin
  2
*Paper_Space
 70
     0
 10
0.0
 20
0.0
 30
0.0
  3
*Paper_Space
  1

  0
ENDBLK
  5
6E
330
6C
100
AcDbEntity
 67
     1
  8
0
100
AcDbBlockEnd
  0
BLOCK
  5
75
330
74
100
AcDbEntity
 67
     1
  8
0
100
AcDbBlockBegin
  2
*Paper_Space0
 70
     0
 10
0.0
 20
0.0
 30
0.0
  3
*Paper_Space0
  1

  0
ENDBLK
  5
76
330
74
100
AcDbEntity
 67
     1
  8
0
100
AcDbBlockEnd
  0
BLOCK
  5
7B
330
79
100
AcDbEntity
  8
0
100
AcDbBlockBegin
  2
Block_0
 70
     0
 10
0.0
 20
0.0
 30
0.0
  3
Block_0
  1

  0
LWPOLYLINE
  5
7D
330
79
100
AcDbEntity
  8
レイヤー 1
 62
    18
420
        0
370
    25
100
AcDbPolyline
 90
        4
 70
     1
 43
0.0
 10
100.0121094080491
 20
-154.1878917684907
 10
90.01202357721576
 20
-154.1878917684907
 10
90.01202357721576
 20
-151.1879062674654
 10
100.0121094080491
 20
-151.1879062674654
  0
HATCH
  5
7E
330
79
100
AcDbEntity
  8
レイヤー 1
 62
    19
420
  5188122
440
 33554687
100
AcDbHatch
 10
0.0
 20
0.0
 30
0.0
210
0.0
220
0.0
230
1.0
  2
SOLID
 70
     1
 71
     1
 91
        1
 92
        1
 93
        4
 72
     1
 10
100.0121094080491
 20
-154.1878917684907
 11
90.01202357721576
 21
-154.1878917684907
 72
     1
 10
90.01202357721576
 20
-154.1878917684907
 11
90.01202357721576
 21
-151.1879062674654
 72
     1
 10
90.01202357721576
 20
-151.1879062674654
 11
100.0121094080491
 21
-151.1879062674654
 72
     1
 10
100.0121094080491
 20
-151.1879062674654
 11
100.0121094080491
 21
-154.1878917684907
 97
        1
330
7D
 75
     2
 76
     1
 98
        1
 10
0.0
 20
0.0
450
        0
451
        0
460
0.0
461
0.0
452
        0
462
0.0
453
        0
470

  0
SPLINE
  5
7F
330
79
100
AcDbEntity
  8
レイヤー 1
 62
    18
420
        0
370
     9
100
AcDbSpline
210
0.0
220
0.0
230
1.0
 70
     9
 71
     3
 72
    17
 73
    13
 74
     0
 42
0.0000000001
 43
0.0000000001
 40
0.0
 40
0.0
 40
0.0
 40
0.0
 40
1.0
 40
1.0
 40
1.0
 40
2.0
 40
2.0
 40
2.0
 40
3.0
 40
3.0
 40
3.0
 40
4.0
 40
4.0
 40
4.0
 40
4.0
 10
104.1120927403575
 20
-151.1879062674654
 30
0.0
 10
104.1120927403575
 20
-151.1328023799823
 30
0.0
 10
104.0673252403683
 20
-151.0879996033475
 30
0.0
 10
104.0121860737156
 20
-151.0879996033475
 30
0.0
 10
103.9567294070632
 20
-151.0879996033475
 30
0.0
 10
103.911961907074
 20
-151.1328023799823
 30
0.0
 10
103.911961907074
 20
-151.1879062674654
 30
0.0
 10
103.911961907074
 20
-151.2430454327253
 30
0.0
 10
103.9567294070632
 20
-151.2878129315832
 30
0.0
 10
104.0121860737156
 20
-151.2878129315832
 30
0.0
 10
104.0673252403683
 20
-151.2878129315832
 30
0.0
 10
104.1120927403575
 20
-151.2430454327253
 30
0.0
 10
104.1120927403575
 20
-151.1879062674654
 30
0.0
  0
CIRCLE
  5
80
330
79
100
AcDbEntity
  8
レイヤー 1
 62
    18
420
        0
370
     9
100
AcDbCircle
 10
100.0121094080491
 20
-147.1874769250804
 30
0.0
 40
0.0999066653796162
  0
CIRCLE
  5
81
330
79
100
AcDbEntity
  8
レイヤー 1
 62
    18
420
        0
370
     9
100
AcDbCircle
 10
90.01202357721568
 20
-147.1874769250804
 30
0.0
 40
0.0999066653798568
  0
SPLINE
  5
82
330
79
100
AcDbEntity
  8
レイヤー 1
 62
    18
420
        0
370
     9
100
AcDbSpline
210
0.0
220
0.0
230
1.0
 70
     9
 71
     3
 72
    17
 73
    13
 74
     0
 42
0.0000000001
 43
0.0000000001
 40
0.0
 40
0.0
 40
0.0
 40
0.0
 40
1.0
 40
1.0
 40
1.0
 40
2.0
 40
2.0
 40
2.0
 40
3.0
 40
3.0
 40
3.0
 40
4.0
 40
4.0
 40
4.0
 40
4.0
 10
104.1120927403575
 20
-154.1878917684907
 30
0.0
 10
104.1120927403575
 20
-154.1327892478907
 30
0.0
 10
104.0673252403683
 20
-154.0879864712559
 30
0.0
 10
104.0121860737156
 20
-154.0879864712559
 30
0.0
 10
103.9567294070632
 20
-154.0879864712559
 30
0.0
 10
103.911961907074
 20
-154.1327892478907
 30
0.0
 10
103.911961907074
 20
-154.1878917684907
 30
0.0
 10
103.911961907074
 20
-154.2430323006337
 30
0.0
 10
103.9567294070632
 20
-154.2877997994916
 30
0.0
 10
104.0121860737156
 20
-154.2877997994916
 30
0.0
 10
104.0673252403683
 20
-154.2877997994916
 30
0.0
 10
104.1120927403575
 20
-154.2430323006337
 30
0.0
 10
104.1120927403575
 20
-154.1878917684907
 30
0.0
  0
INSERT
  5
84
330
79
100
AcDbEntity
  8
レイヤー 1
100
AcDbBlockReference
  2
Block_1
 10
0.0
 20
0.0
 30
0.0
  0
INSERT
  5
91
330
79
100
AcDbEntity
  8
レイヤー 1
100
AcDbBlockReference
  2
Block_3
 10
0.0
 20
0.0
 30
0.0
  0
ENDBLK
  5
7C
330
79
100
AcDbEntity
  8
0
100
AcDbBlockEnd
  0
BLOCK
  5
85
330
83
100
AcDbEntity
  8
0
100
AcDbBlockBegin
  2
Block_1
 70
     0
 10
0.0
 20
0.0
 30
0.0
  3
Block_1
  1

  0
LINE
  5
87
330
83
100
AcDbEntity
  8
レイヤー 1
 62
    18
420
        0
370
     9
100
AcDbLine
 10
104.0121860737156
 20
-151.1879062674654
 30
0.0
 11
104.0121860737156
 21
-154.1878917684907
 31
0.0
  0
LINE
  5
88
330
83
100
AcDbEntity
  8
レイヤー 1
 62
    18
420
        0
370
     9
100
AcDbLine
 10
102.5521799629697
 20
-151.1879062674654
 30
0.0
 11
105.0119582956881
 21
-151.1879062674654
 31
0.0
  0
LINE
  5
89
330
83
100
AcDbEntity
  8
レイヤー 1
 62
    18
420
        0
370
     9
100
AcDbLine
 10
102.5521799629697
 20
-154.1878917684907
 30
0.0
 11
105.0119582956881
 21
-154.1878917684907
 31
0.0
  0
INSERT
  5
8B
330
83
100
AcDbEntity
  8
レイヤー 1
100
AcDbBlockReference
  2
Block_2
 10
0.0
 20
0.0
 30
0.0
  0
ENDBLK
  5
86
330
83
100
AcDbEntity
  8
0
100
AcDbBlockEnd
  0
BLOCK
  5
8C
330
8A
100
AcDbEntity
  8
0
100
AcDbBlockBegin
  2
Block_2
 70
     0
 10
0.0
 20
0.0
 30
0.0
  3
Block_2
  1

  0
SPLINE
  5
8E
330
8A
100
AcDbEntity
  8
レイヤー 1
100
AcDbSpline
210
0.0
220
0.0
230
1.0
 70
     9
 71
     3
 72
    62
 73
    58
 74
     0
 42
0.0000000001
 43
0.0000000001
 40
0.0
 40
0.0
 40
0.0
 40
0.0
 40
1.0
 40
1.0
 40
1.0
 40
2.0
 40
2.0
 40
2.0
 40
3.0
 40
3.0
 40
3.0
 40
4.0
 40
4.0
 40
4.0
 40
5.0
 40
5.0
 40
5.0
 40
6.0
 40
6.0
 40
6.0
 40
7.0
 40
7.0
 40
7.0
 40
8.0
 40
8.0
 40
8.0
 40
9.0
 40
9.0
 40
9.0
 40
10.0
 40
10.0
 40
10.0
 40
11.0
 40
11.0
 40
11.0
 40
12.0
 40
12.0
 40
12.0
 40
13.0
 40
13.0
 40
13.0
 40
14.0
 40
14.0
 40
14.0
 40
15.0
 40
15.0
 40
15.0
 40
16.0
 40
16.0
 40
16.0
 40
17.0
 40
17.0
 40
17.0
 40
18.0
 40
18.0
 40
18.0
 40
19.0
 40
19.0
 40
19.0
 40
19.0
 10
102.7115600329158
 20
-152.6976562118256
 30
0.0
 10
102.7115600329158
 20
-152.7992865286404
 30
0.0
 10
102.6905449504558
 20
-153.0321749834433
 30
0.0
 10
102.5045097942523
 20
-153.1655001787225
 30
0.0
 10
102.3921996814332
 20
-153.2447373748832
 30
0.0
 10
102.292980931458
 20
-153.2492159990141
 30
0.0
 10
102.2082315825208
 20
-153.2536946231449
 30
0.0
 10
102.2082315825208
 20
-153.2536946231449
 30
0.0
 10
102.2082315825208
 20
-153.0187391110509
 30
0.0
 10
102.2082315825208
 20
-153.0187391110509
 30
0.0
 10
102.2823011354537
 20
-153.0163275442112
 30
0.0
 10
102.5169121379992
 20
-153.0049587291099
 30
0.0
 10
102.5169121379992
 20
-152.7021348359564
 30
0.0
 10
102.5169121379992
 20
-152.5550292587362
 30
0.0
 10
102.4473212091972
 20
-152.3924207518324
 30
0.0
 10
102.2189113785251
 20
-152.3924207518324
 30
0.0
 10
102.1024671511237
 20
-152.3924207518324
 30
0.0
 10
102.0538913047816
 20
-152.4330728785584
 30
0.0
 10
102.0221964263174
 20
-152.4668348143138
 30
0.0
 10
101.9481268733845
 20
-152.5460720104746
 30
0.0
 10
101.935380020089
 20
-152.6704399574921
 30
0.0
 10
101.935380020089
 20
-152.7293510902899
 30
0.0
 10
101.935380020089
 20
-152.7496771536528
 30
0.0
 10
101.9374470773802
 20
-152.7879177135391
 30
0.0
 10
101.9415811919625
 20
-152.8175455347122
 30
0.0
 10
101.9415811919625
 20
-152.8175455347122
 30
0.0
 10
101.7469332970459
 20
-152.8175455347122
 30
0.0
 10
101.7469332970459
 20
-152.8175455347122
 30
0.0
 10
101.7534789784679
 20
-152.7768934079863
 30
0.0
 10
101.755546035759
 20
-152.731418147581
 30
0.0
 10
101.755546035759
 20
-152.724872466159
 30
0.0
 10
101.755546035759
 20
-152.6545925182599
 30
0.0
 10
101.7341864437505
 20
-152.44203012682
 30
0.0
 10
101.4975083839138
 20
-152.44203012682
 30
0.0
 10
101.3197414568749
 20
-152.44203012682
 30
0.0
 10
101.2646199291109
 20
-152.5822455130697
 30
0.0
 10
101.2646199291109
 20
-152.6997232691167
 30
0.0
 10
101.2646199291109
 20
-152.9825656084557
 30
0.0
 10
101.4975083839138
 20
-152.9915228567174
 30
0.0
 10
101.569166370007
 20
-152.9960014808482
 30
0.0
 10
101.569166370007
 20
-152.9960014808482
 30
0.0
 10
101.569166370007
 20
-153.213042496419
 30
0.0
 10
101.569166370007
 20
-153.213042496419
 30
0.0
 10
101.444453913441
 20
-153.2040852481573
 30
0.0
 10
101.0679049769031
 20
-153.1748019365327
 30
0.0
 10
101.0679049769031
 20
-152.6862873967243
 30
0.0
 10
101.0679049769031
 20
-152.4465087509508
 30
0.0
 10
101.1950290003089
 20
-152.1888156086542
 30
0.0
 10
101.4909627024918
 20
-152.1888156086542
 30
0.0
 10
101.6773423682438
 20
-152.1888156086542
 30
0.0
 10
101.7596801503413
 20
-152.2907904350176
 30
0.0
 10
101.8210028499788
 20
-152.3968993759632
 30
0.0
 10
101.8485636138608
 20
-152.3314425617435
 30
0.0
 10
101.9288343386671
 20
-152.1367946668269
 30
0.0
 10
102.2061645252297
 20
-152.1367946668269
 30
0.0
 10
102.5444729018812
 20
-152.1367946668269
 30
0.0
 10
102.7115600329158
 20
-152.4013780000941
 30
0.0
 10
102.7115600329158
 20
-152.6976562118256
 30
0.0
  0
HATCH
  5
8F
330
8A
100
AcDbEntity
  8
レイヤー 1
 62
    18
420
        0
440
 33554687
100
AcDbHatch
 10
0.0
 20
0.0
 30
0.0
210
0.0
220
0.0
230
1.0
  2
SOLID
 70
     1
 71
     1
 91
        1
 92
        1
 93
        1
 72
     4
 94
        3
 73
     0
 74
     0
 95
       62
 96
       58
 40
0.0
 40
0.0
 40
0.0
 40
0.0
 40
1.0
 40
1.0
 40
1.0
 40
2.0
 40
2.0
 40
2.0
 40
3.0
 40
3.0
 40
3.0
 40
4.0
 40
4.0
 40
4.0
 40
5.0
 40
5.0
 40
5.0
 40
6.0
 40
6.0
 40
6.0
 40
7.0
 40
7.0
 40
7.0
 40
8.0
 40
8.0
 40
8.0
 40
9.0
 40
9.0
 40
9.0
 40
10.0
 40
10.0
 40
10.0
 40
11.0
 40
11.0
 40
11.0
 40
12.0
 40
12.0
 40
12.0
 40
13.0
 40
13.0
 40
13.0
 40
14.0
 40
14.0
 40
14.0
 40
15.0
 40
15.0
 40
15.0
 40
16.0
 40
16.0
 40
16.0
 40
17.0
 40
17.0
 40
17.0
 40
18.0
 40
18.0
 40
18.0
 40
19.0
 40
19.0
 40
19.0
 40
19.0
 10
102.7115600329158
 20
-152.6976562118256
 10
102.7115600329158
 20
-152.7992865286404
 10
102.6905449504558
 20
-153.0321749834433
 10
102.5045097942523
 20
-153.1655001787225
 10
102.3921996814332
 20
-153.2447373748832
 10
102.292980931458
 20
-153.2492159990141
 10
102.2082315825208
 20
-153.2536946231449
 10
102.2082315825208
 20
-153.2536946231449
 10
102.2082315825208
 20
-153.0187391110509
 10
102.2082315825208
 20
-153.0187391110509
 10
102.2823011354537
 20
-153.0163275442112
 10
102.5169121379992
 20
-153.0049587291099
 10
102.5169121379992
 20
-152.7021348359564
 10
102.5169121379992
 20
-152.5550292587362
 10
102.4473212091972
 20
-152.3924207518324
 10
102.2189113785251
 20
-152.3924207518324
 10
102.1024671511237
 20
-152.3924207518324
 10
102.0538913047816
 20
-152.4330728785584
 10
102.0221964263174
 20
-152.4668348143138
 10
101.9481268733845
 20
-152.5460720104746
 10
101.935380020089
 20
-152.6704399574921
 10
101.935380020089
 20
-152.7293510902899
 10
101.935380020089
 20
-152.7496771536528
 10
101.9374470773802
 20
-152.7879177135391
 10
101.9415811919625
 20
-152.8175455347122
 10
101.9415811919625
 20
-152.8175455347122
 10
101.7469332970459
 20
-152.8175455347122
 10
101.7469332970459
 20
-152.8175455347122
 10
101.7534789784679
 20
-152.7768934079863
 10
101.755546035759
 20
-152.731418147581
 10
101.755546035759
 20
-152.724872466159
 10
101.755546035759
 20
-152.6545925182599
 10
101.7341864437505
 20
-152.44203012682
 10
101.4975083839138
 20
-152.44203012682
 10
101.3197414568749
 20
-152.44203012682
 10
101.2646199291109
 20
-152.5822455130697
 10
101.2646199291109
 20
-152.6997232691167
 10
101.2646199291109
 20
-152.9825656084557
 10
101.4975083839138
 20
-152.9915228567174
 10
101.569166370007
 20
-152.9960014808482
 10
101.569166370007
 20
-152.9960014808482
 10
101.569166370007
 20
-153.213042496419
 10
101.569166370007
 20
-153.213042496419
 10
101.444453913441
 20
-153.2040852481573
 10
101.0679049769031
 20
-153.1748019365327
 10
101.0679049769031
 20
-152.6862873967243
 10
101.0679049769031
 20
-152.4465087509508
 10
101.1950290003089
 20
-152.1888156086542
 10
101.4909627024918
 20
-152.1888156086542
 10
101.6773423682438
 20
-152.1888156086542
 10
101.7596801503413
 20
-152.2907904350176
 10
101.8210028499788
 20
-152.3968993759632
 10
101.8485636138608
 20
-152.3314425617435
 10
101.9288343386671
 20
-152.1367946668269
 10
102.2061645252297
 20
-152.1367946668269
 10
102.5444729018812
 20
-152.1367946668269
 10
102.7115600329158
 20
-152.4013780000941
 10
102.7115600329158
 20
-152.6976562118256
 97
        0
 97
        1
330
8E
 75
     2
 76
     1
 98
        1
 10
0.0
 20
0.0
450
        0
451
        0
460
0.0
461
0.0
452
        0
462
0.0
453
        0
470

  0
ENDBLK
  5
8D
330
8A
100
AcDbEntity
  8
0
100
AcDbBlockEnd
  0
BLOCK
  5
92
330
90
100
AcDbEntity
  8
0
100
AcDbBlockBegin
  2
Block_3
 70
     0
 10
0.0
 20
0.0
 30
0.0
  3
Block_3
  1

  0
LINE
  5
94
330
90
100
AcDbEntity
  8
レイヤー 1
 62
    18
420
        0
370
     9
100
AcDbLine
 10
90.01202357721576
 20
-147.1874769250804
 30
0.0
 11
100.0121094080491
 21
-147.1874769250804
 31
0.0
  0
LINE
  5
95
330
90
100
AcDbEntity
  8
レイヤー 1
 62
    18
420
        0
370
     9
100
AcDbLine
 10
90.01202357721576
 20
-148.6475167698758
 30
0.0
 11
90.01202357721576
 21
-146.1877047283645
 31
0.0
  0
LINE
  5
96
330
90
100
AcDbEntity
  8
レイヤー 1
 62
    18
420
        0
370
     9
100
AcDbLine
 10
100.0121094080491
 20
-148.6475167698758
 30
0.0
 11
100.0121094080491
 21
-146.1877047283645
 31
0.0
  0
INSERT
  5
98
330
90
100
AcDbEntity
  8
レイヤー 1
100
AcDbBlockReference
  2
Block_4
 10
0.0
 20
0.0
 30
0.0
  0
ENDBLK
  5
93
330
90
100
AcDbEntity
  8
0
100
AcDbBlockEnd
  0
BLOCK
  5
99
330
97
100
AcDbEntity
  8
0
100
AcDbBlockBegin
  2
Block_4
 70
     0
 10
0.0
 20
0.0
 30
0.0
  3
Block_4
  1

  0
INSERT
  5
9C
330
97
100
AcDbEntity
  8
レイヤー 1
100
AcDbBlockReference
  2
Block_5
 10
0.0
 20
0.0
 30
0.0
  0
ENDBLK
  5
9A
330
97
100
AcDbEntity
  8
0
100
AcDbBlockEnd
  0
BLOCK
  5
9D
330
9B
100
AcDbEntity
  8
0
100
AcDbBlockBegin
  2
Block_5
 70
     0
 10
0.0
 20
0.0
 30
0.0
  3
Block_5
  1

  0
SPLINE
  5
9F
330
9B
100
AcDbEntity
  8
レイヤー 1
100
AcDbSpline
210
0.0
220
0.0
230
1.0
 70
    11
 71
     3
 72
    26
 73
    22
 74
     0
 42
0.0000000001
 43
0.0000000001
 40
0.0
 40
0.0
 40
0.0
 40
0.0
 40
1.0
 40
1.0
 40
1.0
 40
2.0
 40
2.0
 40
2.0
 40
3.0
 40
3.0
 40
3.0
 40
4.0
 40
4.0
 40
4.0
 40
5.0
 40
5.0
 40
5.0
 40
6.0
 40
6.0
 40
6.0
 40
7.0
 40
7.0
 40
7.0
 40
7.0
 10
94.33050399117432
 20
-145.8362317886277
 30
0.0
 10
94.33050399117432
 20
-145.8362317886277
 30
0.0
 10
94.33050399117432
 20
-144.7319064308309
 30
0.0
 10
94.33050399117432
 20
-144.7319064308309
 30
0.0
 10
94.33050399117432
 20
-144.7319064308309
 30
0.0
 10
93.97807072303328
 20
-144.7319064308309
 30
0.0
 10
93.97807072303328
 20
-144.7319064308309
 30
0.0
 10
93.97807072303328
 20
-144.7319064308309
 30
0.0
 10
93.97807072303328
 20
-144.5839395797394
 30
0.0
 10
93.97807072303328
 20
-144.5839395797394
 30
0.0
 10
94.332915558014
 20
-144.5691256691528
 30
0.0
 10
94.3825249330016
 20
-144.4061726527005
 30
0.0
 10
94.41421981146589
 20
-144.2919677373645
 30
0.0
 10
94.41421981146589
 20
-144.2919677373645
 30
0.0
 10
94.57028263694772
 20
-144.2919677373645
 30
0.0
 10
94.57028263694772
 20
-144.2919677373645
 30
0.0
 10
94.57028263694772
 20
-144.2919677373645
 30
0.0
 10
94.57028263694772
 20
-145.8362317886277
 30
0.0
 10
94.57028263694772
 20
-145.8362317886277
 30
0.0
 10
94.57028263694772
 20
-145.8362317886277
 30
0.0
 10
94.33050399117432
 20
-145.8362317886277
 30
0.0
 10
94.33050399117432
 20
-145.8362317886277
 30
0.0
  0
HATCH
  5
A0
330
9B
100
AcDbEntity
  8
レイヤー 1
 62
    18
420
        0
440
 33554687
100
AcDbHatch
 10
0.0
 20
0.0
 30
0.0
210
0.0
220
0.0
230
1.0
  2
SOLID
 70
     1
 71
     1
 91
        1
 92
        1
 93
        1
 72
     4
 94
        3
 73
     0
 74
     0
 95
       26
 96
       22
 40
0.0
 40
0.0
 40
0.0
 40
0.0
 40
1.0
 40
1.0
 40
1.0
 40
2.0
 40
2.0
 40
2.0
 40
3.0
 40
3.0
 40
3.0
 40
4.0
 40
4.0
 40
4.0
 40
5.0
 40
5.0
 40
5.0
 40
6.0
 40
6.0
 40
6.0
 40
7.0
 40
7.0
 40
7.0
 40
7.0
 10
94.33050399117432
 20
-145.8362317886277
 10
94.33050399117432
 20
-145.8362317886277
 10
94.33050399117432
 20
-144.7319064308309
 10
94.33050399117432
 20
-144.7319064308309
 10
94.33050399117432
 20
-144.7319064308309
 10
93.97807072303328
 20
-144.7319064308309
 10
93.97807072303328
 20
-144.7319064308309
 10
93.97807072303328
 20
-144.7319064308309
 10
93.97807072303328
 20
-144.5839395797394
 10
93.97807072303328
 20
-144.5839395797394
 10
94.332915558014
 20
-144.5691256691528
 10
94.3825249330016
 20
-144.4061726527005
 10
94.41421981146589
 20
-144.2919677373645
 10
94.41421981146589
 20
-144.2919677373645
 10
94.57028263694772
 20
-144.2919677373645
 10
94.57028263694772
 20
-144.2919677373645
 10
94.57028263694772
 20
-144.2919677373645
 10
94.57028263694772
 20
-145.8362317886277
 10
94.57028263694772
 20
-145.8362317886277
 10
94.57028263694772
 20
-145.8362317886277
 10
94.33050399117432
 20
-145.8362317886277
 10
94.33050399117432
 20
-145.8362317886277
 97
        0
 97
        1
330
9F
 75
     2
 76
     1
 98
        1
 10
0.0
 20
0.0
450
        0
451
        0
460
0.0
461
0.0
452
        0
462
0.0
453
        0
470

  0
SPLINE
  5
A1
330
9B
100
AcDbEntity
  8
レイヤー 1
100
AcDbSpline
210
0.0
220
0.0
230
1.0
 70
     9
 71
     3
 72
    17
 73
    13
 74
     0
 42
0.0000000001
 43
0.0000000001
 40
0.0
 40
0.0
 40
0.0
 40
0.0
 40
1.0
 40
1.0
 40
1.0
 40
2.0
 40
2.0
 40
2.0
 40
3.0
 40
3.0
 40
3.0
 40
4.0
 40
4.0
 40
4.0
 40
4.0
 10
95.64032929466632
 20
-144.4358004738736
 30
0.0
 10
95.37367890410797
 20
-144.4358004738736
 30
0.0
 10
95.32406952912038
 20
-144.7193318323097
 30
0.0
 10
95.32406952912038
 20
-145.064013635609
 30
0.0
 10
95.32406952912038
 20
-145.3835462418659
 30
0.0
 10
95.36231008900665
 20
-145.6923990521185
 30
0.0
 10
95.64032929466632
 20
-145.6923990521185
 30
0.0
 10
95.90491262793349
 20
-145.6923990521185
 30
0.0
 10
95.95693356976076
 20
-145.4109347509736
 30
0.0
 10
95.95693356976076
 20
-145.064013635609
 30
0.0
 10
95.95693356976076
 20
-144.7446532841263
 30
0.0
 10
95.91628144303482
 20
-144.4358004738736
 30
0.0
 10
95.64032929466632
 20
-144.4358004738736
 30
0.0
  0
SPLINE
  5
A2
330
9B
100
AcDbEntity
  8
レイヤー 1
100
AcDbSpline
210
0.0
220
0.0
230
1.0
 70
     9
 71
     3
 72
    29
 73
    25
 74
     0
 42
0.0000000001
 43
0.0000000001
 40
0.0
 40
0.0
 40
0.0
 40
0.0
 40
1.0
 40
1.0
 40
1.0
 40
2.0
 40
2.0
 40
2.0
 40
3.0
 40
3.0
 40
3.0
 40
4.0
 40
4.0
 40
4.0
 40
5.0
 40
5.0
 40
5.0
 40
6.0
 40
6.0
 40
6.0
 40
7.0
 40
7.0
 40
7.0
 40
8.0
 40
8.0
 40
8.0
 40
8.0
 10
96.06545407754614
 20
-145.6584648615888
 30
0.0
 10
95.95004337879027
 20
-145.867926667092
 30
0.0
 10
95.76469724168383
 20
-145.8870469470352
 30
0.0
 10
95.64032929466632
 20
-145.8870469470352
 30
0.0
 10
95.46876353950088
 20
-145.8870469470352
 30
0.0
 10
95.31717933814986
 20
-145.8405381579843
 30
0.0
 10
95.215549021335
 20
-145.6584648615888
 30
0.0
 10
95.10461694670997
 20
-145.4638169666722
 30
0.0
 10
95.08429088334699
 20
-145.2269666520613
 30
0.0
 10
95.08429088334699
 20
-145.064013635609
 30
0.0
 10
95.08429088334699
 20
-144.9201808990998
 30
0.0
 10
95.10220537987029
 20
-144.6685166739023
 30
0.0
 10
95.215549021335
 20
-144.4695624096291
 30
0.0
 10
95.33061521054234
 20
-144.2664740307737
 30
0.0
 10
95.50252547525632
 20
-144.2432196362482
 30
0.0
 10
95.64032929466632
 20
-144.2432196362482
 30
0.0
 10
95.81017250208914
 20
-144.2432196362482
 30
0.0
 10
95.96382376073128
 20
-144.2876613680079
 30
0.0
 10
96.06545407754614
 20
-144.4695624096291
 30
0.0
 10
96.17190752804036
 20
-144.6621432472546
 30
0.0
 10
96.19671221553417
 20
-144.8905530779267
 30
0.0
 10
96.19671221553417
 20
-145.064013635609
 30
0.0
 10
96.19671221553417
 20
-145.2354071360002
 30
0.0
 10
96.17397458533151
 20
-145.4660562787376
 30
0.0
 10
96.06545407754614
 20
-145.6584648615888
 30
0.0
  0
HATCH
  5
A3
330
9B
100
AcDbEntity
  8
レイヤー 1
 62
    18
420
        0
440
 33554687
100
AcDbHatch
 10
0.0
 20
0.0
 30
0.0
210
0.0
220
0.0
230
1.0
  2
SOLID
 70
     1
 71
     1
 91
        2
 92
        1
 93
        1
 72
     4
 94
        3
 73
     0
 74
     0
 95
       17
 96
       13
 40
0.0
 40
0.0
 40
0.0
 40
0.0
 40
1.0
 40
1.0
 40
1.0
 40
2.0
 40
2.0
 40
2.0
 40
3.0
 40
3.0
 40
3.0
 40
4.0
 40
4.0
 40
4.0
 40
4.0
 10
95.64032929466632
 20
-144.4358004738736
 10
95.37367890410797
 20
-144.4358004738736
 10
95.32406952912038
 20
-144.7193318323097
 10
95.32406952912038
 20
-145.064013635609
 10
95.32406952912038
 20
-145.3835462418659
 10
95.36231008900665
 20
-145.6923990521185
 10
95.64032929466632
 20
-145.6923990521185
 10
95.90491262793349
 20
-145.6923990521185
 10
95.95693356976076
 20
-145.4109347509736
 10
95.95693356976076
 20
-145.064013635609
 10
95.95693356976076
 20
-144.7446532841263
 10
95.91628144303482
 20
-144.4358004738736
 10
95.64032929466632
 20
-144.4358004738736
 97
        0
 97
        1
330
A1
 92
        1
 93
        1
 72
     4
 94
        3
 73
     0
 74
     0
 95
       29
 96
       25
 40
0.0
 40
0.0
 40
0.0
 40
0.0
 40
1.0
 40
1.0
 40
1.0
 40
2.0
 40
2.0
 40
2.0
 40
3.0
 40
3.0
 40
3.0
 40
4.0
 40
4.0
 40
4.0
 40
5.0
 40
5.0
 40
5.0
 40
6.0
 40
6.0
 40
6.0
 40
7.0
 40
7.0
 40
7.0
 40
8.0
 40
8.0
 40
8.0
 40
8.0
 10
96.06545407754614
 20
-145.6584648615888
 10
95.95004337879027
 20
-145.867926667092
 10
95.76469724168383
 20
-145.8870469470352
 10
95.64032929466632
 20
-145.8870469470352
 10
95.46876353950088
 20
-145.8870469470352
 10
95.31717933814986
 20
-145.8405381579843
 10
95.215549021335
 20
-145.6584648615888
 10
95.10461694670997
 20
-145.4638169666722
 10
95.08429088334699
 20
-145.2269666520613
 10
95.08429088334699
 20
-145.064013635609
 10
95.08429088334699
 20
-144.9201808990998
 10
95.10220537987029
 20
-144.6685166739023
 10
95.215549021335
 20
-144.4695624096291
 10
95.33061521054234
 20
-144.2664740307737
 10
95.50252547525632
 20
-144.2432196362482
 10
95.64032929466632
 20
-144.2432196362482
 10
95.81017250208914
 20
-144.2432196362482
 10
95.96382376073128
 20
-144.2876613680079
 10
96.06545407754614
 20
-144.4695624096291
 10
96.17190752804036
 20
-144.6621432472546
 10
96.19671221553417
 20
-144.8905530779267
 10
96.19671221553417
 20
-145.064013635609
 10
96.19671221553417
 20
-145.2354071360002
 10
96.17397458533151
 20
-145.4660562787376
 10
96.06545407754614
 20
-145.6584648615888
 97
        0
 97
        1
330
A2
 75
     2
 76
     1
 98
        1
 10
0.0
 20
0.0
450
        0
451
        0
460
0.0
461
0.0
452
        0
462
0.0
453
        0
470

  0
ENDBLK
  5
9E
330
9B
100
AcDbEntity
  8
0
100
AcDbBlockEnd
  0
BLOCK
  5
A8
330
A6
100
AcDbEntity
  8
0
100
AcDbBlockBegin
  2
Block_6
 70
     0
 10
0.0
 20
0.0
 30
0.0
  3
Block_6
  1

  0
LINE
  5
AA
330
A6
100
AcDbEntity
  8
レイヤー 1
 62
   250
420
  2299925
370
     9
100
AcDbLine
 10
103.9363256458093
 20
-147.4238743186092
 30
0.0
 11
98.09327096380634
 21
-150.4736329573232
 31
0.0
  0
LINE
  5
AB
330
A6
100
AcDbEntity
  8
レイヤー 1
 62
   250
420
  2299925
370
     9
100
AcDbLine
 10
98.82993273363323
 20
-149.7973518390069
 30
0.0
 11
98.09327096380634
 21
-150.4736329573232
 31
0.0
  0
LINE
  5
AC
330
A6
100
AcDbEntity
  8
レイヤー 1
 62
   250
420
  2299925
370
     9
100
AcDbLine
 10
99.06940931719717
 20
-150.2563382016778
 30
0.0
 11
98.09327096380634
 21
-150.4736329573232
 31
0.0
  0
ENDBLK
  5
A9
330
A6
100
AcDbEntity
  8
0
100
AcDbBlockEnd
  0
BLOCK
  5
AF
330
AD
100
AcDbEntity
  8
0
100
AcDbBlockBegin
  2
Block_7
 70
     0
 10
0.0
 20
0.0
 30
0.0
  3
Block_7
  1

  0
INSERT
  5
B2
330
AD
100
AcDbEntity
  8
レイヤー 1
100
AcDbBlockReference
  2
Block_8
 10
0.0
 20
0.0
 30
0.0
  0
ENDBLK
  5
B0
330
AD
100
AcDbEntity
  8
0
100
AcDbBlockEnd
  0
BLOCK
  5
B3
330
B1
100
AcDbEntity
  8
0
100
AcDbBlockBegin
  2
Block_8
 70
     0
 10
0.0
 20
0.0
 30
0.0
  3
Block_8
  1

  0
SPLINE
  5
B5
330
B1
100
AcDbEntity
  8
レイヤー 1
100
AcDbSpline
210
0.0
220
0.0
230
1.0
 70
     9
 71
     3
 72
   176
 73
   172
 74
     0
 42
0.0000000001
 43
0.0000000001
 40
0.0
 40
0.0
 40
0.0
 40
0.0
 40
1.0
 40
1.0
 40
1.0
 40
2.0
 40
2.0
 40
2.0
 40
3.0
 40
3.0
 40
3.0
 40
4.0
 40
4.0
 40
4.0
 40
5.0
 40
5.0
 40
5.0
 40
6.0
 40
6.0
 40
6.0
 40
7.0
 40
7.0
 40
7.0
 40
8.0
 40
8.0
 40
8.0
 40
9.0
 40
9.0
 40
9.0
 40
10.0
 40
10.0
 40
10.0
 40
11.0
 40
11.0
 40
11.0
 40
12.0
 40
12.0
 40
12.0
 40
13.0
 40
13.0
 40
13.0
 40
14.0
 40
14.0
 40
14.0
 40
15.0
 40
15.0
 40
15.0
 40
16.0
 40
16.0
 40
16.0
 40
17.0
 40
17.0
 40
17.0
 40
18.0
 40
18.0
 40
18.0
 40
19.0
 40
19.0
 40
19.0
 40
20.0
 40
20.0
 40
20.0
 40
21.0
 40
21.0
 40
21.0
 40
22.0
 40
22.0
 40
22.0
 40
23.0
 40
23.0
 40
23.0
 40
24.0
 40
24.0
 40
24.0
 40
25.0
 40
25.0
 40
25.0
 40
26.0
 40
26.0
 40
26.0
 40
27.0
 40
27.0
 40
27.0
 40
28.0
 40
28.0
 40
28.0
 40
29.0
 40
29.0
 40
29.0
 40
30.0
 40
30.0
 40
30.0
 40
31.0
 40
31.0
 40
31.0
 40
32.0
 40
32.0
 40
32.0
 40
33.0
 40
33.0
 40
33.0
 40
34.0
 40
34.0
 40
34.0
 40
35.0
 40
35.0
 40
35.0
 40
36.0
 40
36.0
 40
36.0
 40
37.0
 40
37.0
 40
37.0
 40
38.0
 40
38.0
 40
38.0
 40
39.0
 40
39.0
 40
39.0
 40
40.0
 40
40.0
 40
40.0
 40
41.0
 40
41.0
 40
41.0
 40
42.0
 40
42.0
 40
42.0
 40
43.0
 40
43.0
 40
43.0
 40
44.0
 40
44.0
 40
44.0
 40
45.0
 40
45.0
 40
45.0
 40
46.0
 40
46.0
 40
46.0
 40
47.0
 40
47.0
 40
47.0
 40
48.0
 40
48.0
 40
48.0
 40
49.0
 40
49.0
 40
49.0
 40
50.0
 40
50.0
 40
50.0
 40
51.0
 40
51.0
 40
51.0
 40
52.0
 40
52.0
 40
52.0
 40
53.0
 40
53.0
 40
53.0
 40
54.0
 40
54.0
 40
54.0
 40
55.0
 40
55.0
 40
55.0
 40
56.0
 40
56.0
 40
56.0
 40
57.0
 40
57.0
 40
57.0
 40
57.0
 10
105.9108479552931
 20
-146.4094956773733
 30
0.0
 10
105.9108479552931
 20
-146.4094956773733
 30
0.0
 10
105.6993190924988
 20
-146.4094956773733
 30
0.0
 10
105.6993190924988
 20
-146.4094956773733
 30
0.0
 10
105.6993190924988
 20
-146.4094956773733
 30
0.0
 10
105.6993190924988
 20
-146.6401448201108
 30
0.0
 10
105.6993190924988
 20
-146.6401448201108
 30
0.0
 10
105.6993190924988
 20
-146.6401448201108
 30
0.0
 10
105.9108479552931
 20
-146.6401448201108
 30
0.0
 10
105.9108479552931
 20
-146.6401448201108
 30
0.0
 10
105.9532226297617
 20
-146.6401448201108
 30
0.0
 10
105.9787163363525
 20
-146.6422118774019
 30
0.0
 10
106.2009249951511
 20
-146.6358384507542
 30
0.0
 10
106.4124538579455
 20
-146.6296372788808
 30
0.0
 10
106.4355359976967
 20
-146.623263852233
 30
0.0
 10
106.4672308761609
 20
-146.623263852233
 30
0.0
 10
106.4672308761609
 20
-146.6549587306974
 30
0.0
 10
106.4610297042875
 20
-146.7416028821514
 30
0.0
 10
106.4610297042875
 20
-146.8347927150274
 30
0.0
 10
106.4610297042875
 20
-146.8347927150274
 30
0.0
 10
106.4610297042875
 20
-147.4016831771252
 30
0.0
 10
106.4610297042875
 20
-147.4016831771252
 30
0.0
 10
106.4610297042875
 20
-147.8481675520136
 30
0.0
 10
106.4630967615787
 20
-147.8967433983557
 30
0.0
 10
106.4568955897052
 20
-147.9306775888854
 30
0.0
 10
106.4376030549878
 20
-148.0553900454514
 30
0.0
 10
106.3170247130041
 20
-148.059696414808
 30
0.0
 10
106.247433784202
 20
-148.059696414808
 30
0.0
 10
106.19885793786
 20
-148.059696414808
 30
0.0
 10
106.1416693528048
 20
-148.0574571027426
 30
0.0
 10
106.0906819396231
 20
-148.0533229881603
 30
0.0
 10
106.0906819396231
 20
-148.0533229881603
 30
0.0
 10
106.01902395353
 20
-147.8354206987182
 30
0.0
 10
106.01902395353
 20
-147.8354206987182
 30
0.0
 10
106.0634656852897
 20
-147.8438611826571
 30
0.0
 10
106.1585503206826
 20
-147.8607421505348
 30
0.0
 10
106.2091932243157
 20
-147.8607421505348
 30
0.0
 10
106.2663818093709
 20
-147.8607421505348
 30
0.0
 10
106.2663818093709
 20
-147.8311143293616
 30
0.0
 10
106.2663818093709
 20
-147.7529106618465
 30
0.0
 10
106.2663818093709
 20
-147.7529106618465
 30
0.0
 10
106.2663818093709
 20
-146.811538320502
 30
0.0
 10
106.2663818093709
 20
-146.811538320502
 30
0.0
 10
106.2663818093709
 20
-146.811538320502
 30
0.0
 10
105.6993190924988
 20
-146.811538320502
 30
0.0
 10
105.6993190924988
 20
-146.811538320502
 30
0.0
 10
105.6993190924988
 20
-146.811538320502
 30
0.0
 10
105.6993190924988
 20
-147.435617367655
 30
0.0
 10
105.6993190924988
 20
-147.435617367655
 30
0.0
 10
105.6993190924988
 20
-147.435617367655
 30
0.0
 10
105.9087808980019
 20
-147.435617367655
 30
0.0
 10
105.9087808980019
 20
-147.435617367655
 30
0.0
 10
105.9087808980019
 20
-147.435617367655
 30
0.0
 10
105.9087808980019
 20
-147.2261555621518
 30
0.0
 10
105.9087808980019
 20
-147.2261555621518
 30
0.0
 10
105.9087808980019
 20
-147.1605264931578
 30
0.0
 10
105.9067138407108
 20
-147.1160847613981
 30
0.0
 10
105.9025797261285
 20
-146.9786254515366
 30
0.0
 10
105.9025797261285
 20
-146.9786254515366
 30
0.0
 10
106.0927489969143
 20
-146.9934393621232
 30
0.0
 10
106.0927489969143
 20
-146.9934393621232
 30
0.0
 10
106.1054958502097
 20
-146.9934393621232
 30
0.0
 10
106.143736410096
 20
-146.9975734767055
 30
0.0
 10
106.143736410096
 20
-147.0251342405874
 30
0.0
 10
106.143736410096
 20
-147.0483886351129
 30
0.0
 10
106.1182427035051
 20
-147.067508915056
 30
0.0
 10
106.1075629075009
 20
-147.0738823417037
 30
0.0
 10
106.1013617356274
 20
-147.171206289162
 30
0.0
 10
106.1013617356274
 20
-147.1985947982698
 30
0.0
 10
106.1013617356274
 20
-147.2514770139684
 30
0.0
 10
106.1013617356274
 20
-147.2514770139684
 30
0.0
 10
106.1013617356274
 20
-147.3488009614267
 30
0.0
 10
106.1013617356274
 20
-147.3488009614267
 30
0.0
 10
106.1013617356274
 20
-147.3953097504775
 30
0.0
 10
106.1034287929186
 20
-147.4821261567059
 30
0.0
 10
106.1120415316317
 20
-147.625958893215
 30
0.0
 10
106.0379719786988
 20
-147.6238918359239
 30
0.0
 10
105.9215277512974
 20
-147.615451351985
 30
0.0
 10
105.8030164666048
 20
-147.615451351985
 30
0.0
 10
105.8030164666048
 20
-147.615451351985
 30
0.0
 10
105.2891804749798
 20
-147.615451351985
 30
0.0
 10
105.2891804749798
 20
-147.615451351985
 30
0.0
 10
105.2891804749798
 20
-147.636466434445
 30
0.0
 10
105.2933145895621
 20
-147.7212157833822
 30
0.0
 10
105.2933145895621
 20
-147.7380967512599
 30
0.0
 10
105.2933145895621
 20
-147.7380967512599
 30
0.0
 10
105.0817857267677
 20
-147.7380967512599
 30
0.0
 10
105.0817857267677
 20
-147.7380967512599
 30
0.0
 10
105.0903984654808
 20
-147.6767740516225
 30
0.0
 10
105.092465522772
 20
-147.5370754296956
 30
0.0
 10
105.092465522772
 20
-147.4716186154758
 30
0.0
 10
105.092465522772
 20
-147.4716186154758
 30
0.0
 10
105.092465522772
 20
-147.2578504406161
 30
0.0
 10
105.092465522772
 20
-147.2578504406161
 30
0.0
 10
105.092465522772
 20
-147.1732733464532
 30
0.0
 10
105.092465522772
 20
-147.1393391559235
 30
0.0
 10
105.0883314081897
 20
-146.97431908218
 30
0.0
 10
105.0883314081897
 20
-146.97431908218
 30
0.0
 10
105.2891804749798
 20
-146.9870659354755
 30
0.0
 10
105.2891804749798
 20
-146.9870659354755
 30
0.0
 10
105.3422349454526
 20
-146.991372304832
 30
0.0
 10
105.3484361173261
 20
-147.001879846062
 30
0.0
 10
105.3484361173261
 20
-147.0187608139397
 30
0.0
 10
105.3484361173261
 20
-147.0463215778218
 30
0.0
 10
105.3250094680264
 20
-147.0568291190518
 30
0.0
 10
105.2977932136929
 20
-147.0716430296383
 30
0.0
 10
105.2933145895621
 20
-147.1203911307546
 30
0.0
 10
105.2891804749798
 20
-147.1817138303921
 30
0.0
 10
105.2891804749798
 20
-147.2537163260338
 30
0.0
 10
105.2891804749798
 20
-147.2537163260338
 30
0.0
 10
105.2891804749798
 20
-147.435617367655
 30
0.0
 10
105.2891804749798
 20
-147.435617367655
 30
0.0
 10
105.2891804749798
 20
-147.435617367655
 30
0.0
 10
105.4964029684176
 20
-147.435617367655
 30
0.0
 10
105.4964029684176
 20
-147.435617367655
 30
0.0
 10
105.4964029684176
 20
-147.435617367655
 30
0.0
 10
105.4964029684176
 20
-146.811538320502
 30
0.0
 10
105.4964029684176
 20
-146.811538320502
 30
0.0
 10
105.4964029684176
 20
-146.811538320502
 30
0.0
 10
104.912631538442
 20
-146.811538320502
 30
0.0
 10
104.912631538442
 20
-146.811538320502
 30
0.0
 10
104.912631538442
 20
-146.811538320502
 30
0.0
 10
104.912631538442
 20
-147.3763617253087
 30
0.0
 10
104.912631538442
 20
-147.3763617253087
 30
0.0
 10
104.912631538442
 20
-147.5687703081599
 30
0.0
 10
104.912631538442
 20
-147.8903699717079
 30
0.0
 10
104.9212442771551
 20
-148.070203956038
 30
0.0
 10
104.9212442771551
 20
-148.070203956038
 30
0.0
 10
104.6949015037742
 20
-148.070203956038
 30
0.0
 10
104.6949015037742
 20
-148.070203956038
 30
0.0
 10
104.713849528943
 20
-147.9368787607588
 30
0.0
 10
104.7159165862342
 20
-147.6512803450316
 30
0.0
 10
104.7159165862342
 20
-147.6302652625716
 30
0.0
 10
104.7159165862342
 20
-147.6302652625716
 30
0.0
 10
104.7159165862342
 20
-146.8833685613694
 30
0.0
 10
104.7159165862342
 20
-146.8833685613694
 30
0.0
 10
104.7159165862342
 20
-146.7712307033245
 30
0.0
 10
104.7117824716519
 20
-146.6549587306974
 30
0.0
 10
104.7117824716519
 20
-146.623263852233
 30
0.0
 10
104.9084974238597
 20
-146.6337713934631
 30
0.0
 10
105.1579223369917
 20
-146.6401448201108
 30
0.0
 10
105.3570488560392
 20
-146.6401448201108
 30
0.0
 10
105.3570488560392
 20
-146.6401448201108
 30
0.0
 10
105.4964029684176
 20
-146.6401448201108
 30
0.0
 10
105.4964029684176
 20
-146.6401448201108
 30
0.0
 10
105.4964029684176
 20
-146.6401448201108
 30
0.0
 10
105.4964029684176
 20
-146.4094956773733
 30
0.0
 10
105.4964029684176
 20
-146.4094956773733
 30
0.0
 10
105.4964029684176
 20
-146.4094956773733
 30
0.0
 10
105.2743665643932
 20
-146.4094956773733
 30
0.0
 10
105.2743665643932
 20
-146.4094956773733
 30
0.0
 10
105.0690388734723
 20
-146.4094956773733
 30
0.0
 10
104.8278821895048
 20
-146.4094956773733
 30
0.0
 10
104.637712918719
 20
-146.4201754733776
 30
0.0
 10
104.637712918719
 20
-146.4201754733776
 30
0.0
 10
104.637712918719
 20
-146.2296616930433
 30
0.0
 10
104.637712918719
 20
-146.2296616930433
 30
0.0
 10
104.8957505705642
 20
-146.2487819729864
 30
0.0
 10
105.251284424642
 20
-146.2487819729864
 30
0.0
 10
105.2743665643932
 20
-146.2487819729864
 30
0.0
 10
105.2743665643932
 20
-146.2487819729864
 30
0.0
 10
105.9108479552931
 20
-146.2487819729864
 30
0.0
 10
105.9108479552931
 20
-146.2487819729864
 30
0.0
 10
106.1223768180874
 20
-146.2487819729864
 30
0.0
 10
106.3342501904303
 20
-146.2444756036298
 30
0.0
 10
106.5457790532247
 20
-146.2296616930433
 30
0.0
 10
106.5457790532247
 20
-146.2296616930433
 30
0.0
 10
106.5457790532247
 20
-146.4201754733776
 30
0.0
 10
106.5457790532247
 20
-146.4201754733776
 30
0.0
 10
106.3614664447638
 20
-146.4094956773733
 30
0.0
 10
106.1840440272734
 20
-146.4094956773733
 30
0.0
 10
105.9108479552931
 20
-146.4094956773733
 30
0.0
  0
HATCH
  5
B6
330
B1
100
AcDbEntity
  8
レイヤー 1
 62
   250
420
  2299925
440
 33554687
100
AcDbHatch
 10
0.0
 20
0.0
 30
0.0
210
0.0
220
0.0
230
1.0
  2
SOLID
 70
     1
 71
     1
 91
        1
 92
        1
 93
        1
 72
     4
 94
        3
 73
     0
 74
     0
 95
      176
 96
      172
 40
0.0
 40
0.0
 40
0.0
 40
0.0
 40
1.0
 40
1.0
 40
1.0
 40
2.0
 40
2.0
 40
2.0
 40
3.0
 40
3.0
 40
3.0
 40
4.0
 40
4.0
 40
4.0
 40
5.0
 40
5.0
 40
5.0
 40
6.0
 40
6.0
 40
6.0
 40
7.0
 40
7.0
 40
7.0
 40
8.0
 40
8.0
 40
8.0
 40
9.0
 40
9.0
 40
9.0
 40
10.0
 40
10.0
 40
10.0
 40
11.0
 40
11.0
 40
11.0
 40
12.0
 40
12.0
 40
12.0
 40
13.0
 40
13.0
 40
13.0
 40
14.0
 40
14.0
 40
14.0
 40
15.0
 40
15.0
 40
15.0
 40
16.0
 40
16.0
 40
16.0
 40
17.0
 40
17.0
 40
17.0
 40
18.0
 40
18.0
 40
18.0
 40
19.0
 40
19.0
 40
19.0
 40
20.0
 40
20.0
 40
20.0
 40
21.0
 40
21.0
 40
21.0
 40
22.0
 40
22.0
 40
22.0
 40
23.0
 40
23.0
 40
23.0
 40
24.0
 40
24.0
 40
24.0
 40
25.0
 40
25.0
 40
25.0
 40
26.0
 40
26.0
 40
26.0
 40
27.0
 40
27.0
 40
27.0
 40
28.0
 40
28.0
 40
28.0
 40
29.0
 40
29.0
 40
29.0
 40
30.0
 40
30.0
 40
30.0
 40
31.0
 40
31.0
 40
31.0
 40
32.0
 40
32.0
 40
32.0
 40
33.0
 40
33.0
 40
33.0
 40
34.0
 40
34.0
 40
34.0
 40
35.0
 40
35.0
 40
35.0
 40
36.0
 40
36.0
 40
36.0
 40
37.0
 40
37.0
 40
37.0
 40
38.0
 40
38.0
 40
38.0
 40
39.0
 40
39.0
 40
39.0
 40
40.0
 40
40.0
 40
40.0
 40
41.0
 40
41.0
 40
41.0
 40
42.0
 40
42.0
 40
42.0
 40
43.0
 40
43.0
 40
43.0
 40
44.0
 40
44.0
 40
44.0
 40
45.0
 40
45.0
 40
45.0
 40
46.0
 40
46.0
 40
46.0
 40
47.0
 40
47.0
 40
47.0
 40
48.0
 40
48.0
 40
48.0
 40
49.0
 40
49.0
 40
49.0
 40
50.0
 40
50.0
 40
50.0
 40
51.0
 40
51.0
 40
51.0
 40
52.0
 40
52.0
 40
52.0
 40
53.0
 40
53.0
 40
53.0
 40
54.0
 40
54.0
 40
54.0
 40
55.0
 40
55.0
 40
55.0
 40
56.0
 40
56.0
 40
56.0
 40
57.0
 40
57.0
 40
57.0
 40
57.0
 10
105.9108479552931
 20
-146.4094956773733
 10
105.9108479552931
 20
-146.4094956773733
 10
105.6993190924988
 20
-146.4094956773733
 10
105.6993190924988
 20
-146.4094956773733
 10
105.6993190924988
 20
-146.4094956773733
 10
105.6993190924988
 20
-146.6401448201108
 10
105.6993190924988
 20
-146.6401448201108
 10
105.6993190924988
 20
-146.6401448201108
 10
105.9108479552931
 20
-146.6401448201108
 10
105.9108479552931
 20
-146.6401448201108
 10
105.9532226297617
 20
-146.6401448201108
 10
105.9787163363525
 20
-146.6422118774019
 10
106.2009249951511
 20
-146.6358384507542
 10
106.4124538579455
 20
-146.6296372788808
 10
106.4355359976967
 20
-146.623263852233
 10
106.4672308761609
 20
-146.623263852233
 10
106.4672308761609
 20
-146.6549587306974
 10
106.4610297042875
 20
-146.7416028821514
 10
106.4610297042875
 20
-146.8347927150274
 10
106.4610297042875
 20
-146.8347927150274
 10
106.4610297042875
 20
-147.4016831771252
 10
106.4610297042875
 20
-147.4016831771252
 10
106.4610297042875
 20
-147.8481675520136
 10
106.4630967615787
 20
-147.8967433983557
 10
106.4568955897052
 20
-147.9306775888854
 10
106.4376030549878
 20
-148.0553900454514
 10
106.3170247130041
 20
-148.059696414808
 10
106.247433784202
 20
-148.059696414808
 10
106.19885793786
 20
-148.059696414808
 10
106.1416693528048
 20
-148.0574571027426
 10
106.0906819396231
 20
-148.0533229881603
 10
106.0906819396231
 20
-148.0533229881603
 10
106.01902395353
 20
-147.8354206987182
 10
106.01902395353
 20
-147.8354206987182
 10
106.0634656852897
 20
-147.8438611826571
 10
106.1585503206826
 20
-147.8607421505348
 10
106.2091932243157
 20
-147.8607421505348
 10
106.2663818093709
 20
-147.8607421505348
 10
106.2663818093709
 20
-147.8311143293616
 10
106.2663818093709
 20
-147.7529106618465
 10
106.2663818093709
 20
-147.7529106618465
 10
106.2663818093709
 20
-146.811538320502
 10
106.2663818093709
 20
-146.811538320502
 10
106.2663818093709
 20
-146.811538320502
 10
105.6993190924988
 20
-146.811538320502
 10
105.6993190924988
 20
-146.811538320502
 10
105.6993190924988
 20
-146.811538320502
 10
105.6993190924988
 20
-147.435617367655
 10
105.6993190924988
 20
-147.435617367655
 10
105.6993190924988
 20
-147.435617367655
 10
105.9087808980019
 20
-147.435617367655
 10
105.9087808980019
 20
-147.435617367655
 10
105.9087808980019
 20
-147.435617367655
 10
105.9087808980019
 20
-147.2261555621518
 10
105.9087808980019
 20
-147.2261555621518
 10
105.9087808980019
 20
-147.1605264931578
 10
105.9067138407108
 20
-147.1160847613981
 10
105.9025797261285
 20
-146.9786254515366
 10
105.9025797261285
 20
-146.9786254515366
 10
106.0927489969143
 20
-146.9934393621232
 10
106.0927489969143
 20
-146.9934393621232
 10
106.1054958502097
 20
-146.9934393621232
 10
106.143736410096
 20
-146.9975734767055
 10
106.143736410096
 20
-147.0251342405874
 10
106.143736410096
 20
-147.0483886351129
 10
106.1182427035051
 20
-147.067508915056
 10
106.1075629075009
 20
-147.0738823417037
 10
106.1013617356274
 20
-147.171206289162
 10
106.1013617356274
 20
-147.1985947982698
 10
106.1013617356274
 20
-147.2514770139684
 10
106.1013617356274
 20
-147.2514770139684
 10
106.1013617356274
 20
-147.3488009614267
 10
106.1013617356274
 20
-147.3488009614267
 10
106.1013617356274
 20
-147.3953097504775
 10
106.1034287929186
 20
-147.4821261567059
 10
106.1120415316317
 20
-147.625958893215
 10
106.0379719786988
 20
-147.6238918359239
 10
105.9215277512974
 20
-147.615451351985
 10
105.8030164666048
 20
-147.615451351985
 10
105.8030164666048
 20
-147.615451351985
 10
105.2891804749798
 20
-147.615451351985
 10
105.2891804749798
 20
-147.615451351985
 10
105.2891804749798
 20
-147.636466434445
 10
105.2933145895621
 20
-147.7212157833822
 10
105.2933145895621
 20
-147.7380967512599
 10
105.2933145895621
 20
-147.7380967512599
 10
105.0817857267677
 20
-147.7380967512599
 10
105.0817857267677
 20
-147.7380967512599
 10
105.0903984654808
 20
-147.6767740516225
 10
105.092465522772
 20
-147.5370754296956
 10
105.092465522772
 20
-147.4716186154758
 10
105.092465522772
 20
-147.4716186154758
 10
105.092465522772
 20
-147.2578504406161
 10
105.092465522772
 20
-147.2578504406161
 10
105.092465522772
 20
-147.1732733464532
 10
105.092465522772
 20
-147.1393391559235
 10
105.0883314081897
 20
-146.97431908218
 10
105.0883314081897
 20
-146.97431908218
 10
105.2891804749798
 20
-146.9870659354755
 10
105.2891804749798
 20
-146.9870659354755
 10
105.3422349454526
 20
-146.991372304832
 10
105.3484361173261
 20
-147.001879846062
 10
105.3484361173261
 20
-147.0187608139397
 10
105.3484361173261
 20
-147.0463215778218
 10
105.3250094680264
 20
-147.0568291190518
 10
105.2977932136929
 20
-147.0716430296383
 10
105.2933145895621
 20
-147.1203911307546
 10
105.2891804749798
 20
-147.1817138303921
 10
105.2891804749798
 20
-147.2537163260338
 10
105.2891804749798
 20
-147.2537163260338
 10
105.2891804749798
 20
-147.435617367655
 10
105.2891804749798
 20
-147.435617367655
 10
105.2891804749798
 20
-147.435617367655
 10
105.4964029684176
 20
-147.435617367655
 10
105.4964029684176
 20
-147.435617367655
 10
105.4964029684176
 20
-147.435617367655
 10
105.4964029684176
 20
-146.811538320502
 10
105.4964029684176
 20
-146.811538320502
 10
105.4964029684176
 20
-146.811538320502
 10
104.912631538442
 20
-146.811538320502
 10
104.912631538442
 20
-146.811538320502
 10
104.912631538442
 20
-146.811538320502
 10
104.912631538442
 20
-147.3763617253087
 10
104.912631538442
 20
-147.3763617253087
 10
104.912631538442
 20
-147.5687703081599
 10
104.912631538442
 20
-147.8903699717079
 10
104.9212442771551
 20
-148.070203956038
 10
104.9212442771551
 20
-148.070203956038
 10
104.6949015037742
 20
-148.070203956038
 10
104.6949015037742
 20
-148.070203956038
 10
104.713849528943
 20
-147.9368787607588
 10
104.7159165862342
 20
-147.6512803450316
 10
104.7159165862342
 20
-147.6302652625716
 10
104.7159165862342
 20
-147.6302652625716
 10
104.7159165862342
 20
-146.8833685613694
 10
104.7159165862342
 20
-146.8833685613694
 10
104.7159165862342
 20
-146.7712307033245
 10
104.7117824716519
 20
-146.6549587306974
 10
104.7117824716519
 20
-146.623263852233
 10
104.9084974238597
 20
-146.6337713934631
 10
105.1579223369917
 20
-146.6401448201108
 10
105.3570488560392
 20
-146.6401448201108
 10
105.3570488560392
 20
-146.6401448201108
 10
105.4964029684176
 20
-146.6401448201108
 10
105.4964029684176
 20
-146.6401448201108
 10
105.4964029684176
 20
-146.6401448201108
 10
105.4964029684176
 20
-146.4094956773733
 10
105.4964029684176
 20
-146.4094956773733
 10
105.4964029684176
 20
-146.4094956773733
 10
105.2743665643932
 20
-146.4094956773733
 10
105.2743665643932
 20
-146.4094956773733
 10
105.0690388734723
 20
-146.4094956773733
 10
104.8278821895048
 20
-146.4094956773733
 10
104.637712918719
 20
-146.4201754733776
 10
104.637712918719
 20
-146.4201754733776
 10
104.637712918719
 20
-146.2296616930433
 10
104.637712918719
 20
-146.2296616930433
 10
104.8957505705642
 20
-146.2487819729864
 10
105.251284424642
 20
-146.2487819729864
 10
105.2743665643932
 20
-146.2487819729864
 10
105.2743665643932
 20
-146.2487819729864
 10
105.9108479552931
 20
-146.2487819729864
 10
105.9108479552931
 20
-146.2487819729864
 10
106.1223768180874
 20
-146.2487819729864
 10
106.3342501904303
 20
-146.2444756036298
 10
106.5457790532247
 20
-146.2296616930433
 10
106.5457790532247
 20
-146.2296616930433
 10
106.5457790532247
 20
-146.4201754733776
 10
106.5457790532247
 20
-146.4201754733776
 10
106.3614664447638
 20
-146.4094956773733
 10
106.1840440272734
 20
-146.4094956773733
 10
105.9108479552931
 20
-146.4094956773733
 97
        0
 97
        1
330
B5
 75
     2
 76
     1
 98
        1
 10
0.0
 20
0.0
450
        0
451
        0
460
0.0
461
0.0
452
        0
462
0.0
453
        0
470

  0
SPLINE
  5
B7
330
B1
100
AcDbEntity
  8
レイヤー 1
100
AcDbSpline
210
0.0
220
0.0
230
1.0
 70
    11
 71
     3
 72
    17
 73
    13
 74
     0
 42
0.0000000001
 43
0.0000000001
 40
0.0
 40
0.0
 40
0.0
 40
0.0
 40
1.0
 40
1.0
 40
1.0
 40
2.0
 40
2.0
 40
2.0
 40
3.0
 40
3.0
 40
3.0
 40
4.0
 40
4.0
 40
4.0
 40
4.0
 10
108.3916612142215
 20
-146.8411661416751
 30
0.0
 10
108.3916612142215
 20
-146.8411661416751
 30
0.0
 10
108.1163980849501
 20
-146.8411661416751
 30
0.0
 10
108.1163980849501
 20
-146.8411661416751
 30
0.0
 10
108.1163980849501
 20
-146.8411661416751
 30
0.0
 10
108.1163980849501
 20
-147.7424031206165
 30
0.0
 10
108.1163980849501
 20
-147.7424031206165
 30
0.0
 10
108.1163980849501
 20
-147.7424031206165
 30
0.0
 10
108.3916612142215
 20
-147.7424031206165
 30
0.0
 10
108.3916612142215
 20
-147.7424031206165
 30
0.0
 10
108.3916612142215
 20
-147.7424031206165
 30
0.0
 10
108.3916612142215
 20
-146.8411661416751
 30
0.0
 10
108.3916612142215
 20
-146.8411661416751
 30
0.0
  0
SPLINE
  5
B8
330
B1
100
AcDbEntity
  8
レイヤー 1
100
AcDbSpline
210
0.0
220
0.0
230
1.0
 70
    11
 71
     3
 72
    17
 73
    13
 74
     0
 42
0.0000000001
 43
0.0000000001
 40
0.0
 40
0.0
 40
0.0
 40
0.0
 40
1.0
 40
1.0
 40
1.0
 40
2.0
 40
2.0
 40
2.0
 40
3.0
 40
3.0
 40
3.0
 40
4.0
 40
4.0
 40
4.0
 40
4.0
 10
107.9303629287466
 20
-147.5434488563433
 30
0.0
 10
107.9303629287466
 20
-147.5434488563433
 30
0.0
 10
107.4776773819847
 20
-147.5434488563433
 30
0.0
 10
107.4776773819847
 20
-147.5434488563433
 30
0.0
 10
107.4776773819847
 20
-147.5434488563433
 30
0.0
 10
107.4776773819847
 20
-147.7424031206165
 30
0.0
 10
107.4776773819847
 20
-147.7424031206165
 30
0.0
 10
107.4776773819847
 20
-147.7424031206165
 30
0.0
 10
107.9303629287466
 20
-147.7424031206165
 30
0.0
 10
107.9303629287466
 20
-147.7424031206165
 30
0.0
 10
107.9303629287466
 20
-147.7424031206165
 30
0.0
 10
107.9303629287466
 20
-147.5434488563433
 30
0.0
 10
107.9303629287466
 20
-147.5434488563433
 30
0.0
  0
SPLINE
  5
B9
330
B1
100
AcDbEntity
  8
レイヤー 1
100
AcDbSpline
210
0.0
220
0.0
230
1.0
 70
    11
 71
     3
 72
    17
 73
    13
 74
     0
 42
0.0000000001
 43
0.0000000001
 40
0.0
 40
0.0
 40
0.0
 40
0.0
 40
1.0
 40
1.0
 40
1.0
 40
2.0
 40
2.0
 40
2.0
 40
3.0
 40
3.0
 40
3.0
 40
4.0
 40
4.0
 40
4.0
 40
4.0
 10
107.9303629287466
 20
-147.1922213716221
 30
0.0
 10
107.9303629287466
 20
-147.1922213716221
 30
0.0
 10
107.4776773819847
 20
-147.1922213716221
 30
0.0
 10
107.4776773819847
 20
-147.1922213716221
 30
0.0
 10
107.4776773819847
 20
-147.1922213716221
 30
0.0
 10
107.4776773819847
 20
-147.3827351519564
 30
0.0
 10
107.4776773819847
 20
-147.3827351519564
 30
0.0
 10
107.4776773819847
 20
-147.3827351519564
 30
0.0
 10
107.9303629287466
 20
-147.3827351519564
 30
0.0
 10
107.9303629287466
 20
-147.3827351519564
 30
0.0
 10
107.9303629287466
 20
-147.3827351519564
 30
0.0
 10
107.9303629287466
 20
-147.1922213716221
 30
0.0
 10
107.9303629287466
 20
-147.1922213716221
 30
0.0
  0
SPLINE
  5
BA
330
B1
100
AcDbEntity
  8
レイヤー 1
100
AcDbSpline
210
0.0
220
0.0
230
1.0
 70
    11
 71
     3
 72
    17
 73
    13
 74
     0
 42
0.0000000001
 43
0.0000000001
 40
0.0
 40
0.0
 40
0.0
 40
0.0
 40
1.0
 40
1.0
 40
1.0
 40
2.0
 40
2.0
 40
2.0
 40
3.0
 40
3.0
 40
3.0
 40
4.0
 40
4.0
 40
4.0
 40
4.0
 10
107.9303629287466
 20
-146.8411661416751
 30
0.0
 10
107.9303629287466
 20
-146.8411661416751
 30
0.0
 10
107.4776773819847
 20
-146.8411661416751
 30
0.0
 10
107.4776773819847
 20
-146.8411661416751
 30
0.0
 10
107.4776773819847
 20
-146.8411661416751
 30
0.0
 10
107.4776773819847
 20
-147.0315076672352
 30
0.0
 10
107.4776773819847
 20
-147.0315076672352
 30
0.0
 10
107.4776773819847
 20
-147.0315076672352
 30
0.0
 10
107.9303629287466
 20
-147.0315076672352
 30
0.0
 10
107.9303629287466
 20
-147.0315076672352
 30
0.0
 10
107.9303629287466
 20
-147.0315076672352
 30
0.0
 10
107.9303629287466
 20
-146.8411661416751
 30
0.0
 10
107.9303629287466
 20
-146.8411661416751
 30
0.0
  0
SPLINE
  5
BB
330
B1
100
AcDbEntity
  8
レイヤー 1
100
AcDbSpline
210
0.0
220
0.0
230
1.0
 70
    11
 71
     3
 72
    17
 73
    13
 74
     0
 42
0.0000000001
 43
0.0000000001
 40
0.0
 40
0.0
 40
0.0
 40
0.0
 40
1.0
 40
1.0
 40
1.0
 40
2.0
 40
2.0
 40
2.0
 40
3.0
 40
3.0
 40
3.0
 40
4.0
 40
4.0
 40
4.0
 40
4.0
 10
107.301977512237
 20
-146.8411661416751
 30
0.0
 10
107.301977512237
 20
-146.8411661416751
 30
0.0
 10
107.027058892514
 20
-146.8411661416751
 30
0.0
 10
107.027058892514
 20
-146.8411661416751
 30
0.0
 10
107.027058892514
 20
-146.8411661416751
 30
0.0
 10
107.027058892514
 20
-147.7424031206165
 30
0.0
 10
107.027058892514
 20
-147.7424031206165
 30
0.0
 10
107.027058892514
 20
-147.7424031206165
 30
0.0
 10
107.301977512237
 20
-147.7424031206165
 30
0.0
 10
107.301977512237
 20
-147.7424031206165
 30
0.0
 10
107.301977512237
 20
-147.7424031206165
 30
0.0
 10
107.301977512237
 20
-146.8411661416751
 30
0.0
 10
107.301977512237
 20
-146.8411661416751
 30
0.0
  0
SPLINE
  5
BC
330
B1
100
AcDbEntity
  8
レイヤー 1
100
AcDbSpline
210
0.0
220
0.0
230
1.0
 70
     9
 71
     3
 72
    89
 73
    85
 74
     0
 42
0.0000000001
 43
0.0000000001
 40
0.0
 40
0.0
 40
0.0
 40
0.0
 40
1.0
 40
1.0
 40
1.0
 40
2.0
 40
2.0
 40
2.0
 40
3.0
 40
3.0
 40
3.0
 40
4.0
 40
4.0
 40
4.0
 40
5.0
 40
5.0
 40
5.0
 40
6.0
 40
6.0
 40
6.0
 40
7.0
 40
7.0
 40
7.0
 40
8.0
 40
8.0
 40
8.0
 40
9.0
 40
9.0
 40
9.0
 40
10.0
 40
10.0
 40
10.0
 40
11.0
 40
11.0
 40
11.0
 40
12.0
 40
12.0
 40
12.0
 40
13.0
 40
13.0
 40
13.0
 40
14.0
 40
14.0
 40
14.0
 40
15.0
 40
15.0
 40
15.0
 40
16.0
 40
16.0
 40
16.0
 40
17.0
 40
17.0
 40
17.0
 40
18.0
 40
18.0
 40
18.0
 40
19.0
 40
19.0
 40
19.0
 40
20.0
 40
20.0
 40
20.0
 40
21.0
 40
21.0
 40
21.0
 40
22.0
 40
22.0
 40
22.0
 40
23.0
 40
23.0
 40
23.0
 40
24.0
 40
24.0
 40
24.0
 40
25.0
 40
25.0
 40
25.0
 40
26.0
 40
26.0
 40
26.0
 40
27.0
 40
27.0
 40
27.0
 40
28.0
 40
28.0
 40
28.0
 40
28.0
 10
107.9810058323797
 20
-146.3905476522044
 30
0.0
 10
107.9810058323797
 20
-146.3905476522044
 30
0.0
 10
107.8225314400582
 20
-146.3905476522044
 30
0.0
 10
107.8225314400582
 20
-146.3905476522044
 30
0.0
 10
107.7949706761762
 20
-146.5004461981839
 30
0.0
 10
107.7908365615939
 20
-146.519566478127
 30
0.0
 10
107.7315809192476
 20
-146.6718396985751
 30
0.0
 10
107.7315809192476
 20
-146.6718396985751
 30
0.0
 10
107.970670545924
 20
-146.6718396985751
 30
0.0
 10
107.970670545924
 20
-146.6718396985751
 30
0.0
 10
108.0254475641394
 20
-146.6718396985751
 30
0.0
 10
108.2604030762335
 20
-146.6654662719274
 30
0.0
 10
108.3069118652844
 20
-146.6654662719274
 30
0.0
 10
108.473998996319
 20
-146.6613321573451
 30
0.0
 10
108.5353216959564
 20
-146.6549587306974
 30
0.0
 10
108.5925102810116
 20
-146.6485853040496
 30
0.0
 10
108.5863091091381
 20
-146.7354017102779
 30
0.0
 10
108.5818304850073
 20
-147.0315076672352
 30
0.0
 10
108.5818304850073
 20
-147.1308986719846
 30
0.0
 10
108.5818304850073
 20
-147.1308986719846
 30
0.0
 10
108.5818304850073
 20
-147.5751437348076
 30
0.0
 10
108.5818304850073
 20
-147.5751437348076
 30
0.0
 10
108.5818304850073
 20
-147.6027044986896
 30
0.0
 10
108.5838975422984
 20
-147.7041625607302
 30
0.0
 10
108.5883761664293
 20
-147.7825384830197
 30
0.0
 10
108.5945773383027
 20
-147.8988104556468
 30
0.0
 10
108.6031900770158
 20
-148.0193887976305
 30
0.0
 10
108.605257134307
 20
-148.0553900454514
 30
0.0
 10
108.605257134307
 20
-148.0553900454514
 30
0.0
 10
108.3682345649218
 20
-148.0553900454514
 30
0.0
 10
108.3682345649218
 20
-148.0553900454514
 30
0.0
 10
108.3768473036349
 20
-148.0173217403394
 30
0.0
 10
108.3851155327995
 20
-147.955999040702
 30
0.0
 10
108.3892496473818
 20
-147.9136243662334
 30
0.0
 10
108.3892496473818
 20
-147.9136243662334
 30
0.0
 10
107.027058892514
 20
-147.9136243662334
 30
0.0
 10
107.027058892514
 20
-147.9136243662334
 30
0.0
 10
107.0291259498052
 20
-147.9728800085797
 30
0.0
 10
107.0291259498052
 20
-147.9792534352274
 30
0.0
 10
107.0353271216786
 20
-148.0533229881603
 30
0.0
 10
107.0353271216786
 20
-148.0533229881603
 30
0.0
 10
106.8237982588843
 20
-148.0533229881603
 30
0.0
 10
106.8237982588843
 20
-148.0533229881603
 30
0.0
 10
106.8430907936017
 20
-147.9031168250034
 30
0.0
 10
106.8451578508929
 20
-147.778232113663
 30
0.0
 10
106.8451578508929
 20
-147.577383046873
 30
0.0
 10
106.8451578508929
 20
-147.577383046873
 30
0.0
 10
106.8451578508929
 20
-147.2049682249175
 30
0.0
 10
106.8451578508929
 20
-147.2049682249175
 30
0.0
 10
106.8451578508929
 20
-147.0695759723472
 30
0.0
 10
106.8365451121797
 20
-146.7712307033245
 30
0.0
 10
106.8303439403063
 20
-146.6549587306974
 30
0.0
 10
107.0163790965098
 20
-146.6677055839928
 30
0.0
 10
107.3167914228235
 20
-146.6718396985751
 30
0.0
 10
107.5114393177402
 20
-146.6718396985751
 30
0.0
 10
107.5517469349176
 20
-146.5872626044122
 30
0.0
 10
107.5941216093862
 20
-146.4730576890762
 30
0.0
 10
107.6110025772639
 20
-146.3905476522044
 30
0.0
 10
107.6110025772639
 20
-146.3905476522044
 30
0.0
 10
107.405674886343
 20
-146.3905476522044
 30
0.0
 10
107.405674886343
 20
-146.3905476522044
 30
0.0
 10
107.1603840877932
 20
-146.3905476522044
 30
0.0
 10
106.9764159888809
 20
-146.3905476522044
 30
0.0
 10
106.7772894698334
 20
-146.4201754733776
 30
0.0
 10
106.7772894698334
 20
-146.4201754733776
 30
0.0
 10
106.7772894698334
 20
-146.2107136678744
 30
0.0
 10
106.7772894698334
 20
-146.2107136678744
 30
0.0
 10
106.8895995826526
 20
-146.2275946357521
 30
0.0
 10
107.3825927465918
 20
-146.2296616930433
 30
0.0
 10
107.4246229115119
 20
-146.2296616930433
 30
0.0
 10
107.4246229115119
 20
-146.2296616930433
 30
0.0
 10
107.9875515138017
 20
-146.2296616930433
 30
0.0
 10
107.9875515138017
 20
-146.2296616930433
 30
0.0
 10
108.040261474726
 20
-146.2296616930433
 30
0.0
 10
108.4443711751458
 20
-146.2234605211698
 30
0.0
 10
108.5163736707875
 20
-146.2212212091044
 30
0.0
 10
108.5735622558427
 20
-146.2191541518133
 30
0.0
 10
108.6011230197247
 20
-146.2148477824567
 30
0.0
 10
108.6476318087756
 20
-146.2086466105832
 30
0.0
 10
108.6476318087756
 20
-146.2086466105832
 30
0.0
 10
108.6476318087756
 20
-146.4074286200822
 30
0.0
 10
108.6476318087756
 20
-146.4074286200822
 30
0.0
 10
108.4402370605635
 20
-146.3926147094956
 30
0.0
 10
107.9958197429663
 20
-146.3905476522044
 30
0.0
 10
107.9810058323797
 20
-146.3905476522044
 30
0.0
  0
HATCH
  5
BD
330
B1
100
AcDbEntity
  8
レイヤー 1
 62
   250
420
  2299925
440
 33554687
100
AcDbHatch
 10
0.0
 20
0.0
 30
0.0
210
0.0
220
0.0
230
1.0
  2
SOLID
 70
     1
 71
     1
 91
        6
 92
        1
 93
        1
 72
     4
 94
        3
 73
     0
 74
     0
 95
       17
 96
       13
 40
0.0
 40
0.0
 40
0.0
 40
0.0
 40
1.0
 40
1.0
 40
1.0
 40
2.0
 40
2.0
 40
2.0
 40
3.0
 40
3.0
 40
3.0
 40
4.0
 40
4.0
 40
4.0
 40
4.0
 10
108.3916612142215
 20
-146.8411661416751
 10
108.3916612142215
 20
-146.8411661416751
 10
108.1163980849501
 20
-146.8411661416751
 10
108.1163980849501
 20
-146.8411661416751
 10
108.1163980849501
 20
-146.8411661416751
 10
108.1163980849501
 20
-147.7424031206165
 10
108.1163980849501
 20
-147.7424031206165
 10
108.1163980849501
 20
-147.7424031206165
 10
108.3916612142215
 20
-147.7424031206165
 10
108.3916612142215
 20
-147.7424031206165
 10
108.3916612142215
 20
-147.7424031206165
 10
108.3916612142215
 20
-146.8411661416751
 10
108.3916612142215
 20
-146.8411661416751
 97
        0
 97
        1
330
B7
 92
        1
 93
        1
 72
     4
 94
        3
 73
     0
 74
     0
 95
       17
 96
       13
 40
0.0
 40
0.0
 40
0.0
 40
0.0
 40
1.0
 40
1.0
 40
1.0
 40
2.0
 40
2.0
 40
2.0
 40
3.0
 40
3.0
 40
3.0
 40
4.0
 40
4.0
 40
4.0
 40
4.0
 10
107.9303629287466
 20
-147.5434488563433
 10
107.9303629287466
 20
-147.5434488563433
 10
107.4776773819847
 20
-147.5434488563433
 10
107.4776773819847
 20
-147.5434488563433
 10
107.4776773819847
 20
-147.5434488563433
 10
107.4776773819847
 20
-147.7424031206165
 10
107.4776773819847
 20
-147.7424031206165
 10
107.4776773819847
 20
-147.7424031206165
 10
107.9303629287466
 20
-147.7424031206165
 10
107.9303629287466
 20
-147.7424031206165
 10
107.9303629287466
 20
-147.7424031206165
 10
107.9303629287466
 20
-147.5434488563433
 10
107.9303629287466
 20
-147.5434488563433
 97
        0
 97
        1
330
B8
 92
        1
 93
        1
 72
     4
 94
        3
 73
     0
 74
     0
 95
       17
 96
       13
 40
0.0
 40
0.0
 40
0.0
 40
0.0
 40
1.0
 40
1.0
 40
1.0
 40
2.0
 40
2.0
 40
2.0
 40
3.0
 40
3.0
 40
3.0
 40
4.0
 40
4.0
 40
4.0
 40
4.0
 10
107.9303629287466
 20
-147.1922213716221
 10
107.9303629287466
 20
-147.1922213716221
 10
107.4776773819847
 20
-147.1922213716221
 10
107.4776773819847
 20
-147.1922213716221
 10
107.4776773819847
 20
-147.1922213716221
 10
107.4776773819847
 20
-147.3827351519564
 10
107.4776773819847
 20
-147.3827351519564
 10
107.4776773819847
 20
-147.3827351519564
 10
107.9303629287466
 20
-147.3827351519564
 10
107.9303629287466
 20
-147.3827351519564
 10
107.9303629287466
 20
-147.3827351519564
 10
107.9303629287466
 20
-147.1922213716221
 10
107.9303629287466
 20
-147.1922213716221
 97
        0
 97
        1
330
B9
 92
        1
 93
        1
 72
     4
 94
        3
 73
     0
 74
     0
 95
       17
 96
       13
 40
0.0
 40
0.0
 40
0.0
 40
0.0
 40
1.0
 40
1.0
 40
1.0
 40
2.0
 40
2.0
 40
2.0
 40
3.0
 40
3.0
 40
3.0
 40
4.0
 40
4.0
 40
4.0
 40
4.0
 10
107.9303629287466
 20
-146.8411661416751
 10
107.9303629287466
 20
-146.8411661416751
 10
107.4776773819847
 20
-146.8411661416751
 10
107.4776773819847
 20
-146.8411661416751
 10
107.4776773819847
 20
-146.8411661416751
 10
107.4776773819847
 20
-147.0315076672352
 10
107.4776773819847
 20
-147.0315076672352
 10
107.4776773819847
 20
-147.0315076672352
 10
107.9303629287466
 20
-147.0315076672352
 10
107.9303629287466
 20
-147.0315076672352
 10
107.9303629287466
 20
-147.0315076672352
 10
107.9303629287466
 20
-146.8411661416751
 10
107.9303629287466
 20
-146.8411661416751
 97
        0
 97
        1
330
BA
 92
        1
 93
        1
 72
     4
 94
        3
 73
     0
 74
     0
 95
       17
 96
       13
 40
0.0
 40
0.0
 40
0.0
 40
0.0
 40
1.0
 40
1.0
 40
1.0
 40
2.0
 40
2.0
 40
2.0
 40
3.0
 40
3.0
 40
3.0
 40
4.0
 40
4.0
 40
4.0
 40
4.0
 10
107.301977512237
 20
-146.8411661416751
 10
107.301977512237
 20
-146.8411661416751
 10
107.027058892514
 20
-146.8411661416751
 10
107.027058892514
 20
-146.8411661416751
 10
107.027058892514
 20
-146.8411661416751
 10
107.027058892514
 20
-147.7424031206165
 10
107.027058892514
 20
-147.7424031206165
 10
107.027058892514
 20
-147.7424031206165
 10
107.301977512237
 20
-147.7424031206165
 10
107.301977512237
 20
-147.7424031206165
 10
107.301977512237
 20
-147.7424031206165
 10
107.301977512237
 20
-146.8411661416751
 10
107.301977512237
 20
-146.8411661416751
 97
        0
 97
        1
330
BB
 92
        1
 93
        1
 72
     4
 94
        3
 73
     0
 74
     0
 95
       89
 96
       85
 40
0.0
 40
0.0
 40
0.0
 40
0.0
 40
1.0
 40
1.0
 40
1.0
 40
2.0
 40
2.0
 40
2.0
 40
3.0
 40
3.0
 40
3.0
 40
4.0
 40
4.0
 40
4.0
 40
5.0
 40
5.0
 40
5.0
 40
6.0
 40
6.0
 40
6.0
 40
7.0
 40
7.0
 40
7.0
 40
8.0
 40
8.0
 40
8.0
 40
9.0
 40
9.0
 40
9.0
 40
10.0
 40
10.0
 40
10.0
 40
11.0
 40
11.0
 40
11.0
 40
12.0
 40
12.0
 40
12.0
 40
13.0
 40
13.0
 40
13.0
 40
14.0
 40
14.0
 40
14.0
 40
15.0
 40
15.0
 40
15.0
 40
16.0
 40
16.0
 40
16.0
 40
17.0
 40
17.0
 40
17.0
 40
18.0
 40
18.0
 40
18.0
 40
19.0
 40
19.0
 40
19.0
 40
20.0
 40
20.0
 40
20.0
 40
21.0
 40
21.0
 40
21.0
 40
22.0
 40
22.0
 40
22.0
 40
23.0
 40
23.0
 40
23.0
 40
24.0
 40
24.0
 40
24.0
 40
25.0
 40
25.0
 40
25.0
 40
26.0
 40
26.0
 40
26.0
 40
27.0
 40
27.0
 40
27.0
 40
28.0
 40
28.0
 40
28.0
 40
28.0
 10
107.9810058323797
 20
-146.3905476522044
 10
107.9810058323797
 20
-146.3905476522044
 10
107.8225314400582
 20
-146.3905476522044
 10
107.8225314400582
 20
-146.3905476522044
 10
107.7949706761762
 20
-146.5004461981839
 10
107.7908365615939
 20
-146.519566478127
 10
107.7315809192476
 20
-146.6718396985751
 10
107.7315809192476
 20
-146.6718396985751
 10
107.970670545924
 20
-146.6718396985751
 10
107.970670545924
 20
-146.6718396985751
 10
108.0254475641394
 20
-146.6718396985751
 10
108.2604030762335
 20
-146.6654662719274
 10
108.3069118652844
 20
-146.6654662719274
 10
108.473998996319
 20
-146.6613321573451
 10
108.5353216959564
 20
-146.6549587306974
 10
108.5925102810116
 20
-146.6485853040496
 10
108.5863091091381
 20
-146.7354017102779
 10
108.5818304850073
 20
-147.0315076672352
 10
108.5818304850073
 20
-147.1308986719846
 10
108.5818304850073
 20
-147.1308986719846
 10
108.5818304850073
 20
-147.5751437348076
 10
108.5818304850073
 20
-147.5751437348076
 10
108.5818304850073
 20
-147.6027044986896
 10
108.5838975422984
 20
-147.7041625607302
 10
108.5883761664293
 20
-147.7825384830197
 10
108.5945773383027
 20
-147.8988104556468
 10
108.6031900770158
 20
-148.0193887976305
 10
108.605257134307
 20
-148.0553900454514
 10
108.605257134307
 20
-148.0553900454514
 10
108.3682345649218
 20
-148.0553900454514
 10
108.3682345649218
 20
-148.0553900454514
 10
108.3768473036349
 20
-148.0173217403394
 10
108.3851155327995
 20
-147.955999040702
 10
108.3892496473818
 20
-147.9136243662334
 10
108.3892496473818
 20
-147.9136243662334
 10
107.027058892514
 20
-147.9136243662334
 10
107.027058892514
 20
-147.9136243662334
 10
107.0291259498052
 20
-147.9728800085797
 10
107.0291259498052
 20
-147.9792534352274
 10
107.0353271216786
 20
-148.0533229881603
 10
107.0353271216786
 20
-148.0533229881603
 10
106.8237982588843
 20
-148.0533229881603
 10
106.8237982588843
 20
-148.0533229881603
 10
106.8430907936017
 20
-147.9031168250034
 10
106.8451578508929
 20
-147.778232113663
 10
106.8451578508929
 20
-147.577383046873
 10
106.8451578508929
 20
-147.577383046873
 10
106.8451578508929
 20
-147.2049682249175
 10
106.8451578508929
 20
-147.2049682249175
 10
106.8451578508929
 20
-147.0695759723472
 10
106.8365451121797
 20
-146.7712307033245
 10
106.8303439403063
 20
-146.6549587306974
 10
107.0163790965098
 20
-146.6677055839928
 10
107.3167914228235
 20
-146.6718396985751
 10
107.5114393177402
 20
-146.6718396985751
 10
107.5517469349176
 20
-146.5872626044122
 10
107.5941216093862
 20
-146.4730576890762
 10
107.6110025772639
 20
-146.3905476522044
 10
107.6110025772639
 20
-146.3905476522044
 10
107.405674886343
 20
-146.3905476522044
 10
107.405674886343
 20
-146.3905476522044
 10
107.1603840877932
 20
-146.3905476522044
 10
106.9764159888809
 20
-146.3905476522044
 10
106.7772894698334
 20
-146.4201754733776
 10
106.7772894698334
 20
-146.4201754733776
 10
106.7772894698334
 20
-146.2107136678744
 10
106.7772894698334
 20
-146.2107136678744
 10
106.8895995826526
 20
-146.2275946357521
 10
107.3825927465918
 20
-146.2296616930433
 10
107.4246229115119
 20
-146.2296616930433
 10
107.4246229115119
 20
-146.2296616930433
 10
107.9875515138017
 20
-146.2296616930433
 10
107.9875515138017
 20
-146.2296616930433
 10
108.040261474726
 20
-146.2296616930433
 10
108.4443711751458
 20
-146.2234605211698
 10
108.5163736707875
 20
-146.2212212091044
 10
108.5735622558427
 20
-146.2191541518133
 10
108.6011230197247
 20
-146.2148477824567
 10
108.6476318087756
 20
-146.2086466105832
 10
108.6476318087756
 20
-146.2086466105832
 10
108.6476318087756
 20
-146.4074286200822
 10
108.6476318087756
 20
-146.4074286200822
 10
108.4402370605635
 20
-146.3926147094956
 10
107.9958197429663
 20
-146.3905476522044
 10
107.9810058323797
 20
-146.3905476522044
 97
        0
 97
        1
330
BC
 75
     2
 76
     1
 98
        1
 10
0.0
 20
0.0
450
        0
451
        0
460
0.0
461
0.0
452
        0
462
0.0
453
        0
470

  0
SPLINE
  5
BE
330
B1
100
AcDbEntity
  8
レイヤー 1
100
AcDbSpline
210
0.0
220
0.0
230
1.0
 70
     9
 71
     3
 72
    17
 73
    13
 74
     0
 42
0.0000000001
 43
0.0000000001
 40
0.0
 40
0.0
 40
0.0
 40
0.0
 40
1.0
 40
1.0
 40
1.0
 40
2.0
 40
2.0
 40
2.0
 40
3.0
 40
3.0
 40
3.0
 40
4.0
 40
4.0
 40
4.0
 40
4.0
 10
110.0067219777066
 20
-147.3742946680175
 30
0.0
 10
109.9898410098289
 20
-147.4037502344164
 30
0.0
 10
109.9391981061957
 20
-147.4969400672924
 30
0.0
 10
109.9285183101915
 20
-147.5158880924613
 30
0.0
 10
110.1190320905258
 20
-147.5751437348076
 30
0.0
 10
110.1400471729858
 20
-147.5815171614553
 30
0.0
 10
110.2120496686275
 20
-147.6090779253373
 30
0.0
 10
110.2671711963915
 20
-147.522261519109
 30
0.0
 10
110.2902533361427
 20
-147.4481919661761
 30
0.0
 10
110.3050672467293
 20
-147.3742946680175
 30
0.0
 10
110.3050672467293
 20
-147.3742946680175
 30
0.0
 10
110.0067219777066
 20
-147.3742946680175
 30
0.0
 10
110.0067219777066
 20
-147.3742946680175
 30
0.0
  0
SPLINE
  5
BF
330
B1
100
AcDbEntity
  8
レイヤー 1
100
AcDbSpline
210
0.0
220
0.0
230
1.0
 70
    11
 71
     3
 72
    20
 73
    16
 74
     0
 42
0.0000000001
 43
0.0000000001
 40
0.0
 40
0.0
 40
0.0
 40
0.0
 40
1.0
 40
1.0
 40
1.0
 40
2.0
 40
2.0
 40
2.0
 40
3.0
 40
3.0
 40
3.0
 40
4.0
 40
4.0
 40
4.0
 40
5.0
 40
5.0
 40
5.0
 40
5.0
 10
109.943332220778
 20
-146.5238728474836
 30
0.0
 10
109.943332220778
 20
-146.5238728474836
 30
0.0
 10
109.9116373423137
 20
-146.5238728474836
 30
0.0
 10
109.9116373423137
 20
-146.5238728474836
 30
0.0
 10
109.9581461313646
 20
-146.623263852233
 30
0.0
 10
109.9898410098289
 20
-146.7035345770394
 30
0.0
 10
110.0236029455844
 20
-146.8304863456708
 30
0.0
 10
110.0236029455844
 20
-146.8304863456708
 30
0.0
 10
110.2309976937964
 20
-146.8304863456708
 30
0.0
 10
110.2309976937964
 20
-146.8304863456708
 30
0.0
 10
110.2626925722607
 20
-146.7374687675691
 30
0.0
 10
110.2861192215604
 20
-146.6528916734062
 30
0.0
 10
110.3092013613116
 20
-146.5238728474836
 30
0.0
 10
110.3092013613116
 20
-146.5238728474836
 30
0.0
 10
109.943332220778
 20
-146.5238728474836
 30
0.0
 10
109.943332220778
 20
-146.5238728474836
 30
0.0
  0
SPLINE
  5
C0
330
B1
100
AcDbEntity
  8
レイヤー 1
100
AcDbSpline
210
0.0
220
0.0
230
1.0
 70
     9
 71
     3
 72
   242
 73
   238
 74
     0
 42
0.0000000001
 43
0.0000000001
 40
0.0
 40
0.0
 40
0.0
 40
0.0
 40
1.0
 40
1.0
 40
1.0
 40
2.0
 40
2.0
 40
2.0
 40
3.0
 40
3.0
 40
3.0
 40
4.0
 40
4.0
 40
4.0
 40
5.0
 40
5.0
 40
5.0
 40
6.0
 40
6.0
 40
6.0
 40
7.0
 40
7.0
 40
7.0
 40
8.0
 40
8.0
 40
8.0
 40
9.0
 40
9.0
 40
9.0
 40
10.0
 40
10.0
 40
10.0
 40
11.0
 40
11.0
 40
11.0
 40
12.0
 40
12.0
 40
12.0
 40
13.0
 40
13.0
 40
13.0
 40
14.0
 40
14.0
 40
14.0
 40
15.0
 40
15.0
 40
15.0
 40
16.0
 40
16.0
 40
16.0
 40
17.0
 40
17.0
 40
17.0
 40
18.0
 40
18.0
 40
18.0
 40
19.0
 40
19.0
 40
19.0
 40
20.0
 40
20.0
 40
20.0
 40
21.0
 40
21.0
 40
21.0
 40
22.0
 40
22.0
 40
22.0
 40
23.0
 40
23.0
 40
23.0
 40
24.0
 40
24.0
 40
24.0
 40
25.0
 40
25.0
 40
25.0
 40
26.0
 40
26.0
 40
26.0
 40
27.0
 40
27.0
 40
27.0
 40
28.0
 40
28.0
 40
28.0
 40
29.0
 40
29.0
 40
29.0
 40
30.0
 40
30.0
 40
30.0
 40
31.0
 40
31.0
 40
31.0
 40
32.0
 40
32.0
 40
32.0
 40
33.0
 40
33.0
 40
33.0
 40
34.0
 40
34.0
 40
34.0
 40
35.0
 40
35.0
 40
35.0
 40
36.0
 40
36.0
 40
36.0
 40
37.0
 40
37.0
 40
37.0
 40
38.0
 40
38.0
 40
38.0
 40
39.0
 40
39.0
 40
39.0
 40
40.0
 40
40.0
 40
40.0
 40
41.0
 40
41.0
 40
41.0
 40
42.0
 40
42.0
 40
42.0
 40
43.0
 40
43.0
 40
43.0
 40
44.0
 40
44.0
 40
44.0
 40
45.0
 40
45.0
 40
45.0
 40
46.0
 40
46.0
 40
46.0
 40
47.0
 40
47.0
 40
47.0
 40
48.0
 40
48.0
 40
48.0
 40
49.0
 40
49.0
 40
49.0
 40
50.0
 40
50.0
 40
50.0
 40
51.0
 40
51.0
 40
51.0
 40
52.0
 40
52.0
 40
52.0
 40
53.0
 40
53.0
 40
53.0
 40
54.0
 40
54.0
 40
54.0
 40
55.0
 40
55.0
 40
55.0
 40
56.0
 40
56.0
 40
56.0
 40
57.0
 40
57.0
 40
57.0
 40
58.0
 40
58.0
 40
58.0
 40
59.0
 40
59.0
 40
59.0
 40
60.0
 40
60.0
 40
60.0
 40
61.0
 40
61.0
 40
61.0
 40
62.0
 40
62.0
 40
62.0
 40
63.0
 40
63.0
 40
63.0
 40
64.0
 40
64.0
 40
64.0
 40
65.0
 40
65.0
 40
65.0
 40
66.0
 40
66.0
 40
66.0
 40
67.0
 40
67.0
 40
67.0
 40
68.0
 40
68.0
 40
68.0
 40
69.0
 40
69.0
 40
69.0
 40
70.0
 40
70.0
 40
70.0
 40
71.0
 40
71.0
 40
71.0
 40
72.0
 40
72.0
 40
72.0
 40
73.0
 40
73.0
 40
73.0
 40
74.0
 40
74.0
 40
74.0
 40
75.0
 40
75.0
 40
75.0
 40
76.0
 40
76.0
 40
76.0
 40
77.0
 40
77.0
 40
77.0
 40
78.0
 40
78.0
 40
78.0
 40
79.0
 40
79.0
 40
79.0
 40
79.0
 10
110.5717176372876
 20
-146.9891329927666
 30
0.0
 10
110.5717176372876
 20
-146.9891329927666
 30
0.0
 10
110.3178141000247
 20
-146.9891329927666
 30
0.0
 10
110.3178141000247
 20
-146.9891329927666
 30
0.0
 10
110.3178141000247
 20
-146.9891329927666
 30
0.0
 10
110.0408284230106
 20
-146.9891329927666
 30
0.0
 10
110.0408284230106
 20
-146.9891329927666
 30
0.0
 10
110.0408284230106
 20
-146.9891329927666
 30
0.0
 10
110.1676079368678
 20
-147.0315076672352
 30
0.0
 10
110.1676079368678
 20
-147.0315076672352
 30
0.0
 10
110.1782877328721
 20
-147.0358140365917
 30
0.0
 10
110.1910345861675
 20
-147.0420152084652
 30
0.0
 10
110.1910345861675
 20
-147.0547620617606
 30
0.0
 10
110.1910345861675
 20
-147.0759493989949
 30
0.0
 10
110.1589951981547
 20
-147.0823228256426
 30
0.0
 10
110.1379801156946
 20
-147.0864569402249
 30
0.0
 10
110.1273003196904
 20
-147.1097113347503
 30
0.0
 10
110.0976724985172
 20
-147.1753404037444
 30
0.0
 10
110.0787244733483
 20
-147.2197821355041
 30
0.0
 10
110.0787244733483
 20
-147.2197821355041
 30
0.0
 10
110.349508978489
 20
-147.2197821355041
 30
0.0
 10
110.349508978489
 20
-147.2197821355041
 30
0.0
 10
110.4404594992996
 20
-147.2197821355041
 30
0.0
 10
110.6371744515074
 20
-147.2154757661475
 30
0.0
 10
110.7791123854996
 20
-147.2070352822086
 30
0.0
 10
110.7791123854996
 20
-147.2070352822086
 30
0.0
 10
110.7791123854996
 20
-147.3848022092475
 30
0.0
 10
110.7791123854996
 20
-147.3848022092475
 30
0.0
 10
110.6964300938537
 20
-147.380495839891
 30
0.0
 10
110.6754150113936
 20
-147.380495839891
 30
0.0
 10
110.4955810270636
 20
-147.3763617253087
 30
0.0
 10
110.4638861485993
 20
-147.5307020030478
 30
0.0
 10
110.4194444168395
 20
-147.6111449826285
 30
0.0
 10
110.3750026850798
 20
-147.6809081662048
 30
0.0
 10
110.4955810270636
 20
-147.7401638085511
 30
0.0
 10
110.6013454584608
 20
-147.8078599348362
 30
0.0
 10
110.7050428325668
 20
-147.8903699717079
 30
0.0
 10
110.7050428325668
 20
-147.8903699717079
 30
0.0
 10
110.5865315478742
 20
-148.0574571027426
 30
0.0
 10
110.5865315478742
 20
-148.0574571027426
 30
0.0
 10
110.5631048985745
 20
-148.0385090775737
 30
0.0
 10
110.5503580452791
 20
-148.0300685936348
 30
0.0
 10
110.4383924420084
 20
-147.9453192446977
 30
0.0
 10
110.3898165956664
 20
-147.9072509395856
 30
0.0
 10
110.3305609533201
 20
-147.8714219465391
 30
0.0
 10
110.2499457189653
 20
-147.8269802147794
 30
0.0
 10
110.0384168561709
 20
-148.0131876257571
 30
0.0
 10
109.8334336747986
 20
-148.0364420202825
 30
0.0
 10
109.5433566349405
 20
-148.0660698414557
 30
0.0
 10
109.5433566349405
 20
-148.0660698414557
 30
0.0
 10
109.440003770383
 20
-147.8862358571257
 30
0.0
 10
109.440003770383
 20
-147.8862358571257
 30
0.0
 10
109.7572970645745
 20
-147.8819294877691
 30
0.0
 10
109.9326524247738
 20
-147.8566080359525
 30
0.0
 10
110.0849256452218
 20
-147.7465372351988
 30
0.0
 10
109.9667588700777
 20
-147.6957220767913
 30
0.0
 10
109.8778754065583
 20
-147.6683335676836
 30
0.0
 10
109.8417019039632
 20
-147.6555867143882
 30
0.0
 10
109.8227538787943
 20
-147.6831474782702
 30
0.0
 10
109.8079399682077
 20
-147.702095503439
 30
0.0
 10
109.7803792043257
 20
-147.7360296939688
 30
0.0
 10
109.7803792043257
 20
-147.7360296939688
 30
0.0
 10
109.583664252118
 20
-147.653519657097
 30
0.0
 10
109.583664252118
 20
-147.653519657097
 30
0.0
 10
109.6663465437639
 20
-147.5730766775164
 30
0.0
 10
109.7276692434014
 20
-147.4778197873493
 30
0.0
 10
109.784513318908
 20
-147.3763617253087
 30
0.0
 10
109.5943440481222
 20
-147.380495839891
 30
0.0
 10
109.5729844561137
 20
-147.380495839891
 30
0.0
 10
109.4906466740162
 20
-147.3848022092475
 30
0.0
 10
109.4906466740162
 20
-147.3848022092475
 30
0.0
 10
109.4906466740162
 20
-147.2070352822086
 30
0.0
 10
109.4906466740162
 20
-147.2070352822086
 30
0.0
 10
109.6301730411688
 20
-147.2134087088563
 30
0.0
 10
109.839634846672
 20
-147.2177150782129
 30
0.0
 10
109.8651285532629
 20
-147.2177150782129
 30
0.0
 10
109.8820095211406
 20
-147.1837808876832
 30
0.0
 10
109.9371310489046
 20
-147.0632025456995
 30
0.0
 10
109.9560790740735
 20
-146.9891329927666
 30
0.0
 10
109.9371310489046
 20
-146.9891329927666
 30
0.0
 10
109.7593641218657
 20
-146.9955064194143
 30
0.0
 10
109.5647162269491
 20
-147.0082532727097
 30
0.0
 10
109.5647162269491
 20
-147.0082532727097
 30
0.0
 10
109.5647162269491
 20
-147.1415784679889
 30
0.0
 10
109.5647162269491
 20
-147.1415784679889
 30
0.0
 10
109.5161403806071
 20
-147.1668999198055
 30
0.0
 10
109.4568847382608
 20
-147.1985947982698
 30
0.0
 10
109.3235595429816
 20
-147.2642238672638
 30
0.0
 10
109.3235595429816
 20
-147.2642238672638
 30
0.0
 10
109.3235595429816
 20
-147.4101236610641
 30
0.0
 10
109.3235595429816
 20
-147.4101236610641
 30
0.0
 10
109.3235595429816
 20
-147.4101236610641
 30
0.0
 10
109.3235595429816
 20
-147.8777953731868
 30
0.0
 10
109.3235595429816
 20
-147.8777953731868
 30
0.0
 10
109.3235595429816
 20
-148.004574887044
 30
0.0
 10
109.2873860403865
 20
-148.0638305293903
 30
0.0
 10
109.0041991914989
 20
-148.0553900454514
 30
0.0
 10
109.0041991914989
 20
-148.0553900454514
 30
0.0
 10
108.9005018173929
 20
-147.8481675520136
 30
0.0
 10
108.9005018173929
 20
-147.8481675520136
 30
0.0
 10
108.9638915743215
 20
-147.8607421505348
 30
0.0
 10
109.0124674206635
 20
-147.8650485198914
 30
0.0
 10
109.0527750378409
 20
-147.8650485198914
 30
0.0
 10
109.128911648065
 20
-147.8650485198914
 30
0.0
 10
109.1395914440692
 20
-147.8417941253659
 30
0.0
 10
109.1395914440692
 20
-147.7761650563719
 30
0.0
 10
109.1395914440692
 20
-147.7761650563719
 30
0.0
 10
109.1395914440692
 20
-147.3467339041355
 30
0.0
 10
109.1395914440692
 20
-147.3467339041355
 30
0.0
 10
109.0420952418367
 20
-147.3868692665387
 30
0.0
 10
109.025214273959
 20
-147.3932426931864
 30
0.0
 10
108.9787054849081
 20
-147.4123629731295
 30
0.0
 10
108.9745713703258
 20
-147.4333780555896
 30
0.0
 10
108.970092746195
 20
-147.4630058767627
 30
0.0
 10
108.9511447210261
 20
-147.4630058767627
 30
0.0
 10
108.9428764918615
 20
-147.4630058767627
 30
0.0
 10
108.9321966958572
 20
-147.4588717621804
 30
0.0
 10
108.9256510144352
 20
-147.435617367655
 30
0.0
 10
108.9256510144352
 20
-147.435617367655
 30
0.0
 10
108.8729410535109
 20
-147.2430365300295
 30
0.0
 10
108.8729410535109
 20
-147.2430365300295
 30
0.0
 10
109.0190131020855
 20
-147.1965277409786
 30
0.0
 10
109.0844699163053
 20
-147.1732733464532
 30
0.0
 10
109.1395914440692
 20
-147.1520860092189
 30
0.0
 10
109.1395914440692
 20
-147.1520860092189
 30
0.0
 10
109.1395914440692
 20
-146.7395358248603
 30
0.0
 10
109.1395914440692
 20
-146.7395358248603
 30
0.0
 10
109.1395914440692
 20
-146.7395358248603
 30
0.0
 10
109.0865369735964
 20
-146.7395358248603
 30
0.0
 10
109.0865369735964
 20
-146.7395358248603
 30
0.0
 10
109.0865369735964
 20
-146.7395358248603
 30
0.0
 10
109.0083333060812
 20
-146.7395358248603
 30
0.0
 10
109.0083333060812
 20
-146.7395358248603
 30
0.0
 10
108.9404649250218
 20
-146.7395358248603
 30
0.0
 10
108.9321966958572
 20
-146.7395358248603
 30
0.0
 10
108.8960231932621
 20
-146.745909251508
 30
0.0
 10
108.8960231932621
 20
-146.745909251508
 30
0.0
 10
108.8960231932621
 20
-146.5512613565914
 30
0.0
 10
108.8960231932621
 20
-146.5512613565914
 30
0.0
 10
108.9235839571441
 20
-146.5576347832391
 30
0.0
 10
108.9321966958572
 20
-146.5576347832391
 30
0.0
 10
109.0017876246593
 20
-146.5576347832391
 30
0.0
 10
109.0017876246593
 20
-146.5576347832391
 30
0.0
 10
109.1351128199384
 20
-146.5576347832391
 30
0.0
 10
109.1351128199384
 20
-146.5576347832391
 30
0.0
 10
109.1351128199384
 20
-146.4878715996627
 30
0.0
 10
109.1351128199384
 20
-146.405361562791
 30
0.0
 10
109.1330457626473
 20
-146.4010551934344
 30
0.0
 10
109.1247775334827
 20
-146.2212212091044
 30
0.0
 10
109.1247775334827
 20
-146.2022731839355
 30
0.0
 10
109.122365966643
 20
-146.1557643948846
 30
0.0
 10
109.122365966643
 20
-146.1557643948846
 30
0.0
 10
109.3383734535682
 20
-146.1642048788235
 30
0.0
 10
109.3383734535682
 20
-146.1642048788235
 30
0.0
 10
109.3490532495724
 20
-146.1642048788235
 30
0.0
 10
109.3700683320325
 20
-146.1662719361147
 30
0.0
 10
109.3700683320325
 20
-146.1831529039924
 30
0.0
 10
109.3700683320325
 20
-146.2022731839355
 30
0.0
 10
109.3552544214459
 20
-146.2127807251655
 30
0.0
 10
109.329760714855
 20
-146.2319010051087
 30
0.0
 10
109.329760714855
 20
-146.2825439087418
 30
0.0
 10
109.3235595429816
 20
-146.5111259941882
 30
0.0
 10
109.3256266002727
 20
-146.5576347832391
 30
0.0
 10
109.4548176809696
 20
-146.5576347832391
 30
0.0
 10
109.4672200247165
 20
-146.5576347832391
 30
0.0
 10
109.5647162269491
 20
-146.5491942993002
 30
0.0
 10
109.5647162269491
 20
-146.5491942993002
 30
0.0
 10
109.5647162269491
 20
-146.7438421942168
 30
0.0
 10
109.5647162269491
 20
-146.7438421942168
 30
0.0
 10
109.5264756670628
 20
-146.7416028821514
 30
0.0
 10
109.4589517955519
 20
-146.7374687675691
 30
0.0
 10
109.3235595429816
 20
-146.7395358248603
 30
0.0
 10
109.3235595429816
 20
-146.7395358248603
 30
0.0
 10
109.3235595429816
 20
-147.078016456286
 30
0.0
 10
109.3235595429816
 20
-147.078016456286
 30
0.0
 10
109.3786810707456
 20
-147.0547620617606
 30
0.0
 10
109.4441378849653
 20
-147.0272012978786
 30
0.0
 10
109.4927137313074
 20
-147.0039469033532
 30
0.0
 10
109.4927137313074
 20
-147.0039469033532
 30
0.0
 10
109.4927137313074
 20
-146.8263522310885
 30
0.0
 10
109.4927137313074
 20
-146.8263522310885
 30
0.0
 10
109.6070909014176
 20
-146.8389268296097
 30
0.0
 10
109.7256021861102
 20
-146.8389268296097
 30
0.0
 10
109.8417019039632
 20
-146.8389268296097
 30
0.0
 10
109.818619764212
 20
-146.7438421942168
 30
0.0
 10
109.79105900033
 20
-146.6613321573451
 30
0.0
 10
109.7276692434014
 20
-146.5280069620659
 30
0.0
 10
109.6832275116417
 20
-146.530074019357
 30
0.0
 10
109.6005452199957
 20
-146.5343803887136
 30
0.0
 10
109.5626491696579
 20
-146.5364474460048
 30
0.0
 10
109.5626491696579
 20
-146.5364474460048
 30
0.0
 10
109.5626491696579
 20
-146.3566134616747
 30
0.0
 10
109.5626491696579
 20
-146.3566134616747
 30
0.0
 10
109.687361626224
 20
-146.3650539456136
 30
0.0
 10
109.8609944386806
 20
-146.3693603149702
 30
0.0
 10
109.943332220778
 20
-146.3693603149702
 30
0.0
 10
109.943332220778
 20
-146.3693603149702
 30
0.0
 10
110.026014512424
 20
-146.3693603149702
 30
0.0
 10
110.026014512424
 20
-146.3693603149702
 30
0.0
 10
110.026014512424
 20
-146.2064072985178
 30
0.0
 10
110.026014512424
 20
-146.1958997572878
 30
0.0
 10
110.0236029455844
 20
-146.1409504842981
 30
0.0
 10
110.0236029455844
 20
-146.1409504842981
 30
0.0
 10
110.2478786616741
 20
-146.1662719361147
 30
0.0
 10
110.2478786616741
 20
-146.1662719361147
 30
0.0
 10
110.252357285805
 20
-146.1662719361147
 30
0.0
 10
110.273372368265
 20
-146.1683389934058
 30
0.0
 10
110.273372368265
 20
-146.1852199612835
 30
0.0
 10
110.273372368265
 20
-146.2000338718701
 30
0.0
 10
110.2626925722607
 20
-146.2086466105832
 30
0.0
 10
110.2351318083787
 20
-146.2234605211698
 30
0.0
 10
110.2289306365052
 20
-146.2889173353896
 30
0.0
 10
110.2268635792141
 20
-146.3101046726239
 30
0.0
 10
110.2268635792141
 20
-146.3693603149702
 30
0.0
 10
110.2268635792141
 20
-146.3693603149702
 30
0.0
 10
110.321948214607
 20
-146.3693603149702
 30
0.0
 10
110.321948214607
 20
-146.3693603149702
 30
0.0
 10
110.404630506253
 20
-146.3693603149702
 30
0.0
 10
110.5779188091611
 20
-146.3650539456136
 30
0.0
 10
110.7029757752756
 20
-146.3566134616747
 30
0.0
 10
110.7029757752756
 20
-146.3566134616747
 30
0.0
 10
110.7029757752756
 20
-146.5364474460048
 30
0.0
 10
110.7029757752756
 20
-146.5364474460048
 30
0.0
 10
110.6733479541025
 20
-146.5343803887136
 30
0.0
 10
110.5548366694099
 20
-146.530074019357
 30
0.0
 10
110.5145290522325
 20
-146.5280069620659
 30
0.0
 10
110.4997151416459
 20
-146.5788221204733
 30
0.0
 10
110.4659532058904
 20
-146.6909599785182
 30
0.0
 10
110.4001518821222
 20
-146.8304863456708
 30
0.0
 10
110.4425265565907
 20
-146.8304863456708
 30
0.0
 10
110.7198567431533
 20
-146.811538320502
 30
0.0
 10
110.7811794427908
 20
-146.8092990084366
 30
0.0
 10
110.7811794427908
 20
-146.8092990084366
 30
0.0
 10
110.7811794427908
 20
-146.9934393621232
 30
0.0
 10
110.7811794427908
 20
-146.9934393621232
 30
0.0
 10
110.7515516216176
 20
-146.9934393621232
 30
0.0
 10
110.7346706537399
 20
-146.9891329927666
 30
0.0
 10
110.5717176372876
 20
-146.9891329927666
 30
0.0
  0
HATCH
  5
C1
330
B1
100
AcDbEntity
  8
レイヤー 1
 62
   250
420
  2299925
440
 33554687
100
AcDbHatch
 10
0.0
 20
0.0
 30
0.0
210
0.0
220
0.0
230
1.0
  2
SOLID
 70
     1
 71
     1
 91
        3
 92
        1
 93
        1
 72
     4
 94
        3
 73
     0
 74
     0
 95
       17
 96
       13
 40
0.0
 40
0.0
 40
0.0
 40
0.0
 40
1.0
 40
1.0
 40
1.0
 40
2.0
 40
2.0
 40
2.0
 40
3.0
 40
3.0
 40
3.0
 40
4.0
 40
4.0
 40
4.0
 40
4.0
 10
110.0067219777066
 20
-147.3742946680175
 10
109.9898410098289
 20
-147.4037502344164
 10
109.9391981061957
 20
-147.4969400672924
 10
109.9285183101915
 20
-147.5158880924613
 10
110.1190320905258
 20
-147.5751437348076
 10
110.1400471729858
 20
-147.5815171614553
 10
110.2120496686275
 20
-147.6090779253373
 10
110.2671711963915
 20
-147.522261519109
 10
110.2902533361427
 20
-147.4481919661761
 10
110.3050672467293
 20
-147.3742946680175
 10
110.3050672467293
 20
-147.3742946680175
 10
110.0067219777066
 20
-147.3742946680175
 10
110.0067219777066
 20
-147.3742946680175
 97
        0
 97
        1
330
BE
 92
        1
 93
        1
 72
     4
 94
        3
 73
     0
 74
     0
 95
       20
 96
       16
 40
0.0
 40
0.0
 40
0.0
 40
0.0
 40
1.0
 40
1.0
 40
1.0
 40
2.0
 40
2.0
 40
2.0
 40
3.0
 40
3.0
 40
3.0
 40
4.0
 40
4.0
 40
4.0
 40
5.0
 40
5.0
 40
5.0
 40
5.0
 10
109.943332220778
 20
-146.5238728474836
 10
109.943332220778
 20
-146.5238728474836
 10
109.9116373423137
 20
-146.5238728474836
 10
109.9116373423137
 20
-146.5238728474836
 10
109.9581461313646
 20
-146.623263852233
 10
109.9898410098289
 20
-146.7035345770394
 10
110.0236029455844
 20
-146.8304863456708
 10
110.0236029455844
 20
-146.8304863456708
 10
110.2309976937964
 20
-146.8304863456708
 10
110.2309976937964
 20
-146.8304863456708
 10
110.2626925722607
 20
-146.7374687675691
 10
110.2861192215604
 20
-146.6528916734062
 10
110.3092013613116
 20
-146.5238728474836
 10
110.3092013613116
 20
-146.5238728474836
 10
109.943332220778
 20
-146.5238728474836
 10
109.943332220778
 20
-146.5238728474836
 97
        0
 97
        1
330
BF
 92
        1
 93
        1
 72
     4
 94
        3
 73
     0
 74
     0
 95
      242
 96
      238
 40
0.0
 40
0.0
 40
0.0
 40
0.0
 40
1.0
 40
1.0
 40
1.0
 40
2.0
 40
2.0
 40
2.0
 40
3.0
 40
3.0
 40
3.0
 40
4.0
 40
4.0
 40
4.0
 40
5.0
 40
5.0
 40
5.0
 40
6.0
 40
6.0
 40
6.0
 40
7.0
 40
7.0
 40
7.0
 40
8.0
 40
8.0
 40
8.0
 40
9.0
 40
9.0
 40
9.0
 40
10.0
 40
10.0
 40
10.0
 40
11.0
 40
11.0
 40
11.0
 40
12.0
 40
12.0
 40
12.0
 40
13.0
 40
13.0
 40
13.0
 40
14.0
 40
14.0
 40
14.0
 40
15.0
 40
15.0
 40
15.0
 40
16.0
 40
16.0
 40
16.0
 40
17.0
 40
17.0
 40
17.0
 40
18.0
 40
18.0
 40
18.0
 40
19.0
 40
19.0
 40
19.0
 40
20.0
 40
20.0
 40
20.0
 40
21.0
 40
21.0
 40
21.0
 40
22.0
 40
22.0
 40
22.0
 40
23.0
 40
23.0
 40
23.0
 40
24.0
 40
24.0
 40
24.0
 40
25.0
 40
25.0
 40
25.0
 40
26.0
 40
26.0
 40
26.0
 40
27.0
 40
27.0
 40
27.0
 40
28.0
 40
28.0
 40
28.0
 40
29.0
 40
29.0
 40
29.0
 40
30.0
 40
30.0
 40
30.0
 40
31.0
 40
31.0
 40
31.0
 40
32.0
 40
32.0
 40
32.0
 40
33.0
 40
33.0
 40
33.0
 40
34.0
 40
34.0
 40
34.0
 40
35.0
 40
35.0
 40
35.0
 40
36.0
 40
36.0
 40
36.0
 40
37.0
 40
37.0
 40
37.0
 40
38.0
 40
38.0
 40
38.0
 40
39.0
 40
39.0
 40
39.0
 40
40.0
 40
40.0
 40
40.0
 40
41.0
 40
41.0
 40
41.0
 40
42.0
 40
42.0
 40
42.0
 40
43.0
 40
43.0
 40
43.0
 40
44.0
 40
44.0
 40
44.0
 40
45.0
 40
45.0
 40
45.0
 40
46.0
 40
46.0
 40
46.0
 40
47.0
 40
47.0
 40
47.0
 40
48.0
 40
48.0
 40
48.0
 40
49.0
 40
49.0
 40
49.0
 40
50.0
 40
50.0
 40
50.0
 40
51.0
 40
51.0
 40
51.0
 40
52.0
 40
52.0
 40
52.0
 40
53.0
 40
53.0
 40
53.0
 40
54.0
 40
54.0
 40
54.0
 40
55.0
 40
55.0
 40
55.0
 40
56.0
 40
56.0
 40
56.0
 40
57.0
 40
57.0
 40
57.0
 40
58.0
 40
58.0
 40
58.0
 40
59.0
 40
59.0
 40
59.0
 40
60.0
 40
60.0
 40
60.0
 40
61.0
 40
61.0
 40
61.0
 40
62.0
 40
62.0
 40
62.0
 40
63.0
 40
63.0
 40
63.0
 40
64.0
 40
64.0
 40
64.0
 40
65.0
 40
65.0
 40
65.0
 40
66.0
 40
66.0
 40
66.0
 40
67.0
 40
67.0
 40
67.0
 40
68.0
 40
68.0
 40
68.0
 40
69.0
 40
69.0
 40
69.0
 40
70.0
 40
70.0
 40
70.0
 40
71.0
 40
71.0
 40
71.0
 40
72.0
 40
72.0
 40
72.0
 40
73.0
 40
73.0
 40
73.0
 40
74.0
 40
74.0
 40
74.0
 40
75.0
 40
75.0
 40
75.0
 40
76.0
 40
76.0
 40
76.0
 40
77.0
 40
77.0
 40
77.0
 40
78.0
 40
78.0
 40
78.0
 40
79.0
 40
79.0
 40
79.0
 40
79.0
 10
110.5717176372876
 20
-146.9891329927666
 10
110.5717176372876
 20
-146.9891329927666
 10
110.3178141000247
 20
-146.9891329927666
 10
110.3178141000247
 20
-146.9891329927666
 10
110.3178141000247
 20
-146.9891329927666
 10
110.0408284230106
 20
-146.9891329927666
 10
110.0408284230106
 20
-146.9891329927666
 10
110.0408284230106
 20
-146.9891329927666
 10
110.1676079368678
 20
-147.0315076672352
 10
110.1676079368678
 20
-147.0315076672352
 10
110.1782877328721
 20
-147.0358140365917
 10
110.1910345861675
 20
-147.0420152084652
 10
110.1910345861675
 20
-147.0547620617606
 10
110.1910345861675
 20
-147.0759493989949
 10
110.1589951981547
 20
-147.0823228256426
 10
110.1379801156946
 20
-147.0864569402249
 10
110.1273003196904
 20
-147.1097113347503
 10
110.0976724985172
 20
-147.1753404037444
 10
110.0787244733483
 20
-147.2197821355041
 10
110.0787244733483
 20
-147.2197821355041
 10
110.349508978489
 20
-147.2197821355041
 10
110.349508978489
 20
-147.2197821355041
 10
110.4404594992996
 20
-147.2197821355041
 10
110.6371744515074
 20
-147.2154757661475
 10
110.7791123854996
 20
-147.2070352822086
 10
110.7791123854996
 20
-147.2070352822086
 10
110.7791123854996
 20
-147.3848022092475
 10
110.7791123854996
 20
-147.3848022092475
 10
110.6964300938537
 20
-147.380495839891
 10
110.6754150113936
 20
-147.380495839891
 10
110.4955810270636
 20
-147.3763617253087
 10
110.4638861485993
 20
-147.5307020030478
 10
110.4194444168395
 20
-147.6111449826285
 10
110.3750026850798
 20
-147.6809081662048
 10
110.4955810270636
 20
-147.7401638085511
 10
110.6013454584608
 20
-147.8078599348362
 10
110.7050428325668
 20
-147.8903699717079
 10
110.7050428325668
 20
-147.8903699717079
 10
110.5865315478742
 20
-148.0574571027426
 10
110.5865315478742
 20
-148.0574571027426
 10
110.5631048985745
 20
-148.0385090775737
 10
110.5503580452791
 20
-148.0300685936348
 10
110.4383924420084
 20
-147.9453192446977
 10
110.3898165956664
 20
-147.9072509395856
 10
110.3305609533201
 20
-147.8714219465391
 10
110.2499457189653
 20
-147.8269802147794
 10
110.0384168561709
 20
-148.0131876257571
 10
109.8334336747986
 20
-148.0364420202825
 10
109.5433566349405
 20
-148.0660698414557
 10
109.5433566349405
 20
-148.0660698414557
 10
109.440003770383
 20
-147.8862358571257
 10
109.440003770383
 20
-147.8862358571257
 10
109.7572970645745
 20
-147.8819294877691
 10
109.9326524247738
 20
-147.8566080359525
 10
110.0849256452218
 20
-147.7465372351988
 10
109.9667588700777
 20
-147.6957220767913
 10
109.8778754065583
 20
-147.6683335676836
 10
109.8417019039632
 20
-147.6555867143882
 10
109.8227538787943
 20
-147.6831474782702
 10
109.8079399682077
 20
-147.702095503439
 10
109.7803792043257
 20
-147.7360296939688
 10
109.7803792043257
 20
-147.7360296939688
 10
109.583664252118
 20
-147.653519657097
 10
109.583664252118
 20
-147.653519657097
 10
109.6663465437639
 20
-147.5730766775164
 10
109.7276692434014
 20
-147.4778197873493
 10
109.784513318908
 20
-147.3763617253087
 10
109.5943440481222
 20
-147.380495839891
 10
109.5729844561137
 20
-147.380495839891
 10
109.4906466740162
 20
-147.3848022092475
 10
109.4906466740162
 20
-147.3848022092475
 10
109.4906466740162
 20
-147.2070352822086
 10
109.4906466740162
 20
-147.2070352822086
 10
109.6301730411688
 20
-147.2134087088563
 10
109.839634846672
 20
-147.2177150782129
 10
109.8651285532629
 20
-147.2177150782129
 10
109.8820095211406
 20
-147.1837808876832
 10
109.9371310489046
 20
-147.0632025456995
 10
109.9560790740735
 20
-146.9891329927666
 10
109.9371310489046
 20
-146.9891329927666
 10
109.7593641218657
 20
-146.9955064194143
 10
109.5647162269491
 20
-147.0082532727097
 10
109.5647162269491
 20
-147.0082532727097
 10
109.5647162269491
 20
-147.1415784679889
 10
109.5647162269491
 20
-147.1415784679889
 10
109.5161403806071
 20
-147.1668999198055
 10
109.4568847382608
 20
-147.1985947982698
 10
109.3235595429816
 20
-147.2642238672638
 10
109.3235595429816
 20
-147.2642238672638
 10
109.3235595429816
 20
-147.4101236610641
 10
109.3235595429816
 20
-147.4101236610641
 10
109.3235595429816
 20
-147.4101236610641
 10
109.3235595429816
 20
-147.8777953731868
 10
109.3235595429816
 20
-147.8777953731868
 10
109.3235595429816
 20
-148.004574887044
 10
109.2873860403865
 20
-148.0638305293903
 10
109.0041991914989
 20
-148.0553900454514
 10
109.0041991914989
 20
-148.0553900454514
 10
108.9005018173929
 20
-147.8481675520136
 10
108.9005018173929
 20
-147.8481675520136
 10
108.9638915743215
 20
-147.8607421505348
 10
109.0124674206635
 20
-147.8650485198914
 10
109.0527750378409
 20
-147.8650485198914
 10
109.128911648065
 20
-147.8650485198914
 10
109.1395914440692
 20
-147.8417941253659
 10
109.1395914440692
 20
-147.7761650563719
 10
109.1395914440692
 20
-147.7761650563719
 10
109.1395914440692
 20
-147.3467339041355
 10
109.1395914440692
 20
-147.3467339041355
 10
109.0420952418367
 20
-147.3868692665387
 10
109.025214273959
 20
-147.3932426931864
 10
108.9787054849081
 20
-147.4123629731295
 10
108.9745713703258
 20
-147.4333780555896
 10
108.970092746195
 20
-147.4630058767627
 10
108.9511447210261
 20
-147.4630058767627
 10
108.9428764918615
 20
-147.4630058767627
 10
108.9321966958572
 20
-147.4588717621804
 10
108.9256510144352
 20
-147.435617367655
 10
108.9256510144352
 20
-147.435617367655
 10
108.8729410535109
 20
-147.2430365300295
 10
108.8729410535109
 20
-147.2430365300295
 10
109.0190131020855
 20
-147.1965277409786
 10
109.0844699163053
 20
-147.1732733464532
 10
109.1395914440692
 20
-147.1520860092189
 10
109.1395914440692
 20
-147.1520860092189
 10
109.1395914440692
 20
-146.7395358248603
 10
109.1395914440692
 20
-146.7395358248603
 10
109.1395914440692
 20
-146.7395358248603
 10
109.0865369735964
 20
-146.7395358248603
 10
109.0865369735964
 20
-146.7395358248603
 10
109.0865369735964
 20
-146.7395358248603
 10
109.0083333060812
 20
-146.7395358248603
 10
109.0083333060812
 20
-146.7395358248603
 10
108.9404649250218
 20
-146.7395358248603
 10
108.9321966958572
 20
-146.7395358248603
 10
108.8960231932621
 20
-146.745909251508
 10
108.8960231932621
 20
-146.745909251508
 10
108.8960231932621
 20
-146.5512613565914
 10
108.8960231932621
 20
-146.5512613565914
 10
108.9235839571441
 20
-146.5576347832391
 10
108.9321966958572
 20
-146.5576347832391
 10
109.0017876246593
 20
-146.5576347832391
 10
109.0017876246593
 20
-146.5576347832391
 10
109.1351128199384
 20
-146.5576347832391
 10
109.1351128199384
 20
-146.5576347832391
 10
109.1351128199384
 20
-146.4878715996627
 10
109.1351128199384
 20
-146.405361562791
 10
109.1330457626473
 20
-146.4010551934344
 10
109.1247775334827
 20
-146.2212212091044
 10
109.1247775334827
 20
-146.2022731839355
 10
109.122365966643
 20
-146.1557643948846
 10
109.122365966643
 20
-146.1557643948846
 10
109.3383734535682
 20
-146.1642048788235
 10
109.3383734535682
 20
-146.1642048788235
 10
109.3490532495724
 20
-146.1642048788235
 10
109.3700683320325
 20
-146.1662719361147
 10
109.3700683320325
 20
-146.1831529039924
 10
109.3700683320325
 20
-146.2022731839355
 10
109.3552544214459
 20
-146.2127807251655
 10
109.329760714855
 20
-146.2319010051087
 10
109.329760714855
 20
-146.2825439087418
 10
109.3235595429816
 20
-146.5111259941882
 10
109.3256266002727
 20
-146.5576347832391
 10
109.4548176809696
 20
-146.5576347832391
 10
109.4672200247165
 20
-146.5576347832391
 10
109.5647162269491
 20
-146.5491942993002
 10
109.5647162269491
 20
-146.5491942993002
 10
109.5647162269491
 20
-146.7438421942168
 10
109.5647162269491
 20
-146.7438421942168
 10
109.5264756670628
 20
-146.7416028821514
 10
109.4589517955519
 20
-146.7374687675691
 10
109.3235595429816
 20
-146.7395358248603
 10
109.3235595429816
 20
-146.7395358248603
 10
109.3235595429816
 20
-147.078016456286
 10
109.3235595429816
 20
-147.078016456286
 10
109.3786810707456
 20
-147.0547620617606
 10
109.4441378849653
 20
-147.0272012978786
 10
109.4927137313074
 20
-147.0039469033532
 10
109.4927137313074
 20
-147.0039469033532
 10
109.4927137313074
 20
-146.8263522310885
 10
109.4927137313074
 20
-146.8263522310885
 10
109.6070909014176
 20
-146.8389268296097
 10
109.7256021861102
 20
-146.8389268296097
 10
109.8417019039632
 20
-146.8389268296097
 10
109.818619764212
 20
-146.7438421942168
 10
109.79105900033
 20
-146.6613321573451
 10
109.7276692434014
 20
-146.5280069620659
 10
109.6832275116417
 20
-146.530074019357
 10
109.6005452199957
 20
-146.5343803887136
 10
109.5626491696579
 20
-146.5364474460048
 10
109.5626491696579
 20
-146.5364474460048
 10
109.5626491696579
 20
-146.3566134616747
 10
109.5626491696579
 20
-146.3566134616747
 10
109.687361626224
 20
-146.3650539456136
 10
109.8609944386806
 20
-146.3693603149702
 10
109.943332220778
 20
-146.3693603149702
 10
109.943332220778
 20
-146.3693603149702
 10
110.026014512424
 20
-146.3693603149702
 10
110.026014512424
 20
-146.3693603149702
 10
110.026014512424
 20
-146.2064072985178
 10
110.026014512424
 20
-146.1958997572878
 10
110.0236029455844
 20
-146.1409504842981
 10
110.0236029455844
 20
-146.1409504842981
 10
110.2478786616741
 20
-146.1662719361147
 10
110.2478786616741
 20
-146.1662719361147
 10
110.252357285805
 20
-146.1662719361147
 10
110.273372368265
 20
-146.1683389934058
 10
110.273372368265
 20
-146.1852199612835
 10
110.273372368265
 20
-146.2000338718701
 10
110.2626925722607
 20
-146.2086466105832
 10
110.2351318083787
 20
-146.2234605211698
 10
110.2289306365052
 20
-146.2889173353896
 10
110.2268635792141
 20
-146.3101046726239
 10
110.2268635792141
 20
-146.3693603149702
 10
110.2268635792141
 20
-146.3693603149702
 10
110.321948214607
 20
-146.3693603149702
 10
110.321948214607
 20
-146.3693603149702
 10
110.404630506253
 20
-146.3693603149702
 10
110.5779188091611
 20
-146.3650539456136
 10
110.7029757752756
 20
-146.3566134616747
 10
110.7029757752756
 20
-146.3566134616747
 10
110.7029757752756
 20
-146.5364474460048
 10
110.7029757752756
 20
-146.5364474460048
 10
110.6733479541025
 20
-146.5343803887136
 10
110.5548366694099
 20
-146.530074019357
 10
110.5145290522325
 20
-146.5280069620659
 10
110.4997151416459
 20
-146.5788221204733
 10
110.4659532058904
 20
-146.6909599785182
 10
110.4001518821222
 20
-146.8304863456708
 10
110.4425265565907
 20
-146.8304863456708
 10
110.7198567431533
 20
-146.811538320502
 10
110.7811794427908
 20
-146.8092990084366
 10
110.7811794427908
 20
-146.8092990084366
 10
110.7811794427908
 20
-146.9934393621232
 10
110.7811794427908
 20
-146.9934393621232
 10
110.7515516216176
 20
-146.9934393621232
 10
110.7346706537399
 20
-146.9891329927666
 10
110.5717176372876
 20
-146.9891329927666
 97
        0
 97
        1
330
C0
 75
     2
 76
     1
 98
        1
 10
0.0
 20
0.0
450
        0
451
        0
460
0.0
461
0.0
452
        0
462
0.0
453
        0
470

  0
SPLINE
  5
C2
330
B1
100
AcDbEntity
  8
レイヤー 1
100
AcDbSpline
210
0.0
220
0.0
230
1.0
 70
    11
 71
     3
 72
    17
 73
    13
 74
     0
 42
0.0000000001
 43
0.0000000001
 40
0.0
 40
0.0
 40
0.0
 40
0.0
 40
1.0
 40
1.0
 40
1.0
 40
2.0
 40
2.0
 40
2.0
 40
3.0
 40
3.0
 40
3.0
 40
4.0
 40
4.0
 40
4.0
 40
4.0
 10
112.4282795942887
 20
-147.7889119096673
 30
0.0
 10
112.4282795942887
 20
-147.7889119096673
 30
0.0
 10
111.721690510264
 20
-147.7889119096673
 30
0.0
 10
111.721690510264
 20
-147.7889119096673
 30
0.0
 10
111.721690510264
 20
-147.7889119096673
 30
0.0
 10
111.721690510264
 20
-147.9031168250034
 30
0.0
 10
111.721690510264
 20
-147.9031168250034
 30
0.0
 10
111.721690510264
 20
-147.9031168250034
 30
0.0
 10
112.4282795942887
 20
-147.9031168250034
 30
0.0
 10
112.4282795942887
 20
-147.9031168250034
 30
0.0
 10
112.4282795942887
 20
-147.9031168250034
 30
0.0
 10
112.4282795942887
 20
-147.7889119096673
 30
0.0
 10
112.4282795942887
 20
-147.7889119096673
 30
0.0
  0
SPLINE
  5
C3
330
B1
100
AcDbEntity
  8
レイヤー 1
100
AcDbSpline
210
0.0
220
0.0
230
1.0
 70
    11
 71
     3
 72
    17
 73
    13
 74
     0
 42
0.0000000001
 43
0.0000000001
 40
0.0
 40
0.0
 40
0.0
 40
0.0
 40
1.0
 40
1.0
 40
1.0
 40
2.0
 40
2.0
 40
2.0
 40
3.0
 40
3.0
 40
3.0
 40
4.0
 40
4.0
 40
4.0
 40
4.0
 10
112.4282795942887
 20
-147.5455159136344
 30
0.0
 10
112.4282795942887
 20
-147.5455159136344
 30
0.0
 10
111.721690510264
 20
-147.5455159136344
 30
0.0
 10
111.721690510264
 20
-147.5455159136344
 30
0.0
 10
111.721690510264
 20
-147.5455159136344
 30
0.0
 10
111.721690510264
 20
-147.6598930837447
 30
0.0
 10
111.721690510264
 20
-147.6598930837447
 30
0.0
 10
111.721690510264
 20
-147.6598930837447
 30
0.0
 10
112.4282795942887
 20
-147.6598930837447
 30
0.0
 10
112.4282795942887
 20
-147.6598930837447
 30
0.0
 10
112.4282795942887
 20
-147.6598930837447
 30
0.0
 10
112.4282795942887
 20
-147.5455159136344
 30
0.0
 10
112.4282795942887
 20
-147.5455159136344
 30
0.0
  0
SPLINE
  5
C4
330
B1
100
AcDbEntity
  8
レイヤー 1
100
AcDbSpline
210
0.0
220
0.0
230
1.0
 70
    11
 71
     3
 72
    17
 73
    13
 74
     0
 42
0.0000000001
 43
0.0000000001
 40
0.0
 40
0.0
 40
0.0
 40
0.0
 40
1.0
 40
1.0
 40
1.0
 40
2.0
 40
2.0
 40
2.0
 40
3.0
 40
3.0
 40
3.0
 40
4.0
 40
4.0
 40
4.0
 40
4.0
 10
112.4282795942887
 20
-147.3127997136058
 30
0.0
 10
112.4282795942887
 20
-147.3127997136058
 30
0.0
 10
111.721690510264
 20
-147.3127997136058
 30
0.0
 10
111.721690510264
 20
-147.3127997136058
 30
0.0
 10
111.721690510264
 20
-147.3127997136058
 30
0.0
 10
111.721690510264
 20
-147.4208034570684
 30
0.0
 10
111.721690510264
 20
-147.4208034570684
 30
0.0
 10
111.721690510264
 20
-147.4208034570684
 30
0.0
 10
112.4282795942887
 20
-147.4208034570684
 30
0.0
 10
112.4282795942887
 20
-147.4208034570684
 30
0.0
 10
112.4282795942887
 20
-147.4208034570684
 30
0.0
 10
112.4282795942887
 20
-147.3127997136058
 30
0.0
 10
112.4282795942887
 20
-147.3127997136058
 30
0.0
  0
SPLINE
  5
C5
330
B1
100
AcDbEntity
  8
レイヤー 1
100
AcDbSpline
210
0.0
220
0.0
230
1.0
 70
     9
 71
     3
 72
   203
 73
   199
 74
     0
 42
0.0000000001
 43
0.0000000001
 40
0.0
 40
0.0
 40
0.0
 40
0.0
 40
1.0
 40
1.0
 40
1.0
 40
2.0
 40
2.0
 40
2.0
 40
3.0
 40
3.0
 40
3.0
 40
4.0
 40
4.0
 40
4.0
 40
5.0
 40
5.0
 40
5.0
 40
6.0
 40
6.0
 40
6.0
 40
7.0
 40
7.0
 40
7.0
 40
8.0
 40
8.0
 40
8.0
 40
9.0
 40
9.0
 40
9.0
 40
10.0
 40
10.0
 40
10.0
 40
11.0
 40
11.0
 40
11.0
 40
12.0
 40
12.0
 40
12.0
 40
13.0
 40
13.0
 40
13.0
 40
14.0
 40
14.0
 40
14.0
 40
15.0
 40
15.0
 40
15.0
 40
16.0
 40
16.0
 40
16.0
 40
17.0
 40
17.0
 40
17.0
 40
18.0
 40
18.0
 40
18.0
 40
19.0
 40
19.0
 40
19.0
 40
20.0
 40
20.0
 40
20.0
 40
21.0
 40
21.0
 40
21.0
 40
22.0
 40
22.0
 40
22.0
 40
23.0
 40
23.0
 40
23.0
 40
24.0
 40
24.0
 40
24.0
 40
25.0
 40
25.0
 40
25.0
 40
26.0
 40
26.0
 40
26.0
 40
27.0
 40
27.0
 40
27.0
 40
28.0
 40
28.0
 40
28.0
 40
29.0
 40
29.0
 40
29.0
 40
30.0
 40
30.0
 40
30.0
 40
31.0
 40
31.0
 40
31.0
 40
32.0
 40
32.0
 40
32.0
 40
33.0
 40
33.0
 40
33.0
 40
34.0
 40
34.0
 40
34.0
 40
35.0
 40
35.0
 40
35.0
 40
36.0
 40
36.0
 40
36.0
 40
37.0
 40
37.0
 40
37.0
 40
38.0
 40
38.0
 40
38.0
 40
39.0
 40
39.0
 40
39.0
 40
40.0
 40
40.0
 40
40.0
 40
41.0
 40
41.0
 40
41.0
 40
42.0
 40
42.0
 40
42.0
 40
43.0
 40
43.0
 40
43.0
 40
44.0
 40
44.0
 40
44.0
 40
45.0
 40
45.0
 40
45.0
 40
46.0
 40
46.0
 40
46.0
 40
47.0
 40
47.0
 40
47.0
 40
48.0
 40
48.0
 40
48.0
 40
49.0
 40
49.0
 40
49.0
 40
50.0
 40
50.0
 40
50.0
 40
51.0
 40
51.0
 40
51.0
 40
52.0
 40
52.0
 40
52.0
 40
53.0
 40
53.0
 40
53.0
 40
54.0
 40
54.0
 40
54.0
 40
55.0
 40
55.0
 40
55.0
 40
56.0
 40
56.0
 40
56.0
 40
57.0
 40
57.0
 40
57.0
 40
58.0
 40
58.0
 40
58.0
 40
59.0
 40
59.0
 40
59.0
 40
60.0
 40
60.0
 40
60.0
 40
61.0
 40
61.0
 40
61.0
 40
62.0
 40
62.0
 40
62.0
 40
63.0
 40
63.0
 40
63.0
 40
64.0
 40
64.0
 40
64.0
 40
65.0
 40
65.0
 40
65.0
 40
66.0
 40
66.0
 40
66.0
 40
66.0
 10
112.2632595205453
 20
-147.0568291190518
 30
0.0
 10
112.2632595205453
 20
-147.0568291190518
 30
0.0
 10
111.7044650328377
 20
-147.0568291190518
 30
0.0
 10
111.7044650328377
 20
-147.0568291190518
 30
0.0
 10
111.694129746382
 20
-147.1012708508115
 30
0.0
 10
111.6855170076689
 20
-147.1329657292758
 30
0.0
 10
111.6727701543735
 20
-147.171206289162
 30
0.0
 10
111.6982638609643
 20
-147.171206289162
 30
0.0
 10
111.7130777715509
 20
-147.1732733464532
 30
0.0
 10
111.7192789434243
 20
-147.1732733464532
 30
0.0
 10
111.7192789434243
 20
-147.1732733464532
 30
0.0
 10
111.9077256664675
 20
-147.1732733464532
 30
0.0
 10
111.9077256664675
 20
-147.1732733464532
 30
0.0
 10
111.9077256664675
 20
-147.1732733464532
 30
0.0
 10
112.2822075457142
 20
-147.1732733464532
 30
0.0
 10
112.2822075457142
 20
-147.1732733464532
 30
0.0
 10
112.3328504493473
 20
-147.1732733464532
 30
0.0
 10
112.6163818077834
 20
-147.1605264931578
 30
0.0
 10
112.6480766862477
 20
-147.1605264931578
 30
0.0
 10
112.6460096289565
 20
-147.1880872570398
 30
0.0
 10
112.6439425716654
 20
-147.2070352822086
 30
0.0
 10
112.6439425716654
 20
-147.2366631033818
 30
0.0
 10
112.6418755143742
 20
-147.2683579818461
 30
0.0
 10
112.6418755143742
 20
-147.4037502344164
 30
0.0
 10
112.6418755143742
 20
-147.4313109982984
 30
0.0
 10
112.6418755143742
 20
-147.4313109982984
 30
0.0
 10
112.6418755143742
 20
-147.6767740516225
 30
0.0
 10
112.6418755143742
 20
-147.6767740516225
 30
0.0
 10
112.6418755143742
 20
-147.7212157833822
 30
0.0
 10
112.6460096289565
 20
-147.91793073559
 30
0.0
 10
112.6501437435388
 20
-148.070203956038
 30
0.0
 10
112.6501437435388
 20
-148.070203956038
 30
0.0
 10
112.4238009701579
 20
-148.070203956038
 30
0.0
 10
112.4238009701579
 20
-148.070203956038
 30
0.0
 10
112.4238009701579
 20
-148.070203956038
 30
0.0
 10
112.4258680274491
 20
-148.0364420202825
 30
0.0
 10
112.4258680274491
 20
-148.0364420202825
 30
0.0
 10
112.4258680274491
 20
-148.0364420202825
 30
0.0
 10
111.7237575675552
 20
-148.0364420202825
 30
0.0
 10
111.7237575675552
 20
-148.0364420202825
 30
0.0
 10
111.7237575675552
 20
-148.0364420202825
 30
0.0
 10
111.7258246248463
 20
-148.070203956038
 30
0.0
 10
111.7258246248463
 20
-148.070203956038
 30
0.0
 10
111.7258246248463
 20
-148.070203956038
 30
0.0
 10
111.50775008063
 20
-148.070203956038
 30
0.0
 10
111.50775008063
 20
-148.070203956038
 30
0.0
 10
111.5122287047608
 20
-148.0152546830483
 30
0.0
 10
111.5122287047608
 20
-148.0025078297528
 30
0.0
 10
111.5184298766343
 20
-147.8883029144168
 30
0.0
 10
111.5204969339254
 20
-147.8607421505348
 30
0.0
 10
111.5225639912166
 20
-147.7275892100299
 30
0.0
 10
111.5225639912166
 20
-147.7084689300868
 30
0.0
 10
111.5225639912166
 20
-147.7084689300868
 30
0.0
 10
111.5225639912166
 20
-147.5053805512313
 30
0.0
 10
111.5225639912166
 20
-147.5053805512313
 30
0.0
 10
111.383037624064
 20
-147.7549777191376
 30
0.0
 10
111.2138834357382
 20
-147.8862358571257
 30
0.0
 10
111.108119004341
 20
-147.9516926713454
 30
0.0
 10
111.108119004341
 20
-147.9516926713454
 30
0.0
 10
110.9344861918844
 20
-147.8121663041928
 30
0.0
 10
110.9344861918844
 20
-147.8121663041928
 30
0.0
 10
111.0233696554039
 20
-147.7613511457853
 30
0.0
 10
111.1673746466873
 20
-147.674534739557
 30
0.0
 10
111.3048339565488
 20
-147.4800590994147
 30
0.0
 10
111.3957844773594
 20
-147.3531073307832
 30
0.0
 10
111.4612412915791
 20
-147.209274594274
 30
0.0
 10
111.4953477368831
 20
-147.0568291190518
 30
0.0
 10
111.2665933966625
 20
-147.0590684311172
 30
0.0
 10
111.0867594123325
 20
-147.0654418577649
 30
0.0
 10
110.9916747769396
 20
-147.067508915056
 30
0.0
 10
110.9916747769396
 20
-147.067508915056
 30
0.0
 10
110.9916747769396
 20
-146.8897419880171
 30
0.0
 10
110.9916747769396
 20
-146.8897419880171
 30
0.0
 10
111.1883897291473
 20
-146.8961154146648
 30
0.0
 10
111.4719210875834
 20
-146.9004217840214
 30
0.0
 10
111.6221272507403
 20
-146.9004217840214
 30
0.0
 10
111.6221272507403
 20
-146.9004217840214
 30
0.0
 10
111.8357231708258
 20
-146.9004217840214
 30
0.0
 10
111.8357231708258
 20
-146.9004217840214
 30
0.0
 10
111.8357231708258
 20
-146.9004217840214
 30
0.0
 10
111.8357231708258
 20
-146.7924180405588
 30
0.0
 10
111.8357231708258
 20
-146.7924180405588
 30
0.0
 10
111.8357231708258
 20
-146.7924180405588
 30
0.0
 10
111.6896511222512
 20
-146.7924180405588
 30
0.0
 10
111.6896511222512
 20
-146.7924180405588
 30
0.0
 10
111.5204969339254
 20
-146.7924180405588
 30
0.0
 10
111.3513427455997
 20
-146.7967244099154
 30
0.0
 10
111.184255614565
 20
-146.8030978365631
 30
0.0
 10
111.184255614565
 20
-146.8030978365631
 30
0.0
 10
111.184255614565
 20
-146.6317043361719
 30
0.0
 10
111.184255614565
 20
-146.6317043361719
 30
0.0
 10
111.3385958923042
 20
-146.6422118774019
 30
0.0
 10
111.5246310485077
 20
-146.6422118774019
 30
0.0
 10
111.6896511222512
 20
-146.6422118774019
 30
0.0
 10
111.6896511222512
 20
-146.6422118774019
 30
0.0
 10
111.8357231708258
 20
-146.6422118774019
 30
0.0
 10
111.8357231708258
 20
-146.6422118774019
 30
0.0
 10
111.8357231708258
 20
-146.6422118774019
 30
0.0
 10
111.8357231708258
 20
-146.5238728474836
 30
0.0
 10
111.8357231708258
 20
-146.5238728474836
 30
0.0
 10
111.8357231708258
 20
-146.5238728474836
 30
0.0
 10
111.7044650328377
 20
-146.5238728474836
 30
0.0
 10
111.7044650328377
 20
-146.5238728474836
 30
0.0
 10
111.6579562437869
 20
-146.5238728474836
 30
0.0
 10
111.4550401197057
 20
-146.5323133314224
 30
0.0
 10
111.4126654452371
 20
-146.5323133314224
 30
0.0
 10
111.2097493211559
 20
-146.5364474460048
 30
0.0
 10
111.1332682013833
 20
-146.5385145032959
 30
0.0
 10
111.0550645338682
 20
-146.5407538153613
 30
0.0
 10
111.0550645338682
 20
-146.5407538153613
 30
0.0
 10
111.0550645338682
 20
-146.3566134616747
 30
0.0
 10
111.0550645338682
 20
-146.3566134616747
 30
0.0
 10
111.1694417039785
 20
-146.3650539456136
 30
0.0
 10
111.2138834357382
 20
-146.3650539456136
 30
0.0
 10
111.5966335441494
 20
-146.3736666843267
 30
0.0
 10
111.5332437872208
 20
-146.2784097941595
 30
0.0
 10
111.5056830233388
 20
-146.2508490302776
 30
0.0
 10
111.4698540302923
 20
-146.2148477824567
 30
0.0
 10
111.4698540302923
 20
-146.2148477824567
 30
0.0
 10
111.6452093904915
 20
-146.132337745585
 30
0.0
 10
111.6452093904915
 20
-146.132337745585
 30
0.0
 10
111.6855170076689
 20
-146.1683389934058
 30
0.0
 10
111.7299587394286
 20
-146.2107136678744
 30
0.0
 10
111.8040282923615
 20
-146.3206122138539
 30
0.0
 10
111.8040282923615
 20
-146.3206122138539
 30
0.0
 10
111.6896511222512
 20
-146.3757337416179
 30
0.0
 10
111.6896511222512
 20
-146.3757337416179
 30
0.0
 10
111.6896511222512
 20
-146.3757337416179
 30
0.0
 10
111.7003309182555
 20
-146.3757337416179
 30
0.0
 10
111.7003309182555
 20
-146.3757337416179
 30
0.0
 10
111.7003309182555
 20
-146.3757337416179
 30
0.0
 10
112.2229519033679
 20
-146.3757337416179
 30
0.0
 10
112.2229519033679
 20
-146.3757337416179
 30
0.0
 10
112.2229519033679
 20
-146.3757337416179
 30
0.0
 10
112.127867267975
 20
-146.3312920098581
 30
0.0
 10
112.127867267975
 20
-146.3312920098581
 30
0.0
 10
112.1550835223084
 20
-146.2932237047461
 30
0.0
 10
112.2122721073636
 20
-146.2127807251655
 30
0.0
 10
112.2270860179501
 20
-146.1387111722327
 30
0.0
 10
112.2270860179501
 20
-146.1387111722327
 30
0.0
 10
112.4406819380356
 20
-146.2022731839355
 30
0.0
 10
112.4406819380356
 20
-146.2022731839355
 30
0.0
 10
112.4492946767488
 20
-146.2043402412267
 30
0.0
 10
112.4703097592088
 20
-146.2148477824567
 30
0.0
 10
112.4703097592088
 20
-146.236035119691
 30
0.0
 10
112.4703097592088
 20
-146.274103424803
 30
0.0
 10
112.404852944989
 20
-146.274103424803
 30
0.0
 10
112.3859049198202
 20
-146.274103424803
 30
0.0
 10
112.3752251238159
 20
-146.2932237047461
 30
0.0
 10
112.3517984745162
 20
-146.3333590671493
 30
0.0
 10
112.3221706533431
 20
-146.3736666843267
 30
0.0
 10
112.7221462391805
 20
-146.367293257679
 30
0.0
 10
112.7517740603537
 20
-146.3650539456136
 30
0.0
 10
112.8279106705777
 20
-146.3588527737401
 30
0.0
 10
112.8279106705777
 20
-146.3588527737401
 30
0.0
 10
112.8279106705777
 20
-146.5407538153613
 30
0.0
 10
112.8279106705777
 20
-146.5407538153613
 30
0.0
 10
112.8089626454088
 20
-146.5407538153613
 30
0.0
 10
112.783468938818
 20
-146.5385145032959
 30
0.0
 10
112.5636718468591
 20
-146.530074019357
 30
0.0
 10
112.5126844336774
 20
-146.5280069620659
 30
0.0
 10
112.2928873417184
 20
-146.5238728474836
 30
0.0
 10
112.2484456099587
 20
-146.5238728474836
 30
0.0
 10
112.2484456099587
 20
-146.5238728474836
 30
0.0
 10
112.0324381230335
 20
-146.5238728474836
 30
0.0
 10
112.0324381230335
 20
-146.5238728474836
 30
0.0
 10
112.0324381230335
 20
-146.5238728474836
 30
0.0
 10
112.0324381230335
 20
-146.6422118774019
 30
0.0
 10
112.0324381230335
 20
-146.6422118774019
 30
0.0
 10
112.0324381230335
 20
-146.6422118774019
 30
0.0
 10
112.2060709354901
 20
-146.6422118774019
 30
0.0
 10
112.2060709354901
 20
-146.6422118774019
 30
0.0
 10
112.3690239519424
 20
-146.6422118774019
 30
0.0
 10
112.5591932227282
 20
-146.6422118774019
 30
0.0
 10
112.7159450673071
 20
-146.6317043361719
 30
0.0
 10
112.7159450673071
 20
-146.6317043361719
 30
0.0
 10
112.7159450673071
 20
-146.8030978365631
 30
0.0
 10
112.7159450673071
 20
-146.8030978365631
 30
0.0
 10
112.5064832618039
 20
-146.7946573526242
 30
0.0
 10
112.3097683095962
 20
-146.7924180405588
 30
0.0
 10
112.2060709354901
 20
-146.7924180405588
 30
0.0
 10
112.2060709354901
 20
-146.7924180405588
 30
0.0
 10
112.0324381230335
 20
-146.7924180405588
 30
0.0
 10
112.0324381230335
 20
-146.7924180405588
 30
0.0
 10
112.0324381230335
 20
-146.7924180405588
 30
0.0
 10
112.0324381230335
 20
-146.9004217840214
 30
0.0
 10
112.0324381230335
 20
-146.9004217840214
 30
0.0
 10
112.0324381230335
 20
-146.9004217840214
 30
0.0
 10
112.2632595205453
 20
-146.9004217840214
 30
0.0
 10
112.2632595205453
 20
-146.9004217840214
 30
0.0
 10
112.3962402062759
 20
-146.9004217840214
 30
0.0
 10
112.6842501888428
 20
-146.8961154146648
 30
0.0
 10
112.8933674847975
 20
-146.8897419880171
 30
0.0
 10
112.8933674847975
 20
-146.8897419880171
 30
0.0
 10
112.8933674847975
 20
-147.067508915056
 30
0.0
 10
112.8933674847975
 20
-147.067508915056
 30
0.0
 10
112.7011311567205
 20
-147.0611354884083
 30
0.0
 10
112.3879719771113
 20
-147.0568291190518
 30
0.0
 10
112.2632595205453
 20
-147.0568291190518
 30
0.0
  0
HATCH
  5
C6
330
B1
100
AcDbEntity
  8
レイヤー 1
 62
   250
420
  2299925
440
 33554687
100
AcDbHatch
 10
0.0
 20
0.0
 30
0.0
210
0.0
220
0.0
230
1.0
  2
SOLID
 70
     1
 71
     1
 91
        4
 92
        1
 93
        1
 72
     4
 94
        3
 73
     0
 74
     0
 95
       17
 96
       13
 40
0.0
 40
0.0
 40
0.0
 40
0.0
 40
1.0
 40
1.0
 40
1.0
 40
2.0
 40
2.0
 40
2.0
 40
3.0
 40
3.0
 40
3.0
 40
4.0
 40
4.0
 40
4.0
 40
4.0
 10
112.4282795942887
 20
-147.7889119096673
 10
112.4282795942887
 20
-147.7889119096673
 10
111.721690510264
 20
-147.7889119096673
 10
111.721690510264
 20
-147.7889119096673
 10
111.721690510264
 20
-147.7889119096673
 10
111.721690510264
 20
-147.9031168250034
 10
111.721690510264
 20
-147.9031168250034
 10
111.721690510264
 20
-147.9031168250034
 10
112.4282795942887
 20
-147.9031168250034
 10
112.4282795942887
 20
-147.9031168250034
 10
112.4282795942887
 20
-147.9031168250034
 10
112.4282795942887
 20
-147.7889119096673
 10
112.4282795942887
 20
-147.7889119096673
 97
        0
 97
        1
330
C2
 92
        1
 93
        1
 72
     4
 94
        3
 73
     0
 74
     0
 95
       17
 96
       13
 40
0.0
 40
0.0
 40
0.0
 40
0.0
 40
1.0
 40
1.0
 40
1.0
 40
2.0
 40
2.0
 40
2.0
 40
3.0
 40
3.0
 40
3.0
 40
4.0
 40
4.0
 40
4.0
 40
4.0
 10
112.4282795942887
 20
-147.5455159136344
 10
112.4282795942887
 20
-147.5455159136344
 10
111.721690510264
 20
-147.5455159136344
 10
111.721690510264
 20
-147.5455159136344
 10
111.721690510264
 20
-147.5455159136344
 10
111.721690510264
 20
-147.6598930837447
 10
111.721690510264
 20
-147.6598930837447
 10
111.721690510264
 20
-147.6598930837447
 10
112.4282795942887
 20
-147.6598930837447
 10
112.4282795942887
 20
-147.6598930837447
 10
112.4282795942887
 20
-147.6598930837447
 10
112.4282795942887
 20
-147.5455159136344
 10
112.4282795942887
 20
-147.5455159136344
 97
        0
 97
        1
330
C3
 92
        1
 93
        1
 72
     4
 94
        3
 73
     0
 74
     0
 95
       17
 96
       13
 40
0.0
 40
0.0
 40
0.0
 40
0.0
 40
1.0
 40
1.0
 40
1.0
 40
2.0
 40
2.0
 40
2.0
 40
3.0
 40
3.0
 40
3.0
 40
4.0
 40
4.0
 40
4.0
 40
4.0
 10
112.4282795942887
 20
-147.3127997136058
 10
112.4282795942887
 20
-147.3127997136058
 10
111.721690510264
 20
-147.3127997136058
 10
111.721690510264
 20
-147.3127997136058
 10
111.721690510264
 20
-147.3127997136058
 10
111.721690510264
 20
-147.4208034570684
 10
111.721690510264
 20
-147.4208034570684
 10
111.721690510264
 20
-147.4208034570684
 10
112.4282795942887
 20
-147.4208034570684
 10
112.4282795942887
 20
-147.4208034570684
 10
112.4282795942887
 20
-147.4208034570684
 10
112.4282795942887
 20
-147.3127997136058
 10
112.4282795942887
 20
-147.3127997136058
 97
        0
 97
        1
330
C4
 92
        1
 93
        1
 72
     4
 94
        3
 73
     0
 74
     0
 95
      203
 96
      199
 40
0.0
 40
0.0
 40
0.0
 40
0.0
 40
1.0
 40
1.0
 40
1.0
 40
2.0
 40
2.0
 40
2.0
 40
3.0
 40
3.0
 40
3.0
 40
4.0
 40
4.0
 40
4.0
 40
5.0
 40
5.0
 40
5.0
 40
6.0
 40
6.0
 40
6.0
 40
7.0
 40
7.0
 40
7.0
 40
8.0
 40
8.0
 40
8.0
 40
9.0
 40
9.0
 40
9.0
 40
10.0
 40
10.0
 40
10.0
 40
11.0
 40
11.0
 40
11.0
 40
12.0
 40
12.0
 40
12.0
 40
13.0
 40
13.0
 40
13.0
 40
14.0
 40
14.0
 40
14.0
 40
15.0
 40
15.0
 40
15.0
 40
16.0
 40
16.0
 40
16.0
 40
17.0
 40
17.0
 40
17.0
 40
18.0
 40
18.0
 40
18.0
 40
19.0
 40
19.0
 40
19.0
 40
20.0
 40
20.0
 40
20.0
 40
21.0
 40
21.0
 40
21.0
 40
22.0
 40
22.0
 40
22.0
 40
23.0
 40
23.0
 40
23.0
 40
24.0
 40
24.0
 40
24.0
 40
25.0
 40
25.0
 40
25.0
 40
26.0
 40
26.0
 40
26.0
 40
27.0
 40
27.0
 40
27.0
 40
28.0
 40
28.0
 40
28.0
 40
29.0
 40
29.0
 40
29.0
 40
30.0
 40
30.0
 40
30.0
 40
31.0
 40
31.0
 40
31.0
 40
32.0
 40
32.0
 40
32.0
 40
33.0
 40
33.0
 40
33.0
 40
34.0
 40
34.0
 40
34.0
 40
35.0
 40
35.0
 40
35.0
 40
36.0
 40
36.0
 40
36.0
 40
37.0
 40
37.0
 40
37.0
 40
38.0
 40
38.0
 40
38.0
 40
39.0
 40
39.0
 40
39.0
 40
40.0
 40
40.0
 40
40.0
 40
41.0
 40
41.0
 40
41.0
 40
42.0
 40
42.0
 40
42.0
 40
43.0
 40
43.0
 40
43.0
 40
44.0
 40
44.0
 40
44.0
 40
45.0
 40
45.0
 40
45.0
 40
46.0
 40
46.0
 40
46.0
 40
47.0
 40
47.0
 40
47.0
 40
48.0
 40
48.0
 40
48.0
 40
49.0
 40
49.0
 40
49.0
 40
50.0
 40
50.0
 40
50.0
 40
51.0
 40
51.0
 40
51.0
 40
52.0
 40
52.0
 40
52.0
 40
53.0
 40
53.0
 40
53.0
 40
54.0
 40
54.0
 40
54.0
 40
55.0
 40
55.0
 40
55.0
 40
56.0
 40
56.0
 40
56.0
 40
57.0
 40
57.0
 40
57.0
 40
58.0
 40
58.0
 40
58.0
 40
59.0
 40
59.0
 40
59.0
 40
60.0
 40
60.0
 40
60.0
 40
61.0
 40
61.0
 40
61.0
 40
62.0
 40
62.0
 40
62.0
 40
63.0
 40
63.0
 40
63.0
 40
64.0
 40
64.0
 40
64.0
 40
65.0
 40
65.0
 40
65.0
 40
66.0
 40
66.0
 40
66.0
 40
66.0
 10
112.2632595205453
 20
-147.0568291190518
 10
112.2632595205453
 20
-147.0568291190518
 10
111.7044650328377
 20
-147.0568291190518
 10
111.7044650328377
 20
-147.0568291190518
 10
111.694129746382
 20
-147.1012708508115
 10
111.6855170076689
 20
-147.1329657292758
 10
111.6727701543735
 20
-147.171206289162
 10
111.6982638609643
 20
-147.171206289162
 10
111.7130777715509
 20
-147.1732733464532
 10
111.7192789434243
 20
-147.1732733464532
 10
111.7192789434243
 20
-147.1732733464532
 10
111.9077256664675
 20
-147.1732733464532
 10
111.9077256664675
 20
-147.1732733464532
 10
111.9077256664675
 20
-147.1732733464532
 10
112.2822075457142
 20
-147.1732733464532
 10
112.2822075457142
 20
-147.1732733464532
 10
112.3328504493473
 20
-147.1732733464532
 10
112.6163818077834
 20
-147.1605264931578
 10
112.6480766862477
 20
-147.1605264931578
 10
112.6460096289565
 20
-147.1880872570398
 10
112.6439425716654
 20
-147.2070352822086
 10
112.6439425716654
 20
-147.2366631033818
 10
112.6418755143742
 20
-147.2683579818461
 10
112.6418755143742
 20
-147.4037502344164
 10
112.6418755143742
 20
-147.4313109982984
 10
112.6418755143742
 20
-147.4313109982984
 10
112.6418755143742
 20
-147.6767740516225
 10
112.6418755143742
 20
-147.6767740516225
 10
112.6418755143742
 20
-147.7212157833822
 10
112.6460096289565
 20
-147.91793073559
 10
112.6501437435388
 20
-148.070203956038
 10
112.6501437435388
 20
-148.070203956038
 10
112.4238009701579
 20
-148.070203956038
 10
112.4238009701579
 20
-148.070203956038
 10
112.4238009701579
 20
-148.070203956038
 10
112.4258680274491
 20
-148.0364420202825
 10
112.4258680274491
 20
-148.0364420202825
 10
112.4258680274491
 20
-148.0364420202825
 10
111.7237575675552
 20
-148.0364420202825
 10
111.7237575675552
 20
-148.0364420202825
 10
111.7237575675552
 20
-148.0364420202825
 10
111.7258246248463
 20
-148.070203956038
 10
111.7258246248463
 20
-148.070203956038
 10
111.7258246248463
 20
-148.070203956038
 10
111.50775008063
 20
-148.070203956038
 10
111.50775008063
 20
-148.070203956038
 10
111.5122287047608
 20
-148.0152546830483
 10
111.5122287047608
 20
-148.0025078297528
 10
111.5184298766343
 20
-147.8883029144168
 10
111.5204969339254
 20
-147.8607421505348
 10
111.5225639912166
 20
-147.7275892100299
 10
111.5225639912166
 20
-147.7084689300868
 10
111.5225639912166
 20
-147.7084689300868
 10
111.5225639912166
 20
-147.5053805512313
 10
111.5225639912166
 20
-147.5053805512313
 10
111.383037624064
 20
-147.7549777191376
 10
111.2138834357382
 20
-147.8862358571257
 10
111.108119004341
 20
-147.9516926713454
 10
111.108119004341
 20
-147.9516926713454
 10
110.9344861918844
 20
-147.8121663041928
 10
110.9344861918844
 20
-147.8121663041928
 10
111.0233696554039
 20
-147.7613511457853
 10
111.1673746466873
 20
-147.674534739557
 10
111.3048339565488
 20
-147.4800590994147
 10
111.3957844773594
 20
-147.3531073307832
 10
111.4612412915791
 20
-147.209274594274
 10
111.4953477368831
 20
-147.0568291190518
 10
111.2665933966625
 20
-147.0590684311172
 10
111.0867594123325
 20
-147.0654418577649
 10
110.9916747769396
 20
-147.067508915056
 10
110.9916747769396
 20
-147.067508915056
 10
110.9916747769396
 20
-146.8897419880171
 10
110.9916747769396
 20
-146.8897419880171
 10
111.1883897291473
 20
-146.8961154146648
 10
111.4719210875834
 20
-146.9004217840214
 10
111.6221272507403
 20
-146.9004217840214
 10
111.6221272507403
 20
-146.9004217840214
 10
111.8357231708258
 20
-146.9004217840214
 10
111.8357231708258
 20
-146.9004217840214
 10
111.8357231708258
 20
-146.9004217840214
 10
111.8357231708258
 20
-146.7924180405588
 10
111.8357231708258
 20
-146.7924180405588
 10
111.8357231708258
 20
-146.7924180405588
 10
111.6896511222512
 20
-146.7924180405588
 10
111.6896511222512
 20
-146.7924180405588
 10
111.5204969339254
 20
-146.7924180405588
 10
111.3513427455997
 20
-146.7967244099154
 10
111.184255614565
 20
-146.8030978365631
 10
111.184255614565
 20
-146.8030978365631
 10
111.184255614565
 20
-146.6317043361719
 10
111.184255614565
 20
-146.6317043361719
 10
111.3385958923042
 20
-146.6422118774019
 10
111.5246310485077
 20
-146.6422118774019
 10
111.6896511222512
 20
-146.6422118774019
 10
111.6896511222512
 20
-146.6422118774019
 10
111.8357231708258
 20
-146.6422118774019
 10
111.8357231708258
 20
-146.6422118774019
 10
111.8357231708258
 20
-146.6422118774019
 10
111.8357231708258
 20
-146.5238728474836
 10
111.8357231708258
 20
-146.5238728474836
 10
111.8357231708258
 20
-146.5238728474836
 10
111.7044650328377
 20
-146.5238728474836
 10
111.7044650328377
 20
-146.5238728474836
 10
111.6579562437869
 20
-146.5238728474836
 10
111.4550401197057
 20
-146.5323133314224
 10
111.4126654452371
 20
-146.5323133314224
 10
111.2097493211559
 20
-146.5364474460048
 10
111.1332682013833
 20
-146.5385145032959
 10
111.0550645338682
 20
-146.5407538153613
 10
111.0550645338682
 20
-146.5407538153613
 10
111.0550645338682
 20
-146.3566134616747
 10
111.0550645338682
 20
-146.3566134616747
 10
111.1694417039785
 20
-146.3650539456136
 10
111.2138834357382
 20
-146.3650539456136
 10
111.5966335441494
 20
-146.3736666843267
 10
111.5332437872208
 20
-146.2784097941595
 10
111.5056830233388
 20
-146.2508490302776
 10
111.4698540302923
 20
-146.2148477824567
 10
111.4698540302923
 20
-146.2148477824567
 10
111.6452093904915
 20
-146.132337745585
 10
111.6452093904915
 20
-146.132337745585
 10
111.6855170076689
 20
-146.1683389934058
 10
111.7299587394286
 20
-146.2107136678744
 10
111.8040282923615
 20
-146.3206122138539
 10
111.8040282923615
 20
-146.3206122138539
 10
111.6896511222512
 20
-146.3757337416179
 10
111.6896511222512
 20
-146.3757337416179
 10
111.6896511222512
 20
-146.3757337416179
 10
111.7003309182555
 20
-146.3757337416179
 10
111.7003309182555
 20
-146.3757337416179
 10
111.7003309182555
 20
-146.3757337416179
 10
112.2229519033679
 20
-146.3757337416179
 10
112.2229519033679
 20
-146.3757337416179
 10
112.2229519033679
 20
-146.3757337416179
 10
112.127867267975
 20
-146.3312920098581
 10
112.127867267975
 20
-146.3312920098581
 10
112.1550835223084
 20
-146.2932237047461
 10
112.2122721073636
 20
-146.2127807251655
 10
112.2270860179501
 20
-146.1387111722327
 10
112.2270860179501
 20
-146.1387111722327
 10
112.4406819380356
 20
-146.2022731839355
 10
112.4406819380356
 20
-146.2022731839355
 10
112.4492946767488
 20
-146.2043402412267
 10
112.4703097592088
 20
-146.2148477824567
 10
112.4703097592088
 20
-146.236035119691
 10
112.4703097592088
 20
-146.274103424803
 10
112.404852944989
 20
-146.274103424803
 10
112.3859049198202
 20
-146.274103424803
 10
112.3752251238159
 20
-146.2932237047461
 10
112.3517984745162
 20
-146.3333590671493
 10
112.3221706533431
 20
-146.3736666843267
 10
112.7221462391805
 20
-146.367293257679
 10
112.7517740603537
 20
-146.3650539456136
 10
112.8279106705777
 20
-146.3588527737401
 10
112.8279106705777
 20
-146.3588527737401
 10
112.8279106705777
 20
-146.5407538153613
 10
112.8279106705777
 20
-146.5407538153613
 10
112.8089626454088
 20
-146.5407538153613
 10
112.783468938818
 20
-146.5385145032959
 10
112.5636718468591
 20
-146.530074019357
 10
112.5126844336774
 20
-146.5280069620659
 10
112.2928873417184
 20
-146.5238728474836
 10
112.2484456099587
 20
-146.5238728474836
 10
112.2484456099587
 20
-146.5238728474836
 10
112.0324381230335
 20
-146.5238728474836
 10
112.0324381230335
 20
-146.5238728474836
 10
112.0324381230335
 20
-146.5238728474836
 10
112.0324381230335
 20
-146.6422118774019
 10
112.0324381230335
 20
-146.6422118774019
 10
112.0324381230335
 20
-146.6422118774019
 10
112.2060709354901
 20
-146.6422118774019
 10
112.2060709354901
 20
-146.6422118774019
 10
112.3690239519424
 20
-146.6422118774019
 10
112.5591932227282
 20
-146.6422118774019
 10
112.7159450673071
 20
-146.6317043361719
 10
112.7159450673071
 20
-146.6317043361719
 10
112.7159450673071
 20
-146.8030978365631
 10
112.7159450673071
 20
-146.8030978365631
 10
112.5064832618039
 20
-146.7946573526242
 10
112.3097683095962
 20
-146.7924180405588
 10
112.2060709354901
 20
-146.7924180405588
 10
112.2060709354901
 20
-146.7924180405588
 10
112.0324381230335
 20
-146.7924180405588
 10
112.0324381230335
 20
-146.7924180405588
 10
112.0324381230335
 20
-146.7924180405588
 10
112.0324381230335
 20
-146.9004217840214
 10
112.0324381230335
 20
-146.9004217840214
 10
112.0324381230335
 20
-146.9004217840214
 10
112.2632595205453
 20
-146.9004217840214
 10
112.2632595205453
 20
-146.9004217840214
 10
112.3962402062759
 20
-146.9004217840214
 10
112.6842501888428
 20
-146.8961154146648
 10
112.8933674847975
 20
-146.8897419880171
 10
112.8933674847975
 20
-146.8897419880171
 10
112.8933674847975
 20
-147.067508915056
 10
112.8933674847975
 20
-147.067508915056
 10
112.7011311567205
 20
-147.0611354884083
 10
112.3879719771113
 20
-147.0568291190518
 10
112.2632595205453
 20
-147.0568291190518
 97
        0
 97
        1
330
C5
 75
     2
 76
     1
 98
        1
 10
0.0
 20
0.0
450
        0
451
        0
460
0.0
461
0.0
452
        0
462
0.0
453
        0
470

  0
SPLINE
  5
C7
330
B1
100
AcDbEntity
  8
レイヤー 1
100
AcDbSpline
210
0.0
220
0.0
230
1.0
 70
     9
 71
     3
 72
    29
 73
    25
 74
     0
 42
0.0000000001
 43
0.0000000001
 40
0.0
 40
0.0
 40
0.0
 40
0.0
 40
1.0
 40
1.0
 40
1.0
 40
2.0
 40
2.0
 40
2.0
 40
3.0
 40
3.0
 40
3.0
 40
4.0
 40
4.0
 40
4.0
 40
5.0
 40
5.0
 40
5.0
 40
6.0
 40
6.0
 40
6.0
 40
7.0
 40
7.0
 40
7.0
 40
8.0
 40
8.0
 40
8.0
 40
8.0
 10
114.1384249931668
 20
-146.5047525675405
 30
0.0
 10
114.1384249931668
 20
-146.5047525675405
 30
0.0
 10
113.7849581963801
 20
-146.5047525675405
 30
0.0
 10
113.7849581963801
 20
-146.5047525675405
 30
0.0
 10
113.6729925931095
 20
-146.5047525675405
 30
0.0
 10
113.5334662259569
 20
-146.5111259941882
 30
0.0
 10
113.4256347372686
 20
-146.5238728474836
 30
0.0
 10
113.4256347372686
 20
-146.5238728474836
 30
0.0
 10
113.4256347372686
 20
-146.2889173353896
 30
0.0
 10
113.4256347372686
 20
-146.2889173353896
 30
0.0
 10
113.5438015124127
 20
-146.3037312459761
 30
0.0
 10
113.7281141208735
 20
-146.3080376153327
 30
0.0
 10
113.7849581963801
 20
-146.3080376153327
 30
0.0
 10
113.7849581963801
 20
-146.3080376153327
 30
0.0
 10
114.1384249931668
 20
-146.3080376153327
 30
0.0
 10
114.1384249931668
 20
-146.3080376153327
 30
0.0
 10
114.1573730183356
 20
-146.3080376153327
 30
0.0
 10
114.3606336519654
 20
-146.3080376153327
 30
0.0
 10
114.5022270764092
 20
-146.2889173353896
 30
0.0
 10
114.5022270764092
 20
-146.2889173353896
 30
0.0
 10
114.5022270764092
 20
-146.5238728474836
 30
0.0
 10
114.5022270764092
 20
-146.5238728474836
 30
0.0
 10
114.3458197413788
 20
-146.5047525675405
 30
0.0
 10
114.1553059610445
 20
-146.5047525675405
 30
0.0
 10
114.1384249931668
 20
-146.5047525675405
 30
0.0
  0
SPLINE
  5
C8
330
B1
100
AcDbEntity
  8
レイヤー 1
100
AcDbSpline
210
0.0
220
0.0
230
1.0
 70
     9
 71
     3
 72
    47
 73
    43
 74
     0
 42
0.0000000001
 43
0.0000000001
 40
0.0
 40
0.0
 40
0.0
 40
0.0
 40
1.0
 40
1.0
 40
1.0
 40
2.0
 40
2.0
 40
2.0
 40
3.0
 40
3.0
 40
3.0
 40
4.0
 40
4.0
 40
4.0
 40
5.0
 40
5.0
 40
5.0
 40
6.0
 40
6.0
 40
6.0
 40
7.0
 40
7.0
 40
7.0
 40
8.0
 40
8.0
 40
8.0
 40
9.0
 40
9.0
 40
9.0
 40
10.0
 40
10.0
 40
10.0
 40
11.0
 40
11.0
 40
11.0
 40
12.0
 40
12.0
 40
12.0
 40
13.0
 40
13.0
 40
13.0
 40
14.0
 40
14.0
 40
14.0
 40
14.0
 10
114.2400553099816
 20
-147.0335747245263
 30
0.0
 10
114.2400553099816
 20
-147.0335747245263
 30
0.0
 10
114.1384249931668
 20
-147.0335747245263
 30
0.0
 10
114.1384249931668
 20
-147.0335747245263
 30
0.0
 10
114.1384249931668
 20
-147.1203911307546
 30
0.0
 10
114.1174099107068
 20
-147.5096869205878
 30
0.0
 10
113.920694958499
 20
-147.7296562673211
 30
0.0
 10
113.7680772285024
 20
-147.8988104556468
 30
0.0
 10
113.5610269898389
 20
-147.9687458939974
 30
0.0
 10
113.4762776409018
 20
-147.9961344031051
 30
0.0
 10
113.4762776409018
 20
-147.9961344031051
 30
0.0
 10
113.2816297459851
 20
-147.8290472720705
 30
0.0
 10
113.2816297459851
 20
-147.8290472720705
 30
0.0
 10
113.3791259482177
 20
-147.8163004187751
 30
0.0
 10
113.5544813084169
 20
-147.7930460242497
 30
0.0
 10
113.7429280314601
 20
-147.6047715559808
 30
0.0
 10
113.816997584393
 20
-147.5329413151133
 30
0.0
 10
113.920694958499
 20
-147.3932426931864
 30
0.0
 10
113.920694958499
 20
-147.0335747245263
 30
0.0
 10
113.920694958499
 20
-147.0335747245263
 30
0.0
 10
113.6898735609872
 20
-147.0335747245263
 30
0.0
 10
113.6898735609872
 20
-147.0335747245263
 30
0.0
 10
113.5038384047837
 20
-147.0335747245263
 30
0.0
 10
113.3174587390317
 20
-147.0378810938829
 30
0.0
 10
113.1314235828282
 20
-147.0526950044695
 30
0.0
 10
113.1314235828282
 20
-147.0526950044695
 30
0.0
 10
113.1314235828282
 20
-146.8327256577362
 30
0.0
 10
113.1314235828282
 20
-146.8327256577362
 30
0.0
 10
113.3198703058714
 20
-146.8475395683228
 30
0.0
 10
113.6054687215986
 20
-146.8516736829051
 30
0.0
 10
113.6898735609872
 20
-146.8516736829051
 30
0.0
 10
113.6898735609872
 20
-146.8516736829051
 30
0.0
 10
114.2400553099816
 20
-146.8516736829051
 30
0.0
 10
114.2400553099816
 20
-146.8516736829051
 30
0.0
 10
114.2590033351505
 20
-146.8516736829051
 30
0.0
 10
114.576296629342
 20
-146.8516736829051
 30
0.0
 10
114.8047064600141
 20
-146.8327256577362
 30
0.0
 10
114.8047064600141
 20
-146.8327256577362
 30
0.0
 10
114.8047064600141
 20
-147.0526950044695
 30
0.0
 10
114.8047064600141
 20
-147.0526950044695
 30
0.0
 10
114.6166042465194
 20
-147.0378810938829
 30
0.0
 10
114.4281575234763
 20
-147.0335747245263
 30
0.0
 10
114.2400553099816
 20
-147.0335747245263
 30
0.0
  0
HATCH
  5
C9
330
B1
100
AcDbEntity
  8
レイヤー 1
 62
   250
420
  2299925
440
 33554687
100
AcDbHatch
 10
0.0
 20
0.0
 30
0.0
210
0.0
220
0.0
230
1.0
  2
SOLID
 70
     1
 71
     1
 91
        2
 92
        1
 93
        1
 72
     4
 94
        3
 73
     0
 74
     0
 95
       29
 96
       25
 40
0.0
 40
0.0
 40
0.0
 40
0.0
 40
1.0
 40
1.0
 40
1.0
 40
2.0
 40
2.0
 40
2.0
 40
3.0
 40
3.0
 40
3.0
 40
4.0
 40
4.0
 40
4.0
 40
5.0
 40
5.0
 40
5.0
 40
6.0
 40
6.0
 40
6.0
 40
7.0
 40
7.0
 40
7.0
 40
8.0
 40
8.0
 40
8.0
 40
8.0
 10
114.1384249931668
 20
-146.5047525675405
 10
114.1384249931668
 20
-146.5047525675405
 10
113.7849581963801
 20
-146.5047525675405
 10
113.7849581963801
 20
-146.5047525675405
 10
113.6729925931095
 20
-146.5047525675405
 10
113.5334662259569
 20
-146.5111259941882
 10
113.4256347372686
 20
-146.5238728474836
 10
113.4256347372686
 20
-146.5238728474836
 10
113.4256347372686
 20
-146.2889173353896
 10
113.4256347372686
 20
-146.2889173353896
 10
113.5438015124127
 20
-146.3037312459761
 10
113.7281141208735
 20
-146.3080376153327
 10
113.7849581963801
 20
-146.3080376153327
 10
113.7849581963801
 20
-146.3080376153327
 10
114.1384249931668
 20
-146.3080376153327
 10
114.1384249931668
 20
-146.3080376153327
 10
114.1573730183356
 20
-146.3080376153327
 10
114.3606336519654
 20
-146.3080376153327
 10
114.5022270764092
 20
-146.2889173353896
 10
114.5022270764092
 20
-146.2889173353896
 10
114.5022270764092
 20
-146.5238728474836
 10
114.5022270764092
 20
-146.5238728474836
 10
114.3458197413788
 20
-146.5047525675405
 10
114.1553059610445
 20
-146.5047525675405
 10
114.1384249931668
 20
-146.5047525675405
 97
        0
 97
        1
330
C7
 92
        1
 93
        1
 72
     4
 94
        3
 73
     0
 74
     0
 95
       47
 96
       43
 40
0.0
 40
0.0
 40
0.0
 40
0.0
 40
1.0
 40
1.0
 40
1.0
 40
2.0
 40
2.0
 40
2.0
 40
3.0
 40
3.0
 40
3.0
 40
4.0
 40
4.0
 40
4.0
 40
5.0
 40
5.0
 40
5.0
 40
6.0
 40
6.0
 40
6.0
 40
7.0
 40
7.0
 40
7.0
 40
8.0
 40
8.0
 40
8.0
 40
9.0
 40
9.0
 40
9.0
 40
10.0
 40
10.0
 40
10.0
 40
11.0
 40
11.0
 40
11.0
 40
12.0
 40
12.0
 40
12.0
 40
13.0
 40
13.0
 40
13.0
 40
14.0
 40
14.0
 40
14.0
 40
14.0
 10
114.2400553099816
 20
-147.0335747245263
 10
114.2400553099816
 20
-147.0335747245263
 10
114.1384249931668
 20
-147.0335747245263
 10
114.1384249931668
 20
-147.0335747245263
 10
114.1384249931668
 20
-147.1203911307546
 10
114.1174099107068
 20
-147.5096869205878
 10
113.920694958499
 20
-147.7296562673211
 10
113.7680772285024
 20
-147.8988104556468
 10
113.5610269898389
 20
-147.9687458939974
 10
113.4762776409018
 20
-147.9961344031051
 10
113.4762776409018
 20
-147.9961344031051
 10
113.2816297459851
 20
-147.8290472720705
 10
113.2816297459851
 20
-147.8290472720705
 10
113.3791259482177
 20
-147.8163004187751
 10
113.5544813084169
 20
-147.7930460242497
 10
113.7429280314601
 20
-147.6047715559808
 10
113.816997584393
 20
-147.5329413151133
 10
113.920694958499
 20
-147.3932426931864
 10
113.920694958499
 20
-147.0335747245263
 10
113.920694958499
 20
-147.0335747245263
 10
113.6898735609872
 20
-147.0335747245263
 10
113.6898735609872
 20
-147.0335747245263
 10
113.5038384047837
 20
-147.0335747245263
 10
113.3174587390317
 20
-147.0378810938829
 10
113.1314235828282
 20
-147.0526950044695
 10
113.1314235828282
 20
-147.0526950044695
 10
113.1314235828282
 20
-146.8327256577362
 10
113.1314235828282
 20
-146.8327256577362
 10
113.3198703058714
 20
-146.8475395683228
 10
113.6054687215986
 20
-146.8516736829051
 10
113.6898735609872
 20
-146.8516736829051
 10
113.6898735609872
 20
-146.8516736829051
 10
114.2400553099816
 20
-146.8516736829051
 10
114.2400553099816
 20
-146.8516736829051
 10
114.2590033351505
 20
-146.8516736829051
 10
114.576296629342
 20
-146.8516736829051
 10
114.8047064600141
 20
-146.8327256577362
 10
114.8047064600141
 20
-146.8327256577362
 10
114.8047064600141
 20
-147.0526950044695
 10
114.8047064600141
 20
-147.0526950044695
 10
114.6166042465194
 20
-147.0378810938829
 10
114.4281575234763
 20
-147.0335747245263
 10
114.2400553099816
 20
-147.0335747245263
 97
        0
 97
        1
330
C8
 75
     2
 76
     1
 98
        1
 10
0.0
 20
0.0
450
        0
451
        0
460
0.0
461
0.0
452
        0
462
0.0
453
        0
470

  0
SPLINE
  5
CA
330
B1
100
AcDbEntity
  8
レイヤー 1
100
AcDbSpline
210
0.0
220
0.0
230
1.0
 70
     9
 71
     3
 72
    29
 73
    25
 74
     0
 42
0.0000000001
 43
0.0000000001
 40
0.0
 40
0.0
 40
0.0
 40
0.0
 40
1.0
 40
1.0
 40
1.0
 40
2.0
 40
2.0
 40
2.0
 40
3.0
 40
3.0
 40
3.0
 40
4.0
 40
4.0
 40
4.0
 40
5.0
 40
5.0
 40
5.0
 40
6.0
 40
6.0
 40
6.0
 40
7.0
 40
7.0
 40
7.0
 40
8.0
 40
8.0
 40
8.0
 40
8.0
 10
116.0859374709785
 20
-147.1965277409786
 30
0.0
 10
116.0859374709785
 20
-147.1965277409786
 30
0.0
 10
115.6015570457524
 20
-147.1965277409786
 30
0.0
 10
115.6015570457524
 20
-147.1965277409786
 30
0.0
 10
115.5739962818704
 20
-147.1965277409786
 30
0.0
 10
115.2567029876788
 20
-147.1965277409786
 30
0.0
 10
115.0451741248845
 20
-147.2218491927952
 30
0.0
 10
115.0451741248845
 20
-147.2218491927952
 30
0.0
 10
115.0451741248845
 20
-146.991372304832
 30
0.0
 10
115.0451741248845
 20
-146.991372304832
 30
0.0
 10
115.203648517206
 20
-147.0146266993574
 30
0.0
 10
115.3941622975403
 20
-147.0166937566486
 30
0.0
 10
115.6015570457524
 20
-147.0166937566486
 30
0.0
 10
115.6015570457524
 20
-147.0166937566486
 30
0.0
 10
116.0859374709785
 20
-147.0166937566486
 30
0.0
 10
116.0859374709785
 20
-147.0166937566486
 30
0.0
 10
116.271972627182
 20
-147.0166937566486
 30
0.0
 10
116.458352292934
 20
-147.0146266993574
 30
0.0
 10
116.6423203918463
 20
-146.991372304832
 30
0.0
 10
116.6423203918463
 20
-146.991372304832
 30
0.0
 10
116.6423203918463
 20
-147.2218491927952
 30
0.0
 10
116.6423203918463
 20
-147.2218491927952
 30
0.0
 10
116.458352292934
 20
-147.1985947982698
 30
0.0
 10
116.2106499275445
 20
-147.1965277409786
 30
0.0
 10
116.0859374709785
 20
-147.1965277409786
 30
0.0
  0
HATCH
  5
CB
330
B1
100
AcDbEntity
  8
レイヤー 1
 62
   250
420
  2299925
440
 33554687
100
AcDbHatch
 10
0.0
 20
0.0
 30
0.0
210
0.0
220
0.0
230
1.0
  2
SOLID
 70
     1
 71
     1
 91
        1
 92
        1
 93
        1
 72
     4
 94
        3
 73
     0
 74
     0
 95
       29
 96
       25
 40
0.0
 40
0.0
 40
0.0
 40
0.0
 40
1.0
 40
1.0
 40
1.0
 40
2.0
 40
2.0
 40
2.0
 40
3.0
 40
3.0
 40
3.0
 40
4.0
 40
4.0
 40
4.0
 40
5.0
 40
5.0
 40
5.0
 40
6.0
 40
6.0
 40
6.0
 40
7.0
 40
7.0
 40
7.0
 40
8.0
 40
8.0
 40
8.0
 40
8.0
 10
116.0859374709785
 20
-147.1965277409786
 10
116.0859374709785
 20
-147.1965277409786
 10
115.6015570457524
 20
-147.1965277409786
 10
115.6015570457524
 20
-147.1965277409786
 10
115.5739962818704
 20
-147.1965277409786
 10
115.2567029876788
 20
-147.1965277409786
 10
115.0451741248845
 20
-147.2218491927952
 10
115.0451741248845
 20
-147.2218491927952
 10
115.0451741248845
 20
-146.991372304832
 10
115.0451741248845
 20
-146.991372304832
 10
115.203648517206
 20
-147.0146266993574
 10
115.3941622975403
 20
-147.0166937566486
 10
115.6015570457524
 20
-147.0166937566486
 10
115.6015570457524
 20
-147.0166937566486
 10
116.0859374709785
 20
-147.0166937566486
 10
116.0859374709785
 20
-147.0166937566486
 10
116.271972627182
 20
-147.0166937566486
 10
116.458352292934
 20
-147.0146266993574
 10
116.6423203918463
 20
-146.991372304832
 10
116.6423203918463
 20
-146.991372304832
 10
116.6423203918463
 20
-147.2218491927952
 10
116.6423203918463
 20
-147.2218491927952
 10
116.458352292934
 20
-147.1985947982698
 10
116.2106499275445
 20
-147.1965277409786
 10
116.0859374709785
 20
-147.1965277409786
 97
        0
 97
        1
330
CA
 75
     2
 76
     1
 98
        1
 10
0.0
 20
0.0
450
        0
451
        0
460
0.0
461
0.0
452
        0
462
0.0
453
        0
470

  0
SPLINE
  5
CC
330
B1
100
AcDbEntity
  8
レイヤー 1
100
AcDbSpline
210
0.0
220
0.0
230
1.0
 70
     9
 71
     3
 72
    17
 73
    13
 74
     0
 42
0.0000000001
 43
0.0000000001
 40
0.0
 40
0.0
 40
0.0
 40
0.0
 40
1.0
 40
1.0
 40
1.0
 40
2.0
 40
2.0
 40
2.0
 40
3.0
 40
3.0
 40
3.0
 40
4.0
 40
4.0
 40
4.0
 40
4.0
 10
118.5047390111724
 20
-146.2296616930433
 30
0.0
 10
118.4499619929569
 20
-146.2296616930433
 30
0.0
 10
118.4055202611972
 20
-146.274103424803
 30
0.0
 10
118.4055202611972
 20
-146.329224952567
 30
0.0
 10
118.4055202611972
 20
-146.3862412828479
 30
0.0
 10
118.4499619929569
 20
-146.4349893839641
 30
0.0
 10
118.5088731257547
 20
-146.4349893839641
 30
0.0
 10
118.568128768101
 20
-146.4349893839641
 30
0.0
 10
118.6084363852784
 20
-146.3841742255567
 30
0.0
 10
118.6084363852784
 20
-146.3312920098581
 30
0.0
 10
118.6084363852784
 20
-146.274103424803
 30
0.0
 10
118.5619275962276
 20
-146.2296616930433
 30
0.0
 10
118.5047390111724
 20
-146.2296616930433
 30
0.0
  0
SPLINE
  5
CD
330
B1
100
AcDbEntity
  8
レイヤー 1
100
AcDbSpline
210
0.0
220
0.0
230
1.0
 70
     9
 71
     3
 72
    17
 73
    13
 74
     0
 42
0.0000000001
 43
0.0000000001
 40
0.0
 40
0.0
 40
0.0
 40
0.0
 40
1.0
 40
1.0
 40
1.0
 40
2.0
 40
2.0
 40
2.0
 40
3.0
 40
3.0
 40
3.0
 40
4.0
 40
4.0
 40
4.0
 40
4.0
 10
118.5068060684636
 20
-146.5597018405302
 30
0.0
 10
118.3800265546064
 20
-146.5597018405302
 30
0.0
 10
118.2783962377915
 20
-146.4582437784896
 30
0.0
 10
118.2783962377915
 20
-146.3312920098581
 30
0.0
 10
118.2783962377915
 20
-146.2043402412267
 30
0.0
 10
118.3800265546064
 20
-146.1006428671207
 30
0.0
 10
118.5068060684636
 20
-146.1006428671207
 30
0.0
 10
118.6339300918693
 20
-146.1006428671207
 30
0.0
 10
118.7376274659753
 20
-146.2043402412267
 30
0.0
 10
118.7376274659753
 20
-146.3312920098581
 30
0.0
 10
118.7376274659753
 20
-146.4582437784896
 30
0.0
 10
118.6339300918693
 20
-146.5597018405302
 30
0.0
 10
118.5068060684636
 20
-146.5597018405302
 30
0.0
  0
SPLINE
  5
CE
330
B1
100
AcDbEntity
  8
レイヤー 1
100
AcDbSpline
210
0.0
220
0.0
230
1.0
 70
     9
 71
     3
 72
    44
 73
    40
 74
     0
 42
0.0000000001
 43
0.0000000001
 40
0.0
 40
0.0
 40
0.0
 40
0.0
 40
1.0
 40
1.0
 40
1.0
 40
2.0
 40
2.0
 40
2.0
 40
3.0
 40
3.0
 40
3.0
 40
4.0
 40
4.0
 40
4.0
 40
5.0
 40
5.0
 40
5.0
 40
6.0
 40
6.0
 40
6.0
 40
7.0
 40
7.0
 40
7.0
 40
8.0
 40
8.0
 40
8.0
 40
9.0
 40
9.0
 40
9.0
 40
10.0
 40
10.0
 40
10.0
 40
11.0
 40
11.0
 40
11.0
 40
12.0
 40
12.0
 40
12.0
 40
13.0
 40
13.0
 40
13.0
 40
13.0
 10
118.2973442629604
 20
-146.7586561048034
 30
0.0
 10
118.1853786596898
 20
-147.1267645574023
 30
0.0
 10
118.1347357560566
 20
-147.2854112044981
 30
0.0
 10
117.9380208038488
 20
-147.5350083724045
 30
0.0
 10
117.7537081953879
 20
-147.7656575151419
 30
0.0
 10
117.5170301355513
 20
-147.9516926713454
 30
0.0
 10
117.2376328916975
 20
-148.0448825042214
 30
0.0
 10
117.2376328916975
 20
-148.0448825042214
 30
0.0
 10
117.045052054072
 20
-147.8650485198914
 30
0.0
 10
117.045052054072
 20
-147.8650485198914
 30
0.0
 10
117.686184323877
 20
-147.7127752994433
 30
0.0
 10
118.016224471364
 20
-147.1563923785755
 30
0.0
 10
118.0796142282926
 20
-146.7162814303348
 30
0.0
 10
118.0796142282926
 20
-146.7162814303348
 30
0.0
 10
117.3137695019216
 20
-146.7162814303348
 30
0.0
 10
117.3137695019216
 20
-146.7162814303348
 30
0.0
 10
117.2207519238198
 20
-146.7162814303348
 30
0.0
 10
117.0367838249074
 20
-146.7205877996914
 30
0.0
 10
116.8800319803286
 20
-146.7395358248603
 30
0.0
 10
116.8800319803286
 20
-146.7395358248603
 30
0.0
 10
116.8800319803286
 20
-146.519566478127
 30
0.0
 10
116.8800319803286
 20
-146.519566478127
 30
0.0
 10
116.9668483865569
 20
-146.5407538153613
 30
0.0
 10
117.2186848665286
 20
-146.5407538153613
 30
0.0
 10
117.3179036165038
 20
-146.5407538153613
 30
0.0
 10
117.3179036165038
 20
-146.5407538153613
 30
0.0
 10
117.7495740808057
 20
-146.5407538153613
 30
0.0
 10
117.7495740808057
 20
-146.5407538153613
 30
0.0
 10
117.7919487552742
 20
-146.5407538153613
 30
0.0
 10
118.0265597578197
 20
-146.5385145032959
 30
0.0
 10
118.064800317706
 20
-146.5323133314224
 30
0.0
 10
118.1071749921746
 20
-146.5259399047747
 30
0.0
 10
118.1092420494657
 20
-146.5238728474836
 30
0.0
 10
118.1705647491032
 20
-146.4835652303062
 30
0.0
 10
118.1705647491032
 20
-146.4835652303062
 30
0.0
 10
118.3586669625978
 20
-146.6380777628196
 30
0.0
 10
118.3586669625978
 20
-146.6380777628196
 30
0.0
 10
118.3293836509732
 20
-146.6677055839928
 30
0.0
 10
118.3145697403866
 20
-146.6994004624571
 30
0.0
 10
118.2973442629604
 20
-146.7586561048034
 30
0.0
  0
HATCH
  5
CF
330
B1
100
AcDbEntity
  8
レイヤー 1
 62
   250
420
  2299925
440
 33554687
100
AcDbHatch
 10
0.0
 20
0.0
 30
0.0
210
0.0
220
0.0
230
1.0
  2
SOLID
 70
     1
 71
     1
 91
        3
 92
        1
 93
        1
 72
     4
 94
        3
 73
     0
 74
     0
 95
       17
 96
       13
 40
0.0
 40
0.0
 40
0.0
 40
0.0
 40
1.0
 40
1.0
 40
1.0
 40
2.0
 40
2.0
 40
2.0
 40
3.0
 40
3.0
 40
3.0
 40
4.0
 40
4.0
 40
4.0
 40
4.0
 10
118.5047390111724
 20
-146.2296616930433
 10
118.4499619929569
 20
-146.2296616930433
 10
118.4055202611972
 20
-146.274103424803
 10
118.4055202611972
 20
-146.329224952567
 10
118.4055202611972
 20
-146.3862412828479
 10
118.4499619929569
 20
-146.4349893839641
 10
118.5088731257547
 20
-146.4349893839641
 10
118.568128768101
 20
-146.4349893839641
 10
118.6084363852784
 20
-146.3841742255567
 10
118.6084363852784
 20
-146.3312920098581
 10
118.6084363852784
 20
-146.274103424803
 10
118.5619275962276
 20
-146.2296616930433
 10
118.5047390111724
 20
-146.2296616930433
 97
        0
 97
        1
330
CC
 92
        1
 93
        1
 72
     4
 94
        3
 73
     0
 74
     0
 95
       17
 96
       13
 40
0.0
 40
0.0
 40
0.0
 40
0.0
 40
1.0
 40
1.0
 40
1.0
 40
2.0
 40
2.0
 40
2.0
 40
3.0
 40
3.0
 40
3.0
 40
4.0
 40
4.0
 40
4.0
 40
4.0
 10
118.5068060684636
 20
-146.5597018405302
 10
118.3800265546064
 20
-146.5597018405302
 10
118.2783962377915
 20
-146.4582437784896
 10
118.2783962377915
 20
-146.3312920098581
 10
118.2783962377915
 20
-146.2043402412267
 10
118.3800265546064
 20
-146.1006428671207
 10
118.5068060684636
 20
-146.1006428671207
 10
118.6339300918693
 20
-146.1006428671207
 10
118.7376274659753
 20
-146.2043402412267
 10
118.7376274659753
 20
-146.3312920098581
 10
118.7376274659753
 20
-146.4582437784896
 10
118.6339300918693
 20
-146.5597018405302
 10
118.5068060684636
 20
-146.5597018405302
 97
        0
 97
        1
330
CD
 92
        1
 93
        1
 72
     4
 94
        3
 73
     0
 74
     0
 95
       44
 96
       40
 40
0.0
 40
0.0
 40
0.0
 40
0.0
 40
1.0
 40
1.0
 40
1.0
 40
2.0
 40
2.0
 40
2.0
 40
3.0
 40
3.0
 40
3.0
 40
4.0
 40
4.0
 40
4.0
 40
5.0
 40
5.0
 40
5.0
 40
6.0
 40
6.0
 40
6.0
 40
7.0
 40
7.0
 40
7.0
 40
8.0
 40
8.0
 40
8.0
 40
9.0
 40
9.0
 40
9.0
 40
10.0
 40
10.0
 40
10.0
 40
11.0
 40
11.0
 40
11.0
 40
12.0
 40
12.0
 40
12.0
 40
13.0
 40
13.0
 40
13.0
 40
13.0
 10
118.2973442629604
 20
-146.7586561048034
 10
118.1853786596898
 20
-147.1267645574023
 10
118.1347357560566
 20
-147.2854112044981
 10
117.9380208038488
 20
-147.5350083724045
 10
117.7537081953879
 20
-147.7656575151419
 10
117.5170301355513
 20
-147.9516926713454
 10
117.2376328916975
 20
-148.0448825042214
 10
117.2376328916975
 20
-148.0448825042214
 10
117.045052054072
 20
-147.8650485198914
 10
117.045052054072
 20
-147.8650485198914
 10
117.686184323877
 20
-147.7127752994433
 10
118.016224471364
 20
-147.1563923785755
 10
118.0796142282926
 20
-146.7162814303348
 10
118.0796142282926
 20
-146.7162814303348
 10
117.3137695019216
 20
-146.7162814303348
 10
117.3137695019216
 20
-146.7162814303348
 10
117.2207519238198
 20
-146.7162814303348
 10
117.0367838249074
 20
-146.7205877996914
 10
116.8800319803286
 20
-146.7395358248603
 10
116.8800319803286
 20
-146.7395358248603
 10
116.8800319803286
 20
-146.519566478127
 10
116.8800319803286
 20
-146.519566478127
 10
116.9668483865569
 20
-146.5407538153613
 10
117.2186848665286
 20
-146.5407538153613
 10
117.3179036165038
 20
-146.5407538153613
 10
117.3179036165038
 20
-146.5407538153613
 10
117.7495740808057
 20
-146.5407538153613
 10
117.7495740808057
 20
-146.5407538153613
 10
117.7919487552742
 20
-146.5407538153613
 10
118.0265597578197
 20
-146.5385145032959
 10
118.064800317706
 20
-146.5323133314224
 10
118.1071749921746
 20
-146.5259399047747
 10
118.1092420494657
 20
-146.5238728474836
 10
118.1705647491032
 20
-146.4835652303062
 10
118.1705647491032
 20
-146.4835652303062
 10
118.3586669625978
 20
-146.6380777628196
 10
118.3586669625978
 20
-146.6380777628196
 10
118.3293836509732
 20
-146.6677055839928
 10
118.3145697403866
 20
-146.6994004624571
 10
118.2973442629604
 20
-146.7586561048034
 97
        0
 97
        1
330
CE
 75
     2
 76
     1
 98
        1
 10
0.0
 20
0.0
450
        0
451
        0
460
0.0
461
0.0
452
        0
462
0.0
453
        0
470

  0
ENDBLK
  5
B4
330
B1
100
AcDbEntity
  8
0
100
AcDbBlockEnd
  0
ENDSEC
  0
SECTION
  2
ENTITIES
  0
INSERT
  5
7A
330
70
100
AcDbEntity
  8
レイヤー 1
100
AcDbBlockReference
  2
Block_0
 10
0.0
 20
0.0
 30
0.0
  0
LINE
  5
A4
330
70
100
AcDbEntity
  8
レイヤー 1
  6
AI-Linetype-0
 62
   154
420
    23468
370
    25
100
AcDbLine
 10
90.5527657031121
 20
-150.6879062675902
 30
0.0
 11
99.51210940817421
 21
-150.6879062675902
 31
0.0
  0
INSERT
  5
A7
330
70
100
AcDbEntity
  8
レイヤー 1
100
AcDbBlockReference
  2
Block_6
 10
0.0
 20
0.0
 30
0.0
  0
INSERT
  5
AE
330
70
100
AcDbEntity
  8
レイヤー 1
100
AcDbBlockReference
  2
Block_7
 10
0.0
 20
0.0
 30
0.0
  0
ENDSEC
  0
SECTION
  2
OBJECTS
  0
DICTIONARY
  5
C
330
0
100
AcDbDictionary
281
     1
  3
ACAD_COLOR
350
63
  3
ACAD_DETAILVIEWSTYLE
350
6A
  3
ACAD_GROUP
350
D
  3
ACAD_LAYOUT
350
62
  3
ACAD_MATERIAL
350
10
  3
ACAD_MLEADERSTYLE
350
66
  3
ACAD_MLINESTYLE
350
5F
  3
ACAD_PLOTSETTINGS
350
61
  3
ACAD_PLOTSTYLENAME
350
E
  3
ACAD_SCALELIST
350
42
  3
ACAD_SECTIONVIEWSTYLE
350
68
  3
ACAD_TABLESTYLE
350
64
  3
ACAD_VISUALSTYLE
350
29
  3
ACDB_RECOMPOSE_DATA
350
D8
  3
AcDbVariableDictionary
350
D0
  0
DICTIONARY
  5
63
102
{ACAD_REACTORS
330
C
102
}
330
C
100
AcDbDictionary
281
     1
  0
DICTIONARY
  5
6A
102
{ACAD_REACTORS
330
C
102
}
330
C
100
AcDbDictionary
281
     1
  3
Imperial24
350
6B
  0
DICTIONARY
  5
D
102
{ACAD_REACTORS
330
C
102
}
330
C
100
AcDbDictionary
281
     1
  0
DICTIONARY
  5
62
102
{ACAD_REACTORS
330
C
102
}
330
C
100
AcDbDictionary
281
     1
  3
Layout1
350
6F
  3
Layout2
350
77
  3
Model
350
73
  0
DICTIONARY
  5
10
102
{ACAD_REACTORS
330
C
102
}
330
C
100
AcDbDictionary
281
     1
  3
ByBlock
350
19
  3
ByLayer
350
11
  3
Global
350
21
  0
DICTIONARY
  5
66
102
{ACAD_REACTORS
330
C
102
}
330
C
100
AcDbDictionary
281
     1
  3
Standard
350
67
  0
DICTIONARY
  5
5F
102
{ACAD_REACTORS
330
C
102
}
330
C
100
AcDbDictionary
281
     1
  3
Standard
350
60
  0
DICTIONARY
  5
61
102
{ACAD_REACTORS
330
C
102
}
330
C
100
AcDbDictionary
281
     1
  0
ACDBDICTIONARYWDFLT
  5
E
102
{ACAD_REACTORS
330
C
102
}
330
C
100
AcDbDictionary
281
     1
  3
Normal
350
F
100
AcDbDictionaryWithDefault
340
F
  0
DICTIONARY
  5
42
102
{ACAD_REACTORS
330
C
102
}
330
C
100
AcDbDictionary
281
     1
  3
A0
350
43
  3
A1
350
44
  3
A2
350
45
  3
A3
350
46
  3
A4
350
47
  3
A5
350
48
  3
A6
350
49
  3
A7
350
4A
  3
A8
350
4B
  3
A9
350
4C
  3
B0
350
4D
  3
B1
350
4E
  3
B2
350
4F
  3
B3
350
50
  3
B4
350
51
  3
B5
350
52
  3
B6
350
53
  0
DICTIONARY
  5
68
102
{ACAD_REACTORS
330
C
102
}
330
C
100
AcDbDictionary
281
     1
  3
Imperial24
350
69
  0
DICTIONARY
  5
64
102
{ACAD_REACTORS
330
C
102
}
330
C
100
AcDbDictionary
281
     1
  3
Standard
350
65
  0
DICTIONARY
  5
29
102
{ACAD_REACTORS
330
C
102
}
330
C
100
AcDbDictionary
281
     1
  3
2dWireframe
350
2F
  3
Basic
350
2E
  3
Brighten
350
35
  3
ColorChange
350
39
  3
Conceptual
350
32
  3
Dim
350
34
  3
EdgeColorOff
350
41
  3
Facepattern
350
38
  3
Flat
350
2A
  3
FlatWithEdges
350
2B
  3
Gouraud
350
2C
  3
GouraudWithEdges
350
2D
  3
Hidden
350
31
  3
JitterOff
350
3F
  3
Linepattern
350
37
  3
OverhangOff
350
40
  3
Realistic
350
33
  3
Shaded
350
3E
  3
Shaded with edges
350
3D
  3
Shades of Gray
350
3A
  3
Sketchy
350
3B
  3
Thicken
350
36
  3
Wireframe
350
30
  3
X-Ray
350
3C
  0
XRECORD
  5
D8
102
{ACAD_REACTORS
330
C
102
}
330
C
100
AcDbXrecord
280
     1
 90
        1
330
65
  0
DICTIONARY
  5
D0
102
{ACAD_REACTORS
330
C
102
}
330
C
100
AcDbDictionary
281
     1
  3
CANNOSCALE
350
D5
  3
CMLEADERSTYLE
350
D2
  3
CTABLESTYLE
350
D1
  3
CVIEWDETAILSTYLE
350
D3
  3
CVIEWSECTIONSTYLE
350
D4
  0
ACDBDETAILVIEWSTYLE
  5
6B
102
{ACAD_XDICTIONARY
360
10D
102
}
102
{ACAD_REACTORS
330
6A
102
}
330
6A
100
AcDbModelDocViewStyle
 70
     0
  3
Imperial24
290
     0
100
AcDbDetailViewStyle
 70
     0
 71
     0
 90
        3
 71
     1
340
55
 62
   256
 40
0.24
340
0
 62
   256
 40
0.24
300

 40
0.36
280
     3
 71
     2
340
5D
 90
       25
 62
   256
 71
     3
340
55
 62
   256
 40
0.24
 90
        1
 40
0.75
 90
        1
300
%<\AcVar ViewType \f "%tc1">% %<\AcVar ViewDetailId>%\PSCALE %<\AcVar ViewScale \f "%sn">%
 71
     4
340
5D
 90
       25
 62
   256
340
5D
 90
       25
 62
   256
280
     0
  0
LAYOUT
  5
6F
102
{ACAD_REACTORS
330
62
102
}
330
62
100
AcDbPlotSettings
  1

  2

  4

  6

 40
0.0
 41
0.0
 42
0.0
 43
0.0
 44
0.0
 45
0.0
 46
0.0
 47
0.0
 48
0.0
 49
0.0
140
0.0
141
0.0
142
1.0
143
1.0
 70
   688
 72
     0
 73
     0
 74
     5
  7

 75
    16
147
1.0
 76
     0
 77
     2
 78
   300
148
0.0
149
0.0
100
AcDbLayout
  1
Layout1
 70
     1
 71
     1
 10
0.0
 20
0.0
 11
12.0
 21
9.0
 12
0.0
 22
0.0
 32
0.0
 14
0.0
 24
0.0
 34
0.0
 15
0.0
 25
0.0
 35
0.0
146
0.0
 13
0.0
 23
0.0
 33
0.0
 16
1.0
 26
0.0
 36
0.0
 17
0.0
 27
1.0
 37
0.0
 76
     0
330
6C
  0
LAYOUT
  5
77
102
{ACAD_REACTORS
330
62
102
}
330
62
100
AcDbPlotSettings
  1

  2

  4

  6

 40
0.0
 41
0.0
 42
0.0
 43
0.0
 44
0.0
 45
0.0
 46
0.0
 47
0.0
 48
0.0
 49
0.0
140
0.0
141
0.0
142
1.0
143
1.0
 70
   688
 72
     0
 73
     0
 74
     5
  7

 75
    16
147
1.0
 76
     0
 77
     2
 78
   300
148
0.0
149
0.0
100
AcDbLayout
  1
Layout2
 70
     1
 71
     2
 10
0.0
 20
0.0
 11
12.0
 21
9.0
 12
0.0
 22
0.0
 32
0.0
 14
0.0
 24
0.0
 34
0.0
 15
0.0
 25
0.0
 35
0.0
146
0.0
 13
0.0
 23
0.0
 33
0.0
 16
1.0
 26
0.0
 36
0.0
 17
0.0
 27
1.0
 37
0.0
 76
     0
330
74
  0
LAYOUT
  5
73
102
{ACAD_REACTORS
330
62
102
}
330
62
100
AcDbPlotSettings
  1

  2

  4

  6

 40
0.0
 41
0.0
 42
0.0
 43
0.0
 44
0.0
 45
0.0
 46
0.0
 47
0.0
 48
0.0
 49
0.0
140
0.0
141
0.0
142
1.0
143
1.0
 70
  1712
 72
     0
 73
     0
 74
     0
  7

 75
     0
147
1.0
 76
     0
 77
     2
 78
   300
148
0.0
149
0.0
100
AcDbLayout
  1
Model
 70
     1
 71
     0
 10
0.0
 20
0.0
 11
12.0
 21
9.0
 12
0.0
 22
0.0
 32
0.0
 14
0.0
 24
0.0
 34
0.0
 15
0.0
 25
0.0
 35
0.0
146
0.0
 13
0.0
 23
0.0
 33
0.0
 16
1.0
 26
0.0
 36
0.0
 17
0.0
 27
1.0
 37
0.0
 76
     0
330
70
  0
MATERIAL
  5
19
102
{ACAD_XDICTIONARY
360
1A
102
}
102
{ACAD_REACTORS
330
10
102
}
330
10
100
AcDbMaterial
  1
ByBlock
 72
     0
 43
0.0208333333333333
 43
0.0
 43
0.0
 43
0.0
 43
0.0
 43
0.0208333333333333
 43
0.0
 43
0.0
 43
0.0
 43
0.0
 43
1.0
 43
0.0
 43
0.0
 43
0.0
 43
0.0
 43
1.0
 77
     0
 47
0.0208333333333333
 47
0.0
 47
0.0
 47
0.0
 47
0.0
 47
0.0208333333333333
 47
0.0
 47
0.0
 47
0.0
 47
0.0
 47
1.0
 47
0.0
 47
0.0
 47
0.0
 47
0.0
 47
1.0
171
     0
 49
0.0208333333333333
 49
0.0
 49
0.0
 49
0.0
 49
0.0
 49
0.0208333333333333
 49
0.0
 49
0.0
 49
0.0
 49
0.0
 49
1.0
 49
0.0
 49
0.0
 49
0.0
 49
0.0
 49
1.0
175
     0
142
0.0208333333333333
142
0.0
142
0.0
142
0.0
142
0.0
142
0.0208333333333333
142
0.0
142
0.0
142
0.0
142
0.0
142
1.0
142
0.0
142
0.0
142
0.0
142
0.0
142
1.0
179
     0
144
0.0208333333333333
144
0.0
144
0.0
144
0.0
144
0.0
144
0.0208333333333333
144
0.0
144
0.0
144
0.0
144
0.0
144
1.0
144
0.0
144
0.0
144
0.0
144
0.0
144
1.0
147
0.0208333333333333
147
0.0
147
0.0
147
0.0
147
0.0
147
0.0208333333333333
147
0.0
147
0.0
147
0.0
147
0.0
147
1.0
147
0.0
147
0.0
147
0.0
147
0.0
147
1.0
  0
MATERIAL
  5
11
102
{ACAD_XDICTIONARY
360
12
102
}
102
{ACAD_REACTORS
330
10
102
}
330
10
100
AcDbMaterial
  1
ByLayer
 72
     0
 43
0.0208333333333333
 43
0.0
 43
0.0
 43
0.0
 43
0.0
 43
0.0208333333333333
 43
0.0
 43
0.0
 43
0.0
 43
0.0
 43
1.0
 43
0.0
 43
0.0
 43
0.0
 43
0.0
 43
1.0
 77
     0
 47
0.0208333333333333
 47
0.0
 47
0.0
 47
0.0
 47
0.0
 47
0.0208333333333333
 47
0.0
 47
0.0
 47
0.0
 47
0.0
 47
1.0
 47
0.0
 47
0.0
 47
0.0
 47
0.0
 47
1.0
171
     0
 49
0.0208333333333333
 49
0.0
 49
0.0
 49
0.0
 49
0.0
 49
0.0208333333333333
 49
0.0
 49
0.0
 49
0.0
 49
0.0
 49
1.0
 49
0.0
 49
0.0
 49
0.0
 49
0.0
 49
1.0
175
     0
142
0.0208333333333333
142
0.0
142
0.0
142
0.0
142
0.0
142
0.0208333333333333
142
0.0
142
0.0
142
0.0
142
0.0
142
1.0
142
0.0
142
0.0
142
0.0
142
0.0
142
1.0
179
     0
144
0.0208333333333333
144
0.0
144
0.0
144
0.0
144
0.0
144
0.0208333333333333
144
0.0
144
0.0
144
0.0
144
0.0
144
1.0
144
0.0
144
0.0
144
0.0
144
0.0
144
1.0
147
0.0208333333333333
147
0.0
147
0.0
147
0.0
147
0.0
147
0.0208333333333333
147
0.0
147
0.0
147
0.0
147
0.0
147
1.0
147
0.0
147
0.0
147
0.0
147
0.0
147
1.0
  0
MATERIAL
  5
21
102
{ACAD_XDICTIONARY
360
22
102
}
102
{ACAD_REACTORS
330
10
102
}
330
10
100
AcDbMaterial
  1
Global
 72
     0
 43
0.0208333333333333
 43
0.0
 43
0.0
 43
0.0
 43
0.0
 43
0.0208333333333333
 43
0.0
 43
0.0
 43
0.0
 43
0.0
 43
1.0
 43
0.0
 43
0.0
 43
0.0
 43
0.0
 43
1.0
 77
     0
 47
0.0208333333333333
 47
0.0
 47
0.0
 47
0.0
 47
0.0
 47
0.0208333333333333
 47
0.0
 47
0.0
 47
0.0
 47
0.0
 47
1.0
 47
0.0
 47
0.0
 47
0.0
 47
0.0
 47
1.0
171
     0
 49
0.0208333333333333
 49
0.0
 49
0.0
 49
0.0
 49
0.0
 49
0.0208333333333333
 49
0.0
 49
0.0
 49
0.0
 49
0.0
 49
1.0
 49
0.0
 49
0.0
 49
0.0
 49
0.0
 49
1.0
175
     0
142
0.0208333333333333
142
0.0
142
0.0
142
0.0
142
0.0
142
0.0208333333333333
142
0.0
142
0.0
142
0.0
142
0.0
142
1.0
142
0.0
142
0.0
142
0.0
142
0.0
142
1.0
179
     0
144
0.0208333333333333
144
0.0
144
0.0
144
0.0
144
0.0
144
0.0208333333333333
144
0.0
144
0.0
144
0.0
144
0.0
144
1.0
144
0.0
144
0.0
144
0.0
144
0.0
144
1.0
147
0.0208333333333333
147
0.0
147
0.0
147
0.0
147
0.0
147
0.0208333333333333
147
0.0
147
0.0
147
0.0
147
0.0
147
1.0
147
0.0
147
0.0
147
0.0
147
0.0
147
1.0
  0
MLEADERSTYLE
  5
67
102
{ACAD_XDICTIONARY
360
109
102
}
102
{ACAD_REACTORS
330
66
102
}
330
66
100
AcDbMLeaderStyle
179
     2
170
     2
171
     1
172
     0
 90
        2
 40
0.0
 41
0.0
173
     1
 91
-1056964608
340
5B
 92
       -2
290
     1
 42
0.09
291
     1
 43
0.36
  3
Standard
 44
0.18
300

342
55
174
     1
178
     6
175
     1
176
     0
 93
-1056964608
 45
0.18
292
     0
297
     0
 46
0.18
 94
-1056964608
 47
1.0
 49
1.0
140
1.0
293
     1
141
0.0
294
     1
177
     0
142
1.0
295
     0
296
     0
143
0.125
271
     0
272
     9
273
     9
  0
MLINESTYLE
  5
60
102
{ACAD_REACTORS
330
5F
102
}
330
5F
100
AcDbMlineStyle
  2
STANDARD
 70
     0
  3

 62
   256
 51
90.0
 52
90.0
 71
     2
 49
0.5
 62
   256
  6
BYLAYER
 49
-0.5
 62
   256
  6
BYLAYER
  0
ACDBPLACEHOLDER
  5
F
102
{ACAD_REACTORS
330
E
102
}
330
E
  0
SCALE
  5
43
102
{ACAD_REACTORS
330
42
102
}
330
42
100
AcDbScale
 70
     0
300
1:1
140
1.0
141
1.0
290
     1
  0
SCALE
  5
44
102
{ACAD_REACTORS
330
42
102
}
330
42
100
AcDbScale
 70
     0
300
1/128" = 1'-0"
140
0.0078125
141
12.0
290
     0
  0
SCALE
  5
45
102
{ACAD_REACTORS
330
42
102
}
330
42
100
AcDbScale
 70
     0
300
1/64" = 1'-0"
140
0.015625
141
12.0
290
     0
  0
SCALE
  5
46
102
{ACAD_REACTORS
330
42
102
}
330
42
100
AcDbScale
 70
     0
300
1/32" = 1'-0"
140
0.03125
141
12.0
290
     0
  0
SCALE
  5
47
102
{ACAD_REACTORS
330
42
102
}
330
42
100
AcDbScale
 70
     0
300
1/16" = 1'-0"
140
0.0625
141
12.0
290
     0
  0
SCALE
  5
48
102
{ACAD_REACTORS
330
42
102
}
330
42
100
AcDbScale
 70
     0
300
3/32" = 1'-0"
140
0.09375
141
12.0
290
     0
  0
SCALE
  5
49
102
{ACAD_REACTORS
330
42
102
}
330
42
100
AcDbScale
 70
     0
300
1/8" = 1'-0"
140
0.125
141
12.0
290
     0
  0
SCALE
  5
4A
102
{ACAD_REACTORS
330
42
102
}
330
42
100
AcDbScale
 70
     0
300
3/16" = 1'-0"
140
0.1875
141
12.0
290
     0
  0
SCALE
  5
4B
102
{ACAD_REACTORS
330
42
102
}
330
42
100
AcDbScale
 70
     0
300
1/4" = 1'-0"
140
0.25
141
12.0
290
     0
  0
SCALE
  5
4C
102
{ACAD_REACTORS
330
42
102
}
330
42
100
AcDbScale
 70
     0
300
3/8" = 1'-0"
140
0.375
141
12.0
290
     0
  0
SCALE
  5
4D
102
{ACAD_REACTORS
330
42
102
}
330
42
100
AcDbScale
 70
     0
300
1/2" = 1'-0"
140
0.5
141
12.0
290
     0
  0
SCALE
  5
4E
102
{ACAD_REACTORS
330
42
102
}
330
42
100
AcDbScale
 70
     0
300
3/4" = 1'-0"
140
0.75
141
12.0
290
     0
  0
SCALE
  5
4F
102
{ACAD_REACTORS
330
42
102
}
330
42
100
AcDbScale
 70
     0
300
1" = 1'-0"
140
1.0
141
12.0
290
     0
  0
SCALE
  5
50
102
{ACAD_REACTORS
330
42
102
}
330
42
100
AcDbScale
 70
     0
300
1-1/2" = 1'-0"
140
1.5
141
12.0
290
     0
  0
SCALE
  5
51
102
{ACAD_REACTORS
330
42
102
}
330
42
100
AcDbScale
 70
     0
300
3" = 1'-0"
140
3.0
141
12.0
290
     0
  0
SCALE
  5
52
102
{ACAD_REACTORS
330
42
102
}
330
42
100
AcDbScale
 70
     0
300
6" = 1'-0"
140
6.0
141
12.0
290
     0
  0
SCALE
  5
53
102
{ACAD_REACTORS
330
42
102
}
330
42
100
AcDbScale
 70
     0
300
1'-0" = 1'-0"
140
12.0
141
12.0
290
     0
  0
ACDBSECTIONVIEWSTYLE
  5
69
102
{ACAD_XDICTIONARY
360
10B
102
}
102
{ACAD_REACTORS
330
68
102
}
330
68
100
AcDbModelDocViewStyle
 70
     0
  3
Imperial24
290
     0
100
AcDbSectionViewStyle
 70
     0
 71
     0
 90
       78
 71
     1
340
55
 62
   256
 40
0.24
340
0
340
0
 62
   256
 40
0.24
300
I, O, Q, S, X, Z
 40
0.48
 90
        3
 40
0.18
 90
        1
 71
     2
340
5D
 90
       25
 62
   256
340
5D
 90
       50
 62
   256
 40
0.24
 40
0.0
 40
0.24
 71
     3
340
55
 62
   256
 40
0.24
 90
        1
 40
0.75
 90
        1
300
%<\AcVar ViewType \f "%tc1">% %<\AcVar ViewSectionStartId>%-%<\AcVar ViewSectionEndId>%\PSCALE %<\AcVar ViewScale \f "%sn">%
 71
     4
 62
   256
 62
   257
300
ANSI31
 40
1.0
 90
        0
290
     0
290
     0
 90
        6
 40
0.0
 40
1.570796326794896
 40
0.2617993877991494
 40
1.308996938995747
 40
-0.2617993877991494
 40
1.832595714594046
  0
TABLESTYLE
  5
65
102
{ACAD_XDICTIONARY
360
D6
102
}
102
{ACAD_REACTORS
330
64
102
}
330
64
100
AcDbTableStyle
280
     0
  3
Standard
 70
     0
 71
     0
 40
0.06
 41
0.06
280
     0
281
     0
  7
Standard
140
0.18
170
     2
 62
     0
 63
     7
283
     0
 90
      512
 91
        0
  1

274
    -2
284
     1
 64
     0
275
    -2
285
     1
 65
     0
276
    -2
286
     1
 66
     0
277
    -2
287
     1
 67
     0
278
    -2
288
     1
 68
     0
279
    -2
289
     1
 69
     0
  7
Standard
140
0.25
170
     5
 62
     0
 63
     7
283
     0
 90
      512
 91
        0
  1

274
    -2
284
     1
 64
     0
275
    -2
285
     1
 65
     0
276
    -2
286
     1
 66
     0
277
    -2
287
     1
 67
     0
278
    -2
288
     1
 68
     0
279
    -2
289
     1
 69
     0
  7
Standard
140
0.18
170
     5
 62
     0
 63
     7
283
     0
 90
      512
 91
        0
  1

274
    -2
284
     1
 64
     0
275
    -2
285
     1
 65
     0
276
    -2
286
     1
 66
     0
277
    -2
287
     1
 67
     0
278
    -2
288
     1
 68
     0
279
    -2
289
     1
 69
     0
  0
VISUALSTYLE
  5
2F
102
{ACAD_XDICTIONARY
360
E3
102
}
102
{ACAD_REACTORS
330
29
102
}
330
29
100
AcDbVisualStyle
  2
2dWireframe
 70
     4
177
     2
291
     0
 71
     0
176
     1
 72
     2
176
     1
 73
     0
176
     1
 90
        0
176
     1
 40
0.6
176
     1
 41
30.0
176
     1
 63
     7
421
 16777215
176
     1
 74
     1
176
     1
 91
        4
176
     1
 64
     7
176
     1
 65
   257
176
     1
 75
     1
176
     1
175
     1
176
     1
 42
1.0
176
     1
 92
        0
176
     1
 66
   257
176
     1
 43
1.0
176
     1
 76
     1
176
     1
 77
     6
176
     1
 78
     2
176
     1
 67
     7
176
     1
 79
     5
176
     1
170
     0
176
     1
171
     0
176
     1
290
     0
176
     1
 93
        1
176
     1
 44
0.0
176
     1
173
     0
176
     1
1001
ACAD
1000
AcDbSavedByObjectVersion
1070
     0
  0
VISUALSTYLE
  5
2E
102
{ACAD_XDICTIONARY
360
E1
102
}
102
{ACAD_REACTORS
330
29
102
}
330
29
100
AcDbVisualStyle
  2
Basic
 70
     7
177
     2
291
     1
 71
     1
176
     1
 72
     0
176
     1
 73
     1
176
     1
 90
        0
176
     1
 40
0.6
176
     1
 41
30.0
176
     1
 63
     7
421
 16777215
176
     1
 74
     0
176
     1
 91
        4
176
     1
 64
     7
176
     1
 65
   257
176
     1
 75
     1
176
     1
175
     1
176
     1
 42
1.0
176
     1
 92
        8
176
     1
 66
     7
176
     1
 43
1.0
176
     1
 76
     1
176
     1
 77
     6
176
     1
 78
     2
176
     1
 67
     7
176
     1
 79
     5
176
     1
170
     0
176
     1
171
     0
176
     1
290
     0
176
     1
 93
        1
176
     1
 44
0.0
176
     1
173
     0
176
     1
1001
ACAD
1000
AcDbSavedByObjectVersion
1070
     0
  0
VISUALSTYLE
  5
35
102
{ACAD_XDICTIONARY
360
EF
102
}
102
{ACAD_REACTORS
330
29
102
}
330
29
100
AcDbVisualStyle
  2
Brighten
 70
    12
177
     2
291
     1
 71
     2
176
     1
 72
     2
176
     1
 73
     0
176
     1
 90
        0
176
     1
 40
0.6
176
     1
 41
30.0
176
     1
 63
     7
421
 16777215
176
     1
 74
     1
176
     1
 91
        4
176
     1
 64
     7
176
     1
 65
   257
176
     1
 75
     1
176
     1
175
     1
176
     1
 42
1.0
176
     1
 92
        8
176
     1
 66
     7
176
     1
 43
1.0
176
     1
 76
     1
176
     1
 77
     6
176
     1
 78
     2
176
     1
 67
     7
176
     1
 79
     5
176
     1
170
     0
176
     1
171
     0
176
     1
290
     0
176
     1
 93
        1
176
     1
 44
50.0
176
     1
173
     0
176
     1
1001
ACAD
1000
AcDbSavedByObjectVersion
1070
     0
  0
VISUALSTYLE
  5
39
102
{ACAD_XDICTIONARY
360
F7
102
}
102
{ACAD_REACTORS
330
29
102
}
330
29
100
AcDbVisualStyle
  2
ColorChange
 70
    16
177
     2
291
     1
 71
     2
176
     1
 72
     2
176
     1
 73
     3
176
     1
 90
        0
176
     1
 40
0.6
176
     1
 41
30.0
176
     1
 63
     8
421
  8421504
176
     1
 74
     1
176
     1
 91
        4
176
     1
 64
     7
176
     1
 65
   257
176
     1
 75
     1
176
     1
175
     1
176
     1
 42
1.0
176
     1
 92
        8
176
     1
 66
     8
424
  8421504
176
     1
 43
1.0
176
     1
 76
     1
176
     1
 77
     6
176
     1
 78
     2
176
     1
 67
     7
176
     1
 79
     5
176
     1
170
     0
176
     1
171
     0
176
     1
290
     0
176
     1
 93
        1
176
     1
 44
0.0
176
     1
173
     0
176
     1
1001
ACAD
1000
AcDbSavedByObjectVersion
1070
     0
  0
VISUALSTYLE
  5
32
102
{ACAD_XDICTIONARY
360
E9
102
}
102
{ACAD_REACTORS
330
29
102
}
330
29
100
AcDbVisualStyle
  2
Conceptual
 70
     9
177
     2
291
     0
 71
     3
176
     1
 72
     2
176
     1
 73
     0
176
     1
 90
        0
176
     1
 40
0.6
176
     1
 41
30.0
176
     1
 63
     7
421
 16777215
176
     1
 74
     2
176
     1
 91
        2
176
     1
 64
     7
176
     1
 65
   257
176
     1
 75
     1
176
     1
175
     1
176
     1
 42
179.0
176
     1
 92
        8
176
     1
 66
     7
176
     1
 43
1.0
176
     1
 76
     1
176
     1
 77
     6
176
     1
 78
     2
176
     1
 67
     7
176
     1
 79
     3
176
     1
170
     0
176
     1
171
     0
176
     1
290
     0
176
     1
 93
        1
176
     1
 44
0.0
176
     1
173
     0
176
     1
1001
ACAD
1000
AcDbSavedByObjectVersion
1070
     0
  0
VISUALSTYLE
  5
34
102
{ACAD_XDICTIONARY
360
ED
102
}
102
{ACAD_REACTORS
330
29
102
}
330
29
100
AcDbVisualStyle
  2
Dim
 70
    11
177
     2
291
     1
 71
     2
176
     1
 72
     2
176
     1
 73
     0
176
     1
 90
        0
176
     1
 40
0.6
176
     1
 41
30.0
176
     1
 63
     7
421
 16777215
176
     1
 74
     1
176
     1
 91
        4
176
     1
 64
     7
176
     1
 65
   257
176
     1
 75
     1
176
     1
175
     1
176
     1
 42
1.0
176
     1
 92
        8
176
     1
 66
     7
176
     1
 43
1.0
176
     1
 76
     1
176
     1
 77
     6
176
     1
 78
     2
176
     1
 67
     7
176
     1
 79
     5
176
     1
170
     0
176
     1
171
     0
176
     1
290
     0
176
     1
 93
        1
176
     1
 44
-50.0
176
     1
173
     0
176
     1
1001
ACAD
1000
AcDbSavedByObjectVersion
1070
     0
  0
VISUALSTYLE
  5
41
102
{ACAD_XDICTIONARY
360
107
102
}
102
{ACAD_REACTORS
330
29
102
}
330
29
100
AcDbVisualStyle
  2
EdgeColorOff
 70
    22
177
     2
291
     1
 71
     2
176
     0
 72
     2
176
     0
 73
     0
176
     0
 90
        0
176
     0
 40
0.6
176
     0
 41
30.0
176
     0
 63
     7
421
 16777215
176
     0
 74
     1
176
     0
 91
        4
176
     0
 64
     7
176
     0
 65
   257
176
     0
 75
     1
176
     0
175
     1
176
     0
 42
1.0
176
     0
 92
        8
176
     2
 66
     7
176
     0
 43
1.0
176
     0
 76
     1
176
     0
 77
     6
176
     0
 78
     2
176
     0
 67
     7
176
     0
 79
     5
176
     0
170
     0
176
     0
171
     0
176
     0
290
     0
176
     0
 93
        1
176
     0
 44
0.0
176
     0
173
     0
176
     0
1001
ACAD
1000
AcDbSavedByObjectVersion
1070
     0
  0
VISUALSTYLE
  5
38
102
{ACAD_XDICTIONARY
360
F5
102
}
102
{ACAD_REACTORS
330
29
102
}
330
29
100
AcDbVisualStyle
  2
Facepattern
 70
    15
177
     2
291
     1
 71
     2
176
     1
 72
     2
176
     1
 73
     0
176
     1
 90
        0
176
     1
 40
0.6
176
     1
 41
30.0
176
     1
 63
     7
421
 16777215
176
     1
 74
     1
176
     1
 91
        4
176
     1
 64
     7
176
     1
 65
   257
176
     1
 75
     1
176
     1
175
     1
176
     1
 42
1.0
176
     1
 92
        8
176
     1
 66
     7
176
     1
 43
1.0
176
     1
 76
     1
176
     1
 77
     6
176
     1
 78
     2
176
     1
 67
     7
176
     1
 79
     5
176
     1
170
     0
176
     1
171
     0
176
     1
290
     0
176
     1
 93
        1
176
     1
 44
0.0
176
     1
173
     0
176
     1
1001
ACAD
1000
AcDbSavedByObjectVersion
1070
     0
  0
VISUALSTYLE
  5
2A
102
{ACAD_XDICTIONARY
360
D9
102
}
102
{ACAD_REACTORS
330
29
102
}
330
29
100
AcDbVisualStyle
  2
Flat
 70
     0
177
     2
291
     1
 71
     2
176
     1
 72
     1
176
     1
 73
     1
176
     1
 90
        2
176
     1
 40
0.6
176
     1
 41
30.0
176
     1
 63
     7
421
 16777215
176
     1
 74
     0
176
     1
 91
        0
176
     1
 64
     7
176
     1
 65
   257
176
     1
 75
     1
176
     1
175
     1
176
     1
 42
1.0
176
     1
 92
        8
176
     1
 66
     7
176
     1
 43
1.0
176
     1
 76
     1
176
     1
 77
     6
176
     1
 78
     2
176
     1
 67
     7
176
     1
 79
     5
176
     1
170
     0
176
     1
171
     0
176
     1
290
     0
176
     1
 93
       13
176
     1
 44
0.0
176
     1
173
     0
176
     1
1001
ACAD
1000
AcDbSavedByObjectVersion
1070
     0
  0
VISUALSTYLE
  5
2B
102
{ACAD_XDICTIONARY
360
DB
102
}
102
{ACAD_REACTORS
330
29
102
}
330
29
100
AcDbVisualStyle
  2
FlatWithEdges
 70
     1
177
     2
291
     1
 71
     2
176
     1
 72
     1
176
     1
 73
     1
176
     1
 90
        2
176
     1
 40
0.6
176
     1
 41
30.0
176
     1
 63
     7
421
 16777215
176
     1
 74
     1
176
     1
 91
        0
176
     1
 64
     7
176
     1
 65
   257
176
     1
 75
     1
176
     1
175
     1
176
     1
 42
1.0
176
     1
 92
        0
176
     1
 66
   257
176
     1
 43
1.0
176
     1
 76
     1
176
     1
 77
     6
176
     1
 78
     2
176
     1
 67
     7
176
     1
 79
     5
176
     1
170
     0
176
     1
171
     0
176
     1
290
     0
176
     1
 93
       13
176
     1
 44
0.0
176
     1
173
     0
176
     1
1001
ACAD
1000
AcDbSavedByObjectVersion
1070
     0
  0
VISUALSTYLE
  5
2C
102
{ACAD_XDICTIONARY
360
DD
102
}
102
{ACAD_REACTORS
330
29
102
}
330
29
100
AcDbVisualStyle
  2
Gouraud
 70
     2
177
     2
291
     1
 71
     2
176
     1
 72
     2
176
     1
 73
     1
176
     1
 90
        2
176
     1
 40
0.6
176
     1
 41
30.0
176
     1
 63
     7
421
 16777215
176
     1
 74
     0
176
     1
 91
        0
176
     1
 64
     7
176
     1
 65
   257
176
     1
 75
     1
176
     1
175
     1
176
     1
 42
1.0
176
     1
 92
        0
176
     1
 66
     7
176
     1
 43
1.0
176
     1
 76
     1
176
     1
 77
     6
176
     1
 78
     2
176
     1
 67
     7
176
     1
 79
     5
176
     1
170
     0
176
     1
171
     0
176
     1
290
     0
176
     1
 93
       13
176
     1
 44
0.0
176
     1
173
     0
176
     1
1001
ACAD
1000
AcDbSavedByObjectVersion
1070
     0
  0
VISUALSTYLE
  5
2D
102
{ACAD_XDICTIONARY
360
DF
102
}
102
{ACAD_REACTORS
330
29
102
}
330
29
100
AcDbVisualStyle
  2
GouraudWithEdges
 70
     3
177
     2
291
     1
 71
     2
176
     1
 72
     2
176
     1
 73
     1
176
     1
 90
        2
176
     1
 40
0.6
176
     1
 41
30.0
176
     1
 63
     7
421
 16777215
176
     1
 74
     1
176
     1
 91
        0
176
     1
 64
     7
176
     1
 65
   257
176
     1
 75
     1
176
     1
175
     1
176
     1
 42
1.0
176
     1
 92
        0
176
     1
 66
   257
176
     1
 43
1.0
176
     1
 76
     1
176
     1
 77
     6
176
     1
 78
     2
176
     1
 67
     7
176
     1
 79
     5
176
     1
170
     0
176
     1
171
     0
176
     1
290
     0
176
     1
 93
       13
176
     1
 44
0.0
176
     1
173
     0
176
     1
1001
ACAD
1000
AcDbSavedByObjectVersion
1070
     0
  0
VISUALSTYLE
  5
31
102
{ACAD_XDICTIONARY
360
E7
102
}
102
{ACAD_REACTORS
330
29
102
}
330
29
100
AcDbVisualStyle
  2
Hidden
 70
     6
177
     2
291
     0
 71
     1
176
     1
 72
     2
176
     1
 73
     2
176
     1
 90
        0
176
     1
 40
0.6
176
     1
 41
30.0
176
     1
 63
     7
421
 16777215
176
     1
 74
     2
176
     1
 91
        2
176
     1
 64
     7
176
     1
 65
   257
176
     1
 75
     2
176
     1
175
     1
176
     1
 42
40.0
176
     1
 92
        0
176
     1
 66
   257
176
     1
 43
1.0
176
     1
 76
     1
176
     1
 77
     6
176
     1
 78
     2
176
     1
 67
     7
176
     1
 79
     3
176
     1
170
     0
176
     1
171
     0
176
     1
290
     0
176
     1
 93
        1
176
     1
 44
0.0
176
     1
173
     0
176
     1
1001
ACAD
1000
AcDbSavedByObjectVersion
1070
     0
  0
VISUALSTYLE
  5
3F
102
{ACAD_XDICTIONARY
360
103
102
}
102
{ACAD_REACTORS
330
29
102
}
330
29
100
AcDbVisualStyle
  2
JitterOff
 70
    20
177
     2
291
     1
 71
     2
176
     0
 72
     2
176
     0
 73
     0
176
     0
 90
        0
176
     0
 40
0.6
176
     0
 41
30.0
176
     0
 63
     7
421
 16777215
176
     0
 74
     1
176
     0
 91
        4
176
     0
 64
     7
176
     0
 65
   257
176
     0
 75
     1
176
     0
175
     1
176
     0
 42
1.0
176
     0
 92
       10
176
     2
 66
     7
176
     0
 43
1.0
176
     0
 76
     1
176
     0
 77
     6
176
     0
 78
     2
176
     0
 67
     7
176
     0
 79
     5
176
     0
170
     0
176
     0
171
     0
176
     0
290
     0
176
     0
 93
        1
176
     0
 44
0.0
176
     0
173
     0
176
     0
1001
ACAD
1000
AcDbSavedByObjectVersion
1070
     0
  0
VISUALSTYLE
  5
37
102
{ACAD_XDICTIONARY
360
F3
102
}
102
{ACAD_REACTORS
330
29
102
}
330
29
100
AcDbVisualStyle
  2
Linepattern
 70
    14
177
     2
291
     1
 71
     2
176
     1
 72
     2
176
     1
 73
     0
176
     1
 90
        0
176
     1
 40
0.6
176
     1
 41
30.0
176
     1
 63
     7
421
 16777215
176
     1
 74
     1
176
     1
 91
        4
176
     1
 64
     7
176
     1
 65
   257
176
     1
 75
     7
176
     1
175
     7
176
     1
 42
1.0
176
     1
 92
        8
176
     1
 66
     7
176
     1
 43
1.0
176
     1
 76
     1
176
     1
 77
     6
176
     1
 78
     2
176
     1
 67
     7
176
     1
 79
     5
176
     1
170
     0
176
     1
171
     0
176
     1
290
     0
176
     1
 93
        1
176
     1
 44
0.0
176
     1
173
     0
176
     1
1001
ACAD
1000
AcDbSavedByObjectVersion
1070
     0
  0
VISUALSTYLE
  5
40
102
{ACAD_XDICTIONARY
360
105
102
}
102
{ACAD_REACTORS
330
29
102
}
330
29
100
AcDbVisualStyle
  2
OverhangOff
 70
    21
177
     2
291
     1
 71
     2
176
     0
 72
     2
176
     0
 73
     0
176
     0
 90
        0
176
     0
 40
0.6
176
     0
 41
30.0
176
     0
 63
     7
421
 16777215
176
     0
 74
     1
176
     0
 91
        4
176
     0
 64
     7
176
     0
 65
   257
176
     0
 75
     1
176
     0
175
     1
176
     0
 42
1.0
176
     0
 92
        9
176
     2
 66
     7
176
     0
 43
1.0
176
     0
 76
     1
176
     0
 77
     6
176
     0
 78
     2
176
     0
 67
     7
176
     0
 79
     5
176
     0
170
     0
176
     0
171
     0
176
     0
290
     0
176
     0
 93
        1
176
     0
 44
0.0
176
     0
173
     0
176
     0
1001
ACAD
1000
AcDbSavedByObjectVersion
1070
     0
  0
VISUALSTYLE
  5
33
102
{ACAD_XDICTIONARY
360
EB
102
}
102
{ACAD_REACTORS
330
29
102
}
330
29
100
AcDbVisualStyle
  2
Realistic
 70
     8
177
     2
291
     0
 71
     2
176
     1
 72
     3
176
     1
 73
     0
176
     1
 90
        2
176
     1
 40
0.6
176
     1
 41
30.0
176
     1
 63
     7
421
 16777215
176
     1
 74
     0
176
     1
 91
        0
176
     1
 64
     7
176
     1
 65
   257
176
     1
 75
     1
176
     1
175
     1
176
     1
 42
1.0
176
     1
 92
        8
176
     1
 66
   257
176
     1
 43
1.0
176
     1
 76
     1
176
     1
 77
     6
176
     1
 78
     2
176
     1
 67
     7
176
     1
 79
     3
176
     1
170
     0
176
     1
171
     0
176
     1
290
     0
176
     1
 93
       13
176
     1
 44
0.0
176
     1
173
     0
176
     1
1001
ACAD
1000
AcDbSavedByObjectVersion
1070
     0
  0
VISUALSTYLE
  5
3E
102
{ACAD_XDICTIONARY
360
101
102
}
102
{ACAD_REACTORS
330
29
102
}
330
29
100
AcDbVisualStyle
  2
Shaded
 70
    27
177
     2
291
     0
 71
     2
176
     1
 72
     2
176
     1
 73
     1
176
     1
 90
        2
176
     1
 40
0.6
176
     1
 41
30.0
176
     1
 63
     7
421
 16777215
176
     1
 74
     0
176
     1
 91
        4
176
     1
 64
     7
176
     1
 65
   257
176
     1
 75
     1
176
     1
175
     1
176
     1
 42
1.0
176
     1
 92
        8
176
     1
 66
   257
176
     1
 43
1.0
176
     1
 76
     1
176
     1
 77
     6
176
     1
 78
     2
176
     1
 67
     8
425
  7895160
176
     1
 79
     3
176
     1
170
     0
176
     1
171
     0
176
     1
290
     0
176
     1
 93
        5
176
     1
 44
0.0
176
     1
173
     0
176
     1
1001
ACAD
1000
AcDbSavedByObjectVersion
1070
     0
  0
VISUALSTYLE
  5
3D
102
{ACAD_XDICTIONARY
360
FF
102
}
102
{ACAD_REACTORS
330
29
102
}
330
29
100
AcDbVisualStyle
  2
Shaded with edges
 70
    26
177
     2
291
     0
 71
     2
176
     1
 72
     2
176
     1
 73
     1
176
     1
 90
        2
176
     1
 40
0.6
176
     1
 41
30.0
176
     1
 63
     7
421
 16777215
176
     1
 74
     1
176
     1
 91
        2
176
     1
 64
     7
176
     1
 65
   257
176
     1
 75
     2
176
     1
175
     1
176
     1
 42
1.0
176
     1
 92
        8
176
     1
 66
   257
176
     1
 43
1.0
176
     1
 76
     1
176
     1
 77
     6
176
     1
 78
     2
176
     1
 67
     7
176
     1
 79
     3
176
     1
170
     0
176
     1
171
     0
176
     1
290
     0
176
     1
 93
        5
176
     1
 44
0.0
176
     1
173
     0
176
     1
1001
ACAD
1000
AcDbSavedByObjectVersion
1070
     0
  0
VISUALSTYLE
  5
3A
102
{ACAD_XDICTIONARY
360
F9
102
}
102
{ACAD_REACTORS
330
29
102
}
330
29
100
AcDbVisualStyle
  2
Shades of Gray
 70
    23
177
     2
291
     0
 71
     2
176
     1
 72
     2
176
     1
 73
     3
176
     1
 90
        0
176
     1
 40
0.6
176
     1
 41
30.0
176
     1
 63
     7
421
 16777215
176
     1
 74
     2
176
     1
 91
        2
176
     1
 64
     7
176
     1
 65
     7
176
     1
 75
     1
176
     1
175
     1
176
     1
 42
40.0
176
     1
 92
        8
176
     1
 66
     7
176
     1
 43
1.0
176
     1
 76
     1
176
     1
 77
     6
176
     1
 78
     2
176
     1
 67
     7
176
     1
 79
     3
176
     1
170
     0
176
     1
171
     0
176
     1
290
     0
176
     1
 93
        1
176
     1
 44
0.0
176
     1
173
     0
176
     1
1001
ACAD
1000
AcDbSavedByObjectVersion
1070
     0
  0
VISUALSTYLE
  5
3B
102
{ACAD_XDICTIONARY
360
FB
102
}
102
{ACAD_REACTORS
330
29
102
}
330
29
100
AcDbVisualStyle
  2
Sketchy
 70
    24
177
     2
291
     0
 71
     1
176
     1
 72
     2
176
     1
 73
     2
176
     1
 90
        0
176
     1
 40
0.6
176
     1
 41
30.0
176
     1
 63
     7
421
 16777215
176
     1
 74
     2
176
     1
 91
        2
176
     1
 64
     7
176
     1
 65
     7
176
     1
 75
     1
176
     1
175
     1
176
     1
 42
40.0
176
     1
 92
       11
176
     1
 66
     7
176
     1
 43
1.0
176
     1
 76
     1
176
     1
 77
     6
176
     1
 78
     2
176
     1
 67
     7
176
     1
 79
     6
176
     1
170
     0
176
     1
171
     0
176
     1
290
     0
176
     1
 93
        1
176
     1
 44
0.0
176
     1
173
     0
176
     1
1001
ACAD
1000
AcDbSavedByObjectVersion
1070
     0
  0
VISUALSTYLE
  5
36
102
{ACAD_XDICTIONARY
360
F1
102
}
102
{ACAD_REACTORS
330
29
102
}
330
29
100
AcDbVisualStyle
  2
Thicken
 70
    13
177
     2
291
     1
 71
     2
176
     1
 72
     2
176
     1
 73
     0
176
     1
 90
        0
176
     1
 40
0.6
176
     1
 41
30.0
176
     1
 63
     7
421
 16777215
176
     1
 74
     1
176
     1
 91
        4
176
     1
 64
     7
176
     1
 65
   257
176
     1
 75
     1
176
     1
175
     1
176
     1
 42
1.0
176
     1
 92
       12
176
     1
 66
     7
176
     1
 43
1.0
176
     1
 76
     1
176
     1
 77
     6
176
     1
 78
     2
176
     1
 67
     7
176
     1
 79
     5
176
     1
170
     0
176
     1
171
     0
176
     1
290
     0
176
     1
 93
        1
176
     1
 44
0.0
176
     1
173
     0
176
     1
1001
ACAD
1000
AcDbSavedByObjectVersion
1070
     0
  0
VISUALSTYLE
  5
30
102
{ACAD_XDICTIONARY
360
E5
102
}
102
{ACAD_REACTORS
330
29
102
}
330
29
100
AcDbVisualStyle
  2
Wireframe
 70
     5
177
     2
291
     0
 71
     0
176
     1
 72
     2
176
     1
 73
     0
176
     1
 90
        0
176
     1
 40
0.6
176
     1
 41
30.0
176
     1
 63
     7
421
 16777215
176
     1
 74
     1
176
     1
 91
        4
176
     1
 64
     7
176
     1
 65
   257
176
     1
 75
     1
176
     1
175
     1
176
     1
 42
1.0
176
     1
 92
        0
176
     1
 66
   257
176
     1
 43
1.0
176
     1
 76
     1
176
     1
 77
     6
176
     1
 78
     2
176
     1
 67
     7
176
     1
 79
     3
176
     1
170
     0
176
     1
171
     0
176
     1
290
     0
176
     1
 93
        1
176
     1
 44
0.0
176
     1
173
     0
176
     1
1001
ACAD
1000
AcDbSavedByObjectVersion
1070
     0
  0
VISUALSTYLE
  5
3C
102
{ACAD_XDICTIONARY
360
FD
102
}
102
{ACAD_REACTORS
330
29
102
}
330
29
100
AcDbVisualStyle
  2
X-Ray
 70
    25
177
     2
291
     0
 71
     2
176
     1
 72
     2
176
     1
 73
     1
176
     1
 90
        1
176
     1
 40
0.5
176
     1
 41
30.0
176
     1
 63
     7
421
 16777215
176
     1
 74
     1
176
     1
 91
        0
176
     1
 64
     7
176
     1
 65
   257
176
     1
 75
     1
176
     1
175
     1
176
     1
 42
1.0
176
     1
 92
        8
176
     1
 66
     7
176
     1
 43
1.0
176
     1
 76
     1
176
     1
 77
     6
176
     1
 78
     2
176
     1
 67
     7
176
     1
 79
     3
176
     1
170
     0
176
     1
171
     0
176
     1
290
     0
176
     1
 93
       13
176
     1
 44
0.0
176
     1
173
     0
176
     1
1001
ACAD
1000
AcDbSavedByObjectVersion
1070
     0
  0
DICTIONARYVAR
  5
D5
102
{ACAD_REACTORS
330
D0
102
}
330
D0
100
DictionaryVariables
280
     0
  1
1:1
  0
DICTIONARYVAR
  5
D2
102
{ACAD_REACTORS
330
D0
102
}
330
D0
100
DictionaryVariables
280
     0
  1
STANDARD
  0
DICTIONARYVAR
  5
D1
102
{ACAD_REACTORS
330
D0
102
}
330
D0
100
DictionaryVariables
280
     0
  1
STANDARD
  0
DICTIONARYVAR
  5
D3
102
{ACAD_REACTORS
330
D0
102
}
330
D0
100
DictionaryVariables
280
     0
  1
Imperial24
  0
DICTIONARYVAR
  5
D4
102
{ACAD_REACTORS
330
D0
102
}
330
D0
100
DictionaryVariables
280
     0
  1
Imperial24
  0
DICTIONARY
  5
10D
330
6B
100
AcDbDictionary
280
     1
281
     1
  3
ACAD_XREC_ROUNDTRIP
360
10E
  0
DICTIONARY
  5
1A
330
19
100
AcDbDictionary
280
     1
281
     1
  3
BUMPTILE
360
1C
  3
DIFFUSETILE
360
1B
  3
OPACITYTILE
360
1F
  3
REFLECTIONTILE
360
1E
  3
REFRACTIONTILE
360
20
  3
SPECULARTILE
360
1D
  0
DICTIONARY
  5
12
330
11
100
AcDbDictionary
280
     1
281
     1
  3
BUMPTILE
360
14
  3
DIFFUSETILE
360
13
  3
OPACITYTILE
360
17
  3
REFLECTIONTILE
360
16
  3
REFRACTIONTILE
360
18
  3
SPECULARTILE
360
15
  0
DICTIONARY
  5
22
330
21
100
AcDbDictionary
280
     1
281
     1
  3
BUMPTILE
360
24
  3
DIFFUSETILE
360
23
  3
OPACITYTILE
360
27
  3
REFLECTIONTILE
360
26
  3
REFRACTIONTILE
360
28
  3
SPECULARTILE
360
25
  0
DICTIONARY
  5
109
330
67
100
AcDbDictionary
280
     1
281
     1
  3
ACAD_XREC_ROUNDTRIP
360
10A
  0
DICTIONARY
  5
10B
330
69
100
AcDbDictionary
280
     1
281
     1
  3
ACAD_XREC_ROUNDTRIP
360
10C
  0
DICTIONARY
  5
D6
330
65
100
AcDbDictionary
280
     1
281
     1
  3
ACAD_ROUNDTRIP_2008_TABLESTYLE_CELLSTYLEMAP
360
D7
  0
DICTIONARY
  5
E3
330
2F
100
AcDbDictionary
280
     1
281
     1
  3
ACAD_XREC_ROUNDTRIP
360
E4
  0
DICTIONARY
  5
E1
330
2E
100
AcDbDictionary
280
     1
281
     1
  3
ACAD_XREC_ROUNDTRIP
360
E2
  0
DICTIONARY
  5
EF
330
35
100
AcDbDictionary
280
     1
281
     1
  3
ACAD_XREC_ROUNDTRIP
360
F0
  0
DICTIONARY
  5
F7
330
39
100
AcDbDictionary
280
     1
281
     1
  3
ACAD_XREC_ROUNDTRIP
360
F8
  0
DICTIONARY
  5
E9
330
32
100
AcDbDictionary
280
     1
281
     1
  3
ACAD_XREC_ROUNDTRIP
360
EA
  0
DICTIONARY
  5
ED
330
34
100
AcDbDictionary
280
     1
281
     1
  3
ACAD_XREC_ROUNDTRIP
360
EE
  0
DICTIONARY
  5
107
330
41
100
AcDbDictionary
280
     1
281
     1
  3
ACAD_XREC_ROUNDTRIP
360
108
  0
DICTIONARY
  5
F5
330
38
100
AcDbDictionary
280
     1
281
     1
  3
ACAD_XREC_ROUNDTRIP
360
F6
  0
DICTIONARY
  5
D9
330
2A
100
AcDbDictionary
280
     1
281
     1
  3
ACAD_XREC_ROUNDTRIP
360
DA
  0
DICTIONARY
  5
DB
330
2B
100
AcDbDictionary
280
     1
281
     1
  3
ACAD_XREC_ROUNDTRIP
360
DC
  0
DICTIONARY
  5
DD
330
2C
100
AcDbDictionary
280
     1
281
     1
  3
ACAD_XREC_ROUNDTRIP
360
DE
  0
DICTIONARY
  5
DF
330
2D
100
AcDbDictionary
280
     1
281
     1
  3
ACAD_XREC_ROUNDTRIP
360
E0
  0
DICTIONARY
  5
E7
330
31
100
AcDbDictionary
280
     1
281
     1
  3
ACAD_XREC_ROUNDTRIP
360
E8
  0
DICTIONARY
  5
103
330
3F
100
AcDbDictionary
280
     1
281
     1
  3
ACAD_XREC_ROUNDTRIP
360
104
  0
DICTIONARY
  5
F3
330
37
100
AcDbDictionary
280
     1
281
     1
  3
ACAD_XREC_ROUNDTRIP
360
F4
  0
DICTIONARY
  5
105
330
40
100
AcDbDictionary
280
     1
281
     1
  3
ACAD_XREC_ROUNDTRIP
360
106
  0
DICTIONARY
  5
EB
330
33
100
AcDbDictionary
280
     1
281
     1
  3
ACAD_XREC_ROUNDTRIP
360
EC
  0
DICTIONARY
  5
101
330
3E
100
AcDbDictionary
280
     1
281
     1
  3
ACAD_XREC_ROUNDTRIP
360
102
  0
DICTIONARY
  5
FF
330
3D
100
AcDbDictionary
280
     1
281
     1
  3
ACAD_XREC_ROUNDTRIP
360
100
  0
DICTIONARY
  5
F9
330
3A
100
AcDbDictionary
280
     1
281
     1
  3
ACAD_XREC_ROUNDTRIP
360
FA
  0
DICTIONARY
  5
FB
330
3B
100
AcDbDictionary
280
     1
281
     1
  3
ACAD_XREC_ROUNDTRIP
360
FC
  0
DICTIONARY
  5
F1
330
36
100
AcDbDictionary
280
     1
281
     1
  3
ACAD_XREC_ROUNDTRIP
360
F2
  0
DICTIONARY
  5
E5
330
30
100
AcDbDictionary
280
     1
281
     1
  3
ACAD_XREC_ROUNDTRIP
360
E6
  0
DICTIONARY
  5
FD
330
3C
100
AcDbDictionary
280
     1
281
     1
  3
ACAD_XREC_ROUNDTRIP
360
FE
  0
XRECORD
  5
10E
102
{ACAD_REACTORS
330
10D
102
}
330
10D
100
AcDbXrecord
280
     1
102
DISPLAYNAME
  1
Imperial24
102
FLAGS
 90
        0
  0
XRECORD
  5
1C
102
{ACAD_REACTORS
330
1A
102
}
330
1A
100
AcDbXrecord
280
     1
270
     1
271
     1
  0
XRECORD
  5
1B
102
{ACAD_REACTORS
330
1A
102
}
330
1A
100
AcDbXrecord
280
     1
270
     1
271
     1
  0
XRECORD
  5
1F
102
{ACAD_REACTORS
330
1A
102
}
330
1A
100
AcDbXrecord
280
     1
270
     1
271
     1
  0
XRECORD
  5
1E
102
{ACAD_REACTORS
330
1A
102
}
330
1A
100
AcDbXrecord
280
     1
270
     1
271
     1
  0
XRECORD
  5
20
102
{ACAD_REACTORS
330
1A
102
}
330
1A
100
AcDbXrecord
280
     1
270
     1
271
     1
  0
XRECORD
  5
1D
102
{ACAD_REACTORS
330
1A
102
}
330
1A
100
AcDbXrecord
280
     1
270
     1
271
     1
  0
XRECORD
  5
14
102
{ACAD_REACTORS
330
12
102
}
330
12
100
AcDbXrecord
280
     1
270
     1
271
     1
  0
XRECORD
  5
13
102
{ACAD_REACTORS
330
12
102
}
330
12
100
AcDbXrecord
280
     1
270
     1
271
     1
  0
XRECORD
  5
17
102
{ACAD_REACTORS
330
12
102
}
330
12
100
AcDbXrecord
280
     1
270
     1
271
     1
  0
XRECORD
  5
16
102
{ACAD_REACTORS
330
12
102
}
330
12
100
AcDbXrecord
280
     1
270
     1
271
     1
  0
XRECORD
  5
18
102
{ACAD_REACTORS
330
12
102
}
330
12
100
AcDbXrecord
280
     1
270
     1
271
     1
  0
XRECORD
  5
15
102
{ACAD_REACTORS
330
12
102
}
330
12
100
AcDbXrecord
280
     1
270
     1
271
     1
  0
XRECORD
  5
24
102
{ACAD_REACTORS
330
22
102
}
330
22
100
AcDbXrecord
280
     1
270
     1
271
     1
  0
XRECORD
  5
23
102
{ACAD_REACTORS
330
22
102
}
330
22
100
AcDbXrecord
280
     1
270
     1
271
     1
  0
XRECORD
  5
27
102
{ACAD_REACTORS
330
22
102
}
330
22
100
AcDbXrecord
280
     1
270
     1
271
     1
  0
XRECORD
  5
26
102
{ACAD_REACTORS
330
22
102
}
330
22
100
AcDbXrecord
280
     1
270
     1
271
     1
  0
XRECORD
  5
28
102
{ACAD_REACTORS
330
22
102
}
330
22
100
AcDbXrecord
280
     1
270
     1
271
     1
  0
XRECORD
  5
25
102
{ACAD_REACTORS
330
22
102
}
330
22
100
AcDbXrecord
280
     1
270
     1
271
     1
  0
XRECORD
  5
10A
102
{ACAD_REACTORS
330
109
102
}
330
109
100
AcDbXrecord
280
     1
102
ACAD_ROUNDTRIP_2012_MLEADER_STYLE
298
     1
  0
XRECORD
  5
10C
102
{ACAD_REACTORS
330
10B
102
}
330
10B
100
AcDbXrecord
280
     1
102
DISPLAYNAME
  1
Imperial24
102
FLAGS
 90
        0
  0
CELLSTYLEMAP
  5
D7
102
{ACAD_REACTORS
330
D6
102
}
330
D6
100
AcDbCellStyleMap
 90
        3
300
CELLSTYLE
  1
TABLEFORMAT_BEGIN
 90
        5
170
     1
 91
        0
 92
    32768
 62
   257
 93
        1
300
CONTENTFORMAT
  1
CONTENTFORMAT_BEGIN
 90
        0
 91
        0
 92
      512
 93
        0
300

 40
0.0
140
1.0
 94
        5
 62
     0
340
55
144
0.25
309
CONTENTFORMAT_END
171
     0
 94
        0
309
TABLEFORMAT_END
  1
CELLSTYLE_BEGIN
 90
        1
 91
        1
300
_TITLE
309
CELLSTYLE_END
300
CELLSTYLE
  1
TABLEFORMAT_BEGIN
 90
        5
170
     1
 91
        0
 92
        0
 62
   257
 93
        1
300
CONTENTFORMAT
  1
CONTENTFORMAT_BEGIN
 90
        0
 91
        0
 92
      512
 93
        0
300

 40
0.0
140
1.0
 94
        5
 62
     0
340
55
144
0.18
309
CONTENTFORMAT_END
171
     0
 94
        0
309
TABLEFORMAT_END
  1
CELLSTYLE_BEGIN
 90
        2
 91
        1
300
_HEADER
309
CELLSTYLE_END
300
CELLSTYLE
  1
TABLEFORMAT_BEGIN
 90
        5
170
     1
 91
        0
 92
        0
 62
   257
 93
        1
300
CONTENTFORMAT
  1
CONTENTFORMAT_BEGIN
 90
        0
 91
        0
 92
      512
 93
        0
300

 40
0.0
140
1.0
 94
        2
 62
     0
340
55
144
0.18
309
CONTENTFORMAT_END
171
     0
 94
        0
309
TABLEFORMAT_END
  1
CELLSTYLE_BEGIN
 90
        3
 91
        2
300
_DATA
309
CELLSTYLE_END
  0
XRECORD
  5
E4
102
{ACAD_REACTORS
330
E3
102
}
330
E3
100
AcDbXrecord
280
     1
102
RTVSPost2010Prop28
280
     1
102
RTVSPost2010PropOp28
 70
     1
102
RTVSPost2010Prop29
280
     1
102
RTVSPost2010PropOp29
 70
     1
102
RTVSPost2010Prop30
280
     0
102
RTVSPost2010PropOp30
 70
     1
102
RTVSPost2010Prop31
280
     0
102
RTVSPost2010PropOp31
 70
     1
102
RTVSPost2010Prop32
280
     0
102
RTVSPost2010PropOp32
 70
     1
102
RTVSPost2010Prop33
280
     0
102
RTVSPost2010PropOp33
 70
     1
102
RTVSPost2010Prop34
280
     0
102
RTVSPost2010PropOp34
 70
     1
102
RTVSPost2010Prop35
280
     0
102
RTVSPost2010PropOp35
 70
     1
102
RTVSPost2010Prop36
280
     0
102
RTVSPost2010PropOp36
 70
     1
102
RTVSPost2010Prop37
 90
       50
102
RTVSPost2010PropOp37
 70
     1
102
RTVSPost2010Prop38
140
0.0
102
RTVSPost2010PropOp38
 70
     1
102
RTVSPost2010Prop39
140
1.0
102
RTVSPost2010PropOp39
 70
     1
102
RTVSPost2010Prop40
 90
        0
102
RTVSPost2010PropOp40
 70
     1
102
RTVSPost2010Prop41ColorIndex
 90
       18
102
RTVSPost2010Prop41ColorRGB
 90
        0
102
RTVSPost2010PropOp41
 70
     1
102
RTVSPost2010Prop42
 90
       50
102
RTVSPost2010PropOp42
 70
     1
102
RTVSPost2010Prop43
 90
        3
102
RTVSPost2010PropOp43
 70
     1
102
RTVSPost2010Prop44ColorIndex
 90
        5
102
RTVSPost2010Prop44ColorRGB
 90
      255
102
RTVSPost2010PropOp44
 70
     1
102
RTVSPost2010Prop45
280
     0
102
RTVSPost2010PropOp45
 70
     1
102
RTVSPost2010Prop46
 90
       50
102
RTVSPost2010PropOp46
 70
     1
102
RTVSPost2010Prop47
 90
       50
102
RTVSPost2010PropOp47
 70
     1
102
RTVSPost2010Prop48
 90
       50
102
RTVSPost2010PropOp48
 70
     1
102
RTVSPost2010Prop49
280
     0
102
RTVSPost2010PropOp49
 70
     1
102
RTVSPost2010Prop50
 90
       50
102
RTVSPost2010PropOp50
 70
     1
102
RTVSPost2010Prop51ColorIndex
 90
      256
102
RTVSPost2010Prop51ColorRGB
 90
-16777216
102
RTVSPost2010PropOp51
 70
     0
102
RTVSPost2010Prop52
140
1.0
102
RTVSPost2010PropOp52
 70
     0
102
RTVSPost2010Prop53
 90
        2
102
RTVSPost2010PropOp53
 70
     1
102
RTVSPost2010Prop54
  1
strokes_ogs.tif
102
RTVSPost2010PropOp54
 70
     1
102
RTVSPost2010Prop55
280
     0
102
RTVSPost2010PropOp55
 70
     1
102
RTVSPost2010Prop56
140
1.0
102
RTVSPost2010PropOp56
 70
     1
102
RTVSPost2010Prop57
140
1.0
102
RTVSPost2010PropOp57
 70
     1
  0
XRECORD
  5
E2
102
{ACAD_REACTORS
330
E1
102
}
330
E1
100
AcDbXrecord
280
     1
102
RTVSPost2010Prop28
280
     0
102
RTVSPost2010PropOp28
 70
     1
102
RTVSPost2010Prop29
280
     1
102
RTVSPost2010PropOp29
 70
     1
102
RTVSPost2010Prop30
280
     1
102
RTVSPost2010PropOp30
 70
     1
102
RTVSPost2010Prop31
280
     0
102
RTVSPost2010PropOp31
 70
     1
102
RTVSPost2010Prop32
280
     0
102
RTVSPost2010PropOp32
 70
     1
102
RTVSPost2010Prop33
280
     0
102
RTVSPost2010PropOp33
 70
     1
102
RTVSPost2010Prop34
280
     0
102
RTVSPost2010PropOp34
 70
     1
102
RTVSPost2010Prop35
280
     0
102
RTVSPost2010PropOp35
 70
     1
102
RTVSPost2010Prop36
280
     0
102
RTVSPost2010PropOp36
 70
     1
102
RTVSPost2010Prop37
 90
       50
102
RTVSPost2010PropOp37
 70
     1
102
RTVSPost2010Prop38
140
0.0
102
RTVSPost2010PropOp38
 70
     1
102
RTVSPost2010Prop39
140
1.0
102
RTVSPost2010PropOp39
 70
     1
102
RTVSPost2010Prop40
 90
        0
102
RTVSPost2010PropOp40
 70
     1
102
RTVSPost2010Prop41ColorIndex
 90
       18
102
RTVSPost2010Prop41ColorRGB
 90
        0
102
RTVSPost2010PropOp41
 70
     1
102
RTVSPost2010Prop42
 90
       50
102
RTVSPost2010PropOp42
 70
     1
102
RTVSPost2010Prop43
 90
        3
102
RTVSPost2010PropOp43
 70
     1
102
RTVSPost2010Prop44ColorIndex
 90
        5
102
RTVSPost2010Prop44ColorRGB
 90
      255
102
RTVSPost2010PropOp44
 70
     1
102
RTVSPost2010Prop45
280
     0
102
RTVSPost2010PropOp45
 70
     1
102
RTVSPost2010Prop46
 90
       50
102
RTVSPost2010PropOp46
 70
     1
102
RTVSPost2010Prop47
 90
       50
102
RTVSPost2010PropOp47
 70
     1
102
RTVSPost2010Prop48
 90
       50
102
RTVSPost2010PropOp48
 70
     1
102
RTVSPost2010Prop49
280
     0
102
RTVSPost2010PropOp49
 70
     1
102
RTVSPost2010Prop50
 90
       50
102
RTVSPost2010PropOp50
 70
     1
102
RTVSPost2010Prop51ColorIndex
 90
      256
102
RTVSPost2010Prop51ColorRGB
 90
-16777216
102
RTVSPost2010PropOp51
 70
     0
102
RTVSPost2010Prop52
140
1.0
102
RTVSPost2010PropOp52
 70
     0
102
RTVSPost2010Prop53
 90
        2
102
RTVSPost2010PropOp53
 70
     1
102
RTVSPost2010Prop54
  1
strokes_ogs.tif
102
RTVSPost2010PropOp54
 70
     1
102
RTVSPost2010Prop55
280
     0
102
RTVSPost2010PropOp55
 70
     1
102
RTVSPost2010Prop56
140
1.0
102
RTVSPost2010PropOp56
 70
     1
102
RTVSPost2010Prop57
140
1.0
102
RTVSPost2010PropOp57
 70
     1
  0
XRECORD
  5
F0
102
{ACAD_REACTORS
330
EF
102
}
330
EF
100
AcDbXrecord
280
     1
102
RTVSPost2010Prop28
280
     0
102
RTVSPost2010PropOp28
 70
     1
102
RTVSPost2010Prop29
280
     1
102
RTVSPost2010PropOp29
 70
     1
102
RTVSPost2010Prop30
280
     1
102
RTVSPost2010PropOp30
 70
     1
102
RTVSPost2010Prop31
280
     0
102
RTVSPost2010PropOp31
 70
     1
102
RTVSPost2010Prop32
280
     0
102
RTVSPost2010PropOp32
 70
     1
102
RTVSPost2010Prop33
280
     0
102
RTVSPost2010PropOp33
 70
     1
102
RTVSPost2010Prop34
280
     0
102
RTVSPost2010PropOp34
 70
     1
102
RTVSPost2010Prop35
280
     0
102
RTVSPost2010PropOp35
 70
     1
102
RTVSPost2010Prop36
280
     0
102
RTVSPost2010PropOp36
 70
     1
102
RTVSPost2010Prop37
 90
       50
102
RTVSPost2010PropOp37
 70
     1
102
RTVSPost2010Prop38
140
0.0
102
RTVSPost2010PropOp38
 70
     1
102
RTVSPost2010Prop39
140
1.0
102
RTVSPost2010PropOp39
 70
     1
102
RTVSPost2010Prop40
 90
        0
102
RTVSPost2010PropOp40
 70
     1
102
RTVSPost2010Prop41ColorIndex
 90
       18
102
RTVSPost2010Prop41ColorRGB
 90
        0
102
RTVSPost2010PropOp41
 70
     1
102
RTVSPost2010Prop42
 90
       50
102
RTVSPost2010PropOp42
 70
     1
102
RTVSPost2010Prop43
 90
        3
102
RTVSPost2010PropOp43
 70
     1
102
RTVSPost2010Prop44ColorIndex
 90
        5
102
RTVSPost2010Prop44ColorRGB
 90
      255
102
RTVSPost2010PropOp44
 70
     1
102
RTVSPost2010Prop45
280
     0
102
RTVSPost2010PropOp45
 70
     1
102
RTVSPost2010Prop46
 90
       50
102
RTVSPost2010PropOp46
 70
     1
102
RTVSPost2010Prop47
 90
       50
102
RTVSPost2010PropOp47
 70
     1
102
RTVSPost2010Prop48
 90
       50
102
RTVSPost2010PropOp48
 70
     1
102
RTVSPost2010Prop49
280
     0
102
RTVSPost2010PropOp49
 70
     1
102
RTVSPost2010Prop50
 90
       50
102
RTVSPost2010PropOp50
 70
     1
102
RTVSPost2010Prop51ColorIndex
 90
      256
102
RTVSPost2010Prop51ColorRGB
 90
-16777216
102
RTVSPost2010PropOp51
 70
     0
102
RTVSPost2010Prop52
140
1.0
102
RTVSPost2010PropOp52
 70
     0
102
RTVSPost2010Prop53
 90
        2
102
RTVSPost2010PropOp53
 70
     1
102
RTVSPost2010Prop54
  1
strokes_ogs.tif
102
RTVSPost2010PropOp54
 70
     1
102
RTVSPost2010Prop55
280
     0
102
RTVSPost2010PropOp55
 70
     1
102
RTVSPost2010Prop56
140
1.0
102
RTVSPost2010PropOp56
 70
     1
102
RTVSPost2010Prop57
140
1.0
102
RTVSPost2010PropOp57
 70
     1
  0
XRECORD
  5
F8
102
{ACAD_REACTORS
330
F7
102
}
330
F7
100
AcDbXrecord
280
     1
102
RTVSPost2010Prop28
280
     0
102
RTVSPost2010PropOp28
 70
     1
102
RTVSPost2010Prop29
280
     1
102
RTVSPost2010PropOp29
 70
     1
102
RTVSPost2010Prop30
280
     1
102
RTVSPost2010PropOp30
 70
     1
102
RTVSPost2010Prop31
280
     0
102
RTVSPost2010PropOp31
 70
     1
102
RTVSPost2010Prop32
280
     0
102
RTVSPost2010PropOp32
 70
     1
102
RTVSPost2010Prop33
280
     0
102
RTVSPost2010PropOp33
 70
     1
102
RTVSPost2010Prop34
280
     0
102
RTVSPost2010PropOp34
 70
     1
102
RTVSPost2010Prop35
280
     0
102
RTVSPost2010PropOp35
 70
     1
102
RTVSPost2010Prop36
280
     0
102
RTVSPost2010PropOp36
 70
     1
102
RTVSPost2010Prop37
 90
       50
102
RTVSPost2010PropOp37
 70
     1
102
RTVSPost2010Prop38
140
0.0
102
RTVSPost2010PropOp38
 70
     1
102
RTVSPost2010Prop39
140
1.0
102
RTVSPost2010PropOp39
 70
     1
102
RTVSPost2010Prop40
 90
        0
102
RTVSPost2010PropOp40
 70
     1
102
RTVSPost2010Prop41ColorIndex
 90
       18
102
RTVSPost2010Prop41ColorRGB
 90
        0
102
RTVSPost2010PropOp41
 70
     1
102
RTVSPost2010Prop42
 90
       50
102
RTVSPost2010PropOp42
 70
     1
102
RTVSPost2010Prop43
 90
        3
102
RTVSPost2010PropOp43
 70
     1
102
RTVSPost2010Prop44ColorIndex
 90
        5
102
RTVSPost2010Prop44ColorRGB
 90
      255
102
RTVSPost2010PropOp44
 70
     1
102
RTVSPost2010Prop45
280
     0
102
RTVSPost2010PropOp45
 70
     1
102
RTVSPost2010Prop46
 90
       50
102
RTVSPost2010PropOp46
 70
     1
102
RTVSPost2010Prop47
 90
       50
102
RTVSPost2010PropOp47
 70
     1
102
RTVSPost2010Prop48
 90
       50
102
RTVSPost2010PropOp48
 70
     1
102
RTVSPost2010Prop49
280
     0
102
RTVSPost2010PropOp49
 70
     1
102
RTVSPost2010Prop50
 90
       50
102
RTVSPost2010PropOp50
 70
     1
102
RTVSPost2010Prop51ColorIndex
 90
      256
102
RTVSPost2010Prop51ColorRGB
 90
-16777216
102
RTVSPost2010PropOp51
 70
     0
102
RTVSPost2010Prop52
140
1.0
102
RTVSPost2010PropOp52
 70
     0
102
RTVSPost2010Prop53
 90
        2
102
RTVSPost2010PropOp53
 70
     1
102
RTVSPost2010Prop54
  1
strokes_ogs.tif
102
RTVSPost2010PropOp54
 70
     1
102
RTVSPost2010Prop55
280
     0
102
RTVSPost2010PropOp55
 70
     1
102
RTVSPost2010Prop56
140
1.0
102
RTVSPost2010PropOp56
 70
     1
102
RTVSPost2010Prop57
140
1.0
102
RTVSPost2010PropOp57
 70
     1
  0
XRECORD
  5
EA
102
{ACAD_REACTORS
330
E9
102
}
330
E9
100
AcDbXrecord
280
     1
102
RTVSPost2010Prop28
280
     0
102
RTVSPost2010PropOp28
 70
     1
102
RTVSPost2010Prop29
280
     1
102
RTVSPost2010PropOp29
 70
     1
102
RTVSPost2010Prop30
280
     1
102
RTVSPost2010PropOp30
 70
     1
102
RTVSPost2010Prop31
280
     0
102
RTVSPost2010PropOp31
 70
     1
102
RTVSPost2010Prop32
280
     0
102
RTVSPost2010PropOp32
 70
     1
102
RTVSPost2010Prop33
280
     0
102
RTVSPost2010PropOp33
 70
     1
102
RTVSPost2010Prop34
280
     0
102
RTVSPost2010PropOp34
 70
     1
102
RTVSPost2010Prop35
280
     0
102
RTVSPost2010PropOp35
 70
     1
102
RTVSPost2010Prop36
280
     0
102
RTVSPost2010PropOp36
 70
     1
102
RTVSPost2010Prop37
 90
       50
102
RTVSPost2010PropOp37
 70
     1
102
RTVSPost2010Prop38
140
0.0
102
RTVSPost2010PropOp38
 70
     1
102
RTVSPost2010Prop39
140
1.0
102
RTVSPost2010PropOp39
 70
     1
102
RTVSPost2010Prop40
 90
        0
102
RTVSPost2010PropOp40
 70
     1
102
RTVSPost2010Prop41ColorIndex
 90
       18
102
RTVSPost2010Prop41ColorRGB
 90
        0
102
RTVSPost2010PropOp41
 70
     1
102
RTVSPost2010Prop42
 90
       50
102
RTVSPost2010PropOp42
 70
     1
102
RTVSPost2010Prop43
 90
        3
102
RTVSPost2010PropOp43
 70
     1
102
RTVSPost2010Prop44ColorIndex
 90
        5
102
RTVSPost2010Prop44ColorRGB
 90
      255
102
RTVSPost2010PropOp44
 70
     1
102
RTVSPost2010Prop45
280
     0
102
RTVSPost2010PropOp45
 70
     1
102
RTVSPost2010Prop46
 90
       50
102
RTVSPost2010PropOp46
 70
     1
102
RTVSPost2010Prop47
 90
       50
102
RTVSPost2010PropOp47
 70
     1
102
RTVSPost2010Prop48
 90
       50
102
RTVSPost2010PropOp48
 70
     1
102
RTVSPost2010Prop49
280
     0
102
RTVSPost2010PropOp49
 70
     1
102
RTVSPost2010Prop50
 90
       50
102
RTVSPost2010PropOp50
 70
     1
102
RTVSPost2010Prop51ColorIndex
 90
      256
102
RTVSPost2010Prop51ColorRGB
 90
-16777216
102
RTVSPost2010PropOp51
 70
     0
102
RTVSPost2010Prop52
140
1.0
102
RTVSPost2010PropOp52
 70
     0
102
RTVSPost2010Prop53
 90
        2
102
RTVSPost2010PropOp53
 70
     1
102
RTVSPost2010Prop54
  1
strokes_ogs.tif
102
RTVSPost2010PropOp54
 70
     1
102
RTVSPost2010Prop55
280
     0
102
RTVSPost2010PropOp55
 70
     1
102
RTVSPost2010Prop56
140
1.0
102
RTVSPost2010PropOp56
 70
     1
102
RTVSPost2010Prop57
140
1.0
102
RTVSPost2010PropOp57
 70
     1
  0
XRECORD
  5
EE
102
{ACAD_REACTORS
330
ED
102
}
330
ED
100
AcDbXrecord
280
     1
102
RTVSPost2010Prop28
280
     0
102
RTVSPost2010PropOp28
 70
     1
102
RTVSPost2010Prop29
280
     1
102
RTVSPost2010PropOp29
 70
     1
102
RTVSPost2010Prop30
280
     1
102
RTVSPost2010PropOp30
 70
     1
102
RTVSPost2010Prop31
280
     0
102
RTVSPost2010PropOp31
 70
     1
102
RTVSPost2010Prop32
280
     0
102
RTVSPost2010PropOp32
 70
     1
102
RTVSPost2010Prop33
280
     0
102
RTVSPost2010PropOp33
 70
     1
102
RTVSPost2010Prop34
280
     0
102
RTVSPost2010PropOp34
 70
     1
102
RTVSPost2010Prop35
280
     0
102
RTVSPost2010PropOp35
 70
     1
102
RTVSPost2010Prop36
280
     0
102
RTVSPost2010PropOp36
 70
     1
102
RTVSPost2010Prop37
 90
       50
102
RTVSPost2010PropOp37
 70
     1
102
RTVSPost2010Prop38
140
0.0
102
RTVSPost2010PropOp38
 70
     1
102
RTVSPost2010Prop39
140
1.0
102
RTVSPost2010PropOp39
 70
     1
102
RTVSPost2010Prop40
 90
        0
102
RTVSPost2010PropOp40
 70
     1
102
RTVSPost2010Prop41ColorIndex
 90
       18
102
RTVSPost2010Prop41ColorRGB
 90
        0
102
RTVSPost2010PropOp41
 70
     1
102
RTVSPost2010Prop42
 90
       50
102
RTVSPost2010PropOp42
 70
     1
102
RTVSPost2010Prop43
 90
        3
102
RTVSPost2010PropOp43
 70
     1
102
RTVSPost2010Prop44ColorIndex
 90
        5
102
RTVSPost2010Prop44ColorRGB
 90
      255
102
RTVSPost2010PropOp44
 70
     1
102
RTVSPost2010Prop45
280
     0
102
RTVSPost2010PropOp45
 70
     1
102
RTVSPost2010Prop46
 90
       50
102
RTVSPost2010PropOp46
 70
     1
102
RTVSPost2010Prop47
 90
       50
102
RTVSPost2010PropOp47
 70
     1
102
RTVSPost2010Prop48
 90
       50
102
RTVSPost2010PropOp48
 70
     1
102
RTVSPost2010Prop49
280
     0
102
RTVSPost2010PropOp49
 70
     1
102
RTVSPost2010Prop50
 90
       50
102
RTVSPost2010PropOp50
 70
     1
102
RTVSPost2010Prop51ColorIndex
 90
      256
102
RTVSPost2010Prop51ColorRGB
 90
-16777216
102
RTVSPost2010PropOp51
 70
     0
102
RTVSPost2010Prop52
140
1.0
102
RTVSPost2010PropOp52
 70
     0
102
RTVSPost2010Prop53
 90
        2
102
RTVSPost2010PropOp53
 70
     1
102
RTVSPost2010Prop54
  1
strokes_ogs.tif
102
RTVSPost2010PropOp54
 70
     1
102
RTVSPost2010Prop55
280
     0
102
RTVSPost2010PropOp55
 70
     1
102
RTVSPost2010Prop56
140
1.0
102
RTVSPost2010PropOp56
 70
     1
102
RTVSPost2010Prop57
140
1.0
102
RTVSPost2010PropOp57
 70
     1
  0
XRECORD
  5
108
102
{ACAD_REACTORS
330
107
102
}
330
107
100
AcDbXrecord
280
     1
102
RTVSPost2010Prop28
280
     0
102
RTVSPost2010PropOp28
 70
     0
102
RTVSPost2010Prop29
280
     1
102
RTVSPost2010PropOp29
 70
     0
102
RTVSPost2010Prop30
280
     1
102
RTVSPost2010PropOp30
 70
     0
102
RTVSPost2010Prop31
280
     0
102
RTVSPost2010PropOp31
 70
     0
102
RTVSPost2010Prop32
280
     0
102
RTVSPost2010PropOp32
 70
     0
102
RTVSPost2010Prop33
280
     0
102
RTVSPost2010PropOp33
 70
     0
102
RTVSPost2010Prop34
280
     0
102
RTVSPost2010PropOp34
 70
     0
102
RTVSPost2010Prop35
280
     0
102
RTVSPost2010PropOp35
 70
     0
102
RTVSPost2010Prop36
280
     0
102
RTVSPost2010PropOp36
 70
     0
102
RTVSPost2010Prop37
 90
       50
102
RTVSPost2010PropOp37
 70
     0
102
RTVSPost2010Prop38
140
0.0
102
RTVSPost2010PropOp38
 70
     0
102
RTVSPost2010Prop39
140
1.0
102
RTVSPost2010PropOp39
 70
     0
102
RTVSPost2010Prop40
 90
        0
102
RTVSPost2010PropOp40
 70
     0
102
RTVSPost2010Prop41ColorIndex
 90
       18
102
RTVSPost2010Prop41ColorRGB
 90
        0
102
RTVSPost2010PropOp41
 70
     0
102
RTVSPost2010Prop42
 90
       50
102
RTVSPost2010PropOp42
 70
     0
102
RTVSPost2010Prop43
 90
        3
102
RTVSPost2010PropOp43
 70
     0
102
RTVSPost2010Prop44ColorIndex
 90
        5
102
RTVSPost2010Prop44ColorRGB
 90
      255
102
RTVSPost2010PropOp44
 70
     0
102
RTVSPost2010Prop45
280
     0
102
RTVSPost2010PropOp45
 70
     0
102
RTVSPost2010Prop46
 90
       50
102
RTVSPost2010PropOp46
 70
     0
102
RTVSPost2010Prop47
 90
       50
102
RTVSPost2010PropOp47
 70
     0
102
RTVSPost2010Prop48
 90
       50
102
RTVSPost2010PropOp48
 70
     0
102
RTVSPost2010Prop49
280
     0
102
RTVSPost2010PropOp49
 70
     0
102
RTVSPost2010Prop50
 90
       50
102
RTVSPost2010PropOp50
 70
     0
102
RTVSPost2010Prop51ColorIndex
 90
      256
102
RTVSPost2010Prop51ColorRGB
 90
-16777216
102
RTVSPost2010PropOp51
 70
     0
102
RTVSPost2010Prop52
140
1.0
102
RTVSPost2010PropOp52
 70
     0
102
RTVSPost2010Prop53
 90
        2
102
RTVSPost2010PropOp53
 70
     0
102
RTVSPost2010Prop54
  1
strokes_ogs.tif
102
RTVSPost2010PropOp54
 70
     0
102
RTVSPost2010Prop55
280
     0
102
RTVSPost2010PropOp55
 70
     0
102
RTVSPost2010Prop56
140
1.0
102
RTVSPost2010PropOp56
 70
     0
102
RTVSPost2010Prop57
140
1.0
102
RTVSPost2010PropOp57
 70
     0
  0
XRECORD
  5
F6
102
{ACAD_REACTORS
330
F5
102
}
330
F5
100
AcDbXrecord
280
     1
102
RTVSPost2010Prop28
280
     0
102
RTVSPost2010PropOp28
 70
     1
102
RTVSPost2010Prop29
280
     1
102
RTVSPost2010PropOp29
 70
     1
102
RTVSPost2010Prop30
280
     1
102
RTVSPost2010PropOp30
 70
     1
102
RTVSPost2010Prop31
280
     0
102
RTVSPost2010PropOp31
 70
     1
102
RTVSPost2010Prop32
280
     0
102
RTVSPost2010PropOp32
 70
     1
102
RTVSPost2010Prop33
280
     0
102
RTVSPost2010PropOp33
 70
     1
102
RTVSPost2010Prop34
280
     0
102
RTVSPost2010PropOp34
 70
     1
102
RTVSPost2010Prop35
280
     0
102
RTVSPost2010PropOp35
 70
     1
102
RTVSPost2010Prop36
280
     0
102
RTVSPost2010PropOp36
 70
     1
102
RTVSPost2010Prop37
 90
       50
102
RTVSPost2010PropOp37
 70
     1
102
RTVSPost2010Prop38
140
0.0
102
RTVSPost2010PropOp38
 70
     1
102
RTVSPost2010Prop39
140
1.0
102
RTVSPost2010PropOp39
 70
     1
102
RTVSPost2010Prop40
 90
        0
102
RTVSPost2010PropOp40
 70
     1
102
RTVSPost2010Prop41ColorIndex
 90
       18
102
RTVSPost2010Prop41ColorRGB
 90
        0
102
RTVSPost2010PropOp41
 70
     1
102
RTVSPost2010Prop42
 90
       50
102
RTVSPost2010PropOp42
 70
     1
102
RTVSPost2010Prop43
 90
        3
102
RTVSPost2010PropOp43
 70
     1
102
RTVSPost2010Prop44ColorIndex
 90
        5
102
RTVSPost2010Prop44ColorRGB
 90
      255
102
RTVSPost2010PropOp44
 70
     1
102
RTVSPost2010Prop45
280
     0
102
RTVSPost2010PropOp45
 70
     1
102
RTVSPost2010Prop46
 90
       50
102
RTVSPost2010PropOp46
 70
     1
102
RTVSPost2010Prop47
 90
       50
102
RTVSPost2010PropOp47
 70
     1
102
RTVSPost2010Prop48
 90
       50
102
RTVSPost2010PropOp48
 70
     1
102
RTVSPost2010Prop49
280
     0
102
RTVSPost2010PropOp49
 70
     1
102
RTVSPost2010Prop50
 90
       50
102
RTVSPost2010PropOp50
 70
     1
102
RTVSPost2010Prop51ColorIndex
 90
      256
102
RTVSPost2010Prop51ColorRGB
 90
-16777216
102
RTVSPost2010PropOp51
 70
     0
102
RTVSPost2010Prop52
140
1.0
102
RTVSPost2010PropOp52
 70
     0
102
RTVSPost2010Prop53
 90
        2
102
RTVSPost2010PropOp53
 70
     1
102
RTVSPost2010Prop54
  1
strokes_ogs.tif
102
RTVSPost2010PropOp54
 70
     1
102
RTVSPost2010Prop55
280
     0
102
RTVSPost2010PropOp55
 70
     1
102
RTVSPost2010Prop56
140
1.0
102
RTVSPost2010PropOp56
 70
     1
102
RTVSPost2010Prop57
140
1.0
102
RTVSPost2010PropOp57
 70
     1
  0
XRECORD
  5
DA
102
{ACAD_REACTORS
330
D9
102
}
330
D9
100
AcDbXrecord
280
     1
102
RTVSPost2010Prop28
280
     0
102
RTVSPost2010PropOp28
 70
     1
102
RTVSPost2010Prop29
280
     1
102
RTVSPost2010PropOp29
 70
     1
102
RTVSPost2010Prop30
280
     1
102
RTVSPost2010PropOp30
 70
     1
102
RTVSPost2010Prop31
280
     0
102
RTVSPost2010PropOp31
 70
     1
102
RTVSPost2010Prop32
280
     0
102
RTVSPost2010PropOp32
 70
     1
102
RTVSPost2010Prop33
280
     0
102
RTVSPost2010PropOp33
 70
     1
102
RTVSPost2010Prop34
280
     0
102
RTVSPost2010PropOp34
 70
     1
102
RTVSPost2010Prop35
280
     0
102
RTVSPost2010PropOp35
 70
     1
102
RTVSPost2010Prop36
280
     0
102
RTVSPost2010PropOp36
 70
     1
102
RTVSPost2010Prop37
 90
       50
102
RTVSPost2010PropOp37
 70
     1
102
RTVSPost2010Prop38
140
0.0
102
RTVSPost2010PropOp38
 70
     1
102
RTVSPost2010Prop39
140
1.0
102
RTVSPost2010PropOp39
 70
     1
102
RTVSPost2010Prop40
 90
        0
102
RTVSPost2010PropOp40
 70
     1
102
RTVSPost2010Prop41ColorIndex
 90
       18
102
RTVSPost2010Prop41ColorRGB
 90
        0
102
RTVSPost2010PropOp41
 70
     1
102
RTVSPost2010Prop42
 90
       50
102
RTVSPost2010PropOp42
 70
     1
102
RTVSPost2010Prop43
 90
        3
102
RTVSPost2010PropOp43
 70
     1
102
RTVSPost2010Prop44ColorIndex
 90
        5
102
RTVSPost2010Prop44ColorRGB
 90
      255
102
RTVSPost2010PropOp44
 70
     1
102
RTVSPost2010Prop45
280
     0
102
RTVSPost2010PropOp45
 70
     1
102
RTVSPost2010Prop46
 90
       50
102
RTVSPost2010PropOp46
 70
     1
102
RTVSPost2010Prop47
 90
       50
102
RTVSPost2010PropOp47
 70
     1
102
RTVSPost2010Prop48
 90
       50
102
RTVSPost2010PropOp48
 70
     1
102
RTVSPost2010Prop49
280
     0
102
RTVSPost2010PropOp49
 70
     1
102
RTVSPost2010Prop50
 90
       50
102
RTVSPost2010PropOp50
 70
     1
102
RTVSPost2010Prop51ColorIndex
 90
      256
102
RTVSPost2010Prop51ColorRGB
 90
-16777216
102
RTVSPost2010PropOp51
 70
     0
102
RTVSPost2010Prop52
140
1.0
102
RTVSPost2010PropOp52
 70
     0
102
RTVSPost2010Prop53
 90
        2
102
RTVSPost2010PropOp53
 70
     1
102
RTVSPost2010Prop54
  1
strokes_ogs.tif
102
RTVSPost2010PropOp54
 70
     1
102
RTVSPost2010Prop55
280
     0
102
RTVSPost2010PropOp55
 70
     1
102
RTVSPost2010Prop56
140
1.0
102
RTVSPost2010PropOp56
 70
     1
102
RTVSPost2010Prop57
140
1.0
102
RTVSPost2010PropOp57
 70
     1
  0
XRECORD
  5
DC
102
{ACAD_REACTORS
330
DB
102
}
330
DB
100
AcDbXrecord
280
     1
102
RTVSPost2010Prop28
280
     0
102
RTVSPost2010PropOp28
 70
     1
102
RTVSPost2010Prop29
280
     1
102
RTVSPost2010PropOp29
 70
     1
102
RTVSPost2010Prop30
280
     1
102
RTVSPost2010PropOp30
 70
     1
102
RTVSPost2010Prop31
280
     0
102
RTVSPost2010PropOp31
 70
     1
102
RTVSPost2010Prop32
280
     0
102
RTVSPost2010PropOp32
 70
     1
102
RTVSPost2010Prop33
280
     0
102
RTVSPost2010PropOp33
 70
     1
102
RTVSPost2010Prop34
280
     0
102
RTVSPost2010PropOp34
 70
     1
102
RTVSPost2010Prop35
280
     0
102
RTVSPost2010PropOp35
 70
     1
102
RTVSPost2010Prop36
280
     0
102
RTVSPost2010PropOp36
 70
     1
102
RTVSPost2010Prop37
 90
       50
102
RTVSPost2010PropOp37
 70
     1
102
RTVSPost2010Prop38
140
0.0
102
RTVSPost2010PropOp38
 70
     1
102
RTVSPost2010Prop39
140
1.0
102
RTVSPost2010PropOp39
 70
     1
102
RTVSPost2010Prop40
 90
        0
102
RTVSPost2010PropOp40
 70
     1
102
RTVSPost2010Prop41ColorIndex
 90
       18
102
RTVSPost2010Prop41ColorRGB
 90
        0
102
RTVSPost2010PropOp41
 70
     1
102
RTVSPost2010Prop42
 90
       50
102
RTVSPost2010PropOp42
 70
     1
102
RTVSPost2010Prop43
 90
        3
102
RTVSPost2010PropOp43
 70
     1
102
RTVSPost2010Prop44ColorIndex
 90
        5
102
RTVSPost2010Prop44ColorRGB
 90
      255
102
RTVSPost2010PropOp44
 70
     1
102
RTVSPost2010Prop45
280
     0
102
RTVSPost2010PropOp45
 70
     1
102
RTVSPost2010Prop46
 90
       50
102
RTVSPost2010PropOp46
 70
     1
102
RTVSPost2010Prop47
 90
       50
102
RTVSPost2010PropOp47
 70
     1
102
RTVSPost2010Prop48
 90
       50
102
RTVSPost2010PropOp48
 70
     1
102
RTVSPost2010Prop49
280
     0
102
RTVSPost2010PropOp49
 70
     1
102
RTVSPost2010Prop50
 90
       50
102
RTVSPost2010PropOp50
 70
     1
102
RTVSPost2010Prop51ColorIndex
 90
      256
102
RTVSPost2010Prop51ColorRGB
 90
-16777216
102
RTVSPost2010PropOp51
 70
     0
102
RTVSPost2010Prop52
140
1.0
102
RTVSPost2010PropOp52
 70
     0
102
RTVSPost2010Prop53
 90
        2
102
RTVSPost2010PropOp53
 70
     1
102
RTVSPost2010Prop54
  1
strokes_ogs.tif
102
RTVSPost2010PropOp54
 70
     1
102
RTVSPost2010Prop55
280
     0
102
RTVSPost2010PropOp55
 70
     1
102
RTVSPost2010Prop56
140
1.0
102
RTVSPost2010PropOp56
 70
     1
102
RTVSPost2010Prop57
140
1.0
102
RTVSPost2010PropOp57
 70
     1
  0
XRECORD
  5
DE
102
{ACAD_REACTORS
330
DD
102
}
330
DD
100
AcDbXrecord
280
     1
102
RTVSPost2010Prop28
280
     0
102
RTVSPost2010PropOp28
 70
     1
102
RTVSPost2010Prop29
280
     1
102
RTVSPost2010PropOp29
 70
     1
102
RTVSPost2010Prop30
280
     1
102
RTVSPost2010PropOp30
 70
     1
102
RTVSPost2010Prop31
280
     0
102
RTVSPost2010PropOp31
 70
     1
102
RTVSPost2010Prop32
280
     0
102
RTVSPost2010PropOp32
 70
     1
102
RTVSPost2010Prop33
280
     0
102
RTVSPost2010PropOp33
 70
     1
102
RTVSPost2010Prop34
280
     0
102
RTVSPost2010PropOp34
 70
     1
102
RTVSPost2010Prop35
280
     0
102
RTVSPost2010PropOp35
 70
     1
102
RTVSPost2010Prop36
280
     0
102
RTVSPost2010PropOp36
 70
     1
102
RTVSPost2010Prop37
 90
       50
102
RTVSPost2010PropOp37
 70
     1
102
RTVSPost2010Prop38
140
0.0
102
RTVSPost2010PropOp38
 70
     1
102
RTVSPost2010Prop39
140
1.0
102
RTVSPost2010PropOp39
 70
     1
102
RTVSPost2010Prop40
 90
        0
102
RTVSPost2010PropOp40
 70
     1
102
RTVSPost2010Prop41ColorIndex
 90
       18
102
RTVSPost2010Prop41ColorRGB
 90
        0
102
RTVSPost2010PropOp41
 70
     1
102
RTVSPost2010Prop42
 90
       50
102
RTVSPost2010PropOp42
 70
     1
102
RTVSPost2010Prop43
 90
        3
102
RTVSPost2010PropOp43
 70
     1
102
RTVSPost2010Prop44ColorIndex
 90
        5
102
RTVSPost2010Prop44ColorRGB
 90
      255
102
RTVSPost2010PropOp44
 70
     1
102
RTVSPost2010Prop45
280
     0
102
RTVSPost2010PropOp45
 70
     1
102
RTVSPost2010Prop46
 90
       50
102
RTVSPost2010PropOp46
 70
     1
102
RTVSPost2010Prop47
 90
       50
102
RTVSPost2010PropOp47
 70
     1
102
RTVSPost2010Prop48
 90
       50
102
RTVSPost2010PropOp48
 70
     1
102
RTVSPost2010Prop49
280
     0
102
RTVSPost2010PropOp49
 70
     1
102
RTVSPost2010Prop50
 90
       50
102
RTVSPost2010PropOp50
 70
     1
102
RTVSPost2010Prop51ColorIndex
 90
      256
102
RTVSPost2010Prop51ColorRGB
 90
-16777216
102
RTVSPost2010PropOp51
 70
     0
102
RTVSPost2010Prop52
140
1.0
102
RTVSPost2010PropOp52
 70
     0
102
RTVSPost2010Prop53
 90
        2
102
RTVSPost2010PropOp53
 70
     1
102
RTVSPost2010Prop54
  1
strokes_ogs.tif
102
RTVSPost2010PropOp54
 70
     1
102
RTVSPost2010Prop55
280
     0
102
RTVSPost2010PropOp55
 70
     1
102
RTVSPost2010Prop56
140
1.0
102
RTVSPost2010PropOp56
 70
     1
102
RTVSPost2010Prop57
140
1.0
102
RTVSPost2010PropOp57
 70
     1
  0
XRECORD
  5
E0
102
{ACAD_REACTORS
330
DF
102
}
330
DF
100
AcDbXrecord
280
     1
102
RTVSPost2010Prop28
280
     0
102
RTVSPost2010PropOp28
 70
     1
102
RTVSPost2010Prop29
280
     1
102
RTVSPost2010PropOp29
 70
     1
102
RTVSPost2010Prop30
280
     1
102
RTVSPost2010PropOp30
 70
     1
102
RTVSPost2010Prop31
280
     0
102
RTVSPost2010PropOp31
 70
     1
102
RTVSPost2010Prop32
280
     0
102
RTVSPost2010PropOp32
 70
     1
102
RTVSPost2010Prop33
280
     0
102
RTVSPost2010PropOp33
 70
     1
102
RTVSPost2010Prop34
280
     0
102
RTVSPost2010PropOp34
 70
     1
102
RTVSPost2010Prop35
280
     0
102
RTVSPost2010PropOp35
 70
     1
102
RTVSPost2010Prop36
280
     0
102
RTVSPost2010PropOp36
 70
     1
102
RTVSPost2010Prop37
 90
       50
102
RTVSPost2010PropOp37
 70
     1
102
RTVSPost2010Prop38
140
0.0
102
RTVSPost2010PropOp38
 70
     1
102
RTVSPost2010Prop39
140
1.0
102
RTVSPost2010PropOp39
 70
     1
102
RTVSPost2010Prop40
 90
        0
102
RTVSPost2010PropOp40
 70
     1
102
RTVSPost2010Prop41ColorIndex
 90
       18
102
RTVSPost2010Prop41ColorRGB
 90
        0
102
RTVSPost2010PropOp41
 70
     1
102
RTVSPost2010Prop42
 90
       50
102
RTVSPost2010PropOp42
 70
     1
102
RTVSPost2010Prop43
 90
        3
102
RTVSPost2010PropOp43
 70
     1
102
RTVSPost2010Prop44ColorIndex
 90
        5
102
RTVSPost2010Prop44ColorRGB
 90
      255
102
RTVSPost2010PropOp44
 70
     1
102
RTVSPost2010Prop45
280
     0
102
RTVSPost2010PropOp45
 70
     1
102
RTVSPost2010Prop46
 90
       50
102
RTVSPost2010PropOp46
 70
     1
102
RTVSPost2010Prop47
 90
       50
102
RTVSPost2010PropOp47
 70
     1
102
RTVSPost2010Prop48
 90
       50
102
RTVSPost2010PropOp48
 70
     1
102
RTVSPost2010Prop49
280
     0
102
RTVSPost2010PropOp49
 70
     1
102
RTVSPost2010Prop50
 90
       50
102
RTVSPost2010PropOp50
 70
     1
102
RTVSPost2010Prop51ColorIndex
 90
      256
102
RTVSPost2010Prop51ColorRGB
 90
-16777216
102
RTVSPost2010PropOp51
 70
     0
102
RTVSPost2010Prop52
140
1.0
102
RTVSPost2010PropOp52
 70
     0
102
RTVSPost2010Prop53
 90
        2
102
RTVSPost2010PropOp53
 70
     1
102
RTVSPost2010Prop54
  1
strokes_ogs.tif
102
RTVSPost2010PropOp54
 70
     1
102
RTVSPost2010Prop55
280
     0
102
RTVSPost2010PropOp55
 70
     1
102
RTVSPost2010Prop56
140
1.0
102
RTVSPost2010PropOp56
 70
     1
102
RTVSPost2010Prop57
140
1.0
102
RTVSPost2010PropOp57
 70
     1
  0
XRECORD
  5
E8
102
{ACAD_REACTORS
330
E7
102
}
330
E7
100
AcDbXrecord
280
     1
102
RTVSPost2010Prop28
280
     0
102
RTVSPost2010PropOp28
 70
     1
102
RTVSPost2010Prop29
280
     1
102
RTVSPost2010PropOp29
 70
     1
102
RTVSPost2010Prop30
280
     1
102
RTVSPost2010PropOp30
 70
     1
102
RTVSPost2010Prop31
280
     0
102
RTVSPost2010PropOp31
 70
     1
102
RTVSPost2010Prop32
280
     0
102
RTVSPost2010PropOp32
 70
     1
102
RTVSPost2010Prop33
280
     0
102
RTVSPost2010PropOp33
 70
     1
102
RTVSPost2010Prop34
280
     0
102
RTVSPost2010PropOp34
 70
     1
102
RTVSPost2010Prop35
280
     0
102
RTVSPost2010PropOp35
 70
     1
102
RTVSPost2010Prop36
280
     0
102
RTVSPost2010PropOp36
 70
     1
102
RTVSPost2010Prop37
 90
       50
102
RTVSPost2010PropOp37
 70
     1
102
RTVSPost2010Prop38
140
0.0
102
RTVSPost2010PropOp38
 70
     1
102
RTVSPost2010Prop39
140
1.0
102
RTVSPost2010PropOp39
 70
     1
102
RTVSPost2010Prop40
 90
        0
102
RTVSPost2010PropOp40
 70
     1
102
RTVSPost2010Prop41ColorIndex
 90
       18
102
RTVSPost2010Prop41ColorRGB
 90
        0
102
RTVSPost2010PropOp41
 70
     1
102
RTVSPost2010Prop42
 90
       50
102
RTVSPost2010PropOp42
 70
     1
102
RTVSPost2010Prop43
 90
        3
102
RTVSPost2010PropOp43
 70
     1
102
RTVSPost2010Prop44ColorIndex
 90
        5
102
RTVSPost2010Prop44ColorRGB
 90
      255
102
RTVSPost2010PropOp44
 70
     1
102
RTVSPost2010Prop45
280
     0
102
RTVSPost2010PropOp45
 70
     1
102
RTVSPost2010Prop46
 90
       50
102
RTVSPost2010PropOp46
 70
     1
102
RTVSPost2010Prop47
 90
       50
102
RTVSPost2010PropOp47
 70
     1
102
RTVSPost2010Prop48
 90
       50
102
RTVSPost2010PropOp48
 70
     1
102
RTVSPost2010Prop49
280
     0
102
RTVSPost2010PropOp49
 70
     1
102
RTVSPost2010Prop50
 90
       50
102
RTVSPost2010PropOp50
 70
     1
102
RTVSPost2010Prop51ColorIndex
 90
      256
102
RTVSPost2010Prop51ColorRGB
 90
-16777216
102
RTVSPost2010PropOp51
 70
     0
102
RTVSPost2010Prop52
140
1.0
102
RTVSPost2010PropOp52
 70
     0
102
RTVSPost2010Prop53
 90
        2
102
RTVSPost2010PropOp53
 70
     1
102
RTVSPost2010Prop54
  1
strokes_ogs.tif
102
RTVSPost2010PropOp54
 70
     1
102
RTVSPost2010Prop55
280
     0
102
RTVSPost2010PropOp55
 70
     1
102
RTVSPost2010Prop56
140
1.0
102
RTVSPost2010PropOp56
 70
     1
102
RTVSPost2010Prop57
140
1.0
102
RTVSPost2010PropOp57
 70
     1
  0
XRECORD
  5
104
102
{ACAD_REACTORS
330
103
102
}
330
103
100
AcDbXrecord
280
     1
102
RTVSPost2010Prop28
280
     0
102
RTVSPost2010PropOp28
 70
     0
102
RTVSPost2010Prop29
280
     1
102
RTVSPost2010PropOp29
 70
     0
102
RTVSPost2010Prop30
280
     1
102
RTVSPost2010PropOp30
 70
     0
102
RTVSPost2010Prop31
280
     0
102
RTVSPost2010PropOp31
 70
     0
102
RTVSPost2010Prop32
280
     0
102
RTVSPost2010PropOp32
 70
     0
102
RTVSPost2010Prop33
280
     0
102
RTVSPost2010PropOp33
 70
     0
102
RTVSPost2010Prop34
280
     0
102
RTVSPost2010PropOp34
 70
     0
102
RTVSPost2010Prop35
280
     0
102
RTVSPost2010PropOp35
 70
     0
102
RTVSPost2010Prop36
280
     0
102
RTVSPost2010PropOp36
 70
     0
102
RTVSPost2010Prop37
 90
       50
102
RTVSPost2010PropOp37
 70
     0
102
RTVSPost2010Prop38
140
0.0
102
RTVSPost2010PropOp38
 70
     0
102
RTVSPost2010Prop39
140
1.0
102
RTVSPost2010PropOp39
 70
     0
102
RTVSPost2010Prop40
 90
        0
102
RTVSPost2010PropOp40
 70
     0
102
RTVSPost2010Prop41ColorIndex
 90
       18
102
RTVSPost2010Prop41ColorRGB
 90
        0
102
RTVSPost2010PropOp41
 70
     0
102
RTVSPost2010Prop42
 90
       50
102
RTVSPost2010PropOp42
 70
     0
102
RTVSPost2010Prop43
 90
        3
102
RTVSPost2010PropOp43
 70
     0
102
RTVSPost2010Prop44ColorIndex
 90
        5
102
RTVSPost2010Prop44ColorRGB
 90
      255
102
RTVSPost2010PropOp44
 70
     0
102
RTVSPost2010Prop45
280
     0
102
RTVSPost2010PropOp45
 70
     0
102
RTVSPost2010Prop46
 90
       50
102
RTVSPost2010PropOp46
 70
     0
102
RTVSPost2010Prop47
 90
       50
102
RTVSPost2010PropOp47
 70
     0
102
RTVSPost2010Prop48
 90
       50
102
RTVSPost2010PropOp48
 70
     0
102
RTVSPost2010Prop49
280
     0
102
RTVSPost2010PropOp49
 70
     0
102
RTVSPost2010Prop50
 90
       50
102
RTVSPost2010PropOp50
 70
     0
102
RTVSPost2010Prop51ColorIndex
 90
      256
102
RTVSPost2010Prop51ColorRGB
 90
-16777216
102
RTVSPost2010PropOp51
 70
     0
102
RTVSPost2010Prop52
140
1.0
102
RTVSPost2010PropOp52
 70
     0
102
RTVSPost2010Prop53
 90
        2
102
RTVSPost2010PropOp53
 70
     0
102
RTVSPost2010Prop54
  1
strokes_ogs.tif
102
RTVSPost2010PropOp54
 70
     0
102
RTVSPost2010Prop55
280
     0
102
RTVSPost2010PropOp55
 70
     0
102
RTVSPost2010Prop56
140
1.0
102
RTVSPost2010PropOp56
 70
     0
102
RTVSPost2010Prop57
140
1.0
102
RTVSPost2010PropOp57
 70
     0
  0
XRECORD
  5
F4
102
{ACAD_REACTORS
330
F3
102
}
330
F3
100
AcDbXrecord
280
     1
102
RTVSPost2010Prop28
280
     0
102
RTVSPost2010PropOp28
 70
     1
102
RTVSPost2010Prop29
280
     1
102
RTVSPost2010PropOp29
 70
     1
102
RTVSPost2010Prop30
280
     1
102
RTVSPost2010PropOp30
 70
     1
102
RTVSPost2010Prop31
280
     0
102
RTVSPost2010PropOp31
 70
     1
102
RTVSPost2010Prop32
280
     0
102
RTVSPost2010PropOp32
 70
     1
102
RTVSPost2010Prop33
280
     0
102
RTVSPost2010PropOp33
 70
     1
102
RTVSPost2010Prop34
280
     0
102
RTVSPost2010PropOp34
 70
     1
102
RTVSPost2010Prop35
280
     0
102
RTVSPost2010PropOp35
 70
     1
102
RTVSPost2010Prop36
280
     0
102
RTVSPost2010PropOp36
 70
     1
102
RTVSPost2010Prop37
 90
       50
102
RTVSPost2010PropOp37
 70
     1
102
RTVSPost2010Prop38
140
0.0
102
RTVSPost2010PropOp38
 70
     1
102
RTVSPost2010Prop39
140
1.0
102
RTVSPost2010PropOp39
 70
     1
102
RTVSPost2010Prop40
 90
        0
102
RTVSPost2010PropOp40
 70
     1
102
RTVSPost2010Prop41ColorIndex
 90
       18
102
RTVSPost2010Prop41ColorRGB
 90
        0
102
RTVSPost2010PropOp41
 70
     1
102
RTVSPost2010Prop42
 90
       50
102
RTVSPost2010PropOp42
 70
     1
102
RTVSPost2010Prop43
 90
        3
102
RTVSPost2010PropOp43
 70
     1
102
RTVSPost2010Prop44ColorIndex
 90
        5
102
RTVSPost2010Prop44ColorRGB
 90
      255
102
RTVSPost2010PropOp44
 70
     1
102
RTVSPost2010Prop45
280
     0
102
RTVSPost2010PropOp45
 70
     1
102
RTVSPost2010Prop46
 90
       50
102
RTVSPost2010PropOp46
 70
     1
102
RTVSPost2010Prop47
 90
       50
102
RTVSPost2010PropOp47
 70
     1
102
RTVSPost2010Prop48
 90
       50
102
RTVSPost2010PropOp48
 70
     1
102
RTVSPost2010Prop49
280
     0
102
RTVSPost2010PropOp49
 70
     1
102
RTVSPost2010Prop50
 90
       50
102
RTVSPost2010PropOp50
 70
     1
102
RTVSPost2010Prop51ColorIndex
 90
      256
102
RTVSPost2010Prop51ColorRGB
 90
-16777216
102
RTVSPost2010PropOp51
 70
     0
102
RTVSPost2010Prop52
140
1.0
102
RTVSPost2010PropOp52
 70
     0
102
RTVSPost2010Prop53
 90
        2
102
RTVSPost2010PropOp53
 70
     1
102
RTVSPost2010Prop54
  1
strokes_ogs.tif
102
RTVSPost2010PropOp54
 70
     1
102
RTVSPost2010Prop55
280
     0
102
RTVSPost2010PropOp55
 70
     1
102
RTVSPost2010Prop56
140
1.0
102
RTVSPost2010PropOp56
 70
     1
102
RTVSPost2010Prop57
140
1.0
102
RTVSPost2010PropOp57
 70
     1
  0
XRECORD
  5
106
102
{ACAD_REACTORS
330
105
102
}
330
105
100
AcDbXrecord
280
     1
102
RTVSPost2010Prop28
280
     0
102
RTVSPost2010PropOp28
 70
     0
102
RTVSPost2010Prop29
280
     1
102
RTVSPost2010PropOp29
 70
     0
102
RTVSPost2010Prop30
280
     1
102
RTVSPost2010PropOp30
 70
     0
102
RTVSPost2010Prop31
280
     0
102
RTVSPost2010PropOp31
 70
     0
102
RTVSPost2010Prop32
280
     0
102
RTVSPost2010PropOp32
 70
     0
102
RTVSPost2010Prop33
280
     0
102
RTVSPost2010PropOp33
 70
     0
102
RTVSPost2010Prop34
280
     0
102
RTVSPost2010PropOp34
 70
     0
102
RTVSPost2010Prop35
280
     0
102
RTVSPost2010PropOp35
 70
     0
102
RTVSPost2010Prop36
280
     0
102
RTVSPost2010PropOp36
 70
     0
102
RTVSPost2010Prop37
 90
       50
102
RTVSPost2010PropOp37
 70
     0
102
RTVSPost2010Prop38
140
0.0
102
RTVSPost2010PropOp38
 70
     0
102
RTVSPost2010Prop39
140
1.0
102
RTVSPost2010PropOp39
 70
     0
102
RTVSPost2010Prop40
 90
        0
102
RTVSPost2010PropOp40
 70
     0
102
RTVSPost2010Prop41ColorIndex
 90
       18
102
RTVSPost2010Prop41ColorRGB
 90
        0
102
RTVSPost2010PropOp41
 70
     0
102
RTVSPost2010Prop42
 90
       50
102
RTVSPost2010PropOp42
 70
     0
102
RTVSPost2010Prop43
 90
        3
102
RTVSPost2010PropOp43
 70
     0
102
RTVSPost2010Prop44ColorIndex
 90
        5
102
RTVSPost2010Prop44ColorRGB
 90
      255
102
RTVSPost2010PropOp44
 70
     0
102
RTVSPost2010Prop45
280
     0
102
RTVSPost2010PropOp45
 70
     0
102
RTVSPost2010Prop46
 90
       50
102
RTVSPost2010PropOp46
 70
     0
102
RTVSPost2010Prop47
 90
       50
102
RTVSPost2010PropOp47
 70
     0
102
RTVSPost2010Prop48
 90
       50
102
RTVSPost2010PropOp48
 70
     0
102
RTVSPost2010Prop49
280
     0
102
RTVSPost2010PropOp49
 70
     0
102
RTVSPost2010Prop50
 90
       50
102
RTVSPost2010PropOp50
 70
     0
102
RTVSPost2010Prop51ColorIndex
 90
      256
102
RTVSPost2010Prop51ColorRGB
 90
-16777216
102
RTVSPost2010PropOp51
 70
     0
102
RTVSPost2010Prop52
140
1.0
102
RTVSPost2010PropOp52
 70
     0
102
RTVSPost2010Prop53
 90
        2
102
RTVSPost2010PropOp53
 70
     0
102
RTVSPost2010Prop54
  1
strokes_ogs.tif
102
RTVSPost2010PropOp54
 70
     0
102
RTVSPost2010Prop55
280
     0
102
RTVSPost2010PropOp55
 70
     0
102
RTVSPost2010Prop56
140
1.0
102
RTVSPost2010PropOp56
 70
     0
102
RTVSPost2010Prop57
140
1.0
102
RTVSPost2010PropOp57
 70
     0
  0
XRECORD
  5
EC
102
{ACAD_REACTORS
330
EB
102
}
330
EB
100
AcDbXrecord
280
     1
102
RTVSPost2010Prop28
280
     0
102
RTVSPost2010PropOp28
 70
     1
102
RTVSPost2010Prop29
280
     1
102
RTVSPost2010PropOp29
 70
     1
102
RTVSPost2010Prop30
280
     1
102
RTVSPost2010PropOp30
 70
     1
102
RTVSPost2010Prop31
280
     0
102
RTVSPost2010PropOp31
 70
     1
102
RTVSPost2010Prop32
280
     0
102
RTVSPost2010PropOp32
 70
     1
102
RTVSPost2010Prop33
280
     0
102
RTVSPost2010PropOp33
 70
     1
102
RTVSPost2010Prop34
280
     0
102
RTVSPost2010PropOp34
 70
     1
102
RTVSPost2010Prop35
280
     0
102
RTVSPost2010PropOp35
 70
     1
102
RTVSPost2010Prop36
280
     0
102
RTVSPost2010PropOp36
 70
     1
102
RTVSPost2010Prop37
 90
       50
102
RTVSPost2010PropOp37
 70
     1
102
RTVSPost2010Prop38
140
0.0
102
RTVSPost2010PropOp38
 70
     1
102
RTVSPost2010Prop39
140
1.0
102
RTVSPost2010PropOp39
 70
     1
102
RTVSPost2010Prop40
 90
        0
102
RTVSPost2010PropOp40
 70
     1
102
RTVSPost2010Prop41ColorIndex
 90
       18
102
RTVSPost2010Prop41ColorRGB
 90
        0
102
RTVSPost2010PropOp41
 70
     1
102
RTVSPost2010Prop42
 90
       50
102
RTVSPost2010PropOp42
 70
     1
102
RTVSPost2010Prop43
 90
        3
102
RTVSPost2010PropOp43
 70
     1
102
RTVSPost2010Prop44ColorIndex
 90
        5
102
RTVSPost2010Prop44ColorRGB
 90
      255
102
RTVSPost2010PropOp44
 70
     1
102
RTVSPost2010Prop45
280
     0
102
RTVSPost2010PropOp45
 70
     1
102
RTVSPost2010Prop46
 90
       50
102
RTVSPost2010PropOp46
 70
     1
102
RTVSPost2010Prop47
 90
       50
102
RTVSPost2010PropOp47
 70
     1
102
RTVSPost2010Prop48
 90
       50
102
RTVSPost2010PropOp48
 70
     1
102
RTVSPost2010Prop49
280
     0
102
RTVSPost2010PropOp49
 70
     1
102
RTVSPost2010Prop50
 90
       50
102
RTVSPost2010PropOp50
 70
     1
102
RTVSPost2010Prop51ColorIndex
 90
      256
102
RTVSPost2010Prop51ColorRGB
 90
-16777216
102
RTVSPost2010PropOp51
 70
     0
102
RTVSPost2010Prop52
140
1.0
102
RTVSPost2010PropOp52
 70
     0
102
RTVSPost2010Prop53
 90
        2
102
RTVSPost2010PropOp53
 70
     1
102
RTVSPost2010Prop54
  1
strokes_ogs.tif
102
RTVSPost2010PropOp54
 70
     1
102
RTVSPost2010Prop55
280
     0
102
RTVSPost2010PropOp55
 70
     1
102
RTVSPost2010Prop56
140
1.0
102
RTVSPost2010PropOp56
 70
     1
102
RTVSPost2010Prop57
140
1.0
102
RTVSPost2010PropOp57
 70
     1
  0
XRECORD
  5
102
102
{ACAD_REACTORS
330
101
102
}
330
101
100
AcDbXrecord
280
     1
102
RTVSPost2010Prop28
280
     0
102
RTVSPost2010PropOp28
 70
     1
102
RTVSPost2010Prop29
280
     1
102
RTVSPost2010PropOp29
 70
     1
102
RTVSPost2010Prop30
280
     1
102
RTVSPost2010PropOp30
 70
     1
102
RTVSPost2010Prop31
280
     0
102
RTVSPost2010PropOp31
 70
     1
102
RTVSPost2010Prop32
280
     0
102
RTVSPost2010PropOp32
 70
     1
102
RTVSPost2010Prop33
280
     0
102
RTVSPost2010PropOp33
 70
     1
102
RTVSPost2010Prop34
280
     0
102
RTVSPost2010PropOp34
 70
     1
102
RTVSPost2010Prop35
280
     0
102
RTVSPost2010PropOp35
 70
     1
102
RTVSPost2010Prop36
280
     0
102
RTVSPost2010PropOp36
 70
     1
102
RTVSPost2010Prop37
 90
       50
102
RTVSPost2010PropOp37
 70
     1
102
RTVSPost2010Prop38
140
0.0
102
RTVSPost2010PropOp38
 70
     1
102
RTVSPost2010Prop39
140
1.0
102
RTVSPost2010PropOp39
 70
     1
102
RTVSPost2010Prop40
 90
        0
102
RTVSPost2010PropOp40
 70
     1
102
RTVSPost2010Prop41ColorIndex
 90
       18
102
RTVSPost2010Prop41ColorRGB
 90
        0
102
RTVSPost2010PropOp41
 70
     1
102
RTVSPost2010Prop42
 90
       50
102
RTVSPost2010PropOp42
 70
     1
102
RTVSPost2010Prop43
 90
        3
102
RTVSPost2010PropOp43
 70
     1
102
RTVSPost2010Prop44ColorIndex
 90
        5
102
RTVSPost2010Prop44ColorRGB
 90
      255
102
RTVSPost2010PropOp44
 70
     1
102
RTVSPost2010Prop45
280
     0
102
RTVSPost2010PropOp45
 70
     1
102
RTVSPost2010Prop46
 90
       50
102
RTVSPost2010PropOp46
 70
     1
102
RTVSPost2010Prop47
 90
       50
102
RTVSPost2010PropOp47
 70
     1
102
RTVSPost2010Prop48
 90
       50
102
RTVSPost2010PropOp48
 70
     1
102
RTVSPost2010Prop49
280
     0
102
RTVSPost2010PropOp49
 70
     1
102
RTVSPost2010Prop50
 90
       50
102
RTVSPost2010PropOp50
 70
     1
102
RTVSPost2010Prop51ColorIndex
 90
      256
102
RTVSPost2010Prop51ColorRGB
 90
-16777216
102
RTVSPost2010PropOp51
 70
     0
102
RTVSPost2010Prop52
140
1.0
102
RTVSPost2010PropOp52
 70
     0
102
RTVSPost2010Prop53
 90
        2
102
RTVSPost2010PropOp53
 70
     1
102
RTVSPost2010Prop54
  1
strokes_ogs.tif
102
RTVSPost2010PropOp54
 70
     1
102
RTVSPost2010Prop55
280
     0
102
RTVSPost2010PropOp55
 70
     1
102
RTVSPost2010Prop56
140
1.0
102
RTVSPost2010PropOp56
 70
     1
102
RTVSPost2010Prop57
140
1.0
102
RTVSPost2010PropOp57
 70
     1
  0
XRECORD
  5
100
102
{ACAD_REACTORS
330
FF
102
}
330
FF
100
AcDbXrecord
280
     1
102
RTVSPost2010Prop28
280
     0
102
RTVSPost2010PropOp28
 70
     1
102
RTVSPost2010Prop29
280
     1
102
RTVSPost2010PropOp29
 70
     1
102
RTVSPost2010Prop30
280
     1
102
RTVSPost2010PropOp30
 70
     1
102
RTVSPost2010Prop31
280
     0
102
RTVSPost2010PropOp31
 70
     1
102
RTVSPost2010Prop32
280
     0
102
RTVSPost2010PropOp32
 70
     1
102
RTVSPost2010Prop33
280
     0
102
RTVSPost2010PropOp33
 70
     1
102
RTVSPost2010Prop34
280
     0
102
RTVSPost2010PropOp34
 70
     1
102
RTVSPost2010Prop35
280
     0
102
RTVSPost2010PropOp35
 70
     1
102
RTVSPost2010Prop36
280
     0
102
RTVSPost2010PropOp36
 70
     1
102
RTVSPost2010Prop37
 90
       50
102
RTVSPost2010PropOp37
 70
     1
102
RTVSPost2010Prop38
140
0.0
102
RTVSPost2010PropOp38
 70
     1
102
RTVSPost2010Prop39
140
1.0
102
RTVSPost2010PropOp39
 70
     1
102
RTVSPost2010Prop40
 90
        0
102
RTVSPost2010PropOp40
 70
     1
102
RTVSPost2010Prop41ColorIndex
 90
       18
102
RTVSPost2010Prop41ColorRGB
 90
        0
102
RTVSPost2010PropOp41
 70
     1
102
RTVSPost2010Prop42
 90
       50
102
RTVSPost2010PropOp42
 70
     1
102
RTVSPost2010Prop43
 90
        3
102
RTVSPost2010PropOp43
 70
     1
102
RTVSPost2010Prop44ColorIndex
 90
        5
102
RTVSPost2010Prop44ColorRGB
 90
      255
102
RTVSPost2010PropOp44
 70
     1
102
RTVSPost2010Prop45
280
     0
102
RTVSPost2010PropOp45
 70
     1
102
RTVSPost2010Prop46
 90
       50
102
RTVSPost2010PropOp46
 70
     1
102
RTVSPost2010Prop47
 90
       50
102
RTVSPost2010PropOp47
 70
     1
102
RTVSPost2010Prop48
 90
       50
102
RTVSPost2010PropOp48
 70
     1
102
RTVSPost2010Prop49
280
     0
102
RTVSPost2010PropOp49
 70
     1
102
RTVSPost2010Prop50
 90
       50
102
RTVSPost2010PropOp50
 70
     1
102
RTVSPost2010Prop51ColorIndex
 90
      256
102
RTVSPost2010Prop51ColorRGB
 90
-16777216
102
RTVSPost2010PropOp51
 70
     0
102
RTVSPost2010Prop52
140
1.0
102
RTVSPost2010PropOp52
 70
     0
102
RTVSPost2010Prop53
 90
        2
102
RTVSPost2010PropOp53
 70
     1
102
RTVSPost2010Prop54
  1
strokes_ogs.tif
102
RTVSPost2010PropOp54
 70
     1
102
RTVSPost2010Prop55
280
     0
102
RTVSPost2010PropOp55
 70
     1
102
RTVSPost2010Prop56
140
1.0
102
RTVSPost2010PropOp56
 70
     1
102
RTVSPost2010Prop57
140
1.0
102
RTVSPost2010PropOp57
 70
     1
  0
XRECORD
  5
FA
102
{ACAD_REACTORS
330
F9
102
}
330
F9
100
AcDbXrecord
280
     1
102
RTVSPost2010Prop28
280
     0
102
RTVSPost2010PropOp28
 70
     1
102
RTVSPost2010Prop29
280
     1
102
RTVSPost2010PropOp29
 70
     1
102
RTVSPost2010Prop30
280
     1
102
RTVSPost2010PropOp30
 70
     1
102
RTVSPost2010Prop31
280
     0
102
RTVSPost2010PropOp31
 70
     1
102
RTVSPost2010Prop32
280
     0
102
RTVSPost2010PropOp32
 70
     1
102
RTVSPost2010Prop33
280
     0
102
RTVSPost2010PropOp33
 70
     1
102
RTVSPost2010Prop34
280
     0
102
RTVSPost2010PropOp34
 70
     1
102
RTVSPost2010Prop35
280
     0
102
RTVSPost2010PropOp35
 70
     1
102
RTVSPost2010Prop36
280
     0
102
RTVSPost2010PropOp36
 70
     1
102
RTVSPost2010Prop37
 90
       50
102
RTVSPost2010PropOp37
 70
     1
102
RTVSPost2010Prop38
140
0.0
102
RTVSPost2010PropOp38
 70
     1
102
RTVSPost2010Prop39
140
1.0
102
RTVSPost2010PropOp39
 70
     1
102
RTVSPost2010Prop40
 90
        0
102
RTVSPost2010PropOp40
 70
     1
102
RTVSPost2010Prop41ColorIndex
 90
       18
102
RTVSPost2010Prop41ColorRGB
 90
        0
102
RTVSPost2010PropOp41
 70
     1
102
RTVSPost2010Prop42
 90
       50
102
RTVSPost2010PropOp42
 70
     1
102
RTVSPost2010Prop43
 90
        3
102
RTVSPost2010PropOp43
 70
     1
102
RTVSPost2010Prop44ColorIndex
 90
        5
102
RTVSPost2010Prop44ColorRGB
 90
      255
102
RTVSPost2010PropOp44
 70
     1
102
RTVSPost2010Prop45
280
     0
102
RTVSPost2010PropOp45
 70
     1
102
RTVSPost2010Prop46
 90
       50
102
RTVSPost2010PropOp46
 70
     1
102
RTVSPost2010Prop47
 90
       50
102
RTVSPost2010PropOp47
 70
     1
102
RTVSPost2010Prop48
 90
       50
102
RTVSPost2010PropOp48
 70
     1
102
RTVSPost2010Prop49
280
     0
102
RTVSPost2010PropOp49
 70
     1
102
RTVSPost2010Prop50
 90
       50
102
RTVSPost2010PropOp50
 70
     1
102
RTVSPost2010Prop51ColorIndex
 90
      256
102
RTVSPost2010Prop51ColorRGB
 90
-16777216
102
RTVSPost2010PropOp51
 70
     0
102
RTVSPost2010Prop52
140
1.0
102
RTVSPost2010PropOp52
 70
     0
102
RTVSPost2010Prop53
 90
        2
102
RTVSPost2010PropOp53
 70
     1
102
RTVSPost2010Prop54
  1
strokes_ogs.tif
102
RTVSPost2010PropOp54
 70
     1
102
RTVSPost2010Prop55
280
     0
102
RTVSPost2010PropOp55
 70
     1
102
RTVSPost2010Prop56
140
1.0
102
RTVSPost2010PropOp56
 70
     1
102
RTVSPost2010Prop57
140
1.0
102
RTVSPost2010PropOp57
 70
     1
  0
XRECORD
  5
FC
102
{ACAD_REACTORS
330
FB
102
}
330
FB
100
AcDbXrecord
280
     1
102
RTVSPost2010Prop28
280
     0
102
RTVSPost2010PropOp28
 70
     1
102
RTVSPost2010Prop29
280
     1
102
RTVSPost2010PropOp29
 70
     1
102
RTVSPost2010Prop30
280
     1
102
RTVSPost2010PropOp30
 70
     1
102
RTVSPost2010Prop31
280
     0
102
RTVSPost2010PropOp31
 70
     1
102
RTVSPost2010Prop32
280
     0
102
RTVSPost2010PropOp32
 70
     1
102
RTVSPost2010Prop33
280
     0
102
RTVSPost2010PropOp33
 70
     1
102
RTVSPost2010Prop34
280
     0
102
RTVSPost2010PropOp34
 70
     1
102
RTVSPost2010Prop35
280
     0
102
RTVSPost2010PropOp35
 70
     1
102
RTVSPost2010Prop36
280
     0
102
RTVSPost2010PropOp36
 70
     1
102
RTVSPost2010Prop37
 90
       50
102
RTVSPost2010PropOp37
 70
     1
102
RTVSPost2010Prop38
140
0.0
102
RTVSPost2010PropOp38
 70
     1
102
RTVSPost2010Prop39
140
1.0
102
RTVSPost2010PropOp39
 70
     1
102
RTVSPost2010Prop40
 90
        0
102
RTVSPost2010PropOp40
 70
     1
102
RTVSPost2010Prop41ColorIndex
 90
       18
102
RTVSPost2010Prop41ColorRGB
 90
        0
102
RTVSPost2010PropOp41
 70
     1
102
RTVSPost2010Prop42
 90
       50
102
RTVSPost2010PropOp42
 70
     1
102
RTVSPost2010Prop43
 90
        3
102
RTVSPost2010PropOp43
 70
     1
102
RTVSPost2010Prop44ColorIndex
 90
        5
102
RTVSPost2010Prop44ColorRGB
 90
      255
102
RTVSPost2010PropOp44
 70
     1
102
RTVSPost2010Prop45
280
     0
102
RTVSPost2010PropOp45
 70
     1
102
RTVSPost2010Prop46
 90
       50
102
RTVSPost2010PropOp46
 70
     1
102
RTVSPost2010Prop47
 90
       50
102
RTVSPost2010PropOp47
 70
     1
102
RTVSPost2010Prop48
 90
       50
102
RTVSPost2010PropOp48
 70
     1
102
RTVSPost2010Prop49
280
     0
102
RTVSPost2010PropOp49
 70
     1
102
RTVSPost2010Prop50
 90
       50
102
RTVSPost2010PropOp50
 70
     1
102
RTVSPost2010Prop51ColorIndex
 90
      256
102
RTVSPost2010Prop51ColorRGB
 90
-16777216
102
RTVSPost2010PropOp51
 70
     0
102
RTVSPost2010Prop52
140
1.0
102
RTVSPost2010PropOp52
 70
     0
102
RTVSPost2010Prop53
 90
        2
102
RTVSPost2010PropOp53
 70
     1
102
RTVSPost2010Prop54
  1
strokes_ogs.tif
102
RTVSPost2010PropOp54
 70
     1
102
RTVSPost2010Prop55
280
     0
102
RTVSPost2010PropOp55
 70
     1
102
RTVSPost2010Prop56
140
1.0
102
RTVSPost2010PropOp56
 70
     1
102
RTVSPost2010Prop57
140
1.0
102
RTVSPost2010PropOp57
 70
     1
  0
XRECORD
  5
F2
102
{ACAD_REACTORS
330
F1
102
}
330
F1
100
AcDbXrecord
280
     1
102
RTVSPost2010Prop28
280
     0
102
RTVSPost2010PropOp28
 70
     1
102
RTVSPost2010Prop29
280
     1
102
RTVSPost2010PropOp29
 70
     1
102
RTVSPost2010Prop30
280
     1
102
RTVSPost2010PropOp30
 70
     1
102
RTVSPost2010Prop31
280
     0
102
RTVSPost2010PropOp31
 70
     1
102
RTVSPost2010Prop32
280
     0
102
RTVSPost2010PropOp32
 70
     1
102
RTVSPost2010Prop33
280
     0
102
RTVSPost2010PropOp33
 70
     1
102
RTVSPost2010Prop34
280
     0
102
RTVSPost2010PropOp34
 70
     1
102
RTVSPost2010Prop35
280
     0
102
RTVSPost2010PropOp35
 70
     1
102
RTVSPost2010Prop36
280
     0
102
RTVSPost2010PropOp36
 70
     1
102
RTVSPost2010Prop37
 90
       50
102
RTVSPost2010PropOp37
 70
     1
102
RTVSPost2010Prop38
140
0.0
102
RTVSPost2010PropOp38
 70
     1
102
RTVSPost2010Prop39
140
1.0
102
RTVSPost2010PropOp39
 70
     1
102
RTVSPost2010Prop40
 90
        0
102
RTVSPost2010PropOp40
 70
     1
102
RTVSPost2010Prop41ColorIndex
 90
       18
102
RTVSPost2010Prop41ColorRGB
 90
        0
102
RTVSPost2010PropOp41
 70
     1
102
RTVSPost2010Prop42
 90
       50
102
RTVSPost2010PropOp42
 70
     1
102
RTVSPost2010Prop43
 90
        3
102
RTVSPost2010PropOp43
 70
     1
102
RTVSPost2010Prop44ColorIndex
 90
        5
102
RTVSPost2010Prop44ColorRGB
 90
      255
102
RTVSPost2010PropOp44
 70
     1
102
RTVSPost2010Prop45
280
     0
102
RTVSPost2010PropOp45
 70
     1
102
RTVSPost2010Prop46
 90
       50
102
RTVSPost2010PropOp46
 70
     1
102
RTVSPost2010Prop47
 90
       50
102
RTVSPost2010PropOp47
 70
     1
102
RTVSPost2010Prop48
 90
       50
102
RTVSPost2010PropOp48
 70
     1
102
RTVSPost2010Prop49
280
     0
102
RTVSPost2010PropOp49
 70
     1
102
RTVSPost2010Prop50
 90
       50
102
RTVSPost2010PropOp50
 70
     1
102
RTVSPost2010Prop51ColorIndex
 90
      256
102
RTVSPost2010Prop51ColorRGB
 90
-16777216
102
RTVSPost2010PropOp51
 70
     0
102
RTVSPost2010Prop52
140
1.0
102
RTVSPost2010PropOp52
 70
     0
102
RTVSPost2010Prop53
 90
        2
102
RTVSPost2010PropOp53
 70
     1
102
RTVSPost2010Prop54
  1
strokes_ogs.tif
102
RTVSPost2010PropOp54
 70
     1
102
RTVSPost2010Prop55
280
     0
102
RTVSPost2010PropOp55
 70
     1
102
RTVSPost2010Prop56
140
1.0
102
RTVSPost2010PropOp56
 70
     1
102
RTVSPost2010Prop57
140
1.0
102
RTVSPost2010PropOp57
 70
     1
  0
XRECORD
  5
E6
102
{ACAD_REACTORS
330
E5
102
}
330
E5
100
AcDbXrecord
280
     1
102
RTVSPost2010Prop28
280
     0
102
RTVSPost2010PropOp28
 70
     1
102
RTVSPost2010Prop29
280
     1
102
RTVSPost2010PropOp29
 70
     1
102
RTVSPost2010Prop30
280
     1
102
RTVSPost2010PropOp30
 70
     1
102
RTVSPost2010Prop31
280
     0
102
RTVSPost2010PropOp31
 70
     1
102
RTVSPost2010Prop32
280
     0
102
RTVSPost2010PropOp32
 70
     1
102
RTVSPost2010Prop33
280
     0
102
RTVSPost2010PropOp33
 70
     1
102
RTVSPost2010Prop34
280
     0
102
RTVSPost2010PropOp34
 70
     1
102
RTVSPost2010Prop35
280
     0
102
RTVSPost2010PropOp35
 70
     1
102
RTVSPost2010Prop36
280
     0
102
RTVSPost2010PropOp36
 70
     1
102
RTVSPost2010Prop37
 90
       50
102
RTVSPost2010PropOp37
 70
     1
102
RTVSPost2010Prop38
140
0.0
102
RTVSPost2010PropOp38
 70
     1
102
RTVSPost2010Prop39
140
1.0
102
RTVSPost2010PropOp39
 70
     1
102
RTVSPost2010Prop40
 90
        0
102
RTVSPost2010PropOp40
 70
     1
102
RTVSPost2010Prop41ColorIndex
 90
       18
102
RTVSPost2010Prop41ColorRGB
 90
        0
102
RTVSPost2010PropOp41
 70
     1
102
RTVSPost2010Prop42
 90
       50
102
RTVSPost2010PropOp42
 70
     1
102
RTVSPost2010Prop43
 90
        3
102
RTVSPost2010PropOp43
 70
     1
102
RTVSPost2010Prop44ColorIndex
 90
        5
102
RTVSPost2010Prop44ColorRGB
 90
      255
102
RTVSPost2010PropOp44
 70
     1
102
RTVSPost2010Prop45
280
     0
102
RTVSPost2010PropOp45
 70
     1
102
RTVSPost2010Prop46
 90
       50
102
RTVSPost2010PropOp46
 70
     1
102
RTVSPost2010Prop47
 90
       50
102
RTVSPost2010PropOp47
 70
     1
102
RTVSPost2010Prop48
 90
       50
102
RTVSPost2010PropOp48
 70
     1
102
RTVSPost2010Prop49
280
     0
102
RTVSPost2010PropOp49
 70
     1
102
RTVSPost2010Prop50
 90
       50
102
RTVSPost2010PropOp50
 70
     1
102
RTVSPost2010Prop51ColorIndex
 90
      256
102
RTVSPost2010Prop51ColorRGB
 90
-16777216
102
RTVSPost2010PropOp51
 70
     0
102
RTVSPost2010Prop52
140
1.0
102
RTVSPost2010PropOp52
 70
     0
102
RTVSPost2010Prop53
 90
        2
102
RTVSPost2010PropOp53
 70
     1
102
RTVSPost2010Prop54
  1
strokes_ogs.tif
102
RTVSPost2010PropOp54
 70
     1
102
RTVSPost2010Prop55
280
     0
102
RTVSPost2010PropOp55
 70
     1
102
RTVSPost2010Prop56
140
1.0
102
RTVSPost2010PropOp56
 70
     1
102
RTVSPost2010Prop57
140
1.0
102
RTVSPost2010PropOp57
 70
     1
  0
XRECORD
  5
FE
102
{ACAD_REACTORS
330
FD
102
}
330
FD
100
AcDbXrecord
280
     1
102
RTVSPost2010Prop28
280
     0
102
RTVSPost2010PropOp28
 70
     1
102
RTVSPost2010Prop29
280
     1
102
RTVSPost2010PropOp29
 70
     1
102
RTVSPost2010Prop30
280
     1
102
RTVSPost2010PropOp30
 70
     1
102
RTVSPost2010Prop31
280
     0
102
RTVSPost2010PropOp31
 70
     1
102
RTVSPost2010Prop32
280
     0
102
RTVSPost2010PropOp32
 70
     1
102
RTVSPost2010Prop33
280
     0
102
RTVSPost2010PropOp33
 70
     1
102
RTVSPost2010Prop34
280
     0
102
RTVSPost2010PropOp34
 70
     1
102
RTVSPost2010Prop35
280
     0
102
RTVSPost2010PropOp35
 70
     1
102
RTVSPost2010Prop36
280
     0
102
RTVSPost2010PropOp36
 70
     1
102
RTVSPost2010Prop37
 90
       50
102
RTVSPost2010PropOp37
 70
     1
102
RTVSPost2010Prop38
140
0.0
102
RTVSPost2010PropOp38
 70
     1
102
RTVSPost2010Prop39
140
1.0
102
RTVSPost2010PropOp39
 70
     1
102
RTVSPost2010Prop40
 90
        0
102
RTVSPost2010PropOp40
 70
     1
102
RTVSPost2010Prop41ColorIndex
 90
       18
102
RTVSPost2010Prop41ColorRGB
 90
        0
102
RTVSPost2010PropOp41
 70
     1
102
RTVSPost2010Prop42
 90
       50
102
RTVSPost2010PropOp42
 70
     1
102
RTVSPost2010Prop43
 90
        3
102
RTVSPost2010PropOp43
 70
     1
102
RTVSPost2010Prop44ColorIndex
 90
        5
102
RTVSPost2010Prop44ColorRGB
 90
      255
102
RTVSPost2010PropOp44
 70
     1
102
RTVSPost2010Prop45
280
     0
102
RTVSPost2010PropOp45
 70
     1
102
RTVSPost2010Prop46
 90
       50
102
RTVSPost2010PropOp46
 70
     1
102
RTVSPost2010Prop47
 90
       50
102
RTVSPost2010PropOp47
 70
     1
102
RTVSPost2010Prop48
 90
       50
102
RTVSPost2010PropOp48
 70
     1
102
RTVSPost2010Prop49
280
     0
102
RTVSPost2010PropOp49
 70
     1
102
RTVSPost2010Prop50
 90
       50
102
RTVSPost2010PropOp50
 70
     1
102
RTVSPost2010Prop51ColorIndex
 90
      256
102
RTVSPost2010Prop51ColorRGB
 90
-16777216
102
RTVSPost2010PropOp51
 70
     0
102
RTVSPost2010Prop52
140
1.0
102
RTVSPost2010PropOp52
 70
     0
102
RTVSPost2010Prop53
 90
        2
102
RTVSPost2010PropOp53
 70
     1
102
RTVSPost2010Prop54
  1
strokes_ogs.tif
102
RTVSPost2010PropOp54
 70
     1
102
RTVSPost2010Prop55
280
     0
102
RTVSPost2010PropOp55
 70
     1
102
RTVSPost2010Prop56
140
1.0
102
RTVSPost2010PropOp56
 70
     1
102
RTVSPost2010Prop57
140
1.0
102
RTVSPost2010PropOp57
 70
     1
  0
ENDSEC
  0
EOF
