  0
SECTION
  2
HEADER
  9
$ACADVER
  1
AC1024
  9
$ACADMAINTVER
 70
     6
  9
$DWGCODEPAGE
  3
UNDEFINED
  9
$INSBASE
 10
0.0
 20
0.0
 30
0.0
  9
$EXTMIN
 10
1.000000000000000E+20
 20
1.000000000000000E+20
 30
1.000000000000000E+20
  9
$EXTMAX
 10
-1.000000000000000E+20
 20
-1.000000000000000E+20
 30
-1.000000000000000E+20
  9
$LIMMIN
 10
0.0
 20
0.0
  9
$LIMMAX
 10
12.0
 20
9.0
  9
$ORTHOMODE
 70
     0
  9
$REGENMODE
 70
     1
  9
$FILLMODE
 70
     1
  9
$QTEXTMODE
 70
     0
  9
$MIRRTEXT
 70
     1
  9
$LTSCALE
 40
1.0
  9
$ATTMODE
 70
     1
  9
$TEXTSIZE
 40
0.2
  9
$TRACEWID
 40
0.05
  9
$TEXTSTYLE
  7
Standard
  9
$CLAYER
  8
0
  9
$CELTYPE
  6
ByLayer
  9
$CECOLOR
 62
   256
  9
$CELTSCALE
 40
1.0
  9
$DISPSILH
 70
     0
  9
$DIMSCALE
 40
1.0
  9
$DIMASZ
 40
0.18
  9
$DIMEXO
 40
0.0625
  9
$DIMDLI
 40
0.38
  9
$DIMRND
 40
0.0
  9
$DIMDLE
 40
0.0
  9
$DIMEXE
 40
0.18
  9
$DIMTP
 40
0.0
  9
$DIMTM
 40
0.0
  9
$DIMTXT
 40
0.18
  9
$DIMCEN
 40
0.09
  9
$DIMTSZ
 40
0.0
  9
$DIMTOL
 70
     0
  9
$DIMLIM
 70
     0
  9
$DIMTIH
 70
     1
  9
$DIMTOH
 70
     1
  9
$DIMSE1
 70
     0
  9
$DIMSE2
 70
     0
  9
$DIMTAD
 70
     0
  9
$DIMZIN
 70
     0
  9
$DIMBLK
  1

  9
$DIMASO
 70
     1
  9
$DIMSHO
 70
     1
  9
$DIMPOST
  1

  9
$DIMAPOST
  1

  9
$DIMALT
 70
     0
  9
$DIMALTD
 70
     2
  9
$DIMALTF
 40
25.4
  9
$DIMLFAC
 40
1.0
  9
$DIMTOFL
 70
     0
  9
$DIMTVP
 40
0.0
  9
$DIMTIX
 70
     0
  9
$DIMSOXD
 70
     0
  9
$DIMSAH
 70
     0
  9
$DIMBLK1
  1

  9
$DIMBLK2
  1

  9
$DIMSTYLE
  2
Standard
  9
$DIMCLRD
 70
     0
  9
$DIMCLRE
 70
     0
  9
$DIMCLRT
 70
     0
  9
$DIMTFAC
 40
1.0
  9
$DIMGAP
 40
0.09
  9
$DIMJUST
 70
     0
  9
$DIMSD1
 70
     0
  9
$DIMSD2
 70
     0
  9
$DIMTOLJ
 70
     1
  9
$DIMTZIN
 70
     0
  9
$DIMALTZ
 70
     0
  9
$DIMALTTZ
 70
     0
  9
$DIMUPT
 70
     0
  9
$DIMDEC
 70
     4
  9
$DIMTDEC
 70
     4
  9
$DIMALTU
 70
     2
  9
$DIMALTTD
 70
     2
  9
$DIMTXSTY
  7
Standard
  9
$DIMAUNIT
 70
     0
  9
$DIMADEC
 70
     0
  9
$DIMALTRND
 40
0.0
  9
$DIMAZIN
 70
     0
  9
$DIMDSEP
 70
    46
  9
$DIMATFIT
 70
     3
  9
$DIMFRAC
 70
     0
  9
$DIMLDRBLK
  1

  9
$DIMLUNIT
 70
     2
  9
$DIMLWD
 70
    -2
  9
$DIMLWE
 70
    -2
  9
$DIMTMOVE
 70
     0
  9
$DIMFXL
 40
1.0
  9
$DIMFXLON
 70
     0
  9
$DIMJOGANG
 40
0.7853981633974483
  9
$DIMTFILL
 70
     0
  9
$DIMTFILLCLR
 70
     0
  9
$DIMARCSYM
 70
     0
  9
$DIMLTYPE
  6

  9
$DIMLTEX1
  6

  9
$DIMLTEX2
  6

  9
$DIMTXTDIRECTION
 70
     0
  9
$LUNITS
 70
     2
  9
$LUPREC
 70
     4
  9
$SKETCHINC
 40
0.1
  9
$FILLETRAD
 40
0.5
  9
$AUNITS
 70
     0
  9
$AUPREC
 70
     0
  9
$MENU
  1
.
  9
$ELEVATION
 40
0.0
  9
$PELEVATION
 40
0.0
  9
$THICKNESS
 40
0.0
  9
$LIMCHECK
 70
     0
  9
$CHAMFERA
 40
0.5
  9
$CHAMFERB
 40
0.5
  9
$CHAMFERC
 40
1.0
  9
$CHAMFERD
 40
0.0
  9
$SKPOLY
 70
     0
  9
$TDCREATE
 40
2457917.59841434
  9
$TDUCREATE
 40
2457917.223414352
  9
$TDUPDATE
 40
2457917.59841434
  9
$TDUUPDATE
 40
2457917.223414352
  9
$TDINDWG
 40
0.0000000116
  9
$TDUSRTIMER
 40
0.0000000116
  9
$USRTIMER
 70
     1
  9
$ANGBASE
 50
0.0
  9
$ANGDIR
 70
     0
  9
$PDMODE
 70
     0
  9
$PDSIZE
 40
0.0
  9
$PLINEWID
 40
0.0
  9
$SPLFRAME
 70
     0
  9
$SPLINETYPE
 70
     6
  9
$SPLINESEGS
 70
     8
  9
$HANDSEED
  5
95
  9
$SURFTAB1
 70
     6
  9
$SURFTAB2
 70
     6
  9
$SURFTYPE
 70
     6
  9
$SURFU
 70
     6
  9
$SURFV
 70
     6
  9
$UCSBASE
  2

  9
$UCSNAME
  2

  9
$UCSORG
 10
0.0
 20
0.0
 30
0.0
  9
$UCSXDIR
 10
1.0
 20
0.0
 30
0.0
  9
$UCSYDIR
 10
0.0
 20
1.0
 30
0.0
  9
$UCSORTHOREF
  2

  9
$UCSORTHOVIEW
 70
     0
  9
$UCSORGTOP
 10
0.0
 20
0.0
 30
0.0
  9
$UCSORGBOTTOM
 10
0.0
 20
0.0
 30
0.0
  9
$UCSORGLEFT
 10
0.0
 20
0.0
 30
0.0
  9
$UCSORGRIGHT
 10
0.0
 20
0.0
 30
0.0
  9
$UCSORGFRONT
 10
0.0
 20
0.0
 30
0.0
  9
$UCSORGBACK
 10
0.0
 20
0.0
 30
0.0
  9
$PUCSBASE
  2

  9
$PUCSNAME
  2

  9
$PUCSORG
 10
0.0
 20
0.0
 30
0.0
  9
$PUCSXDIR
 10
1.0
 20
0.0
 30
0.0
  9
$PUCSYDIR
 10
0.0
 20
1.0
 30
0.0
  9
$PUCSORTHOREF
  2

  9
$PUCSORTHOVIEW
 70
     0
  9
$PUCSORGTOP
 10
0.0
 20
0.0
 30
0.0
  9
$PUCSORGBOTTOM
 10
0.0
 20
0.0
 30
0.0
  9
$PUCSORGLEFT
 10
0.0
 20
0.0
 30
0.0
  9
$PUCSORGRIGHT
 10
0.0
 20
0.0
 30
0.0
  9
$PUCSORGFRONT
 10
0.0
 20
0.0
 30
0.0
  9
$PUCSORGBACK
 10
0.0
 20
0.0
 30
0.0
  9
$USERI1
 70
     0
  9
$USERI2
 70
     0
  9
$USERI3
 70
     0
  9
$USERI4
 70
     0
  9
$USERI5
 70
     0
  9
$USERR1
 40
0.0
  9
$USERR2
 40
0.0
  9
$USERR3
 40
0.0
  9
$USERR4
 40
0.0
  9
$USERR5
 40
0.0
  9
$WORLDVIEW
 70
     1
  9
$SHADEDGE
 70
     3
  9
$SHADEDIF
 70
    70
  9
$TILEMODE
 70
     1
  9
$MAXACTVP
 70
    64
  9
$PINSBASE
 10
0.0
 20
0.0
 30
0.0
  9
$PLIMCHECK
 70
     0
  9
$PEXTMIN
 10
1.000000000000000E+20
 20
1.000000000000000E+20
 30
1.000000000000000E+20
  9
$PEXTMAX
 10
-1.000000000000000E+20
 20
-1.000000000000000E+20
 30
-1.000000000000000E+20
  9
$PLIMMIN
 10
0.0
 20
0.0
  9
$PLIMMAX
 10
12.0
 20
9.0
  9
$UNITMODE
 70
     0
  9
$VISRETAIN
 70
     1
  9
$PLINEGEN
 70
     0
  9
$PSLTSCALE
 70
     1
  9
$TREEDEPTH
 70
  3020
  9
$CMLSTYLE
  2
Standard
  9
$CMLJUST
 70
     0
  9
$CMLSCALE
 40
1.0
  9
$PROXYGRAPHICS
 70
     1
  9
$MEASUREMENT
 70
     0
  9
$CELWEIGHT
370
    -1
  9
$ENDCAPS
280
     0
  9
$JOINSTYLE
280
     0
  9
$LWDISPLAY
290
     1
  9
$INSUNITS
 70
     1
  9
$HYPERLINKBASE
  1

  9
$STYLESHEET
  1

  9
$XEDIT
290
     1
  9
$CEPSNTYPE
380
     0
  9
$PSTYLEMODE
290
     1
  9
$FINGERPRINTGUID
  2
{98900BB4-8594-1F95-9189-ADFB284C96FA}
  9
$VERSIONGUID
  2
{FAEB1C32-E019-11D5-929B-00C0DF256EC4}
  9
$EXTNAMES
290
     1
  9
$PSVPSCALE
 40
0.0
  9
$OLESTARTUP
290
     0
  9
$SORTENTS
280
   127
  9
$INDEXCTL
280
     0
  9
$HIDETEXT
280
     1
  9
$XCLIPFRAME
280
     2
  9
$HALOGAP
280
     0
  9
$OBSCOLOR
 70
   257
  9
$OBSLTYPE
280
     0
  9
$INTERSECTIONDISPLAY
280
     0
  9
$INTERSECTIONCOLOR
 70
   257
  9
$DIMASSOC
280
     2
  9
$PROJECTNAME
  1

  9
$CAMERADISPLAY
290
     0
  9
$LENSLENGTH
 40
50.0
  9
$CAMERAHEIGHT
 40
0.0
  9
$STEPSPERSEC
 40
2.0
  9
$STEPSIZE
 40
6.0
  9
$3DDWFPREC
 40
2.0
  9
$PSOLWIDTH
 40
0.25
  9
$PSOLHEIGHT
 40
4.0
  9
$LOFTANG1
 40
1.570796326794897
  9
$LOFTANG2
 40
1.570796326794897
  9
$LOFTMAG1
 40
0.0
  9
$LOFTMAG2
 40
0.0
  9
$LOFTPARAM
 70
     7
  9
$LOFTNORMALS
280
     1
  9
$LATITUDE
 40
37.795
  9
$LONGITUDE
 40
-122.394
  9
$NORTHDIRECTION
 40
0.0
  9
$TIMEZONE
 70
 -8000
  9
$LIGHTGLYPHDISPLAY
280
     1
  9
$TILEMODELIGHTSYNCH
280
     1
  9
$CMATERIAL
347
3C
  9
$SOLIDHIST
280
     1
  9
$SHOWHIST
280
     1
  9
$DWFFRAME
280
     2
  9
$DGNFRAME
280
     2
  9
$REALWORLDSCALE
290
     1
  9
$INTERFERECOLOR
 62
   256
  9
$CSHADOW
280
     0
  9
$SHADOWPLANELOCATION
 40
0.0
  0
ENDSEC
  0
SECTION
  2
CLASSES
  0
CLASS
  1
ACDBDICTIONARYWDFLT
  2
AcDbDictionaryWithDefault
  3
ObjectDBX Classes
 90
        0
 91
        4
280
     0
281
     0
  0
CLASS
  1
VISUALSTYLE
  2
AcDbVisualStyle
  3
ObjectDBX Classes
 90
     4095
 91
        4
280
     0
281
     0
  0
CLASS
  1
MATERIAL
  2
AcDbMaterial
  3
ObjectDBX Classes
 90
     1153
 91
        4
280
     0
281
     0
  0
CLASS
  1
SUN
  2
AcDbSun
  3
SCENEOE
 90
     1024
 91
        4
280
     0
281
     0
  0
ENDSEC
  0
SECTION
  2
TABLES
  0
TABLE
  2
VPORT
  5
8
330
0
100
AcDbSymbolTable
 70
     1
  0
VPORT
  5
29
330
8
100
AcDbSymbolTableRecord
100
AcDbViewportTableRecord
  2
*Active
 70
     0
 10
0.0
 20
0.0
 11
1.0
 21
1.0
 12
0.0
 22
0.0
 13
0.0
 23
0.0
 14
0.5
 24
0.5
 15
0.5
 25
0.5
 16
0.0
 26
0.0
 36
1.0
 17
91.00082462281999
 27
-128.4993055234307
 37
0.0
 40
256.9986110468615
 41
0.7081814508812795
 42
50.0
 43
0.0
 44
0.0
 50
0.0
 51
0.0
 71
     0
 72
   100
 73
     1
 74
     3
 75
     0
 76
     0
 77
     0
 78
     0
281
     0
 65
     1
110
0.0
120
0.0
130
0.0
111
1.0
121
0.0
131
0.0
112
0.0
122
1.0
132
0.0
 79
     0
146
0.0
 60
     3
 61
     5
292
     1
282
     1
141
0.0
142
0.0
 63
   250
361
3F
  0
ENDTAB
  0
TABLE
  2
LTYPE
  5
5
330
0
100
AcDbSymbolTable
 70
     1
  0
LTYPE
  5
14
330
5
100
AcDbSymbolTableRecord
100
AcDbLinetypeTableRecord
  2
ByBlock
 70
     0
  3

 72
    65
 73
     0
 40
0.0
  0
LTYPE
  5
15
330
5
100
AcDbSymbolTableRecord
100
AcDbLinetypeTableRecord
  2
ByLayer
 70
     0
  3

 72
    65
 73
     0
 40
0.0
  0
LTYPE
  5
16
330
5
100
AcDbSymbolTableRecord
100
AcDbLinetypeTableRecord
  2
Continuous
 70
     0
  3
Solid line
 72
    65
 73
     0
 40
0.0
  0
ENDTAB
  0
TABLE
  2
LAYER
  5
2
330
0
100
AcDbSymbolTable
 70
     2
  0
LAYER
  5
10
330
2
100
AcDbSymbolTableRecord
100
AcDbLayerTableRecord
  2
0
 70
     0
 62
     7
  6
Continuous
370
    -3
390
F
347
3E
  0
LAYER
  5
40
330
2
100
AcDbSymbolTableRecord
100
AcDbLayerTableRecord
  2
_U+30EC_U+30A4_U+30E4_U+30FC 1
 70
     0
 62
     7
  6
Continuous
370
    -3
390
F
347
3E
  0
ENDTAB
  0
TABLE
  2
STYLE
  5
3
330
0
100
AcDbSymbolTable
 70
     1
  0
STYLE
  5
11
330
3
100
AcDbSymbolTableRecord
100
AcDbTextStyleTableRecord
  2
Standard
 70
     0
 40
0.0
 41
1.0
 50
0.0
 71
     0
 42
0.2
  3
txt
  4

  0
ENDTAB
  0
TABLE
  2
VIEW
  5
6
330
0
100
AcDbSymbolTable
 70
     0
  0
ENDTAB
  0
TABLE
  2
UCS
  5
7
330
0
100
AcDbSymbolTable
 70
     0
  0
ENDTAB
  0
TABLE
  2
APPID
  5
9
330
0
100
AcDbSymbolTable
 70
     1
  0
APPID
  5
12
330
9
100
AcDbSymbolTableRecord
100
AcDbRegAppTableRecord
  2
ACAD
 70
     0
  0
ENDTAB
  0
TABLE
  2
DIMSTYLE
  5
A
330
0
100
AcDbSymbolTable
 70
     1
100
AcDbDimStyleTable
  0
DIMSTYLE
105
27
330
A
100
AcDbSymbolTableRecord
100
AcDbDimStyleTableRecord
  2
Standard
 70
     0
178
     0
340
11
  0
ENDTAB
  0
TABLE
  2
BLOCK_RECORD
  5
1
330
0
100
AcDbSymbolTable
 70
     3
  0
BLOCK_RECORD
  5
1F
330
1
100
AcDbSymbolTableRecord
100
AcDbBlockTableRecord
  2
*Model_Space
340
22
 70
     0
280
     1
281
     0
  0
BLOCK_RECORD
  5
1B
330
1
100
AcDbSymbolTableRecord
100
AcDbBlockTableRecord
  2
*Paper_Space
340
1E
 70
     0
280
     1
281
     0
  0
BLOCK_RECORD
  5
23
330
1
100
AcDbSymbolTableRecord
100
AcDbBlockTableRecord
  2
*Paper_Space0
340
26
 70
     0
280
     1
281
     0
  0
BLOCK_RECORD
  5
61
330
1
100
AcDbSymbolTableRecord
100
AcDbBlockTableRecord
  2
block 2
340
0
102
{BLKREFS
331
62
102
}
 70
     0
280
     1
281
     0
  0
BLOCK_RECORD
  5
83
330
1
100
AcDbSymbolTableRecord
100
AcDbBlockTableRecord
  2
block 3
340
0
102
{BLKREFS
331
84
102
}
 70
     0
280
     1
281
     0
  0
ENDTAB
  0
ENDSEC
  0
SECTION
  2
BLOCKS
  0
BLOCK
  5
20
330
1F
100
AcDbEntity
  8
0
100
AcDbBlockBegin
  2
*Model_Space
 70
     0
 10
0.0
 20
0.0
 30
0.0
  3
*Model_Space
  1

  0
ENDBLK
  5
21
330
1F
100
AcDbEntity
  8
0
100
AcDbBlockEnd
  0
BLOCK
  5
1C
330
1B
100
AcDbEntity
 67
     1
  8
0
100
AcDbBlockBegin
  2
*Paper_Space
 70
     0
 10
0.0
 20
0.0
 30
0.0
  3
*Paper_Space
  1

  0
ENDBLK
  5
1D
330
1B
100
AcDbEntity
 67
     1
  8
0
100
AcDbBlockEnd
  0
BLOCK
  5
24
330
23
100
AcDbEntity
  8
0
100
AcDbBlockBegin
  2
*Paper_Space0
 70
     0
 10
0.0
 20
0.0
 30
0.0
  3
*Paper_Space0
  1

  0
ENDBLK
  5
25
330
23
100
AcDbEntity
  8
0
100
AcDbBlockEnd
  0
BLOCK
  5
63
330
61
100
AcDbEntity
  8
0
100
AcDbBlockBegin
  2
block 2
 70
     0
 10
0.0
 20
0.0
 30
0.0
  3
block 2
  1

  0
SPLINE
  5
65
330
61
100
AcDbEntity
  8
_U+30EC_U+30A4_U+30E4_U+30FC 1
370
     0
100
AcDbSpline
210
0.0
220
0.0
230
1.0
 70
    11
 71
     3
 72
    44
 73
    40
 74
     0
 42
0.0000000001
 43
0.0000000001
 12
1.0
 22
0.0
 32
0.0
 13
1.0
 23
0.0
 33
0.0
 40
0.0
 40
0.0
 40
0.0
 40
0.0
 40
1.0
 40
1.0
 40
1.0
 40
2.0
 40
2.0
 40
2.0
 40
3.0
 40
3.0
 40
3.0
 40
4.0
 40
4.0
 40
4.0
 40
5.0
 40
5.0
 40
5.0
 40
6.0
 40
6.0
 40
6.0
 40
7.0
 40
7.0
 40
7.0
 40
8.0
 40
8.0
 40
8.0
 40
9.0
 40
9.0
 40
9.0
 40
10.0
 40
10.0
 40
10.0
 40
11.0
 40
11.0
 40
11.0
 40
12.0
 40
12.0
 40
12.0
 40
13.0
 40
13.0
 40
13.0
 40
13.0
 10
87.46873505842795
 20
-125.1300021388564
 30
0.0
 10
87.23584660362506
 20
-125.2888210407264
 30
0.0
 10
87.13628334410134
 20
-125.3628905936593
 30
0.0
 10
87.08426240227408
 20
-125.5065510753942
 30
0.0
 10
87.08426240227408
 20
-125.5065510753942
 30
0.0
 10
87.91659747151044
 20
-125.5065510753942
 30
0.0
 10
87.91659747151044
 20
-125.5065510753942
 30
0.0
 10
87.91659747151044
 20
-125.5065510753942
 30
0.0
 10
87.91659747151044
 20
-125.7118787663151
 30
0.0
 10
87.91659747151044
 20
-125.7118787663151
 30
0.0
 10
87.91659747151044
 20
-125.7118787663151
 30
0.0
 10
86.81761201171574
 20
-125.7118787663151
 30
0.0
 10
86.81761201171574
 20
-125.7118787663151
 30
0.0
 10
86.85171845701971
 20
-125.3542778549462
 30
0.0
 10
86.92165389537028
 20
-125.276074187431
 30
0.0
 10
87.33299829630911
 20
-124.9777289184083
 30
0.0
 10
87.60653887783795
 20
-124.7789469089094
 30
0.0
 10
87.67681882573704
 20
-124.71107852785
 30
0.0
 10
87.67681882573704
 20
-124.5736192179886
 30
0.0
 10
87.67681882573704
 20
-124.4551079332959
 30
0.0
 10
87.59999319641598
 20
-124.3241943048565
 30
0.0
 10
87.38949786226722
 20
-124.3241943048565
 30
0.0
 10
87.11147865660755
 20
-124.3241943048565
 30
0.0
 10
87.10252140834591
 20
-124.5546711928197
 30
0.0
 10
87.09804278421508
 20
-124.6711154202211
 30
0.0
 10
87.09804278421508
 20
-124.6711154202211
 30
0.0
 10
86.85826413844168
 20
-124.6711154202211
 30
0.0
 10
86.85826413844168
 20
-124.6711154202211
 30
0.0
 10
86.86722138670333
 20
-124.5439913968154
 30
0.0
 10
86.87859020180466
 20
-124.4320257935448
 30
0.0
 10
86.96471758893591
 20
-124.3135145088522
 30
0.0
 10
87.08219534498292
 20
-124.152628549691
 30
0.0
 10
87.28097735448185
 20
-124.1188666139356
 30
0.0
 10
87.40534530149937
 20
-124.1188666139356
 30
0.0
 10
87.70162351323084
 20
-124.1188666139356
 30
0.0
 10
87.92314315293241
 20
-124.3028347128479
 30
0.0
 10
87.92314315293241
 20
-124.5756862752797
 30
0.0
 10
87.92314315293241
 20
-124.8044406155003
 30
0.0
 10
87.7987752059149
 20
-124.9036593654755
 30
0.0
 10
87.46873505842795
 20
-125.1300021388564
 30
0.0
  0
HATCH
  5
66
330
61
100
AcDbEntity
  8
_U+30EC_U+30A4_U+30E4_U+30FC 1
 62
   179
420
  2234388
100
AcDbHatch
 10
0.0
 20
0.0
 30
0.0
210
0.0
220
0.0
230
1.0
  2
SOLID
 70
     1
 71
     0
 91
        1
 92
        1
 93
        1
 72
     4
 94
        3
 73
     0
 74
     1
 95
       44
 96
       40
 40
0.0
 40
0.0
 40
0.0
 40
0.0
 40
1.0
 40
1.0
 40
1.0
 40
2.0
 40
2.0
 40
2.0
 40
3.0
 40
3.0
 40
3.0
 40
4.0
 40
4.0
 40
4.0
 40
5.0
 40
5.0
 40
5.0
 40
6.0
 40
6.0
 40
6.0
 40
7.0
 40
7.0
 40
7.0
 40
8.0
 40
8.0
 40
8.0
 40
9.0
 40
9.0
 40
9.0
 40
10.0
 40
10.0
 40
10.0
 40
11.0
 40
11.0
 40
11.0
 40
12.0
 40
12.0
 40
12.0
 40
13.0
 40
13.0
 40
13.0
 40
13.0
 10
87.46873505842795
 20
-125.1300021388564
 10
87.23584660362506
 20
-125.2888210407264
 10
87.13628334410134
 20
-125.3628905936593
 10
87.08426240227408
 20
-125.5065510753942
 10
87.08426240227408
 20
-125.5065510753942
 10
87.91659747151044
 20
-125.5065510753942
 10
87.91659747151044
 20
-125.5065510753942
 10
87.91659747151044
 20
-125.5065510753942
 10
87.91659747151044
 20
-125.7118787663151
 10
87.91659747151044
 20
-125.7118787663151
 10
87.91659747151044
 20
-125.7118787663151
 10
86.81761201171574
 20
-125.7118787663151
 10
86.81761201171574
 20
-125.7118787663151
 10
86.85171845701971
 20
-125.3542778549462
 10
86.92165389537028
 20
-125.276074187431
 10
87.33299829630911
 20
-124.9777289184083
 10
87.60653887783795
 20
-124.7789469089094
 10
87.67681882573704
 20
-124.71107852785
 10
87.67681882573704
 20
-124.5736192179886
 10
87.67681882573704
 20
-124.4551079332959
 10
87.59999319641598
 20
-124.3241943048565
 10
87.38949786226722
 20
-124.3241943048565
 10
87.11147865660755
 20
-124.3241943048565
 10
87.10252140834591
 20
-124.5546711928197
 10
87.09804278421508
 20
-124.6711154202211
 10
87.09804278421508
 20
-124.6711154202211
 10
86.85826413844168
 20
-124.6711154202211
 10
86.85826413844168
 20
-124.6711154202211
 10
86.86722138670333
 20
-124.5439913968154
 10
86.87859020180466
 20
-124.4320257935448
 10
86.96471758893591
 20
-124.3135145088522
 10
87.08219534498292
 20
-124.152628549691
 10
87.28097735448185
 20
-124.1188666139356
 10
87.40534530149937
 20
-124.1188666139356
 10
87.70162351323084
 20
-124.1188666139356
 10
87.92314315293241
 20
-124.3028347128479
 10
87.92314315293241
 20
-124.5756862752797
 10
87.92314315293241
 20
-124.8044406155003
 10
87.7987752059149
 20
-124.9036593654755
 10
87.46873505842795
 20
-125.1300021388564
 97
        0
 97
        0
 75
     2
 76
     1
 98
        0
  0
SPLINE
  5
67
330
61
100
AcDbEntity
  8
_U+30EC_U+30A4_U+30E4_U+30FC 1
370
     0
100
AcDbSpline
210
0.0
220
0.0
230
1.0
 70
    11
 71
     3
 72
    62
 73
    58
 74
     0
 42
0.0000000001
 43
0.0000000001
 12
1.0
 22
0.0
 32
0.0
 13
1.0
 23
0.0
 33
0.0
 40
0.0
 40
0.0
 40
0.0
 40
0.0
 40
1.0
 40
1.0
 40
1.0
 40
2.0
 40
2.0
 40
2.0
 40
3.0
 40
3.0
 40
3.0
 40
4.0
 40
4.0
 40
4.0
 40
5.0
 40
5.0
 40
5.0
 40
6.0
 40
6.0
 40
6.0
 40
7.0
 40
7.0
 40
7.0
 40
8.0
 40
8.0
 40
8.0
 40
9.0
 40
9.0
 40
9.0
 40
10.0
 40
10.0
 40
10.0
 40
11.0
 40
11.0
 40
11.0
 40
12.0
 40
12.0
 40
12.0
 40
13.0
 40
13.0
 40
13.0
 40
14.0
 40
14.0
 40
14.0
 40
15.0
 40
15.0
 40
15.0
 40
16.0
 40
16.0
 40
16.0
 40
17.0
 40
17.0
 40
17.0
 40
18.0
 40
18.0
 40
18.0
 40
19.0
 40
19.0
 40
19.0
 40
19.0
 10
88.6180189123073
 20
-125.7625216699483
 30
0.0
 10
88.51638859549243
 20
-125.7625216699483
 30
0.0
 10
88.28350014068954
 20
-125.7415065874882
 30
0.0
 10
88.15017494541037
 20
-125.5554714312847
 30
0.0
 10
88.07093774924964
 20
-125.4431613184656
 30
0.0
 10
88.06645912511881
 20
-125.3439425684904
 30
0.0
 10
88.06198050098799
 20
-125.2591932195533
 30
0.0
 10
88.06198050098799
 20
-125.2591932195533
 30
0.0
 10
88.29693601308202
 20
-125.2591932195533
 30
0.0
 10
88.29693601308202
 20
-125.2591932195533
 30
0.0
 10
88.2993475799217
 20
-125.3332627724861
 30
0.0
 10
88.31071639502302
 20
-125.5678737750316
 30
0.0
 10
88.61354028817648
 20
-125.5678737750316
 30
0.0
 10
88.76064586539665
 20
-125.5678737750316
 30
0.0
 10
88.92325437230043
 20
-125.4982828462296
 30
0.0
 10
88.92325437230043
 20
-125.2698730155575
 30
0.0
 10
88.92325437230043
 20
-125.1534287881561
 30
0.0
 10
88.88260224557449
 20
-125.1048529418141
 30
0.0
 10
88.84884030981904
 20
-125.0731580633498
 30
0.0
 10
88.76960311365829
 20
-124.9990885104169
 30
0.0
 10
88.64523516664077
 20
-124.9863416571215
 30
0.0
 10
88.58632403384301
 20
-124.9863416571215
 30
0.0
 10
88.56599797048003
 20
-124.9863416571215
 30
0.0
 10
88.52775741059376
 20
-124.9884087144126
 30
0.0
 10
88.49812958942061
 20
-124.9925428289949
 30
0.0
 10
88.49812958942061
 20
-124.9925428289949
 30
0.0
 10
88.49812958942061
 20
-124.7978949340783
 30
0.0
 10
88.49812958942061
 20
-124.7978949340783
 30
0.0
 10
88.53878171614656
 20
-124.8044406155003
 30
0.0
 10
88.58425697655186
 20
-124.8065076727914
 30
0.0
 10
88.59080265797382
 20
-124.8065076727914
 30
0.0
 10
88.66108260587293
 20
-124.8065076727914
 30
0.0
 10
88.87364499731284
 20
-124.7851480807829
 30
0.0
 10
88.87364499731284
 20
-124.5484700209462
 30
0.0
 10
88.87364499731284
 20
-124.3707030939073
 30
0.0
 10
88.73342961106317
 20
-124.3155815661433
 30
0.0
 10
88.61595185501615
 20
-124.3155815661433
 30
0.0
 10
88.33310951567714
 20
-124.3155815661433
 30
0.0
 10
88.3241522674155
 20
-124.5484700209462
 30
0.0
 10
88.31967364328467
 20
-124.6201280070394
 30
0.0
 10
88.31967364328467
 20
-124.6201280070394
 30
0.0
 10
88.10263262771393
 20
-124.6201280070394
 30
0.0
 10
88.10263262771393
 20
-124.6201280070394
 30
0.0
 10
88.11158987597558
 20
-124.4954155504734
 30
0.0
 10
88.1408731876002
 20
-124.1188666139356
 30
0.0
 10
88.62938772740863
 20
-124.1188666139356
 30
0.0
 10
88.86916637318201
 20
-124.1188666139356
 30
0.0
 10
89.1268595154787
 20
-124.2459906373413
 30
0.0
 10
89.1268595154787
 20
-124.5419243395242
 30
0.0
 10
89.1268595154787
 20
-124.7283040052763
 30
0.0
 10
89.02488468911531
 20
-124.8106417873737
 30
0.0
 10
88.91877574816962
 20
-124.8719644870112
 30
0.0
 10
88.98423256238937
 20
-124.8995252508932
 30
0.0
 10
89.17888045730598
 20
-124.9797959756995
 30
0.0
 10
89.17888045730598
 20
-125.2571261622621
 30
0.0
 10
89.17888045730598
 20
-125.5954345389137
 30
0.0
 10
88.9142971240388
 20
-125.7625216699483
 30
0.0
 10
88.6180189123073
 20
-125.7625216699483
 30
0.0
  0
HATCH
  5
68
330
61
100
AcDbEntity
  8
_U+30EC_U+30A4_U+30E4_U+30FC 1
 62
   179
420
  2234388
100
AcDbHatch
 10
0.0
 20
0.0
 30
0.0
210
0.0
220
0.0
230
1.0
  2
SOLID
 70
     1
 71
     0
 91
        1
 92
        1
 93
        1
 72
     4
 94
        3
 73
     0
 74
     1
 95
       62
 96
       58
 40
0.0
 40
0.0
 40
0.0
 40
0.0
 40
1.0
 40
1.0
 40
1.0
 40
2.0
 40
2.0
 40
2.0
 40
3.0
 40
3.0
 40
3.0
 40
4.0
 40
4.0
 40
4.0
 40
5.0
 40
5.0
 40
5.0
 40
6.0
 40
6.0
 40
6.0
 40
7.0
 40
7.0
 40
7.0
 40
8.0
 40
8.0
 40
8.0
 40
9.0
 40
9.0
 40
9.0
 40
10.0
 40
10.0
 40
10.0
 40
11.0
 40
11.0
 40
11.0
 40
12.0
 40
12.0
 40
12.0
 40
13.0
 40
13.0
 40
13.0
 40
14.0
 40
14.0
 40
14.0
 40
15.0
 40
15.0
 40
15.0
 40
16.0
 40
16.0
 40
16.0
 40
17.0
 40
17.0
 40
17.0
 40
18.0
 40
18.0
 40
18.0
 40
19.0
 40
19.0
 40
19.0
 40
19.0
 10
88.6180189123073
 20
-125.7625216699483
 10
88.51638859549243
 20
-125.7625216699483
 10
88.28350014068954
 20
-125.7415065874882
 10
88.15017494541037
 20
-125.5554714312847
 10
88.07093774924964
 20
-125.4431613184656
 10
88.06645912511881
 20
-125.3439425684904
 10
88.06198050098799
 20
-125.2591932195533
 10
88.06198050098799
 20
-125.2591932195533
 10
88.29693601308202
 20
-125.2591932195533
 10
88.29693601308202
 20
-125.2591932195533
 10
88.2993475799217
 20
-125.3332627724861
 10
88.31071639502302
 20
-125.5678737750316
 10
88.61354028817648
 20
-125.5678737750316
 10
88.76064586539665
 20
-125.5678737750316
 10
88.92325437230043
 20
-125.4982828462296
 10
88.92325437230043
 20
-125.2698730155575
 10
88.92325437230043
 20
-125.1534287881561
 10
88.88260224557449
 20
-125.1048529418141
 10
88.84884030981904
 20
-125.0731580633498
 10
88.76960311365829
 20
-124.9990885104169
 10
88.64523516664077
 20
-124.9863416571215
 10
88.58632403384301
 20
-124.9863416571215
 10
88.56599797048003
 20
-124.9863416571215
 10
88.52775741059376
 20
-124.9884087144126
 10
88.49812958942061
 20
-124.9925428289949
 10
88.49812958942061
 20
-124.9925428289949
 10
88.49812958942061
 20
-124.7978949340783
 10
88.49812958942061
 20
-124.7978949340783
 10
88.53878171614656
 20
-124.8044406155003
 10
88.58425697655186
 20
-124.8065076727914
 10
88.59080265797382
 20
-124.8065076727914
 10
88.66108260587293
 20
-124.8065076727914
 10
88.87364499731284
 20
-124.7851480807829
 10
88.87364499731284
 20
-124.5484700209462
 10
88.87364499731284
 20
-124.3707030939073
 10
88.73342961106317
 20
-124.3155815661433
 10
88.61595185501615
 20
-124.3155815661433
 10
88.33310951567714
 20
-124.3155815661433
 10
88.3241522674155
 20
-124.5484700209462
 10
88.31967364328467
 20
-124.6201280070394
 10
88.31967364328467
 20
-124.6201280070394
 10
88.10263262771393
 20
-124.6201280070394
 10
88.10263262771393
 20
-124.6201280070394
 10
88.11158987597558
 20
-124.4954155504734
 10
88.1408731876002
 20
-124.1188666139356
 10
88.62938772740863
 20
-124.1188666139356
 10
88.86916637318201
 20
-124.1188666139356
 10
89.1268595154787
 20
-124.2459906373413
 10
89.1268595154787
 20
-124.5419243395242
 10
89.1268595154787
 20
-124.7283040052763
 10
89.02488468911531
 20
-124.8106417873737
 10
88.91877574816962
 20
-124.8719644870112
 10
88.98423256238937
 20
-124.8995252508932
 10
89.17888045730598
 20
-124.9797959756995
 10
89.17888045730598
 20
-125.2571261622621
 10
89.17888045730598
 20
-125.5954345389137
 10
88.9142971240388
 20
-125.7625216699483
 10
88.6180189123073
 20
-125.7625216699483
 97
        0
 97
        0
 75
     2
 76
     1
 98
        0
  0
POLYLINE
  5
69
330
61
100
AcDbEntity
  8
_U+30EC_U+30A4_U+30E4_U+30FC 1
370
     0
100
AcDb2dPolyline
 66
     1
 10
0.0
 20
0.0
 30
0.0
  0
VERTEX
  5
6A
330
69
100
AcDbEntity
  8
_U+30EC_U+30A4_U+30E4_U+30FC 1
370
     0
100
AcDbVertex
100
AcDb2dVertex
 10
89.41452498849706
 20
-125.7118787663151
 30
0.0
  0
VERTEX
  5
6B
330
69
100
AcDbEntity
  8
_U+30EC_U+30A4_U+30E4_U+30FC 1
370
     0
100
AcDbVertex
100
AcDb2dVertex
 10
89.41452498849706
 20
-125.4600422863433
 30
0.0
  0
VERTEX
  5
6C
330
69
100
AcDbEntity
  8
_U+30EC_U+30A4_U+30E4_U+30FC 1
370
     0
100
AcDbVertex
100
AcDb2dVertex
 10
89.68358694589507
 20
-125.4600422863433
 30
0.0
  0
VERTEX
  5
6D
330
69
100
AcDbEntity
  8
_U+30EC_U+30A4_U+30E4_U+30FC 1
370
     0
100
AcDbVertex
100
AcDb2dVertex
 10
89.68358694589507
 20
-125.7118787663151
 30
0.0
  0
VERTEX
  5
6E
330
69
100
AcDbEntity
  8
_U+30EC_U+30A4_U+30E4_U+30FC 1
370
     0
100
AcDbVertex
100
AcDb2dVertex
 10
89.41452498849706
 20
-125.7118787663151
 30
0.0
  0
SEQEND
  5
6F
330
69
100
AcDbEntity
  8
_U+30EC_U+30A4_U+30E4_U+30FC 1
370
     0
  0
HATCH
  5
70
330
61
100
AcDbEntity
  8
_U+30EC_U+30A4_U+30E4_U+30FC 1
 62
   179
420
  2234388
100
AcDbHatch
 10
0.0
 20
0.0
 30
0.0
210
0.0
220
0.0
230
1.0
  2
SOLID
 70
     1
 71
     0
 91
        1
 92
        1
 93
        4
 72
     1
 10
89.41452498849706
 20
-125.7118787663151
 11
89.41452498849706
 21
-125.4600422863433
 72
     1
 10
89.41452498849706
 20
-125.4600422863433
 11
89.68358694589507
 21
-125.4600422863433
 72
     1
 10
89.68358694589507
 20
-125.4600422863433
 11
89.68358694589507
 21
-125.7118787663151
 72
     1
 10
89.68358694589507
 20
-125.7118787663151
 11
89.41452498849706
 21
-125.7118787663151
 97
        0
 75
     2
 76
     1
 98
        0
  0
SPLINE
  5
71
330
61
100
AcDbEntity
  8
_U+30EC_U+30A4_U+30E4_U+30FC 1
370
     0
100
AcDbSpline
210
0.0
220
0.0
230
1.0
 70
    11
 71
     3
 72
    53
 73
    49
 74
     0
 42
0.0000000001
 43
0.0000000001
 12
1.0
 22
0.0
 32
0.0
 13
1.0
 23
0.0
 33
0.0
 40
0.0
 40
0.0
 40
0.0
 40
0.0
 40
1.0
 40
1.0
 40
1.0
 40
2.0
 40
2.0
 40
2.0
 40
3.0
 40
3.0
 40
3.0
 40
4.0
 40
4.0
 40
4.0
 40
5.0
 40
5.0
 40
5.0
 40
6.0
 40
6.0
 40
6.0
 40
7.0
 40
7.0
 40
7.0
 40
8.0
 40
8.0
 40
8.0
 40
9.0
 40
9.0
 40
9.0
 40
10.0
 40
10.0
 40
10.0
 40
11.0
 40
11.0
 40
11.0
 40
12.0
 40
12.0
 40
12.0
 40
13.0
 40
13.0
 40
13.0
 40
14.0
 40
14.0
 40
14.0
 40
15.0
 40
15.0
 40
15.0
 40
16.0
 40
16.0
 40
16.0
 40
16.0
 10
90.4504652009117
 20
-125.7625216699483
 30
0.0
 10
90.36674938062012
 20
-125.7625216699483
 30
0.0
 10
90.25857338238328
 20
-125.7456407020705
 30
0.0
 10
90.14970836504938
 20
-125.6822509451419
 30
0.0
 10
89.96436222794294
 20
-125.5723523991625
 30
0.0
 10
89.94196910728881
 20
-125.4410942611745
 30
0.0
 10
89.92164304392584
 20
-125.3332627724861
 30
0.0
 10
89.92164304392584
 20
-125.3332627724861
 30
0.0
 10
90.15901012285956
 20
-125.3332627724861
 30
0.0
 10
90.15901012285956
 20
-125.3332627724861
 30
0.0
 10
90.2175767461088
 20
-125.5320447819851
 30
0.0
 10
90.35331350822764
 20
-125.5616726031582
 30
0.0
 10
90.45287676775136
 20
-125.5616726031582
 30
0.0
 10
90.60204940226268
 20
-125.5616726031582
 30
0.0
 10
90.765002418715
 20
-125.4621093436345
 30
0.0
 10
90.765002418715
 20
-125.2295653983801
 30
0.0
 10
90.765002418715
 20
-124.973594803826
 30
0.0
 10
90.57276609063807
 20
-124.9036593654755
 30
0.0
 10
90.44391951948973
 20
-124.9036593654755
 30
0.0
 10
90.40981307418575
 20
-124.9036593654755
 30
0.0
 10
90.25857338238328
 20
-124.9036593654755
 30
0.0
 10
90.16348874699038
 20
-125.0328504461723
 30
0.0
 10
90.16348874699038
 20
-125.0328504461723
 30
0.0
 10
89.97573104304426
 20
-125.0139024210035
 30
0.0
 10
89.97573104304426
 20
-125.0139024210035
 30
0.0
 10
89.97573104304426
 20
-125.0139024210035
 30
0.0
 10
90.1045776141926
 20
-124.1674424602776
 30
0.0
 10
90.1045776141926
 20
-124.1674424602776
 30
0.0
 10
90.1045776141926
 20
-124.1674424602776
 30
0.0
 10
90.93656817388045
 20
-124.1674424602776
 30
0.0
 10
90.93656817388045
 20
-124.1674424602776
 30
0.0
 10
90.93656817388045
 20
-124.1674424602776
 30
0.0
 10
90.93656817388045
 20
-124.3620903551942
 30
0.0
 10
90.93656817388045
 20
-124.3620903551942
 30
0.0
 10
90.93656817388045
 20
-124.3620903551942
 30
0.0
 10
90.27889944574625
 20
-124.3620903551942
 30
0.0
 10
90.27889944574625
 20
-124.3620903551942
 30
0.0
 10
90.27889944574625
 20
-124.3620903551942
 30
0.0
 10
90.20861949784715
 20
-124.7851480807829
 30
0.0
 10
90.20861949784715
 20
-124.7851480807829
 30
0.0
 10
90.2740763120669
 20
-124.7513861450274
 30
0.0
 10
90.3622707564893
 20
-124.71107852785
 30
0.0
 10
90.4890502703465
 20
-124.71107852785
 30
0.0
 10
90.76017928503565
 20
-124.71107852785
 30
0.0
 10
91.01339380320152
 20
-124.897458193602
 30
0.0
 10
91.01339380320152
 20
-125.2106173732112
 30
0.0
 10
91.01339380320152
 20
-125.5279106674028
 30
0.0
 10
90.77395966697665
 20
-125.7625216699483
 30
0.0
 10
90.4504652009117
 20
-125.7625216699483
 30
0.0
  0
HATCH
  5
72
330
61
100
AcDbEntity
  8
_U+30EC_U+30A4_U+30E4_U+30FC 1
 62
   179
420
  2234388
100
AcDbHatch
 10
0.0
 20
0.0
 30
0.0
210
0.0
220
0.0
230
1.0
  2
SOLID
 70
     1
 71
     0
 91
        1
 92
        1
 93
        1
 72
     4
 94
        3
 73
     0
 74
     1
 95
       53
 96
       49
 40
0.0
 40
0.0
 40
0.0
 40
0.0
 40
1.0
 40
1.0
 40
1.0
 40
2.0
 40
2.0
 40
2.0
 40
3.0
 40
3.0
 40
3.0
 40
4.0
 40
4.0
 40
4.0
 40
5.0
 40
5.0
 40
5.0
 40
6.0
 40
6.0
 40
6.0
 40
7.0
 40
7.0
 40
7.0
 40
8.0
 40
8.0
 40
8.0
 40
9.0
 40
9.0
 40
9.0
 40
10.0
 40
10.0
 40
10.0
 40
11.0
 40
11.0
 40
11.0
 40
12.0
 40
12.0
 40
12.0
 40
13.0
 40
13.0
 40
13.0
 40
14.0
 40
14.0
 40
14.0
 40
15.0
 40
15.0
 40
15.0
 40
16.0
 40
16.0
 40
16.0
 40
16.0
 10
90.4504652009117
 20
-125.7625216699483
 10
90.36674938062012
 20
-125.7625216699483
 10
90.25857338238328
 20
-125.7456407020705
 10
90.14970836504938
 20
-125.6822509451419
 10
89.96436222794294
 20
-125.5723523991625
 10
89.94196910728881
 20
-125.4410942611745
 10
89.92164304392584
 20
-125.3332627724861
 10
89.92164304392584
 20
-125.3332627724861
 10
90.15901012285956
 20
-125.3332627724861
 10
90.15901012285956
 20
-125.3332627724861
 10
90.2175767461088
 20
-125.5320447819851
 10
90.35331350822764
 20
-125.5616726031582
 10
90.45287676775136
 20
-125.5616726031582
 10
90.60204940226268
 20
-125.5616726031582
 10
90.765002418715
 20
-125.4621093436345
 10
90.765002418715
 20
-125.2295653983801
 10
90.765002418715
 20
-124.973594803826
 10
90.57276609063807
 20
-124.9036593654755
 10
90.44391951948973
 20
-124.9036593654755
 10
90.40981307418575
 20
-124.9036593654755
 10
90.25857338238328
 20
-124.9036593654755
 10
90.16348874699038
 20
-125.0328504461723
 10
90.16348874699038
 20
-125.0328504461723
 10
89.97573104304426
 20
-125.0139024210035
 10
89.97573104304426
 20
-125.0139024210035
 10
89.97573104304426
 20
-125.0139024210035
 10
90.1045776141926
 20
-124.1674424602776
 10
90.1045776141926
 20
-124.1674424602776
 10
90.1045776141926
 20
-124.1674424602776
 10
90.93656817388045
 20
-124.1674424602776
 10
90.93656817388045
 20
-124.1674424602776
 10
90.93656817388045
 20
-124.1674424602776
 10
90.93656817388045
 20
-124.3620903551942
 10
90.93656817388045
 20
-124.3620903551942
 10
90.93656817388045
 20
-124.3620903551942
 10
90.27889944574625
 20
-124.3620903551942
 10
90.27889944574625
 20
-124.3620903551942
 10
90.27889944574625
 20
-124.3620903551942
 10
90.20861949784715
 20
-124.7851480807829
 10
90.20861949784715
 20
-124.7851480807829
 10
90.2740763120669
 20
-124.7513861450274
 10
90.3622707564893
 20
-124.71107852785
 10
90.4890502703465
 20
-124.71107852785
 10
90.76017928503565
 20
-124.71107852785
 10
91.01339380320152
 20
-124.897458193602
 10
91.01339380320152
 20
-125.2106173732112
 10
91.01339380320152
 20
-125.5279106674028
 10
90.77395966697665
 20
-125.7625216699483
 10
90.4504652009117
 20
-125.7625216699483
 97
        0
 97
        0
 75
     2
 76
     1
 98
        0
  0
ENDBLK
  5
64
330
61
100
AcDbEntity
  8
0
100
AcDbBlockEnd
  0
BLOCK
  5
85
330
83
100
AcDbEntity
  8
0
100
AcDbBlockBegin
  2
block 3
 70
     0
 10
0.0
 20
0.0
 30
0.0
  3
block 3
  1

  0
SPLINE
  5
87
330
83
100
AcDbEntity
  8
_U+30EC_U+30A4_U+30E4_U+30FC 1
370
     0
100
AcDbSpline
210
0.0
220
0.0
230
1.0
 70
    11
 71
     3
 72
    26
 73
    22
 74
     0
 42
0.0000000001
 43
0.0000000001
 12
1.0
 22
0.0
 32
0.0
 13
1.0
 23
0.0
 33
0.0
 40
0.0
 40
0.0
 40
0.0
 40
0.0
 40
1.0
 40
1.0
 40
1.0
 40
2.0
 40
2.0
 40
2.0
 40
3.0
 40
3.0
 40
3.0
 40
4.0
 40
4.0
 40
4.0
 40
5.0
 40
5.0
 40
5.0
 40
6.0
 40
6.0
 40
6.0
 40
7.0
 40
7.0
 40
7.0
 40
7.0
 10
103.109985325785
 20
-128.8403699764705
 30
0.0
 10
103.109985325785
 20
-128.8403699764705
 30
0.0
 10
102.0058322227624
 20
-128.8403699764705
 30
0.0
 10
102.0058322227624
 20
-128.8403699764705
 30
0.0
 10
102.0058322227624
 20
-128.8403699764705
 30
0.0
 10
102.0058322227624
 20
-129.1928032446115
 30
0.0
 10
102.0058322227624
 20
-129.1928032446115
 30
0.0
 10
102.0058322227624
 20
-129.1928032446115
 30
0.0
 10
101.8576931168967
 20
-129.1928032446115
 30
0.0
 10
101.8576931168967
 20
-129.1928032446115
 30
0.0
 10
101.8428792063101
 20
-128.8379584096308
 30
0.0
 10
101.6799261898578
 20
-128.7883490346432
 30
0.0
 10
101.5655490197475
 20
-128.7566541561789
 30
0.0
 10
101.5655490197475
 20
-128.7566541561789
 30
0.0
 10
101.5655490197475
 20
-128.6005913306971
 30
0.0
 10
101.5655490197475
 20
-128.6005913306971
 30
0.0
 10
101.5655490197475
 20
-128.6005913306971
 30
0.0
 10
103.109985325785
 20
-128.6005913306971
 30
0.0
 10
103.109985325785
 20
-128.6005913306971
 30
0.0
 10
103.109985325785
 20
-128.6005913306971
 30
0.0
 10
103.109985325785
 20
-128.8403699764705
 30
0.0
 10
103.109985325785
 20
-128.8403699764705
 30
0.0
  0
HATCH
  5
88
330
83
100
AcDbEntity
  8
_U+30EC_U+30A4_U+30E4_U+30FC 1
 62
   179
420
  2234388
100
AcDbHatch
 10
0.0
 20
0.0
 30
0.0
210
0.0
220
0.0
230
1.0
  2
SOLID
 70
     1
 71
     0
 91
        1
 92
        1
 93
        1
 72
     4
 94
        3
 73
     0
 74
     1
 95
       26
 96
       22
 40
0.0
 40
0.0
 40
0.0
 40
0.0
 40
1.0
 40
1.0
 40
1.0
 40
2.0
 40
2.0
 40
2.0
 40
3.0
 40
3.0
 40
3.0
 40
4.0
 40
4.0
 40
4.0
 40
5.0
 40
5.0
 40
5.0
 40
6.0
 40
6.0
 40
6.0
 40
7.0
 40
7.0
 40
7.0
 40
7.0
 10
103.109985325785
 20
-128.8403699764705
 10
103.109985325785
 20
-128.8403699764705
 10
102.0058322227624
 20
-128.8403699764705
 10
102.0058322227624
 20
-128.8403699764705
 10
102.0058322227624
 20
-128.8403699764705
 10
102.0058322227624
 20
-129.1928032446115
 10
102.0058322227624
 20
-129.1928032446115
 10
102.0058322227624
 20
-129.1928032446115
 10
101.8576931168967
 20
-129.1928032446115
 10
101.8576931168967
 20
-129.1928032446115
 10
101.8428792063101
 20
-128.8379584096308
 10
101.6799261898578
 20
-128.7883490346432
 10
101.5655490197475
 20
-128.7566541561789
 10
101.5655490197475
 20
-128.7566541561789
 10
101.5655490197475
 20
-128.6005913306971
 10
101.5655490197475
 20
-128.6005913306971
 10
101.5655490197475
 20
-128.6005913306971
 10
103.109985325785
 20
-128.6005913306971
 10
103.109985325785
 20
-128.6005913306971
 10
103.109985325785
 20
-128.6005913306971
 10
103.109985325785
 20
-128.8403699764705
 10
103.109985325785
 20
-128.8403699764705
 97
        0
 97
        0
 75
     2
 76
     1
 98
        0
  0
POLYLINE
  5
89
330
83
100
AcDbEntity
  8
_U+30EC_U+30A4_U+30E4_U+30FC 1
370
     0
100
AcDb2dPolyline
 66
     1
 10
0.0
 20
0.0
 30
0.0
  0
VERTEX
  5
8A
330
89
100
AcDbEntity
  8
_U+30EC_U+30A4_U+30E4_U+30FC 1
370
     0
100
AcDbVertex
100
AcDb2dVertex
 10
103.109985325785
 20
-128.0008002067151
 30
0.0
  0
VERTEX
  5
8B
330
89
100
AcDbEntity
  8
_U+30EC_U+30A4_U+30E4_U+30FC 1
370
     0
100
AcDbVertex
100
AcDb2dVertex
 10
102.8581488458132
 20
-128.0008002067151
 30
0.0
  0
VERTEX
  5
8C
330
89
100
AcDbEntity
  8
_U+30EC_U+30A4_U+30E4_U+30FC 1
370
     0
100
AcDbVertex
100
AcDb2dVertex
 10
102.8581488458132
 20
-127.7317382493171
 30
0.0
  0
VERTEX
  5
8D
330
89
100
AcDbEntity
  8
_U+30EC_U+30A4_U+30E4_U+30FC 1
370
     0
100
AcDbVertex
100
AcDb2dVertex
 10
103.109985325785
 20
-127.7317382493171
 30
0.0
  0
VERTEX
  5
8E
330
89
100
AcDbEntity
  8
_U+30EC_U+30A4_U+30E4_U+30FC 1
370
     0
100
AcDbVertex
100
AcDb2dVertex
 10
103.109985325785
 20
-128.0008002067151
 30
0.0
  0
SEQEND
  5
8F
330
89
100
AcDbEntity
  8
_U+30EC_U+30A4_U+30E4_U+30FC 1
370
     0
  0
HATCH
  5
90
330
83
100
AcDbEntity
  8
_U+30EC_U+30A4_U+30E4_U+30FC 1
 62
   179
420
  2234388
100
AcDbHatch
 10
0.0
 20
0.0
 30
0.0
210
0.0
220
0.0
230
1.0
  2
SOLID
 70
     1
 71
     0
 91
        1
 92
        1
 93
        4
 72
     1
 10
103.109985325785
 20
-128.0008002067151
 11
102.8581488458132
 21
-128.0008002067151
 72
     1
 10
102.8581488458132
 20
-128.0008002067151
 11
102.8581488458132
 21
-127.7317382493171
 72
     1
 10
102.8581488458132
 20
-127.7317382493171
 11
103.109985325785
 21
-127.7317382493171
 72
     1
 10
103.109985325785
 20
-127.7317382493171
 11
103.109985325785
 21
-128.0008002067151
 97
        0
 75
     2
 76
     1
 98
        0
  0
SPLINE
  5
91
330
83
100
AcDbEntity
  8
_U+30EC_U+30A4_U+30E4_U+30FC 1
370
     0
100
AcDbSpline
210
0.0
220
0.0
230
1.0
 70
    11
 71
     3
 72
    53
 73
    49
 74
     0
 42
0.0000000001
 43
0.0000000001
 12
1.0
 22
0.0
 32
0.0
 13
1.0
 23
0.0
 33
0.0
 40
0.0
 40
0.0
 40
0.0
 40
0.0
 40
1.0
 40
1.0
 40
1.0
 40
2.0
 40
2.0
 40
2.0
 40
3.0
 40
3.0
 40
3.0
 40
4.0
 40
4.0
 40
4.0
 40
5.0
 40
5.0
 40
5.0
 40
6.0
 40
6.0
 40
6.0
 40
7.0
 40
7.0
 40
7.0
 40
8.0
 40
8.0
 40
8.0
 40
9.0
 40
9.0
 40
9.0
 40
10.0
 40
10.0
 40
10.0
 40
11.0
 40
11.0
 40
11.0
 40
12.0
 40
12.0
 40
12.0
 40
13.0
 40
13.0
 40
13.0
 40
14.0
 40
14.0
 40
14.0
 40
15.0
 40
15.0
 40
15.0
 40
16.0
 40
16.0
 40
16.0
 40
16.0
 10
103.1606282294182
 20
-126.9648599943005
 30
0.0
 10
103.1606282294182
 20
-127.048575814592
 30
0.0
 10
103.1437472615405
 20
-127.1567518128289
 30
0.0
 10
103.0803575046119
 20
-127.2656168301628
 30
0.0
 10
102.9704589586324
 20
-127.4509629672692
 30
0.0
 10
102.8392008206444
 20
-127.4733560879233
 30
0.0
 10
102.731369331956
 20
-127.4936821512863
 30
0.0
 10
102.731369331956
 20
-127.4936821512863
 30
0.0
 10
102.731369331956
 20
-127.2563150723526
 30
0.0
 10
102.731369331956
 20
-127.2563150723526
 30
0.0
 10
102.930151341455
 20
-127.1977484491033
 30
0.0
 10
102.9597791626281
 20
-127.0620116869845
 30
0.0
 10
102.9597791626281
 20
-126.9624484274608
 30
0.0
 10
102.9597791626281
 20
-126.8132757929495
 30
0.0
 10
102.8602159031044
 20
-126.6503227764971
 30
0.0
 10
102.62767195785
 20
-126.6503227764971
 30
0.0
 10
102.371701363296
 20
-126.6503227764971
 30
0.0
 10
102.3017659249454
 20
-126.8425591045741
 30
0.0
 10
102.3017659249454
 20
-126.9714056757224
 30
0.0
 10
102.3017659249454
 20
-127.0055121210264
 30
0.0
 10
102.3017659249454
 20
-127.1567518128289
 30
0.0
 10
102.4309570056423
 20
-127.2518364482218
 30
0.0
 10
102.4309570056423
 20
-127.2518364482218
 30
0.0
 10
102.4120089804734
 20
-127.4395941521679
 30
0.0
 10
102.4120089804734
 20
-127.4395941521679
 30
0.0
 10
102.4120089804734
 20
-127.4395941521679
 30
0.0
 10
101.5655490197475
 20
-127.3107475810195
 30
0.0
 10
101.5655490197475
 20
-127.3107475810195
 30
0.0
 10
101.5655490197475
 20
-127.3107475810195
 30
0.0
 10
101.5655490197475
 20
-126.4787570213317
 30
0.0
 10
101.5655490197475
 20
-126.4787570213317
 30
0.0
 10
101.5655490197475
 20
-126.4787570213317
 30
0.0
 10
101.7601969146641
 20
-126.4787570213317
 30
0.0
 10
101.7601969146641
 20
-126.4787570213317
 30
0.0
 10
101.7601969146641
 20
-126.4787570213317
 30
0.0
 10
101.7601969146641
 20
-127.1364257494659
 30
0.0
 10
101.7601969146641
 20
-127.1364257494659
 30
0.0
 10
101.7601969146641
 20
-127.1364257494659
 30
0.0
 10
102.1832546402528
 20
-127.206705697365
 30
0.0
 10
102.1832546402528
 20
-127.206705697365
 30
0.0
 10
102.1494927044973
 20
-127.1412488831453
 30
0.0
 10
102.1091850873199
 20
-127.0530544387229
 30
0.0
 10
102.1091850873199
 20
-126.9262749248657
 30
0.0
 10
102.1091850873199
 20
-126.6551459101765
 30
0.0
 10
102.2955647530719
 20
-126.4019313920106
 30
0.0
 10
102.6087239326812
 20
-126.4019313920106
 30
0.0
 10
102.9260172268727
 20
-126.4019313920106
 30
0.0
 10
103.1606282294182
 20
-126.6413655282355
 30
0.0
 10
103.1606282294182
 20
-126.9648599943005
 30
0.0
  0
HATCH
  5
92
330
83
100
AcDbEntity
  8
_U+30EC_U+30A4_U+30E4_U+30FC 1
 62
   179
420
  2234388
100
AcDbHatch
 10
0.0
 20
0.0
 30
0.0
210
0.0
220
0.0
230
1.0
  2
SOLID
 70
     1
 71
     0
 91
        1
 92
        1
 93
        1
 72
     4
 94
        3
 73
     0
 74
     1
 95
       53
 96
       49
 40
0.0
 40
0.0
 40
0.0
 40
0.0
 40
1.0
 40
1.0
 40
1.0
 40
2.0
 40
2.0
 40
2.0
 40
3.0
 40
3.0
 40
3.0
 40
4.0
 40
4.0
 40
4.0
 40
5.0
 40
5.0
 40
5.0
 40
6.0
 40
6.0
 40
6.0
 40
7.0
 40
7.0
 40
7.0
 40
8.0
 40
8.0
 40
8.0
 40
9.0
 40
9.0
 40
9.0
 40
10.0
 40
10.0
 40
10.0
 40
11.0
 40
11.0
 40
11.0
 40
12.0
 40
12.0
 40
12.0
 40
13.0
 40
13.0
 40
13.0
 40
14.0
 40
14.0
 40
14.0
 40
15.0
 40
15.0
 40
15.0
 40
16.0
 40
16.0
 40
16.0
 40
16.0
 10
103.1606282294182
 20
-126.9648599943005
 10
103.1606282294182
 20
-127.048575814592
 10
103.1437472615405
 20
-127.1567518128289
 10
103.0803575046119
 20
-127.2656168301628
 10
102.9704589586324
 20
-127.4509629672692
 10
102.8392008206444
 20
-127.4733560879233
 10
102.731369331956
 20
-127.4936821512863
 10
102.731369331956
 20
-127.4936821512863
 10
102.731369331956
 20
-127.2563150723526
 10
102.731369331956
 20
-127.2563150723526
 10
102.930151341455
 20
-127.1977484491033
 10
102.9597791626281
 20
-127.0620116869845
 10
102.9597791626281
 20
-126.9624484274608
 10
102.9597791626281
 20
-126.8132757929495
 10
102.8602159031044
 20
-126.6503227764971
 10
102.62767195785
 20
-126.6503227764971
 10
102.371701363296
 20
-126.6503227764971
 10
102.3017659249454
 20
-126.8425591045741
 10
102.3017659249454
 20
-126.9714056757224
 10
102.3017659249454
 20
-127.0055121210264
 10
102.3017659249454
 20
-127.1567518128289
 10
102.4309570056423
 20
-127.2518364482218
 10
102.4309570056423
 20
-127.2518364482218
 10
102.4120089804734
 20
-127.4395941521679
 10
102.4120089804734
 20
-127.4395941521679
 10
102.4120089804734
 20
-127.4395941521679
 10
101.5655490197475
 20
-127.3107475810195
 10
101.5655490197475
 20
-127.3107475810195
 10
101.5655490197475
 20
-127.3107475810195
 10
101.5655490197475
 20
-126.4787570213317
 10
101.5655490197475
 20
-126.4787570213317
 10
101.5655490197475
 20
-126.4787570213317
 10
101.7601969146641
 20
-126.4787570213317
 10
101.7601969146641
 20
-126.4787570213317
 10
101.7601969146641
 20
-126.4787570213317
 10
101.7601969146641
 20
-127.1364257494659
 10
101.7601969146641
 20
-127.1364257494659
 10
101.7601969146641
 20
-127.1364257494659
 10
102.1832546402528
 20
-127.206705697365
 10
102.1832546402528
 20
-127.206705697365
 10
102.1494927044973
 20
-127.1412488831453
 10
102.1091850873199
 20
-127.0530544387229
 10
102.1091850873199
 20
-126.9262749248657
 10
102.1091850873199
 20
-126.6551459101765
 10
102.2955647530719
 20
-126.4019313920106
 10
102.6087239326812
 20
-126.4019313920106
 10
102.9260172268727
 20
-126.4019313920106
 10
103.1606282294182
 20
-126.6413655282355
 10
103.1606282294182
 20
-126.9648599943005
 97
        0
 97
        0
 75
     2
 76
     1
 98
        0
  0
ENDBLK
  5
86
330
83
100
AcDbEntity
  8
0
100
AcDbBlockEnd
  0
ENDSEC
  0
SECTION
  2
ENTITIES
  0
POLYLINE
  5
41
330
1F
100
AcDbEntity
  8
_U+30EC_U+30A4_U+30E4_U+30FC 1
 62
   179
420
  2234388
370
    25
100
AcDb2dPolyline
 66
     1
 10
0.0
 20
0.0
 30
0.0
  0
VERTEX
  5
42
330
41
100
AcDbEntity
  8
_U+30EC_U+30A4_U+30E4_U+30FC 1
 62
   179
420
  2234388
370
    25
100
AcDbVertex
100
AcDb2dVertex
 10
76.9119388711463
 20
-131.0149285783574
 30
0.0
  0
VERTEX
  5
43
330
41
100
AcDbEntity
  8
_U+30EC_U+30A4_U+30E4_U+30FC 1
 62
   179
420
  2234388
370
    25
100
AcDbVertex
100
AcDb2dVertex
 10
100.41212410494
 20
-131.0149285783574
 30
0.0
  0
SEQEND
  5
44
330
41
100
AcDbEntity
  8
_U+30EC_U+30A4_U+30E4_U+30FC 1
 62
   179
420
  2234388
370
    25
  0
POLYLINE
  5
45
330
1F
100
AcDbEntity
  8
_U+30EC_U+30A4_U+30E4_U+30FC 1
 62
   179
420
  2234388
370
    25
100
AcDb2dPolyline
 66
     1
 10
0.0
 20
0.0
 30
0.0
  0
VERTEX
  5
46
330
45
100
AcDbEntity
  8
_U+30EC_U+30A4_U+30E4_U+30FC 1
 62
   179
420
  2234388
370
    25
100
AcDbVertex
100
AcDb2dVertex
 10
100.41212410494
 20
-131.0149285783574
 30
0.0
  0
VERTEX
  5
47
330
45
100
AcDbEntity
  8
_U+30EC_U+30A4_U+30E4_U+30FC 1
 62
   179
420
  2234388
370
    25
100
AcDbVertex
100
AcDb2dVertex
 10
100.41212410494
 20
-132.5149044113155
 30
0.0
  0
SEQEND
  5
48
330
45
100
AcDbEntity
  8
_U+30EC_U+30A4_U+30E4_U+30FC 1
 62
   179
420
  2234388
370
    25
  0
POLYLINE
  5
49
330
1F
100
AcDbEntity
  8
_U+30EC_U+30A4_U+30E4_U+30FC 1
 62
   179
420
  2234388
370
    25
100
AcDb2dPolyline
 66
     1
 10
0.0
 20
0.0
 30
0.0
  0
VERTEX
  5
4A
330
49
100
AcDbEntity
  8
_U+30EC_U+30A4_U+30E4_U+30FC 1
 62
   179
420
  2234388
370
    25
100
AcDbVertex
100
AcDb2dVertex
 10
76.9119388711463
 20
-132.5149044113155
 30
0.0
  0
VERTEX
  5
4B
330
49
100
AcDbEntity
  8
_U+30EC_U+30A4_U+30E4_U+30FC 1
 62
   179
420
  2234388
370
    25
100
AcDbVertex
100
AcDb2dVertex
 10
100.41212410494
 20
-132.5149044113155
 30
0.0
  0
SEQEND
  5
4C
330
49
100
AcDbEntity
  8
_U+30EC_U+30A4_U+30E4_U+30FC 1
 62
   179
420
  2234388
370
    25
  0
POLYLINE
  5
4D
330
1F
100
AcDbEntity
  8
_U+30EC_U+30A4_U+30E4_U+30FC 1
 62
   179
420
  2234388
370
    25
100
AcDb2dPolyline
 66
     1
 10
0.0
 20
0.0
 30
0.0
  0
VERTEX
  5
4E
330
4D
100
AcDbEntity
  8
_U+30EC_U+30A4_U+30E4_U+30FC 1
 62
   179
420
  2234388
370
    25
100
AcDbVertex
100
AcDb2dVertex
 10
76.9119388711463
 20
-131.0149285783574
 30
0.0
  0
VERTEX
  5
4F
330
4D
100
AcDbEntity
  8
_U+30EC_U+30A4_U+30E4_U+30FC 1
 62
   179
420
  2234388
370
    25
100
AcDbVertex
100
AcDb2dVertex
 10
76.9119388711463
 20
-132.5149044113155
 30
0.0
  0
SEQEND
  5
50
330
4D
100
AcDbEntity
  8
_U+30EC_U+30A4_U+30E4_U+30FC 1
 62
   179
420
  2234388
370
    25
  0
SPLINE
  5
51
330
1F
100
AcDbEntity
  8
_U+30EC_U+30A4_U+30E4_U+30FC 1
 62
   179
420
  2234388
370
     9
100
AcDbSpline
210
0.0
220
0.0
230
1.0
 70
    11
 71
     3
 72
    17
 73
    13
 74
     0
 42
0.0000000001
 43
0.0000000001
 12
1.0
 22
0.0
 32
0.0
 13
1.0
 23
0.0
 33
0.0
 40
0.0
 40
0.0
 40
0.0
 40
0.0
 40
1.0
 40
1.0
 40
1.0
 40
2.0
 40
2.0
 40
2.0
 40
3.0
 40
3.0
 40
3.0
 40
4.0
 40
4.0
 40
4.0
 40
4.0
 10
104.5117898336821
 20
-131.0149285783574
 30
0.0
 10
104.5117898336821
 20
-130.9597894117043
 30
0.0
 10
104.4670249738834
 20
-130.9150219117158
 30
0.0
 10
104.4118831695643
 20
-130.9150219117158
 30
0.0
 10
104.3567792820812
 20
-130.9150219117158
 30
0.0
 10
104.3119765054464
 20
-130.9597894117043
 30
0.0
 10
104.3119765054464
 20
-131.0149285783574
 30
0.0
 10
104.3119765054464
 20
-131.0700324672324
 30
0.0
 10
104.3567792820812
 20
-131.1148352449991
 30
0.0
 10
104.4118831695643
 20
-131.1148352449991
 30
0.0
 10
104.4670249738834
 20
-131.1148352449991
 30
0.0
 10
104.5117898336821
 20
-131.0700324672324
 30
0.0
 10
104.5117898336821
 20
-131.0149285783574
 30
0.0
  0
SPLINE
  5
52
330
1F
100
AcDbEntity
  8
_U+30EC_U+30A4_U+30E4_U+30FC 1
 62
   179
420
  2234388
370
     9
100
AcDbSpline
210
0.0
220
0.0
230
1.0
 70
    11
 71
     3
 72
    17
 73
    13
 74
     0
 42
0.0000000001
 43
0.0000000001
 12
1.0
 22
0.0
 32
0.0
 13
1.0
 23
0.0
 33
0.0
 40
0.0
 40
0.0
 40
0.0
 40
0.0
 40
1.0
 40
1.0
 40
1.0
 40
2.0
 40
2.0
 40
2.0
 40
3.0
 40
3.0
 40
3.0
 40
4.0
 40
4.0
 40
4.0
 40
4.0
 10
100.5120333082051
 20
-127.0149930238017
 30
0.0
 10
100.5120333082051
 20
-126.9591835793712
 30
0.0
 10
100.4672632701999
 20
-126.9143808016048
 30
0.0
 10
100.41212410494
 20
-126.9143808016048
 30
0.0
 10
100.3570202174569
 20
-126.9143808016048
 30
0.0
 10
100.3122174408221
 20
-126.9591835793712
 30
0.0
 10
100.3122174408221
 20
-127.0149930238017
 30
0.0
 10
100.3122174408221
 20
-127.0700969126769
 30
0.0
 10
100.3570202174569
 20
-127.1148996904436
 30
0.0
 10
100.41212410494
 20
-127.1148996904436
 30
0.0
 10
100.4672632701999
 20
-127.1148996904436
 30
0.0
 10
100.5120333082051
 20
-127.0700969126769
 30
0.0
 10
100.5120333082051
 20
-127.0149930238017
 30
0.0
  0
SPLINE
  5
53
330
1F
100
AcDbEntity
  8
_U+30EC_U+30A4_U+30E4_U+30FC 1
 62
   179
420
  2234388
370
     9
100
AcDbSpline
210
0.0
220
0.0
230
1.0
 70
    11
 71
     3
 72
    17
 73
    13
 74
     0
 42
0.0000000001
 43
0.0000000001
 12
1.0
 22
0.0
 32
0.0
 13
1.0
 23
0.0
 33
0.0
 40
0.0
 40
0.0
 40
0.0
 40
0.0
 40
1.0
 40
1.0
 40
1.0
 40
2.0
 40
2.0
 40
2.0
 40
3.0
 40
3.0
 40
3.0
 40
4.0
 40
4.0
 40
4.0
 40
4.0
 10
104.5117898336821
 20
-132.5149044113155
 30
0.0
 10
104.5117898336821
 20
-132.4598005224406
 30
0.0
 10
104.4670249738834
 20
-132.4149977446739
 30
0.0
 10
104.4118831695643
 20
-132.4149977446739
 30
0.0
 10
104.3567792820812
 20
-132.4149977446739
 30
0.0
 10
104.3119765054464
 20
-132.4598005224406
 30
0.0
 10
104.3119765054464
 20
-132.5149044113155
 30
0.0
 10
104.3119765054464
 20
-132.5700435779686
 30
0.0
 10
104.3567792820812
 20
-132.6148110779571
 30
0.0
 10
104.4118831695643
 20
-132.6148110779571
 30
0.0
 10
104.4670249738834
 20
-132.6148110779571
 30
0.0
 10
104.5117898336821
 20
-132.5700435779686
 30
0.0
 10
104.5117898336821
 20
-132.5149044113155
 30
0.0
  0
SPLINE
  5
54
330
1F
100
AcDbEntity
  8
_U+30EC_U+30A4_U+30E4_U+30FC 1
 62
   179
420
  2234388
370
     9
100
AcDbSpline
210
0.0
220
0.0
230
1.0
 70
    11
 71
     3
 72
    17
 73
    13
 74
     0
 42
0.0000000001
 43
0.0000000001
 12
1.0
 22
0.0
 32
0.0
 13
1.0
 23
0.0
 33
0.0
 40
0.0
 40
0.0
 40
0.0
 40
0.0
 40
1.0
 40
1.0
 40
1.0
 40
2.0
 40
2.0
 40
2.0
 40
3.0
 40
3.0
 40
3.0
 40
4.0
 40
4.0
 40
4.0
 40
4.0
 10
77.01184553526414
 20
-127.0149930238017
 30
0.0
 10
77.01184553526414
 20
-126.9591835793712
 30
0.0
 10
76.96704275862938
 20
-126.9143808016048
 30
0.0
 10
76.9119388711463
 20
-126.9143808016048
 30
0.0
 10
76.85679970588635
 20
-126.9143808016048
 30
0.0
 10
76.81203220702847
 20
-126.9591835793712
 30
0.0
 10
76.81203220702847
 20
-127.0149930238017
 30
0.0
 10
76.81203220702847
 20
-127.0700969126769
 30
0.0
 10
76.85679970588635
 20
-127.1148996904436
 30
0.0
 10
76.9119388711463
 20
-127.1148996904436
 30
0.0
 10
76.96704275862938
 20
-127.1148996904436
 30
0.0
 10
77.01184553526414
 20
-127.0700969126769
 30
0.0
 10
77.01184553526414
 20
-127.0149930238017
 30
0.0
  0
POLYLINE
  5
55
330
1F
100
AcDbEntity
  8
_U+30EC_U+30A4_U+30E4_U+30FC 1
 62
   179
420
  2234388
370
     9
100
AcDb2dPolyline
 66
     1
 10
0.0
 20
0.0
 30
0.0
  0
VERTEX
  5
56
330
55
100
AcDbEntity
  8
_U+30EC_U+30A4_U+30E4_U+30FC 1
 62
   179
420
  2234388
370
     9
100
AcDbVertex
100
AcDb2dVertex
 10
76.9119388711463
 20
-127.0149930238017
 30
0.0
  0
VERTEX
  5
57
330
55
100
AcDbEntity
  8
_U+30EC_U+30A4_U+30E4_U+30FC 1
 62
   179
420
  2234388
370
     9
100
AcDbVertex
100
AcDb2dVertex
 10
100.41212410494
 20
-127.0149930238017
 30
0.0
  0
SEQEND
  5
58
330
55
100
AcDbEntity
  8
_U+30EC_U+30A4_U+30E4_U+30FC 1
 62
   179
420
  2234388
370
     9
  0
POLYLINE
  5
59
330
1F
100
AcDbEntity
  8
_U+30EC_U+30A4_U+30E4_U+30FC 1
 62
   179
420
  2234388
370
     9
100
AcDb2dPolyline
 66
     1
 10
0.0
 20
0.0
 30
0.0
  0
VERTEX
  5
5A
330
59
100
AcDbEntity
  8
_U+30EC_U+30A4_U+30E4_U+30FC 1
 62
   179
420
  2234388
370
     9
100
AcDbVertex
100
AcDb2dVertex
 10
76.9119388711463
 20
-128.4750344123257
 30
0.0
  0
VERTEX
  5
5B
330
59
100
AcDbEntity
  8
_U+30EC_U+30A4_U+30E4_U+30FC 1
 62
   179
420
  2234388
370
     9
100
AcDbVertex
100
AcDb2dVertex
 10
76.9119388711463
 20
-126.0145152462742
 30
0.0
  0
SEQEND
  5
5C
330
59
100
AcDbEntity
  8
_U+30EC_U+30A4_U+30E4_U+30FC 1
 62
   179
420
  2234388
370
     9
  0
POLYLINE
  5
5D
330
1F
100
AcDbEntity
  8
_U+30EC_U+30A4_U+30E4_U+30FC 1
 62
   179
420
  2234388
370
     9
100
AcDb2dPolyline
 66
     1
 10
0.0
 20
0.0
 30
0.0
  0
VERTEX
  5
5E
330
5D
100
AcDbEntity
  8
_U+30EC_U+30A4_U+30E4_U+30FC 1
 62
   179
420
  2234388
370
     9
100
AcDbVertex
100
AcDb2dVertex
 10
100.41212410494
 20
-128.4750344123257
 30
0.0
  0
VERTEX
  5
5F
330
5D
100
AcDbEntity
  8
_U+30EC_U+30A4_U+30E4_U+30FC 1
 62
   179
420
  2234388
370
     9
100
AcDbVertex
100
AcDb2dVertex
 10
100.41212410494
 20
-126.0145152462742
 30
0.0
  0
SEQEND
  5
60
330
5D
100
AcDbEntity
  8
_U+30EC_U+30A4_U+30E4_U+30FC 1
 62
   179
420
  2234388
370
     9
  0
INSERT
  5
62
330
1F
100
AcDbEntity
  8
_U+30EC_U+30A4_U+30E4_U+30FC 1
100
AcDbBlockReference
  2
block 2
 10
0.0
 20
0.0
 30
0.0
  0
POLYLINE
  5
73
330
1F
100
AcDbEntity
  8
_U+30EC_U+30A4_U+30E4_U+30FC 1
 62
   179
420
  2234388
370
     9
100
AcDb2dPolyline
 66
     1
 10
0.0
 20
0.0
 30
0.0
  0
VERTEX
  5
74
330
73
100
AcDbEntity
  8
_U+30EC_U+30A4_U+30E4_U+30FC 1
 62
   179
420
  2234388
370
     9
100
AcDbVertex
100
AcDb2dVertex
 10
104.4118831695643
 20
-131.0149285783574
 30
0.0
  0
VERTEX
  5
75
330
73
100
AcDbEntity
  8
_U+30EC_U+30A4_U+30E4_U+30FC 1
 62
   179
420
  2234388
370
     9
100
AcDbVertex
100
AcDb2dVertex
 10
104.4118831695643
 20
-125.7566699685608
 30
0.0
  0
SEQEND
  5
76
330
73
100
AcDbEntity
  8
_U+30EC_U+30A4_U+30E4_U+30FC 1
 62
   179
420
  2234388
370
     9
  0
POLYLINE
  5
77
330
1F
100
AcDbEntity
  8
_U+30EC_U+30A4_U+30E4_U+30FC 1
 62
   179
420
  2234388
370
     9
100
AcDb2dPolyline
 66
     1
 10
0.0
 20
0.0
 30
0.0
  0
VERTEX
  5
78
330
77
100
AcDbEntity
  8
_U+30EC_U+30A4_U+30E4_U+30FC 1
 62
   179
420
  2234388
370
     9
100
AcDbVertex
100
AcDb2dVertex
 10
104.4118831695643
 20
-131.0149285783574
 30
0.0
  0
VERTEX
  5
79
330
77
100
AcDbEntity
  8
_U+30EC_U+30A4_U+30E4_U+30FC 1
 62
   179
420
  2234388
370
     9
100
AcDbVertex
100
AcDb2dVertex
 10
104.4118831695643
 20
-133.514676633288
 30
0.0
  0
SEQEND
  5
7A
330
77
100
AcDbEntity
  8
_U+30EC_U+30A4_U+30E4_U+30FC 1
 62
   179
420
  2234388
370
     9
  0
POLYLINE
  5
7B
330
1F
100
AcDbEntity
  8
_U+30EC_U+30A4_U+30E4_U+30FC 1
 62
   179
420
  2234388
370
     9
100
AcDb2dPolyline
 66
     1
 10
0.0
 20
0.0
 30
0.0
  0
VERTEX
  5
7C
330
7B
100
AcDbEntity
  8
_U+30EC_U+30A4_U+30E4_U+30FC 1
 62
   179
420
  2234388
370
     9
100
AcDbVertex
100
AcDb2dVertex
 10
102.9518444187066
 20
-131.0149285783574
 30
0.0
  0
VERTEX
  5
7D
330
7B
100
AcDbEntity
  8
_U+30EC_U+30A4_U+30E4_U+30FC 1
 62
   179
420
  2234388
370
     9
100
AcDbVertex
100
AcDb2dVertex
 10
105.4116553662802
 20
-131.0149285783574
 30
0.0
  0
SEQEND
  5
7E
330
7B
100
AcDbEntity
  8
_U+30EC_U+30A4_U+30E4_U+30FC 1
 62
   179
420
  2234388
370
     9
  0
POLYLINE
  5
7F
330
1F
100
AcDbEntity
  8
_U+30EC_U+30A4_U+30E4_U+30FC 1
 62
   179
420
  2234388
370
     9
100
AcDb2dPolyline
 66
     1
 10
0.0
 20
0.0
 30
0.0
  0
VERTEX
  5
80
330
7F
100
AcDbEntity
  8
_U+30EC_U+30A4_U+30E4_U+30FC 1
 62
   179
420
  2234388
370
     9
100
AcDbVertex
100
AcDb2dVertex
 10
102.9518444187066
 20
-132.5149044113155
 30
0.0
  0
VERTEX
  5
81
330
7F
100
AcDbEntity
  8
_U+30EC_U+30A4_U+30E4_U+30FC 1
 62
   179
420
  2234388
370
     9
100
AcDbVertex
100
AcDb2dVertex
 10
105.4116553662802
 20
-132.5149044113155
 30
0.0
  0
SEQEND
  5
82
330
7F
100
AcDbEntity
  8
_U+30EC_U+30A4_U+30E4_U+30FC 1
 62
   179
420
  2234388
370
     9
  0
INSERT
  5
84
330
1F
100
AcDbEntity
  8
_U+30EC_U+30A4_U+30E4_U+30FC 1
100
AcDbBlockReference
  2
block 3
 10
0.0
 20
0.0
 30
0.0
  0
ENDSEC
  0
SECTION
  2
OBJECTS
  0
DICTIONARY
  5
C
330
0
100
AcDbDictionary
281
     1
  3
ACAD_GROUP
350
D
  3
ACAD_LAYOUT
350
1A
  3
ACAD_MATERIAL
350
3B
  3
ACAD_MLEADERSTYLE
350
94
  3
ACAD_MLINESTYLE
350
17
  3
ACAD_PLOTSETTINGS
350
19
  3
ACAD_PLOTSTYLENAME
350
E
  3
ACAD_TABLESTYLE
350
93
  3
ACAD_VISUALSTYLE
350
2A
  0
SUN
  5
3F
330
29
100
AcDbSun
 90
        1
290
     0
 63
     7
421
 16777215
 40
1.0
291
     1
 91
  2455826
 92
 54000000
292
     0
 70
     2
 71
   256
280
     1
  0
DICTIONARY
  5
D
102
{ACAD_REACTORS
330
C
102
}
330
C
100
AcDbDictionary
281
     1
  0
DICTIONARY
  5
1A
102
{ACAD_REACTORS
330
C
102
}
330
C
100
AcDbDictionary
281
     1
  3
Layout1
350
1E
  3
Layout2
350
26
  3
Model
350
22
  0
DICTIONARY
  5
3B
102
{ACAD_REACTORS
330
C
102
}
330
C
100
AcDbDictionary
281
     1
  3
ByBlock
350
3D
  3
ByLayer
350
3C
  3
Global
350
3E
  0
DICTIONARY
  5
94
102
{ACAD_REACTORS
330
C
102
}
330
C
100
AcDbDictionary
281
     1
  0
DICTIONARY
  5
17
102
{ACAD_REACTORS
330
C
102
}
330
C
100
AcDbDictionary
281
     1
  3
Standard
350
18
  0
DICTIONARY
  5
19
102
{ACAD_REACTORS
330
C
102
}
330
C
100
AcDbDictionary
281
     1
  0
ACDBDICTIONARYWDFLT
  5
E
102
{ACAD_REACTORS
330
C
102
}
330
C
100
AcDbDictionary
281
     1
  3
Normal
350
F
100
AcDbDictionaryWithDefault
340
F
  0
DICTIONARY
  5
93
102
{ACAD_REACTORS
330
C
102
}
330
C
100
AcDbDictionary
281
     1
  0
DICTIONARY
  5
2A
102
{ACAD_REACTORS
330
C
102
}
330
C
100
AcDbDictionary
281
     1
  3
2dWireframe
350
2F
  3
3D Hidden
350
31
  3
3dWireframe
350
30
  3
Basic
350
32
  3
Brighten
350
36
  3
ColorChange
350
3A
  3
Conceptual
350
34
  3
Dim
350
35
  3
Facepattern
350
39
  3
Flat
350
2B
  3
FlatWithEdges
350
2C
  3
Gouraud
350
2D
  3
GouraudWithEdges
350
2E
  3
Linepattern
350
38
  3
Realistic
350
33
  3
Thicken
350
37
  0
LAYOUT
  5
1E
102
{ACAD_REACTORS
330
1A
102
}
330
1A
100
AcDbPlotSettings
  1

  2
none_device
  4

  6

 40
0.0
 41
0.0
 42
0.0
 43
0.0
 44
0.0
 45
0.0
 46
0.0
 47
0.0
 48
0.0
 49
0.0
140
0.0
141
0.0
142
1.0
143
1.0
 70
   688
 72
     0
 73
     0
 74
     5
  7

 75
    16
 76
     0
 77
     2
 78
   300
147
1.0
148
0.0
149
0.0
100
AcDbLayout
  1
Layout1
 70
     1
 71
     1
 10
0.0
 20
0.0
 11
12.0
 21
9.0
 12
0.0
 22
0.0
 32
0.0
 14
1.000000000000000E+20
 24
1.000000000000000E+20
 34
1.000000000000000E+20
 15
-1.000000000000000E+20
 25
-1.000000000000000E+20
 35
-1.000000000000000E+20
146
0.0
 13
0.0
 23
0.0
 33
0.0
 16
1.0
 26
0.0
 36
0.0
 17
0.0
 27
1.0
 37
0.0
 76
     0
330
1B
  0
LAYOUT
  5
26
102
{ACAD_REACTORS
330
1A
102
}
330
1A
100
AcDbPlotSettings
  1

  2
none_device
  4

  6

 40
0.0
 41
0.0
 42
0.0
 43
0.0
 44
0.0
 45
0.0
 46
0.0
 47
0.0
 48
0.0
 49
0.0
140
0.0
141
0.0
142
1.0
143
1.0
 70
   688
 72
     0
 73
     0
 74
     5
  7

 75
    16
 76
     0
 77
     2
 78
   300
147
1.0
148
0.0
149
0.0
100
AcDbLayout
  1
Layout2
 70
     1
 71
     2
 10
0.0
 20
0.0
 11
0.0
 21
0.0
 12
0.0
 22
0.0
 32
0.0
 14
0.0
 24
0.0
 34
0.0
 15
0.0
 25
0.0
 35
0.0
146
0.0
 13
0.0
 23
0.0
 33
0.0
 16
1.0
 26
0.0
 36
0.0
 17
0.0
 27
1.0
 37
0.0
 76
     0
330
23
  0
LAYOUT
  5
22
102
{ACAD_REACTORS
330
1A
102
}
330
1A
100
AcDbPlotSettings
  1

  2
none_device
  4

  6

 40
0.0
 41
0.0
 42
0.0
 43
0.0
 44
0.0
 45
0.0
 46
0.0
 47
0.0
 48
0.0
 49
0.0
140
0.0
141
0.0
142
1.0
143
1.0
 70
  1712
 72
     0
 73
     0
 74
     0
  7

 75
     0
 76
     0
 77
     2
 78
   300
147
1.0
148
0.0
149
0.0
100
AcDbLayout
  1
Model
 70
     1
 71
     0
 10
0.0
 20
0.0
 11
12.0
 21
9.0
 12
0.0
 22
0.0
 32
0.0
 14
1.000000000000000E+20
 24
1.000000000000000E+20
 34
1.000000000000000E+20
 15
-1.000000000000000E+20
 25
-1.000000000000000E+20
 35
-1.000000000000000E+20
146
0.0
 13
0.0
 23
0.0
 33
0.0
 16
1.0
 26
0.0
 36
0.0
 17
0.0
 27
1.0
 37
0.0
 76
     0
330
1F
331
29
  0
MATERIAL
  5
3D
102
{ACAD_REACTORS
330
3B
102
}
330
3B
100
AcDbMaterial
  1
ByBlock
 72
     1
 94
      127
  0
MATERIAL
  5
3C
102
{ACAD_REACTORS
330
3B
102
}
330
3B
100
AcDbMaterial
  1
ByLayer
 72
     1
 94
      127
  0
MATERIAL
  5
3E
102
{ACAD_REACTORS
330
3B
102
}
330
3B
100
AcDbMaterial
  1
Global
 72
     1
 94
      127
  0
MLINESTYLE
  5
18
102
{ACAD_REACTORS
330
17
102
}
330
17
100
AcDbMlineStyle
  2
Standard
 70
     0
  3

 62
   256
 51
90.0
 52
90.0
 71
     2
 49
0.5
 62
   256
  6
BYLAYER
 49
-0.5
 62
   256
  6
BYLAYER
  0
ACDBPLACEHOLDER
  5
F
102
{ACAD_REACTORS
330
E
102
}
330
E
  0
VISUALSTYLE
  5
2F
102
{ACAD_REACTORS
330
2A
102
}
330
2A
100
AcDbVisualStyle
  2
2dWireframe
 70
     4
177
     2
291
     0
 71
     0
176
     1
 72
     2
176
     1
 73
     0
176
     1
 90
        0
176
     1
 40
-0.6
176
     1
 41
-30.0
176
     1
 62
     5
 63
     7
421
 16777215
176
     1
 74
     1
176
     1
 91
        4
176
     1
 64
     7
176
     1
 65
   257
176
     1
 75
     1
176
     1
175
     1
176
     1
 42
1.0
176
     1
 92
        0
176
     1
 66
   257
176
     1
 43
1.0
176
     1
 76
     1
176
     1
 77
     6
176
     1
 78
     2
176
     1
 67
     7
176
     1
 79
     5
176
     1
170
     0
176
     1
171
     0
176
     1
290
     0
176
     1
 93
        1
176
     1
 44
0.0
176
     1
173
     0
176
     1
  0
VISUALSTYLE
  5
31
102
{ACAD_REACTORS
330
2A
102
}
330
2A
100
AcDbVisualStyle
  2
3D Hidden
 70
     6
177
     2
291
     0
 71
     1
176
     1
 72
     2
176
     1
 73
     2
176
     1
 90
        0
176
     1
 40
-0.6
176
     1
 41
-30.0
176
     1
 62
     5
 63
     7
421
 16777215
176
     1
 74
     2
176
     1
 91
        2
176
     1
 64
     7
176
     1
 65
   257
176
     1
 75
     2
176
     1
175
     1
176
     1
 42
40.0
176
     1
 92
        0
176
     1
 66
   257
176
     1
 43
1.0
176
     1
 76
     1
176
     1
 77
     6
176
     1
 78
     2
176
     1
 67
     7
176
     1
 79
     3
176
     1
170
     0
176
     1
171
     0
176
     1
290
     0
176
     1
 93
        1
176
     1
 44
0.0
176
     1
173
     0
176
     1
  0
VISUALSTYLE
  5
30
102
{ACAD_REACTORS
330
2A
102
}
330
2A
100
AcDbVisualStyle
  2
3dWireframe
 70
     5
177
     2
291
     0
 71
     0
176
     1
 72
     2
176
     1
 73
     0
176
     1
 90
        0
176
     1
 40
-0.6
176
     1
 41
-30.0
176
     1
 62
     5
 63
     7
421
 16777215
176
     1
 74
     1
176
     1
 91
        4
176
     1
 64
     7
176
     1
 65
   257
176
     1
 75
     1
176
     1
175
     1
176
     1
 42
1.0
176
     1
 92
        0
176
     1
 66
   257
176
     1
 43
1.0
176
     1
 76
     1
176
     1
 77
     6
176
     1
 78
     2
176
     1
 67
     7
176
     1
 79
     5
176
     1
170
     0
176
     1
171
     0
176
     1
290
     0
176
     1
 93
        1
176
     1
 44
0.0
176
     1
173
     0
176
     1
  0
VISUALSTYLE
  5
32
102
{ACAD_REACTORS
330
2A
102
}
330
2A
100
AcDbVisualStyle
  2
Basic
 70
     7
177
     2
291
     1
 71
     1
176
     1
 72
     0
176
     1
 73
     1
176
     1
 90
        0
176
     1
 40
-0.6
176
     1
 41
-30.0
176
     1
 62
     5
 63
     7
421
 16777215
176
     1
 74
     0
176
     1
 91
        4
176
     1
 64
     7
176
     1
 65
   257
176
     1
 75
     1
176
     1
175
     1
176
     1
 42
1.0
176
     1
 92
        8
176
     1
 66
     7
176
     1
 43
1.0
176
     1
 76
     1
176
     1
 77
     6
176
     1
 78
     2
176
     1
 67
     7
176
     1
 79
     5
176
     1
170
     0
176
     1
171
     0
176
     1
290
     0
176
     1
 93
        1
176
     1
 44
0.0
176
     1
173
     0
176
     1
  0
VISUALSTYLE
  5
36
102
{ACAD_REACTORS
330
2A
102
}
330
2A
100
AcDbVisualStyle
  2
Brighten
 70
    12
177
     2
291
     1
 71
     2
176
     1
 72
     2
176
     1
 73
     0
176
     1
 90
        0
176
     1
 40
-0.6
176
     1
 41
-30.0
176
     1
 62
     5
 63
     7
421
 16777215
176
     1
 74
     1
176
     1
 91
        4
176
     1
 64
     7
176
     1
 65
   257
176
     1
 75
     1
176
     1
175
     1
176
     1
 42
1.0
176
     1
 92
        8
176
     1
 66
     7
176
     1
 43
1.0
176
     1
 76
     1
176
     1
 77
     6
176
     1
 78
     2
176
     1
 67
     7
176
     1
 79
     5
176
     1
170
     0
176
     1
171
     0
176
     1
290
     0
176
     1
 93
        1
176
     1
 44
50.0
176
     1
173
     0
176
     1
  0
VISUALSTYLE
  5
3A
102
{ACAD_REACTORS
330
2A
102
}
330
2A
100
AcDbVisualStyle
  2
ColorChange
 70
    16
177
     2
291
     1
 71
     2
176
     1
 72
     2
176
     1
 73
     3
176
     1
 90
        0
176
     1
 40
-0.6
176
     1
 41
-30.0
176
     1
 62
     5
 63
     8
421
  8421504
176
     1
 74
     1
176
     1
 91
        4
176
     1
 64
     7
176
     1
 65
   257
176
     1
 75
     1
176
     1
175
     1
176
     1
 42
1.0
176
     1
 92
        8
176
     1
 66
     8
424
  8421504
176
     1
 43
1.0
176
     1
 76
     1
176
     1
 77
     6
176
     1
 78
     2
176
     1
 67
     7
176
     1
 79
     5
176
     1
170
     0
176
     1
171
     0
176
     1
290
     0
176
     1
 93
        1
176
     1
 44
0.0
176
     1
173
     0
176
     1
  0
VISUALSTYLE
  5
34
102
{ACAD_REACTORS
330
2A
102
}
330
2A
100
AcDbVisualStyle
  2
Conceptual
 70
     9
177
     2
291
     0
 71
     3
176
     1
 72
     2
176
     1
 73
     0
176
     1
 90
        0
176
     1
 40
-0.6
176
     1
 41
-30.0
176
     1
 62
     5
 63
     7
421
 16777215
176
     1
 74
     2
176
     1
 91
        2
176
     1
 64
     7
176
     1
 65
   257
176
     1
 75
     1
176
     1
175
     1
176
     1
 42
40.0
176
     1
 92
        8
176
     1
 66
     7
176
     1
 43
1.0
176
     1
 76
     1
176
     1
 77
     6
176
     1
 78
     2
176
     1
 67
     7
176
     1
 79
     3
176
     1
170
     0
176
     1
171
     0
176
     1
290
     0
176
     1
 93
        1
176
     1
 44
0.0
176
     1
173
     0
176
     1
  0
VISUALSTYLE
  5
35
102
{ACAD_REACTORS
330
2A
102
}
330
2A
100
AcDbVisualStyle
  2
Dim
 70
    11
177
     2
291
     1
 71
     2
176
     1
 72
     2
176
     1
 73
     0
176
     1
 90
        0
176
     1
 40
-0.6
176
     1
 41
-30.0
176
     1
 62
     5
 63
     7
421
 16777215
176
     1
 74
     1
176
     1
 91
        4
176
     1
 64
     7
176
     1
 65
   257
176
     1
 75
     1
176
     1
175
     1
176
     1
 42
1.0
176
     1
 92
        8
176
     1
 66
     7
176
     1
 43
1.0
176
     1
 76
     1
176
     1
 77
     6
176
     1
 78
     2
176
     1
 67
     7
176
     1
 79
     5
176
     1
170
     0
176
     1
171
     0
176
     1
290
     0
176
     1
 93
        1
176
     1
 44
-50.0
176
     1
173
     0
176
     1
  0
VISUALSTYLE
  5
39
102
{ACAD_REACTORS
330
2A
102
}
330
2A
100
AcDbVisualStyle
  2
Facepattern
 70
    15
177
     2
291
     1
 71
     2
176
     1
 72
     2
176
     1
 73
     0
176
     1
 90
        0
176
     1
 40
-0.6
176
     1
 41
-30.0
176
     1
 62
     5
 63
     7
421
 16777215
176
     1
 74
     1
176
     1
 91
        4
176
     1
 64
     7
176
     1
 65
   257
176
     1
 75
     1
176
     1
175
     1
176
     1
 42
1.0
176
     1
 92
        8
176
     1
 66
     7
176
     1
 43
1.0
176
     1
 76
     1
176
     1
 77
     6
176
     1
 78
     2
176
     1
 67
     7
176
     1
 79
     5
176
     1
170
     0
176
     1
171
     0
176
     1
290
     0
176
     1
 93
        1
176
     1
 44
0.0
176
     1
173
     0
176
     1
  0
VISUALSTYLE
  5
2B
102
{ACAD_REACTORS
330
2A
102
}
330
2A
100
AcDbVisualStyle
  2
Flat
 70
     0
177
     2
291
     1
 71
     2
176
     1
 72
     1
176
     1
 73
     1
176
     1
 90
        2
176
     1
 40
-0.6
176
     1
 41
30.0
176
     1
 62
     5
 63
     7
421
 16777215
176
     1
 74
     0
176
     1
 91
        4
176
     1
 64
     7
176
     1
 65
   257
176
     1
 75
     1
176
     1
175
     1
176
     1
 42
1.0
176
     1
 92
        8
176
     1
 66
     7
176
     1
 43
1.0
176
     1
 76
     1
176
     1
 77
     6
176
     1
 78
     2
176
     1
 67
     7
176
     1
 79
     5
176
     1
170
     0
176
     1
171
     0
176
     1
290
     0
176
     1
 93
       13
176
     1
 44
0.0
176
     1
173
     0
176
     1
  0
VISUALSTYLE
  5
2C
102
{ACAD_REACTORS
330
2A
102
}
330
2A
100
AcDbVisualStyle
  2
FlatWithEdges
 70
     1
177
     2
291
     1
 71
     2
176
     1
 72
     1
176
     1
 73
     1
176
     1
 90
        2
176
     1
 40
-0.6
176
     1
 41
30.0
176
     1
 62
     5
 63
     7
421
 16777215
176
     1
 74
     1
176
     1
 91
        4
176
     1
 64
     7
176
     1
 65
   257
176
     1
 75
     1
176
     1
175
     1
176
     1
 42
1.0
176
     1
 92
        0
176
     1
 66
   257
176
     1
 43
1.0
176
     1
 76
     1
176
     1
 77
     6
176
     1
 78
     2
176
     1
 67
     7
176
     1
 79
     5
176
     1
170
     0
176
     1
171
     0
176
     1
290
     0
176
     1
 93
       13
176
     1
 44
0.0
176
     1
173
     0
176
     1
  0
VISUALSTYLE
  5
2D
102
{ACAD_REACTORS
330
2A
102
}
330
2A
100
AcDbVisualStyle
  2
Gouraud
 70
     2
177
     2
291
     1
 71
     2
176
     1
 72
     2
176
     1
 73
     1
176
     1
 90
        2
176
     1
 40
-0.6
176
     1
 41
30.0
176
     1
 62
     5
 63
     7
421
 16777215
176
     1
 74
     0
176
     1
 91
        4
176
     1
 64
     7
176
     1
 65
   257
176
     1
 75
     1
176
     1
175
     1
176
     1
 42
1.0
176
     1
 92
        0
176
     1
 66
     7
176
     1
 43
1.0
176
     1
 76
     1
176
     1
 77
     6
176
     1
 78
     2
176
     1
 67
     7
176
     1
 79
     5
176
     1
170
     0
176
     1
171
     0
176
     1
290
     0
176
     1
 93
       13
176
     1
 44
0.0
176
     1
173
     0
176
     1
  0
VISUALSTYLE
  5
2E
102
{ACAD_REACTORS
330
2A
102
}
330
2A
100
AcDbVisualStyle
  2
GouraudWithEdges
 70
     3
177
     2
291
     1
 71
     2
176
     1
 72
     2
176
     1
 73
     1
176
     1
 90
        2
176
     1
 40
-0.6
176
     1
 41
30.0
176
     1
 62
     5
 63
     7
421
 16777215
176
     1
 74
     1
176
     1
 91
        4
176
     1
 64
     7
176
     1
 65
   257
176
     1
 75
     1
176
     1
175
     1
176
     1
 42
1.0
176
     1
 92
        0
176
     1
 66
   257
176
     1
 43
1.0
176
     1
 76
     1
176
     1
 77
     6
176
     1
 78
     2
176
     1
 67
     7
176
     1
 79
     5
176
     1
170
     0
176
     1
171
     0
176
     1
290
     0
176
     1
 93
       13
176
     1
 44
0.0
176
     1
173
     0
176
     1
  0
VISUALSTYLE
  5
38
102
{ACAD_REACTORS
330
2A
102
}
330
2A
100
AcDbVisualStyle
  2
Linepattern
 70
    14
177
     2
291
     1
 71
     2
176
     1
 72
     2
176
     1
 73
     0
176
     1
 90
        0
176
     1
 40
-0.6
176
     1
 41
-30.0
176
     1
 62
     5
 63
     7
421
 16777215
176
     1
 74
     1
176
     1
 91
        4
176
     1
 64
     7
176
     1
 65
   257
176
     1
 75
     7
176
     1
175
     7
176
     1
 42
1.0
176
     1
 92
        8
176
     1
 66
     7
176
     1
 43
1.0
176
     1
 76
     1
176
     1
 77
     6
176
     1
 78
     2
176
     1
 67
     7
176
     1
 79
     5
176
     1
170
     0
176
     1
171
     0
176
     1
290
     0
176
     1
 93
        1
176
     1
 44
0.0
176
     1
173
     0
176
     1
  0
VISUALSTYLE
  5
33
102
{ACAD_REACTORS
330
2A
102
}
330
2A
100
AcDbVisualStyle
  2
Realistic
 70
     8
177
     2
291
     0
 71
     2
176
     1
 72
     2
176
     1
 73
     0
176
     1
 90
        0
176
     1
 40
-0.6
176
     1
 41
-30.0
176
     1
 62
     5
 63
     7
421
 16777215
176
     1
 74
     1
176
     1
 91
        0
176
     1
 64
     7
176
     1
 65
   257
176
     1
 75
     1
176
     1
175
     1
176
     1
 42
1.0
176
     1
 92
        8
176
     1
 66
     8
424
  7895160
176
     1
 43
1.0
176
     1
 76
     1
176
     1
 77
     6
176
     1
 78
     2
176
     1
 67
     7
176
     1
 79
     5
176
     1
170
     0
176
     1
171
     0
176
     1
290
     0
176
     1
 93
       13
176
     1
 44
0.0
176
     1
173
     0
176
     1
  0
VISUALSTYLE
  5
37
102
{ACAD_REACTORS
330
2A
102
}
330
2A
100
AcDbVisualStyle
  2
Thicken
 70
    13
177
     2
291
     1
 71
     2
176
     1
 72
     2
176
     1
 73
     0
176
     1
 90
        0
176
     1
 40
-0.6
176
     1
 41
-30.0
176
     1
 62
     5
 63
     7
421
 16777215
176
     1
 74
     1
176
     1
 91
        4
176
     1
 64
     7
176
     1
 65
   257
176
     1
 75
     1
176
     1
175
     1
176
     1
 42
1.0
176
     1
 92
       12
176
     1
 66
     7
176
     1
 43
1.0
176
     1
 76
     1
176
     1
 77
     6
176
     1
 78
     2
176
     1
 67
     7
176
     1
 79
     5
176
     1
170
     0
176
     1
171
     0
176
     1
290
     0
176
     1
 93
        1
176
     1
 44
0.0
176
     1
173
     0
176
     1
  0
ENDSEC
  0
EOF
