  0
SECTION
  2
HEADER
  9
$ACADVER
  1
AC1024
  9
$ACADMAINTVER
 70
   226
  9
$DWGCODEPAGE
  3
ANSI_932
  9
$INSBASE
 10
0.0
 20
0.0
 30
0.0
  9
$EXTMIN
 10
1.000000000000000E+20
 20
1.000000000000000E+20
 30
1.000000000000000E+20
  9
$EXTMAX
 10
-1.000000000000000E+20
 20
-1.000000000000000E+20
 30
-1.000000000000000E+20
  9
$LIMMIN
 10
0.0
 20
0.0
  9
$LIMMAX
 10
12.0
 20
9.0
  9
$ORTHOMODE
 70
     0
  9
$REGENMODE
 70
     1
  9
$FILLMODE
 70
     1
  9
$QTEXTMODE
 70
     0
  9
$MIRRTEXT
 70
     0
  9
$LTSCALE
 40
1.0
  9
$ATTMODE
 70
     1
  9
$TEXTSIZE
 40
0.2
  9
$TRACEWID
 40
0.05
  9
$TEXTSTYLE
  7
Standard
  9
$CLAYER
  8
0
  9
$CELTYPE
  6
ByLayer
  9
$CECOLOR
 62
   256
  9
$CELTSCALE
 40
1.0
  9
$DISPSILH
 70
     0
  9
$DIMSCALE
 40
1.0
  9
$DIMASZ
 40
0.18
  9
$DIMEXO
 40
0.0625
  9
$DIMDLI
 40
0.38
  9
$DIMRND
 40
0.0
  9
$DIMDLE
 40
0.0
  9
$DIMEXE
 40
0.18
  9
$DIMTP
 40
0.0
  9
$DIMTM
 40
0.0
  9
$DIMTXT
 40
0.18
  9
$DIMCEN
 40
0.09
  9
$DIMTSZ
 40
0.0
  9
$DIMTOL
 70
     0
  9
$DIMLIM
 70
     0
  9
$DIMTIH
 70
     1
  9
$DIMTOH
 70
     1
  9
$DIMSE1
 70
     0
  9
$DIMSE2
 70
     0
  9
$DIMTAD
 70
     0
  9
$DIMZIN
 70
     0
  9
$DIMBLK
  1

  9
$DIMASO
 70
     1
  9
$DIMSHO
 70
     1
  9
$DIMPOST
  1

  9
$DIMAPOST
  1

  9
$DIMALT
 70
     0
  9
$DIMALTD
 70
     2
  9
$DIMALTF
 40
25.4
  9
$DIMLFAC
 40
1.0
  9
$DIMTOFL
 70
     0
  9
$DIMTVP
 40
0.0
  9
$DIMTIX
 70
     0
  9
$DIMSOXD
 70
     0
  9
$DIMSAH
 70
     0
  9
$DIMBLK1
  1

  9
$DIMBLK2
  1

  9
$DIMSTYLE
  2
Standard
  9
$DIMCLRD
 70
     0
  9
$DIMCLRE
 70
     0
  9
$DIMCLRT
 70
     0
  9
$DIMTFAC
 40
1.0
  9
$DIMGAP
 40
0.09
  9
$DIMJUST
 70
     0
  9
$DIMSD1
 70
     0
  9
$DIMSD2
 70
     0
  9
$DIMTOLJ
 70
     1
  9
$DIMTZIN
 70
     0
  9
$DIMALTZ
 70
     0
  9
$DIMALTTZ
 70
     0
  9
$DIMUPT
 70
     0
  9
$DIMDEC
 70
     4
  9
$DIMTDEC
 70
     4
  9
$DIMALTU
 70
     2
  9
$DIMALTTD
 70
     2
  9
$DIMTXSTY
  7
Standard
  9
$DIMAUNIT
 70
     0
  9
$DIMADEC
 70
     0
  9
$DIMALTRND
 40
0.0
  9
$DIMAZIN
 70
     0
  9
$DIMDSEP
 70
    46
  9
$DIMATFIT
 70
     3
  9
$DIMFRAC
 70
     0
  9
$DIMLDRBLK
  1

  9
$DIMLUNIT
 70
     2
  9
$DIMLWD
 70
    -2
  9
$DIMLWE
 70
    -2
  9
$DIMTMOVE
 70
     0
  9
$DIMFXL
 40
1.0
  9
$DIMFXLON
 70
     0
  9
$DIMJOGANG
 40
0.7853981633974483
  9
$DIMTFILL
 70
     0
  9
$DIMTFILLCLR
 70
     0
  9
$DIMARCSYM
 70
     0
  9
$DIMLTYPE
  6

  9
$DIMLTEX1
  6

  9
$DIMLTEX2
  6

  9
$DIMTXTDIRECTION
 70
     0
  9
$LUNITS
 70
     2
  9
$LUPREC
 70
     4
  9
$SKETCHINC
 40
0.1
  9
$FILLETRAD
 40
0.0
  9
$AUNITS
 70
     0
  9
$AUPREC
 70
     0
  9
$MENU
  1
.
  9
$ELEVATION
 40
0.0
  9
$PELEVATION
 40
0.0
  9
$THICKNESS
 40
0.0
  9
$LIMCHECK
 70
     0
  9
$CHAMFERA
 40
0.0
  9
$CHAMFERB
 40
0.0
  9
$CHAMFERC
 40
0.0
  9
$CHAMFERD
 40
0.0
  9
$SKPOLY
 70
     0
  9
$TDCREATE
 40
2459569.503425926
  9
$TDUCREATE
 40
2459569.128425926
  9
$TDUPDATE
 40
2459569.503425926
  9
$TDUUPDATE
 40
2459569.128425926
  9
$TDINDWG
 40
0.0000000000
  9
$TDUSRTIMER
 40
0.0000000000
  9
$USRTIMER
 70
     1
  9
$ANGBASE
 50
0.0
  9
$ANGDIR
 70
     0
  9
$PDMODE
 70
     0
  9
$PDSIZE
 40
0.0
  9
$PLINEWID
 40
0.0
  9
$SPLFRAME
 70
     0
  9
$SPLINETYPE
 70
     6
  9
$SPLINESEGS
 70
     8
  9
$HANDSEED
  5
1B9
  9
$SURFTAB1
 70
     6
  9
$SURFTAB2
 70
     6
  9
$SURFTYPE
 70
     6
  9
$SURFU
 70
     6
  9
$SURFV
 70
     6
  9
$UCSBASE
  2

  9
$UCSNAME
  2

  9
$UCSORG
 10
0.0
 20
0.0
 30
0.0
  9
$UCSXDIR
 10
1.0
 20
0.0
 30
0.0
  9
$UCSYDIR
 10
0.0
 20
1.0
 30
0.0
  9
$UCSORTHOREF
  2

  9
$UCSORTHOVIEW
 70
     0
  9
$UCSORGTOP
 10
0.0
 20
0.0
 30
0.0
  9
$UCSORGBOTTOM
 10
0.0
 20
0.0
 30
0.0
  9
$UCSORGLEFT
 10
0.0
 20
0.0
 30
0.0
  9
$UCSORGRIGHT
 10
0.0
 20
0.0
 30
0.0
  9
$UCSORGFRONT
 10
0.0
 20
0.0
 30
0.0
  9
$UCSORGBACK
 10
0.0
 20
0.0
 30
0.0
  9
$PUCSBASE
  2

  9
$PUCSNAME
  2

  9
$PUCSORG
 10
0.0
 20
0.0
 30
0.0
  9
$PUCSXDIR
 10
1.0
 20
0.0
 30
0.0
  9
$PUCSYDIR
 10
0.0
 20
1.0
 30
0.0
  9
$PUCSORTHOREF
  2

  9
$PUCSORTHOVIEW
 70
     0
  9
$PUCSORGTOP
 10
0.0
 20
0.0
 30
0.0
  9
$PUCSORGBOTTOM
 10
0.0
 20
0.0
 30
0.0
  9
$PUCSORGLEFT
 10
0.0
 20
0.0
 30
0.0
  9
$PUCSORGRIGHT
 10
0.0
 20
0.0
 30
0.0
  9
$PUCSORGFRONT
 10
0.0
 20
0.0
 30
0.0
  9
$PUCSORGBACK
 10
0.0
 20
0.0
 30
0.0
  9
$USERI1
 70
     0
  9
$USERI2
 70
     0
  9
$USERI3
 70
     0
  9
$USERI4
 70
     0
  9
$USERI5
 70
     0
  9
$USERR1
 40
0.0
  9
$USERR2
 40
0.0
  9
$USERR3
 40
0.0
  9
$USERR4
 40
0.0
  9
$USERR5
 40
0.0
  9
$WORLDVIEW
 70
     1
  9
$SHADEDGE
 70
     3
  9
$SHADEDIF
 70
    70
  9
$TILEMODE
 70
     1
  9
$MAXACTVP
 70
    64
  9
$PINSBASE
 10
0.0
 20
0.0
 30
0.0
  9
$PLIMCHECK
 70
     0
  9
$PEXTMIN
 10
1.000000000000000E+20
 20
1.000000000000000E+20
 30
1.000000000000000E+20
  9
$PEXTMAX
 10
-1.000000000000000E+20
 20
-1.000000000000000E+20
 30
-1.000000000000000E+20
  9
$PLIMMIN
 10
0.0
 20
0.0
  9
$PLIMMAX
 10
12.0
 20
9.0
  9
$UNITMODE
 70
     0
  9
$VISRETAIN
 70
     1
  9
$PLINEGEN
 70
     0
  9
$PSLTSCALE
 70
     1
  9
$TREEDEPTH
 70
  3020
  9
$CMLSTYLE
  2
Standard
  9
$CMLJUST
 70
     0
  9
$CMLSCALE
 40
1.0
  9
$PROXYGRAPHICS
 70
     1
  9
$MEASUREMENT
 70
     0
  9
$CELWEIGHT
370
    -1
  9
$ENDCAPS
280
     0
  9
$JOINSTYLE
280
     0
  9
$LWDISPLAY
290
     1
  9
$INSUNITS
 70
     4
  9
$HYPERLINKBASE
  1

  9
$STYLESHEET
  1

  9
$XEDIT
290
     1
  9
$CEPSNTYPE
380
     0
  9
$PSTYLEMODE
290
     1
  9
$FINGERPRINTGUID
  2
{401C5EAD-7460-B940-A06C-9410695EC893}
  9
$VERSIONGUID
  2
{1DFA3175-2480-3C4E-B401-5CC825BF7891}
  9
$EXTNAMES
290
     1
  9
$PSVPSCALE
 40
0.0
  9
$OLESTARTUP
290
     0
  9
$SORTENTS
280
   127
  9
$INDEXCTL
280
     0
  9
$HIDETEXT
280
     1
  9
$XCLIPFRAME
280
     2
  9
$HALOGAP
280
     0
  9
$OBSCOLOR
 70
   257
  9
$OBSLTYPE
280
     0
  9
$INTERSECTIONDISPLAY
280
     0
  9
$INTERSECTIONCOLOR
 70
   257
  9
$DIMASSOC
280
     2
  9
$PROJECTNAME
  1

  9
$CAMERADISPLAY
290
     0
  9
$LENSLENGTH
 40
50.0
  9
$CAMERAHEIGHT
 40
0.0
  9
$STEPSPERSEC
 40
2.0
  9
$STEPSIZE
 40
6.0
  9
$3DDWFPREC
 40
2.0
  9
$PSOLWIDTH
 40
0.25
  9
$PSOLHEIGHT
 40
4.0
  9
$LOFTANG1
 40
1.570796326794896
  9
$LOFTANG2
 40
1.570796326794896
  9
$LOFTMAG1
 40
0.0
  9
$LOFTMAG2
 40
0.0
  9
$LOFTPARAM
 70
     7
  9
$LOFTNORMALS
280
     1
  9
$LATITUDE
 40
37.795
  9
$LONGITUDE
 40
-122.394
  9
$NORTHDIRECTION
 40
0.0
  9
$TIMEZONE
 70
 -8000
  9
$LIGHTGLYPHDISPLAY
280
     1
  9
$TILEMODELIGHTSYNCH
280
     1
  9
$CMATERIAL
347
11
  9
$SOLIDHIST
280
     0
  9
$SHOWHIST
280
     1
  9
$DWFFRAME
280
     2
  9
$DGNFRAME
280
     0
  9
$REALWORLDSCALE
290
     1
  9
$INTERFERECOLOR
 62
     1
  9
$INTERFEREOBJVS
345
33
  9
$INTERFEREVPVS
346
30
  9
$CSHADOW
280
     0
  9
$SHADOWPLANELOCATION
 40
0.0
  0
ENDSEC
  0
SECTION
  2
CLASSES
  0
CLASS
  1
ACDBDICTIONARYWDFLT
  2
AcDbDictionaryWithDefault
  3
ObjectDBX Classes
 90
        0
 91
        1
280
     0
281
     0
  0
CLASS
  1
MATERIAL
  2
AcDbMaterial
  3
ObjectDBX Classes
 90
     1153
 91
        3
280
     0
281
     0
  0
CLASS
  1
VISUALSTYLE
  2
AcDbVisualStyle
  3
ObjectDBX Classes
 90
     4095
 91
       24
280
     0
281
     0
  0
CLASS
  1
SCALE
  2
AcDbScale
  3
ObjectDBX Classes
 90
     1153
 91
       17
280
     0
281
     0
  0
CLASS
  1
TABLESTYLE
  2
AcDbTableStyle
  3
ObjectDBX Classes
 90
     4095
 91
        1
280
     0
281
     0
  0
CLASS
  1
MLEADERSTYLE
  2
AcDbMLeaderStyle
  3
ACDB_MLEADERSTYLE_CLASS
 90
     4095
 91
        1
280
     0
281
     0
  0
CLASS
  1
ACDBSECTIONVIEWSTYLE
  2
AcDbSectionViewStyle
  3
ObjectDBX Classes
 90
     1025
 91
        1
280
     0
281
     0
  0
CLASS
  1
ACDBDETAILVIEWSTYLE
  2
AcDbDetailViewStyle
  3
ObjectDBX Classes
 90
     1025
 91
        1
280
     0
281
     0
  0
CLASS
  1
DICTIONARYVAR
  2
AcDbDictionaryVar
  3
ObjectDBX Classes
 90
        0
 91
        5
280
     0
281
     0
  0
CLASS
  1
CELLSTYLEMAP
  2
AcDbCellStyleMap
  3
ObjectDBX Classes
 90
     1152
 91
        1
280
     0
281
     0
  0
ENDSEC
  0
SECTION
  2
TABLES
  0
TABLE
  2
VPORT
  5
8
330
0
100
AcDbSymbolTable
 70
     1
  0
VPORT
  5
57
330
8
100
AcDbSymbolTableRecord
100
AcDbViewportTableRecord
  2
*Active
 70
     0
 10
0.0
 20
0.0
 11
1.0
 21
1.0
 12
0.0
 22
0.0
 13
0.0
 23
0.0
 14
1.0
 24
1.0
 15
0.0
 25
0.0
 16
0.0
 26
0.0
 36
1.0
 17
104.9999999737534
 27
-148.4999999628701
 37
0.0
 40
302.939999924255
 41
0.7070707070707534
 42
50.0
 43
0.0
 44
0.0
 50
0.0
 51
0.0
 71
     0
 72
   100
 73
     1
 74
     0
 75
     1
 76
     0
 77
     0
 78
     0
281
     0
 65
     1
110
0.0
120
0.0
130
0.0
111
1.0
121
0.0
131
0.0
112
0.0
122
1.0
132
0.0
 79
     0
146
0.0
 60
     3
 61
     5
292
     1
282
     1
141
0.0
142
0.0
 63
   250
421
  3355443
  0
ENDTAB
  0
TABLE
  2
LTYPE
  5
5
330
0
100
AcDbSymbolTable
 70
     2
  0
LTYPE
  5
5B
330
5
100
AcDbSymbolTableRecord
100
AcDbLinetypeTableRecord
  2
ByBlock
 70
     0
  3

 72
    65
 73
     0
 40
0.0
  0
LTYPE
  5
5C
330
5
100
AcDbSymbolTableRecord
100
AcDbLinetypeTableRecord
  2
ByLayer
 70
     0
  3

 72
    65
 73
     0
 40
0.0
  0
LTYPE
  5
5D
330
5
100
AcDbSymbolTableRecord
100
AcDbLinetypeTableRecord
  2
Continuous
 70
     0
  3
Solid line
 72
    65
 73
     0
 40
0.0
  0
LTYPE
  5
B1
330
5
100
AcDbSymbolTableRecord
100
AcDbLinetypeTableRecord
  2
AI-Linetype-0
 70
     0
  3
Adobe Illustrator Linetype No. 0
 72
    65
 73
     2
 40
1.411111110758333
 49
0.7055555553791667
 74
     0
 49
-0.7055555553791667
 74
     0
  0
ENDTAB
  0
TABLE
  2
LAYER
  5
2
330
0
100
AcDbSymbolTable
 70
     2
  0
LAYER
  5
54
330
2
100
AcDbSymbolTableRecord
100
AcDbLayerTableRecord
  2
0
 70
     0
 62
     7
  6
Continuous
370
    -3
390
F
347
21
  0
LAYER
  5
78
330
2
100
AcDbSymbolTableRecord
100
AcDbLayerTableRecord
  2
レイヤー 1
 70
     0
 62
     7
  6
Continuous
370
     0
390
F
347
21
  0
ENDTAB
  0
TABLE
  2
STYLE
  5
3
330
0
100
AcDbSymbolTable
 70
     2
  0
STYLE
  5
55
330
3
100
AcDbSymbolTableRecord
100
AcDbTextStyleTableRecord
  2
Standard
 70
     0
 40
0.0
 41
1.0
 50
0.0
 71
     0
 42
0.2
  3
txt
  4

  0
STYLE
  5
5A
330
3
100
AcDbSymbolTableRecord
100
AcDbTextStyleTableRecord
  2
Annotative
 70
     0
 40
0.0
 41
1.0
 50
0.0
 71
     0
 42
0.2
  3
txt
  4

1001
AcadAnnotative
1000
AnnotativeData
1002
{
1070
     1
1070
     1
1002
}
  0
ENDTAB
  0
TABLE
  2
VIEW
  5
6
330
0
100
AcDbSymbolTable
 70
     0
  0
ENDTAB
  0
TABLE
  2
UCS
  5
7
330
0
100
AcDbSymbolTable
 70
     0
  0
ENDTAB
  0
TABLE
  2
APPID
  5
9
330
0
100
AcDbSymbolTable
 70
     2
  0
APPID
  5
56
330
9
100
AcDbSymbolTableRecord
100
AcDbRegAppTableRecord
  2
ACAD
 70
     0
  0
APPID
  5
5E
330
9
100
AcDbSymbolTableRecord
100
AcDbRegAppTableRecord
  2
AcadAnnotative
 70
     0
  0
ENDTAB
  0
TABLE
  2
DIMSTYLE
  5
A
330
0
100
AcDbSymbolTable
 70
     2
100
AcDbDimStyleTable
 71
     0
  0
DIMSTYLE
105
58
330
A
100
AcDbSymbolTableRecord
100
AcDbDimStyleTableRecord
  2
Standard
 70
     0
340
55
  0
DIMSTYLE
105
59
330
A
100
AcDbSymbolTableRecord
100
AcDbDimStyleTableRecord
  2
Annotative
 70
     0
340
55
1001
AcadAnnotative
1000
AnnotativeData
1002
{
1070
     1
1070
     1
1002
}
  0
ENDTAB
  0
TABLE
  2
BLOCK_RECORD
  5
1
330
0
100
AcDbSymbolTable
 70
    18
  0
BLOCK_RECORD
  5
70
330
1
100
AcDbSymbolTableRecord
100
AcDbBlockTableRecord
  2
*Model_Space
340
73
 70
     0
280
     1
281
     0
  0
BLOCK_RECORD
  5
6C
330
1
100
AcDbSymbolTableRecord
100
AcDbBlockTableRecord
  2
*Paper_Space
340
6F
 70
     0
280
     1
281
     0
  0
BLOCK_RECORD
  5
74
330
1
100
AcDbSymbolTableRecord
100
AcDbBlockTableRecord
  2
*Paper_Space0
340
77
 70
     0
280
     1
281
     0
  0
BLOCK_RECORD
  5
79
330
1
100
AcDbSymbolTableRecord
100
AcDbBlockTableRecord
  2
Block_0
340
0
102
{BLKREFS
331
7A
102
}
 70
     0
280
     1
281
     0
  0
BLOCK_RECORD
  5
7D
330
1
100
AcDbSymbolTableRecord
100
AcDbBlockTableRecord
  2
Block_1
340
0
102
{BLKREFS
331
7E
102
}
 70
     0
280
     1
281
     0
  0
BLOCK_RECORD
  5
81
330
1
100
AcDbSymbolTableRecord
100
AcDbBlockTableRecord
  2
Block_2
340
0
102
{BLKREFS
331
82
102
}
 70
     0
280
     1
281
     0
  0
BLOCK_RECORD
  5
AB
330
1
100
AcDbSymbolTableRecord
100
AcDbBlockTableRecord
  2
Block_3
340
0
102
{BLKREFS
331
AC
102
}
 70
     0
280
     1
281
     0
  0
BLOCK_RECORD
  5
B2
330
1
100
AcDbSymbolTableRecord
100
AcDbBlockTableRecord
  2
Block_4
340
0
102
{BLKREFS
331
B3
102
}
 70
     0
280
     1
281
     0
  0
BLOCK_RECORD
  5
11D
330
1
100
AcDbSymbolTableRecord
100
AcDbBlockTableRecord
  2
Block_5
340
0
102
{BLKREFS
331
11E
102
}
 70
     0
280
     1
281
     0
  0
BLOCK_RECORD
  5
121
330
1
100
AcDbSymbolTableRecord
100
AcDbBlockTableRecord
  2
Block_6
340
0
102
{BLKREFS
331
122
102
}
 70
     0
280
     1
281
     0
  0
BLOCK_RECORD
  5
12E
330
1
100
AcDbSymbolTableRecord
100
AcDbBlockTableRecord
  2
Block_7
340
0
102
{BLKREFS
331
12F
102
}
 70
     0
280
     1
281
     0
  0
BLOCK_RECORD
  5
132
330
1
100
AcDbSymbolTableRecord
100
AcDbBlockTableRecord
  2
Block_8
340
0
102
{BLKREFS
331
133
102
}
 70
     0
280
     1
281
     0
  0
BLOCK_RECORD
  5
13C
330
1
100
AcDbSymbolTableRecord
100
AcDbBlockTableRecord
  2
Block_9
340
0
102
{BLKREFS
331
13D
102
}
 70
     0
280
     1
281
     0
  0
BLOCK_RECORD
  5
146
330
1
100
AcDbSymbolTableRecord
100
AcDbBlockTableRecord
  2
Block_10
340
0
102
{BLKREFS
331
147
102
}
 70
     0
280
     1
281
     0
  0
BLOCK_RECORD
  5
14A
330
1
100
AcDbSymbolTableRecord
100
AcDbBlockTableRecord
  2
Block_11
340
0
102
{BLKREFS
331
14B
102
}
 70
     0
280
     1
281
     0
  0
BLOCK_RECORD
  5
155
330
1
100
AcDbSymbolTableRecord
100
AcDbBlockTableRecord
  2
Block_12
340
0
102
{BLKREFS
331
156
102
}
 70
     0
280
     1
281
     0
  0
BLOCK_RECORD
  5
159
330
1
100
AcDbSymbolTableRecord
100
AcDbBlockTableRecord
  2
Block_13
340
0
102
{BLKREFS
331
15A
102
}
 70
     0
280
     1
281
     0
  0
BLOCK_RECORD
  5
167
330
1
100
AcDbSymbolTableRecord
100
AcDbBlockTableRecord
  2
Block_14
340
0
102
{BLKREFS
331
168
102
}
 70
     0
280
     1
281
     0
  0
BLOCK_RECORD
  5
16B
330
1
100
AcDbSymbolTableRecord
100
AcDbBlockTableRecord
  2
Block_15
340
0
102
{BLKREFS
331
16C
102
}
 70
     0
280
     1
281
     0
  0
BLOCK_RECORD
  5
174
330
1
100
AcDbSymbolTableRecord
100
AcDbBlockTableRecord
  2
Block_16
340
0
102
{BLKREFS
331
175
102
}
 70
     0
280
     1
281
     0
  0
ENDTAB
  0
ENDSEC
  0
SECTION
  2
BLOCKS
  0
BLOCK
  5
71
330
70
100
AcDbEntity
  8
0
100
AcDbBlockBegin
  2
*Model_Space
 70
     0
 10
0.0
 20
0.0
 30
0.0
  3
*Model_Space
  1

  0
ENDBLK
  5
72
330
70
100
AcDbEntity
  8
0
100
AcDbBlockEnd
  0
BLOCK
  5
6D
330
6C
100
AcDbEntity
 67
     1
  8
0
100
AcDbBlockBegin
  2
*Paper_Space
 70
     0
 10
0.0
 20
0.0
 30
0.0
  3
*Paper_Space
  1

  0
ENDBLK
  5
6E
330
6C
100
AcDbEntity
 67
     1
  8
0
100
AcDbBlockEnd
  0
BLOCK
  5
75
330
74
100
AcDbEntity
 67
     1
  8
0
100
AcDbBlockBegin
  2
*Paper_Space0
 70
     0
 10
0.0
 20
0.0
 30
0.0
  3
*Paper_Space0
  1

  0
ENDBLK
  5
76
330
74
100
AcDbEntity
 67
     1
  8
0
100
AcDbBlockEnd
  0
BLOCK
  5
7B
330
79
100
AcDbEntity
  8
0
100
AcDbBlockBegin
  2
Block_0
 70
     0
 10
0.0
 20
0.0
 30
0.0
  3
Block_0
  1

  0
INSERT
  5
7E
330
79
100
AcDbEntity
  8
レイヤー 1
100
AcDbBlockReference
  2
Block_1
 10
0.0
 20
0.0
 30
0.0
  0
INSERT
  5
AC
330
79
100
AcDbEntity
  8
レイヤー 1
100
AcDbBlockReference
  2
Block_3
 10
0.0
 20
0.0
 30
0.0
  0
ENDBLK
  5
7C
330
79
100
AcDbEntity
  8
0
100
AcDbBlockEnd
  0
BLOCK
  5
7F
330
7D
100
AcDbEntity
  8
0
100
AcDbBlockBegin
  2
Block_1
 70
     0
 10
0.0
 20
0.0
 30
0.0
  3
Block_1
  1

  0
INSERT
  5
82
330
7D
100
AcDbEntity
  8
レイヤー 1
100
AcDbBlockReference
  2
Block_2
 10
0.0
 20
0.0
 30
0.0
  0
ENDBLK
  5
80
330
7D
100
AcDbEntity
  8
0
100
AcDbBlockEnd
  0
BLOCK
  5
83
330
81
100
AcDbEntity
  8
0
100
AcDbBlockBegin
  2
Block_2
 70
     0
 10
0.0
 20
0.0
 30
0.0
  3
Block_2
  1

  0
SPLINE
  5
85
330
81
100
AcDbEntity
  8
レイヤー 1
100
AcDbSpline
210
0.0
220
0.0
230
1.0
 70
     9
 71
     3
 72
    17
 73
    13
 74
     0
 42
0.0000000001
 43
0.0000000001
 40
0.0
 40
0.0
 40
0.0
 40
0.0
 40
1.0
 40
1.0
 40
1.0
 40
2.0
 40
2.0
 40
2.0
 40
3.0
 40
3.0
 40
3.0
 40
4.0
 40
4.0
 40
4.0
 40
4.0
 10
126.3099473425544
 20
-149.028285010486
 30
0.0
 10
126.1914360578618
 20
-148.9163194072154
 30
0.0
 10
126.0991074988571
 20
-148.8525851407382
 30
0.0
 10
125.9954101247511
 20
-148.7891953838096
 30
0.0
 10
125.9954101247511
 20
-148.7891953838096
 30
0.0
 10
126.1063421993762
 20
-148.6770575257648
 30
0.0
 10
126.1063421993762
 20
-148.6770575257648
 30
0.0
 10
126.221063879035
 20
-148.7235663148156
 30
0.0
 10
126.317526552622
 20
-148.7807548998708
 30
0.0
 10
126.4267360795044
 20
-148.8822129619114
 30
0.0
 10
126.4267360795044
 20
-148.8822129619114
 30
0.0
 10
126.3099473425544
 20
-149.028285010486
 30
0.0
 10
126.3099473425544
 20
-149.028285010486
 30
0.0
  0
SPLINE
  5
86
330
81
100
AcDbEntity
  8
レイヤー 1
100
AcDbSpline
210
0.0
220
0.0
230
1.0
 70
     9
 71
     3
 72
    20
 73
    16
 74
     0
 42
0.0000000001
 43
0.0000000001
 40
0.0
 40
0.0
 40
0.0
 40
0.0
 40
1.0
 40
1.0
 40
1.0
 40
2.0
 40
2.0
 40
2.0
 40
3.0
 40
3.0
 40
3.0
 40
4.0
 40
4.0
 40
4.0
 40
5.0
 40
5.0
 40
5.0
 40
5.0
 10
125.8193657454549
 20
-147.9725354990311
 30
0.0
 10
125.7859483192479
 20
-148.0212836001474
 30
0.0
 10
125.7325493392266
 20
-148.0994872676626
 30
0.0
 10
125.6102484495002
 20
-148.2095580684163
 30
0.0
 10
125.6805283973993
 20
-148.2136921829986
 30
0.0
 10
125.7063666135387
 20
-148.2136921829986
 30
0.0
 10
125.7266926769016
 20
-148.2136921829986
 30
0.0
 10
125.7266926769016
 20
-148.2136921829986
 30
0.0
 10
125.9268527245946
 20
-148.2136921829986
 30
0.0
 10
125.9268527245946
 20
-148.2136921829986
 30
0.0
 10
125.9544134884766
 20
-148.2136921829986
 30
0.0
 10
125.9971326724937
 20
-148.2116251257075
 30
0.0
 10
126.0619004676165
 20
-148.2095580684163
 30
0.0
 10
125.9637152462868
 20
-148.1354885154835
 30
0.0
 10
125.9213405718182
 20
-148.0889797264326
 30
0.0
 10
125.8193657454549
 20
-147.9725354990311
 30
0.0
  0
SPLINE
  5
87
330
81
100
AcDbEntity
  8
レイヤー 1
100
AcDbSpline
210
0.0
220
0.0
230
1.0
 70
     9
 71
     3
 72
    23
 73
    19
 74
     0
 42
0.0000000001
 43
0.0000000001
 40
0.0
 40
0.0
 40
0.0
 40
0.0
 40
1.0
 40
1.0
 40
1.0
 40
2.0
 40
2.0
 40
2.0
 40
3.0
 40
3.0
 40
3.0
 40
4.0
 40
4.0
 40
4.0
 40
5.0
 40
5.0
 40
5.0
 40
6.0
 40
6.0
 40
6.0
 40
6.0
 10
125.5582275076729
 20
-148.8145168356262
 30
0.0
 10
125.5396239920526
 20
-148.8377712301516
 30
0.0
 10
125.4545301335669
 20
-148.9500813429708
 30
0.0
 10
125.3322292438405
 20
-149.0303520677771
 30
0.0
 10
125.3322292438405
 20
-149.0303520677771
 30
0.0
 10
125.1861571952659
 20
-148.9097737257934
 30
0.0
 10
125.1861571952659
 20
-148.9097737257934
 30
0.0
 10
125.3177598428025
 20
-148.8336371155694
 30
0.0
 10
125.4045762490308
 20
-148.7383802254022
 30
0.0
 10
125.4472954330479
 20
-148.6854980097036
 30
0.0
 10
125.4472954330479
 20
-148.6854980097036
 30
0.0
 10
125.5988796343989
 20
-148.7680080465753
 30
0.0
 10
125.5988796343989
 20
-148.7680080465753
 30
0.0
 10
125.6064588444664
 20
-148.7721421611576
 30
0.0
 10
125.614038054534
 20
-148.7785155878053
 30
0.0
 10
125.614038054534
 20
-148.7891953838096
 30
0.0
 10
125.614038054534
 20
-148.8145168356262
 30
0.0
 10
125.5823431760697
 20
-148.8145168356262
 30
0.0
 10
125.5582275076729
 20
-148.8145168356262
 30
0.0
  0
SPLINE
  5
88
330
81
100
AcDbEntity
  8
レイヤー 1
100
AcDbSpline
210
0.0
220
0.0
230
1.0
 70
     9
 71
     3
 72
    17
 73
    13
 74
     0
 42
0.0000000001
 43
0.0000000001
 40
0.0
 40
0.0
 40
0.0
 40
0.0
 40
1.0
 40
1.0
 40
1.0
 40
2.0
 40
2.0
 40
2.0
 40
3.0
 40
3.0
 40
3.0
 40
4.0
 40
4.0
 40
4.0
 40
4.0
 10
125.1620415268692
 20
-148.1099948088926
 30
0.0
 10
125.1082980372993
 20
-148.0338581986686
 30
0.0
 10
124.9952989053831
 20
-147.9577215884446
 30
0.0
 10
124.904692894121
 20
-147.9280937672714
 30
0.0
 10
124.904692894121
 20
-147.9280937672714
 30
0.0
 10
124.9880642048641
 20
-147.763073693528
 30
0.0
 10
124.9880642048641
 20
-147.763073693528
 30
0.0
 10
125.0769476683835
 20
-147.7990749413488
 30
0.0
 10
125.1696207369367
 20
-147.856263526404
 30
0.0
 10
125.2471353853549
 20
-147.9365342512103
 30
0.0
 10
125.2471353853549
 20
-147.9365342512103
 30
0.0
 10
125.1620415268692
 20
-148.1099948088926
 30
0.0
 10
125.1620415268692
 20
-148.1099948088926
 30
0.0
  0
SPLINE
  5
89
330
81
100
AcDbEntity
  8
レイヤー 1
100
AcDbSpline
210
0.0
220
0.0
230
1.0
 70
     9
 71
     3
 72
    23
 73
    19
 74
     0
 42
0.0000000001
 43
0.0000000001
 40
0.0
 40
0.0
 40
0.0
 40
0.0
 40
1.0
 40
1.0
 40
1.0
 40
2.0
 40
2.0
 40
2.0
 40
3.0
 40
3.0
 40
3.0
 40
4.0
 40
4.0
 40
4.0
 40
5.0
 40
5.0
 40
5.0
 40
6.0
 40
6.0
 40
6.0
 40
6.0
 10
124.9398328680706
 20
-149.0048583611863
 30
0.0
 10
124.9398328680706
 20
-149.0262179531948
 30
0.0
 10
124.9415554158132
 20
-149.0641140035326
 30
0.0
 10
124.9195068047076
 20
-149.0641140035326
 30
0.0
 10
124.9102050468974
 20
-149.0641140035326
 30
0.0
 10
124.9029703463784
 20
-149.0579128316591
 30
0.0
 10
124.8936685885682
 20
-149.0410318637814
 30
0.0
 10
124.8936685885682
 20
-149.0410318637814
 30
0.0
 10
124.8027180677576
 20
-148.8589585673859
 30
0.0
 10
124.8027180677576
 20
-148.8589585673859
 30
0.0
 10
124.9918538098979
 20
-148.7299397414633
 30
0.0
 10
125.1637640746118
 20
-148.452781809675
 30
0.0
 10
125.2047607108863
 20
-148.3807793140333
 30
0.0
 10
125.2047607108863
 20
-148.3807793140333
 30
0.0
 10
125.2674614487178
 20
-148.5606132983633
 30
0.0
 10
125.2674614487178
 20
-148.5606132983633
 30
0.0
 10
125.1510172213164
 20
-148.7573282505711
 30
0.0
 10
124.9973659626743
 20
-148.9414686042577
 30
0.0
 10
124.9398328680706
 20
-149.0048583611863
 30
0.0
  0
SPLINE
  5
8A
330
81
100
AcDbEntity
  8
レイヤー 1
100
AcDbSpline
210
0.0
220
0.0
230
1.0
 70
     9
 71
     3
 72
   182
 73
   178
 74
     0
 42
0.0000000001
 43
0.0000000001
 40
0.0
 40
0.0
 40
0.0
 40
0.0
 40
1.0
 40
1.0
 40
1.0
 40
2.0
 40
2.0
 40
2.0
 40
3.0
 40
3.0
 40
3.0
 40
4.0
 40
4.0
 40
4.0
 40
5.0
 40
5.0
 40
5.0
 40
6.0
 40
6.0
 40
6.0
 40
7.0
 40
7.0
 40
7.0
 40
8.0
 40
8.0
 40
8.0
 40
9.0
 40
9.0
 40
9.0
 40
10.0
 40
10.0
 40
10.0
 40
11.0
 40
11.0
 40
11.0
 40
12.0
 40
12.0
 40
12.0
 40
13.0
 40
13.0
 40
13.0
 40
14.0
 40
14.0
 40
14.0
 40
15.0
 40
15.0
 40
15.0
 40
16.0
 40
16.0
 40
16.0
 40
17.0
 40
17.0
 40
17.0
 40
18.0
 40
18.0
 40
18.0
 40
19.0
 40
19.0
 40
19.0
 40
20.0
 40
20.0
 40
20.0
 40
21.0
 40
21.0
 40
21.0
 40
22.0
 40
22.0
 40
22.0
 40
23.0
 40
23.0
 40
23.0
 40
24.0
 40
24.0
 40
24.0
 40
25.0
 40
25.0
 40
25.0
 40
26.0
 40
26.0
 40
26.0
 40
27.0
 40
27.0
 40
27.0
 40
28.0
 40
28.0
 40
28.0
 40
29.0
 40
29.0
 40
29.0
 40
30.0
 40
30.0
 40
30.0
 40
31.0
 40
31.0
 40
31.0
 40
32.0
 40
32.0
 40
32.0
 40
33.0
 40
33.0
 40
33.0
 40
34.0
 40
34.0
 40
34.0
 40
35.0
 40
35.0
 40
35.0
 40
36.0
 40
36.0
 40
36.0
 40
37.0
 40
37.0
 40
37.0
 40
38.0
 40
38.0
 40
38.0
 40
39.0
 40
39.0
 40
39.0
 40
40.0
 40
40.0
 40
40.0
 40
41.0
 40
41.0
 40
41.0
 40
42.0
 40
42.0
 40
42.0
 40
43.0
 40
43.0
 40
43.0
 40
44.0
 40
44.0
 40
44.0
 40
45.0
 40
45.0
 40
45.0
 40
46.0
 40
46.0
 40
46.0
 40
47.0
 40
47.0
 40
47.0
 40
48.0
 40
48.0
 40
48.0
 40
49.0
 40
49.0
 40
49.0
 40
50.0
 40
50.0
 40
50.0
 40
51.0
 40
51.0
 40
51.0
 40
52.0
 40
52.0
 40
52.0
 40
53.0
 40
53.0
 40
53.0
 40
54.0
 40
54.0
 40
54.0
 40
55.0
 40
55.0
 40
55.0
 40
56.0
 40
56.0
 40
56.0
 40
57.0
 40
57.0
 40
57.0
 40
58.0
 40
58.0
 40
58.0
 40
59.0
 40
59.0
 40
59.0
 40
59.0
 10
125.9192735145271
 20
-149.6332437776958
 30
0.0
 10
125.9192735145271
 20
-149.6332437776958
 30
0.0
 10
125.3618570650137
 20
-149.6332437776958
 30
0.0
 10
125.3618570650137
 20
-149.6332437776958
 30
0.0
 10
125.1751328897132
 20
-149.6332437776958
 30
0.0
 10
124.9859971475729
 20
-149.6377224018267
 30
0.0
 10
124.7989284627239
 20
-149.6501247455736
 30
0.0
 10
124.7989284627239
 20
-149.6501247455736
 30
0.0
 10
124.7989284627239
 20
-149.4430745069101
 30
0.0
 10
124.7989284627239
 20
-149.4430745069101
 30
0.0
 10
124.9935763576405
 20
-149.4554768506569
 30
0.0
 10
125.276763206528
 20
-149.4599554747878
 30
0.0
 10
125.3618570650137
 20
-149.4599554747878
 30
0.0
 10
125.3618570650137
 20
-149.4599554747878
 30
0.0
 10
125.5547824121877
 20
-149.4599554747878
 30
0.0
 10
125.5547824121877
 20
-149.4599554747878
 30
0.0
 10
125.5547824121877
 20
-149.4599554747878
 30
0.0
 10
125.5547824121877
 20
-149.3180175407955
 30
0.0
 10
125.5547824121877
 20
-149.3180175407955
 30
0.0
 10
125.5547824121877
 20
-149.3180175407955
 30
0.0
 10
125.413878006841
 20
-149.3180175407955
 30
0.0
 10
125.413878006841
 20
-149.3180175407955
 30
0.0
 10
125.269528506009
 20
-149.3180175407955
 30
0.0
 10
125.1248344956285
 20
-149.3224961649263
 30
0.0
 10
124.9804849947965
 20
-149.3373100755129
 30
0.0
 10
124.9804849947965
 20
-149.3373100755129
 30
0.0
 10
124.9804849947965
 20
-149.1278482700097
 30
0.0
 10
124.9804849947965
 20
-149.1278482700097
 30
0.0
 10
125.1306911579534
 20
-149.1426621805963
 30
0.0
 10
125.3473876639756
 20
-149.1467962951785
 30
0.0
 10
125.413878006841
 20
-149.1467962951785
 30
0.0
 10
125.413878006841
 20
-149.1467962951785
 30
0.0
 10
125.5547824121877
 20
-149.1467962951785
 30
0.0
 10
125.5547824121877
 20
-149.1467962951785
 30
0.0
 10
125.5509928071539
 20
-149.0747937995369
 30
0.0
 10
125.5509928071539
 20
-149.0685926276634
 30
0.0
 10
125.5454806543775
 20
-149.0155381571906
 30
0.0
 10
125.5454806543775
 20
-149.0155381571906
 30
0.0
 10
125.6674370345553
 20
-149.0303520677771
 30
0.0
 10
125.6674370345553
 20
-149.0303520677771
 30
0.0
 10
125.6674370345553
 20
-149.0303520677771
 30
0.0
 10
125.580620628327
 20
-148.8589585673859
 30
0.0
 10
125.580620628327
 20
-148.8589585673859
 30
0.0
 10
125.621272755053
 20
-148.8653319940337
 30
0.0
 10
125.6860405501757
 20
-148.8739447327468
 30
0.0
 10
125.7008544607623
 20
-148.8739447327468
 30
0.0
 10
125.745296192522
 20
-148.8739447327468
 30
0.0
 10
125.7601101031086
 20
-148.8525851407382
 30
0.0
 10
125.7601101031086
 20
-148.7955688104573
 30
0.0
 10
125.7601101031086
 20
-148.7955688104573
 30
0.0
 10
125.7601101031086
 20
-148.6579372458216
 30
0.0
 10
125.7601101031086
 20
-148.6579372458216
 30
0.0
 10
125.7601101031086
 20
-148.6579372458216
 30
0.0
 10
125.6674370345553
 20
-148.6579372458216
 30
0.0
 10
125.6674370345553
 20
-148.6579372458216
 30
0.0
 10
125.5509928071539
 20
-148.6579372458216
 30
0.0
 10
125.413878006841
 20
-148.6579372458216
 30
0.0
 10
125.3063910277012
 20
-148.670684099117
 30
0.0
 10
125.3063910277012
 20
-148.670684099117
 30
0.0
 10
125.3063910277012
 20
-148.480342573557
 30
0.0
 10
125.3063910277012
 20
-148.480342573557
 30
0.0
 10
125.4528075858243
 20
-148.4972235414347
 30
0.0
 10
125.6546901812599
 20
-148.4992905987259
 30
0.0
 10
125.6674370345553
 20
-148.4992905987259
 30
0.0
 10
125.6674370345553
 20
-148.4992905987259
 30
0.0
 10
125.7601101031086
 20
-148.4992905987259
 30
0.0
 10
125.7601101031086
 20
-148.4992905987259
 30
0.0
 10
125.7601101031086
 20
-148.4992905987259
 30
0.0
 10
125.7601101031086
 20
-148.3682047155121
 30
0.0
 10
125.7601101031086
 20
-148.3682047155121
 30
0.0
 10
125.7601101031086
 20
-148.3682047155121
 30
0.0
 10
125.7266926769016
 20
-148.3682047155121
 30
0.0
 10
125.7266926769016
 20
-148.3682047155121
 30
0.0
 10
125.6877630979183
 20
-148.3682047155121
 30
0.0
 10
125.5785535710359
 20
-148.3723388300944
 30
0.0
 10
125.5010389226178
 20
-148.3807793140333
 30
0.0
 10
125.5010389226178
 20
-148.3807793140333
 30
0.0
 10
125.5010389226178
 20
-148.3005085892269
 30
0.0
 10
125.5010389226178
 20
-148.3005085892269
 30
0.0
 10
125.4545301335669
 20
-148.338576894339
 30
0.0
 10
125.4324815224613
 20
-148.3533908049255
 30
0.0
 10
125.3952744912206
 20
-148.376645199451
 30
0.0
 10
125.3952744912206
 20
-148.376645199451
 30
0.0
 10
125.2305989270257
 20
-148.2476263735284
 30
0.0
 10
125.2305989270257
 20
-148.2476263735284
 30
0.0
 10
125.2991563271821
 20
-148.2136921829986
 30
0.0
 10
125.4362711274951
 20
-148.1503024260701
 30
0.0
 10
125.5730414182595
 20
-148.0064696895609
 30
0.0
 10
125.6453884234497
 20
-147.9280937672714
 30
0.0
 10
125.7139458236062
 20
-147.8435166731085
 30
0.0
 10
125.7601101031086
 20
-147.7420586110679
 30
0.0
 10
125.7601101031086
 20
-147.7420586110679
 30
0.0
 10
125.945456240215
 20
-147.8033813107054
 30
0.0
 10
125.945456240215
 20
-147.8033813107054
 30
0.0
 10
125.9619926985442
 20
-147.8095824825788
 30
0.0
 10
125.9712944563544
 20
-147.818195221292
 30
0.0
 10
125.9712944563544
 20
-147.8307698198131
 30
0.0
 10
125.9712944563544
 20
-147.8478230424651
 30
0.0
 10
125.9602701508016
 20
-147.8540242143385
 30
0.0
 10
125.9378770301474
 20
-147.866771067634
 30
0.0
 10
126.0081569780465
 20
-147.9640950150923
 30
0.0
 10
126.1507839311359
 20
-148.0614189625506
 30
0.0
 10
126.180411752309
 20
-148.0803669877195
 30
0.0
 10
126.3120143998456
 20
-148.1692504512389
 30
0.0
 10
126.4119221689178
 20
-148.1968112151209
 30
0.0
 10
126.4804795690743
 20
-148.2157592402898
 30
0.0
 10
126.4804795690743
 20
-148.2157592402898
 30
0.0
 10
126.3767821949683
 20
-148.3850856833898
 30
0.0
 10
126.3767821949683
 20
-148.3850856833898
 30
0.0
 10
126.3027126420354
 20
-148.3554578622167
 30
0.0
 10
126.2582709102757
 20
-148.3365098370478
 30
0.0
 10
126.1545735361697
 20
-148.2708807680538
 30
0.0
 10
126.1545735361697
 20
-148.2708807680538
 30
0.0
 10
126.1545735361697
 20
-148.3807793140333
 30
0.0
 10
126.1545735361697
 20
-148.3807793140333
 30
0.0
 10
126.0822265309794
 20
-148.3723388300944
 30
0.0
 10
125.9712944563544
 20
-148.3682047155121
 30
0.0
 10
125.9247856673035
 20
-148.3682047155121
 30
0.0
 10
125.9247856673035
 20
-148.3682047155121
 30
0.0
 10
125.9247856673035
 20
-148.4992905987259
 30
0.0
 10
125.9247856673035
 20
-148.4992905987259
 30
0.0
 10
125.9247856673035
 20
-148.4992905987259
 30
0.0
 10
126.0305500987007
 20
-148.4992905987259
 30
0.0
 10
126.0305500987007
 20
-148.4992905987259
 30
0.0
 10
126.0322726464433
 20
-148.4992905987259
 30
0.0
 10
126.2362222991701
 20
-148.4972235414347
 30
0.0
 10
126.3915961055549
 20
-148.480342573557
 30
0.0
 10
126.3915961055549
 20
-148.480342573557
 30
0.0
 10
126.3915961055549
 20
-148.670684099117
 30
0.0
 10
126.3915961055549
 20
-148.670684099117
 30
0.0
 10
126.2785969736387
 20
-148.6579372458216
 30
0.0
 10
126.1414821733257
 20
-148.6579372458216
 30
0.0
 10
126.0305500987007
 20
-148.6579372458216
 30
0.0
 10
126.0305500987007
 20
-148.6579372458216
 30
0.0
 10
125.9247856673035
 20
-148.6579372458216
 30
0.0
 10
125.9247856673035
 20
-148.6579372458216
 30
0.0
 10
125.9247856673035
 20
-148.6579372458216
 30
0.0
 10
125.9247856673035
 20
-148.8842800192025
 30
0.0
 10
125.9247856673035
 20
-148.8842800192025
 30
0.0
 10
125.9247856673035
 20
-149.0027913038951
 30
0.0
 10
125.9027370561979
 20
-149.0389648064903
 30
0.0
 10
125.7621771603997
 20
-149.0537787170768
 30
0.0
 10
125.765622255885
 20
-149.0727267422457
 30
0.0
 10
125.7601101031086
 20
-149.08340653825
 30
0.0
 10
125.7266926769016
 20
-149.1064886780011
 30
0.0
 10
125.724970129159
 20
-149.12543670317
 30
0.0
 10
125.724970129159
 20
-149.131982384592
 30
0.0
 10
125.7232475814164
 20
-149.1467962951785
 30
0.0
 10
125.7232475814164
 20
-149.1467962951785
 30
0.0
 10
125.8434814138516
 20
-149.1467962951785
 30
0.0
 10
125.8434814138516
 20
-149.1467962951785
 30
0.0
 10
125.9878309146836
 20
-149.1467962951785
 30
0.0
 10
126.1342474728067
 20
-149.1426621805963
 30
0.0
 10
126.2803195213813
 20
-149.1278482700097
 30
0.0
 10
126.2803195213813
 20
-149.1278482700097
 30
0.0
 10
126.2803195213813
 20
-149.3348985086732
 30
0.0
 10
126.2803195213813
 20
-149.3348985086732
 30
0.0
 10
126.0915282887896
 20
-149.3180175407955
 30
0.0
 10
125.8600178721808
 20
-149.3180175407955
 30
0.0
 10
125.8434814138516
 20
-149.3180175407955
 30
0.0
 10
125.8434814138516
 20
-149.3180175407955
 30
0.0
 10
125.7211805241252
 20
-149.3180175407955
 30
0.0
 10
125.7211805241252
 20
-149.3180175407955
 30
0.0
 10
125.7211805241252
 20
-149.3180175407955
 30
0.0
 10
125.7211805241252
 20
-149.4599554747878
 30
0.0
 10
125.7211805241252
 20
-149.4599554747878
 30
0.0
 10
125.7211805241252
 20
-149.4599554747878
 30
0.0
 10
125.9192735145271
 20
-149.4599554747878
 30
0.0
 10
125.9192735145271
 20
-149.4599554747878
 30
0.0
 10
126.1084092566673
 20
-149.4599554747878
 30
0.0
 10
126.2989230370016
 20
-149.4554768506569
 30
0.0
 10
126.4877142695933
 20
-149.4430745069101
 30
0.0
 10
126.4877142695933
 20
-149.4430745069101
 30
0.0
 10
126.4877142695933
 20
-149.6501247455736
 30
0.0
 10
126.4877142695933
 20
-149.6501247455736
 30
0.0
 10
126.2417344519465
 20
-149.6332437776958
 30
0.0
 10
125.9399440874386
 20
-149.6332437776958
 30
0.0
 10
125.9192735145271
 20
-149.6332437776958
 30
0.0
  0
SPLINE
  5
8B
330
81
100
AcDbEntity
  8
レイヤー 1
100
AcDbSpline
210
0.0
220
0.0
230
1.0
 70
     9
 71
     3
 72
    17
 73
    13
 74
     0
 42
0.0000000001
 43
0.0000000001
 40
0.0
 40
0.0
 40
0.0
 40
0.0
 40
1.0
 40
1.0
 40
1.0
 40
2.0
 40
2.0
 40
2.0
 40
3.0
 40
3.0
 40
3.0
 40
4.0
 40
4.0
 40
4.0
 40
4.0
 10
125.0046006631933
 20
-148.4548488669661
 30
0.0
 10
124.91192759464
 20
-148.349084435569
 30
0.0
 10
124.841647646741
 20
-148.311016130457
 30
0.0
 10
124.7603433932891
 20
-148.2793212519927
 30
0.0
 10
124.7603433932891
 20
-148.2793212519927
 30
0.0
 10
124.8564615573275
 20
-148.1143011782492
 30
0.0
 10
124.8564615573275
 20
-148.1143011782492
 30
0.0
 10
124.9415554158132
 20
-148.1566758527177
 30
0.0
 10
125.0473198472104
 20
-148.2348795202329
 30
0.0
 10
125.0934841267127
 20
-148.2898287932226
 30
0.0
 10
125.0934841267127
 20
-148.2898287932226
 30
0.0
 10
125.0046006631933
 20
-148.4548488669661
 30
0.0
 10
125.0046006631933
 20
-148.4548488669661
 30
0.0
  0
HATCH
  5
8C
330
81
100
AcDbEntity
  8
レイヤー 1
 62
   250
420
  2299925
440
 33554687
100
AcDbHatch
 10
0.0
 20
0.0
 30
0.0
210
0.0
220
0.0
230
1.0
  2
SOLID
 70
     1
 71
     1
 91
        7
 92
        1
 93
        1
 72
     4
 94
        3
 73
     0
 74
     0
 95
       17
 96
       13
 40
0.0
 40
0.0
 40
0.0
 40
0.0
 40
1.0
 40
1.0
 40
1.0
 40
2.0
 40
2.0
 40
2.0
 40
3.0
 40
3.0
 40
3.0
 40
4.0
 40
4.0
 40
4.0
 40
4.0
 10
126.3099473425544
 20
-149.028285010486
 10
126.1914360578618
 20
-148.9163194072154
 10
126.0991074988571
 20
-148.8525851407382
 10
125.9954101247511
 20
-148.7891953838096
 10
125.9954101247511
 20
-148.7891953838096
 10
126.1063421993762
 20
-148.6770575257648
 10
126.1063421993762
 20
-148.6770575257648
 10
126.221063879035
 20
-148.7235663148156
 10
126.317526552622
 20
-148.7807548998708
 10
126.4267360795044
 20
-148.8822129619114
 10
126.4267360795044
 20
-148.8822129619114
 10
126.3099473425544
 20
-149.028285010486
 10
126.3099473425544
 20
-149.028285010486
 97
        0
 97
        1
330
85
 92
        1
 93
        1
 72
     4
 94
        3
 73
     0
 74
     0
 95
       20
 96
       16
 40
0.0
 40
0.0
 40
0.0
 40
0.0
 40
1.0
 40
1.0
 40
1.0
 40
2.0
 40
2.0
 40
2.0
 40
3.0
 40
3.0
 40
3.0
 40
4.0
 40
4.0
 40
4.0
 40
5.0
 40
5.0
 40
5.0
 40
5.0
 10
125.8193657454549
 20
-147.9725354990311
 10
125.7859483192479
 20
-148.0212836001474
 10
125.7325493392266
 20
-148.0994872676626
 10
125.6102484495002
 20
-148.2095580684163
 10
125.6805283973993
 20
-148.2136921829986
 10
125.7063666135387
 20
-148.2136921829986
 10
125.7266926769016
 20
-148.2136921829986
 10
125.7266926769016
 20
-148.2136921829986
 10
125.9268527245946
 20
-148.2136921829986
 10
125.9268527245946
 20
-148.2136921829986
 10
125.9544134884766
 20
-148.2136921829986
 10
125.9971326724937
 20
-148.2116251257075
 10
126.0619004676165
 20
-148.2095580684163
 10
125.9637152462868
 20
-148.1354885154835
 10
125.9213405718182
 20
-148.0889797264326
 10
125.8193657454549
 20
-147.9725354990311
 97
        0
 97
        1
330
86
 92
        1
 93
        1
 72
     4
 94
        3
 73
     0
 74
     0
 95
       23
 96
       19
 40
0.0
 40
0.0
 40
0.0
 40
0.0
 40
1.0
 40
1.0
 40
1.0
 40
2.0
 40
2.0
 40
2.0
 40
3.0
 40
3.0
 40
3.0
 40
4.0
 40
4.0
 40
4.0
 40
5.0
 40
5.0
 40
5.0
 40
6.0
 40
6.0
 40
6.0
 40
6.0
 10
125.5582275076729
 20
-148.8145168356262
 10
125.5396239920526
 20
-148.8377712301516
 10
125.4545301335669
 20
-148.9500813429708
 10
125.3322292438405
 20
-149.0303520677771
 10
125.3322292438405
 20
-149.0303520677771
 10
125.1861571952659
 20
-148.9097737257934
 10
125.1861571952659
 20
-148.9097737257934
 10
125.3177598428025
 20
-148.8336371155694
 10
125.4045762490308
 20
-148.7383802254022
 10
125.4472954330479
 20
-148.6854980097036
 10
125.4472954330479
 20
-148.6854980097036
 10
125.5988796343989
 20
-148.7680080465753
 10
125.5988796343989
 20
-148.7680080465753
 10
125.6064588444664
 20
-148.7721421611576
 10
125.614038054534
 20
-148.7785155878053
 10
125.614038054534
 20
-148.7891953838096
 10
125.614038054534
 20
-148.8145168356262
 10
125.5823431760697
 20
-148.8145168356262
 10
125.5582275076729
 20
-148.8145168356262
 97
        0
 97
        1
330
87
 92
        1
 93
        1
 72
     4
 94
        3
 73
     0
 74
     0
 95
       17
 96
       13
 40
0.0
 40
0.0
 40
0.0
 40
0.0
 40
1.0
 40
1.0
 40
1.0
 40
2.0
 40
2.0
 40
2.0
 40
3.0
 40
3.0
 40
3.0
 40
4.0
 40
4.0
 40
4.0
 40
4.0
 10
125.1620415268692
 20
-148.1099948088926
 10
125.1082980372993
 20
-148.0338581986686
 10
124.9952989053831
 20
-147.9577215884446
 10
124.904692894121
 20
-147.9280937672714
 10
124.904692894121
 20
-147.9280937672714
 10
124.9880642048641
 20
-147.763073693528
 10
124.9880642048641
 20
-147.763073693528
 10
125.0769476683835
 20
-147.7990749413488
 10
125.1696207369367
 20
-147.856263526404
 10
125.2471353853549
 20
-147.9365342512103
 10
125.2471353853549
 20
-147.9365342512103
 10
125.1620415268692
 20
-148.1099948088926
 10
125.1620415268692
 20
-148.1099948088926
 97
        0
 97
        1
330
88
 92
        1
 93
        1
 72
     4
 94
        3
 73
     0
 74
     0
 95
       23
 96
       19
 40
0.0
 40
0.0
 40
0.0
 40
0.0
 40
1.0
 40
1.0
 40
1.0
 40
2.0
 40
2.0
 40
2.0
 40
3.0
 40
3.0
 40
3.0
 40
4.0
 40
4.0
 40
4.0
 40
5.0
 40
5.0
 40
5.0
 40
6.0
 40
6.0
 40
6.0
 40
6.0
 10
124.9398328680706
 20
-149.0048583611863
 10
124.9398328680706
 20
-149.0262179531948
 10
124.9415554158132
 20
-149.0641140035326
 10
124.9195068047076
 20
-149.0641140035326
 10
124.9102050468974
 20
-149.0641140035326
 10
124.9029703463784
 20
-149.0579128316591
 10
124.8936685885682
 20
-149.0410318637814
 10
124.8936685885682
 20
-149.0410318637814
 10
124.8027180677576
 20
-148.8589585673859
 10
124.8027180677576
 20
-148.8589585673859
 10
124.9918538098979
 20
-148.7299397414633
 10
125.1637640746118
 20
-148.452781809675
 10
125.2047607108863
 20
-148.3807793140333
 10
125.2047607108863
 20
-148.3807793140333
 10
125.2674614487178
 20
-148.5606132983633
 10
125.2674614487178
 20
-148.5606132983633
 10
125.1510172213164
 20
-148.7573282505711
 10
124.9973659626743
 20
-148.9414686042577
 10
124.9398328680706
 20
-149.0048583611863
 97
        0
 97
        1
330
89
 92
        1
 93
        1
 72
     4
 94
        3
 73
     0
 74
     0
 95
      182
 96
      178
 40
0.0
 40
0.0
 40
0.0
 40
0.0
 40
1.0
 40
1.0
 40
1.0
 40
2.0
 40
2.0
 40
2.0
 40
3.0
 40
3.0
 40
3.0
 40
4.0
 40
4.0
 40
4.0
 40
5.0
 40
5.0
 40
5.0
 40
6.0
 40
6.0
 40
6.0
 40
7.0
 40
7.0
 40
7.0
 40
8.0
 40
8.0
 40
8.0
 40
9.0
 40
9.0
 40
9.0
 40
10.0
 40
10.0
 40
10.0
 40
11.0
 40
11.0
 40
11.0
 40
12.0
 40
12.0
 40
12.0
 40
13.0
 40
13.0
 40
13.0
 40
14.0
 40
14.0
 40
14.0
 40
15.0
 40
15.0
 40
15.0
 40
16.0
 40
16.0
 40
16.0
 40
17.0
 40
17.0
 40
17.0
 40
18.0
 40
18.0
 40
18.0
 40
19.0
 40
19.0
 40
19.0
 40
20.0
 40
20.0
 40
20.0
 40
21.0
 40
21.0
 40
21.0
 40
22.0
 40
22.0
 40
22.0
 40
23.0
 40
23.0
 40
23.0
 40
24.0
 40
24.0
 40
24.0
 40
25.0
 40
25.0
 40
25.0
 40
26.0
 40
26.0
 40
26.0
 40
27.0
 40
27.0
 40
27.0
 40
28.0
 40
28.0
 40
28.0
 40
29.0
 40
29.0
 40
29.0
 40
30.0
 40
30.0
 40
30.0
 40
31.0
 40
31.0
 40
31.0
 40
32.0
 40
32.0
 40
32.0
 40
33.0
 40
33.0
 40
33.0
 40
34.0
 40
34.0
 40
34.0
 40
35.0
 40
35.0
 40
35.0
 40
36.0
 40
36.0
 40
36.0
 40
37.0
 40
37.0
 40
37.0
 40
38.0
 40
38.0
 40
38.0
 40
39.0
 40
39.0
 40
39.0
 40
40.0
 40
40.0
 40
40.0
 40
41.0
 40
41.0
 40
41.0
 40
42.0
 40
42.0
 40
42.0
 40
43.0
 40
43.0
 40
43.0
 40
44.0
 40
44.0
 40
44.0
 40
45.0
 40
45.0
 40
45.0
 40
46.0
 40
46.0
 40
46.0
 40
47.0
 40
47.0
 40
47.0
 40
48.0
 40
48.0
 40
48.0
 40
49.0
 40
49.0
 40
49.0
 40
50.0
 40
50.0
 40
50.0
 40
51.0
 40
51.0
 40
51.0
 40
52.0
 40
52.0
 40
52.0
 40
53.0
 40
53.0
 40
53.0
 40
54.0
 40
54.0
 40
54.0
 40
55.0
 40
55.0
 40
55.0
 40
56.0
 40
56.0
 40
56.0
 40
57.0
 40
57.0
 40
57.0
 40
58.0
 40
58.0
 40
58.0
 40
59.0
 40
59.0
 40
59.0
 40
59.0
 10
125.9192735145271
 20
-149.6332437776958
 10
125.9192735145271
 20
-149.6332437776958
 10
125.3618570650137
 20
-149.6332437776958
 10
125.3618570650137
 20
-149.6332437776958
 10
125.1751328897132
 20
-149.6332437776958
 10
124.9859971475729
 20
-149.6377224018267
 10
124.7989284627239
 20
-149.6501247455736
 10
124.7989284627239
 20
-149.6501247455736
 10
124.7989284627239
 20
-149.4430745069101
 10
124.7989284627239
 20
-149.4430745069101
 10
124.9935763576405
 20
-149.4554768506569
 10
125.276763206528
 20
-149.4599554747878
 10
125.3618570650137
 20
-149.4599554747878
 10
125.3618570650137
 20
-149.4599554747878
 10
125.5547824121877
 20
-149.4599554747878
 10
125.5547824121877
 20
-149.4599554747878
 10
125.5547824121877
 20
-149.4599554747878
 10
125.5547824121877
 20
-149.3180175407955
 10
125.5547824121877
 20
-149.3180175407955
 10
125.5547824121877
 20
-149.3180175407955
 10
125.413878006841
 20
-149.3180175407955
 10
125.413878006841
 20
-149.3180175407955
 10
125.269528506009
 20
-149.3180175407955
 10
125.1248344956285
 20
-149.3224961649263
 10
124.9804849947965
 20
-149.3373100755129
 10
124.9804849947965
 20
-149.3373100755129
 10
124.9804849947965
 20
-149.1278482700097
 10
124.9804849947965
 20
-149.1278482700097
 10
125.1306911579534
 20
-149.1426621805963
 10
125.3473876639756
 20
-149.1467962951785
 10
125.413878006841
 20
-149.1467962951785
 10
125.413878006841
 20
-149.1467962951785
 10
125.5547824121877
 20
-149.1467962951785
 10
125.5547824121877
 20
-149.1467962951785
 10
125.5509928071539
 20
-149.0747937995369
 10
125.5509928071539
 20
-149.0685926276634
 10
125.5454806543775
 20
-149.0155381571906
 10
125.5454806543775
 20
-149.0155381571906
 10
125.6674370345553
 20
-149.0303520677771
 10
125.6674370345553
 20
-149.0303520677771
 10
125.6674370345553
 20
-149.0303520677771
 10
125.580620628327
 20
-148.8589585673859
 10
125.580620628327
 20
-148.8589585673859
 10
125.621272755053
 20
-148.8653319940337
 10
125.6860405501757
 20
-148.8739447327468
 10
125.7008544607623
 20
-148.8739447327468
 10
125.745296192522
 20
-148.8739447327468
 10
125.7601101031086
 20
-148.8525851407382
 10
125.7601101031086
 20
-148.7955688104573
 10
125.7601101031086
 20
-148.7955688104573
 10
125.7601101031086
 20
-148.6579372458216
 10
125.7601101031086
 20
-148.6579372458216
 10
125.7601101031086
 20
-148.6579372458216
 10
125.6674370345553
 20
-148.6579372458216
 10
125.6674370345553
 20
-148.6579372458216
 10
125.5509928071539
 20
-148.6579372458216
 10
125.413878006841
 20
-148.6579372458216
 10
125.3063910277012
 20
-148.670684099117
 10
125.3063910277012
 20
-148.670684099117
 10
125.3063910277012
 20
-148.480342573557
 10
125.3063910277012
 20
-148.480342573557
 10
125.4528075858243
 20
-148.4972235414347
 10
125.6546901812599
 20
-148.4992905987259
 10
125.6674370345553
 20
-148.4992905987259
 10
125.6674370345553
 20
-148.4992905987259
 10
125.7601101031086
 20
-148.4992905987259
 10
125.7601101031086
 20
-148.4992905987259
 10
125.7601101031086
 20
-148.4992905987259
 10
125.7601101031086
 20
-148.3682047155121
 10
125.7601101031086
 20
-148.3682047155121
 10
125.7601101031086
 20
-148.3682047155121
 10
125.7266926769016
 20
-148.3682047155121
 10
125.7266926769016
 20
-148.3682047155121
 10
125.6877630979183
 20
-148.3682047155121
 10
125.5785535710359
 20
-148.3723388300944
 10
125.5010389226178
 20
-148.3807793140333
 10
125.5010389226178
 20
-148.3807793140333
 10
125.5010389226178
 20
-148.3005085892269
 10
125.5010389226178
 20
-148.3005085892269
 10
125.4545301335669
 20
-148.338576894339
 10
125.4324815224613
 20
-148.3533908049255
 10
125.3952744912206
 20
-148.376645199451
 10
125.3952744912206
 20
-148.376645199451
 10
125.2305989270257
 20
-148.2476263735284
 10
125.2305989270257
 20
-148.2476263735284
 10
125.2991563271821
 20
-148.2136921829986
 10
125.4362711274951
 20
-148.1503024260701
 10
125.5730414182595
 20
-148.0064696895609
 10
125.6453884234497
 20
-147.9280937672714
 10
125.7139458236062
 20
-147.8435166731085
 10
125.7601101031086
 20
-147.7420586110679
 10
125.7601101031086
 20
-147.7420586110679
 10
125.945456240215
 20
-147.8033813107054
 10
125.945456240215
 20
-147.8033813107054
 10
125.9619926985442
 20
-147.8095824825788
 10
125.9712944563544
 20
-147.818195221292
 10
125.9712944563544
 20
-147.8307698198131
 10
125.9712944563544
 20
-147.8478230424651
 10
125.9602701508016
 20
-147.8540242143385
 10
125.9378770301474
 20
-147.866771067634
 10
126.0081569780465
 20
-147.9640950150923
 10
126.1507839311359
 20
-148.0614189625506
 10
126.180411752309
 20
-148.0803669877195
 10
126.3120143998456
 20
-148.1692504512389
 10
126.4119221689178
 20
-148.1968112151209
 10
126.4804795690743
 20
-148.2157592402898
 10
126.4804795690743
 20
-148.2157592402898
 10
126.3767821949683
 20
-148.3850856833898
 10
126.3767821949683
 20
-148.3850856833898
 10
126.3027126420354
 20
-148.3554578622167
 10
126.2582709102757
 20
-148.3365098370478
 10
126.1545735361697
 20
-148.2708807680538
 10
126.1545735361697
 20
-148.2708807680538
 10
126.1545735361697
 20
-148.3807793140333
 10
126.1545735361697
 20
-148.3807793140333
 10
126.0822265309794
 20
-148.3723388300944
 10
125.9712944563544
 20
-148.3682047155121
 10
125.9247856673035
 20
-148.3682047155121
 10
125.9247856673035
 20
-148.3682047155121
 10
125.9247856673035
 20
-148.4992905987259
 10
125.9247856673035
 20
-148.4992905987259
 10
125.9247856673035
 20
-148.4992905987259
 10
126.0305500987007
 20
-148.4992905987259
 10
126.0305500987007
 20
-148.4992905987259
 10
126.0322726464433
 20
-148.4992905987259
 10
126.2362222991701
 20
-148.4972235414347
 10
126.3915961055549
 20
-148.480342573557
 10
126.3915961055549
 20
-148.480342573557
 10
126.3915961055549
 20
-148.670684099117
 10
126.3915961055549
 20
-148.670684099117
 10
126.2785969736387
 20
-148.6579372458216
 10
126.1414821733257
 20
-148.6579372458216
 10
126.0305500987007
 20
-148.6579372458216
 10
126.0305500987007
 20
-148.6579372458216
 10
125.9247856673035
 20
-148.6579372458216
 10
125.9247856673035
 20
-148.6579372458216
 10
125.9247856673035
 20
-148.6579372458216
 10
125.9247856673035
 20
-148.8842800192025
 10
125.9247856673035
 20
-148.8842800192025
 10
125.9247856673035
 20
-149.0027913038951
 10
125.9027370561979
 20
-149.0389648064903
 10
125.7621771603997
 20
-149.0537787170768
 10
125.765622255885
 20
-149.0727267422457
 10
125.7601101031086
 20
-149.08340653825
 10
125.7266926769016
 20
-149.1064886780011
 10
125.724970129159
 20
-149.12543670317
 10
125.724970129159
 20
-149.131982384592
 10
125.7232475814164
 20
-149.1467962951785
 10
125.7232475814164
 20
-149.1467962951785
 10
125.8434814138516
 20
-149.1467962951785
 10
125.8434814138516
 20
-149.1467962951785
 10
125.9878309146836
 20
-149.1467962951785
 10
126.1342474728067
 20
-149.1426621805963
 10
126.2803195213813
 20
-149.1278482700097
 10
126.2803195213813
 20
-149.1278482700097
 10
126.2803195213813
 20
-149.3348985086732
 10
126.2803195213813
 20
-149.3348985086732
 10
126.0915282887896
 20
-149.3180175407955
 10
125.8600178721808
 20
-149.3180175407955
 10
125.8434814138516
 20
-149.3180175407955
 10
125.8434814138516
 20
-149.3180175407955
 10
125.7211805241252
 20
-149.3180175407955
 10
125.7211805241252
 20
-149.3180175407955
 10
125.7211805241252
 20
-149.3180175407955
 10
125.7211805241252
 20
-149.4599554747878
 10
125.7211805241252
 20
-149.4599554747878
 10
125.7211805241252
 20
-149.4599554747878
 10
125.9192735145271
 20
-149.4599554747878
 10
125.9192735145271
 20
-149.4599554747878
 10
126.1084092566673
 20
-149.4599554747878
 10
126.2989230370016
 20
-149.4554768506569
 10
126.4877142695933
 20
-149.4430745069101
 10
126.4877142695933
 20
-149.4430745069101
 10
126.4877142695933
 20
-149.6501247455736
 10
126.4877142695933
 20
-149.6501247455736
 10
126.2417344519465
 20
-149.6332437776958
 10
125.9399440874386
 20
-149.6332437776958
 10
125.9192735145271
 20
-149.6332437776958
 97
        0
 97
        1
330
8A
 92
        1
 93
        1
 72
     4
 94
        3
 73
     0
 74
     0
 95
       17
 96
       13
 40
0.0
 40
0.0
 40
0.0
 40
0.0
 40
1.0
 40
1.0
 40
1.0
 40
2.0
 40
2.0
 40
2.0
 40
3.0
 40
3.0
 40
3.0
 40
4.0
 40
4.0
 40
4.0
 40
4.0
 10
125.0046006631933
 20
-148.4548488669661
 10
124.91192759464
 20
-148.349084435569
 10
124.841647646741
 20
-148.311016130457
 10
124.7603433932891
 20
-148.2793212519927
 10
124.7603433932891
 20
-148.2793212519927
 10
124.8564615573275
 20
-148.1143011782492
 10
124.8564615573275
 20
-148.1143011782492
 10
124.9415554158132
 20
-148.1566758527177
 10
125.0473198472104
 20
-148.2348795202329
 10
125.0934841267127
 20
-148.2898287932226
 10
125.0934841267127
 20
-148.2898287932226
 10
125.0046006631933
 20
-148.4548488669661
 10
125.0046006631933
 20
-148.4548488669661
 97
        0
 97
        1
330
8B
 75
     2
 76
     1
 98
        1
 10
0.0
 20
0.0
450
        0
451
        0
460
0.0
461
0.0
452
        0
462
0.0
453
        0
470

  0
SPLINE
  5
8D
330
81
100
AcDbEntity
  8
レイヤー 1
100
AcDbSpline
210
0.0
220
0.0
230
1.0
 70
    11
 71
     3
 72
    17
 73
    13
 74
     0
 42
0.0000000001
 43
0.0000000001
 40
0.0
 40
0.0
 40
0.0
 40
0.0
 40
1.0
 40
1.0
 40
1.0
 40
2.0
 40
2.0
 40
2.0
 40
3.0
 40
3.0
 40
3.0
 40
4.0
 40
4.0
 40
4.0
 40
4.0
 10
127.7754909619797
 20
-149.0027913038951
 30
0.0
 10
127.7754909619797
 20
-149.0027913038951
 30
0.0
 10
127.5977240349408
 20
-149.0027913038951
 30
0.0
 10
127.5977240349408
 20
-149.0027913038951
 30
0.0
 10
127.6218397033376
 20
-149.0620469462414
 30
0.0
 10
127.6697265305825
 20
-149.1340494418831
 30
0.0
 10
127.6938421989793
 20
-149.1636772630563
 30
0.0
 10
127.717957867376
 20
-149.1488633524697
 30
0.0
 10
127.8178656364483
 20
-149.0854735955411
 30
0.0
 10
127.8974473421576
 20
-149.0027913038951
 30
0.0
 10
127.8974473421576
 20
-149.0027913038951
 30
0.0
 10
127.7754909619797
 20
-149.0027913038951
 30
0.0
 10
127.7754909619797
 20
-149.0027913038951
 30
0.0
  0
SPLINE
  5
8E
330
81
100
AcDbEntity
  8
レイヤー 1
100
AcDbSpline
210
0.0
220
0.0
230
1.0
 70
     9
 71
     3
 72
    83
 73
    79
 74
     0
 42
0.0000000001
 43
0.0000000001
 40
0.0
 40
0.0
 40
0.0
 40
0.0
 40
1.0
 40
1.0
 40
1.0
 40
2.0
 40
2.0
 40
2.0
 40
3.0
 40
3.0
 40
3.0
 40
4.0
 40
4.0
 40
4.0
 40
5.0
 40
5.0
 40
5.0
 40
6.0
 40
6.0
 40
6.0
 40
7.0
 40
7.0
 40
7.0
 40
8.0
 40
8.0
 40
8.0
 40
9.0
 40
9.0
 40
9.0
 40
10.0
 40
10.0
 40
10.0
 40
11.0
 40
11.0
 40
11.0
 40
12.0
 40
12.0
 40
12.0
 40
13.0
 40
13.0
 40
13.0
 40
14.0
 40
14.0
 40
14.0
 40
15.0
 40
15.0
 40
15.0
 40
16.0
 40
16.0
 40
16.0
 40
17.0
 40
17.0
 40
17.0
 40
18.0
 40
18.0
 40
18.0
 40
19.0
 40
19.0
 40
19.0
 40
20.0
 40
20.0
 40
20.0
 40
21.0
 40
21.0
 40
21.0
 40
22.0
 40
22.0
 40
22.0
 40
23.0
 40
23.0
 40
23.0
 40
24.0
 40
24.0
 40
24.0
 40
25.0
 40
25.0
 40
25.0
 40
26.0
 40
26.0
 40
26.0
 40
26.0
 10
127.9901204107108
 20
-148.2052516990598
 30
0.0
 10
127.9901204107108
 20
-148.2052516990598
 30
0.0
 10
127.9050265522251
 20
-148.2052516990598
 30
0.0
 10
127.9050265522251
 20
-148.2052516990598
 30
0.0
 10
127.9050265522251
 20
-148.2052516990598
 30
0.0
 10
127.9050265522251
 20
-148.452781809675
 30
0.0
 10
127.9050265522251
 20
-148.452781809675
 30
0.0
 10
127.9050265522251
 20
-148.452781809675
 30
0.0
 10
127.9773735574154
 20
-148.452781809675
 30
0.0
 10
127.9773735574154
 20
-148.452781809675
 30
0.0
 10
128.0345621424705
 20
-148.452781809675
 30
0.0
 10
128.1568630321969
 20
-148.4484754403184
 30
0.0
 10
128.2440239479737
 20
-148.4400349563796
 30
0.0
 10
128.2440239479737
 20
-148.4400349563796
 30
0.0
 10
128.2440239479737
 20
-148.6198689407096
 30
0.0
 10
128.2440239479737
 20
-148.6198689407096
 30
0.0
 10
128.1623751849733
 20
-148.6114284567707
 30
0.0
 10
128.0311170469853
 20
-148.6072943421884
 30
0.0
 10
127.9773735574154
 20
-148.6072943421884
 30
0.0
 10
127.9773735574154
 20
-148.6072943421884
 30
0.0
 10
127.710723166857
 20
-148.6072943421884
 30
0.0
 10
127.710723166857
 20
-148.6072943421884
 30
0.0
 10
127.6642143778061
 20
-148.6072943421884
 30
0.0
 10
127.5364013353034
 20
-148.6114284567707
 30
0.0
 10
127.4440727762987
 20
-148.6198689407096
 30
0.0
 10
127.4440727762987
 20
-148.6198689407096
 30
0.0
 10
127.4440727762987
 20
-148.4400349563796
 30
0.0
 10
127.4440727762987
 20
-148.4400349563796
 30
0.0
 10
127.530889182527
 20
-148.4484754403184
 30
0.0
 10
127.6531900722533
 20
-148.452781809675
 30
0.0
 10
127.710723166857
 20
-148.452781809675
 30
0.0
 10
127.710723166857
 20
-148.452781809675
 30
0.0
 10
127.7493082362918
 20
-148.452781809675
 30
0.0
 10
127.7493082362918
 20
-148.452781809675
 30
0.0
 10
127.7493082362918
 20
-148.452781809675
 30
0.0
 10
127.7493082362918
 20
-148.2052516990598
 30
0.0
 10
127.7493082362918
 20
-148.2052516990598
 30
0.0
 10
127.7493082362918
 20
-148.2052516990598
 30
0.0
 10
127.6845404411691
 20
-148.2052516990598
 30
0.0
 10
127.6845404411691
 20
-148.2052516990598
 30
0.0
 10
127.6307969515992
 20
-148.2052516990598
 30
0.0
 10
127.4847249030246
 20
-148.2095580684163
 30
0.0
 10
127.379304981176
 20
-148.2179985523552
 30
0.0
 10
127.379304981176
 20
-148.2179985523552
 30
0.0
 10
127.379304981176
 20
-148.0402316253163
 30
0.0
 10
127.379304981176
 20
-148.0402316253163
 30
0.0
 10
127.4792127502482
 20
-148.046605051964
 30
0.0
 10
127.6180500983038
 20
-148.0509114213206
 30
0.0
 10
127.6845404411691
 20
-148.0509114213206
 30
0.0
 10
127.6845404411691
 20
-148.0509114213206
 30
0.0
 10
127.7475856885492
 20
-148.0509114213206
 30
0.0
 10
127.7475856885492
 20
-148.0509114213206
 30
0.0
 10
127.7437960835154
 20
-147.8984659460983
 30
0.0
 10
127.7420735357728
 20
-147.8647040103428
 30
0.0
 10
127.7365613829964
 20
-147.7715141774668
 30
0.0
 10
127.7365613829964
 20
-147.7715141774668
 30
0.0
 10
127.9215630105543
 20
-147.7949408267665
 30
0.0
 10
127.9215630105543
 20
-147.7949408267665
 30
0.0
 10
127.9439561312084
 20
-147.7970078840577
 30
0.0
 10
127.9642821945714
 20
-147.80114199864
 30
0.0
 10
127.9642821945714
 20
-147.8243963931654
 30
0.0
 10
127.9642821945714
 20
-147.856263526404
 30
0.0
 10
127.9253526155881
 20
-147.8731444942817
 30
0.0
 10
127.9050265522251
 20
-147.8815849782206
 30
0.0
 10
127.9050265522251
 20
-147.8815849782206
 30
0.0
 10
127.9050265522251
 20
-148.0509114213206
 30
0.0
 10
127.9050265522251
 20
-148.0509114213206
 30
0.0
 10
127.9050265522251
 20
-148.0509114213206
 30
0.0
 10
127.9901204107108
 20
-148.0509114213206
 30
0.0
 10
127.9901204107108
 20
-148.0509114213206
 30
0.0
 10
128.0569552631246
 20
-148.0509114213206
 30
0.0
 10
128.1957926111802
 20
-148.046605051964
 30
0.0
 10
128.2977674375436
 20
-148.0402316253163
 30
0.0
 10
128.2977674375436
 20
-148.0402316253163
 30
0.0
 10
128.2977674375436
 20
-148.2179985523552
 30
0.0
 10
128.2977674375436
 20
-148.2179985523552
 30
0.0
 10
128.2030273116992
 20
-148.2116251257075
 30
0.0
 10
128.0514431103482
 20
-148.2052516990598
 30
0.0
 10
127.9901204107108
 20
-148.2052516990598
 30
0.0
  0
SPLINE
  5
8F
330
81
100
AcDbEntity
  8
レイヤー 1
100
AcDbSpline
210
0.0
220
0.0
230
1.0
 70
     9
 71
     3
 72
    38
 73
    34
 74
     0
 42
0.0000000001
 43
0.0000000001
 40
0.0
 40
0.0
 40
0.0
 40
0.0
 40
1.0
 40
1.0
 40
1.0
 40
2.0
 40
2.0
 40
2.0
 40
3.0
 40
3.0
 40
3.0
 40
4.0
 40
4.0
 40
4.0
 40
5.0
 40
5.0
 40
5.0
 40
6.0
 40
6.0
 40
6.0
 40
7.0
 40
7.0
 40
7.0
 40
8.0
 40
8.0
 40
8.0
 40
9.0
 40
9.0
 40
9.0
 40
10.0
 40
10.0
 40
10.0
 40
11.0
 40
11.0
 40
11.0
 40
11.0
 10
127.2883544603654
 20
-147.8836520355117
 30
0.0
 10
127.2866319126228
 20
-147.9303330793368
 30
0.0
 10
127.2845648553316
 20
-148.046605051964
 30
0.0
 10
127.2845648553316
 20
-148.0910467837238
 30
0.0
 10
127.2845648553316
 20
-148.0910467837238
 30
0.0
 10
127.2845648553316
 20
-148.4379678990884
 30
0.0
 10
127.2845648553316
 20
-148.4379678990884
 30
0.0
 10
127.2845648553316
 20
-148.5247843053167
 30
0.0
 10
127.2866319126228
 20
-148.6663777297605
 30
0.0
 10
127.2959336704329
 20
-148.7869560717442
 30
0.0
 10
127.2959336704329
 20
-148.7869560717442
 30
0.0
 10
127.1291910489469
 20
-148.7869560717442
 30
0.0
 10
127.1291910489469
 20
-148.7869560717442
 30
0.0
 10
127.1329806539806
 20
-148.7235663148156
 30
0.0
 10
127.1364257494659
 20
-148.670684099117
 30
0.0
 10
127.138492806757
 20
-148.6157348261273
 30
0.0
 10
127.1402153544997
 20
-148.4929171720781
 30
0.0
 10
127.1422824117908
 20
-148.4781032614916
 30
0.0
 10
127.1422824117908
 20
-148.4336615297318
 30
0.0
 10
127.1422824117908
 20
-148.4336615297318
 30
0.0
 10
127.1422824117908
 20
-148.112234120958
 30
0.0
 10
127.1422824117908
 20
-148.112234120958
 30
0.0
 10
127.1422824117908
 20
-148.057112593194
 30
0.0
 10
127.1309135966895
 20
-147.818195221292
 30
0.0
 10
127.1291910489469
 20
-147.7673800628845
 30
0.0
 10
127.1291910489469
 20
-147.7673800628845
 30
0.0
 10
127.3048909186946
 20
-147.7949408267665
 30
0.0
 10
127.3048909186946
 20
-147.7949408267665
 30
0.0
 10
127.3234944343149
 20
-147.7970078840577
 30
0.0
 10
127.3513997077455
 20
-147.80114199864
 30
0.0
 10
127.3513997077455
 20
-147.8266357052308
 30
0.0
 10
127.3513997077455
 20
-147.8540242143385
 30
0.0
 10
127.3069579759857
 20
-147.8752115515729
 30
0.0
 10
127.2883544603654
 20
-147.8836520355117
 30
0.0
  0
SPLINE
  5
90
330
81
100
AcDbEntity
  8
レイヤー 1
100
AcDbSpline
210
0.0
220
0.0
230
1.0
 70
     9
 71
     3
 72
    17
 73
    13
 74
     0
 42
0.0000000001
 43
0.0000000001
 40
0.0
 40
0.0
 40
0.0
 40
0.0
 40
1.0
 40
1.0
 40
1.0
 40
2.0
 40
2.0
 40
2.0
 40
3.0
 40
3.0
 40
3.0
 40
4.0
 40
4.0
 40
4.0
 40
4.0
 10
126.9662380324945
 20
-148.1883707311821
 30
0.0
 10
126.9403998163552
 20
-148.1482353687789
 30
0.0
 10
126.8811441740089
 20
-148.0509114213206
 30
0.0
 10
126.7216362530418
 20
-147.9408406205669
 30
0.0
 10
126.7216362530418
 20
-147.9408406205669
 30
0.0
 10
126.8329128372154
 20
-147.8075154252877
 30
0.0
 10
126.8329128372154
 20
-147.8075154252877
 30
0.0
 10
126.9958658536677
 20
-147.9091457421026
 30
0.0
 10
127.0458197382038
 20
-147.998029205622
 30
0.0
 10
127.0699354066006
 20
-148.0402316253163
 30
0.0
 10
127.0699354066006
 20
-148.0402316253163
 30
0.0
 10
126.9662380324945
 20
-148.1883707311821
 30
0.0
 10
126.9662380324945
 20
-148.1883707311821
 30
0.0
  0
SPLINE
  5
91
330
81
100
AcDbEntity
  8
レイヤー 1
100
AcDbSpline
210
0.0
220
0.0
230
1.0
 70
     9
 71
     3
 72
    23
 73
    19
 74
     0
 42
0.0000000001
 43
0.0000000001
 40
0.0
 40
0.0
 40
0.0
 40
0.0
 40
1.0
 40
1.0
 40
1.0
 40
2.0
 40
2.0
 40
2.0
 40
3.0
 40
3.0
 40
3.0
 40
4.0
 40
4.0
 40
4.0
 40
5.0
 40
5.0
 40
5.0
 40
6.0
 40
6.0
 40
6.0
 40
6.0
 10
126.8329128372154
 20
-148.6538031312393
 30
0.0
 10
126.8180989266288
 20
-148.6939384936425
 30
0.0
 10
126.8125867738524
 20
-148.7108194615202
 30
0.0
 10
126.793983258232
 20
-148.7108194615202
 30
0.0
 10
126.7808918953881
 20
-148.7108194615202
 30
0.0
 10
126.7715901375779
 20
-148.6939384936425
 30
0.0
 10
126.7660779848015
 20
-148.681191640347
 30
0.0
 10
126.7660779848015
 20
-148.681191640347
 30
0.0
 10
126.6792615785732
 20
-148.5161715666036
 30
0.0
 10
126.6792615785732
 20
-148.5161715666036
 30
0.0
 10
126.7681450420927
 20
-148.4844766881393
 30
0.0
 10
126.8994031800807
 20
-148.4295274151496
 30
0.0
 10
127.0737250116343
 20
-148.2665743986972
 30
0.0
 10
127.0737250116343
 20
-148.2665743986972
 30
0.0
 10
127.1236788961704
 20
-148.4400349563796
 30
0.0
 10
127.1236788961704
 20
-148.4400349563796
 30
0.0
 10
127.04203013317
 20
-148.5225449932513
 30
0.0
 10
126.9645154847519
 20
-148.5797335783064
 30
0.0
 10
126.8329128372154
 20
-148.6538031312393
 30
0.0
  0
SPLINE
  5
92
330
81
100
AcDbEntity
  8
レイヤー 1
100
AcDbSpline
210
0.0
220
0.0
230
1.0
 70
     9
 71
     3
 72
   113
 73
   109
 74
     0
 42
0.0000000001
 43
0.0000000001
 40
0.0
 40
0.0
 40
0.0
 40
0.0
 40
1.0
 40
1.0
 40
1.0
 40
2.0
 40
2.0
 40
2.0
 40
3.0
 40
3.0
 40
3.0
 40
4.0
 40
4.0
 40
4.0
 40
5.0
 40
5.0
 40
5.0
 40
6.0
 40
6.0
 40
6.0
 40
7.0
 40
7.0
 40
7.0
 40
8.0
 40
8.0
 40
8.0
 40
9.0
 40
9.0
 40
9.0
 40
10.0
 40
10.0
 40
10.0
 40
11.0
 40
11.0
 40
11.0
 40
12.0
 40
12.0
 40
12.0
 40
13.0
 40
13.0
 40
13.0
 40
14.0
 40
14.0
 40
14.0
 40
15.0
 40
15.0
 40
15.0
 40
16.0
 40
16.0
 40
16.0
 40
17.0
 40
17.0
 40
17.0
 40
18.0
 40
18.0
 40
18.0
 40
19.0
 40
19.0
 40
19.0
 40
20.0
 40
20.0
 40
20.0
 40
21.0
 40
21.0
 40
21.0
 40
22.0
 40
22.0
 40
22.0
 40
23.0
 40
23.0
 40
23.0
 40
24.0
 40
24.0
 40
24.0
 40
25.0
 40
25.0
 40
25.0
 40
26.0
 40
26.0
 40
26.0
 40
27.0
 40
27.0
 40
27.0
 40
28.0
 40
28.0
 40
28.0
 40
29.0
 40
29.0
 40
29.0
 40
30.0
 40
30.0
 40
30.0
 40
31.0
 40
31.0
 40
31.0
 40
32.0
 40
32.0
 40
32.0
 40
33.0
 40
33.0
 40
33.0
 40
34.0
 40
34.0
 40
34.0
 40
35.0
 40
35.0
 40
35.0
 40
36.0
 40
36.0
 40
36.0
 40
36.0
 10
127.9567029845039
 20
-149.0048583611863
 30
0.0
 10
127.9567029845039
 20
-149.0048583611863
 30
0.0
 10
128.0438639002807
 20
-149.10442162071
 30
0.0
 10
128.0438639002807
 20
-149.10442162071
 30
0.0
 10
128.0531656580909
 20
-149.1151014167143
 30
0.0
 10
128.062467415901
 20
-149.1278482700097
 30
0.0
 10
128.062467415901
 20
-149.1426621805963
 30
0.0
 10
128.062467415901
 20
-149.1447292378874
 30
0.0
 10
128.062467415901
 20
-149.1743570590606
 30
0.0
 10
128.0290499896941
 20
-149.1743570590606
 30
0.0
 10
128.0218152891751
 20
-149.1743570590606
 30
0.0
 10
127.986330805677
 20
-149.1698784349297
 30
0.0
 10
127.9808186529006
 20
-149.1698784349297
 30
0.0
 10
127.9456786789511
 20
-149.2019178229426
 30
0.0
 10
127.9050265522251
 20
-149.235679758698
 30
0.0
 10
127.8178656364483
 20
-149.2928683437532
 30
0.0
 10
127.9456786789511
 20
-149.4006998324415
 30
0.0
 10
128.0845160270066
 20
-149.4578884174966
 30
0.0
 10
128.323605653683
 20
-149.4957844678344
 30
0.0
 10
128.323605653683
 20
-149.4957844678344
 30
0.0
 10
128.1920030061464
 20
-149.6714843375821
 30
0.0
 10
128.1920030061464
 20
-149.6714843375821
 30
0.0
 10
127.9625596468288
 20
-149.5994818419404
 30
0.0
 10
127.8254448465158
 20
-149.510598378421
 30
0.0
 10
127.758609994102
 20
-149.4578884174966
 30
0.0
 10
127.627351856114
 20
-149.3562581006818
 30
0.0
 10
127.5012613613538
 20
-149.1933050842294
 30
0.0
 10
127.4347710184885
 20
-149.028285010486
 30
0.0
 10
127.3755153761422
 20
-149.0937418247057
 30
0.0
 10
127.3107475810195
 20
-149.1467962951785
 30
0.0
 10
127.242190180863
 20
-149.1953721415206
 30
0.0
 10
127.242190180863
 20
-149.1953721415206
 30
0.0
 10
127.242190180863
 20
-149.4472086214923
 30
0.0
 10
127.242190180863
 20
-149.4472086214923
 30
0.0
 10
127.3848171339524
 20
-149.4217149149015
 30
0.0
 10
127.5477701504047
 20
-149.3772731831418
 30
0.0
 10
127.6032361877172
 20
-149.3624592725552
 30
0.0
 10
127.6032361877172
 20
-149.3624592725552
 30
0.0
 10
127.5773979715778
 20
-149.531613460881
 30
0.0
 10
127.5773979715778
 20
-149.531613460881
 30
0.0
 10
127.5753309142867
 20
-149.531613460881
 30
0.0
 10
127.5587944559575
 20
-149.5381591423029
 30
0.0
 10
127.5570719082149
 20
-149.5381591423029
 30
0.0
 10
127.3827500766612
 20
-149.5760551926407
 30
0.0
 10
127.1050753805501
 20
-149.6418565164089
 30
0.0
 10
126.9328206062876
 20
-149.6776855094556
 30
0.0
 10
126.9235188484774
 20
-149.6945664773333
 30
0.0
 10
126.9031927851145
 20
-149.7262613557976
 30
0.0
 10
126.8828667217515
 20
-149.7262613557976
 30
0.0
 10
126.8587510533548
 20
-149.7262613557976
 30
0.0
 10
126.854961448321
 20
-149.7073133306287
 30
0.0
 10
126.8532389005783
 20
-149.6883653054598
 30
0.0
 10
126.8532389005783
 20
-149.6883653054598
 30
0.0
 10
126.8308457799242
 20
-149.5147324930032
 30
0.0
 10
126.8308457799242
 20
-149.5147324930032
 30
0.0
 10
126.8959580845954
 20
-149.5064642638386
 30
0.0
 10
126.9903537008913
 20
-149.4937174105432
 30
0.0
 10
127.0847493171871
 20
-149.4727023280832
 30
0.0
 10
127.0847493171871
 20
-149.4727023280832
 30
0.0
 10
127.0847493171871
 20
-149.2949354010443
 30
0.0
 10
127.0847493171871
 20
-149.2949354010443
 30
0.0
 10
126.958658822427
 20
-149.366937896686
 30
0.0
 10
126.8756320212325
 20
-149.3962212083106
 30
0.0
 10
126.730938010852
 20
-149.4258490294838
 30
0.0
 10
126.730938010852
 20
-149.4258490294838
 30
0.0
 10
126.6255180890033
 20
-149.256694841158
 30
0.0
 10
126.6255180890033
 20
-149.256694841158
 30
0.0
 10
126.9031927851145
 20
-149.229134077276
 30
0.0
 10
127.0716579543432
 20
-149.1361164991743
 30
0.0
 10
127.2273762702765
 20
-149.0027913038951
 30
0.0
 10
127.0995632277737
 20
-149.0027913038951
 30
0.0
 10
126.8367024422491
 20
-149.0072699280259
 30
0.0
 10
126.6644476679867
 20
-149.0134710998994
 30
0.0
 10
126.6644476679867
 20
-149.0134710998994
 30
0.0
 10
126.6644476679867
 20
-148.8357041728605
 30
0.0
 10
126.6644476679867
 20
-148.8357041728605
 30
0.0
 10
126.7994954110085
 20
-148.8420775995082
 30
0.0
 10
127.0589111010478
 20
-148.8484510261559
 30
0.0
 10
127.2197970602089
 20
-148.8484510261559
 30
0.0
 10
127.2197970602089
 20
-148.8484510261559
 30
0.0
 10
127.4051431973154
 20
-148.8484510261559
 30
0.0
 10
127.4051431973154
 20
-148.8484510261559
 30
0.0
 10
127.4051431973154
 20
-148.7531941359888
 30
0.0
 10
127.4030761400242
 20
-148.7023789775813
 30
0.0
 10
127.3975639872478
 20
-148.6558701885305
 30
0.0
 10
127.3975639872478
 20
-148.6558701885305
 30
0.0
 10
127.586699729388
 20
-148.6727511564082
 30
0.0
 10
127.586699729388
 20
-148.6727511564082
 30
0.0
 10
127.6290744038566
 20
-148.6770575257648
 30
0.0
 10
127.6366536139242
 20
-148.6918714363513
 30
0.0
 10
127.6366536139242
 20
-148.7066853469379
 30
0.0
 10
127.6366536139242
 20
-148.7320067987545
 30
0.0
 10
127.6218397033376
 20
-148.7404472826933
 30
0.0
 10
127.5773979715778
 20
-148.7659409892842
 30
0.0
 10
127.5753309142867
 20
-148.7912624411008
 30
0.0
 10
127.5753309142867
 20
-148.7976358677485
 30
0.0
 10
127.5736083665441
 20
-148.8484510261559
 30
0.0
 10
127.5736083665441
 20
-148.8484510261559
 30
0.0
 10
127.7754909619797
 20
-148.8484510261559
 30
0.0
 10
127.7754909619797
 20
-148.8484510261559
 30
0.0
 10
127.9198404628117
 20
-148.8484510261559
 30
0.0
 10
128.1754665478172
 20
-148.8420775995082
 30
0.0
 10
128.3329074114932
 20
-148.8357041728605
 30
0.0
 10
128.3329074114932
 20
-148.8357041728605
 30
0.0
 10
128.3329074114932
 20
-149.0134710998994
 30
0.0
 10
128.3329074114932
 20
-149.0134710998994
 30
0.0
 10
128.2199082795769
 20
-149.0093369853171
 30
0.0
 10
128.199582216214
 20
-149.0093369853171
 30
0.0
 10
127.9567029845039
 20
-149.0048583611863
 30
0.0
  0
HATCH
  5
93
330
81
100
AcDbEntity
  8
レイヤー 1
 62
   250
420
  2299925
440
 33554687
100
AcDbHatch
 10
0.0
 20
0.0
 30
0.0
210
0.0
220
0.0
230
1.0
  2
SOLID
 70
     1
 71
     1
 91
        6
 92
        1
 93
        1
 72
     4
 94
        3
 73
     0
 74
     0
 95
       17
 96
       13
 40
0.0
 40
0.0
 40
0.0
 40
0.0
 40
1.0
 40
1.0
 40
1.0
 40
2.0
 40
2.0
 40
2.0
 40
3.0
 40
3.0
 40
3.0
 40
4.0
 40
4.0
 40
4.0
 40
4.0
 10
127.7754909619797
 20
-149.0027913038951
 10
127.7754909619797
 20
-149.0027913038951
 10
127.5977240349408
 20
-149.0027913038951
 10
127.5977240349408
 20
-149.0027913038951
 10
127.6218397033376
 20
-149.0620469462414
 10
127.6697265305825
 20
-149.1340494418831
 10
127.6938421989793
 20
-149.1636772630563
 10
127.717957867376
 20
-149.1488633524697
 10
127.8178656364483
 20
-149.0854735955411
 10
127.8974473421576
 20
-149.0027913038951
 10
127.8974473421576
 20
-149.0027913038951
 10
127.7754909619797
 20
-149.0027913038951
 10
127.7754909619797
 20
-149.0027913038951
 97
        0
 97
        1
330
8D
 92
        1
 93
        1
 72
     4
 94
        3
 73
     0
 74
     0
 95
       83
 96
       79
 40
0.0
 40
0.0
 40
0.0
 40
0.0
 40
1.0
 40
1.0
 40
1.0
 40
2.0
 40
2.0
 40
2.0
 40
3.0
 40
3.0
 40
3.0
 40
4.0
 40
4.0
 40
4.0
 40
5.0
 40
5.0
 40
5.0
 40
6.0
 40
6.0
 40
6.0
 40
7.0
 40
7.0
 40
7.0
 40
8.0
 40
8.0
 40
8.0
 40
9.0
 40
9.0
 40
9.0
 40
10.0
 40
10.0
 40
10.0
 40
11.0
 40
11.0
 40
11.0
 40
12.0
 40
12.0
 40
12.0
 40
13.0
 40
13.0
 40
13.0
 40
14.0
 40
14.0
 40
14.0
 40
15.0
 40
15.0
 40
15.0
 40
16.0
 40
16.0
 40
16.0
 40
17.0
 40
17.0
 40
17.0
 40
18.0
 40
18.0
 40
18.0
 40
19.0
 40
19.0
 40
19.0
 40
20.0
 40
20.0
 40
20.0
 40
21.0
 40
21.0
 40
21.0
 40
22.0
 40
22.0
 40
22.0
 40
23.0
 40
23.0
 40
23.0
 40
24.0
 40
24.0
 40
24.0
 40
25.0
 40
25.0
 40
25.0
 40
26.0
 40
26.0
 40
26.0
 40
26.0
 10
127.9901204107108
 20
-148.2052516990598
 10
127.9901204107108
 20
-148.2052516990598
 10
127.9050265522251
 20
-148.2052516990598
 10
127.9050265522251
 20
-148.2052516990598
 10
127.9050265522251
 20
-148.2052516990598
 10
127.9050265522251
 20
-148.452781809675
 10
127.9050265522251
 20
-148.452781809675
 10
127.9050265522251
 20
-148.452781809675
 10
127.9773735574154
 20
-148.452781809675
 10
127.9773735574154
 20
-148.452781809675
 10
128.0345621424705
 20
-148.452781809675
 10
128.1568630321969
 20
-148.4484754403184
 10
128.2440239479737
 20
-148.4400349563796
 10
128.2440239479737
 20
-148.4400349563796
 10
128.2440239479737
 20
-148.6198689407096
 10
128.2440239479737
 20
-148.6198689407096
 10
128.1623751849733
 20
-148.6114284567707
 10
128.0311170469853
 20
-148.6072943421884
 10
127.9773735574154
 20
-148.6072943421884
 10
127.9773735574154
 20
-148.6072943421884
 10
127.710723166857
 20
-148.6072943421884
 10
127.710723166857
 20
-148.6072943421884
 10
127.6642143778061
 20
-148.6072943421884
 10
127.5364013353034
 20
-148.6114284567707
 10
127.4440727762987
 20
-148.6198689407096
 10
127.4440727762987
 20
-148.6198689407096
 10
127.4440727762987
 20
-148.4400349563796
 10
127.4440727762987
 20
-148.4400349563796
 10
127.530889182527
 20
-148.4484754403184
 10
127.6531900722533
 20
-148.452781809675
 10
127.710723166857
 20
-148.452781809675
 10
127.710723166857
 20
-148.452781809675
 10
127.7493082362918
 20
-148.452781809675
 10
127.7493082362918
 20
-148.452781809675
 10
127.7493082362918
 20
-148.452781809675
 10
127.7493082362918
 20
-148.2052516990598
 10
127.7493082362918
 20
-148.2052516990598
 10
127.7493082362918
 20
-148.2052516990598
 10
127.6845404411691
 20
-148.2052516990598
 10
127.6845404411691
 20
-148.2052516990598
 10
127.6307969515992
 20
-148.2052516990598
 10
127.4847249030246
 20
-148.2095580684163
 10
127.379304981176
 20
-148.2179985523552
 10
127.379304981176
 20
-148.2179985523552
 10
127.379304981176
 20
-148.0402316253163
 10
127.379304981176
 20
-148.0402316253163
 10
127.4792127502482
 20
-148.046605051964
 10
127.6180500983038
 20
-148.0509114213206
 10
127.6845404411691
 20
-148.0509114213206
 10
127.6845404411691
 20
-148.0509114213206
 10
127.7475856885492
 20
-148.0509114213206
 10
127.7475856885492
 20
-148.0509114213206
 10
127.7437960835154
 20
-147.8984659460983
 10
127.7420735357728
 20
-147.8647040103428
 10
127.7365613829964
 20
-147.7715141774668
 10
127.7365613829964
 20
-147.7715141774668
 10
127.9215630105543
 20
-147.7949408267665
 10
127.9215630105543
 20
-147.7949408267665
 10
127.9439561312084
 20
-147.7970078840577
 10
127.9642821945714
 20
-147.80114199864
 10
127.9642821945714
 20
-147.8243963931654
 10
127.9642821945714
 20
-147.856263526404
 10
127.9253526155881
 20
-147.8731444942817
 10
127.9050265522251
 20
-147.8815849782206
 10
127.9050265522251
 20
-147.8815849782206
 10
127.9050265522251
 20
-148.0509114213206
 10
127.9050265522251
 20
-148.0509114213206
 10
127.9050265522251
 20
-148.0509114213206
 10
127.9901204107108
 20
-148.0509114213206
 10
127.9901204107108
 20
-148.0509114213206
 10
128.0569552631246
 20
-148.0509114213206
 10
128.1957926111802
 20
-148.046605051964
 10
128.2977674375436
 20
-148.0402316253163
 10
128.2977674375436
 20
-148.0402316253163
 10
128.2977674375436
 20
-148.2179985523552
 10
128.2977674375436
 20
-148.2179985523552
 10
128.2030273116992
 20
-148.2116251257075
 10
128.0514431103482
 20
-148.2052516990598
 10
127.9901204107108
 20
-148.2052516990598
 97
        0
 97
        1
330
8E
 92
        1
 93
        1
 72
     4
 94
        3
 73
     0
 74
     0
 95
       38
 96
       34
 40
0.0
 40
0.0
 40
0.0
 40
0.0
 40
1.0
 40
1.0
 40
1.0
 40
2.0
 40
2.0
 40
2.0
 40
3.0
 40
3.0
 40
3.0
 40
4.0
 40
4.0
 40
4.0
 40
5.0
 40
5.0
 40
5.0
 40
6.0
 40
6.0
 40
6.0
 40
7.0
 40
7.0
 40
7.0
 40
8.0
 40
8.0
 40
8.0
 40
9.0
 40
9.0
 40
9.0
 40
10.0
 40
10.0
 40
10.0
 40
11.0
 40
11.0
 40
11.0
 40
11.0
 10
127.2883544603654
 20
-147.8836520355117
 10
127.2866319126228
 20
-147.9303330793368
 10
127.2845648553316
 20
-148.046605051964
 10
127.2845648553316
 20
-148.0910467837238
 10
127.2845648553316
 20
-148.0910467837238
 10
127.2845648553316
 20
-148.4379678990884
 10
127.2845648553316
 20
-148.4379678990884
 10
127.2845648553316
 20
-148.5247843053167
 10
127.2866319126228
 20
-148.6663777297605
 10
127.2959336704329
 20
-148.7869560717442
 10
127.2959336704329
 20
-148.7869560717442
 10
127.1291910489469
 20
-148.7869560717442
 10
127.1291910489469
 20
-148.7869560717442
 10
127.1329806539806
 20
-148.7235663148156
 10
127.1364257494659
 20
-148.670684099117
 10
127.138492806757
 20
-148.6157348261273
 10
127.1402153544997
 20
-148.4929171720781
 10
127.1422824117908
 20
-148.4781032614916
 10
127.1422824117908
 20
-148.4336615297318
 10
127.1422824117908
 20
-148.4336615297318
 10
127.1422824117908
 20
-148.112234120958
 10
127.1422824117908
 20
-148.112234120958
 10
127.1422824117908
 20
-148.057112593194
 10
127.1309135966895
 20
-147.818195221292
 10
127.1291910489469
 20
-147.7673800628845
 10
127.1291910489469
 20
-147.7673800628845
 10
127.3048909186946
 20
-147.7949408267665
 10
127.3048909186946
 20
-147.7949408267665
 10
127.3234944343149
 20
-147.7970078840577
 10
127.3513997077455
 20
-147.80114199864
 10
127.3513997077455
 20
-147.8266357052308
 10
127.3513997077455
 20
-147.8540242143385
 10
127.3069579759857
 20
-147.8752115515729
 10
127.2883544603654
 20
-147.8836520355117
 97
        0
 97
        1
330
8F
 92
        1
 93
        1
 72
     4
 94
        3
 73
     0
 74
     0
 95
       17
 96
       13
 40
0.0
 40
0.0
 40
0.0
 40
0.0
 40
1.0
 40
1.0
 40
1.0
 40
2.0
 40
2.0
 40
2.0
 40
3.0
 40
3.0
 40
3.0
 40
4.0
 40
4.0
 40
4.0
 40
4.0
 10
126.9662380324945
 20
-148.1883707311821
 10
126.9403998163552
 20
-148.1482353687789
 10
126.8811441740089
 20
-148.0509114213206
 10
126.7216362530418
 20
-147.9408406205669
 10
126.7216362530418
 20
-147.9408406205669
 10
126.8329128372154
 20
-147.8075154252877
 10
126.8329128372154
 20
-147.8075154252877
 10
126.9958658536677
 20
-147.9091457421026
 10
127.0458197382038
 20
-147.998029205622
 10
127.0699354066006
 20
-148.0402316253163
 10
127.0699354066006
 20
-148.0402316253163
 10
126.9662380324945
 20
-148.1883707311821
 10
126.9662380324945
 20
-148.1883707311821
 97
        0
 97
        1
330
90
 92
        1
 93
        1
 72
     4
 94
        3
 73
     0
 74
     0
 95
       23
 96
       19
 40
0.0
 40
0.0
 40
0.0
 40
0.0
 40
1.0
 40
1.0
 40
1.0
 40
2.0
 40
2.0
 40
2.0
 40
3.0
 40
3.0
 40
3.0
 40
4.0
 40
4.0
 40
4.0
 40
5.0
 40
5.0
 40
5.0
 40
6.0
 40
6.0
 40
6.0
 40
6.0
 10
126.8329128372154
 20
-148.6538031312393
 10
126.8180989266288
 20
-148.6939384936425
 10
126.8125867738524
 20
-148.7108194615202
 10
126.793983258232
 20
-148.7108194615202
 10
126.7808918953881
 20
-148.7108194615202
 10
126.7715901375779
 20
-148.6939384936425
 10
126.7660779848015
 20
-148.681191640347
 10
126.7660779848015
 20
-148.681191640347
 10
126.6792615785732
 20
-148.5161715666036
 10
126.6792615785732
 20
-148.5161715666036
 10
126.7681450420927
 20
-148.4844766881393
 10
126.8994031800807
 20
-148.4295274151496
 10
127.0737250116343
 20
-148.2665743986972
 10
127.0737250116343
 20
-148.2665743986972
 10
127.1236788961704
 20
-148.4400349563796
 10
127.1236788961704
 20
-148.4400349563796
 10
127.04203013317
 20
-148.5225449932513
 10
126.9645154847519
 20
-148.5797335783064
 10
126.8329128372154
 20
-148.6538031312393
 97
        0
 97
        1
330
91
 92
        1
 93
        1
 72
     4
 94
        3
 73
     0
 74
     0
 95
      113
 96
      109
 40
0.0
 40
0.0
 40
0.0
 40
0.0
 40
1.0
 40
1.0
 40
1.0
 40
2.0
 40
2.0
 40
2.0
 40
3.0
 40
3.0
 40
3.0
 40
4.0
 40
4.0
 40
4.0
 40
5.0
 40
5.0
 40
5.0
 40
6.0
 40
6.0
 40
6.0
 40
7.0
 40
7.0
 40
7.0
 40
8.0
 40
8.0
 40
8.0
 40
9.0
 40
9.0
 40
9.0
 40
10.0
 40
10.0
 40
10.0
 40
11.0
 40
11.0
 40
11.0
 40
12.0
 40
12.0
 40
12.0
 40
13.0
 40
13.0
 40
13.0
 40
14.0
 40
14.0
 40
14.0
 40
15.0
 40
15.0
 40
15.0
 40
16.0
 40
16.0
 40
16.0
 40
17.0
 40
17.0
 40
17.0
 40
18.0
 40
18.0
 40
18.0
 40
19.0
 40
19.0
 40
19.0
 40
20.0
 40
20.0
 40
20.0
 40
21.0
 40
21.0
 40
21.0
 40
22.0
 40
22.0
 40
22.0
 40
23.0
 40
23.0
 40
23.0
 40
24.0
 40
24.0
 40
24.0
 40
25.0
 40
25.0
 40
25.0
 40
26.0
 40
26.0
 40
26.0
 40
27.0
 40
27.0
 40
27.0
 40
28.0
 40
28.0
 40
28.0
 40
29.0
 40
29.0
 40
29.0
 40
30.0
 40
30.0
 40
30.0
 40
31.0
 40
31.0
 40
31.0
 40
32.0
 40
32.0
 40
32.0
 40
33.0
 40
33.0
 40
33.0
 40
34.0
 40
34.0
 40
34.0
 40
35.0
 40
35.0
 40
35.0
 40
36.0
 40
36.0
 40
36.0
 40
36.0
 10
127.9567029845039
 20
-149.0048583611863
 10
127.9567029845039
 20
-149.0048583611863
 10
128.0438639002807
 20
-149.10442162071
 10
128.0438639002807
 20
-149.10442162071
 10
128.0531656580909
 20
-149.1151014167143
 10
128.062467415901
 20
-149.1278482700097
 10
128.062467415901
 20
-149.1426621805963
 10
128.062467415901
 20
-149.1447292378874
 10
128.062467415901
 20
-149.1743570590606
 10
128.0290499896941
 20
-149.1743570590606
 10
128.0218152891751
 20
-149.1743570590606
 10
127.986330805677
 20
-149.1698784349297
 10
127.9808186529006
 20
-149.1698784349297
 10
127.9456786789511
 20
-149.2019178229426
 10
127.9050265522251
 20
-149.235679758698
 10
127.8178656364483
 20
-149.2928683437532
 10
127.9456786789511
 20
-149.4006998324415
 10
128.0845160270066
 20
-149.4578884174966
 10
128.323605653683
 20
-149.4957844678344
 10
128.323605653683
 20
-149.4957844678344
 10
128.1920030061464
 20
-149.6714843375821
 10
128.1920030061464
 20
-149.6714843375821
 10
127.9625596468288
 20
-149.5994818419404
 10
127.8254448465158
 20
-149.510598378421
 10
127.758609994102
 20
-149.4578884174966
 10
127.627351856114
 20
-149.3562581006818
 10
127.5012613613538
 20
-149.1933050842294
 10
127.4347710184885
 20
-149.028285010486
 10
127.3755153761422
 20
-149.0937418247057
 10
127.3107475810195
 20
-149.1467962951785
 10
127.242190180863
 20
-149.1953721415206
 10
127.242190180863
 20
-149.1953721415206
 10
127.242190180863
 20
-149.4472086214923
 10
127.242190180863
 20
-149.4472086214923
 10
127.3848171339524
 20
-149.4217149149015
 10
127.5477701504047
 20
-149.3772731831418
 10
127.6032361877172
 20
-149.3624592725552
 10
127.6032361877172
 20
-149.3624592725552
 10
127.5773979715778
 20
-149.531613460881
 10
127.5773979715778
 20
-149.531613460881
 10
127.5753309142867
 20
-149.531613460881
 10
127.5587944559575
 20
-149.5381591423029
 10
127.5570719082149
 20
-149.5381591423029
 10
127.3827500766612
 20
-149.5760551926407
 10
127.1050753805501
 20
-149.6418565164089
 10
126.9328206062876
 20
-149.6776855094556
 10
126.9235188484774
 20
-149.6945664773333
 10
126.9031927851145
 20
-149.7262613557976
 10
126.8828667217515
 20
-149.7262613557976
 10
126.8587510533548
 20
-149.7262613557976
 10
126.854961448321
 20
-149.7073133306287
 10
126.8532389005783
 20
-149.6883653054598
 10
126.8532389005783
 20
-149.6883653054598
 10
126.8308457799242
 20
-149.5147324930032
 10
126.8308457799242
 20
-149.5147324930032
 10
126.8959580845954
 20
-149.5064642638386
 10
126.9903537008913
 20
-149.4937174105432
 10
127.0847493171871
 20
-149.4727023280832
 10
127.0847493171871
 20
-149.4727023280832
 10
127.0847493171871
 20
-149.2949354010443
 10
127.0847493171871
 20
-149.2949354010443
 10
126.958658822427
 20
-149.366937896686
 10
126.8756320212325
 20
-149.3962212083106
 10
126.730938010852
 20
-149.4258490294838
 10
126.730938010852
 20
-149.4258490294838
 10
126.6255180890033
 20
-149.256694841158
 10
126.6255180890033
 20
-149.256694841158
 10
126.9031927851145
 20
-149.229134077276
 10
127.0716579543432
 20
-149.1361164991743
 10
127.2273762702765
 20
-149.0027913038951
 10
127.0995632277737
 20
-149.0027913038951
 10
126.8367024422491
 20
-149.0072699280259
 10
126.6644476679867
 20
-149.0134710998994
 10
126.6644476679867
 20
-149.0134710998994
 10
126.6644476679867
 20
-148.8357041728605
 10
126.6644476679867
 20
-148.8357041728605
 10
126.7994954110085
 20
-148.8420775995082
 10
127.0589111010478
 20
-148.8484510261559
 10
127.2197970602089
 20
-148.8484510261559
 10
127.2197970602089
 20
-148.8484510261559
 10
127.4051431973154
 20
-148.8484510261559
 10
127.4051431973154
 20
-148.8484510261559
 10
127.4051431973154
 20
-148.7531941359888
 10
127.4030761400242
 20
-148.7023789775813
 10
127.3975639872478
 20
-148.6558701885305
 10
127.3975639872478
 20
-148.6558701885305
 10
127.586699729388
 20
-148.6727511564082
 10
127.586699729388
 20
-148.6727511564082
 10
127.6290744038566
 20
-148.6770575257648
 10
127.6366536139242
 20
-148.6918714363513
 10
127.6366536139242
 20
-148.7066853469379
 10
127.6366536139242
 20
-148.7320067987545
 10
127.6218397033376
 20
-148.7404472826933
 10
127.5773979715778
 20
-148.7659409892842
 10
127.5753309142867
 20
-148.7912624411008
 10
127.5753309142867
 20
-148.7976358677485
 10
127.5736083665441
 20
-148.8484510261559
 10
127.5736083665441
 20
-148.8484510261559
 10
127.7754909619797
 20
-148.8484510261559
 10
127.7754909619797
 20
-148.8484510261559
 10
127.9198404628117
 20
-148.8484510261559
 10
128.1754665478172
 20
-148.8420775995082
 10
128.3329074114932
 20
-148.8357041728605
 10
128.3329074114932
 20
-148.8357041728605
 10
128.3329074114932
 20
-149.0134710998994
 10
128.3329074114932
 20
-149.0134710998994
 10
128.2199082795769
 20
-149.0093369853171
 10
128.199582216214
 20
-149.0093369853171
 10
127.9567029845039
 20
-149.0048583611863
 97
        0
 97
        1
330
92
 75
     2
 76
     1
 98
        1
 10
0.0
 20
0.0
450
        0
451
        0
460
0.0
461
0.0
452
        0
462
0.0
453
        0
470

  0
SPLINE
  5
94
330
81
100
AcDbEntity
  8
レイヤー 1
100
AcDbSpline
210
0.0
220
0.0
230
1.0
 70
    11
 71
     3
 72
    17
 73
    13
 74
     0
 42
0.0000000001
 43
0.0000000001
 40
0.0
 40
0.0
 40
0.0
 40
0.0
 40
1.0
 40
1.0
 40
1.0
 40
2.0
 40
2.0
 40
2.0
 40
3.0
 40
3.0
 40
3.0
 40
4.0
 40
4.0
 40
4.0
 40
4.0
 10
129.8384141385473
 20
-148.518410878669
 30
0.0
 10
129.8384141385473
 20
-148.518410878669
 30
0.0
 10
129.4367160049672
 20
-148.518410878669
 30
0.0
 10
129.4367160049672
 20
-148.518410878669
 30
0.0
 10
129.4367160049672
 20
-148.518410878669
 30
0.0
 10
129.4367160049672
 20
-148.8272636889217
 30
0.0
 10
129.4367160049672
 20
-148.8272636889217
 30
0.0
 10
129.4367160049672
 20
-148.8272636889217
 30
0.0
 10
129.8384141385473
 20
-148.8272636889217
 30
0.0
 10
129.8384141385473
 20
-148.8272636889217
 30
0.0
 10
129.8384141385473
 20
-148.8272636889217
 30
0.0
 10
129.8384141385473
 20
-148.518410878669
 30
0.0
 10
129.8384141385473
 20
-148.518410878669
 30
0.0
  0
SPLINE
  5
95
330
81
100
AcDbEntity
  8
レイヤー 1
100
AcDbSpline
210
0.0
220
0.0
230
1.0
 70
    11
 71
     3
 72
    17
 73
    13
 74
     0
 42
0.0000000001
 43
0.0000000001
 40
0.0
 40
0.0
 40
0.0
 40
0.0
 40
1.0
 40
1.0
 40
1.0
 40
2.0
 40
2.0
 40
2.0
 40
3.0
 40
3.0
 40
3.0
 40
4.0
 40
4.0
 40
4.0
 40
4.0
 10
129.8384141385473
 20
-148.046605051964
 30
0.0
 10
129.8384141385473
 20
-148.046605051964
 30
0.0
 10
129.4367160049672
 20
-148.046605051964
 30
0.0
 10
129.4367160049672
 20
-148.046605051964
 30
0.0
 10
129.4367160049672
 20
-148.046605051964
 30
0.0
 10
129.4367160049672
 20
-148.3511514928601
 30
0.0
 10
129.4367160049672
 20
-148.3511514928601
 30
0.0
 10
129.4367160049672
 20
-148.3511514928601
 30
0.0
 10
129.8384141385473
 20
-148.3511514928601
 30
0.0
 10
129.8384141385473
 20
-148.3511514928601
 30
0.0
 10
129.8384141385473
 20
-148.3511514928601
 30
0.0
 10
129.8384141385473
 20
-148.046605051964
 30
0.0
 10
129.8384141385473
 20
-148.046605051964
 30
0.0
  0
SPLINE
  5
96
330
81
100
AcDbEntity
  8
レイヤー 1
100
AcDbSpline
210
0.0
220
0.0
230
1.0
 70
    11
 71
     3
 72
    17
 73
    13
 74
     0
 42
0.0000000001
 43
0.0000000001
 40
0.0
 40
0.0
 40
0.0
 40
0.0
 40
1.0
 40
1.0
 40
1.0
 40
2.0
 40
2.0
 40
2.0
 40
3.0
 40
3.0
 40
3.0
 40
4.0
 40
4.0
 40
4.0
 40
4.0
 10
129.2699733834811
 20
-148.518410878669
 30
0.0
 10
129.2699733834811
 20
-148.518410878669
 30
0.0
 10
128.8865342559728
 20
-148.518410878669
 30
0.0
 10
128.8865342559728
 20
-148.518410878669
 30
0.0
 10
128.8865342559728
 20
-148.518410878669
 30
0.0
 10
128.8865342559728
 20
-148.8272636889217
 30
0.0
 10
128.8865342559728
 20
-148.8272636889217
 30
0.0
 10
128.8865342559728
 20
-148.8272636889217
 30
0.0
 10
129.2699733834811
 20
-148.8272636889217
 30
0.0
 10
129.2699733834811
 20
-148.8272636889217
 30
0.0
 10
129.2699733834811
 20
-148.8272636889217
 30
0.0
 10
129.2699733834811
 20
-148.518410878669
 30
0.0
 10
129.2699733834811
 20
-148.518410878669
 30
0.0
  0
SPLINE
  5
97
330
81
100
AcDbEntity
  8
レイヤー 1
100
AcDbSpline
210
0.0
220
0.0
230
1.0
 70
    11
 71
     3
 72
    17
 73
    13
 74
     0
 42
0.0000000001
 43
0.0000000001
 40
0.0
 40
0.0
 40
0.0
 40
0.0
 40
1.0
 40
1.0
 40
1.0
 40
2.0
 40
2.0
 40
2.0
 40
3.0
 40
3.0
 40
3.0
 40
4.0
 40
4.0
 40
4.0
 40
4.0
 10
129.2699733834811
 20
-148.046605051964
 30
0.0
 10
129.2699733834811
 20
-148.046605051964
 30
0.0
 10
128.8865342559728
 20
-148.046605051964
 30
0.0
 10
128.8865342559728
 20
-148.046605051964
 30
0.0
 10
128.8865342559728
 20
-148.046605051964
 30
0.0
 10
128.8865342559728
 20
-148.3511514928601
 30
0.0
 10
128.8865342559728
 20
-148.3511514928601
 30
0.0
 10
128.8865342559728
 20
-148.3511514928601
 30
0.0
 10
129.2699733834811
 20
-148.3511514928601
 30
0.0
 10
129.2699733834811
 20
-148.3511514928601
 30
0.0
 10
129.2699733834811
 20
-148.3511514928601
 30
0.0
 10
129.2699733834811
 20
-148.046605051964
 30
0.0
 10
129.2699733834811
 20
-148.046605051964
 30
0.0
  0
SPLINE
  5
98
330
81
100
AcDbEntity
  8
レイヤー 1
100
AcDbSpline
210
0.0
220
0.0
230
1.0
 70
     9
 71
     3
 72
    77
 73
    73
 74
     0
 42
0.0000000001
 43
0.0000000001
 40
0.0
 40
0.0
 40
0.0
 40
0.0
 40
1.0
 40
1.0
 40
1.0
 40
2.0
 40
2.0
 40
2.0
 40
3.0
 40
3.0
 40
3.0
 40
4.0
 40
4.0
 40
4.0
 40
5.0
 40
5.0
 40
5.0
 40
6.0
 40
6.0
 40
6.0
 40
7.0
 40
7.0
 40
7.0
 40
8.0
 40
8.0
 40
8.0
 40
9.0
 40
9.0
 40
9.0
 40
10.0
 40
10.0
 40
10.0
 40
11.0
 40
11.0
 40
11.0
 40
12.0
 40
12.0
 40
12.0
 40
13.0
 40
13.0
 40
13.0
 40
14.0
 40
14.0
 40
14.0
 40
15.0
 40
15.0
 40
15.0
 40
16.0
 40
16.0
 40
16.0
 40
17.0
 40
17.0
 40
17.0
 40
18.0
 40
18.0
 40
18.0
 40
19.0
 40
19.0
 40
19.0
 40
20.0
 40
20.0
 40
20.0
 40
21.0
 40
21.0
 40
21.0
 40
22.0
 40
22.0
 40
22.0
 40
23.0
 40
23.0
 40
23.0
 40
24.0
 40
24.0
 40
24.0
 40
24.0
 10
129.9569254232399
 20
-149.6332437776958
 30
0.0
 10
129.916273296514
 20
-149.6587374842867
 30
0.0
 10
129.8070637696316
 20
-149.6714843375821
 30
0.0
 10
129.7385063694751
 20
-149.6714843375821
 30
0.0
 10
129.7274820639223
 20
-149.6714843375821
 30
0.0
 10
129.7050889432681
 20
-149.6714843375821
 30
0.0
 10
129.675461122095
 20
-149.6670057134513
 30
0.0
 10
129.675461122095
 20
-149.6670057134513
 30
0.0
 10
129.5903672636093
 20
-149.4406629400704
 30
0.0
 10
129.5903672636093
 20
-149.4406629400704
 30
0.0
 10
129.6162054797487
 20
-149.4472086214923
 30
0.0
 10
129.6661593642848
 20
-149.4554768506569
 30
0.0
 10
129.7681341906482
 20
-149.4554768506569
 30
0.0
 10
129.8366915908047
 20
-149.4554768506569
 30
0.0
 10
129.8384141385473
 20
-149.4134466857369
 30
0.0
 10
129.8384141385473
 20
-149.3562581006818
 30
0.0
 10
129.8384141385473
 20
-149.3562581006818
 30
0.0
 10
129.8384141385473
 20
-149.0072699280259
 30
0.0
 10
129.8384141385473
 20
-149.0072699280259
 30
0.0
 10
129.8384141385473
 20
-149.0072699280259
 30
0.0
 10
129.4367160049672
 20
-149.0072699280259
 30
0.0
 10
129.4367160049672
 20
-149.0072699280259
 30
0.0
 10
129.4384385527098
 20
-149.1447292378874
 30
0.0
 10
129.4401611004524
 20
-149.3435112473863
 30
0.0
 10
129.4456732532289
 20
-149.4768364426655
 30
0.0
 10
129.44774031052
 20
-149.5043972065475
 30
0.0
 10
129.44774031052
 20
-149.5488389383072
 30
0.0
 10
129.4587646160728
 20
-149.6101616379447
 30
0.0
 10
129.4587646160728
 20
-149.6101616379447
 30
0.0
 10
129.247580262827
 20
-149.6101616379447
 30
0.0
 10
129.247580262827
 20
-149.6101616379447
 30
0.0
 10
129.2699733834811
 20
-149.4851046718301
 30
0.0
 10
129.2699733834811
 20
-149.1447292378874
 30
0.0
 10
129.2699733834811
 20
-149.0072699280259
 30
0.0
 10
129.2699733834811
 20
-149.0072699280259
 30
0.0
 10
128.882744650939
 20
-149.0072699280259
 30
0.0
 10
128.882744650939
 20
-149.0072699280259
 30
0.0
 10
128.862418587576
 20
-149.2143201666895
 30
0.0
 10
128.8052300025209
 20
-149.483037614539
 30
0.0
 10
128.6329752282584
 20
-149.6670057134513
 30
0.0
 10
128.6329752282584
 20
-149.6670057134513
 30
0.0
 10
128.4679551545149
 20
-149.5443603141764
 30
0.0
 10
128.4679551545149
 20
-149.5443603141764
 30
0.0
 10
128.6905083228621
 20
-149.3245632222174
 30
0.0
 10
128.7180690867441
 20
-148.9924560174394
 30
0.0
 10
128.7180690867441
 20
-148.660176557887
 30
0.0
 10
128.7180690867441
 20
-148.660176557887
 30
0.0
 10
128.7180690867441
 20
-148.2243719790029
 30
0.0
 10
128.7180690867441
 20
-148.2243719790029
 30
0.0
 10
128.7180690867441
 20
-148.1883707311821
 30
0.0
 10
128.7163465390015
 20
-147.9556545311534
 30
0.0
 10
128.7087673289339
 20
-147.8540242143385
 30
0.0
 10
128.8310682186603
 20
-147.8647040103428
 30
0.0
 10
129.0422525719061
 20
-147.8647040103428
 30
0.0
 10
129.1679985571177
 20
-147.8647040103428
 30
0.0
 10
129.1679985571177
 20
-147.8647040103428
 30
0.0
 10
129.5700412002464
 20
-147.8647040103428
 30
0.0
 10
129.5700412002464
 20
-147.8647040103428
 30
0.0
 10
129.5827880535418
 20
-147.8647040103428
 30
0.0
 10
129.8883680230835
 20
-147.8647040103428
 30
0.0
 10
130.027205371139
 20
-147.8540242143385
 30
0.0
 10
130.0254828233964
 20
-147.9069064300371
 30
0.0
 10
130.01997067062
 20
-148.0677923891983
 30
0.0
 10
130.01997067062
 20
-148.1186075476057
 30
0.0
 10
130.01997067062
 20
-148.1186075476057
 30
0.0
 10
130.01997067062
 20
-148.7256333721068
 30
0.0
 10
130.01997067062
 20
-148.7256333721068
 30
0.0
 10
130.01997067062
 20
-148.7447536520499
 30
0.0
 10
130.0292724284302
 20
-149.3159504835043
 30
0.0
 10
130.0292724284302
 20
-149.4282605963235
 30
0.0
 10
130.0292724284302
 20
-149.4851046718301
 30
0.0
 10
130.0292724284302
 20
-149.586734988645
 30
0.0
 10
129.9569254232399
 20
-149.6332437776958
 30
0.0
  0
HATCH
  5
99
330
81
100
AcDbEntity
  8
レイヤー 1
 62
   250
420
  2299925
440
 33554687
100
AcDbHatch
 10
0.0
 20
0.0
 30
0.0
210
0.0
220
0.0
230
1.0
  2
SOLID
 70
     1
 71
     1
 91
        5
 92
        1
 93
        1
 72
     4
 94
        3
 73
     0
 74
     0
 95
       17
 96
       13
 40
0.0
 40
0.0
 40
0.0
 40
0.0
 40
1.0
 40
1.0
 40
1.0
 40
2.0
 40
2.0
 40
2.0
 40
3.0
 40
3.0
 40
3.0
 40
4.0
 40
4.0
 40
4.0
 40
4.0
 10
129.8384141385473
 20
-148.518410878669
 10
129.8384141385473
 20
-148.518410878669
 10
129.4367160049672
 20
-148.518410878669
 10
129.4367160049672
 20
-148.518410878669
 10
129.4367160049672
 20
-148.518410878669
 10
129.4367160049672
 20
-148.8272636889217
 10
129.4367160049672
 20
-148.8272636889217
 10
129.4367160049672
 20
-148.8272636889217
 10
129.8384141385473
 20
-148.8272636889217
 10
129.8384141385473
 20
-148.8272636889217
 10
129.8384141385473
 20
-148.8272636889217
 10
129.8384141385473
 20
-148.518410878669
 10
129.8384141385473
 20
-148.518410878669
 97
        0
 97
        1
330
94
 92
        1
 93
        1
 72
     4
 94
        3
 73
     0
 74
     0
 95
       17
 96
       13
 40
0.0
 40
0.0
 40
0.0
 40
0.0
 40
1.0
 40
1.0
 40
1.0
 40
2.0
 40
2.0
 40
2.0
 40
3.0
 40
3.0
 40
3.0
 40
4.0
 40
4.0
 40
4.0
 40
4.0
 10
129.8384141385473
 20
-148.046605051964
 10
129.8384141385473
 20
-148.046605051964
 10
129.4367160049672
 20
-148.046605051964
 10
129.4367160049672
 20
-148.046605051964
 10
129.4367160049672
 20
-148.046605051964
 10
129.4367160049672
 20
-148.3511514928601
 10
129.4367160049672
 20
-148.3511514928601
 10
129.4367160049672
 20
-148.3511514928601
 10
129.8384141385473
 20
-148.3511514928601
 10
129.8384141385473
 20
-148.3511514928601
 10
129.8384141385473
 20
-148.3511514928601
 10
129.8384141385473
 20
-148.046605051964
 10
129.8384141385473
 20
-148.046605051964
 97
        0
 97
        1
330
95
 92
        1
 93
        1
 72
     4
 94
        3
 73
     0
 74
     0
 95
       17
 96
       13
 40
0.0
 40
0.0
 40
0.0
 40
0.0
 40
1.0
 40
1.0
 40
1.0
 40
2.0
 40
2.0
 40
2.0
 40
3.0
 40
3.0
 40
3.0
 40
4.0
 40
4.0
 40
4.0
 40
4.0
 10
129.2699733834811
 20
-148.518410878669
 10
129.2699733834811
 20
-148.518410878669
 10
128.8865342559728
 20
-148.518410878669
 10
128.8865342559728
 20
-148.518410878669
 10
128.8865342559728
 20
-148.518410878669
 10
128.8865342559728
 20
-148.8272636889217
 10
128.8865342559728
 20
-148.8272636889217
 10
128.8865342559728
 20
-148.8272636889217
 10
129.2699733834811
 20
-148.8272636889217
 10
129.2699733834811
 20
-148.8272636889217
 10
129.2699733834811
 20
-148.8272636889217
 10
129.2699733834811
 20
-148.518410878669
 10
129.2699733834811
 20
-148.518410878669
 97
        0
 97
        1
330
96
 92
        1
 93
        1
 72
     4
 94
        3
 73
     0
 74
     0
 95
       17
 96
       13
 40
0.0
 40
0.0
 40
0.0
 40
0.0
 40
1.0
 40
1.0
 40
1.0
 40
2.0
 40
2.0
 40
2.0
 40
3.0
 40
3.0
 40
3.0
 40
4.0
 40
4.0
 40
4.0
 40
4.0
 10
129.2699733834811
 20
-148.046605051964
 10
129.2699733834811
 20
-148.046605051964
 10
128.8865342559728
 20
-148.046605051964
 10
128.8865342559728
 20
-148.046605051964
 10
128.8865342559728
 20
-148.046605051964
 10
128.8865342559728
 20
-148.3511514928601
 10
128.8865342559728
 20
-148.3511514928601
 10
128.8865342559728
 20
-148.3511514928601
 10
129.2699733834811
 20
-148.3511514928601
 10
129.2699733834811
 20
-148.3511514928601
 10
129.2699733834811
 20
-148.3511514928601
 10
129.2699733834811
 20
-148.046605051964
 10
129.2699733834811
 20
-148.046605051964
 97
        0
 97
        1
330
97
 92
        1
 93
        1
 72
     4
 94
        3
 73
     0
 74
     0
 95
       77
 96
       73
 40
0.0
 40
0.0
 40
0.0
 40
0.0
 40
1.0
 40
1.0
 40
1.0
 40
2.0
 40
2.0
 40
2.0
 40
3.0
 40
3.0
 40
3.0
 40
4.0
 40
4.0
 40
4.0
 40
5.0
 40
5.0
 40
5.0
 40
6.0
 40
6.0
 40
6.0
 40
7.0
 40
7.0
 40
7.0
 40
8.0
 40
8.0
 40
8.0
 40
9.0
 40
9.0
 40
9.0
 40
10.0
 40
10.0
 40
10.0
 40
11.0
 40
11.0
 40
11.0
 40
12.0
 40
12.0
 40
12.0
 40
13.0
 40
13.0
 40
13.0
 40
14.0
 40
14.0
 40
14.0
 40
15.0
 40
15.0
 40
15.0
 40
16.0
 40
16.0
 40
16.0
 40
17.0
 40
17.0
 40
17.0
 40
18.0
 40
18.0
 40
18.0
 40
19.0
 40
19.0
 40
19.0
 40
20.0
 40
20.0
 40
20.0
 40
21.0
 40
21.0
 40
21.0
 40
22.0
 40
22.0
 40
22.0
 40
23.0
 40
23.0
 40
23.0
 40
24.0
 40
24.0
 40
24.0
 40
24.0
 10
129.9569254232399
 20
-149.6332437776958
 10
129.916273296514
 20
-149.6587374842867
 10
129.8070637696316
 20
-149.6714843375821
 10
129.7385063694751
 20
-149.6714843375821
 10
129.7274820639223
 20
-149.6714843375821
 10
129.7050889432681
 20
-149.6714843375821
 10
129.675461122095
 20
-149.6670057134513
 10
129.675461122095
 20
-149.6670057134513
 10
129.5903672636093
 20
-149.4406629400704
 10
129.5903672636093
 20
-149.4406629400704
 10
129.6162054797487
 20
-149.4472086214923
 10
129.6661593642848
 20
-149.4554768506569
 10
129.7681341906482
 20
-149.4554768506569
 10
129.8366915908047
 20
-149.4554768506569
 10
129.8384141385473
 20
-149.4134466857369
 10
129.8384141385473
 20
-149.3562581006818
 10
129.8384141385473
 20
-149.3562581006818
 10
129.8384141385473
 20
-149.0072699280259
 10
129.8384141385473
 20
-149.0072699280259
 10
129.8384141385473
 20
-149.0072699280259
 10
129.4367160049672
 20
-149.0072699280259
 10
129.4367160049672
 20
-149.0072699280259
 10
129.4384385527098
 20
-149.1447292378874
 10
129.4401611004524
 20
-149.3435112473863
 10
129.4456732532289
 20
-149.4768364426655
 10
129.44774031052
 20
-149.5043972065475
 10
129.44774031052
 20
-149.5488389383072
 10
129.4587646160728
 20
-149.6101616379447
 10
129.4587646160728
 20
-149.6101616379447
 10
129.247580262827
 20
-149.6101616379447
 10
129.247580262827
 20
-149.6101616379447
 10
129.2699733834811
 20
-149.4851046718301
 10
129.2699733834811
 20
-149.1447292378874
 10
129.2699733834811
 20
-149.0072699280259
 10
129.2699733834811
 20
-149.0072699280259
 10
128.882744650939
 20
-149.0072699280259
 10
128.882744650939
 20
-149.0072699280259
 10
128.862418587576
 20
-149.2143201666895
 10
128.8052300025209
 20
-149.483037614539
 10
128.6329752282584
 20
-149.6670057134513
 10
128.6329752282584
 20
-149.6670057134513
 10
128.4679551545149
 20
-149.5443603141764
 10
128.4679551545149
 20
-149.5443603141764
 10
128.6905083228621
 20
-149.3245632222174
 10
128.7180690867441
 20
-148.9924560174394
 10
128.7180690867441
 20
-148.660176557887
 10
128.7180690867441
 20
-148.660176557887
 10
128.7180690867441
 20
-148.2243719790029
 10
128.7180690867441
 20
-148.2243719790029
 10
128.7180690867441
 20
-148.1883707311821
 10
128.7163465390015
 20
-147.9556545311534
 10
128.7087673289339
 20
-147.8540242143385
 10
128.8310682186603
 20
-147.8647040103428
 10
129.0422525719061
 20
-147.8647040103428
 10
129.1679985571177
 20
-147.8647040103428
 10
129.1679985571177
 20
-147.8647040103428
 10
129.5700412002464
 20
-147.8647040103428
 10
129.5700412002464
 20
-147.8647040103428
 10
129.5827880535418
 20
-147.8647040103428
 10
129.8883680230835
 20
-147.8647040103428
 10
130.027205371139
 20
-147.8540242143385
 10
130.0254828233964
 20
-147.9069064300371
 10
130.01997067062
 20
-148.0677923891983
 10
130.01997067062
 20
-148.1186075476057
 10
130.01997067062
 20
-148.1186075476057
 10
130.01997067062
 20
-148.7256333721068
 10
130.01997067062
 20
-148.7256333721068
 10
130.01997067062
 20
-148.7447536520499
 10
130.0292724284302
 20
-149.3159504835043
 10
130.0292724284302
 20
-149.4282605963235
 10
130.0292724284302
 20
-149.4851046718301
 10
130.0292724284302
 20
-149.586734988645
 10
129.9569254232399
 20
-149.6332437776958
 97
        0
 97
        1
330
98
 75
     2
 76
     1
 98
        1
 10
0.0
 20
0.0
450
        0
451
        0
460
0.0
461
0.0
452
        0
462
0.0
453
        0
470

  0
SPLINE
  5
9A
330
81
100
AcDbEntity
  8
レイヤー 1
100
AcDbSpline
210
0.0
220
0.0
230
1.0
 70
     9
 71
     3
 72
    17
 73
    13
 74
     0
 42
0.0000000001
 43
0.0000000001
 40
0.0
 40
0.0
 40
0.0
 40
0.0
 40
1.0
 40
1.0
 40
1.0
 40
2.0
 40
2.0
 40
2.0
 40
3.0
 40
3.0
 40
3.0
 40
4.0
 40
4.0
 40
4.0
 40
4.0
 10
126.2396673946553
 20
-150.3942653703875
 30
0.0
 10
126.1914360578618
 20
-150.3942653703875
 30
0.0
 10
126.1525064788785
 20
-150.4387071021473
 30
0.0
 10
126.1525064788785
 20
-150.4938286299112
 30
0.0
 10
126.1525064788785
 20
-150.5506727054179
 30
0.0
 10
126.1914360578618
 20
-150.5995930613084
 30
0.0
 10
126.2434569996891
 20
-150.5995930613084
 30
0.0
 10
126.2951334319678
 20
-150.5995930613084
 30
0.0
 10
126.3302734059174
 20
-150.5486056481267
 30
0.0
 10
126.3302734059174
 20
-150.4958956872024
 30
0.0
 10
126.3302734059174
 20
-150.4387071021473
 30
0.0
 10
126.2896212791915
 20
-150.3942653703875
 30
0.0
 10
126.2396673946553
 20
-150.3942653703875
 30
0.0
  0
SPLINE
  5
9B
330
81
100
AcDbEntity
  8
レイヤー 1
100
AcDbSpline
210
0.0
220
0.0
230
1.0
 70
     9
 71
     3
 72
    17
 73
    13
 74
     0
 42
0.0000000001
 43
0.0000000001
 40
0.0
 40
0.0
 40
0.0
 40
0.0
 40
1.0
 40
1.0
 40
1.0
 40
2.0
 40
2.0
 40
2.0
 40
3.0
 40
3.0
 40
3.0
 40
4.0
 40
4.0
 40
4.0
 40
4.0
 10
126.241389942398
 20
-150.7243055178745
 30
0.0
 10
126.1304578677729
 20
-150.7243055178745
 30
0.0
 10
126.0415744042535
 20
-150.6226752010596
 30
0.0
 10
126.0415744042535
 20
-150.4958956872024
 30
0.0
 10
126.0415744042535
 20
-150.3687716637967
 30
0.0
 10
126.1304578677729
 20
-150.2650742896907
 30
0.0
 10
126.241389942398
 20
-150.2650742896907
 30
0.0
 10
126.3526665265715
 20
-150.2650742896907
 30
0.0
 10
126.4432725378336
 20
-150.3687716637967
 30
0.0
 10
126.4432725378336
 20
-150.4958956872024
 30
0.0
 10
126.4432725378336
 20
-150.6226752010596
 30
0.0
 10
126.3526665265715
 20
-150.7243055178745
 30
0.0
 10
126.241389942398
 20
-150.7243055178745
 30
0.0
  0
SPLINE
  5
9C
330
81
100
AcDbEntity
  8
レイヤー 1
100
AcDbSpline
210
0.0
220
0.0
230
1.0
 70
     9
 71
     3
 72
    44
 73
    40
 74
     0
 42
0.0000000001
 43
0.0000000001
 40
0.0
 40
0.0
 40
0.0
 40
0.0
 40
1.0
 40
1.0
 40
1.0
 40
2.0
 40
2.0
 40
2.0
 40
3.0
 40
3.0
 40
3.0
 40
4.0
 40
4.0
 40
4.0
 40
5.0
 40
5.0
 40
5.0
 40
6.0
 40
6.0
 40
6.0
 40
7.0
 40
7.0
 40
7.0
 40
8.0
 40
8.0
 40
8.0
 40
9.0
 40
9.0
 40
9.0
 40
10.0
 40
10.0
 40
10.0
 40
11.0
 40
11.0
 40
11.0
 40
12.0
 40
12.0
 40
12.0
 40
13.0
 40
13.0
 40
13.0
 40
13.0
 10
126.0581108625827
 20
-150.9230875273734
 30
0.0
 10
125.9599256412531
 20
-151.2913682347466
 30
0.0
 10
125.9154839094933
 20
-151.4498426270681
 30
0.0
 10
125.7432291352308
 20
-151.6996120497487
 30
0.0
 10
125.5823431760697
 20
-151.9300889377119
 30
0.0
 10
125.3749484278576
 20
-152.1161240939154
 30
0.0
 10
125.1303466484049
 20
-152.2094861815657
 30
0.0
 10
125.1303466484049
 20
-152.2094861815657
 30
0.0
 10
124.9618814791762
 20
-152.0296521972356
 30
0.0
 10
124.9618814791762
 20
-152.0296521972356
 30
0.0
 10
125.5230875337234
 20
-151.8773789767876
 30
0.0
 10
125.8117865353873
 20
-151.3209960559197
 30
0.0
 10
125.8675970822483
 20
-150.8807128529048
 30
0.0
 10
125.8675970822483
 20
-150.8807128529048
 30
0.0
 10
125.1971815008187
 20
-150.8807128529048
 30
0.0
 10
125.1971815008187
 20
-150.8807128529048
 30
0.0
 10
125.1155327378183
 20
-150.8807128529048
 30
0.0
 10
124.9546467786571
 20
-150.8851914770356
 30
0.0
 10
124.8175319783442
 20
-150.9041395022045
 30
0.0
 10
124.8175319783442
 20
-150.9041395022045
 30
0.0
 10
124.8175319783442
 20
-150.683997900697
 30
0.0
 10
124.8175319783442
 20
-150.683997900697
 30
0.0
 10
124.8933240790197
 20
-150.7053574927056
 30
0.0
 10
125.1138101900757
 20
-150.7053574927056
 30
0.0
 10
125.200626596304
 20
-150.7053574927056
 30
0.0
 10
125.200626596304
 20
-150.7053574927056
 30
0.0
 10
125.5785535710359
 20
-150.7053574927056
 30
0.0
 10
125.5785535710359
 20
-150.7053574927056
 30
0.0
 10
125.6154160927281
 20
-150.7053574927056
 30
0.0
 10
125.8210882931975
 20
-150.7029459258659
 30
0.0
 10
125.8545057194044
 20
-150.6967447539925
 30
0.0
 10
125.8913682410966
 20
-150.690543582119
 30
0.0
 10
125.8934352983877
 20
-150.6884765248279
 30
0.0
 10
125.9471787879576
 20
-150.6481689076504
 30
0.0
 10
125.9471787879576
 20
-150.6481689076504
 30
0.0
 10
126.1118543521526
 20
-150.8025091853896
 30
0.0
 10
126.1118543521526
 20
-150.8025091853896
 30
0.0
 10
126.0860161360132
 20
-150.8321370065628
 30
0.0
 10
126.0729247731692
 20
-150.8638318850271
 30
0.0
 10
126.0581108625827
 20
-150.9230875273734
 30
0.0
  0
HATCH
  5
9D
330
81
100
AcDbEntity
  8
レイヤー 1
 62
   250
420
  2299925
440
 33554687
100
AcDbHatch
 10
0.0
 20
0.0
 30
0.0
210
0.0
220
0.0
230
1.0
  2
SOLID
 70
     1
 71
     1
 91
        3
 92
        1
 93
        1
 72
     4
 94
        3
 73
     0
 74
     0
 95
       17
 96
       13
 40
0.0
 40
0.0
 40
0.0
 40
0.0
 40
1.0
 40
1.0
 40
1.0
 40
2.0
 40
2.0
 40
2.0
 40
3.0
 40
3.0
 40
3.0
 40
4.0
 40
4.0
 40
4.0
 40
4.0
 10
126.2396673946553
 20
-150.3942653703875
 10
126.1914360578618
 20
-150.3942653703875
 10
126.1525064788785
 20
-150.4387071021473
 10
126.1525064788785
 20
-150.4938286299112
 10
126.1525064788785
 20
-150.5506727054179
 10
126.1914360578618
 20
-150.5995930613084
 10
126.2434569996891
 20
-150.5995930613084
 10
126.2951334319678
 20
-150.5995930613084
 10
126.3302734059174
 20
-150.5486056481267
 10
126.3302734059174
 20
-150.4958956872024
 10
126.3302734059174
 20
-150.4387071021473
 10
126.2896212791915
 20
-150.3942653703875
 10
126.2396673946553
 20
-150.3942653703875
 97
        0
 97
        1
330
9A
 92
        1
 93
        1
 72
     4
 94
        3
 73
     0
 74
     0
 95
       17
 96
       13
 40
0.0
 40
0.0
 40
0.0
 40
0.0
 40
1.0
 40
1.0
 40
1.0
 40
2.0
 40
2.0
 40
2.0
 40
3.0
 40
3.0
 40
3.0
 40
4.0
 40
4.0
 40
4.0
 40
4.0
 10
126.241389942398
 20
-150.7243055178745
 10
126.1304578677729
 20
-150.7243055178745
 10
126.0415744042535
 20
-150.6226752010596
 10
126.0415744042535
 20
-150.4958956872024
 10
126.0415744042535
 20
-150.3687716637967
 10
126.1304578677729
 20
-150.2650742896907
 10
126.241389942398
 20
-150.2650742896907
 10
126.3526665265715
 20
-150.2650742896907
 10
126.4432725378336
 20
-150.3687716637967
 10
126.4432725378336
 20
-150.4958956872024
 10
126.4432725378336
 20
-150.6226752010596
 10
126.3526665265715
 20
-150.7243055178745
 10
126.241389942398
 20
-150.7243055178745
 97
        0
 97
        1
330
9B
 92
        1
 93
        1
 72
     4
 94
        3
 73
     0
 74
     0
 95
       44
 96
       40
 40
0.0
 40
0.0
 40
0.0
 40
0.0
 40
1.0
 40
1.0
 40
1.0
 40
2.0
 40
2.0
 40
2.0
 40
3.0
 40
3.0
 40
3.0
 40
4.0
 40
4.0
 40
4.0
 40
5.0
 40
5.0
 40
5.0
 40
6.0
 40
6.0
 40
6.0
 40
7.0
 40
7.0
 40
7.0
 40
8.0
 40
8.0
 40
8.0
 40
9.0
 40
9.0
 40
9.0
 40
10.0
 40
10.0
 40
10.0
 40
11.0
 40
11.0
 40
11.0
 40
12.0
 40
12.0
 40
12.0
 40
13.0
 40
13.0
 40
13.0
 40
13.0
 10
126.0581108625827
 20
-150.9230875273734
 10
125.9599256412531
 20
-151.2913682347466
 10
125.9154839094933
 20
-151.4498426270681
 10
125.7432291352308
 20
-151.6996120497487
 10
125.5823431760697
 20
-151.9300889377119
 10
125.3749484278576
 20
-152.1161240939154
 10
125.1303466484049
 20
-152.2094861815657
 10
125.1303466484049
 20
-152.2094861815657
 10
124.9618814791762
 20
-152.0296521972356
 10
124.9618814791762
 20
-152.0296521972356
 10
125.5230875337234
 20
-151.8773789767876
 10
125.8117865353873
 20
-151.3209960559197
 10
125.8675970822483
 20
-150.8807128529048
 10
125.8675970822483
 20
-150.8807128529048
 10
125.1971815008187
 20
-150.8807128529048
 10
125.1971815008187
 20
-150.8807128529048
 10
125.1155327378183
 20
-150.8807128529048
 10
124.9546467786571
 20
-150.8851914770356
 10
124.8175319783442
 20
-150.9041395022045
 10
124.8175319783442
 20
-150.9041395022045
 10
124.8175319783442
 20
-150.683997900697
 10
124.8175319783442
 20
-150.683997900697
 10
124.8933240790197
 20
-150.7053574927056
 10
125.1138101900757
 20
-150.7053574927056
 10
125.200626596304
 20
-150.7053574927056
 10
125.200626596304
 20
-150.7053574927056
 10
125.5785535710359
 20
-150.7053574927056
 10
125.5785535710359
 20
-150.7053574927056
 10
125.6154160927281
 20
-150.7053574927056
 10
125.8210882931975
 20
-150.7029459258659
 10
125.8545057194044
 20
-150.6967447539925
 10
125.8913682410966
 20
-150.690543582119
 10
125.8934352983877
 20
-150.6884765248279
 10
125.9471787879576
 20
-150.6481689076504
 10
125.9471787879576
 20
-150.6481689076504
 10
126.1118543521526
 20
-150.8025091853896
 10
126.1118543521526
 20
-150.8025091853896
 10
126.0860161360132
 20
-150.8321370065628
 10
126.0729247731692
 20
-150.8638318850271
 10
126.0581108625827
 20
-150.9230875273734
 97
        0
 97
        1
330
9C
 75
     2
 76
     1
 98
        1
 10
0.0
 20
0.0
450
        0
451
        0
460
0.0
461
0.0
452
        0
462
0.0
453
        0
470

  0
SPLINE
  5
9E
330
81
100
AcDbEntity
  8
レイヤー 1
100
AcDbSpline
210
0.0
220
0.0
230
1.0
 70
     9
 71
     3
 72
    29
 73
    25
 74
     0
 42
0.0000000001
 43
0.0000000001
 40
0.0
 40
0.0
 40
0.0
 40
0.0
 40
1.0
 40
1.0
 40
1.0
 40
2.0
 40
2.0
 40
2.0
 40
3.0
 40
3.0
 40
3.0
 40
4.0
 40
4.0
 40
4.0
 40
5.0
 40
5.0
 40
5.0
 40
6.0
 40
6.0
 40
6.0
 40
7.0
 40
7.0
 40
7.0
 40
8.0
 40
8.0
 40
8.0
 40
8.0
 10
127.3824055671127
 20
-150.6057942331818
 30
0.0
 10
127.3824055671127
 20
-150.6057942331818
 30
0.0
 10
127.0844048076386
 20
-150.6057942331818
 30
0.0
 10
127.0844048076386
 20
-150.6057942331818
 30
0.0
 10
126.9844970385664
 20
-150.6057942331818
 30
0.0
 10
126.882522212203
 20
-150.6099283477642
 30
0.0
 10
126.7826144431307
 20
-150.6247422583508
 30
0.0
 10
126.7826144431307
 20
-150.6247422583508
 30
0.0
 10
126.7826144431307
 20
-150.4152804528476
 30
0.0
 10
126.7826144431307
 20
-150.4152804528476
 30
0.0
 10
126.8863118172367
 20
-150.4300943634341
 30
0.0
 10
127.0382405281363
 20
-150.4345729875649
 30
0.0
 10
127.0844048076386
 20
-150.4345729875649
 30
0.0
 10
127.0844048076386
 20
-150.4345729875649
 30
0.0
 10
127.3824055671127
 20
-150.4345729875649
 30
0.0
 10
127.3824055671127
 20
-150.4345729875649
 30
0.0
 10
127.4843803934761
 20
-150.4345729875649
 30
0.0
 10
127.586010710291
 20
-150.4300943634341
 30
0.0
 10
127.6879855366544
 20
-150.4152804528476
 30
0.0
 10
127.6879855366544
 20
-150.4152804528476
 30
0.0
 10
127.6879855366544
 20
-150.6247422583508
 30
0.0
 10
127.6879855366544
 20
-150.6247422583508
 30
0.0
 10
127.5563828891178
 20
-150.6057942331818
 30
0.0
 10
127.3954969299567
 20
-150.6057942331818
 30
0.0
 10
127.3824055671127
 20
-150.6057942331818
 30
0.0
  0
SPLINE
  5
9F
330
81
100
AcDbEntity
  8
レイヤー 1
100
AcDbSpline
210
0.0
220
0.0
230
1.0
 70
     9
 71
     3
 72
    50
 73
    46
 74
     0
 42
0.0000000001
 43
0.0000000001
 40
0.0
 40
0.0
 40
0.0
 40
0.0
 40
1.0
 40
1.0
 40
1.0
 40
2.0
 40
2.0
 40
2.0
 40
3.0
 40
3.0
 40
3.0
 40
4.0
 40
4.0
 40
4.0
 40
5.0
 40
5.0
 40
5.0
 40
6.0
 40
6.0
 40
6.0
 40
7.0
 40
7.0
 40
7.0
 40
8.0
 40
8.0
 40
8.0
 40
9.0
 40
9.0
 40
9.0
 40
10.0
 40
10.0
 40
10.0
 40
11.0
 40
11.0
 40
11.0
 40
12.0
 40
12.0
 40
12.0
 40
13.0
 40
13.0
 40
13.0
 40
14.0
 40
14.0
 40
14.0
 40
15.0
 40
15.0
 40
15.0
 40
15.0
 10
127.8140760314145
 20
-151.2321125924003
 30
0.0
 10
127.745518631258
 20
-151.4095350098906
 30
0.0
 10
127.6270073465655
 20
-151.6169297581027
 30
0.0
 10
127.5064290045817
 20
-151.7568006348038
 30
0.0
 10
127.358289898716
 20
-151.9280218804208
 30
0.0
 10
127.2160074551752
 20
-152.0169053439402
 30
0.0
 10
126.9362657017728
 20
-152.158498768384
 30
0.0
 10
126.9362657017728
 20
-152.158498768384
 30
0.0
 10
126.7881265959071
 20
-151.9703965548893
 30
0.0
 10
126.7881265959071
 20
-151.9703965548893
 30
0.0
 10
126.9510796123594
 20
-151.9469699055896
 30
0.0
 10
127.1009412659678
 20
-151.8601534993613
 30
0.0
 10
127.234266461247
 20
-151.7543890679642
 30
0.0
 10
127.4640543301131
 20
-151.572488026343
 30
0.0
 10
127.6307969515992
 20
-151.2593288467338
 30
0.0
 10
127.6731716260678
 20
-151.0774278051126
 30
0.0
 10
127.6731716260678
 20
-151.0774278051126
 30
0.0
 10
127.0861273553812
 20
-151.0774278051126
 30
0.0
 10
127.0861273553812
 20
-151.0774278051126
 30
0.0
 10
126.9472900073256
 20
-151.0774278051126
 30
0.0
 10
126.6916639223201
 20
-151.0860405438257
 30
0.0
 10
126.558338727041
 20
-151.1029215117034
 30
0.0
 10
126.558338727041
 20
-151.1029215117034
 30
0.0
 10
126.558338727041
 20
-150.8745116810314
 30
0.0
 10
126.558338727041
 20
-150.8745116810314
 30
0.0
 10
126.5879665482141
 20
-150.8807128529048
 30
0.0
 10
126.6103596688682
 20
-150.8872585343268
 30
0.0
 10
126.6565239483706
 20
-150.8913926489091
 30
0.0
 10
126.74540741189
 20
-150.8975938207825
 30
0.0
 10
126.9176621861525
 20
-150.9000053876222
 30
0.0
 10
126.9917317390854
 20
-150.9000053876222
 30
0.0
 10
126.9917317390854
 20
-150.9000053876222
 30
0.0
 10
127.43442650894
 20
-150.9000053876222
 30
0.0
 10
127.43442650894
 20
-150.9000053876222
 30
0.0
 10
127.4936821512863
 20
-150.9000053876222
 30
0.0
 10
127.621495193789
 20
-150.8955267634914
 30
0.0
 10
127.6748941738104
 20
-150.8893255916179
 30
0.0
 10
127.7379394211905
 20
-150.8807128529048
 30
0.0
 10
127.7620550895872
 20
-150.8658989423182
 30
0.0
 10
127.7916829107604
 20
-150.8428168025671
 30
0.0
 10
127.7916829107604
 20
-150.8428168025671
 30
0.0
 10
127.9360324115924
 20
-151.0099039336017
 30
0.0
 10
127.9360324115924
 20
-151.0099039336017
 30
0.0
 10
127.8750542215034
 20
-151.0774278051126
 30
0.0
 10
127.8344020947775
 20
-151.1811251792186
 30
0.0
 10
127.8140760314145
 20
-151.2321125924003
 30
0.0
  0
HATCH
  5
A0
330
81
100
AcDbEntity
  8
レイヤー 1
 62
   250
420
  2299925
440
 33554687
100
AcDbHatch
 10
0.0
 20
0.0
 30
0.0
210
0.0
220
0.0
230
1.0
  2
SOLID
 70
     1
 71
     1
 91
        2
 92
        1
 93
        1
 72
     4
 94
        3
 73
     0
 74
     0
 95
       29
 96
       25
 40
0.0
 40
0.0
 40
0.0
 40
0.0
 40
1.0
 40
1.0
 40
1.0
 40
2.0
 40
2.0
 40
2.0
 40
3.0
 40
3.0
 40
3.0
 40
4.0
 40
4.0
 40
4.0
 40
5.0
 40
5.0
 40
5.0
 40
6.0
 40
6.0
 40
6.0
 40
7.0
 40
7.0
 40
7.0
 40
8.0
 40
8.0
 40
8.0
 40
8.0
 10
127.3824055671127
 20
-150.6057942331818
 10
127.3824055671127
 20
-150.6057942331818
 10
127.0844048076386
 20
-150.6057942331818
 10
127.0844048076386
 20
-150.6057942331818
 10
126.9844970385664
 20
-150.6057942331818
 10
126.882522212203
 20
-150.6099283477642
 10
126.7826144431307
 20
-150.6247422583508
 10
126.7826144431307
 20
-150.6247422583508
 10
126.7826144431307
 20
-150.4152804528476
 10
126.7826144431307
 20
-150.4152804528476
 10
126.8863118172367
 20
-150.4300943634341
 10
127.0382405281363
 20
-150.4345729875649
 10
127.0844048076386
 20
-150.4345729875649
 10
127.0844048076386
 20
-150.4345729875649
 10
127.3824055671127
 20
-150.4345729875649
 10
127.3824055671127
 20
-150.4345729875649
 10
127.4843803934761
 20
-150.4345729875649
 10
127.586010710291
 20
-150.4300943634341
 10
127.6879855366544
 20
-150.4152804528476
 10
127.6879855366544
 20
-150.4152804528476
 10
127.6879855366544
 20
-150.6247422583508
 10
127.6879855366544
 20
-150.6247422583508
 10
127.5563828891178
 20
-150.6057942331818
 10
127.3954969299567
 20
-150.6057942331818
 10
127.3824055671127
 20
-150.6057942331818
 97
        0
 97
        1
330
9E
 92
        1
 93
        1
 72
     4
 94
        3
 73
     0
 74
     0
 95
       50
 96
       46
 40
0.0
 40
0.0
 40
0.0
 40
0.0
 40
1.0
 40
1.0
 40
1.0
 40
2.0
 40
2.0
 40
2.0
 40
3.0
 40
3.0
 40
3.0
 40
4.0
 40
4.0
 40
4.0
 40
5.0
 40
5.0
 40
5.0
 40
6.0
 40
6.0
 40
6.0
 40
7.0
 40
7.0
 40
7.0
 40
8.0
 40
8.0
 40
8.0
 40
9.0
 40
9.0
 40
9.0
 40
10.0
 40
10.0
 40
10.0
 40
11.0
 40
11.0
 40
11.0
 40
12.0
 40
12.0
 40
12.0
 40
13.0
 40
13.0
 40
13.0
 40
14.0
 40
14.0
 40
14.0
 40
15.0
 40
15.0
 40
15.0
 40
15.0
 10
127.8140760314145
 20
-151.2321125924003
 10
127.745518631258
 20
-151.4095350098906
 10
127.6270073465655
 20
-151.6169297581027
 10
127.5064290045817
 20
-151.7568006348038
 10
127.358289898716
 20
-151.9280218804208
 10
127.2160074551752
 20
-152.0169053439402
 10
126.9362657017728
 20
-152.158498768384
 10
126.9362657017728
 20
-152.158498768384
 10
126.7881265959071
 20
-151.9703965548893
 10
126.7881265959071
 20
-151.9703965548893
 10
126.9510796123594
 20
-151.9469699055896
 10
127.1009412659678
 20
-151.8601534993613
 10
127.234266461247
 20
-151.7543890679642
 10
127.4640543301131
 20
-151.572488026343
 10
127.6307969515992
 20
-151.2593288467338
 10
127.6731716260678
 20
-151.0774278051126
 10
127.6731716260678
 20
-151.0774278051126
 10
127.0861273553812
 20
-151.0774278051126
 10
127.0861273553812
 20
-151.0774278051126
 10
126.9472900073256
 20
-151.0774278051126
 10
126.6916639223201
 20
-151.0860405438257
 10
126.558338727041
 20
-151.1029215117034
 10
126.558338727041
 20
-151.1029215117034
 10
126.558338727041
 20
-150.8745116810314
 10
126.558338727041
 20
-150.8745116810314
 10
126.5879665482141
 20
-150.8807128529048
 10
126.6103596688682
 20
-150.8872585343268
 10
126.6565239483706
 20
-150.8913926489091
 10
126.74540741189
 20
-150.8975938207825
 10
126.9176621861525
 20
-150.9000053876222
 10
126.9917317390854
 20
-150.9000053876222
 10
126.9917317390854
 20
-150.9000053876222
 10
127.43442650894
 20
-150.9000053876222
 10
127.43442650894
 20
-150.9000053876222
 10
127.4936821512863
 20
-150.9000053876222
 10
127.621495193789
 20
-150.8955267634914
 10
127.6748941738104
 20
-150.8893255916179
 10
127.7379394211905
 20
-150.8807128529048
 10
127.7620550895872
 20
-150.8658989423182
 10
127.7916829107604
 20
-150.8428168025671
 10
127.7916829107604
 20
-150.8428168025671
 10
127.9360324115924
 20
-151.0099039336017
 10
127.9360324115924
 20
-151.0099039336017
 10
127.8750542215034
 20
-151.0774278051126
 10
127.8344020947775
 20
-151.1811251792186
 10
127.8140760314145
 20
-151.2321125924003
 97
        0
 97
        1
330
9F
 75
     2
 76
     1
 98
        1
 10
0.0
 20
0.0
450
        0
451
        0
460
0.0
461
0.0
452
        0
462
0.0
453
        0
470

  0
SPLINE
  5
A1
330
81
100
AcDbEntity
  8
レイヤー 1
100
AcDbSpline
210
0.0
220
0.0
230
1.0
 70
     9
 71
     3
 72
    50
 73
    46
 74
     0
 42
0.0000000001
 43
0.0000000001
 40
0.0
 40
0.0
 40
0.0
 40
0.0
 40
1.0
 40
1.0
 40
1.0
 40
2.0
 40
2.0
 40
2.0
 40
3.0
 40
3.0
 40
3.0
 40
4.0
 40
4.0
 40
4.0
 40
5.0
 40
5.0
 40
5.0
 40
6.0
 40
6.0
 40
6.0
 40
7.0
 40
7.0
 40
7.0
 40
8.0
 40
8.0
 40
8.0
 40
9.0
 40
9.0
 40
9.0
 40
10.0
 40
10.0
 40
10.0
 40
11.0
 40
11.0
 40
11.0
 40
12.0
 40
12.0
 40
12.0
 40
13.0
 40
13.0
 40
13.0
 40
14.0
 40
14.0
 40
14.0
 40
15.0
 40
15.0
 40
15.0
 40
15.0
 10
129.3120035484012
 20
-150.5909803225953
 30
0.0
 10
129.1287244685859
 20
-150.8045762426808
 30
0.0
 10
129.0660237307543
 20
-150.8765787383225
 30
0.0
 10
128.9416557837368
 20
-150.9950900230151
 30
0.0
 10
128.9416557837368
 20
-150.9950900230151
 30
0.0
 10
128.9416557837368
 20
-151.5621527398872
 30
0.0
 10
128.9416557837368
 20
-151.5621527398872
 30
0.0
 10
128.9416557837368
 20
-151.7123589030441
 30
0.0
 10
128.9475124460617
 20
-151.731306928213
 30
0.0
 10
128.950957541547
 20
-151.9090738552519
 30
0.0
 10
128.9530245988381
 20
-152.0399874836914
 30
0.0
 10
128.9585367516145
 20
-152.0889078395819
 30
0.0
 10
128.9640489043909
 20
-152.1481634819282
 30
0.0
 10
128.9640489043909
 20
-152.1481634819282
 30
0.0
 10
128.765955913989
 20
-152.1481634819282
 30
0.0
 10
128.765955913989
 20
-152.1481634819282
 30
0.0
 10
128.7697455190228
 20
-152.1037217501685
 30
0.0
 10
128.7731906145081
 20
-152.0568684515691
 30
0.0
 10
128.7731906145081
 20
-152.0486002224045
 30
0.0
 10
128.7731906145081
 20
-151.9683294975982
 30
0.0
 10
128.7769802195419
 20
-151.6169297581027
 30
0.0
 10
128.7769802195419
 20
-151.544927262461
 30
0.0
 10
128.7769802195419
 20
-151.544927262461
 30
0.0
 10
128.7769802195419
 20
-151.13875050475
 30
0.0
 10
128.7769802195419
 20
-151.13875050475
 30
0.0
 10
128.6178168081233
 20
-151.2638074708646
 30
0.0
 10
128.4472845816035
 20
-151.373706016844
 30
0.0
 10
128.2695176545646
 20
-151.4605224230724
 30
0.0
 10
128.2695176545646
 20
-151.4605224230724
 30
0.0
 10
128.0917507275257
 20
-151.29756940662
 30
0.0
 10
128.0917507275257
 20
-151.29756940662
 30
0.0
 10
128.1992377066655
 20
-151.2617404135734
 30
0.0
 10
128.4231689132067
 20
-151.1876708606406
 30
0.0
 10
128.7249592777146
 20
-150.9317002660865
 30
0.0
 10
128.9140950198548
 20
-150.7728813642165
 30
0.0
 10
129.0825601890835
 20
-150.5847791507218
 30
0.0
 10
129.2158853843627
 20
-150.3646375492144
 30
0.0
 10
129.2158853843627
 20
-150.3646375492144
 30
0.0
 10
129.3843505535914
 20
-150.5086425404978
 30
0.0
 10
129.3843505535914
 20
-150.5086425404978
 30
0.0
 10
129.3953748591442
 20
-150.5189778269536
 30
0.0
 10
129.4029540692118
 20
-150.5337917375401
 30
0.0
 10
129.4029540692118
 20
-150.5465385908355
 30
0.0
 10
129.4029540692118
 20
-150.586846208013
 30
0.0
 10
129.3695366430048
 20
-150.586846208013
 30
0.0
 10
129.3120035484012
 20
-150.5909803225953
 30
0.0
  0
HATCH
  5
A2
330
81
100
AcDbEntity
  8
レイヤー 1
 62
   250
420
  2299925
440
 33554687
100
AcDbHatch
 10
0.0
 20
0.0
 30
0.0
210
0.0
220
0.0
230
1.0
  2
SOLID
 70
     1
 71
     1
 91
        1
 92
        1
 93
        1
 72
     4
 94
        3
 73
     0
 74
     0
 95
       50
 96
       46
 40
0.0
 40
0.0
 40
0.0
 40
0.0
 40
1.0
 40
1.0
 40
1.0
 40
2.0
 40
2.0
 40
2.0
 40
3.0
 40
3.0
 40
3.0
 40
4.0
 40
4.0
 40
4.0
 40
5.0
 40
5.0
 40
5.0
 40
6.0
 40
6.0
 40
6.0
 40
7.0
 40
7.0
 40
7.0
 40
8.0
 40
8.0
 40
8.0
 40
9.0
 40
9.0
 40
9.0
 40
10.0
 40
10.0
 40
10.0
 40
11.0
 40
11.0
 40
11.0
 40
12.0
 40
12.0
 40
12.0
 40
13.0
 40
13.0
 40
13.0
 40
14.0
 40
14.0
 40
14.0
 40
15.0
 40
15.0
 40
15.0
 40
15.0
 10
129.3120035484012
 20
-150.5909803225953
 10
129.1287244685859
 20
-150.8045762426808
 10
129.0660237307543
 20
-150.8765787383225
 10
128.9416557837368
 20
-150.9950900230151
 10
128.9416557837368
 20
-150.9950900230151
 10
128.9416557837368
 20
-151.5621527398872
 10
128.9416557837368
 20
-151.5621527398872
 10
128.9416557837368
 20
-151.7123589030441
 10
128.9475124460617
 20
-151.731306928213
 10
128.950957541547
 20
-151.9090738552519
 10
128.9530245988381
 20
-152.0399874836914
 10
128.9585367516145
 20
-152.0889078395819
 10
128.9640489043909
 20
-152.1481634819282
 10
128.9640489043909
 20
-152.1481634819282
 10
128.765955913989
 20
-152.1481634819282
 10
128.765955913989
 20
-152.1481634819282
 10
128.7697455190228
 20
-152.1037217501685
 10
128.7731906145081
 20
-152.0568684515691
 10
128.7731906145081
 20
-152.0486002224045
 10
128.7731906145081
 20
-151.9683294975982
 10
128.7769802195419
 20
-151.6169297581027
 10
128.7769802195419
 20
-151.544927262461
 10
128.7769802195419
 20
-151.544927262461
 10
128.7769802195419
 20
-151.13875050475
 10
128.7769802195419
 20
-151.13875050475
 10
128.6178168081233
 20
-151.2638074708646
 10
128.4472845816035
 20
-151.373706016844
 10
128.2695176545646
 20
-151.4605224230724
 10
128.2695176545646
 20
-151.4605224230724
 10
128.0917507275257
 20
-151.29756940662
 10
128.0917507275257
 20
-151.29756940662
 10
128.1992377066655
 20
-151.2617404135734
 10
128.4231689132067
 20
-151.1876708606406
 10
128.7249592777146
 20
-150.9317002660865
 10
128.9140950198548
 20
-150.7728813642165
 10
129.0825601890835
 20
-150.5847791507218
 10
129.2158853843627
 20
-150.3646375492144
 10
129.2158853843627
 20
-150.3646375492144
 10
129.3843505535914
 20
-150.5086425404978
 10
129.3843505535914
 20
-150.5086425404978
 10
129.3953748591442
 20
-150.5189778269536
 10
129.4029540692118
 20
-150.5337917375401
 10
129.4029540692118
 20
-150.5465385908355
 10
129.4029540692118
 20
-150.586846208013
 10
129.3695366430048
 20
-150.586846208013
 10
129.3120035484012
 20
-150.5909803225953
 97
        0
 97
        1
330
A1
 75
     2
 76
     1
 98
        1
 10
0.0
 20
0.0
450
        0
451
        0
460
0.0
461
0.0
452
        0
462
0.0
453
        0
470

  0
SPLINE
  5
A3
330
81
100
AcDbEntity
  8
レイヤー 1
100
AcDbSpline
210
0.0
220
0.0
230
1.0
 70
     9
 71
     3
 72
    50
 73
    46
 74
     0
 42
0.0000000001
 43
0.0000000001
 40
0.0
 40
0.0
 40
0.0
 40
0.0
 40
1.0
 40
1.0
 40
1.0
 40
2.0
 40
2.0
 40
2.0
 40
3.0
 40
3.0
 40
3.0
 40
4.0
 40
4.0
 40
4.0
 40
5.0
 40
5.0
 40
5.0
 40
6.0
 40
6.0
 40
6.0
 40
7.0
 40
7.0
 40
7.0
 40
8.0
 40
8.0
 40
8.0
 40
9.0
 40
9.0
 40
9.0
 40
10.0
 40
10.0
 40
10.0
 40
11.0
 40
11.0
 40
11.0
 40
12.0
 40
12.0
 40
12.0
 40
13.0
 40
13.0
 40
13.0
 40
14.0
 40
14.0
 40
14.0
 40
15.0
 40
15.0
 40
15.0
 40
15.0
 10
130.8082085176451
 20
-151.11773542229
 30
0.0
 10
130.7548095376238
 20
-151.1897379179317
 30
0.0
 10
130.5267442165003
 20
-151.5070312121232
 30
0.0
 10
130.4767903319641
 20
-151.5704209690518
 30
0.0
 10
130.550859884897
 20
-151.6679171712844
 30
0.0
 10
130.5953016166567
 20
-151.731306928213
 30
0.0
 10
130.6528347112604
 20
-151.8222574490236
 30
0.0
 10
130.6528347112604
 20
-151.8222574490236
 30
0.0
 10
130.4916042425507
 20
-151.959716758885
 30
0.0
 10
130.4916042425507
 20
-151.959716758885
 30
0.0
 10
130.3730929578581
 20
-151.7481878960907
 30
0.0
 10
130.2232313042497
 20
-151.5239121800009
 30
0.0
 10
129.9658826715016
 20
-151.325130170502
 30
0.0
 10
129.9658826715016
 20
-151.325130170502
 30
0.0
 10
130.0954182617469
 20
-151.1707898927628
 30
0.0
 10
130.0954182617469
 20
-151.1707898927628
 30
0.0
 10
130.191880935334
 20
-151.2510606175692
 30
0.0
 10
130.282486946596
 20
-151.3399440810886
 30
0.0
 10
130.3675808050817
 20
-151.4350287164815
 30
0.0
 10
130.426836447428
 20
-151.3588921062575
 30
0.0
 10
130.6046033744669
 20
-151.1156683649988
 30
0.0
 10
130.7213921114169
 20
-150.8872585343268
 30
0.0
 10
130.7213921114169
 20
-150.8872585343268
 30
0.0
 10
130.1326252929877
 20
-150.8872585343268
 30
0.0
 10
130.1326252929877
 20
-150.8872585343268
 30
0.0
 10
130.0230712565567
 20
-150.8872585343268
 30
0.0
 10
129.8029296550492
 20
-150.8955267634914
 30
0.0
 10
129.6196505752339
 20
-150.9062065594956
 30
0.0
 10
129.6196505752339
 20
-150.9062065594956
 30
0.0
 10
129.6196505752339
 20
-150.6860649579882
 30
0.0
 10
129.6196505752339
 20
-150.6860649579882
 30
0.0
 10
129.7805365343951
 20
-150.7053574927056
 30
0.0
 10
129.9603705187252
 20
-150.7094916072879
 30
0.0
 10
130.1250460829201
 20
-150.7094916072879
 30
0.0
 10
130.1250460829201
 20
-150.7094916072879
 30
0.0
 10
130.5656737954836
 20
-150.7094916072879
 30
0.0
 10
130.5656737954836
 20
-150.7094916072879
 30
0.0
 10
130.8619520072151
 20
-150.7094916072879
 30
0.0
 10
130.9008815861984
 20
-150.6946776967013
 30
0.0
 10
130.9732285913886
 20
-150.6543700795239
 30
0.0
 10
130.9732285913886
 20
-150.6543700795239
 30
0.0
 10
131.1193006399632
 20
-150.8131889813939
 30
0.0
 10
131.1193006399632
 20
-150.8131889813939
 30
0.0
 10
130.985975444684
 20
-150.8851914770356
 30
0.0
 10
130.8602294594724
 20
-151.0477999839394
 30
0.0
 10
130.8082085176451
 20
-151.11773542229
 30
0.0
  0
HATCH
  5
A4
330
81
100
AcDbEntity
  8
レイヤー 1
 62
   250
420
  2299925
440
 33554687
100
AcDbHatch
 10
0.0
 20
0.0
 30
0.0
210
0.0
220
0.0
230
1.0
  2
SOLID
 70
     1
 71
     1
 91
        1
 92
        1
 93
        1
 72
     4
 94
        3
 73
     0
 74
     0
 95
       50
 96
       46
 40
0.0
 40
0.0
 40
0.0
 40
0.0
 40
1.0
 40
1.0
 40
1.0
 40
2.0
 40
2.0
 40
2.0
 40
3.0
 40
3.0
 40
3.0
 40
4.0
 40
4.0
 40
4.0
 40
5.0
 40
5.0
 40
5.0
 40
6.0
 40
6.0
 40
6.0
 40
7.0
 40
7.0
 40
7.0
 40
8.0
 40
8.0
 40
8.0
 40
9.0
 40
9.0
 40
9.0
 40
10.0
 40
10.0
 40
10.0
 40
11.0
 40
11.0
 40
11.0
 40
12.0
 40
12.0
 40
12.0
 40
13.0
 40
13.0
 40
13.0
 40
14.0
 40
14.0
 40
14.0
 40
15.0
 40
15.0
 40
15.0
 40
15.0
 10
130.8082085176451
 20
-151.11773542229
 10
130.7548095376238
 20
-151.1897379179317
 10
130.5267442165003
 20
-151.5070312121232
 10
130.4767903319641
 20
-151.5704209690518
 10
130.550859884897
 20
-151.6679171712844
 10
130.5953016166567
 20
-151.731306928213
 10
130.6528347112604
 20
-151.8222574490236
 10
130.6528347112604
 20
-151.8222574490236
 10
130.4916042425507
 20
-151.959716758885
 10
130.4916042425507
 20
-151.959716758885
 10
130.3730929578581
 20
-151.7481878960907
 10
130.2232313042497
 20
-151.5239121800009
 10
129.9658826715016
 20
-151.325130170502
 10
129.9658826715016
 20
-151.325130170502
 10
130.0954182617469
 20
-151.1707898927628
 10
130.0954182617469
 20
-151.1707898927628
 10
130.191880935334
 20
-151.2510606175692
 10
130.282486946596
 20
-151.3399440810886
 10
130.3675808050817
 20
-151.4350287164815
 10
130.426836447428
 20
-151.3588921062575
 10
130.6046033744669
 20
-151.1156683649988
 10
130.7213921114169
 20
-150.8872585343268
 10
130.7213921114169
 20
-150.8872585343268
 10
130.1326252929877
 20
-150.8872585343268
 10
130.1326252929877
 20
-150.8872585343268
 10
130.0230712565567
 20
-150.8872585343268
 10
129.8029296550492
 20
-150.8955267634914
 10
129.6196505752339
 20
-150.9062065594956
 10
129.6196505752339
 20
-150.9062065594956
 10
129.6196505752339
 20
-150.6860649579882
 10
129.6196505752339
 20
-150.6860649579882
 10
129.7805365343951
 20
-150.7053574927056
 10
129.9603705187252
 20
-150.7094916072879
 10
130.1250460829201
 20
-150.7094916072879
 10
130.1250460829201
 20
-150.7094916072879
 10
130.5656737954836
 20
-150.7094916072879
 10
130.5656737954836
 20
-150.7094916072879
 10
130.8619520072151
 20
-150.7094916072879
 10
130.9008815861984
 20
-150.6946776967013
 10
130.9732285913886
 20
-150.6543700795239
 10
130.9732285913886
 20
-150.6543700795239
 10
131.1193006399632
 20
-150.8131889813939
 10
131.1193006399632
 20
-150.8131889813939
 10
130.985975444684
 20
-150.8851914770356
 10
130.8602294594724
 20
-151.0477999839394
 10
130.8082085176451
 20
-151.11773542229
 97
        0
 97
        1
330
A3
 75
     2
 76
     1
 98
        1
 10
0.0
 20
0.0
450
        0
451
        0
460
0.0
461
0.0
452
        0
462
0.0
453
        0
470

  0
SPLINE
  5
A5
330
81
100
AcDbEntity
  8
レイヤー 1
100
AcDbSpline
210
0.0
220
0.0
230
1.0
 70
     9
 71
     3
 72
    29
 73
    25
 74
     0
 42
0.0000000001
 43
0.0000000001
 40
0.0
 40
0.0
 40
0.0
 40
0.0
 40
1.0
 40
1.0
 40
1.0
 40
2.0
 40
2.0
 40
2.0
 40
3.0
 40
3.0
 40
3.0
 40
4.0
 40
4.0
 40
4.0
 40
5.0
 40
5.0
 40
5.0
 40
6.0
 40
6.0
 40
6.0
 40
7.0
 40
7.0
 40
7.0
 40
8.0
 40
8.0
 40
8.0
 40
8.0
 10
132.2306884435048
 20
-151.3609591635486
 30
0.0
 10
132.2306884435048
 20
-151.3609591635486
 30
0.0
 10
131.8065971892705
 20
-151.3609591635486
 30
0.0
 10
131.8065971892705
 20
-151.3609591635486
 30
0.0
 10
131.7824815208738
 20
-151.3609591635486
 30
0.0
 10
131.5044623152141
 20
-151.3609591635486
 30
0.0
 10
131.3194606876562
 20
-151.3864528701395
 30
0.0
 10
131.3194606876562
 20
-151.3864528701395
 30
0.0
 10
131.3194606876562
 20
-151.1559759821763
 30
0.0
 10
131.3194606876562
 20
-151.1559759821763
 30
0.0
 10
131.4582980357118
 20
-151.1790581219274
 30
0.0
 10
131.6250406571979
 20
-151.1811251792186
 30
0.0
 10
131.8065971892705
 20
-151.1811251792186
 30
0.0
 10
131.8065971892705
 20
-151.1811251792186
 30
0.0
 10
132.2306884435048
 20
-151.1811251792186
 30
0.0
 10
132.2306884435048
 20
-151.1811251792186
 30
0.0
 10
132.3932969504086
 20
-151.1811251792186
 30
0.0
 10
132.5565944764094
 20
-151.1790581219274
 30
0.0
 10
132.7174804355706
 20
-151.1559759821763
 30
0.0
 10
132.7174804355706
 20
-151.1559759821763
 30
0.0
 10
132.7174804355706
 20
-151.3864528701395
 30
0.0
 10
132.7174804355706
 20
-151.3864528701395
 30
0.0
 10
132.5565944764094
 20
-151.3630262208398
 30
0.0
 10
132.3398979703872
 20
-151.3609591635486
 30
0.0
 10
132.2306884435048
 20
-151.3609591635486
 30
0.0
  0
HATCH
  5
A6
330
81
100
AcDbEntity
  8
レイヤー 1
 62
   250
420
  2299925
440
 33554687
100
AcDbHatch
 10
0.0
 20
0.0
 30
0.0
210
0.0
220
0.0
230
1.0
  2
SOLID
 70
     1
 71
     1
 91
        1
 92
        1
 93
        1
 72
     4
 94
        3
 73
     0
 74
     0
 95
       29
 96
       25
 40
0.0
 40
0.0
 40
0.0
 40
0.0
 40
1.0
 40
1.0
 40
1.0
 40
2.0
 40
2.0
 40
2.0
 40
3.0
 40
3.0
 40
3.0
 40
4.0
 40
4.0
 40
4.0
 40
5.0
 40
5.0
 40
5.0
 40
6.0
 40
6.0
 40
6.0
 40
7.0
 40
7.0
 40
7.0
 40
8.0
 40
8.0
 40
8.0
 40
8.0
 10
132.2306884435048
 20
-151.3609591635486
 10
132.2306884435048
 20
-151.3609591635486
 10
131.8065971892705
 20
-151.3609591635486
 10
131.8065971892705
 20
-151.3609591635486
 10
131.7824815208738
 20
-151.3609591635486
 10
131.5044623152141
 20
-151.3609591635486
 10
131.3194606876562
 20
-151.3864528701395
 10
131.3194606876562
 20
-151.3864528701395
 10
131.3194606876562
 20
-151.1559759821763
 10
131.3194606876562
 20
-151.1559759821763
 10
131.4582980357118
 20
-151.1790581219274
 10
131.6250406571979
 20
-151.1811251792186
 10
131.8065971892705
 20
-151.1811251792186
 10
131.8065971892705
 20
-151.1811251792186
 10
132.2306884435048
 20
-151.1811251792186
 10
132.2306884435048
 20
-151.1811251792186
 10
132.3932969504086
 20
-151.1811251792186
 10
132.5565944764094
 20
-151.1790581219274
 10
132.7174804355706
 20
-151.1559759821763
 10
132.7174804355706
 20
-151.1559759821763
 10
132.7174804355706
 20
-151.3864528701395
 10
132.7174804355706
 20
-151.3864528701395
 10
132.5565944764094
 20
-151.3630262208398
 10
132.3398979703872
 20
-151.3609591635486
 10
132.2306884435048
 20
-151.3609591635486
 97
        0
 97
        1
330
A5
 75
     2
 76
     1
 98
        1
 10
0.0
 20
0.0
450
        0
451
        0
460
0.0
461
0.0
452
        0
462
0.0
453
        0
470

  0
SPLINE
  5
A7
330
81
100
AcDbEntity
  8
レイヤー 1
100
AcDbSpline
210
0.0
220
0.0
230
1.0
 70
     9
 71
     3
 72
    20
 73
    16
 74
     0
 42
0.0000000001
 43
0.0000000001
 40
0.0
 40
0.0
 40
0.0
 40
0.0
 40
1.0
 40
1.0
 40
1.0
 40
2.0
 40
2.0
 40
2.0
 40
3.0
 40
3.0
 40
3.0
 40
4.0
 40
4.0
 40
4.0
 40
5.0
 40
5.0
 40
5.0
 40
5.0
 10
133.8064751184581
 20
-151.7123589030441
 30
0.0
 10
133.7658229917321
 20
-151.5345919760052
 30
0.0
 10
133.6807291332465
 20
-151.3926540420129
 30
0.0
 10
133.5584282435201
 20
-151.2827554960334
 30
0.0
 10
133.5584282435201
 20
-151.2827554960334
 30
0.0
 10
133.6993326488668
 20
-151.1683783259232
 30
0.0
 10
133.6993326488668
 20
-151.1683783259232
 30
0.0
 10
133.7527316288882
 20
-151.2107530003917
 30
0.0
 10
133.7882161123863
 20
-151.2445149361472
 30
0.0
 10
133.8547064552516
 20
-151.352690934384
 30
0.0
 10
133.9249864031507
 20
-151.4687906522369
 30
0.0
 10
133.943589918771
 20
-151.5218451227098
 30
0.0
 10
133.9659830394251
 20
-151.5873019369295
 30
0.0
 10
133.9659830394251
 20
-151.5873019369295
 30
0.0
 10
133.8064751184581
 20
-151.7123589030441
 30
0.0
 10
133.8064751184581
 20
-151.7123589030441
 30
0.0
  0
SPLINE
  5
A8
330
81
100
AcDbEntity
  8
レイヤー 1
100
AcDbSpline
210
0.0
220
0.0
230
1.0
 70
     9
 71
     3
 72
    77
 73
    73
 74
     0
 42
0.0000000001
 43
0.0000000001
 40
0.0
 40
0.0
 40
0.0
 40
0.0
 40
1.0
 40
1.0
 40
1.0
 40
2.0
 40
2.0
 40
2.0
 40
3.0
 40
3.0
 40
3.0
 40
4.0
 40
4.0
 40
4.0
 40
5.0
 40
5.0
 40
5.0
 40
6.0
 40
6.0
 40
6.0
 40
7.0
 40
7.0
 40
7.0
 40
8.0
 40
8.0
 40
8.0
 40
9.0
 40
9.0
 40
9.0
 40
10.0
 40
10.0
 40
10.0
 40
11.0
 40
11.0
 40
11.0
 40
12.0
 40
12.0
 40
12.0
 40
13.0
 40
13.0
 40
13.0
 40
14.0
 40
14.0
 40
14.0
 40
15.0
 40
15.0
 40
15.0
 40
16.0
 40
16.0
 40
16.0
 40
17.0
 40
17.0
 40
17.0
 40
18.0
 40
18.0
 40
18.0
 40
19.0
 40
19.0
 40
19.0
 40
20.0
 40
20.0
 40
20.0
 40
21.0
 40
21.0
 40
21.0
 40
22.0
 40
22.0
 40
22.0
 40
23.0
 40
23.0
 40
23.0
 40
24.0
 40
24.0
 40
24.0
 40
24.0
 10
134.4806803049215
 20
-150.986477284302
 30
0.0
 10
134.4197021148326
 20
-150.9823431697197
 30
0.0
 10
134.3604464724863
 20
-150.9823431697197
 30
0.0
 10
134.30119083014
 20
-150.9823431697197
 30
0.0
 10
134.30119083014
 20
-150.9823431697197
 30
0.0
 10
134.30119083014
 20
-151.7568006348038
 30
0.0
 10
134.30119083014
 20
-151.7568006348038
 30
0.0
 10
134.30119083014
 20
-152.0210394585225
 30
0.0
 10
134.2991237728488
 20
-152.0506672796956
 30
0.0
 10
134.2936116200724
 20
-152.0802951008688
 30
0.0
 10
134.2639837988993
 20
-152.213620296148
 30
0.0
 10
134.1751003353798
 20
-152.2218885253125
 30
0.0
 10
134.0214490767377
 20
-152.2218885253125
 30
0.0
 10
133.9863091027881
 20
-152.2218885253125
 30
0.0
 10
133.9714951922016
 20
-152.2218885253125
 30
0.0
 10
133.936355218252
 20
-152.2177544107303
 30
0.0
 10
133.936355218252
 20
-152.2177544107303
 30
0.0
 10
133.8271456913696
 20
-151.9765977267628
 30
0.0
 10
133.8271456913696
 20
-151.9765977267628
 30
0.0
 10
133.9287760081845
 20
-152.0082926052271
 30
0.0
 10
134.0011230133747
 20
-152.0082926052271
 30
0.0
 10
134.0214490767377
 20
-152.0082926052271
 30
0.0
 10
134.0824272668266
 20
-152.0082926052271
 30
0.0
 10
134.1120550879997
 20
-151.9914116373494
 30
0.0
 10
134.1158446930335
 20
-151.9342230522942
 30
0.0
 10
134.1158446930335
 20
-151.9214761989988
 30
0.0
 10
134.1175672407761
 20
-151.8243245063147
 30
0.0
 10
134.1175672407761
 20
-151.7671359212596
 30
0.0
 10
134.1175672407761
 20
-151.7671359212596
 30
0.0
 10
134.1175672407761
 20
-150.9802761124285
 30
0.0
 10
134.1175672407761
 20
-150.9802761124285
 30
0.0
 10
134.1175672407761
 20
-150.9802761124285
 30
0.0
 10
133.860218608028
 20
-150.9802761124285
 30
0.0
 10
133.860218608028
 20
-150.9802761124285
 30
0.0
 10
133.7324055655252
 20
-150.9802761124285
 30
0.0
 10
133.6045925230224
 20
-150.986477284302
 30
0.0
 10
133.4788465378108
 20
-150.9992241375974
 30
0.0
 10
133.4788465378108
 20
-150.9992241375974
 30
0.0
 10
133.4788465378108
 20
-150.7918293893854
 30
0.0
 10
133.4788465378108
 20
-150.7918293893854
 30
0.0
 10
133.6104491853474
 20
-150.8045762426808
 30
0.0
 10
133.8009629656817
 20
-150.8090548668116
 30
0.0
 10
133.860218608028
 20
-150.8090548668116
 30
0.0
 10
133.860218608028
 20
-150.8090548668116
 30
0.0
 10
134.1175672407761
 20
-150.8090548668116
 30
0.0
 10
134.1175672407761
 20
-150.8090548668116
 30
0.0
 10
134.1158446930335
 20
-150.5403374189621
 30
0.0
 10
134.1158446930335
 20
-150.4642008087381
 30
0.0
 10
134.108265482966
 20
-150.3160617028724
 30
0.0
 10
134.108265482966
 20
-150.3160617028724
 30
0.0
 10
134.3342637467983
 20
-150.3539577532101
 30
0.0
 10
134.3342637467983
 20
-150.3539577532101
 30
0.0
 10
134.3473551096423
 20
-150.3560248105013
 30
0.0
 10
134.3604464724863
 20
-150.3625704919232
 30
0.0
 10
134.3604464724863
 20
-150.3835855743833
 30
0.0
 10
134.3604464724863
 20
-150.4028781091006
 30
0.0
 10
134.3545898101613
 20
-150.4049451663918
 30
0.0
 10
134.3046359256252
 20
-150.4387071021473
 30
0.0
 10
134.30119083014
 20
-150.5169107696624
 30
0.0
 10
134.30119083014
 20
-150.531724680249
 30
0.0
 10
134.30119083014
 20
-150.8090548668116
 30
0.0
 10
134.4565646365247
 20
-150.8045762426808
 30
0.0
 10
134.4731010948539
 20
-150.8045762426808
 30
0.0
 10
134.5027289160271
 20
-150.8004421280985
 30
0.0
 10
134.5471706477868
 20
-150.7963080135162
 30
0.0
 10
134.5509602528206
 20
-150.794240956225
 30
0.0
 10
134.5898898318039
 20
-150.7918293893854
 30
0.0
 10
134.5898898318039
 20
-150.7918293893854
 30
0.0
 10
134.5898898318039
 20
-150.9992241375974
 30
0.0
 10
134.5898898318039
 20
-150.9992241375974
 30
0.0
 10
134.5640516156645
 20
-150.9971570803062
 30
0.0
 10
134.515820278871
 20
-150.9885443415931
 30
0.0
 10
134.4806803049215
 20
-150.986477284302
 30
0.0
  0
SPLINE
  5
A9
330
81
100
AcDbEntity
  8
レイヤー 1
100
AcDbSpline
210
0.0
220
0.0
230
1.0
 70
     9
 71
     3
 72
    53
 73
    49
 74
     0
 42
0.0000000001
 43
0.0000000001
 40
0.0
 40
0.0
 40
0.0
 40
0.0
 40
1.0
 40
1.0
 40
1.0
 40
2.0
 40
2.0
 40
2.0
 40
3.0
 40
3.0
 40
3.0
 40
4.0
 40
4.0
 40
4.0
 40
5.0
 40
5.0
 40
5.0
 40
6.0
 40
6.0
 40
6.0
 40
7.0
 40
7.0
 40
7.0
 40
8.0
 40
8.0
 40
8.0
 40
9.0
 40
9.0
 40
9.0
 40
10.0
 40
10.0
 40
10.0
 40
11.0
 40
11.0
 40
11.0
 40
12.0
 40
12.0
 40
12.0
 40
13.0
 40
13.0
 40
13.0
 40
14.0
 40
14.0
 40
14.0
 40
15.0
 40
15.0
 40
15.0
 40
16.0
 40
16.0
 40
16.0
 40
16.0
 10
133.4733343850344
 20
-150.4872829484893
 30
0.0
 10
133.4140787426881
 20
-150.6395561689373
 30
0.0
 10
133.3768717114474
 20
-150.7177598364525
 30
0.0
 10
133.343798794789
 20
-150.7856282175119
 30
0.0
 10
133.3806613164812
 20
-150.8066432999719
 30
0.0
 10
133.384450921515
 20
-150.8090548668116
 30
0.0
 10
133.384450921515
 20
-150.8238687773982
 30
0.0
 10
133.384450921515
 20
-150.8362711211451
 30
0.0
 10
133.3548231003418
 20
-150.8703775664491
 30
0.0
 10
133.3455213425317
 20
-150.8786457956137
 30
0.0
 10
133.343798794789
 20
-151.0753607478214
 30
0.0
 10
133.343798794789
 20
-151.09672033983
 30
0.0
 10
133.343798794789
 20
-151.2300455351091
 30
0.0
 10
133.3417317374979
 20
-151.2424478788561
 30
0.0
 10
133.3417317374979
 20
-151.2572617894426
 30
0.0
 10
133.3417317374979
 20
-151.2720757000292
 30
0.0
 10
133.3417317374979
 20
-151.2720757000292
 30
0.0
 10
133.3417317374979
 20
-151.807443538437
 30
0.0
 10
133.3417317374979
 20
-151.807443538437
 30
0.0
 10
133.3417317374979
 20
-151.8794460340787
 30
0.0
 10
133.3455213425317
 20
-152.1140570366243
 30
0.0
 10
133.3531005525992
 20
-152.2243000921523
 30
0.0
 10
133.3531005525992
 20
-152.2243000921523
 30
0.0
 10
133.1398491420622
 20
-152.2243000921523
 30
0.0
 10
133.1398491420622
 20
-152.2243000921523
 30
0.0
 10
133.1601752054252
 20
-152.0654811902822
 30
0.0
 10
133.1660318677502
 20
-151.8243245063147
 30
0.0
 10
133.1660318677502
 20
-151.8033094238547
 30
0.0
 10
133.1660318677502
 20
-151.8033094238547
 30
0.0
 10
133.1660318677502
 20
-151.0860405438257
 30
0.0
 10
133.1660318677502
 20
-151.0860405438257
 30
0.0
 10
133.0864501620409
 20
-151.200417713936
 30
0.0
 10
133.032706672471
 20
-151.2593288467338
 30
0.0
 10
132.9954996412303
 20
-151.3017035212024
 30
0.0
 10
132.9954996412303
 20
-151.3017035212024
 30
0.0
 10
132.8287570197442
 20
-151.1642442113409
 30
0.0
 10
132.8287570197442
 20
-151.1642442113409
 30
0.0
 10
133.0750813469395
 20
-150.9485812339642
 30
0.0
 10
133.2435465161683
 20
-150.6395561689373
 30
0.0
 10
133.3417317374979
 20
-150.3033148495769
 30
0.0
 10
133.3417317374979
 20
-150.3033148495769
 30
0.0
 10
133.5343125751234
 20
-150.4176920196872
 30
0.0
 10
133.5343125751234
 20
-150.4176920196872
 30
0.0
 10
133.5453368806761
 20
-150.4238931915607
 30
0.0
 10
133.5529160907437
 20
-150.428027306143
 30
0.0
 10
133.5529160907437
 20
-150.4428412167295
 30
0.0
 10
133.5529160907437
 20
-150.4683349233204
 30
0.0
 10
133.5381021801571
 20
-150.4724690379027
 30
0.0
 10
133.4733343850344
 20
-150.4872829484893
 30
0.0
  0
HATCH
  5
AA
330
81
100
AcDbEntity
  8
レイヤー 1
 62
   250
420
  2299925
440
 33554687
100
AcDbHatch
 10
0.0
 20
0.0
 30
0.0
210
0.0
220
0.0
230
1.0
  2
SOLID
 70
     1
 71
     1
 91
        3
 92
        1
 93
        1
 72
     4
 94
        3
 73
     0
 74
     0
 95
       20
 96
       16
 40
0.0
 40
0.0
 40
0.0
 40
0.0
 40
1.0
 40
1.0
 40
1.0
 40
2.0
 40
2.0
 40
2.0
 40
3.0
 40
3.0
 40
3.0
 40
4.0
 40
4.0
 40
4.0
 40
5.0
 40
5.0
 40
5.0
 40
5.0
 10
133.8064751184581
 20
-151.7123589030441
 10
133.7658229917321
 20
-151.5345919760052
 10
133.6807291332465
 20
-151.3926540420129
 10
133.5584282435201
 20
-151.2827554960334
 10
133.5584282435201
 20
-151.2827554960334
 10
133.6993326488668
 20
-151.1683783259232
 10
133.6993326488668
 20
-151.1683783259232
 10
133.7527316288882
 20
-151.2107530003917
 10
133.7882161123863
 20
-151.2445149361472
 10
133.8547064552516
 20
-151.352690934384
 10
133.9249864031507
 20
-151.4687906522369
 10
133.943589918771
 20
-151.5218451227098
 10
133.9659830394251
 20
-151.5873019369295
 10
133.9659830394251
 20
-151.5873019369295
 10
133.8064751184581
 20
-151.7123589030441
 10
133.8064751184581
 20
-151.7123589030441
 97
        0
 97
        1
330
A7
 92
        1
 93
        1
 72
     4
 94
        3
 73
     0
 74
     0
 95
       77
 96
       73
 40
0.0
 40
0.0
 40
0.0
 40
0.0
 40
1.0
 40
1.0
 40
1.0
 40
2.0
 40
2.0
 40
2.0
 40
3.0
 40
3.0
 40
3.0
 40
4.0
 40
4.0
 40
4.0
 40
5.0
 40
5.0
 40
5.0
 40
6.0
 40
6.0
 40
6.0
 40
7.0
 40
7.0
 40
7.0
 40
8.0
 40
8.0
 40
8.0
 40
9.0
 40
9.0
 40
9.0
 40
10.0
 40
10.0
 40
10.0
 40
11.0
 40
11.0
 40
11.0
 40
12.0
 40
12.0
 40
12.0
 40
13.0
 40
13.0
 40
13.0
 40
14.0
 40
14.0
 40
14.0
 40
15.0
 40
15.0
 40
15.0
 40
16.0
 40
16.0
 40
16.0
 40
17.0
 40
17.0
 40
17.0
 40
18.0
 40
18.0
 40
18.0
 40
19.0
 40
19.0
 40
19.0
 40
20.0
 40
20.0
 40
20.0
 40
21.0
 40
21.0
 40
21.0
 40
22.0
 40
22.0
 40
22.0
 40
23.0
 40
23.0
 40
23.0
 40
24.0
 40
24.0
 40
24.0
 40
24.0
 10
134.4806803049215
 20
-150.986477284302
 10
134.4197021148326
 20
-150.9823431697197
 10
134.3604464724863
 20
-150.9823431697197
 10
134.30119083014
 20
-150.9823431697197
 10
134.30119083014
 20
-150.9823431697197
 10
134.30119083014
 20
-151.7568006348038
 10
134.30119083014
 20
-151.7568006348038
 10
134.30119083014
 20
-152.0210394585225
 10
134.2991237728488
 20
-152.0506672796956
 10
134.2936116200724
 20
-152.0802951008688
 10
134.2639837988993
 20
-152.213620296148
 10
134.1751003353798
 20
-152.2218885253125
 10
134.0214490767377
 20
-152.2218885253125
 10
133.9863091027881
 20
-152.2218885253125
 10
133.9714951922016
 20
-152.2218885253125
 10
133.936355218252
 20
-152.2177544107303
 10
133.936355218252
 20
-152.2177544107303
 10
133.8271456913696
 20
-151.9765977267628
 10
133.8271456913696
 20
-151.9765977267628
 10
133.9287760081845
 20
-152.0082926052271
 10
134.0011230133747
 20
-152.0082926052271
 10
134.0214490767377
 20
-152.0082926052271
 10
134.0824272668266
 20
-152.0082926052271
 10
134.1120550879997
 20
-151.9914116373494
 10
134.1158446930335
 20
-151.9342230522942
 10
134.1158446930335
 20
-151.9214761989988
 10
134.1175672407761
 20
-151.8243245063147
 10
134.1175672407761
 20
-151.7671359212596
 10
134.1175672407761
 20
-151.7671359212596
 10
134.1175672407761
 20
-150.9802761124285
 10
134.1175672407761
 20
-150.9802761124285
 10
134.1175672407761
 20
-150.9802761124285
 10
133.860218608028
 20
-150.9802761124285
 10
133.860218608028
 20
-150.9802761124285
 10
133.7324055655252
 20
-150.9802761124285
 10
133.6045925230224
 20
-150.986477284302
 10
133.4788465378108
 20
-150.9992241375974
 10
133.4788465378108
 20
-150.9992241375974
 10
133.4788465378108
 20
-150.7918293893854
 10
133.4788465378108
 20
-150.7918293893854
 10
133.6104491853474
 20
-150.8045762426808
 10
133.8009629656817
 20
-150.8090548668116
 10
133.860218608028
 20
-150.8090548668116
 10
133.860218608028
 20
-150.8090548668116
 10
134.1175672407761
 20
-150.8090548668116
 10
134.1175672407761
 20
-150.8090548668116
 10
134.1158446930335
 20
-150.5403374189621
 10
134.1158446930335
 20
-150.4642008087381
 10
134.108265482966
 20
-150.3160617028724
 10
134.108265482966
 20
-150.3160617028724
 10
134.3342637467983
 20
-150.3539577532101
 10
134.3342637467983
 20
-150.3539577532101
 10
134.3473551096423
 20
-150.3560248105013
 10
134.3604464724863
 20
-150.3625704919232
 10
134.3604464724863
 20
-150.3835855743833
 10
134.3604464724863
 20
-150.4028781091006
 10
134.3545898101613
 20
-150.4049451663918
 10
134.3046359256252
 20
-150.4387071021473
 10
134.30119083014
 20
-150.5169107696624
 10
134.30119083014
 20
-150.531724680249
 10
134.30119083014
 20
-150.8090548668116
 10
134.4565646365247
 20
-150.8045762426808
 10
134.4731010948539
 20
-150.8045762426808
 10
134.5027289160271
 20
-150.8004421280985
 10
134.5471706477868
 20
-150.7963080135162
 10
134.5509602528206
 20
-150.794240956225
 10
134.5898898318039
 20
-150.7918293893854
 10
134.5898898318039
 20
-150.7918293893854
 10
134.5898898318039
 20
-150.9992241375974
 10
134.5898898318039
 20
-150.9992241375974
 10
134.5640516156645
 20
-150.9971570803062
 10
134.515820278871
 20
-150.9885443415931
 10
134.4806803049215
 20
-150.986477284302
 97
        0
 97
        1
330
A8
 92
        1
 93
        1
 72
     4
 94
        3
 73
     0
 74
     0
 95
       53
 96
       49
 40
0.0
 40
0.0
 40
0.0
 40
0.0
 40
1.0
 40
1.0
 40
1.0
 40
2.0
 40
2.0
 40
2.0
 40
3.0
 40
3.0
 40
3.0
 40
4.0
 40
4.0
 40
4.0
 40
5.0
 40
5.0
 40
5.0
 40
6.0
 40
6.0
 40
6.0
 40
7.0
 40
7.0
 40
7.0
 40
8.0
 40
8.0
 40
8.0
 40
9.0
 40
9.0
 40
9.0
 40
10.0
 40
10.0
 40
10.0
 40
11.0
 40
11.0
 40
11.0
 40
12.0
 40
12.0
 40
12.0
 40
13.0
 40
13.0
 40
13.0
 40
14.0
 40
14.0
 40
14.0
 40
15.0
 40
15.0
 40
15.0
 40
16.0
 40
16.0
 40
16.0
 40
16.0
 10
133.4733343850344
 20
-150.4872829484893
 10
133.4140787426881
 20
-150.6395561689373
 10
133.3768717114474
 20
-150.7177598364525
 10
133.343798794789
 20
-150.7856282175119
 10
133.3806613164812
 20
-150.8066432999719
 10
133.384450921515
 20
-150.8090548668116
 10
133.384450921515
 20
-150.8238687773982
 10
133.384450921515
 20
-150.8362711211451
 10
133.3548231003418
 20
-150.8703775664491
 10
133.3455213425317
 20
-150.8786457956137
 10
133.343798794789
 20
-151.0753607478214
 10
133.343798794789
 20
-151.09672033983
 10
133.343798794789
 20
-151.2300455351091
 10
133.3417317374979
 20
-151.2424478788561
 10
133.3417317374979
 20
-151.2572617894426
 10
133.3417317374979
 20
-151.2720757000292
 10
133.3417317374979
 20
-151.2720757000292
 10
133.3417317374979
 20
-151.807443538437
 10
133.3417317374979
 20
-151.807443538437
 10
133.3417317374979
 20
-151.8794460340787
 10
133.3455213425317
 20
-152.1140570366243
 10
133.3531005525992
 20
-152.2243000921523
 10
133.3531005525992
 20
-152.2243000921523
 10
133.1398491420622
 20
-152.2243000921523
 10
133.1398491420622
 20
-152.2243000921523
 10
133.1601752054252
 20
-152.0654811902822
 10
133.1660318677502
 20
-151.8243245063147
 10
133.1660318677502
 20
-151.8033094238547
 10
133.1660318677502
 20
-151.8033094238547
 10
133.1660318677502
 20
-151.0860405438257
 10
133.1660318677502
 20
-151.0860405438257
 10
133.0864501620409
 20
-151.200417713936
 10
133.032706672471
 20
-151.2593288467338
 10
132.9954996412303
 20
-151.3017035212024
 10
132.9954996412303
 20
-151.3017035212024
 10
132.8287570197442
 20
-151.1642442113409
 10
132.8287570197442
 20
-151.1642442113409
 10
133.0750813469395
 20
-150.9485812339642
 10
133.2435465161683
 20
-150.6395561689373
 10
133.3417317374979
 20
-150.3033148495769
 10
133.3417317374979
 20
-150.3033148495769
 10
133.5343125751234
 20
-150.4176920196872
 10
133.5343125751234
 20
-150.4176920196872
 10
133.5453368806761
 20
-150.4238931915607
 10
133.5529160907437
 20
-150.428027306143
 10
133.5529160907437
 20
-150.4428412167295
 10
133.5529160907437
 20
-150.4683349233204
 10
133.5381021801571
 20
-150.4724690379027
 10
133.4733343850344
 20
-150.4872829484893
 97
        0
 97
        1
330
A9
 75
     2
 76
     1
 98
        1
 10
0.0
 20
0.0
450
        0
451
        0
460
0.0
461
0.0
452
        0
462
0.0
453
        0
470

  0
ENDBLK
  5
84
330
81
100
AcDbEntity
  8
0
100
AcDbBlockEnd
  0
BLOCK
  5
AD
330
AB
100
AcDbEntity
  8
0
100
AcDbBlockBegin
  2
Block_3
 70
     0
 10
0.0
 20
0.0
 30
0.0
  3
Block_3
  1

  0
LWPOLYLINE
  5
AF
330
AB
100
AcDbEntity
  8
レイヤー 1
 62
   250
420
  2299925
370
     9
100
AcDbPolyline
 90
        3
 70
     0
 43
0.0
 10
118.5378604846863
 20
-144.5867510522991
 10
124.7114714382955
 20
-152.7002871613814
 10
135.3533656112426
 20
-152.7002871613814
  0
LWPOLYLINE
  5
B0
330
AB
100
AcDbEntity
  8
レイヤー 1
  6
AI-Linetype-0
 62
   154
420
    23468
370
    25
100
AcDbPolyline
 90
        6
 70
     0
 43
0.0
 10
79.79086758427957
 20
-145.0570038299592
 10
101.4279634122035
 20
-144.2339732746095
 10
101.4279634122035
 20
-152.583164939189
 10
110.4237967432876
 20
-152.583164939189
 10
110.4237967432876
 20
-144.1750593857352
 10
131.9434156982377
 20
-145.0570038299592
  0
INSERT
  5
B3
330
AB
100
AcDbEntity
  8
レイヤー 1
100
AcDbBlockReference
  2
Block_4
 10
0.0
 20
0.0
 30
0.0
  0
ENDBLK
  5
AE
330
AB
100
AcDbEntity
  8
0
100
AcDbBlockEnd
  0
BLOCK
  5
B4
330
B2
100
AcDbEntity
  8
0
100
AcDbBlockBegin
  2
Block_4
 70
     0
 10
0.0
 20
0.0
 30
0.0
  3
Block_4
  1

  0
LINE
  5
B6
330
B2
100
AcDbEntity
  8
レイヤー 1
 62
   250
420
  2299925
370
    25
100
AcDbLine
 10
111.8378345445071
 20
-154.1578943832396
 30
0.0
 11
99.83785179509666
 21
-154.1578943832396
 31
0.0
  0
LINE
  5
B7
330
B2
100
AcDbEntity
  8
レイヤー 1
 62
   250
420
  2299925
370
    25
100
AcDbLine
 10
79.83701091760133
 20
-145.6578196631426
 30
0.0
 11
79.83701091760133
 21
-146.1580585519062
 31
0.0
  0
LINE
  5
B8
330
B2
100
AcDbEntity
  8
レイヤー 1
 62
   250
420
  2299925
370
    25
100
AcDbLine
 10
99.83785179509666
 20
-146.1580585519062
 30
0.0
 11
79.83701091760133
 21
-146.1580585519062
 31
0.0
  0
LINE
  5
B9
330
B2
100
AcDbEntity
  8
レイヤー 1
 62
   250
420
  2299925
370
    25
100
AcDbLine
 10
79.83701091760133
 20
-145.6578196631426
 30
0.0
 11
80.35069063969524
 21
-146.0398779963805
 31
0.0
  0
LINE
  5
BA
330
B2
100
AcDbEntity
  8
レイヤー 1
 62
   250
420
  2299925
370
    25
100
AcDbLine
 10
80.35069063969524
 20
-146.0398779963805
 30
0.0
 11
80.83611286179618
 21
-145.622330218707
 31
0.0
  0
LINE
  5
BB
330
B2
100
AcDbEntity
  8
レイヤー 1
 62
   250
420
  2299925
370
    25
100
AcDbLine
 10
81.35011008388969
 20
-146.0043885519447
 30
0.0
 11
81.83553230599097
 21
-145.5865232742713
 31
0.0
  0
LINE
  5
BC
330
B2
100
AcDbEntity
  8
レイヤー 1
 62
   250
420
  2299925
370
    25
100
AcDbLine
 10
80.83611286179618
 20
-145.622330218707
 30
0.0
 11
81.35011008388969
 21
-146.0043885519447
 31
0.0
  0
LINE
  5
BD
330
B2
100
AcDbEntity
  8
レイヤー 1
 62
   250
420
  2299925
370
    25
100
AcDbLine
 10
81.83553230599097
 20
-145.5865232742713
 30
0.0
 11
82.34952952808448
 21
-145.9685816075093
 31
0.0
  0
LINE
  5
BE
330
B2
100
AcDbEntity
  8
レイヤー 1
 62
   250
420
  2299925
370
    25
100
AcDbLine
 10
82.34952952808448
 20
-145.9685816075093
 30
0.0
 11
82.8349517501851
 21
-145.5510338298358
 31
0.0
  0
LINE
  5
BF
330
B2
100
AcDbEntity
  8
レイヤー 1
 62
   250
420
  2299925
370
    25
100
AcDbLine
 10
82.8349517501851
 20
-145.5510338298358
 30
0.0
 11
83.34894897227895
 21
-145.9327393852961
 31
0.0
  0
LINE
  5
C0
330
B2
100
AcDbEntity
  8
レイヤー 1
 62
   250
420
  2299925
370
    25
100
AcDbLine
 10
83.34894897227895
 20
-145.9327393852961
 30
0.0
 11
83.83401841660212
 21
-145.5151916076226
 31
0.0
  0
LINE
  5
C1
330
B2
100
AcDbEntity
  8
レイヤー 1
 62
   250
420
  2299925
370
    25
100
AcDbLine
 10
83.83401841660212
 20
-145.5151916076226
 30
0.0
 11
84.34801563869596
 21
-145.8968971630828
 31
0.0
  0
LINE
  5
C2
330
B2
100
AcDbEntity
  8
レイヤー 1
 62
   250
420
  2299925
370
    25
100
AcDbLine
 10
84.34801563869596
 20
-145.8968971630828
 30
0.0
 11
84.83379063857434
 21
-145.4793493854093
 31
0.0
  0
LINE
  5
C3
330
B2
100
AcDbEntity
  8
レイヤー 1
 62
   250
420
  2299925
370
    25
100
AcDbLine
 10
84.83379063857434
 20
-145.4793493854093
 30
0.0
 11
85.34778786066819
 21
-145.8614429964248
 31
0.0
  0
LINE
  5
C4
330
B2
100
AcDbEntity
  8
レイヤー 1
 62
   250
420
  2299925
370
    25
100
AcDbLine
 10
85.34778786066819
 20
-145.8614429964248
 30
0.0
 11
85.83285730499136
 21
-145.4438952187514
 31
0.0
  0
LINE
  5
C5
330
B2
100
AcDbEntity
  8
レイヤー 1
 62
   250
420
  2299925
370
    25
100
AcDbLine
 10
85.83285730499136
 20
-145.4438952187514
 30
0.0
 11
86.34688980486272
 21
-145.8259535519894
 31
0.0
  0
LINE
  5
C6
330
B2
100
AcDbEntity
  8
レイヤー 1
 62
   250
420
  2299925
370
    25
100
AcDbLine
 10
86.34688980486272
 20
-145.8259535519894
 30
0.0
 11
86.83227674918581
 21
-145.4080529965381
 31
0.0
  0
LINE
  5
C7
330
B2
100
AcDbEntity
  8
レイヤー 1
 62
   250
420
  2299925
370
    25
100
AcDbLine
 10
87.34630924905749
 20
-145.7901113297761
 30
0.0
 11
87.83169619338059
 21
-145.3725635521026
 31
0.0
  0
LINE
  5
C8
330
B2
100
AcDbEntity
  8
レイヤー 1
 62
   250
420
  2299925
370
    25
100
AcDbLine
 10
86.83227674918581
 20
-145.4080529965381
 30
0.0
 11
87.34630924905749
 21
-145.7901113297761
 31
0.0
  0
LINE
  5
C9
330
B2
100
AcDbEntity
  8
レイヤー 1
 62
   250
420
  2299925
370
    25
100
AcDbLine
 10
87.83169619338059
 20
-145.3725635521026
 30
0.0
 11
88.34572869325196
 21
-145.7542691075629
 31
0.0
  0
LINE
  5
CA
330
B2
100
AcDbEntity
  8
レイヤー 1
 62
   250
420
  2299925
370
    25
100
AcDbLine
 10
88.34572869325196
 20
-145.7542691075629
 30
0.0
 11
88.83111563757505
 21
-145.3367213298894
 31
0.0
  0
LINE
  5
CB
330
B2
100
AcDbEntity
  8
レイヤー 1
 62
   250
420
  2299925
370
    25
100
AcDbLine
 10
89.34479535966898
 20
-145.7184621631271
 30
0.0
 11
89.83057035954734
 21
-145.300914385454
 31
0.0
  0
LINE
  5
CC
330
B2
100
AcDbEntity
  8
レイヤー 1
 62
   250
420
  2299925
370
    25
100
AcDbLine
 10
88.83111563757505
 20
-145.3367213298894
 30
0.0
 11
89.34479535966898
 21
-145.7184621631271
 31
0.0
  0
LINE
  5
CD
330
B2
100
AcDbEntity
  8
レイヤー 1
 62
   250
420
  2299925
370
    25
100
AcDbLine
 10
90.3445675816412
 20
-145.682972718692
 30
0.0
 11
90.82963702596437
 21
-145.2654249410185
 31
0.0
  0
LINE
  5
CE
330
B2
100
AcDbEntity
  8
レイヤー 1
 62
   250
420
  2299925
370
    25
100
AcDbLine
 10
89.83057035954734
 20
-145.300914385454
 30
0.0
 11
90.3445675816412
 21
-145.682972718692
 31
0.0
  0
LINE
  5
CF
330
B2
100
AcDbEntity
  8
レイヤー 1
 62
   250
420
  2299925
370
    25
100
AcDbLine
 10
90.82963702596437
 20
-145.2654249410185
 30
0.0
 11
91.34363424805822
 21
-145.6474832742562
 31
0.0
  0
LINE
  5
D0
330
B2
100
AcDbEntity
  8
レイヤー 1
 62
   250
420
  2299925
370
    25
100
AcDbLine
 10
91.34363424805822
 20
-145.6474832742562
 30
0.0
 11
91.8294092479366
 21
-145.2295827188049
 31
0.0
  0
LINE
  5
D1
330
B2
100
AcDbEntity
  8
レイヤー 1
 62
   250
420
  2299925
370
    25
100
AcDbLine
 10
91.8294092479366
 20
-145.2295827188049
 30
0.0
 11
92.34305369225268
 21
-145.6116410520429
 31
0.0
  0
LINE
  5
D2
330
B2
100
AcDbEntity
  8
レイヤー 1
 62
   250
420
  2299925
370
    25
100
AcDbLine
 10
92.34305369225268
 20
-145.6116410520429
 30
0.0
 11
92.82847591435361
 21
-145.1941285521473
 31
0.0
  0
LINE
  5
D3
330
B2
100
AcDbEntity
  8
レイヤー 1
 62
   250
420
  2299925
370
    25
100
AcDbLine
 10
92.82847591435361
 20
-145.1941285521473
 30
0.0
 11
93.34247223858504
 21
-145.5758341076075
 31
0.0
  0
LINE
  5
D4
330
B2
100
AcDbEntity
  8
レイヤー 1
 62
   250
420
  2299925
370
    25
100
AcDbLine
 10
93.34247223858504
 20
-145.5758341076075
 30
0.0
 11
93.82789444842313
 21
-145.158286329934
 31
0.0
  0
LINE
  5
D5
330
B2
100
AcDbEntity
  8
レイヤー 1
 62
   250
420
  2299925
370
    25
100
AcDbLine
 10
93.82789444842313
 20
-145.158286329934
 30
0.0
 11
94.34189165753217
 21
-145.5399918853943
 31
0.0
  0
LINE
  5
D6
330
B2
100
AcDbEntity
  8
レイヤー 1
 62
   250
420
  2299925
370
    25
100
AcDbLine
 10
94.34189165753217
 20
-145.5399918853943
 30
0.0
 11
94.82731386737055
 21
-145.1224441077208
 31
0.0
  0
LINE
  5
D7
330
B2
100
AcDbEntity
  8
レイヤー 1
 62
   250
420
  2299925
370
    25
100
AcDbLine
 10
94.82731386737055
 20
-145.1224441077208
 30
0.0
 11
95.34134635425649
 21
-145.5045024409584
 31
0.0
  0
LINE
  5
D8
330
B2
100
AcDbEntity
  8
レイヤー 1
 62
   250
420
  2299925
370
    25
100
AcDbLine
 10
95.34134635425649
 20
-145.5045024409584
 30
0.0
 11
95.82641578632548
 21
-145.0869546632853
 31
0.0
  0
LINE
  5
D9
330
B2
100
AcDbEntity
  8
レイヤー 1
 62
   250
420
  2299925
370
    25
100
AcDbLine
 10
95.82641578632548
 20
-145.0869546632853
 30
0.0
 11
96.34041299543454
 21
-145.469012996523
 31
0.0
  0
LINE
  5
DA
330
B2
100
AcDbEntity
  8
レイヤー 1
 62
   250
420
  2299925
370
    25
100
AcDbLine
 10
96.34041299543454
 20
-145.469012996523
 30
0.0
 11
96.82615270526451
 21
-145.0511477188495
 31
0.0
  0
LINE
  5
DB
330
B2
100
AcDbEntity
  8
レイヤー 1
 62
   250
420
  2299925
370
    25
100
AcDbLine
 10
96.82615270526451
 20
-145.0511477188495
 30
0.0
 11
97.34018519215045
 21
-145.4332060520876
 31
0.0
  0
LINE
  5
DC
330
B2
100
AcDbEntity
  8
レイヤー 1
 62
   250
420
  2299925
370
    25
100
AcDbLine
 10
97.34018519215045
 20
-145.4332060520876
 30
0.0
 11
97.82525462421943
 21
-145.0156582744144
 31
0.0
  0
LINE
  5
DD
330
B2
100
AcDbEntity
  8
レイヤー 1
 62
   250
420
  2299925
370
    25
100
AcDbLine
 10
97.82525462421943
 20
-145.0156582744144
 30
0.0
 11
98.3392518333288
 21
-145.3973638298743
 31
0.0
  0
LINE
  5
DE
330
B2
100
AcDbEntity
  8
レイヤー 1
 62
   250
420
  2299925
370
    25
100
AcDbLine
 10
98.3392518333288
 20
-145.3973638298743
 30
0.0
 11
98.82432126539811
 21
-144.9798160522008
 31
0.0
  0
LINE
  5
DF
330
B2
100
AcDbEntity
  8
レイヤー 1
 62
   250
420
  2299925
370
    25
100
AcDbLine
 10
98.82432126539811
 20
-144.9798160522008
 30
0.0
 11
99.33831847450715
 21
-145.3615568854389
 31
0.0
  0
LINE
  5
E0
330
B2
100
AcDbEntity
  8
レイヤー 1
 62
   250
420
  2299925
370
    25
100
AcDbLine
 10
99.33831847450715
 20
-145.3615568854389
 30
0.0
 11
99.82409346211401
 21
-144.9440091077654
 31
0.0
  0
LINE
  5
E1
330
B2
100
AcDbEntity
  8
レイヤー 1
 62
   250
420
  2299925
370
    25
100
AcDbLine
 10
99.88166502266523
 20
-144.8957491077774
 30
0.0
 11
100.8383295473498
 21
-144.8957491077774
 31
0.0
  0
LINE
  5
E2
330
B2
100
AcDbEntity
  8
レイヤー 1
 62
   250
420
  2299925
370
    25
100
AcDbLine
 10
100.8383295473498
 20
-144.8957491077774
 30
0.0
 11
100.8383295473498
 21
-153.1578046612674
 31
0.0
  0
LINE
  5
E3
330
B2
100
AcDbEntity
  8
レイヤー 1
 62
   250
420
  2299925
370
    25
100
AcDbLine
 10
99.83785179509666
 20
-146.1580585519062
 30
0.0
 11
99.83785179509666
 21
-154.1578943832396
 31
0.0
  0
LINE
  5
E4
330
B2
100
AcDbEntity
  8
レイヤー 1
 62
   250
420
  2299925
370
    25
100
AcDbLine
 10
110.8380623477912
 20
-153.1578046612674
 30
0.0
 11
100.8383295473498
 21
-153.1578046612674
 31
0.0
  0
LINE
  5
E5
330
B2
100
AcDbEntity
  8
レイヤー 1
 62
   250
420
  2299925
370
    25
100
AcDbLine
 10
121.8458223447376
 20
-145.300914385454
 30
0.0
 11
121.3318251356286
 21
-145.682972718692
 31
0.0
  0
LINE
  5
E6
330
B2
100
AcDbEntity
  8
レイヤー 1
 62
   250
420
  2299925
370
    25
100
AcDbLine
 10
126.8426019394814
 20
-145.4793493854093
 30
0.0
 11
126.3285694525954
 21
-145.8614429964248
 31
0.0
  0
LINE
  5
E7
330
B2
100
AcDbEntity
  8
レイヤー 1
 62
   250
420
  2299925
370
    25
100
AcDbLine
 10
122.3308917768069
 20
-145.7184621631271
 30
0.0
 11
121.8458223447376
 21
-145.300914385454
 31
0.0
  0
LINE
  5
E8
330
B2
100
AcDbEntity
  8
レイヤー 1
 62
   250
420
  2299925
370
    25
100
AcDbLine
 10
123.3306639735228
 20
-145.7542691075629
 30
0.0
 11
122.844888985916
 21
-145.3367213298894
 31
0.0
  0
LINE
  5
E9
330
B2
100
AcDbEntity
  8
レイヤー 1
 62
   250
420
  2299925
370
    25
100
AcDbLine
 10
121.3318251356286
 20
-145.682972718692
 30
0.0
 11
120.8460501480217
 21
-145.2654249410185
 31
0.0
  0
LINE
  5
EA
330
B2
100
AcDbEntity
  8
レイヤー 1
 62
   250
420
  2299925
370
    25
100
AcDbLine
 10
122.844888985916
 20
-145.3367213298894
 30
0.0
 11
122.3308917768069
 21
-145.7184621631271
 31
0.0
  0
LINE
  5
EB
330
B2
100
AcDbEntity
  8
レイヤー 1
 62
   250
420
  2299925
370
    25
100
AcDbLine
 10
130.8402796152699
 20
-145.622330218707
 30
0.0
 11
130.3262824061609
 21
-146.0043885519447
 31
0.0
  0
LINE
  5
EC
330
B2
100
AcDbEntity
  8
レイヤー 1
 62
   250
420
  2299925
370
    25
100
AcDbLine
 10
123.8446611826319
 20
-145.3725635521026
 30
0.0
 11
123.3306639735228
 21
-145.7542691075629
 31
0.0
  0
LINE
  5
ED
330
B2
100
AcDbEntity
  8
レイヤー 1
 62
   250
420
  2299925
370
    25
100
AcDbLine
 10
124.8437631015871
 20
-145.4080529965381
 30
0.0
 11
124.3297306147012
 21
-145.7901113297761
 31
0.0
  0
LINE
  5
EE
330
B2
100
AcDbEntity
  8
レイヤー 1
 62
   250
420
  2299925
370
    25
100
AcDbLine
 10
110.8380623477912
 20
-144.8957491077774
 30
0.0
 11
110.8380623477912
 21
-153.1578046612674
 31
0.0
  0
LINE
  5
EF
330
B2
100
AcDbEntity
  8
レイヤー 1
 62
   250
420
  2299925
370
    25
100
AcDbLine
 10
124.3297306147012
 20
-145.7901113297761
 30
0.0
 11
123.8446611826319
 21
-145.3725635521026
 31
0.0
  0
LINE
  5
F0
330
B2
100
AcDbEntity
  8
レイヤー 1
 62
   250
420
  2299925
370
    25
100
AcDbLine
 10
125.3295028114171
 20
-145.8259535519894
 30
0.0
 11
124.8437631015871
 21
-145.4080529965381
 31
0.0
  0
LINE
  5
F1
330
B2
100
AcDbEntity
  8
レイヤー 1
 62
   250
420
  2299925
370
    25
100
AcDbLine
 10
130.3262824061609
 20
-146.0043885519447
 30
0.0
 11
129.840507418554
 21
-145.5865232742713
 31
0.0
  0
LINE
  5
F2
330
B2
100
AcDbEntity
  8
レイヤー 1
 62
   250
420
  2299925
370
    25
100
AcDbLine
 10
125.8428297427655
 20
-145.4438952187514
 30
0.0
 11
125.3295028114171
 21
-145.8259535519894
 31
0.0
  0
LINE
  5
F3
330
B2
100
AcDbEntity
  8
レイヤー 1
 62
   250
420
  2299925
370
    25
100
AcDbLine
 10
126.3285694525954
 20
-145.8614429964248
 30
0.0
 11
125.8428297427655
 21
-145.4438952187514
 31
0.0
  0
LINE
  5
F4
330
B2
100
AcDbEntity
  8
レイヤー 1
 62
   250
420
  2299925
370
    25
100
AcDbLine
 10
131.3253490473392
 20
-146.0398779963805
 30
0.0
 11
130.8402796152699
 21
-145.622330218707
 31
0.0
  0
LINE
  5
F5
330
B2
100
AcDbEntity
  8
レイヤー 1
 62
   250
420
  2299925
370
    25
100
AcDbLine
 10
127.8416685806597
 20
-145.5151916076226
 30
0.0
 11
127.3276713715507
 21
-145.8968971630828
 31
0.0
  0
LINE
  5
F6
330
B2
100
AcDbEntity
  8
レイヤー 1
 62
   250
420
  2299925
370
    25
100
AcDbLine
 10
128.8414407773757
 20
-145.5510338298358
 30
0.0
 11
128.3274435682666
 21
-145.9327393852961
 31
0.0
  0
LINE
  5
F7
330
B2
100
AcDbEntity
  8
レイヤー 1
 62
   250
420
  2299925
370
    25
100
AcDbLine
 10
128.3274435682666
 20
-145.9327393852961
 30
0.0
 11
127.8416685806597
 21
-145.5151916076226
 31
0.0
  0
LINE
  5
F8
330
B2
100
AcDbEntity
  8
レイヤー 1
 62
   250
420
  2299925
370
    25
100
AcDbLine
 10
131.8393462564483
 20
-145.6578196631426
 30
0.0
 11
131.3253490473392
 21
-146.0398779963805
 31
0.0
  0
LINE
  5
F9
330
B2
100
AcDbEntity
  8
レイヤー 1
 62
   250
420
  2299925
370
    25
100
AcDbLine
 10
127.3276713715507
 20
-145.8968971630828
 30
0.0
 11
126.8426019394814
 21
-145.4793493854093
 31
0.0
  0
LINE
  5
FA
330
B2
100
AcDbEntity
  8
レイヤー 1
 62
   250
420
  2299925
370
    25
100
AcDbLine
 10
129.840507418554
 20
-145.5865232742713
 30
0.0
 11
129.3265102094449
 21
-145.9685816075093
 31
0.0
  0
LINE
  5
FB
330
B2
100
AcDbEntity
  8
レイヤー 1
 62
   250
420
  2299925
370
    25
100
AcDbLine
 10
129.3265102094449
 20
-145.9685816075093
 30
0.0
 11
128.8414407773757
 21
-145.5510338298358
 31
0.0
  0
LINE
  5
FC
330
B2
100
AcDbEntity
  8
レイヤー 1
 62
   250
420
  2299925
370
    25
100
AcDbLine
 10
131.8393462564483
 20
-145.6578196631426
 30
0.0
 11
131.8393462564483
 21
-146.1580585519062
 31
0.0
  0
LINE
  5
FD
330
B2
100
AcDbEntity
  8
レイヤー 1
 62
   250
420
  2299925
370
    25
100
AcDbLine
 10
111.8378345445071
 20
-146.1580585519062
 30
0.0
 11
131.8393462564483
 21
-146.1580585519062
 31
0.0
  0
LINE
  5
FE
330
B2
100
AcDbEntity
  8
レイヤー 1
 62
   250
420
  2299925
370
    25
100
AcDbLine
 10
120.8460501480217
 20
-145.2654249410185
 30
0.0
 11
120.3320529389127
 21
-145.6474832742562
 31
0.0
  0
LINE
  5
FF
330
B2
100
AcDbEntity
  8
レイヤー 1
 62
   250
420
  2299925
370
    25
100
AcDbLine
 10
120.3320529389127
 20
-145.6474832742562
 30
0.0
 11
119.8469835068434
 21
-145.2295827188049
 31
0.0
  0
LINE
  5
100
330
B2
100
AcDbEntity
  8
レイヤー 1
 62
   250
420
  2299925
370
    25
100
AcDbLine
 10
119.8469835068434
 20
-145.2295827188049
 30
0.0
 11
119.3329862977343
 21
-145.6116410520429
 31
0.0
  0
LINE
  5
101
330
B2
100
AcDbEntity
  8
レイヤー 1
 62
   250
420
  2299925
370
    25
100
AcDbLine
 10
119.3329862977343
 20
-145.6116410520429
 30
0.0
 11
118.847916865665
 21
-145.1941285521473
 31
0.0
  0
LINE
  5
102
330
B2
100
AcDbEntity
  8
レイヤー 1
 62
   250
420
  2299925
370
    25
100
AcDbLine
 10
118.847916865665
 20
-145.1941285521473
 30
0.0
 11
118.3338843787791
 21
-145.5758341076075
 31
0.0
  0
LINE
  5
103
330
B2
100
AcDbEntity
  8
レイヤー 1
 62
   250
420
  2299925
370
    25
100
AcDbLine
 10
118.3338843787791
 20
-145.5758341076075
 30
0.0
 11
117.8481446689491
 21
-145.158286329934
 31
0.0
  0
LINE
  5
104
330
B2
100
AcDbEntity
  8
レイヤー 1
 62
   250
420
  2299925
370
    25
100
AcDbLine
 10
117.8481446689491
 20
-145.158286329934
 30
0.0
 11
117.3341121820632
 21
-145.5399918853943
 31
0.0
  0
LINE
  5
105
330
B2
100
AcDbEntity
  8
レイヤー 1
 62
   250
420
  2299925
370
    25
100
AcDbLine
 10
117.3341121820632
 20
-145.5399918853943
 30
0.0
 11
116.8490427499939
 21
-145.1224441077208
 31
0.0
  0
LINE
  5
106
330
B2
100
AcDbEntity
  8
レイヤー 1
 62
   250
420
  2299925
370
    25
100
AcDbLine
 10
116.8490427499939
 20
-145.1224441077208
 30
0.0
 11
116.3350455408848
 21
-145.5045024409584
 31
0.0
  0
LINE
  5
107
330
B2
100
AcDbEntity
  8
レイヤー 1
 62
   250
420
  2299925
370
    25
100
AcDbLine
 10
116.3350455408848
 20
-145.5045024409584
 30
0.0
 11
115.8493058310549
 21
-145.0869546632853
 31
0.0
  0
LINE
  5
108
330
B2
100
AcDbEntity
  8
レイヤー 1
 62
   250
420
  2299925
370
    25
100
AcDbLine
 10
115.8493058310549
 20
-145.0869546632853
 30
0.0
 11
115.3352733441683
 21
-145.469012996523
 31
0.0
  0
LINE
  5
109
330
B2
100
AcDbEntity
  8
レイヤー 1
 62
   250
420
  2299925
370
    25
100
AcDbLine
 10
115.3352733441683
 20
-145.469012996523
 30
0.0
 11
114.8502039120996
 21
-145.0511477188495
 31
0.0
  0
LINE
  5
10A
330
B2
100
AcDbEntity
  8
レイヤー 1
 62
   250
420
  2299925
370
    25
100
AcDbLine
 10
114.8502039120996
 20
-145.0511477188495
 30
0.0
 11
114.3362067029906
 21
-145.4332060520876
 31
0.0
  0
LINE
  5
10B
330
B2
100
AcDbEntity
  8
レイヤー 1
 62
   250
420
  2299925
370
    25
100
AcDbLine
 10
114.3362067029906
 20
-145.4332060520876
 30
0.0
 11
113.8511372709213
 21
-145.0156582744144
 31
0.0
  0
LINE
  5
10C
330
B2
100
AcDbEntity
  8
レイヤー 1
 62
   250
420
  2299925
370
    25
100
AcDbLine
 10
113.8511372709213
 20
-145.0156582744144
 30
0.0
 11
113.3371400618122
 21
-145.3973638298743
 31
0.0
  0
LINE
  5
10D
330
B2
100
AcDbEntity
  8
レイヤー 1
 62
   250
420
  2299925
370
    25
100
AcDbLine
 10
113.3371400618122
 20
-145.3973638298743
 30
0.0
 11
112.8513650742053
 21
-144.9798160522008
 31
0.0
  0
LINE
  5
10E
330
B2
100
AcDbEntity
  8
レイヤー 1
 62
   250
420
  2299925
370
    25
100
AcDbLine
 10
112.8513650742053
 20
-144.9798160522008
 30
0.0
 11
112.3373678650963
 21
-145.3615568854389
 31
0.0
  0
LINE
  5
10F
330
B2
100
AcDbEntity
  8
レイヤー 1
 62
   250
420
  2299925
370
    25
100
AcDbLine
 10
112.3373678650963
 20
-145.3615568854389
 30
0.0
 11
111.852298433027
 21
-144.9440091077654
 31
0.0
  0
LINE
  5
110
330
B2
100
AcDbEntity
  8
レイヤー 1
 62
   250
420
  2299925
370
    25
100
AcDbLine
 10
111.7758942561014
 20
-144.8957491077774
 30
0.0
 11
110.8380623477912
 21
-144.8957491077774
 31
0.0
  0
LINE
  5
111
330
B2
100
AcDbEntity
  8
レイヤー 1
 62
   250
420
  2299925
370
    25
100
AcDbLine
 10
111.8378345445071
 20
-146.1580585519062
 30
0.0
 11
111.8378345445071
 21
-154.1578943832396
 31
0.0
  0
SPLINE
  5
112
330
B2
100
AcDbEntity
  8
レイヤー 1
 62
   250
420
  2299925
370
     9
100
AcDbSpline
210
0.0
220
0.0
230
1.0
 70
     9
 71
     3
 72
    17
 73
    13
 74
     0
 42
0.0000000001
 43
0.0000000001
 40
0.0
 40
0.0
 40
0.0
 40
0.0
 40
1.0
 40
1.0
 40
1.0
 40
2.0
 40
2.0
 40
2.0
 40
3.0
 40
3.0
 40
3.0
 40
4.0
 40
4.0
 40
4.0
 40
4.0
 10
79.93691758424296
 20
-140.8960252198883
 30
0.0
 10
79.93691758424296
 20
-140.8405332754582
 30
0.0
 10
79.89215008425441
 20
-140.7957657754689
 30
0.0
 10
79.83701091760133
 20
-140.7957657754689
 30
0.0
 10
79.78155425094865
 20
-140.7957657754689
 30
0.0
 10
79.73678675095945
 20
-140.8405332754582
 30
0.0
 10
79.73678675095945
 20
-140.8960252198883
 30
0.0
 10
79.73678675095945
 20
-140.9511291087636
 30
0.0
 10
79.78155425094865
 20
-140.9959318865303
 30
0.0
 10
79.83701091760133
 20
-140.9959318865303
 30
0.0
 10
79.89215008425441
 20
-140.9959318865303
 30
0.0
 10
79.93691758424296
 20
-140.9511291087636
 30
0.0
 10
79.93691758424296
 20
-140.8960252198883
 30
0.0
  0
SPLINE
  5
113
330
B2
100
AcDbEntity
  8
レイヤー 1
 62
   250
420
  2299925
370
     9
100
AcDbSpline
210
0.0
220
0.0
230
1.0
 70
     9
 71
     3
 72
    17
 73
    13
 74
     0
 42
0.0000000001
 43
0.0000000001
 40
0.0
 40
0.0
 40
0.0
 40
0.0
 40
1.0
 40
1.0
 40
1.0
 40
2.0
 40
2.0
 40
2.0
 40
3.0
 40
3.0
 40
3.0
 40
4.0
 40
4.0
 40
4.0
 40
4.0
 10
77.7072561959117
 20
-145.6578196631426
 30
0.0
 10
77.7072561959117
 20
-145.6027157742676
 30
0.0
 10
77.66248869592281
 20
-145.5579129965009
 30
0.0
 10
77.6069967514923
 20
-145.5579129965009
 30
0.0
 10
77.55189286261707
 20
-145.5579129965009
 30
0.0
 10
77.50709008485066
 20
-145.6027157742676
 30
0.0
 10
77.50709008485066
 20
-145.6578196631426
 30
0.0
 10
77.50709008485066
 20
-145.7129588297956
 30
0.0
 10
77.55189286261707
 20
-145.7577263297842
 30
0.0
 10
77.6069967514923
 20
-145.7577263297842
 30
0.0
 10
77.66248869592281
 20
-145.7577263297842
 30
0.0
 10
77.7072561959117
 20
-145.7129588297956
 30
0.0
 10
77.7072561959117
 20
-145.6578196631426
 30
0.0
  0
SPLINE
  5
114
330
B2
100
AcDbEntity
  8
レイヤー 1
 62
   250
420
  2299925
370
     9
100
AcDbSpline
210
0.0
220
0.0
230
1.0
 70
     9
 71
     3
 72
    17
 73
    13
 74
     0
 42
0.0000000001
 43
0.0000000001
 40
0.0
 40
0.0
 40
0.0
 40
0.0
 40
1.0
 40
1.0
 40
1.0
 40
2.0
 40
2.0
 40
2.0
 40
3.0
 40
3.0
 40
3.0
 40
4.0
 40
4.0
 40
4.0
 40
4.0
 10
77.7072561959117
 20
-146.1580585519062
 30
0.0
 10
77.7072561959117
 20
-146.1029193852535
 30
0.0
 10
77.66248869592281
 20
-146.0581518852646
 30
0.0
 10
77.6069967514923
 20
-146.0581518852646
 30
0.0
 10
77.55189286261707
 20
-146.0581518852646
 30
0.0
 10
77.50709008485066
 20
-146.1029193852535
 30
0.0
 10
77.50709008485066
 20
-146.1580585519062
 30
0.0
 10
77.50709008485066
 20
-146.2131624407815
 30
0.0
 10
77.55189286261707
 20
-146.2579652185479
 30
0.0
 10
77.6069967514923
 20
-146.2579652185479
 30
0.0
 10
77.66248869592281
 20
-146.2579652185479
 30
0.0
 10
77.7072561959117
 20
-146.2131624407815
 30
0.0
 10
77.7072561959117
 20
-146.1580585519062
 30
0.0
  0
SPLINE
  5
115
330
B2
100
AcDbEntity
  8
レイヤー 1
 62
   250
420
  2299925
370
     9
100
AcDbSpline
210
0.0
220
0.0
230
1.0
 70
     9
 71
     3
 72
    17
 73
    13
 74
     0
 42
0.0000000001
 43
0.0000000001
 40
0.0
 40
0.0
 40
0.0
 40
0.0
 40
1.0
 40
1.0
 40
1.0
 40
2.0
 40
2.0
 40
2.0
 40
3.0
 40
3.0
 40
3.0
 40
4.0
 40
4.0
 40
4.0
 40
4.0
 10
77.7072561959117
 20
-154.1578943832396
 30
0.0
 10
77.7072561959117
 20
-154.1027904943647
 30
0.0
 10
77.66248869592281
 20
-154.0579877165979
 30
0.0
 10
77.6069967514923
 20
-154.0579877165979
 30
0.0
 10
77.55189286261707
 20
-154.0579877165979
 30
0.0
 10
77.50709008485066
 20
-154.1027904943647
 30
0.0
 10
77.50709008485066
 20
-154.1578943832396
 30
0.0
 10
77.50709008485066
 20
-154.2132099387815
 30
0.0
 10
77.55189286261707
 20
-154.2579774387701
 30
0.0
 10
77.6069967514923
 20
-154.2579774387701
 30
0.0
 10
77.66248869592281
 20
-154.2579774387701
 30
0.0
 10
77.7072561959117
 20
-154.2132099387815
 30
0.0
 10
77.7072561959117
 20
-154.1578943832396
 30
0.0
  0
SPLINE
  5
116
330
B2
100
AcDbEntity
  8
レイヤー 1
 62
   250
420
  2299925
370
     9
100
AcDbSpline
210
0.0
220
0.0
230
1.0
 70
     9
 71
     3
 72
    17
 73
    13
 74
     0
 42
0.0000000001
 43
0.0000000001
 40
0.0
 40
0.0
 40
0.0
 40
0.0
 40
1.0
 40
1.0
 40
1.0
 40
2.0
 40
2.0
 40
2.0
 40
3.0
 40
3.0
 40
3.0
 40
4.0
 40
4.0
 40
4.0
 40
4.0
 10
100.9382362114676
 20
-140.8960252198883
 30
0.0
 10
100.9382362114676
 20
-140.8405332754582
 30
0.0
 10
100.8934334348329
 20
-140.7957657754689
 30
0.0
 10
100.8383295473498
 20
-140.7957657754689
 30
0.0
 10
100.7825201043291
 20
-140.7957657754689
 30
0.0
 10
100.7377173276944
 20
-140.8405332754582
 30
0.0
 10
100.7377173276944
 20
-140.8960252198883
 30
0.0
 10
100.7377173276944
 20
-140.9511291087636
 30
0.0
 10
100.7825201043291
 20
-140.9959318865303
 30
0.0
 10
100.8383295473498
 20
-140.9959318865303
 30
0.0
 10
100.8934334348329
 20
-140.9959318865303
 30
0.0
 10
100.9382362114676
 20
-140.9511291087636
 30
0.0
 10
100.9382362114676
 20
-140.8960252198883
 30
0.0
  0
SPLINE
  5
117
330
B2
100
AcDbEntity
  8
レイヤー 1
 62
   250
420
  2299925
370
     9
100
AcDbSpline
210
0.0
220
0.0
230
1.0
 70
     9
 71
     3
 72
    17
 73
    13
 74
     0
 42
0.0000000001
 43
0.0000000001
 40
0.0
 40
0.0
 40
0.0
 40
0.0
 40
1.0
 40
1.0
 40
1.0
 40
2.0
 40
2.0
 40
2.0
 40
3.0
 40
3.0
 40
3.0
 40
4.0
 40
4.0
 40
4.0
 40
4.0
 10
131.9392529205661
 20
-140.8960252198883
 30
0.0
 10
131.9392529205661
 20
-140.8405332754582
 30
0.0
 10
131.8944854217082
 20
-140.7957657754689
 30
0.0
 10
131.8393462564483
 20
-140.7957657754689
 30
0.0
 10
131.7842423689652
 20
-140.7957657754689
 30
0.0
 10
131.7394395923304
 20
-140.8405332754582
 30
0.0
 10
131.7394395923304
 20
-140.8960252198883
 30
0.0
 10
131.7394395923304
 20
-140.9511291087636
 30
0.0
 10
131.7842423689652
 20
-140.9959318865303
 30
0.0
 10
131.8393462564483
 20
-140.9959318865303
 30
0.0
 10
131.8944854217082
 20
-140.9959318865303
 30
0.0
 10
131.9392529205661
 20
-140.9511291087636
 30
0.0
 10
131.9392529205661
 20
-140.8960252198883
 30
0.0
  0
SPLINE
  5
118
330
B2
100
AcDbEntity
  8
レイヤー 1
 62
   250
420
  2299925
370
     9
100
AcDbSpline
210
0.0
220
0.0
230
1.0
 70
     9
 71
     3
 72
    17
 73
    13
 74
     0
 42
0.0000000001
 43
0.0000000001
 40
0.0
 40
0.0
 40
0.0
 40
0.0
 40
1.0
 40
1.0
 40
1.0
 40
2.0
 40
2.0
 40
2.0
 40
3.0
 40
3.0
 40
3.0
 40
4.0
 40
4.0
 40
4.0
 40
4.0
 10
110.9379690119091
 20
-140.8960252198883
 30
0.0
 10
110.9379690119091
 20
-140.8405332754582
 30
0.0
 10
110.8931662352743
 20
-140.7957657754689
 30
0.0
 10
110.8380623477912
 20
-140.7957657754689
 30
0.0
 10
110.7829245209756
 20
-140.7957657754689
 30
0.0
 10
110.7381556836734
 20
-140.8405332754582
 30
0.0
 10
110.7381556836734
 20
-140.8960252198883
 30
0.0
 10
110.7381556836734
 20
-140.9511291087636
 30
0.0
 10
110.7829245209756
 20
-140.9959318865303
 30
0.0
 10
110.8380623477912
 20
-140.9959318865303
 30
0.0
 10
110.8931662352743
 20
-140.9959318865303
 30
0.0
 10
110.9379690119091
 20
-140.9511291087636
 30
0.0
 10
110.9379690119091
 20
-140.8960252198883
 30
0.0
  0
LINE
  5
119
330
B2
100
AcDbEntity
  8
レイヤー 1
 62
   250
420
  2299925
370
     9
100
AcDbLine
 10
77.6069967514923
 20
-145.6578196631426
 30
0.0
 11
77.6069967514923
 21
-140.4002666089014
 31
0.0
  0
LINE
  5
11A
330
B2
100
AcDbEntity
  8
レイヤー 1
 62
   250
420
  2299925
370
     9
100
AcDbLine
 10
77.6069967514923
 20
-145.6578196631426
 30
0.0
 11
77.6069967514923
 21
-146.1580585519062
 31
0.0
  0
LINE
  5
11B
330
B2
100
AcDbEntity
  8
レイヤー 1
 62
   250
420
  2299925
370
     9
100
AcDbLine
 10
79.06703814001601
 20
-145.6578196631426
 30
0.0
 11
76.60725980729761
 21
-145.6578196631426
 31
0.0
  0
LINE
  5
11C
330
B2
100
AcDbEntity
  8
レイヤー 1
 62
   250
420
  2299925
370
     9
100
AcDbLine
 10
79.06703814001601
 20
-146.1580585519062
 30
0.0
 11
76.60725980729761
 21
-146.1580585519062
 31
0.0
  0
INSERT
  5
11E
330
B2
100
AcDbEntity
  8
レイヤー 1
100
AcDbBlockReference
  2
Block_5
 10
0.0
 20
0.0
 30
0.0
  0
LINE
  5
12C
330
B2
100
AcDbEntity
  8
レイヤー 1
 62
   250
420
  2299925
370
     9
100
AcDbLine
 10
79.83701091760133
 20
-140.8960252198883
 30
0.0
 11
100.8383295473498
 21
-140.8960252198883
 31
0.0
  0
LINE
  5
12D
330
B2
100
AcDbEntity
  8
レイヤー 1
 62
   250
420
  2299925
370
     9
100
AcDbLine
 10
79.83701091760133
 20
-143.1181018859997
 30
0.0
 11
79.83701091760133
 21
-139.8959002201384
 31
0.0
  0
INSERT
  5
12F
330
B2
100
AcDbEntity
  8
レイヤー 1
100
AcDbBlockReference
  2
Block_7
 10
0.0
 20
0.0
 30
0.0
  0
LINE
  5
13A
330
B2
100
AcDbEntity
  8
レイヤー 1
 62
   250
420
  2299925
370
     9
100
AcDbLine
 10
77.6069967514923
 20
-146.1580585519062
 30
0.0
 11
77.6069967514923
 21
-154.1578943832396
 31
0.0
  0
LINE
  5
13B
330
B2
100
AcDbEntity
  8
レイヤー 1
 62
   250
420
  2299925
370
     9
100
AcDbLine
 10
99.06858563501558
 20
-154.1578943832396
 30
0.0
 11
76.60725980729761
 21
-154.1578943832396
 31
0.0
  0
INSERT
  5
13D
330
B2
100
AcDbEntity
  8
レイヤー 1
100
AcDbBlockReference
  2
Block_9
 10
0.0
 20
0.0
 30
0.0
  0
LINE
  5
144
330
B2
100
AcDbEntity
  8
レイヤー 1
 62
   250
420
  2299925
370
     9
100
AcDbLine
 10
131.8393462564483
 20
-140.8960252198883
 30
0.0
 11
110.8380623477912
 21
-140.8960252198883
 31
0.0
  0
LINE
  5
145
330
B2
100
AcDbEntity
  8
レイヤー 1
 62
   250
420
  2299925
370
     9
100
AcDbLine
 10
131.8393462564483
 20
-143.1181018859997
 30
0.0
 11
131.8393462564483
 21
-139.8959002201384
 31
0.0
  0
INSERT
  5
147
330
B2
100
AcDbEntity
  8
レイヤー 1
100
AcDbBlockReference
  2
Block_10
 10
0.0
 20
0.0
 30
0.0
  0
LINE
  5
152
330
B2
100
AcDbEntity
  8
レイヤー 1
 62
   250
420
  2299925
370
     9
100
AcDbLine
 10
100.8383295473498
 20
-140.8960252198883
 30
0.0
 11
110.8380623477912
 21
-140.8960252198883
 31
0.0
  0
LINE
  5
153
330
B2
100
AcDbEntity
  8
レイヤー 1
 62
   250
420
  2299925
370
     9
100
AcDbLine
 10
100.8383295473498
 20
-142.3560313306345
 30
0.0
 11
100.8383295473498
 21
-139.8959002201384
 31
0.0
  0
LINE
  5
154
330
B2
100
AcDbEntity
  8
レイヤー 1
 62
   250
420
  2299925
370
     9
100
AcDbLine
 10
110.8380623477912
 20
-142.3560313306345
 30
0.0
 11
110.8380623477912
 21
-139.8959002201384
 31
0.0
  0
INSERT
  5
156
330
B2
100
AcDbEntity
  8
レイヤー 1
100
AcDbBlockReference
  2
Block_12
 10
0.0
 20
0.0
 30
0.0
  0
SPLINE
  5
162
330
B2
100
AcDbEntity
  8
レイヤー 1
 62
   250
420
  2299925
370
     9
100
AcDbSpline
210
0.0
220
0.0
230
1.0
 70
     9
 71
     3
 72
    17
 73
    13
 74
     0
 42
0.0000000001
 43
0.0000000001
 40
0.0
 40
0.0
 40
0.0
 40
0.0
 40
1.0
 40
1.0
 40
1.0
 40
2.0
 40
2.0
 40
2.0
 40
3.0
 40
3.0
 40
3.0
 40
4.0
 40
4.0
 40
4.0
 40
4.0
 10
100.151365398209
 20
-158.2711774377669
 30
0.0
 10
100.151365398209
 20
-158.216073548892
 30
0.0
 10
100.0680050792103
 20
-158.1712707711252
 30
0.0
 10
99.96534674590261
 20
-158.1712707711252
 30
0.0
 10
99.86371040554773
 20
-158.1712707711252
 30
0.0
 10
99.7806665187778
 20
-158.216073548892
 30
0.0
 10
99.7806665187778
 20
-158.2711774377669
 30
0.0
 10
99.7806665187778
 20
-158.32631660442
 30
0.0
 10
99.86371040554773
 20
-158.3710841044085
 30
0.0
 10
99.96534674590261
 20
-158.3710841044085
 30
0.0
 10
100.0680050792103
 20
-158.3710841044085
 30
0.0
 10
100.151365398209
 20
-158.32631660442
 30
0.0
 10
100.151365398209
 20
-158.2711774377669
 30
0.0
  0
SPLINE
  5
163
330
B2
100
AcDbEntity
  8
レイヤー 1
 62
   250
420
  2299925
370
     9
100
AcDbSpline
210
0.0
220
0.0
230
1.0
 70
     9
 71
     3
 72
    17
 73
    13
 74
     0
 42
0.0000000001
 43
0.0000000001
 40
0.0
 40
0.0
 40
0.0
 40
0.0
 40
1.0
 40
1.0
 40
1.0
 40
2.0
 40
2.0
 40
2.0
 40
3.0
 40
3.0
 40
3.0
 40
4.0
 40
4.0
 40
4.0
 40
4.0
 10
112.1940356317339
 20
-158.2711774377669
 30
0.0
 10
112.1940356317339
 20
-158.216073548892
 30
0.0
 10
112.1110256486485
 20
-158.1712707711252
 30
0.0
 10
112.0093903734637
 20
-158.1712707711252
 30
0.0
 10
111.9057089872199
 20
-158.1712707711252
 30
0.0
 10
111.8233706559872
 20
-158.216073548892
 30
0.0
 10
111.8233706559872
 20
-158.2711774377669
 30
0.0
 10
111.8233706559872
 20
-158.32631660442
 30
0.0
 10
111.9057089872199
 20
-158.3710841044085
 30
0.0
 10
112.0093903734637
 20
-158.3710841044085
 30
0.0
 10
112.1110256486485
 20
-158.3710841044085
 30
0.0
 10
112.1940356317339
 20
-158.32631660442
 30
0.0
 10
112.1940356317339
 20
-158.2711774377669
 30
0.0
  0
LINE
  5
164
330
B2
100
AcDbEntity
  8
レイヤー 1
 62
   250
420
  2299925
370
     9
100
AcDbLine
 10
112.0093903734637
 20
-158.2711774377669
 30
0.0
 11
99.96534674590261
 21
-158.2711774377669
 31
0.0
  0
LINE
  5
165
330
B2
100
AcDbEntity
  8
レイヤー 1
 62
   250
420
  2299925
370
     9
100
AcDbLine
 10
112.0093903734637
 20
-156.8111360492432
 30
0.0
 11
112.0093903734637
 21
-159.2709496597394
 31
0.0
  0
LINE
  5
166
330
B2
100
AcDbEntity
  8
レイヤー 1
 62
   250
420
  2299925
370
     9
100
AcDbLine
 10
99.96534674590261
 20
-156.8111360492432
 30
0.0
 11
99.96534674590261
 21
-159.2709496597394
 31
0.0
  0
INSERT
  5
168
330
B2
100
AcDbEntity
  8
レイヤー 1
100
AcDbBlockReference
  2
Block_14
 10
0.0
 20
0.0
 30
0.0
  0
LINE
  5
173
330
B2
100
AcDbEntity
  8
レイヤー 1
 62
   250
420
  2299925
370
     9
100
AcDbLine
 10
108.8140717436906
 20
-150.3031974397588
 30
0.0
 11
116.8142588619924
 21
-150.3031974397588
 31
0.0
  0
INSERT
  5
175
330
B2
100
AcDbEntity
  8
レイヤー 1
100
AcDbBlockReference
  2
Block_16
 10
0.0
 20
0.0
 30
0.0
  0
ENDBLK
  5
B5
330
B2
100
AcDbEntity
  8
0
100
AcDbBlockEnd
  0
BLOCK
  5
11F
330
11D
100
AcDbEntity
  8
0
100
AcDbBlockBegin
  2
Block_5
 70
     0
 10
0.0
 20
0.0
 30
0.0
  3
Block_5
  1

  0
INSERT
  5
122
330
11D
100
AcDbEntity
  8
レイヤー 1
100
AcDbBlockReference
  2
Block_6
 10
0.0
 20
0.0
 30
0.0
  0
ENDBLK
  5
120
330
11D
100
AcDbEntity
  8
0
100
AcDbBlockEnd
  0
BLOCK
  5
123
330
121
100
AcDbEntity
  8
0
100
AcDbBlockBegin
  2
Block_6
 70
     0
 10
0.0
 20
0.0
 30
0.0
  3
Block_6
  1

  0
SPLINE
  5
125
330
121
100
AcDbEntity
  8
レイヤー 1
100
AcDbSpline
210
0.0
220
0.0
230
1.0
 70
     9
 71
     3
 72
    17
 73
    13
 74
     0
 42
0.0000000001
 43
0.0000000001
 40
0.0
 40
0.0
 40
0.0
 40
0.0
 40
1.0
 40
1.0
 40
1.0
 40
2.0
 40
2.0
 40
2.0
 40
3.0
 40
3.0
 40
3.0
 40
4.0
 40
4.0
 40
4.0
 40
4.0
 10
74.76270614450377
 20
-146.8125718491475
 30
0.0
 10
74.76270614450377
 20
-147.0623412718281
 30
0.0
 10
75.04606524816558
 20
-147.108850060879
 30
0.0
 10
75.39091930623908
 20
-147.108850060879
 30
0.0
 10
75.71045191249599
 20
-147.108850060879
 30
0.0
 10
76.01930472274864
 20
-147.0726765582839
 30
0.0
 10
76.01930472274864
 20
-146.8125718491475
 30
0.0
 10
76.01930472274864
 20
-146.5648694837581
 30
0.0
 10
75.73784042160373
 20
-146.5162936374161
 30
0.0
 10
75.39091930623908
 20
-146.5162936374161
 30
0.0
 10
75.07155895475641
 20
-146.5162936374161
 30
0.0
 10
74.76270614450377
 20
-146.5545341973023
 30
0.0
 10
74.76270614450377
 20
-146.8125718491475
 30
0.0
  0
SPLINE
  5
126
330
121
100
AcDbEntity
  8
レイヤー 1
100
AcDbSpline
210
0.0
220
0.0
230
1.0
 70
     9
 71
     3
 72
    29
 73
    25
 74
     0
 42
0.0000000001
 43
0.0000000001
 40
0.0
 40
0.0
 40
0.0
 40
0.0
 40
1.0
 40
1.0
 40
1.0
 40
2.0
 40
2.0
 40
2.0
 40
3.0
 40
3.0
 40
3.0
 40
4.0
 40
4.0
 40
4.0
 40
5.0
 40
5.0
 40
5.0
 40
6.0
 40
6.0
 40
6.0
 40
7.0
 40
7.0
 40
7.0
 40
8.0
 40
8.0
 40
8.0
 40
8.0
 10
75.98537053221893
 20
-146.4146633206012
 30
0.0
 10
76.19483233772213
 20
-146.522839318838
 30
0.0
 10
76.21395261766527
 20
-146.6961276217461
 30
0.0
 10
76.21395261766527
 20
-146.8125718491475
 30
0.0
 10
76.21395261766527
 20
-146.9734578083087
 30
0.0
 10
76.1674438286144
 20
-147.1150512327525
 30
0.0
 10
75.98537053221893
 20
-147.2101358681454
 30
0.0
 10
75.79089489207658
 20
-147.3138332422514
 30
0.0
 10
75.55387232269139
 20
-147.3331257769688
 30
0.0
 10
75.39091930623908
 20
-147.3331257769688
 30
0.0
 10
75.2470865697299
 20
-147.3331257769688
 30
0.0
 10
74.9954223445324
 20
-147.3159002995425
 30
0.0
 10
74.79646808025922
 20
-147.2101358681454
 30
0.0
 10
74.59337970140374
 20
-147.1023043794571
 30
0.0
 10
74.57012530687831
 20
-146.9414184202959
 30
0.0
 10
74.57012530687831
 20
-146.8125718491475
 30
0.0
 10
74.57012530687831
 20
-146.6537529472775
 30
0.0
 10
74.61456703863802
 20
-146.5100924655426
 30
0.0
 10
74.79646808025922
 20
-146.4146633206012
 30
0.0
 10
74.98904891788469
 20
-146.315444570626
 30
0.0
 10
75.21745874855675
 20
-146.2920179213263
 30
0.0
 10
75.39091930623908
 20
-146.2920179213263
 30
0.0
 10
75.56231280663026
 20
-146.2920179213263
 30
0.0
 10
75.79296194936773
 20
-146.3133775133348
 30
0.0
 10
75.98537053221893
 20
-146.4146633206012
 30
0.0
  0
HATCH
  5
127
330
121
100
AcDbEntity
  8
レイヤー 1
 62
   250
420
  2299925
440
 33554687
100
AcDbHatch
 10
0.0
 20
0.0
 30
0.0
210
0.0
220
0.0
230
1.0
  2
SOLID
 70
     1
 71
     1
 91
        2
 92
        1
 93
        1
 72
     4
 94
        3
 73
     0
 74
     0
 95
       17
 96
       13
 40
0.0
 40
0.0
 40
0.0
 40
0.0
 40
1.0
 40
1.0
 40
1.0
 40
2.0
 40
2.0
 40
2.0
 40
3.0
 40
3.0
 40
3.0
 40
4.0
 40
4.0
 40
4.0
 40
4.0
 10
74.76270614450377
 20
-146.8125718491475
 10
74.76270614450377
 20
-147.0623412718281
 10
75.04606524816558
 20
-147.108850060879
 10
75.39091930623908
 20
-147.108850060879
 10
75.71045191249599
 20
-147.108850060879
 10
76.01930472274864
 20
-147.0726765582839
 10
76.01930472274864
 20
-146.8125718491475
 10
76.01930472274864
 20
-146.5648694837581
 10
75.73784042160373
 20
-146.5162936374161
 10
75.39091930623908
 20
-146.5162936374161
 10
75.07155895475641
 20
-146.5162936374161
 10
74.76270614450377
 20
-146.5545341973023
 10
74.76270614450377
 20
-146.8125718491475
 97
        0
 97
        1
330
125
 92
        1
 93
        1
 72
     4
 94
        3
 73
     0
 74
     0
 95
       29
 96
       25
 40
0.0
 40
0.0
 40
0.0
 40
0.0
 40
1.0
 40
1.0
 40
1.0
 40
2.0
 40
2.0
 40
2.0
 40
3.0
 40
3.0
 40
3.0
 40
4.0
 40
4.0
 40
4.0
 40
5.0
 40
5.0
 40
5.0
 40
6.0
 40
6.0
 40
6.0
 40
7.0
 40
7.0
 40
7.0
 40
8.0
 40
8.0
 40
8.0
 40
8.0
 10
75.98537053221893
 20
-146.4146633206012
 10
76.19483233772213
 20
-146.522839318838
 10
76.21395261766527
 20
-146.6961276217461
 10
76.21395261766527
 20
-146.8125718491475
 10
76.21395261766527
 20
-146.9734578083087
 10
76.1674438286144
 20
-147.1150512327525
 10
75.98537053221893
 20
-147.2101358681454
 10
75.79089489207658
 20
-147.3138332422514
 10
75.55387232269139
 20
-147.3331257769688
 10
75.39091930623908
 20
-147.3331257769688
 10
75.2470865697299
 20
-147.3331257769688
 10
74.9954223445324
 20
-147.3159002995425
 10
74.79646808025922
 20
-147.2101358681454
 10
74.59337970140374
 20
-147.1023043794571
 10
74.57012530687831
 20
-146.9414184202959
 10
74.57012530687831
 20
-146.8125718491475
 10
74.57012530687831
 20
-146.6537529472775
 10
74.61456703863802
 20
-146.5100924655426
 10
74.79646808025922
 20
-146.4146633206012
 10
74.98904891788469
 20
-146.315444570626
 10
75.21745874855675
 20
-146.2920179213263
 10
75.39091930623908
 20
-146.2920179213263
 10
75.56231280663026
 20
-146.2920179213263
 10
75.79296194936773
 20
-146.3133775133348
 10
75.98537053221893
 20
-146.4146633206012
 97
        0
 97
        1
330
126
 75
     2
 76
     1
 98
        1
 10
0.0
 20
0.0
450
        0
451
        0
460
0.0
461
0.0
452
        0
462
0.0
453
        0
470

  0
SPLINE
  5
128
330
121
100
AcDbEntity
  8
レイヤー 1
100
AcDbSpline
210
0.0
220
0.0
230
1.0
 70
    11
 71
     3
 72
    17
 73
    13
 74
     0
 42
0.0000000001
 43
0.0000000001
 40
0.0
 40
0.0
 40
0.0
 40
0.0
 40
1.0
 40
1.0
 40
1.0
 40
2.0
 40
2.0
 40
2.0
 40
3.0
 40
3.0
 40
3.0
 40
4.0
 40
4.0
 40
4.0
 40
4.0
 10
76.16313745925783
 20
-146.0756659248526
 30
0.0
 10
76.16313745925783
 20
-146.0756659248526
 30
0.0
 10
75.91147323406032
 20
-146.0756659248526
 30
0.0
 10
75.91147323406032
 20
-146.0756659248526
 30
0.0
 10
75.91147323406032
 20
-146.0756659248526
 30
0.0
 10
75.91147323406032
 20
-145.8238294448808
 30
0.0
 10
75.91147323406032
 20
-145.8238294448808
 30
0.0
 10
75.91147323406032
 20
-145.8238294448808
 30
0.0
 10
76.16313745925783
 20
-145.8238294448808
 30
0.0
 10
76.16313745925783
 20
-145.8238294448808
 30
0.0
 10
76.16313745925783
 20
-145.8238294448808
 30
0.0
 10
76.16313745925783
 20
-146.0756659248526
 30
0.0
 10
76.16313745925783
 20
-146.0756659248526
 30
0.0
  0
HATCH
  5
129
330
121
100
AcDbEntity
  8
レイヤー 1
 62
   250
420
  2299925
440
 33554687
100
AcDbHatch
 10
0.0
 20
0.0
 30
0.0
210
0.0
220
0.0
230
1.0
  2
SOLID
 70
     1
 71
     1
 91
        1
 92
        1
 93
        1
 72
     4
 94
        3
 73
     0
 74
     0
 95
       17
 96
       13
 40
0.0
 40
0.0
 40
0.0
 40
0.0
 40
1.0
 40
1.0
 40
1.0
 40
2.0
 40
2.0
 40
2.0
 40
3.0
 40
3.0
 40
3.0
 40
4.0
 40
4.0
 40
4.0
 40
4.0
 10
76.16313745925783
 20
-146.0756659248526
 10
76.16313745925783
 20
-146.0756659248526
 10
75.91147323406032
 20
-146.0756659248526
 10
75.91147323406032
 20
-146.0756659248526
 10
75.91147323406032
 20
-146.0756659248526
 10
75.91147323406032
 20
-145.8238294448808
 10
75.91147323406032
 20
-145.8238294448808
 10
75.91147323406032
 20
-145.8238294448808
 10
76.16313745925783
 20
-145.8238294448808
 10
76.16313745925783
 20
-145.8238294448808
 10
76.16313745925783
 20
-145.8238294448808
 10
76.16313745925783
 20
-146.0756659248526
 10
76.16313745925783
 20
-146.0756659248526
 97
        0
 97
        1
330
128
 75
     2
 76
     1
 98
        1
 10
0.0
 20
0.0
450
        0
451
        0
460
0.0
461
0.0
452
        0
462
0.0
453
        0
470

  0
SPLINE
  5
12A
330
121
100
AcDbEntity
  8
レイヤー 1
100
AcDbSpline
210
0.0
220
0.0
230
1.0
 70
     9
 71
     3
 72
    53
 73
    49
 74
     0
 42
0.0000000001
 43
0.0000000001
 40
0.0
 40
0.0
 40
0.0
 40
0.0
 40
1.0
 40
1.0
 40
1.0
 40
2.0
 40
2.0
 40
2.0
 40
3.0
 40
3.0
 40
3.0
 40
4.0
 40
4.0
 40
4.0
 40
5.0
 40
5.0
 40
5.0
 40
6.0
 40
6.0
 40
6.0
 40
7.0
 40
7.0
 40
7.0
 40
8.0
 40
8.0
 40
8.0
 40
9.0
 40
9.0
 40
9.0
 40
10.0
 40
10.0
 40
10.0
 40
11.0
 40
11.0
 40
11.0
 40
12.0
 40
12.0
 40
12.0
 40
13.0
 40
13.0
 40
13.0
 40
14.0
 40
14.0
 40
14.0
 40
15.0
 40
15.0
 40
15.0
 40
16.0
 40
16.0
 40
16.0
 40
16.0
 10
76.21395261766527
 20
-145.1065605648518
 30
0.0
 10
76.21395261766527
 20
-145.184764232367
 30
0.0
 10
76.19707164978755
 20
-145.2863945491819
 30
0.0
 10
76.13350963808468
 20
-145.3880248659967
 30
0.0
 10
76.02343883733094
 20
-145.5613131689048
 30
0.0
 10
75.89235295411718
 20
-145.5826727609133
 30
0.0
 10
75.78452146542886
 20
-145.6016207860822
 30
0.0
 10
75.78452146542886
 20
-145.6016207860822
 30
0.0
 10
75.78452146542886
 20
-145.3794121272836
 30
0.0
 10
75.78452146542886
 20
-145.3794121272836
 30
0.0
 10
75.9833034749278
 20
-145.3246351090681
 30
0.0
 10
76.01293129610093
 20
-145.1975110856624
 30
0.0
 10
76.01293129610093
 20
-145.1044935075606
 30
0.0
 10
76.01293129610093
 20
-144.964967140408
 30
0.0
 10
75.91354029135148
 20
-144.81269391996
 30
0.0
 10
75.68082409132284
 20
-144.81269391996
 30
0.0
 10
75.42485349676879
 20
-144.81269391996
 30
0.0
 10
75.35509031319247
 20
-144.99252790429
 30
0.0
 10
75.35509031319247
 20
-145.1131062462738
 30
0.0
 10
75.35509031319247
 20
-145.1448011247381
 30
0.0
 10
75.35509031319247
 20
-145.2863945491819
 30
0.0
 10
75.48410913911509
 20
-145.3752780127013
 30
0.0
 10
75.48410913911509
 20
-145.3752780127013
 30
0.0
 10
75.46498885917195
 20
-145.5509778824491
 30
0.0
 10
75.46498885917195
 20
-145.5509778824491
 30
0.0
 10
75.46498885917195
 20
-145.5509778824491
 30
0.0
 10
74.61887340799458
 20
-145.4303995404653
 30
0.0
 10
74.61887340799458
 20
-145.4303995404653
 30
0.0
 10
74.61887340799458
 20
-145.4303995404653
 30
0.0
 10
74.61887340799458
 20
-144.6518079607988
 30
0.0
 10
74.61887340799458
 20
-144.6518079607988
 30
0.0
 10
74.61887340799458
 20
-144.6518079607988
 30
0.0
 10
74.81352130291121
 20
-144.6518079607988
 30
0.0
 10
74.81352130291121
 20
-144.6518079607988
 30
0.0
 10
74.81352130291121
 20
-144.6518079607988
 30
0.0
 10
74.81352130291121
 20
-145.267446524013
 30
0.0
 10
74.81352130291121
 20
-145.267446524013
 30
0.0
 10
74.81352130291121
 20
-145.267446524013
 30
0.0
 10
75.23657902849989
 20
-145.3329033382327
 30
0.0
 10
75.23657902849989
 20
-145.3329033382327
 30
0.0
 10
75.20264483797017
 20
-145.2715806385953
 30
0.0
 10
75.16250947556702
 20
-145.1892428564978
 30
0.0
 10
75.16250947556702
 20
-145.0707315718052
 30
0.0
 10
75.16250947556702
 20
-144.8168280345423
 30
0.0
 10
75.34871688654476
 20
-144.5798054651571
 30
0.0
 10
75.66170381137971
 20
-144.5798054651571
 30
0.0
 10
75.97916936034549
 20
-144.5798054651571
 30
0.0
 10
76.21395261766527
 20
-144.8040811812469
 30
0.0
 10
76.21395261766527
 20
-145.1065605648518
 30
0.0
  0
HATCH
  5
12B
330
121
100
AcDbEntity
  8
レイヤー 1
 62
   250
420
  2299925
440
 33554687
100
AcDbHatch
 10
0.0
 20
0.0
 30
0.0
210
0.0
220
0.0
230
1.0
  2
SOLID
 70
     1
 71
     1
 91
        1
 92
        1
 93
        1
 72
     4
 94
        3
 73
     0
 74
     0
 95
       53
 96
       49
 40
0.0
 40
0.0
 40
0.0
 40
0.0
 40
1.0
 40
1.0
 40
1.0
 40
2.0
 40
2.0
 40
2.0
 40
3.0
 40
3.0
 40
3.0
 40
4.0
 40
4.0
 40
4.0
 40
5.0
 40
5.0
 40
5.0
 40
6.0
 40
6.0
 40
6.0
 40
7.0
 40
7.0
 40
7.0
 40
8.0
 40
8.0
 40
8.0
 40
9.0
 40
9.0
 40
9.0
 40
10.0
 40
10.0
 40
10.0
 40
11.0
 40
11.0
 40
11.0
 40
12.0
 40
12.0
 40
12.0
 40
13.0
 40
13.0
 40
13.0
 40
14.0
 40
14.0
 40
14.0
 40
15.0
 40
15.0
 40
15.0
 40
16.0
 40
16.0
 40
16.0
 40
16.0
 10
76.21395261766527
 20
-145.1065605648518
 10
76.21395261766527
 20
-145.184764232367
 10
76.19707164978755
 20
-145.2863945491819
 10
76.13350963808468
 20
-145.3880248659967
 10
76.02343883733094
 20
-145.5613131689048
 10
75.89235295411718
 20
-145.5826727609133
 10
75.78452146542886
 20
-145.6016207860822
 10
75.78452146542886
 20
-145.6016207860822
 10
75.78452146542886
 20
-145.3794121272836
 10
75.78452146542886
 20
-145.3794121272836
 10
75.9833034749278
 20
-145.3246351090681
 10
76.01293129610093
 20
-145.1975110856624
 10
76.01293129610093
 20
-145.1044935075606
 10
76.01293129610093
 20
-144.964967140408
 10
75.91354029135148
 20
-144.81269391996
 10
75.68082409132284
 20
-144.81269391996
 10
75.42485349676879
 20
-144.81269391996
 10
75.35509031319247
 20
-144.99252790429
 10
75.35509031319247
 20
-145.1131062462738
 10
75.35509031319247
 20
-145.1448011247381
 10
75.35509031319247
 20
-145.2863945491819
 10
75.48410913911509
 20
-145.3752780127013
 10
75.48410913911509
 20
-145.3752780127013
 10
75.46498885917195
 20
-145.5509778824491
 10
75.46498885917195
 20
-145.5509778824491
 10
75.46498885917195
 20
-145.5509778824491
 10
74.61887340799458
 20
-145.4303995404653
 10
74.61887340799458
 20
-145.4303995404653
 10
74.61887340799458
 20
-145.4303995404653
 10
74.61887340799458
 20
-144.6518079607988
 10
74.61887340799458
 20
-144.6518079607988
 10
74.61887340799458
 20
-144.6518079607988
 10
74.81352130291121
 20
-144.6518079607988
 10
74.81352130291121
 20
-144.6518079607988
 10
74.81352130291121
 20
-144.6518079607988
 10
74.81352130291121
 20
-145.267446524013
 10
74.81352130291121
 20
-145.267446524013
 10
74.81352130291121
 20
-145.267446524013
 10
75.23657902849989
 20
-145.3329033382327
 10
75.23657902849989
 20
-145.3329033382327
 10
75.20264483797017
 20
-145.2715806385953
 10
75.16250947556702
 20
-145.1892428564978
 10
75.16250947556702
 20
-145.0707315718052
 10
75.16250947556702
 20
-144.8168280345423
 10
75.34871688654476
 20
-144.5798054651571
 10
75.66170381137971
 20
-144.5798054651571
 10
75.97916936034549
 20
-144.5798054651571
 10
76.21395261766527
 20
-144.8040811812469
 10
76.21395261766527
 20
-145.1065605648518
 97
        0
 97
        1
330
12A
 75
     2
 76
     1
 98
        1
 10
0.0
 20
0.0
450
        0
451
        0
460
0.0
461
0.0
452
        0
462
0.0
453
        0
470

  0
ENDBLK
  5
124
330
121
100
AcDbEntity
  8
0
100
AcDbBlockEnd
  0
BLOCK
  5
130
330
12E
100
AcDbEntity
  8
0
100
AcDbBlockBegin
  2
Block_7
 70
     0
 10
0.0
 20
0.0
 30
0.0
  3
Block_7
  1

  0
INSERT
  5
133
330
12E
100
AcDbEntity
  8
レイヤー 1
100
AcDbBlockReference
  2
Block_8
 10
0.0
 20
0.0
 30
0.0
  0
ENDBLK
  5
131
330
12E
100
AcDbEntity
  8
0
100
AcDbBlockEnd
  0
BLOCK
  5
134
330
132
100
AcDbEntity
  8
0
100
AcDbBlockBegin
  2
Block_8
 70
     0
 10
0.0
 20
0.0
 30
0.0
  3
Block_8
  1

  0
SPLINE
  5
136
330
132
100
AcDbEntity
  8
レイヤー 1
100
AcDbSpline
210
0.0
220
0.0
230
1.0
 70
     9
 71
     3
 72
    44
 73
    40
 74
     0
 42
0.0000000001
 43
0.0000000001
 40
0.0
 40
0.0
 40
0.0
 40
0.0
 40
1.0
 40
1.0
 40
1.0
 40
2.0
 40
2.0
 40
2.0
 40
3.0
 40
3.0
 40
3.0
 40
4.0
 40
4.0
 40
4.0
 40
5.0
 40
5.0
 40
5.0
 40
6.0
 40
6.0
 40
6.0
 40
7.0
 40
7.0
 40
7.0
 40
8.0
 40
8.0
 40
8.0
 40
9.0
 40
9.0
 40
9.0
 40
10.0
 40
10.0
 40
10.0
 40
11.0
 40
11.0
 40
11.0
 40
12.0
 40
12.0
 40
12.0
 40
13.0
 40
13.0
 40
13.0
 40
13.0
 10
89.76592472799255
 20
-139.600264450777
 30
0.0
 10
89.5480224385505
 20
-139.7589110978728
 30
0.0
 10
89.45483260567449
 20
-139.8329806508056
 30
0.0
 10
89.40625675933246
 20
-139.9768133873148
 30
0.0
 10
89.40625675933246
 20
-139.9768133873148
 30
0.0
 10
90.18467608422467
 20
-139.9768133873148
 30
0.0
 10
90.18467608422467
 20
-139.9768133873148
 30
0.0
 10
90.18467608422467
 20
-139.9768133873148
 30
0.0
 10
90.18467608422467
 20
-140.1819688234614
 30
0.0
 10
90.18467608422467
 20
-140.1819688234614
 30
0.0
 10
90.18467608422467
 20
-140.1819688234614
 30
0.0
 10
89.15665959142613
 20
-140.1819688234614
 30
0.0
 10
89.15665959142613
 20
-140.1819688234614
 30
0.0
 10
89.1883544698904
 20
-139.8243679120925
 30
0.0
 10
89.25398353888443
 20
-139.7461642445773
 30
0.0
 10
89.6389729593611
 20
-139.4478189755547
 30
0.0
 10
89.89494355391515
 20
-139.2490369660558
 30
0.0
 10
89.96040036813489
 20
-139.1813408397706
 30
0.0
 10
89.96040036813489
 20
-139.0438815299092
 30
0.0
 10
89.96040036813489
 20
-138.9253702452166
 30
0.0
 10
89.88857012726745
 20
-138.7941121072285
 30
0.0
 10
89.69185517505968
 20
-138.7941121072285
 30
0.0
 10
89.43157821114906
 20
-138.7941121072285
 30
0.0
 10
89.4231377272102
 20
-139.024761249966
 30
0.0
 10
89.41883135785364
 20
-139.1412054773675
 30
0.0
 10
89.41883135785364
 20
-139.1412054773675
 30
0.0
 10
89.19472789653813
 20
-139.1412054773675
 30
0.0
 10
89.19472789653813
 20
-139.1412054773675
 30
0.0
 10
89.203168380477
 20
-139.014253708736
 30
0.0
 10
89.21367592170701
 20
-138.9021158506911
 30
0.0
 10
89.2941189012876
 20
-138.7836045659985
 30
0.0
 10
89.40401744726704
 20
-138.6228908616116
 30
0.0
 10
89.59022485824482
 20
-138.5889566710819
 30
0.0
 10
89.70666908564625
 20
-138.5889566710819
 30
0.0
 10
89.9838270174346
 20
-138.5889566710819
 30
0.0
 10
90.19104951087237
 20
-138.7730970247685
 30
0.0
 10
90.19104951087237
 20
-139.0459485872003
 30
0.0
 10
90.19104951087237
 20
-139.2743584178724
 30
0.0
 10
90.0747775382452
 20
-139.3739216773961
 30
0.0
 10
89.76592472799255
 20
-139.600264450777
 30
0.0
  0
HATCH
  5
137
330
132
100
AcDbEntity
  8
レイヤー 1
 62
   250
420
  2299925
440
 33554687
100
AcDbHatch
 10
0.0
 20
0.0
 30
0.0
210
0.0
220
0.0
230
1.0
  2
SOLID
 70
     1
 71
     1
 91
        1
 92
        1
 93
        1
 72
     4
 94
        3
 73
     0
 74
     0
 95
       44
 96
       40
 40
0.0
 40
0.0
 40
0.0
 40
0.0
 40
1.0
 40
1.0
 40
1.0
 40
2.0
 40
2.0
 40
2.0
 40
3.0
 40
3.0
 40
3.0
 40
4.0
 40
4.0
 40
4.0
 40
5.0
 40
5.0
 40
5.0
 40
6.0
 40
6.0
 40
6.0
 40
7.0
 40
7.0
 40
7.0
 40
8.0
 40
8.0
 40
8.0
 40
9.0
 40
9.0
 40
9.0
 40
10.0
 40
10.0
 40
10.0
 40
11.0
 40
11.0
 40
11.0
 40
12.0
 40
12.0
 40
12.0
 40
13.0
 40
13.0
 40
13.0
 40
13.0
 10
89.76592472799255
 20
-139.600264450777
 10
89.5480224385505
 20
-139.7589110978728
 10
89.45483260567449
 20
-139.8329806508056
 10
89.40625675933246
 20
-139.9768133873148
 10
89.40625675933246
 20
-139.9768133873148
 10
90.18467608422467
 20
-139.9768133873148
 10
90.18467608422467
 20
-139.9768133873148
 10
90.18467608422467
 20
-139.9768133873148
 10
90.18467608422467
 20
-140.1819688234614
 10
90.18467608422467
 20
-140.1819688234614
 10
90.18467608422467
 20
-140.1819688234614
 10
89.15665959142613
 20
-140.1819688234614
 10
89.15665959142613
 20
-140.1819688234614
 10
89.1883544698904
 20
-139.8243679120925
 10
89.25398353888443
 20
-139.7461642445773
 10
89.6389729593611
 20
-139.4478189755547
 10
89.89494355391515
 20
-139.2490369660558
 10
89.96040036813489
 20
-139.1813408397706
 10
89.96040036813489
 20
-139.0438815299092
 10
89.96040036813489
 20
-138.9253702452166
 10
89.88857012726745
 20
-138.7941121072285
 10
89.69185517505968
 20
-138.7941121072285
 10
89.43157821114906
 20
-138.7941121072285
 10
89.4231377272102
 20
-139.024761249966
 10
89.41883135785364
 20
-139.1412054773675
 10
89.41883135785364
 20
-139.1412054773675
 10
89.19472789653813
 20
-139.1412054773675
 10
89.19472789653813
 20
-139.1412054773675
 10
89.203168380477
 20
-139.014253708736
 10
89.21367592170701
 20
-138.9021158506911
 10
89.2941189012876
 20
-138.7836045659985
 10
89.40401744726704
 20
-138.6228908616116
 10
89.59022485824482
 20
-138.5889566710819
 10
89.70666908564625
 20
-138.5889566710819
 10
89.9838270174346
 20
-138.5889566710819
 10
90.19104951087237
 20
-138.7730970247685
 10
90.19104951087237
 20
-139.0459485872003
 10
90.19104951087237
 20
-139.2743584178724
 10
90.0747775382452
 20
-139.3739216773961
 10
89.76592472799255
 20
-139.600264450777
 97
        0
 97
        1
330
136
 75
     2
 76
     1
 98
        1
 10
0.0
 20
0.0
450
        0
451
        0
460
0.0
461
0.0
452
        0
462
0.0
453
        0
470

  0
SPLINE
  5
138
330
132
100
AcDbEntity
  8
レイヤー 1
100
AcDbSpline
210
0.0
220
0.0
230
1.0
 70
    11
 71
     3
 72
    26
 73
    22
 74
     0
 42
0.0000000001
 43
0.0000000001
 40
0.0
 40
0.0
 40
0.0
 40
0.0
 40
1.0
 40
1.0
 40
1.0
 40
2.0
 40
2.0
 40
2.0
 40
3.0
 40
3.0
 40
3.0
 40
4.0
 40
4.0
 40
4.0
 40
5.0
 40
5.0
 40
5.0
 40
6.0
 40
6.0
 40
6.0
 40
7.0
 40
7.0
 40
7.0
 40
7.0
 10
90.80100366653587
 20
-140.1819688234614
 30
0.0
 10
90.80100366653587
 20
-140.1819688234614
 30
0.0
 10
90.80100366653587
 20
-139.0776434656646
 30
0.0
 10
90.80100366653587
 20
-139.0776434656646
 30
0.0
 10
90.80100366653587
 20
-139.0776434656646
 30
0.0
 10
90.47096351904894
 20
-139.0776434656646
 30
0.0
 10
90.47096351904894
 20
-139.0776434656646
 30
0.0
 10
90.47096351904894
 20
-139.0776434656646
 30
0.0
 10
90.47096351904894
 20
-138.9295043597988
 30
0.0
 10
90.47096351904894
 20
-138.9295043597988
 30
0.0
 10
90.80307072382701
 20
-138.9148627039865
 30
0.0
 10
90.84957951287789
 20
-138.7519096875342
 30
0.0
 10
90.87920733405104
 20
-138.6377047721982
 30
0.0
 10
90.87920733405104
 20
-138.6377047721982
 30
0.0
 10
91.02527938262563
 20
-138.6377047721982
 30
0.0
 10
91.02527938262563
 20
-138.6377047721982
 30
0.0
 10
91.02527938262563
 20
-138.6377047721982
 30
0.0
 10
91.02527938262563
 20
-140.1819688234614
 30
0.0
 10
91.02527938262563
 20
-140.1819688234614
 30
0.0
 10
91.02527938262563
 20
-140.1819688234614
 30
0.0
 10
90.80100366653587
 20
-140.1819688234614
 30
0.0
 10
90.80100366653587
 20
-140.1819688234614
 30
0.0
  0
HATCH
  5
139
330
132
100
AcDbEntity
  8
レイヤー 1
 62
   250
420
  2299925
440
 33554687
100
AcDbHatch
 10
0.0
 20
0.0
 30
0.0
210
0.0
220
0.0
230
1.0
  2
SOLID
 70
     1
 71
     1
 91
        1
 92
        1
 93
        1
 72
     4
 94
        3
 73
     0
 74
     0
 95
       26
 96
       22
 40
0.0
 40
0.0
 40
0.0
 40
0.0
 40
1.0
 40
1.0
 40
1.0
 40
2.0
 40
2.0
 40
2.0
 40
3.0
 40
3.0
 40
3.0
 40
4.0
 40
4.0
 40
4.0
 40
5.0
 40
5.0
 40
5.0
 40
6.0
 40
6.0
 40
6.0
 40
7.0
 40
7.0
 40
7.0
 40
7.0
 10
90.80100366653587
 20
-140.1819688234614
 10
90.80100366653587
 20
-140.1819688234614
 10
90.80100366653587
 20
-139.0776434656646
 10
90.80100366653587
 20
-139.0776434656646
 10
90.80100366653587
 20
-139.0776434656646
 10
90.47096351904894
 20
-139.0776434656646
 10
90.47096351904894
 20
-139.0776434656646
 10
90.47096351904894
 20
-139.0776434656646
 10
90.47096351904894
 20
-138.9295043597988
 10
90.47096351904894
 20
-138.9295043597988
 10
90.80307072382701
 20
-138.9148627039865
 10
90.84957951287789
 20
-138.7519096875342
 10
90.87920733405104
 20
-138.6377047721982
 10
90.87920733405104
 20
-138.6377047721982
 10
91.02527938262563
 20
-138.6377047721982
 10
91.02527938262563
 20
-138.6377047721982
 10
91.02527938262563
 20
-138.6377047721982
 10
91.02527938262563
 20
-140.1819688234614
 10
91.02527938262563
 20
-140.1819688234614
 10
91.02527938262563
 20
-140.1819688234614
 10
90.80100366653587
 20
-140.1819688234614
 10
90.80100366653587
 20
-140.1819688234614
 97
        0
 97
        1
330
138
 75
     2
 76
     1
 98
        1
 10
0.0
 20
0.0
450
        0
451
        0
460
0.0
461
0.0
452
        0
462
0.0
453
        0
470

  0
ENDBLK
  5
135
330
132
100
AcDbEntity
  8
0
100
AcDbBlockEnd
  0
BLOCK
  5
13E
330
13C
100
AcDbEntity
  8
0
100
AcDbBlockBegin
  2
Block_9
 70
     0
 10
0.0
 20
0.0
 30
0.0
  3
Block_9
  1

  0
SPLINE
  5
140
330
13C
100
AcDbEntity
  8
レイヤー 1
100
AcDbSpline
210
0.0
220
0.0
230
1.0
 70
     9
 71
     3
 72
    17
 73
    13
 74
     0
 42
0.0000000001
 43
0.0000000001
 40
0.0
 40
0.0
 40
0.0
 40
0.0
 40
1.0
 40
1.0
 40
1.0
 40
2.0
 40
2.0
 40
2.0
 40
3.0
 40
3.0
 40
3.0
 40
4.0
 40
4.0
 40
4.0
 40
4.0
 10
76.15349119189914
 20
-150.1555202532597
 30
0.0
 10
76.15349119189914
 20
-150.2991807349946
 30
0.0
 10
76.24013534335316
 20
-150.4517984649912
 30
0.0
 10
76.44322372220864
 20
-150.4517984649912
 30
0.0
 10
76.64837915835526
 20
-150.4517984649912
 30
0.0
 10
76.75000947517014
 20
-150.3246744415855
 30
0.0
 10
76.75000947517014
 20
-150.1555202532597
 30
0.0
 10
76.75000947517014
 20
-149.9694850970562
 30
0.0
 10
76.62736407589524
 20
-149.8592420415282
 30
0.0
 10
76.44959714885636
 20
-149.8592420415282
 30
0.0
 10
76.22738849005774
 20
-149.8592420415282
 30
0.0
 10
76.15349119189914
 20
-150.0221950579805
 30
0.0
 10
76.15349119189914
 20
-150.1555202532597
 30
0.0
  0
SPLINE
  5
141
330
13C
100
AcDbEntity
  8
レイヤー 1
100
AcDbSpline
210
0.0
220
0.0
230
1.0
 70
     9
 71
     3
 72
    17
 73
    13
 74
     0
 42
0.0000000001
 43
0.0000000001
 40
0.0
 40
0.0
 40
0.0
 40
0.0
 40
1.0
 40
1.0
 40
1.0
 40
2.0
 40
2.0
 40
2.0
 40
3.0
 40
3.0
 40
3.0
 40
4.0
 40
4.0
 40
4.0
 40
4.0
 10
75.49341089692525
 20
-150.1555202532597
 30
0.0
 10
75.49341089692525
 20
-150.3205403270032
 30
0.0
 10
75.58849553231816
 20
-150.4052896759403
 30
0.0
 10
75.72388778488847
 20
-150.4052896759403
 30
0.0
 10
75.84670543893763
 20
-150.4052896759403
 30
0.0
 10
75.96521672363022
 20
-150.3332871802986
 30
0.0
 10
75.96521672363022
 20
-150.1555202532597
 30
0.0
 10
75.96521672363022
 20
-149.9777533262208
 30
0.0
 10
75.84670543893763
 20
-149.9057508305791
 30
0.0
 10
75.72388778488847
 20
-149.9057508305791
 30
0.0
 10
75.58849553231816
 20
-149.9057508305791
 30
0.0
 10
75.49341089692525
 20
-149.9925672368074
 30
0.0
 10
75.49341089692525
 20
-150.1555202532597
 30
0.0
  0
SPLINE
  5
142
330
13C
100
AcDbEntity
  8
レイヤー 1
100
AcDbSpline
210
0.0
220
0.0
230
1.0
 70
     9
 71
     3
 72
    29
 73
    25
 74
     0
 42
0.0000000001
 43
0.0000000001
 40
0.0
 40
0.0
 40
0.0
 40
0.0
 40
1.0
 40
1.0
 40
1.0
 40
2.0
 40
2.0
 40
2.0
 40
3.0
 40
3.0
 40
3.0
 40
4.0
 40
4.0
 40
4.0
 40
5.0
 40
5.0
 40
5.0
 40
6.0
 40
6.0
 40
6.0
 40
7.0
 40
7.0
 40
7.0
 40
8.0
 40
8.0
 40
8.0
 40
8.0
 10
76.94465737008676
 20
-150.1555202532597
 30
0.0
 10
76.94465737008676
 20
-150.4221706438181
 30
0.0
 10
76.80702580545101
 20
-150.676074181081
 30
0.0
 10
76.45803763279521
 20
-150.676074181081
 30
0.0
 10
76.20206703824115
 20
-150.676074181081
 30
0.0
 10
76.10681014807399
 20
-150.5341362470887
 30
0.0
 10
76.04548744843654
 20
-150.4283718156915
 30
0.0
 10
75.98623180609024
 20
-150.5530842722575
 30
0.0
 10
75.87202689075422
 20
-150.6292208824816
 30
0.0
 10
75.71131318636732
 20
-150.6292208824816
 30
0.0
 10
75.43622231187011
 20
-150.6292208824816
 30
0.0
 10
75.3008300592998
 20
-150.4304388729827
 30
0.0
 10
75.3008300592998
 20
-150.1555202532597
 30
0.0
 10
75.3008300592998
 20
-149.8719888948237
 30
0.0
 10
75.44466279580898
 20
-149.6814751144893
 30
0.0
 10
75.71131318636732
 20
-149.6814751144893
 30
0.0
 10
75.87202689075422
 20
-149.6814751144893
 30
0.0
 10
75.98623180609024
 20
-149.760023291553
 30
0.0
 10
76.04548744843654
 20
-149.8847357481191
 30
0.0
 10
76.09630260684397
 20
-149.7958522845996
 30
0.0
 10
76.19155949701114
 20
-149.6370333827296
 30
0.0
 10
76.45390351821291
 20
-149.6370333827296
 30
0.0
 10
76.82821314268531
 20
-149.6370333827296
 30
0.0
 10
76.94465737008676
 20
-149.9164306265834
 30
0.0
 10
76.94465737008676
 20
-150.1555202532597
 30
0.0
  0
HATCH
  5
143
330
13C
100
AcDbEntity
  8
レイヤー 1
 62
   250
420
  2299925
440
 33554687
100
AcDbHatch
 10
0.0
 20
0.0
 30
0.0
210
0.0
220
0.0
230
1.0
  2
SOLID
 70
     1
 71
     1
 91
        3
 92
        1
 93
        1
 72
     4
 94
        3
 73
     0
 74
     0
 95
       17
 96
       13
 40
0.0
 40
0.0
 40
0.0
 40
0.0
 40
1.0
 40
1.0
 40
1.0
 40
2.0
 40
2.0
 40
2.0
 40
3.0
 40
3.0
 40
3.0
 40
4.0
 40
4.0
 40
4.0
 40
4.0
 10
76.15349119189914
 20
-150.1555202532597
 10
76.15349119189914
 20
-150.2991807349946
 10
76.24013534335316
 20
-150.4517984649912
 10
76.44322372220864
 20
-150.4517984649912
 10
76.64837915835526
 20
-150.4517984649912
 10
76.75000947517014
 20
-150.3246744415855
 10
76.75000947517014
 20
-150.1555202532597
 10
76.75000947517014
 20
-149.9694850970562
 10
76.62736407589524
 20
-149.8592420415282
 10
76.44959714885636
 20
-149.8592420415282
 10
76.22738849005774
 20
-149.8592420415282
 10
76.15349119189914
 20
-150.0221950579805
 10
76.15349119189914
 20
-150.1555202532597
 97
        0
 97
        1
330
140
 92
        1
 93
        1
 72
     4
 94
        3
 73
     0
 74
     0
 95
       17
 96
       13
 40
0.0
 40
0.0
 40
0.0
 40
0.0
 40
1.0
 40
1.0
 40
1.0
 40
2.0
 40
2.0
 40
2.0
 40
3.0
 40
3.0
 40
3.0
 40
4.0
 40
4.0
 40
4.0
 40
4.0
 10
75.49341089692525
 20
-150.1555202532597
 10
75.49341089692525
 20
-150.3205403270032
 10
75.58849553231816
 20
-150.4052896759403
 10
75.72388778488847
 20
-150.4052896759403
 10
75.84670543893763
 20
-150.4052896759403
 10
75.96521672363022
 20
-150.3332871802986
 10
75.96521672363022
 20
-150.1555202532597
 10
75.96521672363022
 20
-149.9777533262208
 10
75.84670543893763
 20
-149.9057508305791
 10
75.72388778488847
 20
-149.9057508305791
 10
75.58849553231816
 20
-149.9057508305791
 10
75.49341089692525
 20
-149.9925672368074
 10
75.49341089692525
 20
-150.1555202532597
 97
        0
 97
        1
330
141
 92
        1
 93
        1
 72
     4
 94
        3
 73
     0
 74
     0
 95
       29
 96
       25
 40
0.0
 40
0.0
 40
0.0
 40
0.0
 40
1.0
 40
1.0
 40
1.0
 40
2.0
 40
2.0
 40
2.0
 40
3.0
 40
3.0
 40
3.0
 40
4.0
 40
4.0
 40
4.0
 40
5.0
 40
5.0
 40
5.0
 40
6.0
 40
6.0
 40
6.0
 40
7.0
 40
7.0
 40
7.0
 40
8.0
 40
8.0
 40
8.0
 40
8.0
 10
76.94465737008676
 20
-150.1555202532597
 10
76.94465737008676
 20
-150.4221706438181
 10
76.80702580545101
 20
-150.676074181081
 10
76.45803763279521
 20
-150.676074181081
 10
76.20206703824115
 20
-150.676074181081
 10
76.10681014807399
 20
-150.5341362470887
 10
76.04548744843654
 20
-150.4283718156915
 10
75.98623180609024
 20
-150.5530842722575
 10
75.87202689075422
 20
-150.6292208824816
 10
75.71131318636732
 20
-150.6292208824816
 10
75.43622231187011
 20
-150.6292208824816
 10
75.3008300592998
 20
-150.4304388729827
 10
75.3008300592998
 20
-150.1555202532597
 10
75.3008300592998
 20
-149.8719888948237
 10
75.44466279580898
 20
-149.6814751144893
 10
75.71131318636732
 20
-149.6814751144893
 10
75.87202689075422
 20
-149.6814751144893
 10
75.98623180609024
 20
-149.760023291553
 10
76.04548744843654
 20
-149.8847357481191
 10
76.09630260684397
 20
-149.7958522845996
 10
76.19155949701114
 20
-149.6370333827296
 10
76.45390351821291
 20
-149.6370333827296
 10
76.82821314268531
 20
-149.6370333827296
 10
76.94465737008676
 20
-149.9164306265834
 10
76.94465737008676
 20
-150.1555202532597
 97
        0
 97
        1
330
142
 75
     2
 76
     1
 98
        1
 10
0.0
 20
0.0
450
        0
451
        0
460
0.0
461
0.0
452
        0
462
0.0
453
        0
470

  0
ENDBLK
  5
13F
330
13C
100
AcDbEntity
  8
0
100
AcDbBlockEnd
  0
BLOCK
  5
148
330
146
100
AcDbEntity
  8
0
100
AcDbBlockBegin
  2
Block_10
 70
     0
 10
0.0
 20
0.0
 30
0.0
  3
Block_10
  1

  0
INSERT
  5
14B
330
146
100
AcDbEntity
  8
レイヤー 1
100
AcDbBlockReference
  2
Block_11
 10
0.0
 20
0.0
 30
0.0
  0
ENDBLK
  5
149
330
146
100
AcDbEntity
  8
0
100
AcDbBlockEnd
  0
BLOCK
  5
14C
330
14A
100
AcDbEntity
  8
0
100
AcDbBlockBegin
  2
Block_11
 70
     0
 10
0.0
 20
0.0
 30
0.0
  3
Block_11
  1

  0
SPLINE
  5
14E
330
14A
100
AcDbEntity
  8
レイヤー 1
100
AcDbSpline
210
0.0
220
0.0
230
1.0
 70
     9
 71
     3
 72
    44
 73
    40
 74
     0
 42
0.0000000001
 43
0.0000000001
 40
0.0
 40
0.0
 40
0.0
 40
0.0
 40
1.0
 40
1.0
 40
1.0
 40
2.0
 40
2.0
 40
2.0
 40
3.0
 40
3.0
 40
3.0
 40
4.0
 40
4.0
 40
4.0
 40
5.0
 40
5.0
 40
5.0
 40
6.0
 40
6.0
 40
6.0
 40
7.0
 40
7.0
 40
7.0
 40
8.0
 40
8.0
 40
8.0
 40
9.0
 40
9.0
 40
9.0
 40
10.0
 40
10.0
 40
10.0
 40
11.0
 40
11.0
 40
11.0
 40
12.0
 40
12.0
 40
12.0
 40
13.0
 40
13.0
 40
13.0
 40
13.0
 10
120.767133216336
 20
-139.600264450777
 30
0.0
 10
120.5494031816682
 20
-139.7589110978728
 30
0.0
 10
120.4563856035664
 20
-139.8329806508056
 30
0.0
 10
120.4074652476759
 20
-139.9768133873148
 30
0.0
 10
120.4074652476759
 20
-139.9768133873148
 30
0.0
 10
121.1860568273424
 20
-139.9768133873148
 30
0.0
 10
121.1860568273424
 20
-139.9768133873148
 30
0.0
 10
121.1860568273424
 20
-139.9768133873148
 30
0.0
 10
121.1860568273424
 20
-140.1819688234614
 30
0.0
 10
121.1860568273424
 20
-140.1819688234614
 30
0.0
 10
121.1860568273424
 20
-140.1819688234614
 30
0.0
 10
120.1580403345438
 20
-140.1819688234614
 30
0.0
 10
120.1580403345438
 20
-140.1819688234614
 30
0.0
 10
120.1897352130081
 20
-139.8243679120925
 30
0.0
 10
120.2551920272278
 20
-139.7461642445773
 30
0.0
 10
120.6403537024788
 20
-139.4478189755547
 30
0.0
 10
120.8963242970328
 20
-139.2490369660558
 30
0.0
 10
120.9617811112526
 20
-139.1813408397706
 30
0.0
 10
120.9617811112526
 20
-139.0438815299092
 30
0.0
 10
120.9617811112526
 20
-138.9253702452166
 30
0.0
 10
120.8897786156109
 20
-138.7941121072285
 30
0.0
 10
120.6930636634031
 20
-138.7941121072285
 30
0.0
 10
120.4329589542667
 20
-138.7941121072285
 30
0.0
 10
120.4246907251022
 20
-139.024761249966
 30
0.0
 10
120.4202121009713
 20
-139.1412054773675
 30
0.0
 10
120.4202121009713
 20
-139.1412054773675
 30
0.0
 10
120.1959363848815
 20
-139.1412054773675
 30
0.0
 10
120.1959363848815
 20
-139.1412054773675
 30
0.0
 10
120.2045491235947
 20
-139.014253708736
 30
0.0
 10
120.2152289195989
 20
-138.9021158506911
 30
0.0
 10
120.2954996444053
 20
-138.7836045659985
 30
0.0
 10
120.4053981903848
 20
-138.6228908616116
 30
0.0
 10
120.5917778561368
 20
-138.5889566710819
 30
0.0
 10
120.7078775739897
 20
-138.5889566710819
 30
0.0
 10
120.9852077605523
 20
-138.5889566710819
 30
0.0
 10
121.1926025087643
 20
-138.7730970247685
 30
0.0
 10
121.1926025087643
 20
-139.0459485872003
 30
0.0
 10
121.1926025087643
 20
-139.2743584178724
 30
0.0
 10
121.0761582813629
 20
-139.3739216773961
 30
0.0
 10
120.767133216336
 20
-139.600264450777
 30
0.0
  0
HATCH
  5
14F
330
14A
100
AcDbEntity
  8
レイヤー 1
 62
   250
420
  2299925
440
 33554687
100
AcDbHatch
 10
0.0
 20
0.0
 30
0.0
210
0.0
220
0.0
230
1.0
  2
SOLID
 70
     1
 71
     1
 91
        1
 92
        1
 93
        1
 72
     4
 94
        3
 73
     0
 74
     0
 95
       44
 96
       40
 40
0.0
 40
0.0
 40
0.0
 40
0.0
 40
1.0
 40
1.0
 40
1.0
 40
2.0
 40
2.0
 40
2.0
 40
3.0
 40
3.0
 40
3.0
 40
4.0
 40
4.0
 40
4.0
 40
5.0
 40
5.0
 40
5.0
 40
6.0
 40
6.0
 40
6.0
 40
7.0
 40
7.0
 40
7.0
 40
8.0
 40
8.0
 40
8.0
 40
9.0
 40
9.0
 40
9.0
 40
10.0
 40
10.0
 40
10.0
 40
11.0
 40
11.0
 40
11.0
 40
12.0
 40
12.0
 40
12.0
 40
13.0
 40
13.0
 40
13.0
 40
13.0
 10
120.767133216336
 20
-139.600264450777
 10
120.5494031816682
 20
-139.7589110978728
 10
120.4563856035664
 20
-139.8329806508056
 10
120.4074652476759
 20
-139.9768133873148
 10
120.4074652476759
 20
-139.9768133873148
 10
121.1860568273424
 20
-139.9768133873148
 10
121.1860568273424
 20
-139.9768133873148
 10
121.1860568273424
 20
-139.9768133873148
 10
121.1860568273424
 20
-140.1819688234614
 10
121.1860568273424
 20
-140.1819688234614
 10
121.1860568273424
 20
-140.1819688234614
 10
120.1580403345438
 20
-140.1819688234614
 10
120.1580403345438
 20
-140.1819688234614
 10
120.1897352130081
 20
-139.8243679120925
 10
120.2551920272278
 20
-139.7461642445773
 10
120.6403537024788
 20
-139.4478189755547
 10
120.8963242970328
 20
-139.2490369660558
 10
120.9617811112526
 20
-139.1813408397706
 10
120.9617811112526
 20
-139.0438815299092
 10
120.9617811112526
 20
-138.9253702452166
 10
120.8897786156109
 20
-138.7941121072285
 10
120.6930636634031
 20
-138.7941121072285
 10
120.4329589542667
 20
-138.7941121072285
 10
120.4246907251022
 20
-139.024761249966
 10
120.4202121009713
 20
-139.1412054773675
 10
120.4202121009713
 20
-139.1412054773675
 10
120.1959363848815
 20
-139.1412054773675
 10
120.1959363848815
 20
-139.1412054773675
 10
120.2045491235947
 20
-139.014253708736
 10
120.2152289195989
 20
-138.9021158506911
 10
120.2954996444053
 20
-138.7836045659985
 10
120.4053981903848
 20
-138.6228908616116
 10
120.5917778561368
 20
-138.5889566710819
 10
120.7078775739897
 20
-138.5889566710819
 10
120.9852077605523
 20
-138.5889566710819
 10
121.1926025087643
 20
-138.7730970247685
 10
121.1926025087643
 20
-139.0459485872003
 10
121.1926025087643
 20
-139.2743584178724
 10
121.0761582813629
 20
-139.3739216773961
 10
120.767133216336
 20
-139.600264450777
 97
        0
 97
        1
330
14E
 75
     2
 76
     1
 98
        1
 10
0.0
 20
0.0
450
        0
451
        0
460
0.0
461
0.0
452
        0
462
0.0
453
        0
470

  0
SPLINE
  5
150
330
14A
100
AcDbEntity
  8
レイヤー 1
100
AcDbSpline
210
0.0
220
0.0
230
1.0
 70
    11
 71
     3
 72
    26
 73
    22
 74
     0
 42
0.0000000001
 43
0.0000000001
 40
0.0
 40
0.0
 40
0.0
 40
0.0
 40
1.0
 40
1.0
 40
1.0
 40
2.0
 40
2.0
 40
2.0
 40
3.0
 40
3.0
 40
3.0
 40
4.0
 40
4.0
 40
4.0
 40
5.0
 40
5.0
 40
5.0
 40
6.0
 40
6.0
 40
6.0
 40
7.0
 40
7.0
 40
7.0
 40
7.0
 10
121.8023844096535
 20
-140.1819688234614
 30
0.0
 10
121.8023844096535
 20
-140.1819688234614
 30
0.0
 10
121.8023844096535
 20
-139.0776434656646
 30
0.0
 10
121.8023844096535
 20
-139.0776434656646
 30
0.0
 10
121.8023844096535
 20
-139.0776434656646
 30
0.0
 10
121.4723442621666
 20
-139.0776434656646
 30
0.0
 10
121.4723442621666
 20
-139.0776434656646
 30
0.0
 10
121.4723442621666
 20
-139.0776434656646
 30
0.0
 10
121.4723442621666
 20
-138.9295043597988
 30
0.0
 10
121.4723442621666
 20
-138.9295043597988
 30
0.0
 10
121.8044514669447
 20
-138.9148627039865
 30
0.0
 10
121.8509602559956
 20
-138.7519096875342
 30
0.0
 10
121.8805880771687
 20
-138.6377047721982
 30
0.0
 10
121.8805880771687
 20
-138.6377047721982
 30
0.0
 10
122.0266601257433
 20
-138.6377047721982
 30
0.0
 10
122.0266601257433
 20
-138.6377047721982
 30
0.0
 10
122.0266601257433
 20
-138.6377047721982
 30
0.0
 10
122.0266601257433
 20
-140.1819688234614
 30
0.0
 10
122.0266601257433
 20
-140.1819688234614
 30
0.0
 10
122.0266601257433
 20
-140.1819688234614
 30
0.0
 10
121.8023844096535
 20
-140.1819688234614
 30
0.0
 10
121.8023844096535
 20
-140.1819688234614
 30
0.0
  0
HATCH
  5
151
330
14A
100
AcDbEntity
  8
レイヤー 1
 62
   250
420
  2299925
440
 33554687
100
AcDbHatch
 10
0.0
 20
0.0
 30
0.0
210
0.0
220
0.0
230
1.0
  2
SOLID
 70
     1
 71
     1
 91
        1
 92
        1
 93
        1
 72
     4
 94
        3
 73
     0
 74
     0
 95
       26
 96
       22
 40
0.0
 40
0.0
 40
0.0
 40
0.0
 40
1.0
 40
1.0
 40
1.0
 40
2.0
 40
2.0
 40
2.0
 40
3.0
 40
3.0
 40
3.0
 40
4.0
 40
4.0
 40
4.0
 40
5.0
 40
5.0
 40
5.0
 40
6.0
 40
6.0
 40
6.0
 40
7.0
 40
7.0
 40
7.0
 40
7.0
 10
121.8023844096535
 20
-140.1819688234614
 10
121.8023844096535
 20
-140.1819688234614
 10
121.8023844096535
 20
-139.0776434656646
 10
121.8023844096535
 20
-139.0776434656646
 10
121.8023844096535
 20
-139.0776434656646
 10
121.4723442621666
 20
-139.0776434656646
 10
121.4723442621666
 20
-139.0776434656646
 10
121.4723442621666
 20
-139.0776434656646
 10
121.4723442621666
 20
-138.9295043597988
 10
121.4723442621666
 20
-138.9295043597988
 10
121.8044514669447
 20
-138.9148627039865
 10
121.8509602559956
 20
-138.7519096875342
 10
121.8805880771687
 20
-138.6377047721982
 10
121.8805880771687
 20
-138.6377047721982
 10
122.0266601257433
 20
-138.6377047721982
 10
122.0266601257433
 20
-138.6377047721982
 10
122.0266601257433
 20
-138.6377047721982
 10
122.0266601257433
 20
-140.1819688234614
 10
122.0266601257433
 20
-140.1819688234614
 10
122.0266601257433
 20
-140.1819688234614
 10
121.8023844096535
 20
-140.1819688234614
 10
121.8023844096535
 20
-140.1819688234614
 97
        0
 97
        1
330
150
 75
     2
 76
     1
 98
        1
 10
0.0
 20
0.0
450
        0
451
        0
460
0.0
461
0.0
452
        0
462
0.0
453
        0
470

  0
ENDBLK
  5
14D
330
14A
100
AcDbEntity
  8
0
100
AcDbBlockEnd
  0
BLOCK
  5
157
330
155
100
AcDbEntity
  8
0
100
AcDbBlockBegin
  2
Block_12
 70
     0
 10
0.0
 20
0.0
 30
0.0
  3
Block_12
  1

  0
INSERT
  5
15A
330
155
100
AcDbEntity
  8
レイヤー 1
100
AcDbBlockReference
  2
Block_13
 10
0.0
 20
0.0
 30
0.0
  0
ENDBLK
  5
158
330
155
100
AcDbEntity
  8
0
100
AcDbBlockEnd
  0
BLOCK
  5
15B
330
159
100
AcDbEntity
  8
0
100
AcDbBlockBegin
  2
Block_13
 70
     0
 10
0.0
 20
0.0
 30
0.0
  3
Block_13
  1

  0
SPLINE
  5
15D
330
159
100
AcDbEntity
  8
レイヤー 1
100
AcDbSpline
210
0.0
220
0.0
230
1.0
 70
    11
 71
     3
 72
    26
 73
    22
 74
     0
 42
0.0000000001
 43
0.0000000001
 40
0.0
 40
0.0
 40
0.0
 40
0.0
 40
1.0
 40
1.0
 40
1.0
 40
2.0
 40
2.0
 40
2.0
 40
3.0
 40
3.0
 40
3.0
 40
4.0
 40
4.0
 40
4.0
 40
5.0
 40
5.0
 40
5.0
 40
6.0
 40
6.0
 40
6.0
 40
7.0
 40
7.0
 40
7.0
 40
7.0
 10
105.1248494203333
 20
-140.1819688234614
 30
0.0
 10
105.1248494203333
 20
-140.1819688234614
 30
0.0
 10
105.1248494203333
 20
-139.0776434656646
 30
0.0
 10
105.1248494203333
 20
-139.0776434656646
 30
0.0
 10
105.1248494203333
 20
-139.0776434656646
 30
0.0
 10
104.7948092728464
 20
-139.0776434656646
 30
0.0
 10
104.7948092728464
 20
-139.0776434656646
 30
0.0
 10
104.7948092728464
 20
-139.0776434656646
 30
0.0
 10
104.7948092728464
 20
-138.9295043597988
 30
0.0
 10
104.7948092728464
 20
-138.9295043597988
 30
0.0
 10
105.1269164776245
 20
-138.9148627039865
 30
0.0
 10
105.1734252666754
 20
-138.7519096875342
 30
0.0
 10
105.2030530878485
 20
-138.6377047721982
 30
0.0
 10
105.2030530878485
 20
-138.6377047721982
 30
0.0
 10
105.3491251364231
 20
-138.6377047721982
 30
0.0
 10
105.3491251364231
 20
-138.6377047721982
 30
0.0
 10
105.3491251364231
 20
-138.6377047721982
 30
0.0
 10
105.3491251364231
 20
-140.1819688234614
 30
0.0
 10
105.3491251364231
 20
-140.1819688234614
 30
0.0
 10
105.3491251364231
 20
-140.1819688234614
 30
0.0
 10
105.1248494203333
 20
-140.1819688234614
 30
0.0
 10
105.1248494203333
 20
-140.1819688234614
 30
0.0
  0
HATCH
  5
15E
330
159
100
AcDbEntity
  8
レイヤー 1
 62
   250
420
  2299925
440
 33554687
100
AcDbHatch
 10
0.0
 20
0.0
 30
0.0
210
0.0
220
0.0
230
1.0
  2
SOLID
 70
     1
 71
     1
 91
        1
 92
        1
 93
        1
 72
     4
 94
        3
 73
     0
 74
     0
 95
       26
 96
       22
 40
0.0
 40
0.0
 40
0.0
 40
0.0
 40
1.0
 40
1.0
 40
1.0
 40
2.0
 40
2.0
 40
2.0
 40
3.0
 40
3.0
 40
3.0
 40
4.0
 40
4.0
 40
4.0
 40
5.0
 40
5.0
 40
5.0
 40
6.0
 40
6.0
 40
6.0
 40
7.0
 40
7.0
 40
7.0
 40
7.0
 10
105.1248494203333
 20
-140.1819688234614
 10
105.1248494203333
 20
-140.1819688234614
 10
105.1248494203333
 20
-139.0776434656646
 10
105.1248494203333
 20
-139.0776434656646
 10
105.1248494203333
 20
-139.0776434656646
 10
104.7948092728464
 20
-139.0776434656646
 10
104.7948092728464
 20
-139.0776434656646
 10
104.7948092728464
 20
-139.0776434656646
 10
104.7948092728464
 20
-138.9295043597988
 10
104.7948092728464
 20
-138.9295043597988
 10
105.1269164776245
 20
-138.9148627039865
 10
105.1734252666754
 20
-138.7519096875342
 10
105.2030530878485
 20
-138.6377047721982
 10
105.2030530878485
 20
-138.6377047721982
 10
105.3491251364231
 20
-138.6377047721982
 10
105.3491251364231
 20
-138.6377047721982
 10
105.3491251364231
 20
-138.6377047721982
 10
105.3491251364231
 20
-140.1819688234614
 10
105.3491251364231
 20
-140.1819688234614
 10
105.3491251364231
 20
-140.1819688234614
 10
105.1248494203333
 20
-140.1819688234614
 10
105.1248494203333
 20
-140.1819688234614
 97
        0
 97
        1
330
15D
 75
     2
 76
     1
 98
        1
 10
0.0
 20
0.0
450
        0
451
        0
460
0.0
461
0.0
452
        0
462
0.0
453
        0
470

  0
SPLINE
  5
15F
330
159
100
AcDbEntity
  8
レイヤー 1
100
AcDbSpline
210
0.0
220
0.0
230
1.0
 70
     9
 71
     3
 72
    17
 73
    13
 74
     0
 42
0.0000000001
 43
0.0000000001
 40
0.0
 40
0.0
 40
0.0
 40
0.0
 40
1.0
 40
1.0
 40
1.0
 40
2.0
 40
2.0
 40
2.0
 40
3.0
 40
3.0
 40
3.0
 40
4.0
 40
4.0
 40
4.0
 40
4.0
 10
106.350442139211
 20
-138.7815375087074
 30
0.0
 10
106.1006727165304
 20
-138.7815375087074
 30
0.0
 10
106.0541639274795
 20
-139.0648966123692
 30
0.0
 10
106.0541639274795
 20
-139.4097506704427
 30
0.0
 10
106.0541639274795
 20
-139.7292832766996
 30
0.0
 10
106.0903374300746
 20
-140.0381360869523
 30
0.0
 10
106.350442139211
 20
-140.0381360869523
 30
0.0
 10
106.5981445046005
 20
-140.0381360869523
 30
0.0
 10
106.6467203509425
 20
-139.7566717858073
 30
0.0
 10
106.6467203509425
 20
-139.4097506704427
 30
0.0
 10
106.6467203509425
 20
-139.09039031896
 30
0.0
 10
106.6084797910562
 20
-138.7815375087074
 30
0.0
 10
106.350442139211
 20
-138.7815375087074
 30
0.0
  0
SPLINE
  5
160
330
159
100
AcDbEntity
  8
レイヤー 1
100
AcDbSpline
210
0.0
220
0.0
230
1.0
 70
     9
 71
     3
 72
    29
 73
    25
 74
     0
 42
0.0000000001
 43
0.0000000001
 40
0.0
 40
0.0
 40
0.0
 40
0.0
 40
1.0
 40
1.0
 40
1.0
 40
2.0
 40
2.0
 40
2.0
 40
3.0
 40
3.0
 40
3.0
 40
4.0
 40
4.0
 40
4.0
 40
5.0
 40
5.0
 40
5.0
 40
6.0
 40
6.0
 40
6.0
 40
7.0
 40
7.0
 40
7.0
 40
8.0
 40
8.0
 40
8.0
 40
8.0
 10
106.7483506677573
 20
-140.0042018964225
 30
0.0
 10
106.6401746695205
 20
-140.2136637019257
 30
0.0
 10
106.4668863666124
 20
-140.2327839818689
 30
0.0
 10
106.350442139211
 20
-140.2327839818689
 30
0.0
 10
106.1895561800498
 20
-140.2327839818689
 30
0.0
 10
106.047962755606
 20
-140.186275192818
 30
0.0
 10
105.9528781202131
 20
-140.0042018964225
 30
0.0
 10
105.8491807461071
 20
-139.8097262562802
 30
0.0
 10
105.8298882113897
 20
-139.572703686895
 30
0.0
 10
105.8298882113897
 20
-139.4097506704427
 30
0.0
 10
105.8298882113897
 20
-139.2659179339335
 30
0.0
 10
105.847113688816
 20
-139.014253708736
 30
0.0
 10
105.9528781202131
 20
-138.8152994444628
 30
0.0
 10
106.0607096089015
 20
-138.6122110656073
 30
0.0
 10
106.2215955680626
 20
-138.5889566710819
 30
0.0
 10
106.350442139211
 20
-138.5889566710819
 30
0.0
 10
106.509261041081
 20
-138.5889566710819
 30
0.0
 10
106.6529215228159
 20
-138.6333984028416
 30
0.0
 10
106.7483506677573
 20
-138.8152994444628
 30
0.0
 10
106.8475694177325
 20
-139.0078802820883
 30
0.0
 10
106.8709960670322
 20
-139.2362901127603
 30
0.0
 10
106.8709960670322
 20
-139.4097506704427
 30
0.0
 10
106.8709960670322
 20
-139.5811441708339
 30
0.0
 10
106.8496364750237
 20
-139.8117933135713
 30
0.0
 10
106.7483506677573
 20
-140.0042018964225
 30
0.0
  0
HATCH
  5
161
330
159
100
AcDbEntity
  8
レイヤー 1
 62
   250
420
  2299925
440
 33554687
100
AcDbHatch
 10
0.0
 20
0.0
 30
0.0
210
0.0
220
0.0
230
1.0
  2
SOLID
 70
     1
 71
     1
 91
        2
 92
        1
 93
        1
 72
     4
 94
        3
 73
     0
 74
     0
 95
       17
 96
       13
 40
0.0
 40
0.0
 40
0.0
 40
0.0
 40
1.0
 40
1.0
 40
1.0
 40
2.0
 40
2.0
 40
2.0
 40
3.0
 40
3.0
 40
3.0
 40
4.0
 40
4.0
 40
4.0
 40
4.0
 10
106.350442139211
 20
-138.7815375087074
 10
106.1006727165304
 20
-138.7815375087074
 10
106.0541639274795
 20
-139.0648966123692
 10
106.0541639274795
 20
-139.4097506704427
 10
106.0541639274795
 20
-139.7292832766996
 10
106.0903374300746
 20
-140.0381360869523
 10
106.350442139211
 20
-140.0381360869523
 10
106.5981445046005
 20
-140.0381360869523
 10
106.6467203509425
 20
-139.7566717858073
 10
106.6467203509425
 20
-139.4097506704427
 10
106.6467203509425
 20
-139.09039031896
 10
106.6084797910562
 20
-138.7815375087074
 10
106.350442139211
 20
-138.7815375087074
 97
        0
 97
        1
330
15F
 92
        1
 93
        1
 72
     4
 94
        3
 73
     0
 74
     0
 95
       29
 96
       25
 40
0.0
 40
0.0
 40
0.0
 40
0.0
 40
1.0
 40
1.0
 40
1.0
 40
2.0
 40
2.0
 40
2.0
 40
3.0
 40
3.0
 40
3.0
 40
4.0
 40
4.0
 40
4.0
 40
5.0
 40
5.0
 40
5.0
 40
6.0
 40
6.0
 40
6.0
 40
7.0
 40
7.0
 40
7.0
 40
8.0
 40
8.0
 40
8.0
 40
8.0
 10
106.7483506677573
 20
-140.0042018964225
 10
106.6401746695205
 20
-140.2136637019257
 10
106.4668863666124
 20
-140.2327839818689
 10
106.350442139211
 20
-140.2327839818689
 10
106.1895561800498
 20
-140.2327839818689
 10
106.047962755606
 20
-140.186275192818
 10
105.9528781202131
 20
-140.0042018964225
 10
105.8491807461071
 20
-139.8097262562802
 10
105.8298882113897
 20
-139.572703686895
 10
105.8298882113897
 20
-139.4097506704427
 10
105.8298882113897
 20
-139.2659179339335
 10
105.847113688816
 20
-139.014253708736
 10
105.9528781202131
 20
-138.8152994444628
 10
106.0607096089015
 20
-138.6122110656073
 10
106.2215955680626
 20
-138.5889566710819
 10
106.350442139211
 20
-138.5889566710819
 10
106.509261041081
 20
-138.5889566710819
 10
106.6529215228159
 20
-138.6333984028416
 10
106.7483506677573
 20
-138.8152994444628
 10
106.8475694177325
 20
-139.0078802820883
 10
106.8709960670322
 20
-139.2362901127603
 10
106.8709960670322
 20
-139.4097506704427
 10
106.8709960670322
 20
-139.5811441708339
 10
106.8496364750237
 20
-139.8117933135713
 10
106.7483506677573
 20
-140.0042018964225
 97
        0
 97
        1
330
160
 75
     2
 76
     1
 98
        1
 10
0.0
 20
0.0
450
        0
451
        0
460
0.0
461
0.0
452
        0
462
0.0
453
        0
470

  0
ENDBLK
  5
15C
330
159
100
AcDbEntity
  8
0
100
AcDbBlockEnd
  0
BLOCK
  5
169
330
167
100
AcDbEntity
  8
0
100
AcDbBlockBegin
  2
Block_14
 70
     0
 10
0.0
 20
0.0
 30
0.0
  3
Block_14
  1

  0
INSERT
  5
16C
330
167
100
AcDbEntity
  8
レイヤー 1
100
AcDbBlockReference
  2
Block_15
 10
0.0
 20
0.0
 30
0.0
  0
ENDBLK
  5
16A
330
167
100
AcDbEntity
  8
0
100
AcDbBlockEnd
  0
BLOCK
  5
16D
330
16B
100
AcDbEntity
  8
0
100
AcDbBlockBegin
  2
Block_15
 70
     0
 10
0.0
 20
0.0
 30
0.0
  3
Block_15
  1

  0
SPLINE
  5
16F
330
16B
100
AcDbEntity
  8
レイヤー 1
100
AcDbSpline
210
0.0
220
0.0
230
1.0
 70
    11
 71
     3
 72
    26
 73
    22
 74
     0
 42
0.0000000001
 43
0.0000000001
 40
0.0
 40
0.0
 40
0.0
 40
0.0
 40
1.0
 40
1.0
 40
1.0
 40
2.0
 40
2.0
 40
2.0
 40
3.0
 40
3.0
 40
3.0
 40
4.0
 40
4.0
 40
4.0
 40
5.0
 40
5.0
 40
5.0
 40
6.0
 40
6.0
 40
6.0
 40
7.0
 40
7.0
 40
7.0
 40
7.0
 10
105.4417982049763
 20
-157.557996922416
 30
0.0
 10
105.4417982049763
 20
-157.557996922416
 30
0.0
 10
105.4417982049763
 20
-156.4538438193935
 30
0.0
 10
105.4417982049763
 20
-156.4538438193935
 30
0.0
 10
105.4417982049763
 20
-156.4538438193935
 30
0.0
 10
105.1117580574894
 20
-156.4538438193935
 30
0.0
 10
105.1117580574894
 20
-156.4538438193935
 30
0.0
 10
105.1117580574894
 20
-156.4538438193935
 30
0.0
 10
105.1117580574894
 20
-156.3057047135277
 30
0.0
 10
105.1117580574894
 20
-156.3057047135277
 30
0.0
 10
105.4438652622675
 20
-156.2908908029411
 30
0.0
 10
105.4905463060926
 20
-156.1279377864888
 30
0.0
 10
105.5201741272658
 20
-156.0135606163785
 30
0.0
 10
105.5201741272658
 20
-156.0135606163785
 30
0.0
 10
105.6662461758404
 20
-156.0135606163785
 30
0.0
 10
105.6662461758404
 20
-156.0135606163785
 30
0.0
 10
105.6662461758404
 20
-156.0135606163785
 30
0.0
 10
105.6662461758404
 20
-157.557996922416
 30
0.0
 10
105.6662461758404
 20
-157.557996922416
 30
0.0
 10
105.6662461758404
 20
-157.557996922416
 30
0.0
 10
105.4417982049763
 20
-157.557996922416
 30
0.0
 10
105.4417982049763
 20
-157.557996922416
 30
0.0
  0
HATCH
  5
170
330
16B
100
AcDbEntity
  8
レイヤー 1
 62
   250
420
  2299925
440
 33554687
100
AcDbHatch
 10
0.0
 20
0.0
 30
0.0
210
0.0
220
0.0
230
1.0
  2
SOLID
 70
     1
 71
     1
 91
        1
 92
        1
 93
        1
 72
     4
 94
        3
 73
     0
 74
     0
 95
       26
 96
       22
 40
0.0
 40
0.0
 40
0.0
 40
0.0
 40
1.0
 40
1.0
 40
1.0
 40
2.0
 40
2.0
 40
2.0
 40
3.0
 40
3.0
 40
3.0
 40
4.0
 40
4.0
 40
4.0
 40
5.0
 40
5.0
 40
5.0
 40
6.0
 40
6.0
 40
6.0
 40
7.0
 40
7.0
 40
7.0
 40
7.0
 10
105.4417982049763
 20
-157.557996922416
 10
105.4417982049763
 20
-157.557996922416
 10
105.4417982049763
 20
-156.4538438193935
 10
105.4417982049763
 20
-156.4538438193935
 10
105.4417982049763
 20
-156.4538438193935
 10
105.1117580574894
 20
-156.4538438193935
 10
105.1117580574894
 20
-156.4538438193935
 10
105.1117580574894
 20
-156.4538438193935
 10
105.1117580574894
 20
-156.3057047135277
 10
105.1117580574894
 20
-156.3057047135277
 10
105.4438652622675
 20
-156.2908908029411
 10
105.4905463060926
 20
-156.1279377864888
 10
105.5201741272658
 20
-156.0135606163785
 10
105.5201741272658
 20
-156.0135606163785
 10
105.6662461758404
 20
-156.0135606163785
 10
105.6662461758404
 20
-156.0135606163785
 10
105.6662461758404
 20
-156.0135606163785
 10
105.6662461758404
 20
-157.557996922416
 10
105.6662461758404
 20
-157.557996922416
 10
105.6662461758404
 20
-157.557996922416
 10
105.4417982049763
 20
-157.557996922416
 10
105.4417982049763
 20
-157.557996922416
 97
        0
 97
        1
330
16F
 75
     2
 76
     1
 98
        1
 10
0.0
 20
0.0
450
        0
451
        0
460
0.0
461
0.0
452
        0
462
0.0
453
        0
470

  0
SPLINE
  5
171
330
16B
100
AcDbEntity
  8
レイヤー 1
100
AcDbSpline
210
0.0
220
0.0
230
1.0
 70
     9
 71
     3
 72
    44
 73
    40
 74
     0
 42
0.0000000001
 43
0.0000000001
 40
0.0
 40
0.0
 40
0.0
 40
0.0
 40
1.0
 40
1.0
 40
1.0
 40
2.0
 40
2.0
 40
2.0
 40
3.0
 40
3.0
 40
3.0
 40
4.0
 40
4.0
 40
4.0
 40
5.0
 40
5.0
 40
5.0
 40
6.0
 40
6.0
 40
6.0
 40
7.0
 40
7.0
 40
7.0
 40
8.0
 40
8.0
 40
8.0
 40
9.0
 40
9.0
 40
9.0
 40
10.0
 40
10.0
 40
10.0
 40
11.0
 40
11.0
 40
11.0
 40
12.0
 40
12.0
 40
12.0
 40
13.0
 40
13.0
 40
13.0
 40
13.0
 10
106.7604085019557
 20
-156.9761202949573
 30
0.0
 10
106.5426784672879
 20
-157.1349391968274
 30
0.0
 10
106.4496608891862
 20
-157.2090087497602
 30
0.0
 10
106.4007405332956
 20
-157.3526692314952
 30
0.0
 10
106.4007405332956
 20
-157.3526692314952
 30
0.0
 10
107.1793321129621
 20
-157.3526692314952
 30
0.0
 10
107.1793321129621
 20
-157.3526692314952
 30
0.0
 10
107.1793321129621
 20
-157.3526692314952
 30
0.0
 10
107.1793321129621
 20
-157.557996922416
 30
0.0
 10
107.1793321129621
 20
-157.557996922416
 30
0.0
 10
107.1793321129621
 20
-157.557996922416
 30
0.0
 10
106.1513156201635
 20
-157.557996922416
 30
0.0
 10
106.1513156201635
 20
-157.557996922416
 30
0.0
 10
106.1830104986278
 20
-157.2003960110471
 30
0.0
 10
106.2484673128476
 20
-157.1221923435319
 30
0.0
 10
106.6336289880985
 20
-156.8238470745093
 30
0.0
 10
106.8895995826526
 20
-156.6250650650104
 30
0.0
 10
106.9550563968723
 20
-156.557196683951
 30
0.0
 10
106.9550563968723
 20
-156.4197373740895
 30
0.0
 10
106.9550563968723
 20
-156.3012260893969
 30
0.0
 10
106.8830539012306
 20
-156.1703124609574
 30
0.0
 10
106.6863389490228
 20
-156.1703124609574
 30
0.0
 10
106.4262342398865
 20
-156.1703124609574
 30
0.0
 10
106.4176215011733
 20
-156.4007893489206
 30
0.0
 10
106.413487386591
 20
-156.5172335763221
 30
0.0
 10
106.413487386591
 20
-156.5172335763221
 30
0.0
 10
106.1892116705013
 20
-156.5172335763221
 30
0.0
 10
106.1892116705013
 20
-156.5172335763221
 30
0.0
 10
106.1978244092144
 20
-156.3901095529163
 30
0.0
 10
106.2085042052187
 20
-156.2781439496457
 30
0.0
 10
106.288774930025
 20
-156.1596326649531
 30
0.0
 10
106.3986734760045
 20
-155.9987467057919
 30
0.0
 10
106.5850531417565
 20
-155.9649847700365
 30
0.0
 10
106.7011528596094
 20
-155.9649847700365
 30
0.0
 10
106.978483046172
 20
-155.9649847700365
 30
0.0
 10
107.1858777943841
 20
-156.1489528689488
 30
0.0
 10
107.1858777943841
 20
-156.4218044313806
 30
0.0
 10
107.1858777943841
 20
-156.6505587716012
 30
0.0
 10
107.0694335669826
 20
-156.7497775215764
 30
0.0
 10
106.7604085019557
 20
-156.9761202949573
 30
0.0
  0
HATCH
  5
172
330
16B
100
AcDbEntity
  8
レイヤー 1
 62
   250
420
  2299925
440
 33554687
100
AcDbHatch
 10
0.0
 20
0.0
 30
0.0
210
0.0
220
0.0
230
1.0
  2
SOLID
 70
     1
 71
     1
 91
        1
 92
        1
 93
        1
 72
     4
 94
        3
 73
     0
 74
     0
 95
       44
 96
       40
 40
0.0
 40
0.0
 40
0.0
 40
0.0
 40
1.0
 40
1.0
 40
1.0
 40
2.0
 40
2.0
 40
2.0
 40
3.0
 40
3.0
 40
3.0
 40
4.0
 40
4.0
 40
4.0
 40
5.0
 40
5.0
 40
5.0
 40
6.0
 40
6.0
 40
6.0
 40
7.0
 40
7.0
 40
7.0
 40
8.0
 40
8.0
 40
8.0
 40
9.0
 40
9.0
 40
9.0
 40
10.0
 40
10.0
 40
10.0
 40
11.0
 40
11.0
 40
11.0
 40
12.0
 40
12.0
 40
12.0
 40
13.0
 40
13.0
 40
13.0
 40
13.0
 10
106.7604085019557
 20
-156.9761202949573
 10
106.5426784672879
 20
-157.1349391968274
 10
106.4496608891862
 20
-157.2090087497602
 10
106.4007405332956
 20
-157.3526692314952
 10
106.4007405332956
 20
-157.3526692314952
 10
107.1793321129621
 20
-157.3526692314952
 10
107.1793321129621
 20
-157.3526692314952
 10
107.1793321129621
 20
-157.3526692314952
 10
107.1793321129621
 20
-157.557996922416
 10
107.1793321129621
 20
-157.557996922416
 10
107.1793321129621
 20
-157.557996922416
 10
106.1513156201635
 20
-157.557996922416
 10
106.1513156201635
 20
-157.557996922416
 10
106.1830104986278
 20
-157.2003960110471
 10
106.2484673128476
 20
-157.1221923435319
 10
106.6336289880985
 20
-156.8238470745093
 10
106.8895995826526
 20
-156.6250650650104
 10
106.9550563968723
 20
-156.557196683951
 10
106.9550563968723
 20
-156.4197373740895
 10
106.9550563968723
 20
-156.3012260893969
 10
106.8830539012306
 20
-156.1703124609574
 10
106.6863389490228
 20
-156.1703124609574
 10
106.4262342398865
 20
-156.1703124609574
 10
106.4176215011733
 20
-156.4007893489206
 10
106.413487386591
 20
-156.5172335763221
 10
106.413487386591
 20
-156.5172335763221
 10
106.1892116705013
 20
-156.5172335763221
 10
106.1892116705013
 20
-156.5172335763221
 10
106.1978244092144
 20
-156.3901095529163
 10
106.2085042052187
 20
-156.2781439496457
 10
106.288774930025
 20
-156.1596326649531
 10
106.3986734760045
 20
-155.9987467057919
 10
106.5850531417565
 20
-155.9649847700365
 10
106.7011528596094
 20
-155.9649847700365
 10
106.978483046172
 20
-155.9649847700365
 10
107.1858777943841
 20
-156.1489528689488
 10
107.1858777943841
 20
-156.4218044313806
 10
107.1858777943841
 20
-156.6505587716012
 10
107.0694335669826
 20
-156.7497775215764
 10
106.7604085019557
 20
-156.9761202949573
 97
        0
 97
        1
330
171
 75
     2
 76
     1
 98
        1
 10
0.0
 20
0.0
450
        0
451
        0
460
0.0
461
0.0
452
        0
462
0.0
453
        0
470

  0
ENDBLK
  5
16E
330
16B
100
AcDbEntity
  8
0
100
AcDbBlockEnd
  0
BLOCK
  5
176
330
174
100
AcDbEntity
  8
0
100
AcDbBlockBegin
  2
Block_16
 70
     0
 10
0.0
 20
0.0
 30
0.0
  3
Block_16
  1

  0
SPLINE
  5
178
330
174
100
AcDbEntity
  8
レイヤー 1
100
AcDbSpline
210
0.0
220
0.0
230
1.0
 70
    11
 71
     3
 72
    26
 73
    22
 74
     0
 42
0.0000000001
 43
0.0000000001
 40
0.0
 40
0.0
 40
0.0
 40
0.0
 40
1.0
 40
1.0
 40
1.0
 40
2.0
 40
2.0
 40
2.0
 40
3.0
 40
3.0
 40
3.0
 40
4.0
 40
4.0
 40
4.0
 40
5.0
 40
5.0
 40
5.0
 40
6.0
 40
6.0
 40
6.0
 40
7.0
 40
7.0
 40
7.0
 40
7.0
 10
113.7739338908273
 20
-149.5347140468177
 30
0.0
 10
113.7739338908273
 20
-149.5347140468177
 30
0.0
 10
113.7739338908273
 20
-148.4303886890208
 30
0.0
 10
113.7739338908273
 20
-148.4303886890208
 30
0.0
 10
113.7739338908273
 20
-148.4303886890208
 30
0.0
 10
113.4438937433404
 20
-148.4303886890208
 30
0.0
 10
113.4438937433404
 20
-148.4303886890208
 30
0.0
 10
113.4438937433404
 20
-148.4303886890208
 30
0.0
 10
113.4438937433404
 20
-148.2822495831551
 30
0.0
 10
113.4438937433404
 20
-148.2822495831551
 30
0.0
 10
113.7760009481185
 20
-148.2676079273428
 30
0.0
 10
113.8225097371694
 20
-148.1046549108905
 30
0.0
 10
113.8521375583425
 20
-147.9904499955545
 30
0.0
 10
113.8521375583425
 20
-147.9904499955545
 30
0.0
 10
113.9982096069171
 20
-147.9904499955545
 30
0.0
 10
113.9982096069171
 20
-147.9904499955545
 30
0.0
 10
113.9982096069171
 20
-147.9904499955545
 30
0.0
 10
113.9982096069171
 20
-149.5347140468177
 30
0.0
 10
113.9982096069171
 20
-149.5347140468177
 30
0.0
 10
113.9982096069171
 20
-149.5347140468177
 30
0.0
 10
113.7739338908273
 20
-149.5347140468177
 30
0.0
 10
113.7739338908273
 20
-149.5347140468177
 30
0.0
  0
HATCH
  5
179
330
174
100
AcDbEntity
  8
レイヤー 1
 62
   250
420
  2299925
440
 33554687
100
AcDbHatch
 10
0.0
 20
0.0
 30
0.0
210
0.0
220
0.0
230
1.0
  2
SOLID
 70
     1
 71
     1
 91
        1
 92
        1
 93
        1
 72
     4
 94
        3
 73
     0
 74
     0
 95
       26
 96
       22
 40
0.0
 40
0.0
 40
0.0
 40
0.0
 40
1.0
 40
1.0
 40
1.0
 40
2.0
 40
2.0
 40
2.0
 40
3.0
 40
3.0
 40
3.0
 40
4.0
 40
4.0
 40
4.0
 40
5.0
 40
5.0
 40
5.0
 40
6.0
 40
6.0
 40
6.0
 40
7.0
 40
7.0
 40
7.0
 40
7.0
 10
113.7739338908273
 20
-149.5347140468177
 10
113.7739338908273
 20
-149.5347140468177
 10
113.7739338908273
 20
-148.4303886890208
 10
113.7739338908273
 20
-148.4303886890208
 10
113.7739338908273
 20
-148.4303886890208
 10
113.4438937433404
 20
-148.4303886890208
 10
113.4438937433404
 20
-148.4303886890208
 10
113.4438937433404
 20
-148.4303886890208
 10
113.4438937433404
 20
-148.2822495831551
 10
113.4438937433404
 20
-148.2822495831551
 10
113.7760009481185
 20
-148.2676079273428
 10
113.8225097371694
 20
-148.1046549108905
 10
113.8521375583425
 20
-147.9904499955545
 10
113.8521375583425
 20
-147.9904499955545
 10
113.9982096069171
 20
-147.9904499955545
 10
113.9982096069171
 20
-147.9904499955545
 10
113.9982096069171
 20
-147.9904499955545
 10
113.9982096069171
 20
-149.5347140468177
 10
113.9982096069171
 20
-149.5347140468177
 10
113.9982096069171
 20
-149.5347140468177
 10
113.7739338908273
 20
-149.5347140468177
 10
113.7739338908273
 20
-149.5347140468177
 97
        0
 97
        1
330
178
 75
     2
 76
     1
 98
        1
 10
0.0
 20
0.0
450
        0
451
        0
460
0.0
461
0.0
452
        0
462
0.0
453
        0
470

  0
ENDBLK
  5
177
330
174
100
AcDbEntity
  8
0
100
AcDbBlockEnd
  0
ENDSEC
  0
SECTION
  2
ENTITIES
  0
INSERT
  5
7A
330
70
100
AcDbEntity
  8
レイヤー 1
100
AcDbBlockReference
  2
Block_0
 10
0.0
 20
0.0
 30
0.0
  0
ENDSEC
  0
SECTION
  2
OBJECTS
  0
DICTIONARY
  5
C
330
0
100
AcDbDictionary
281
     1
  3
ACAD_COLOR
350
63
  3
ACAD_DETAILVIEWSTYLE
350
6A
  3
ACAD_GROUP
350
D
  3
ACAD_LAYOUT
350
62
  3
ACAD_MATERIAL
350
10
  3
ACAD_MLEADERSTYLE
350
66
  3
ACAD_MLINESTYLE
350
5F
  3
ACAD_PLOTSETTINGS
350
61
  3
ACAD_PLOTSTYLENAME
350
E
  3
ACAD_SCALELIST
350
42
  3
ACAD_SECTIONVIEWSTYLE
350
68
  3
ACAD_TABLESTYLE
350
64
  3
ACAD_VISUALSTYLE
350
29
  3
ACDB_RECOMPOSE_DATA
350
182
  3
AcDbVariableDictionary
350
17A
  0
DICTIONARY
  5
63
102
{ACAD_REACTORS
330
C
102
}
330
C
100
AcDbDictionary
281
     1
  0
DICTIONARY
  5
6A
102
{ACAD_REACTORS
330
C
102
}
330
C
100
AcDbDictionary
281
     1
  3
Imperial24
350
6B
  0
DICTIONARY
  5
D
102
{ACAD_REACTORS
330
C
102
}
330
C
100
AcDbDictionary
281
     1
  0
DICTIONARY
  5
62
102
{ACAD_REACTORS
330
C
102
}
330
C
100
AcDbDictionary
281
     1
  3
Layout1
350
6F
  3
Layout2
350
77
  3
Model
350
73
  0
DICTIONARY
  5
10
102
{ACAD_REACTORS
330
C
102
}
330
C
100
AcDbDictionary
281
     1
  3
ByBlock
350
19
  3
ByLayer
350
11
  3
Global
350
21
  0
DICTIONARY
  5
66
102
{ACAD_REACTORS
330
C
102
}
330
C
100
AcDbDictionary
281
     1
  3
Standard
350
67
  0
DICTIONARY
  5
5F
102
{ACAD_REACTORS
330
C
102
}
330
C
100
AcDbDictionary
281
     1
  3
Standard
350
60
  0
DICTIONARY
  5
61
102
{ACAD_REACTORS
330
C
102
}
330
C
100
AcDbDictionary
281
     1
  0
ACDBDICTIONARYWDFLT
  5
E
102
{ACAD_REACTORS
330
C
102
}
330
C
100
AcDbDictionary
281
     1
  3
Normal
350
F
100
AcDbDictionaryWithDefault
340
F
  0
DICTIONARY
  5
42
102
{ACAD_REACTORS
330
C
102
}
330
C
100
AcDbDictionary
281
     1
  3
A0
350
43
  3
A1
350
44
  3
A2
350
45
  3
A3
350
46
  3
A4
350
47
  3
A5
350
48
  3
A6
350
49
  3
A7
350
4A
  3
A8
350
4B
  3
A9
350
4C
  3
B0
350
4D
  3
B1
350
4E
  3
B2
350
4F
  3
B3
350
50
  3
B4
350
51
  3
B5
350
52
  3
B6
350
53
  0
DICTIONARY
  5
68
102
{ACAD_REACTORS
330
C
102
}
330
C
100
AcDbDictionary
281
     1
  3
Imperial24
350
69
  0
DICTIONARY
  5
64
102
{ACAD_REACTORS
330
C
102
}
330
C
100
AcDbDictionary
281
     1
  3
Standard
350
65
  0
DICTIONARY
  5
29
102
{ACAD_REACTORS
330
C
102
}
330
C
100
AcDbDictionary
281
     1
  3
2dWireframe
350
2F
  3
Basic
350
2E
  3
Brighten
350
35
  3
ColorChange
350
39
  3
Conceptual
350
32
  3
Dim
350
34
  3
EdgeColorOff
350
41
  3
Facepattern
350
38
  3
Flat
350
2A
  3
FlatWithEdges
350
2B
  3
Gouraud
350
2C
  3
GouraudWithEdges
350
2D
  3
Hidden
350
31
  3
JitterOff
350
3F
  3
Linepattern
350
37
  3
OverhangOff
350
40
  3
Realistic
350
33
  3
Shaded
350
3E
  3
Shaded with edges
350
3D
  3
Shades of Gray
350
3A
  3
Sketchy
350
3B
  3
Thicken
350
36
  3
Wireframe
350
30
  3
X-Ray
350
3C
  0
XRECORD
  5
182
102
{ACAD_REACTORS
330
C
102
}
330
C
100
AcDbXrecord
280
     1
 90
        1
330
65
  0
DICTIONARY
  5
17A
102
{ACAD_REACTORS
330
C
102
}
330
C
100
AcDbDictionary
281
     1
  3
CANNOSCALE
350
17F
  3
CMLEADERSTYLE
350
17C
  3
CTABLESTYLE
350
17B
  3
CVIEWDETAILSTYLE
350
17D
  3
CVIEWSECTIONSTYLE
350
17E
  0
ACDBDETAILVIEWSTYLE
  5
6B
102
{ACAD_XDICTIONARY
360
1B7
102
}
102
{ACAD_REACTORS
330
6A
102
}
330
6A
100
AcDbModelDocViewStyle
 70
     0
  3
Imperial24
290
     0
100
AcDbDetailViewStyle
 70
     0
 71
     0
 90
        3
 71
     1
340
55
 62
   256
 40
0.24
340
0
 62
   256
 40
0.24
300

 40
0.36
280
     3
 71
     2
340
5D
 90
       25
 62
   256
 71
     3
340
55
 62
   256
 40
0.24
 90
        1
 40
0.75
 90
        1
300
%<\AcVar ViewType \f "%tc1">% %<\AcVar ViewDetailId>%\PSCALE %<\AcVar ViewScale \f "%sn">%
 71
     4
340
5D
 90
       25
 62
   256
340
5D
 90
       25
 62
   256
280
     0
  0
LAYOUT
  5
6F
102
{ACAD_REACTORS
330
62
102
}
330
62
100
AcDbPlotSettings
  1

  2

  4

  6

 40
0.0
 41
0.0
 42
0.0
 43
0.0
 44
0.0
 45
0.0
 46
0.0
 47
0.0
 48
0.0
 49
0.0
140
0.0
141
0.0
142
1.0
143
1.0
 70
   688
 72
     0
 73
     0
 74
     5
  7

 75
    16
147
1.0
 76
     0
 77
     2
 78
   300
148
0.0
149
0.0
100
AcDbLayout
  1
Layout1
 70
     1
 71
     1
 10
0.0
 20
0.0
 11
12.0
 21
9.0
 12
0.0
 22
0.0
 32
0.0
 14
0.0
 24
0.0
 34
0.0
 15
0.0
 25
0.0
 35
0.0
146
0.0
 13
0.0
 23
0.0
 33
0.0
 16
1.0
 26
0.0
 36
0.0
 17
0.0
 27
1.0
 37
0.0
 76
     0
330
6C
  0
LAYOUT
  5
77
102
{ACAD_REACTORS
330
62
102
}
330
62
100
AcDbPlotSettings
  1

  2

  4

  6

 40
0.0
 41
0.0
 42
0.0
 43
0.0
 44
0.0
 45
0.0
 46
0.0
 47
0.0
 48
0.0
 49
0.0
140
0.0
141
0.0
142
1.0
143
1.0
 70
   688
 72
     0
 73
     0
 74
     5
  7

 75
    16
147
1.0
 76
     0
 77
     2
 78
   300
148
0.0
149
0.0
100
AcDbLayout
  1
Layout2
 70
     1
 71
     2
 10
0.0
 20
0.0
 11
12.0
 21
9.0
 12
0.0
 22
0.0
 32
0.0
 14
0.0
 24
0.0
 34
0.0
 15
0.0
 25
0.0
 35
0.0
146
0.0
 13
0.0
 23
0.0
 33
0.0
 16
1.0
 26
0.0
 36
0.0
 17
0.0
 27
1.0
 37
0.0
 76
     0
330
74
  0
LAYOUT
  5
73
102
{ACAD_REACTORS
330
62
102
}
330
62
100
AcDbPlotSettings
  1

  2

  4

  6

 40
0.0
 41
0.0
 42
0.0
 43
0.0
 44
0.0
 45
0.0
 46
0.0
 47
0.0
 48
0.0
 49
0.0
140
0.0
141
0.0
142
1.0
143
1.0
 70
  1712
 72
     0
 73
     0
 74
     0
  7

 75
     0
147
1.0
 76
     0
 77
     2
 78
   300
148
0.0
149
0.0
100
AcDbLayout
  1
Model
 70
     1
 71
     0
 10
0.0
 20
0.0
 11
12.0
 21
9.0
 12
0.0
 22
0.0
 32
0.0
 14
0.0
 24
0.0
 34
0.0
 15
0.0
 25
0.0
 35
0.0
146
0.0
 13
0.0
 23
0.0
 33
0.0
 16
1.0
 26
0.0
 36
0.0
 17
0.0
 27
1.0
 37
0.0
 76
     0
330
70
  0
MATERIAL
  5
19
102
{ACAD_XDICTIONARY
360
1A
102
}
102
{ACAD_REACTORS
330
10
102
}
330
10
100
AcDbMaterial
  1
ByBlock
 72
     0
 43
0.0208333333333333
 43
0.0
 43
0.0
 43
0.0
 43
0.0
 43
0.0208333333333333
 43
0.0
 43
0.0
 43
0.0
 43
0.0
 43
1.0
 43
0.0
 43
0.0
 43
0.0
 43
0.0
 43
1.0
 77
     0
 47
0.0208333333333333
 47
0.0
 47
0.0
 47
0.0
 47
0.0
 47
0.0208333333333333
 47
0.0
 47
0.0
 47
0.0
 47
0.0
 47
1.0
 47
0.0
 47
0.0
 47
0.0
 47
0.0
 47
1.0
171
     0
 49
0.0208333333333333
 49
0.0
 49
0.0
 49
0.0
 49
0.0
 49
0.0208333333333333
 49
0.0
 49
0.0
 49
0.0
 49
0.0
 49
1.0
 49
0.0
 49
0.0
 49
0.0
 49
0.0
 49
1.0
175
     0
142
0.0208333333333333
142
0.0
142
0.0
142
0.0
142
0.0
142
0.0208333333333333
142
0.0
142
0.0
142
0.0
142
0.0
142
1.0
142
0.0
142
0.0
142
0.0
142
0.0
142
1.0
179
     0
144
0.0208333333333333
144
0.0
144
0.0
144
0.0
144
0.0
144
0.0208333333333333
144
0.0
144
0.0
144
0.0
144
0.0
144
1.0
144
0.0
144
0.0
144
0.0
144
0.0
144
1.0
147
0.0208333333333333
147
0.0
147
0.0
147
0.0
147
0.0
147
0.0208333333333333
147
0.0
147
0.0
147
0.0
147
0.0
147
1.0
147
0.0
147
0.0
147
0.0
147
0.0
147
1.0
  0
MATERIAL
  5
11
102
{ACAD_XDICTIONARY
360
12
102
}
102
{ACAD_REACTORS
330
10
102
}
330
10
100
AcDbMaterial
  1
ByLayer
 72
     0
 43
0.0208333333333333
 43
0.0
 43
0.0
 43
0.0
 43
0.0
 43
0.0208333333333333
 43
0.0
 43
0.0
 43
0.0
 43
0.0
 43
1.0
 43
0.0
 43
0.0
 43
0.0
 43
0.0
 43
1.0
 77
     0
 47
0.0208333333333333
 47
0.0
 47
0.0
 47
0.0
 47
0.0
 47
0.0208333333333333
 47
0.0
 47
0.0
 47
0.0
 47
0.0
 47
1.0
 47
0.0
 47
0.0
 47
0.0
 47
0.0
 47
1.0
171
     0
 49
0.0208333333333333
 49
0.0
 49
0.0
 49
0.0
 49
0.0
 49
0.0208333333333333
 49
0.0
 49
0.0
 49
0.0
 49
0.0
 49
1.0
 49
0.0
 49
0.0
 49
0.0
 49
0.0
 49
1.0
175
     0
142
0.0208333333333333
142
0.0
142
0.0
142
0.0
142
0.0
142
0.0208333333333333
142
0.0
142
0.0
142
0.0
142
0.0
142
1.0
142
0.0
142
0.0
142
0.0
142
0.0
142
1.0
179
     0
144
0.0208333333333333
144
0.0
144
0.0
144
0.0
144
0.0
144
0.0208333333333333
144
0.0
144
0.0
144
0.0
144
0.0
144
1.0
144
0.0
144
0.0
144
0.0
144
0.0
144
1.0
147
0.0208333333333333
147
0.0
147
0.0
147
0.0
147
0.0
147
0.0208333333333333
147
0.0
147
0.0
147
0.0
147
0.0
147
1.0
147
0.0
147
0.0
147
0.0
147
0.0
147
1.0
  0
MATERIAL
  5
21
102
{ACAD_XDICTIONARY
360
22
102
}
102
{ACAD_REACTORS
330
10
102
}
330
10
100
AcDbMaterial
  1
Global
 72
     0
 43
0.0208333333333333
 43
0.0
 43
0.0
 43
0.0
 43
0.0
 43
0.0208333333333333
 43
0.0
 43
0.0
 43
0.0
 43
0.0
 43
1.0
 43
0.0
 43
0.0
 43
0.0
 43
0.0
 43
1.0
 77
     0
 47
0.0208333333333333
 47
0.0
 47
0.0
 47
0.0
 47
0.0
 47
0.0208333333333333
 47
0.0
 47
0.0
 47
0.0
 47
0.0
 47
1.0
 47
0.0
 47
0.0
 47
0.0
 47
0.0
 47
1.0
171
     0
 49
0.0208333333333333
 49
0.0
 49
0.0
 49
0.0
 49
0.0
 49
0.0208333333333333
 49
0.0
 49
0.0
 49
0.0
 49
0.0
 49
1.0
 49
0.0
 49
0.0
 49
0.0
 49
0.0
 49
1.0
175
     0
142
0.0208333333333333
142
0.0
142
0.0
142
0.0
142
0.0
142
0.0208333333333333
142
0.0
142
0.0
142
0.0
142
0.0
142
1.0
142
0.0
142
0.0
142
0.0
142
0.0
142
1.0
179
     0
144
0.0208333333333333
144
0.0
144
0.0
144
0.0
144
0.0
144
0.0208333333333333
144
0.0
144
0.0
144
0.0
144
0.0
144
1.0
144
0.0
144
0.0
144
0.0
144
0.0
144
1.0
147
0.0208333333333333
147
0.0
147
0.0
147
0.0
147
0.0
147
0.0208333333333333
147
0.0
147
0.0
147
0.0
147
0.0
147
1.0
147
0.0
147
0.0
147
0.0
147
0.0
147
1.0
  0
MLEADERSTYLE
  5
67
102
{ACAD_XDICTIONARY
360
1B3
102
}
102
{ACAD_REACTORS
330
66
102
}
330
66
100
AcDbMLeaderStyle
179
     2
170
     2
171
     1
172
     0
 90
        2
 40
0.0
 41
0.0
173
     1
 91
-1056964608
340
5B
 92
       -2
290
     1
 42
0.09
291
     1
 43
0.36
  3
Standard
 44
0.18
300

342
55
174
     1
178
     6
175
     1
176
     0
 93
-1056964608
 45
0.18
292
     0
297
     0
 46
0.18
 94
-1056964608
 47
1.0
 49
1.0
140
1.0
293
     1
141
0.0
294
     1
177
     0
142
1.0
295
     0
296
     0
143
0.125
271
     0
272
     9
273
     9
  0
MLINESTYLE
  5
60
102
{ACAD_REACTORS
330
5F
102
}
330
5F
100
AcDbMlineStyle
  2
STANDARD
 70
     0
  3

 62
   256
 51
90.0
 52
90.0
 71
     2
 49
0.5
 62
   256
  6
BYLAYER
 49
-0.5
 62
   256
  6
BYLAYER
  0
ACDBPLACEHOLDER
  5
F
102
{ACAD_REACTORS
330
E
102
}
330
E
  0
SCALE
  5
43
102
{ACAD_REACTORS
330
42
102
}
330
42
100
AcDbScale
 70
     0
300
1:1
140
1.0
141
1.0
290
     1
  0
SCALE
  5
44
102
{ACAD_REACTORS
330
42
102
}
330
42
100
AcDbScale
 70
     0
300
1/128" = 1'-0"
140
0.0078125
141
12.0
290
     0
  0
SCALE
  5
45
102
{ACAD_REACTORS
330
42
102
}
330
42
100
AcDbScale
 70
     0
300
1/64" = 1'-0"
140
0.015625
141
12.0
290
     0
  0
SCALE
  5
46
102
{ACAD_REACTORS
330
42
102
}
330
42
100
AcDbScale
 70
     0
300
1/32" = 1'-0"
140
0.03125
141
12.0
290
     0
  0
SCALE
  5
47
102
{ACAD_REACTORS
330
42
102
}
330
42
100
AcDbScale
 70
     0
300
1/16" = 1'-0"
140
0.0625
141
12.0
290
     0
  0
SCALE
  5
48
102
{ACAD_REACTORS
330
42
102
}
330
42
100
AcDbScale
 70
     0
300
3/32" = 1'-0"
140
0.09375
141
12.0
290
     0
  0
SCALE
  5
49
102
{ACAD_REACTORS
330
42
102
}
330
42
100
AcDbScale
 70
     0
300
1/8" = 1'-0"
140
0.125
141
12.0
290
     0
  0
SCALE
  5
4A
102
{ACAD_REACTORS
330
42
102
}
330
42
100
AcDbScale
 70
     0
300
3/16" = 1'-0"
140
0.1875
141
12.0
290
     0
  0
SCALE
  5
4B
102
{ACAD_REACTORS
330
42
102
}
330
42
100
AcDbScale
 70
     0
300
1/4" = 1'-0"
140
0.25
141
12.0
290
     0
  0
SCALE
  5
4C
102
{ACAD_REACTORS
330
42
102
}
330
42
100
AcDbScale
 70
     0
300
3/8" = 1'-0"
140
0.375
141
12.0
290
     0
  0
SCALE
  5
4D
102
{ACAD_REACTORS
330
42
102
}
330
42
100
AcDbScale
 70
     0
300
1/2" = 1'-0"
140
0.5
141
12.0
290
     0
  0
SCALE
  5
4E
102
{ACAD_REACTORS
330
42
102
}
330
42
100
AcDbScale
 70
     0
300
3/4" = 1'-0"
140
0.75
141
12.0
290
     0
  0
SCALE
  5
4F
102
{ACAD_REACTORS
330
42
102
}
330
42
100
AcDbScale
 70
     0
300
1" = 1'-0"
140
1.0
141
12.0
290
     0
  0
SCALE
  5
50
102
{ACAD_REACTORS
330
42
102
}
330
42
100
AcDbScale
 70
     0
300
1-1/2" = 1'-0"
140
1.5
141
12.0
290
     0
  0
SCALE
  5
51
102
{ACAD_REACTORS
330
42
102
}
330
42
100
AcDbScale
 70
     0
300
3" = 1'-0"
140
3.0
141
12.0
290
     0
  0
SCALE
  5
52
102
{ACAD_REACTORS
330
42
102
}
330
42
100
AcDbScale
 70
     0
300
6" = 1'-0"
140
6.0
141
12.0
290
     0
  0
SCALE
  5
53
102
{ACAD_REACTORS
330
42
102
}
330
42
100
AcDbScale
 70
     0
300
1'-0" = 1'-0"
140
12.0
141
12.0
290
     0
  0
ACDBSECTIONVIEWSTYLE
  5
69
102
{ACAD_XDICTIONARY
360
1B5
102
}
102
{ACAD_REACTORS
330
68
102
}
330
68
100
AcDbModelDocViewStyle
 70
     0
  3
Imperial24
290
     0
100
AcDbSectionViewStyle
 70
     0
 71
     0
 90
       78
 71
     1
340
55
 62
   256
 40
0.24
340
0
340
0
 62
   256
 40
0.24
300
I, O, Q, S, X, Z
 40
0.48
 90
        3
 40
0.18
 90
        1
 71
     2
340
5D
 90
       25
 62
   256
340
5D
 90
       50
 62
   256
 40
0.24
 40
0.0
 40
0.24
 71
     3
340
55
 62
   256
 40
0.24
 90
        1
 40
0.75
 90
        1
300
%<\AcVar ViewType \f "%tc1">% %<\AcVar ViewSectionStartId>%-%<\AcVar ViewSectionEndId>%\PSCALE %<\AcVar ViewScale \f "%sn">%
 71
     4
 62
   256
 62
   257
300
ANSI31
 40
1.0
 90
        0
290
     0
290
     0
 90
        6
 40
0.0
 40
1.570796326794896
 40
0.2617993877991494
 40
1.308996938995747
 40
-0.2617993877991494
 40
1.832595714594046
  0
TABLESTYLE
  5
65
102
{ACAD_XDICTIONARY
360
180
102
}
102
{ACAD_REACTORS
330
64
102
}
330
64
100
AcDbTableStyle
280
     0
  3
Standard
 70
     0
 71
     0
 40
0.06
 41
0.06
280
     0
281
     0
  7
Standard
140
0.18
170
     2
 62
     0
 63
     7
283
     0
 90
      512
 91
        0
  1

274
    -2
284
     1
 64
     0
275
    -2
285
     1
 65
     0
276
    -2
286
     1
 66
     0
277
    -2
287
     1
 67
     0
278
    -2
288
     1
 68
     0
279
    -2
289
     1
 69
     0
  7
Standard
140
0.25
170
     5
 62
     0
 63
     7
283
     0
 90
      512
 91
        0
  1

274
    -2
284
     1
 64
     0
275
    -2
285
     1
 65
     0
276
    -2
286
     1
 66
     0
277
    -2
287
     1
 67
     0
278
    -2
288
     1
 68
     0
279
    -2
289
     1
 69
     0
  7
Standard
140
0.18
170
     5
 62
     0
 63
     7
283
     0
 90
      512
 91
        0
  1

274
    -2
284
     1
 64
     0
275
    -2
285
     1
 65
     0
276
    -2
286
     1
 66
     0
277
    -2
287
     1
 67
     0
278
    -2
288
     1
 68
     0
279
    -2
289
     1
 69
     0
  0
VISUALSTYLE
  5
2F
102
{ACAD_XDICTIONARY
360
18D
102
}
102
{ACAD_REACTORS
330
29
102
}
330
29
100
AcDbVisualStyle
  2
2dWireframe
 70
     4
177
     2
291
     0
 71
     0
176
     1
 72
     2
176
     1
 73
     0
176
     1
 90
        0
176
     1
 40
0.6
176
     1
 41
30.0
176
     1
 63
     7
421
 16777215
176
     1
 74
     1
176
     1
 91
        4
176
     1
 64
     7
176
     1
 65
   257
176
     1
 75
     1
176
     1
175
     1
176
     1
 42
1.0
176
     1
 92
        0
176
     1
 66
   257
176
     1
 43
1.0
176
     1
 76
     1
176
     1
 77
     6
176
     1
 78
     2
176
     1
 67
     7
176
     1
 79
     5
176
     1
170
     0
176
     1
171
     0
176
     1
290
     0
176
     1
 93
        1
176
     1
 44
0.0
176
     1
173
     0
176
     1
1001
ACAD
1000
AcDbSavedByObjectVersion
1070
     0
  0
VISUALSTYLE
  5
2E
102
{ACAD_XDICTIONARY
360
18B
102
}
102
{ACAD_REACTORS
330
29
102
}
330
29
100
AcDbVisualStyle
  2
Basic
 70
     7
177
     2
291
     1
 71
     1
176
     1
 72
     0
176
     1
 73
     1
176
     1
 90
        0
176
     1
 40
0.6
176
     1
 41
30.0
176
     1
 63
     7
421
 16777215
176
     1
 74
     0
176
     1
 91
        4
176
     1
 64
     7
176
     1
 65
   257
176
     1
 75
     1
176
     1
175
     1
176
     1
 42
1.0
176
     1
 92
        8
176
     1
 66
     7
176
     1
 43
1.0
176
     1
 76
     1
176
     1
 77
     6
176
     1
 78
     2
176
     1
 67
     7
176
     1
 79
     5
176
     1
170
     0
176
     1
171
     0
176
     1
290
     0
176
     1
 93
        1
176
     1
 44
0.0
176
     1
173
     0
176
     1
1001
ACAD
1000
AcDbSavedByObjectVersion
1070
     0
  0
VISUALSTYLE
  5
35
102
{ACAD_XDICTIONARY
360
199
102
}
102
{ACAD_REACTORS
330
29
102
}
330
29
100
AcDbVisualStyle
  2
Brighten
 70
    12
177
     2
291
     1
 71
     2
176
     1
 72
     2
176
     1
 73
     0
176
     1
 90
        0
176
     1
 40
0.6
176
     1
 41
30.0
176
     1
 63
     7
421
 16777215
176
     1
 74
     1
176
     1
 91
        4
176
     1
 64
     7
176
     1
 65
   257
176
     1
 75
     1
176
     1
175
     1
176
     1
 42
1.0
176
     1
 92
        8
176
     1
 66
     7
176
     1
 43
1.0
176
     1
 76
     1
176
     1
 77
     6
176
     1
 78
     2
176
     1
 67
     7
176
     1
 79
     5
176
     1
170
     0
176
     1
171
     0
176
     1
290
     0
176
     1
 93
        1
176
     1
 44
50.0
176
     1
173
     0
176
     1
1001
ACAD
1000
AcDbSavedByObjectVersion
1070
     0
  0
VISUALSTYLE
  5
39
102
{ACAD_XDICTIONARY
360
1A1
102
}
102
{ACAD_REACTORS
330
29
102
}
330
29
100
AcDbVisualStyle
  2
ColorChange
 70
    16
177
     2
291
     1
 71
     2
176
     1
 72
     2
176
     1
 73
     3
176
     1
 90
        0
176
     1
 40
0.6
176
     1
 41
30.0
176
     1
 63
     8
421
  8421504
176
     1
 74
     1
176
     1
 91
        4
176
     1
 64
     7
176
     1
 65
   257
176
     1
 75
     1
176
     1
175
     1
176
     1
 42
1.0
176
     1
 92
        8
176
     1
 66
     8
424
  8421504
176
     1
 43
1.0
176
     1
 76
     1
176
     1
 77
     6
176
     1
 78
     2
176
     1
 67
     7
176
     1
 79
     5
176
     1
170
     0
176
     1
171
     0
176
     1
290
     0
176
     1
 93
        1
176
     1
 44
0.0
176
     1
173
     0
176
     1
1001
ACAD
1000
AcDbSavedByObjectVersion
1070
     0
  0
VISUALSTYLE
  5
32
102
{ACAD_XDICTIONARY
360
193
102
}
102
{ACAD_REACTORS
330
29
102
}
330
29
100
AcDbVisualStyle
  2
Conceptual
 70
     9
177
     2
291
     0
 71
     3
176
     1
 72
     2
176
     1
 73
     0
176
     1
 90
        0
176
     1
 40
0.6
176
     1
 41
30.0
176
     1
 63
     7
421
 16777215
176
     1
 74
     2
176
     1
 91
        2
176
     1
 64
     7
176
     1
 65
   257
176
     1
 75
     1
176
     1
175
     1
176
     1
 42
179.0
176
     1
 92
        8
176
     1
 66
     7
176
     1
 43
1.0
176
     1
 76
     1
176
     1
 77
     6
176
     1
 78
     2
176
     1
 67
     7
176
     1
 79
     3
176
     1
170
     0
176
     1
171
     0
176
     1
290
     0
176
     1
 93
        1
176
     1
 44
0.0
176
     1
173
     0
176
     1
1001
ACAD
1000
AcDbSavedByObjectVersion
1070
     0
  0
VISUALSTYLE
  5
34
102
{ACAD_XDICTIONARY
360
197
102
}
102
{ACAD_REACTORS
330
29
102
}
330
29
100
AcDbVisualStyle
  2
Dim
 70
    11
177
     2
291
     1
 71
     2
176
     1
 72
     2
176
     1
 73
     0
176
     1
 90
        0
176
     1
 40
0.6
176
     1
 41
30.0
176
     1
 63
     7
421
 16777215
176
     1
 74
     1
176
     1
 91
        4
176
     1
 64
     7
176
     1
 65
   257
176
     1
 75
     1
176
     1
175
     1
176
     1
 42
1.0
176
     1
 92
        8
176
     1
 66
     7
176
     1
 43
1.0
176
     1
 76
     1
176
     1
 77
     6
176
     1
 78
     2
176
     1
 67
     7
176
     1
 79
     5
176
     1
170
     0
176
     1
171
     0
176
     1
290
     0
176
     1
 93
        1
176
     1
 44
-50.0
176
     1
173
     0
176
     1
1001
ACAD
1000
AcDbSavedByObjectVersion
1070
     0
  0
VISUALSTYLE
  5
41
102
{ACAD_XDICTIONARY
360
1B1
102
}
102
{ACAD_REACTORS
330
29
102
}
330
29
100
AcDbVisualStyle
  2
EdgeColorOff
 70
    22
177
     2
291
     1
 71
     2
176
     0
 72
     2
176
     0
 73
     0
176
     0
 90
        0
176
     0
 40
0.6
176
     0
 41
30.0
176
     0
 63
     7
421
 16777215
176
     0
 74
     1
176
     0
 91
        4
176
     0
 64
     7
176
     0
 65
   257
176
     0
 75
     1
176
     0
175
     1
176
     0
 42
1.0
176
     0
 92
        8
176
     2
 66
     7
176
     0
 43
1.0
176
     0
 76
     1
176
     0
 77
     6
176
     0
 78
     2
176
     0
 67
     7
176
     0
 79
     5
176
     0
170
     0
176
     0
171
     0
176
     0
290
     0
176
     0
 93
        1
176
     0
 44
0.0
176
     0
173
     0
176
     0
1001
ACAD
1000
AcDbSavedByObjectVersion
1070
     0
  0
VISUALSTYLE
  5
38
102
{ACAD_XDICTIONARY
360
19F
102
}
102
{ACAD_REACTORS
330
29
102
}
330
29
100
AcDbVisualStyle
  2
Facepattern
 70
    15
177
     2
291
     1
 71
     2
176
     1
 72
     2
176
     1
 73
     0
176
     1
 90
        0
176
     1
 40
0.6
176
     1
 41
30.0
176
     1
 63
     7
421
 16777215
176
     1
 74
     1
176
     1
 91
        4
176
     1
 64
     7
176
     1
 65
   257
176
     1
 75
     1
176
     1
175
     1
176
     1
 42
1.0
176
     1
 92
        8
176
     1
 66
     7
176
     1
 43
1.0
176
     1
 76
     1
176
     1
 77
     6
176
     1
 78
     2
176
     1
 67
     7
176
     1
 79
     5
176
     1
170
     0
176
     1
171
     0
176
     1
290
     0
176
     1
 93
        1
176
     1
 44
0.0
176
     1
173
     0
176
     1
1001
ACAD
1000
AcDbSavedByObjectVersion
1070
     0
  0
VISUALSTYLE
  5
2A
102
{ACAD_XDICTIONARY
360
183
102
}
102
{ACAD_REACTORS
330
29
102
}
330
29
100
AcDbVisualStyle
  2
Flat
 70
     0
177
     2
291
     1
 71
     2
176
     1
 72
     1
176
     1
 73
     1
176
     1
 90
        2
176
     1
 40
0.6
176
     1
 41
30.0
176
     1
 63
     7
421
 16777215
176
     1
 74
     0
176
     1
 91
        0
176
     1
 64
     7
176
     1
 65
   257
176
     1
 75
     1
176
     1
175
     1
176
     1
 42
1.0
176
     1
 92
        8
176
     1
 66
     7
176
     1
 43
1.0
176
     1
 76
     1
176
     1
 77
     6
176
     1
 78
     2
176
     1
 67
     7
176
     1
 79
     5
176
     1
170
     0
176
     1
171
     0
176
     1
290
     0
176
     1
 93
       13
176
     1
 44
0.0
176
     1
173
     0
176
     1
1001
ACAD
1000
AcDbSavedByObjectVersion
1070
     0
  0
VISUALSTYLE
  5
2B
102
{ACAD_XDICTIONARY
360
185
102
}
102
{ACAD_REACTORS
330
29
102
}
330
29
100
AcDbVisualStyle
  2
FlatWithEdges
 70
     1
177
     2
291
     1
 71
     2
176
     1
 72
     1
176
     1
 73
     1
176
     1
 90
        2
176
     1
 40
0.6
176
     1
 41
30.0
176
     1
 63
     7
421
 16777215
176
     1
 74
     1
176
     1
 91
        0
176
     1
 64
     7
176
     1
 65
   257
176
     1
 75
     1
176
     1
175
     1
176
     1
 42
1.0
176
     1
 92
        0
176
     1
 66
   257
176
     1
 43
1.0
176
     1
 76
     1
176
     1
 77
     6
176
     1
 78
     2
176
     1
 67
     7
176
     1
 79
     5
176
     1
170
     0
176
     1
171
     0
176
     1
290
     0
176
     1
 93
       13
176
     1
 44
0.0
176
     1
173
     0
176
     1
1001
ACAD
1000
AcDbSavedByObjectVersion
1070
     0
  0
VISUALSTYLE
  5
2C
102
{ACAD_XDICTIONARY
360
187
102
}
102
{ACAD_REACTORS
330
29
102
}
330
29
100
AcDbVisualStyle
  2
Gouraud
 70
     2
177
     2
291
     1
 71
     2
176
     1
 72
     2
176
     1
 73
     1
176
     1
 90
        2
176
     1
 40
0.6
176
     1
 41
30.0
176
     1
 63
     7
421
 16777215
176
     1
 74
     0
176
     1
 91
        0
176
     1
 64
     7
176
     1
 65
   257
176
     1
 75
     1
176
     1
175
     1
176
     1
 42
1.0
176
     1
 92
        0
176
     1
 66
     7
176
     1
 43
1.0
176
     1
 76
     1
176
     1
 77
     6
176
     1
 78
     2
176
     1
 67
     7
176
     1
 79
     5
176
     1
170
     0
176
     1
171
     0
176
     1
290
     0
176
     1
 93
       13
176
     1
 44
0.0
176
     1
173
     0
176
     1
1001
ACAD
1000
AcDbSavedByObjectVersion
1070
     0
  0
VISUALSTYLE
  5
2D
102
{ACAD_XDICTIONARY
360
189
102
}
102
{ACAD_REACTORS
330
29
102
}
330
29
100
AcDbVisualStyle
  2
GouraudWithEdges
 70
     3
177
     2
291
     1
 71
     2
176
     1
 72
     2
176
     1
 73
     1
176
     1
 90
        2
176
     1
 40
0.6
176
     1
 41
30.0
176
     1
 63
     7
421
 16777215
176
     1
 74
     1
176
     1
 91
        0
176
     1
 64
     7
176
     1
 65
   257
176
     1
 75
     1
176
     1
175
     1
176
     1
 42
1.0
176
     1
 92
        0
176
     1
 66
   257
176
     1
 43
1.0
176
     1
 76
     1
176
     1
 77
     6
176
     1
 78
     2
176
     1
 67
     7
176
     1
 79
     5
176
     1
170
     0
176
     1
171
     0
176
     1
290
     0
176
     1
 93
       13
176
     1
 44
0.0
176
     1
173
     0
176
     1
1001
ACAD
1000
AcDbSavedByObjectVersion
1070
     0
  0
VISUALSTYLE
  5
31
102
{ACAD_XDICTIONARY
360
191
102
}
102
{ACAD_REACTORS
330
29
102
}
330
29
100
AcDbVisualStyle
  2
Hidden
 70
     6
177
     2
291
     0
 71
     1
176
     1
 72
     2
176
     1
 73
     2
176
     1
 90
        0
176
     1
 40
0.6
176
     1
 41
30.0
176
     1
 63
     7
421
 16777215
176
     1
 74
     2
176
     1
 91
        2
176
     1
 64
     7
176
     1
 65
   257
176
     1
 75
     2
176
     1
175
     1
176
     1
 42
40.0
176
     1
 92
        0
176
     1
 66
   257
176
     1
 43
1.0
176
     1
 76
     1
176
     1
 77
     6
176
     1
 78
     2
176
     1
 67
     7
176
     1
 79
     3
176
     1
170
     0
176
     1
171
     0
176
     1
290
     0
176
     1
 93
        1
176
     1
 44
0.0
176
     1
173
     0
176
     1
1001
ACAD
1000
AcDbSavedByObjectVersion
1070
     0
  0
VISUALSTYLE
  5
3F
102
{ACAD_XDICTIONARY
360
1AD
102
}
102
{ACAD_REACTORS
330
29
102
}
330
29
100
AcDbVisualStyle
  2
JitterOff
 70
    20
177
     2
291
     1
 71
     2
176
     0
 72
     2
176
     0
 73
     0
176
     0
 90
        0
176
     0
 40
0.6
176
     0
 41
30.0
176
     0
 63
     7
421
 16777215
176
     0
 74
     1
176
     0
 91
        4
176
     0
 64
     7
176
     0
 65
   257
176
     0
 75
     1
176
     0
175
     1
176
     0
 42
1.0
176
     0
 92
       10
176
     2
 66
     7
176
     0
 43
1.0
176
     0
 76
     1
176
     0
 77
     6
176
     0
 78
     2
176
     0
 67
     7
176
     0
 79
     5
176
     0
170
     0
176
     0
171
     0
176
     0
290
     0
176
     0
 93
        1
176
     0
 44
0.0
176
     0
173
     0
176
     0
1001
ACAD
1000
AcDbSavedByObjectVersion
1070
     0
  0
VISUALSTYLE
  5
37
102
{ACAD_XDICTIONARY
360
19D
102
}
102
{ACAD_REACTORS
330
29
102
}
330
29
100
AcDbVisualStyle
  2
Linepattern
 70
    14
177
     2
291
     1
 71
     2
176
     1
 72
     2
176
     1
 73
     0
176
     1
 90
        0
176
     1
 40
0.6
176
     1
 41
30.0
176
     1
 63
     7
421
 16777215
176
     1
 74
     1
176
     1
 91
        4
176
     1
 64
     7
176
     1
 65
   257
176
     1
 75
     7
176
     1
175
     7
176
     1
 42
1.0
176
     1
 92
        8
176
     1
 66
     7
176
     1
 43
1.0
176
     1
 76
     1
176
     1
 77
     6
176
     1
 78
     2
176
     1
 67
     7
176
     1
 79
     5
176
     1
170
     0
176
     1
171
     0
176
     1
290
     0
176
     1
 93
        1
176
     1
 44
0.0
176
     1
173
     0
176
     1
1001
ACAD
1000
AcDbSavedByObjectVersion
1070
     0
  0
VISUALSTYLE
  5
40
102
{ACAD_XDICTIONARY
360
1AF
102
}
102
{ACAD_REACTORS
330
29
102
}
330
29
100
AcDbVisualStyle
  2
OverhangOff
 70
    21
177
     2
291
     1
 71
     2
176
     0
 72
     2
176
     0
 73
     0
176
     0
 90
        0
176
     0
 40
0.6
176
     0
 41
30.0
176
     0
 63
     7
421
 16777215
176
     0
 74
     1
176
     0
 91
        4
176
     0
 64
     7
176
     0
 65
   257
176
     0
 75
     1
176
     0
175
     1
176
     0
 42
1.0
176
     0
 92
        9
176
     2
 66
     7
176
     0
 43
1.0
176
     0
 76
     1
176
     0
 77
     6
176
     0
 78
     2
176
     0
 67
     7
176
     0
 79
     5
176
     0
170
     0
176
     0
171
     0
176
     0
290
     0
176
     0
 93
        1
176
     0
 44
0.0
176
     0
173
     0
176
     0
1001
ACAD
1000
AcDbSavedByObjectVersion
1070
     0
  0
VISUALSTYLE
  5
33
102
{ACAD_XDICTIONARY
360
195
102
}
102
{ACAD_REACTORS
330
29
102
}
330
29
100
AcDbVisualStyle
  2
Realistic
 70
     8
177
     2
291
     0
 71
     2
176
     1
 72
     3
176
     1
 73
     0
176
     1
 90
        2
176
     1
 40
0.6
176
     1
 41
30.0
176
     1
 63
     7
421
 16777215
176
     1
 74
     0
176
     1
 91
        0
176
     1
 64
     7
176
     1
 65
   257
176
     1
 75
     1
176
     1
175
     1
176
     1
 42
1.0
176
     1
 92
        8
176
     1
 66
   257
176
     1
 43
1.0
176
     1
 76
     1
176
     1
 77
     6
176
     1
 78
     2
176
     1
 67
     7
176
     1
 79
     3
176
     1
170
     0
176
     1
171
     0
176
     1
290
     0
176
     1
 93
       13
176
     1
 44
0.0
176
     1
173
     0
176
     1
1001
ACAD
1000
AcDbSavedByObjectVersion
1070
     0
  0
VISUALSTYLE
  5
3E
102
{ACAD_XDICTIONARY
360
1AB
102
}
102
{ACAD_REACTORS
330
29
102
}
330
29
100
AcDbVisualStyle
  2
Shaded
 70
    27
177
     2
291
     0
 71
     2
176
     1
 72
     2
176
     1
 73
     1
176
     1
 90
        2
176
     1
 40
0.6
176
     1
 41
30.0
176
     1
 63
     7
421
 16777215
176
     1
 74
     0
176
     1
 91
        4
176
     1
 64
     7
176
     1
 65
   257
176
     1
 75
     1
176
     1
175
     1
176
     1
 42
1.0
176
     1
 92
        8
176
     1
 66
   257
176
     1
 43
1.0
176
     1
 76
     1
176
     1
 77
     6
176
     1
 78
     2
176
     1
 67
     8
425
  7895160
176
     1
 79
     3
176
     1
170
     0
176
     1
171
     0
176
     1
290
     0
176
     1
 93
        5
176
     1
 44
0.0
176
     1
173
     0
176
     1
1001
ACAD
1000
AcDbSavedByObjectVersion
1070
     0
  0
VISUALSTYLE
  5
3D
102
{ACAD_XDICTIONARY
360
1A9
102
}
102
{ACAD_REACTORS
330
29
102
}
330
29
100
AcDbVisualStyle
  2
Shaded with edges
 70
    26
177
     2
291
     0
 71
     2
176
     1
 72
     2
176
     1
 73
     1
176
     1
 90
        2
176
     1
 40
0.6
176
     1
 41
30.0
176
     1
 63
     7
421
 16777215
176
     1
 74
     1
176
     1
 91
        2
176
     1
 64
     7
176
     1
 65
   257
176
     1
 75
     2
176
     1
175
     1
176
     1
 42
1.0
176
     1
 92
        8
176
     1
 66
   257
176
     1
 43
1.0
176
     1
 76
     1
176
     1
 77
     6
176
     1
 78
     2
176
     1
 67
     7
176
     1
 79
     3
176
     1
170
     0
176
     1
171
     0
176
     1
290
     0
176
     1
 93
        5
176
     1
 44
0.0
176
     1
173
     0
176
     1
1001
ACAD
1000
AcDbSavedByObjectVersion
1070
     0
  0
VISUALSTYLE
  5
3A
102
{ACAD_XDICTIONARY
360
1A3
102
}
102
{ACAD_REACTORS
330
29
102
}
330
29
100
AcDbVisualStyle
  2
Shades of Gray
 70
    23
177
     2
291
     0
 71
     2
176
     1
 72
     2
176
     1
 73
     3
176
     1
 90
        0
176
     1
 40
0.6
176
     1
 41
30.0
176
     1
 63
     7
421
 16777215
176
     1
 74
     2
176
     1
 91
        2
176
     1
 64
     7
176
     1
 65
     7
176
     1
 75
     1
176
     1
175
     1
176
     1
 42
40.0
176
     1
 92
        8
176
     1
 66
     7
176
     1
 43
1.0
176
     1
 76
     1
176
     1
 77
     6
176
     1
 78
     2
176
     1
 67
     7
176
     1
 79
     3
176
     1
170
     0
176
     1
171
     0
176
     1
290
     0
176
     1
 93
        1
176
     1
 44
0.0
176
     1
173
     0
176
     1
1001
ACAD
1000
AcDbSavedByObjectVersion
1070
     0
  0
VISUALSTYLE
  5
3B
102
{ACAD_XDICTIONARY
360
1A5
102
}
102
{ACAD_REACTORS
330
29
102
}
330
29
100
AcDbVisualStyle
  2
Sketchy
 70
    24
177
     2
291
     0
 71
     1
176
     1
 72
     2
176
     1
 73
     2
176
     1
 90
        0
176
     1
 40
0.6
176
     1
 41
30.0
176
     1
 63
     7
421
 16777215
176
     1
 74
     2
176
     1
 91
        2
176
     1
 64
     7
176
     1
 65
     7
176
     1
 75
     1
176
     1
175
     1
176
     1
 42
40.0
176
     1
 92
       11
176
     1
 66
     7
176
     1
 43
1.0
176
     1
 76
     1
176
     1
 77
     6
176
     1
 78
     2
176
     1
 67
     7
176
     1
 79
     6
176
     1
170
     0
176
     1
171
     0
176
     1
290
     0
176
     1
 93
        1
176
     1
 44
0.0
176
     1
173
     0
176
     1
1001
ACAD
1000
AcDbSavedByObjectVersion
1070
     0
  0
VISUALSTYLE
  5
36
102
{ACAD_XDICTIONARY
360
19B
102
}
102
{ACAD_REACTORS
330
29
102
}
330
29
100
AcDbVisualStyle
  2
Thicken
 70
    13
177
     2
291
     1
 71
     2
176
     1
 72
     2
176
     1
 73
     0
176
     1
 90
        0
176
     1
 40
0.6
176
     1
 41
30.0
176
     1
 63
     7
421
 16777215
176
     1
 74
     1
176
     1
 91
        4
176
     1
 64
     7
176
     1
 65
   257
176
     1
 75
     1
176
     1
175
     1
176
     1
 42
1.0
176
     1
 92
       12
176
     1
 66
     7
176
     1
 43
1.0
176
     1
 76
     1
176
     1
 77
     6
176
     1
 78
     2
176
     1
 67
     7
176
     1
 79
     5
176
     1
170
     0
176
     1
171
     0
176
     1
290
     0
176
     1
 93
        1
176
     1
 44
0.0
176
     1
173
     0
176
     1
1001
ACAD
1000
AcDbSavedByObjectVersion
1070
     0
  0
VISUALSTYLE
  5
30
102
{ACAD_XDICTIONARY
360
18F
102
}
102
{ACAD_REACTORS
330
29
102
}
330
29
100
AcDbVisualStyle
  2
Wireframe
 70
     5
177
     2
291
     0
 71
     0
176
     1
 72
     2
176
     1
 73
     0
176
     1
 90
        0
176
     1
 40
0.6
176
     1
 41
30.0
176
     1
 63
     7
421
 16777215
176
     1
 74
     1
176
     1
 91
        4
176
     1
 64
     7
176
     1
 65
   257
176
     1
 75
     1
176
     1
175
     1
176
     1
 42
1.0
176
     1
 92
        0
176
     1
 66
   257
176
     1
 43
1.0
176
     1
 76
     1
176
     1
 77
     6
176
     1
 78
     2
176
     1
 67
     7
176
     1
 79
     3
176
     1
170
     0
176
     1
171
     0
176
     1
290
     0
176
     1
 93
        1
176
     1
 44
0.0
176
     1
173
     0
176
     1
1001
ACAD
1000
AcDbSavedByObjectVersion
1070
     0
  0
VISUALSTYLE
  5
3C
102
{ACAD_XDICTIONARY
360
1A7
102
}
102
{ACAD_REACTORS
330
29
102
}
330
29
100
AcDbVisualStyle
  2
X-Ray
 70
    25
177
     2
291
     0
 71
     2
176
     1
 72
     2
176
     1
 73
     1
176
     1
 90
        1
176
     1
 40
0.5
176
     1
 41
30.0
176
     1
 63
     7
421
 16777215
176
     1
 74
     1
176
     1
 91
        0
176
     1
 64
     7
176
     1
 65
   257
176
     1
 75
     1
176
     1
175
     1
176
     1
 42
1.0
176
     1
 92
        8
176
     1
 66
     7
176
     1
 43
1.0
176
     1
 76
     1
176
     1
 77
     6
176
     1
 78
     2
176
     1
 67
     7
176
     1
 79
     3
176
     1
170
     0
176
     1
171
     0
176
     1
290
     0
176
     1
 93
       13
176
     1
 44
0.0
176
     1
173
     0
176
     1
1001
ACAD
1000
AcDbSavedByObjectVersion
1070
     0
  0
DICTIONARYVAR
  5
17F
102
{ACAD_REACTORS
330
17A
102
}
330
17A
100
DictionaryVariables
280
     0
  1
1:1
  0
DICTIONARYVAR
  5
17C
102
{ACAD_REACTORS
330
17A
102
}
330
17A
100
DictionaryVariables
280
     0
  1
STANDARD
  0
DICTIONARYVAR
  5
17B
102
{ACAD_REACTORS
330
17A
102
}
330
17A
100
DictionaryVariables
280
     0
  1
STANDARD
  0
DICTIONARYVAR
  5
17D
102
{ACAD_REACTORS
330
17A
102
}
330
17A
100
DictionaryVariables
280
     0
  1
Imperial24
  0
DICTIONARYVAR
  5
17E
102
{ACAD_REACTORS
330
17A
102
}
330
17A
100
DictionaryVariables
280
     0
  1
Imperial24
  0
DICTIONARY
  5
1B7
330
6B
100
AcDbDictionary
280
     1
281
     1
  3
ACAD_XREC_ROUNDTRIP
360
1B8
  0
DICTIONARY
  5
1A
330
19
100
AcDbDictionary
280
     1
281
     1
  3
BUMPTILE
360
1C
  3
DIFFUSETILE
360
1B
  3
OPACITYTILE
360
1F
  3
REFLECTIONTILE
360
1E
  3
REFRACTIONTILE
360
20
  3
SPECULARTILE
360
1D
  0
DICTIONARY
  5
12
330
11
100
AcDbDictionary
280
     1
281
     1
  3
BUMPTILE
360
14
  3
DIFFUSETILE
360
13
  3
OPACITYTILE
360
17
  3
REFLECTIONTILE
360
16
  3
REFRACTIONTILE
360
18
  3
SPECULARTILE
360
15
  0
DICTIONARY
  5
22
330
21
100
AcDbDictionary
280
     1
281
     1
  3
BUMPTILE
360
24
  3
DIFFUSETILE
360
23
  3
OPACITYTILE
360
27
  3
REFLECTIONTILE
360
26
  3
REFRACTIONTILE
360
28
  3
SPECULARTILE
360
25
  0
DICTIONARY
  5
1B3
330
67
100
AcDbDictionary
280
     1
281
     1
  3
ACAD_XREC_ROUNDTRIP
360
1B4
  0
DICTIONARY
  5
1B5
330
69
100
AcDbDictionary
280
     1
281
     1
  3
ACAD_XREC_ROUNDTRIP
360
1B6
  0
DICTIONARY
  5
180
330
65
100
AcDbDictionary
280
     1
281
     1
  3
ACAD_ROUNDTRIP_2008_TABLESTYLE_CELLSTYLEMAP
360
181
  0
DICTIONARY
  5
18D
330
2F
100
AcDbDictionary
280
     1
281
     1
  3
ACAD_XREC_ROUNDTRIP
360
18E
  0
DICTIONARY
  5
18B
330
2E
100
AcDbDictionary
280
     1
281
     1
  3
ACAD_XREC_ROUNDTRIP
360
18C
  0
DICTIONARY
  5
199
330
35
100
AcDbDictionary
280
     1
281
     1
  3
ACAD_XREC_ROUNDTRIP
360
19A
  0
DICTIONARY
  5
1A1
330
39
100
AcDbDictionary
280
     1
281
     1
  3
ACAD_XREC_ROUNDTRIP
360
1A2
  0
DICTIONARY
  5
193
330
32
100
AcDbDictionary
280
     1
281
     1
  3
ACAD_XREC_ROUNDTRIP
360
194
  0
DICTIONARY
  5
197
330
34
100
AcDbDictionary
280
     1
281
     1
  3
ACAD_XREC_ROUNDTRIP
360
198
  0
DICTIONARY
  5
1B1
330
41
100
AcDbDictionary
280
     1
281
     1
  3
ACAD_XREC_ROUNDTRIP
360
1B2
  0
DICTIONARY
  5
19F
330
38
100
AcDbDictionary
280
     1
281
     1
  3
ACAD_XREC_ROUNDTRIP
360
1A0
  0
DICTIONARY
  5
183
330
2A
100
AcDbDictionary
280
     1
281
     1
  3
ACAD_XREC_ROUNDTRIP
360
184
  0
DICTIONARY
  5
185
330
2B
100
AcDbDictionary
280
     1
281
     1
  3
ACAD_XREC_ROUNDTRIP
360
186
  0
DICTIONARY
  5
187
330
2C
100
AcDbDictionary
280
     1
281
     1
  3
ACAD_XREC_ROUNDTRIP
360
188
  0
DICTIONARY
  5
189
330
2D
100
AcDbDictionary
280
     1
281
     1
  3
ACAD_XREC_ROUNDTRIP
360
18A
  0
DICTIONARY
  5
191
330
31
100
AcDbDictionary
280
     1
281
     1
  3
ACAD_XREC_ROUNDTRIP
360
192
  0
DICTIONARY
  5
1AD
330
3F
100
AcDbDictionary
280
     1
281
     1
  3
ACAD_XREC_ROUNDTRIP
360
1AE
  0
DICTIONARY
  5
19D
330
37
100
AcDbDictionary
280
     1
281
     1
  3
ACAD_XREC_ROUNDTRIP
360
19E
  0
DICTIONARY
  5
1AF
330
40
100
AcDbDictionary
280
     1
281
     1
  3
ACAD_XREC_ROUNDTRIP
360
1B0
  0
DICTIONARY
  5
195
330
33
100
AcDbDictionary
280
     1
281
     1
  3
ACAD_XREC_ROUNDTRIP
360
196
  0
DICTIONARY
  5
1AB
330
3E
100
AcDbDictionary
280
     1
281
     1
  3
ACAD_XREC_ROUNDTRIP
360
1AC
  0
DICTIONARY
  5
1A9
330
3D
100
AcDbDictionary
280
     1
281
     1
  3
ACAD_XREC_ROUNDTRIP
360
1AA
  0
DICTIONARY
  5
1A3
330
3A
100
AcDbDictionary
280
     1
281
     1
  3
ACAD_XREC_ROUNDTRIP
360
1A4
  0
DICTIONARY
  5
1A5
330
3B
100
AcDbDictionary
280
     1
281
     1
  3
ACAD_XREC_ROUNDTRIP
360
1A6
  0
DICTIONARY
  5
19B
330
36
100
AcDbDictionary
280
     1
281
     1
  3
ACAD_XREC_ROUNDTRIP
360
19C
  0
DICTIONARY
  5
18F
330
30
100
AcDbDictionary
280
     1
281
     1
  3
ACAD_XREC_ROUNDTRIP
360
190
  0
DICTIONARY
  5
1A7
330
3C
100
AcDbDictionary
280
     1
281
     1
  3
ACAD_XREC_ROUNDTRIP
360
1A8
  0
XRECORD
  5
1B8
102
{ACAD_REACTORS
330
1B7
102
}
330
1B7
100
AcDbXrecord
280
     1
102
DISPLAYNAME
  1
Imperial24
102
FLAGS
 90
        0
  0
XRECORD
  5
1C
102
{ACAD_REACTORS
330
1A
102
}
330
1A
100
AcDbXrecord
280
     1
270
     1
271
     1
  0
XRECORD
  5
1B
102
{ACAD_REACTORS
330
1A
102
}
330
1A
100
AcDbXrecord
280
     1
270
     1
271
     1
  0
XRECORD
  5
1F
102
{ACAD_REACTORS
330
1A
102
}
330
1A
100
AcDbXrecord
280
     1
270
     1
271
     1
  0
XRECORD
  5
1E
102
{ACAD_REACTORS
330
1A
102
}
330
1A
100
AcDbXrecord
280
     1
270
     1
271
     1
  0
XRECORD
  5
20
102
{ACAD_REACTORS
330
1A
102
}
330
1A
100
AcDbXrecord
280
     1
270
     1
271
     1
  0
XRECORD
  5
1D
102
{ACAD_REACTORS
330
1A
102
}
330
1A
100
AcDbXrecord
280
     1
270
     1
271
     1
  0
XRECORD
  5
14
102
{ACAD_REACTORS
330
12
102
}
330
12
100
AcDbXrecord
280
     1
270
     1
271
     1
  0
XRECORD
  5
13
102
{ACAD_REACTORS
330
12
102
}
330
12
100
AcDbXrecord
280
     1
270
     1
271
     1
  0
XRECORD
  5
17
102
{ACAD_REACTORS
330
12
102
}
330
12
100
AcDbXrecord
280
     1
270
     1
271
     1
  0
XRECORD
  5
16
102
{ACAD_REACTORS
330
12
102
}
330
12
100
AcDbXrecord
280
     1
270
     1
271
     1
  0
XRECORD
  5
18
102
{ACAD_REACTORS
330
12
102
}
330
12
100
AcDbXrecord
280
     1
270
     1
271
     1
  0
XRECORD
  5
15
102
{ACAD_REACTORS
330
12
102
}
330
12
100
AcDbXrecord
280
     1
270
     1
271
     1
  0
XRECORD
  5
24
102
{ACAD_REACTORS
330
22
102
}
330
22
100
AcDbXrecord
280
     1
270
     1
271
     1
  0
XRECORD
  5
23
102
{ACAD_REACTORS
330
22
102
}
330
22
100
AcDbXrecord
280
     1
270
     1
271
     1
  0
XRECORD
  5
27
102
{ACAD_REACTORS
330
22
102
}
330
22
100
AcDbXrecord
280
     1
270
     1
271
     1
  0
XRECORD
  5
26
102
{ACAD_REACTORS
330
22
102
}
330
22
100
AcDbXrecord
280
     1
270
     1
271
     1
  0
XRECORD
  5
28
102
{ACAD_REACTORS
330
22
102
}
330
22
100
AcDbXrecord
280
     1
270
     1
271
     1
  0
XRECORD
  5
25
102
{ACAD_REACTORS
330
22
102
}
330
22
100
AcDbXrecord
280
     1
270
     1
271
     1
  0
XRECORD
  5
1B4
102
{ACAD_REACTORS
330
1B3
102
}
330
1B3
100
AcDbXrecord
280
     1
102
ACAD_ROUNDTRIP_2012_MLEADER_STYLE
298
     1
  0
XRECORD
  5
1B6
102
{ACAD_REACTORS
330
1B5
102
}
330
1B5
100
AcDbXrecord
280
     1
102
DISPLAYNAME
  1
Imperial24
102
FLAGS
 90
        0
  0
CELLSTYLEMAP
  5
181
102
{ACAD_REACTORS
330
180
102
}
330
180
100
AcDbCellStyleMap
 90
        3
300
CELLSTYLE
  1
TABLEFORMAT_BEGIN
 90
        5
170
     1
 91
        0
 92
    32768
 62
   257
 93
        1
300
CONTENTFORMAT
  1
CONTENTFORMAT_BEGIN
 90
        0
 91
        0
 92
      512
 93
        0
300

 40
0.0
140
1.0
 94
        5
 62
     0
340
55
144
0.25
309
CONTENTFORMAT_END
171
     0
 94
        0
309
TABLEFORMAT_END
  1
CELLSTYLE_BEGIN
 90
        1
 91
        1
300
_TITLE
309
CELLSTYLE_END
300
CELLSTYLE
  1
TABLEFORMAT_BEGIN
 90
        5
170
     1
 91
        0
 92
        0
 62
   257
 93
        1
300
CONTENTFORMAT
  1
CONTENTFORMAT_BEGIN
 90
        0
 91
        0
 92
      512
 93
        0
300

 40
0.0
140
1.0
 94
        5
 62
     0
340
55
144
0.18
309
CONTENTFORMAT_END
171
     0
 94
        0
309
TABLEFORMAT_END
  1
CELLSTYLE_BEGIN
 90
        2
 91
        1
300
_HEADER
309
CELLSTYLE_END
300
CELLSTYLE
  1
TABLEFORMAT_BEGIN
 90
        5
170
     1
 91
        0
 92
        0
 62
   257
 93
        1
300
CONTENTFORMAT
  1
CONTENTFORMAT_BEGIN
 90
        0
 91
        0
 92
      512
 93
        0
300

 40
0.0
140
1.0
 94
        2
 62
     0
340
55
144
0.18
309
CONTENTFORMAT_END
171
     0
 94
        0
309
TABLEFORMAT_END
  1
CELLSTYLE_BEGIN
 90
        3
 91
        2
300
_DATA
309
CELLSTYLE_END
  0
XRECORD
  5
18E
102
{ACAD_REACTORS
330
18D
102
}
330
18D
100
AcDbXrecord
280
     1
102
RTVSPost2010Prop28
280
     1
102
RTVSPost2010PropOp28
 70
     1
102
RTVSPost2010Prop29
280
     1
102
RTVSPost2010PropOp29
 70
     1
102
RTVSPost2010Prop30
280
     0
102
RTVSPost2010PropOp30
 70
     1
102
RTVSPost2010Prop31
280
     0
102
RTVSPost2010PropOp31
 70
     1
102
RTVSPost2010Prop32
280
     0
102
RTVSPost2010PropOp32
 70
     1
102
RTVSPost2010Prop33
280
     0
102
RTVSPost2010PropOp33
 70
     1
102
RTVSPost2010Prop34
280
     0
102
RTVSPost2010PropOp34
 70
     1
102
RTVSPost2010Prop35
280
     0
102
RTVSPost2010PropOp35
 70
     1
102
RTVSPost2010Prop36
280
     0
102
RTVSPost2010PropOp36
 70
     1
102
RTVSPost2010Prop37
 90
       50
102
RTVSPost2010PropOp37
 70
     1
102
RTVSPost2010Prop38
140
0.0
102
RTVSPost2010PropOp38
 70
     1
102
RTVSPost2010Prop39
140
1.0
102
RTVSPost2010PropOp39
 70
     1
102
RTVSPost2010Prop40
 90
        0
102
RTVSPost2010PropOp40
 70
     1
102
RTVSPost2010Prop41ColorIndex
 90
       18
102
RTVSPost2010Prop41ColorRGB
 90
        0
102
RTVSPost2010PropOp41
 70
     1
102
RTVSPost2010Prop42
 90
       50
102
RTVSPost2010PropOp42
 70
     1
102
RTVSPost2010Prop43
 90
        3
102
RTVSPost2010PropOp43
 70
     1
102
RTVSPost2010Prop44ColorIndex
 90
        5
102
RTVSPost2010Prop44ColorRGB
 90
      255
102
RTVSPost2010PropOp44
 70
     1
102
RTVSPost2010Prop45
280
     0
102
RTVSPost2010PropOp45
 70
     1
102
RTVSPost2010Prop46
 90
       50
102
RTVSPost2010PropOp46
 70
     1
102
RTVSPost2010Prop47
 90
       50
102
RTVSPost2010PropOp47
 70
     1
102
RTVSPost2010Prop48
 90
       50
102
RTVSPost2010PropOp48
 70
     1
102
RTVSPost2010Prop49
280
     0
102
RTVSPost2010PropOp49
 70
     1
102
RTVSPost2010Prop50
 90
       50
102
RTVSPost2010PropOp50
 70
     1
102
RTVSPost2010Prop51ColorIndex
 90
      256
102
RTVSPost2010Prop51ColorRGB
 90
-16777216
102
RTVSPost2010PropOp51
 70
     0
102
RTVSPost2010Prop52
140
1.0
102
RTVSPost2010PropOp52
 70
     0
102
RTVSPost2010Prop53
 90
        2
102
RTVSPost2010PropOp53
 70
     1
102
RTVSPost2010Prop54
  1
strokes_ogs.tif
102
RTVSPost2010PropOp54
 70
     1
102
RTVSPost2010Prop55
280
     0
102
RTVSPost2010PropOp55
 70
     1
102
RTVSPost2010Prop56
140
1.0
102
RTVSPost2010PropOp56
 70
     1
102
RTVSPost2010Prop57
140
1.0
102
RTVSPost2010PropOp57
 70
     1
  0
XRECORD
  5
18C
102
{ACAD_REACTORS
330
18B
102
}
330
18B
100
AcDbXrecord
280
     1
102
RTVSPost2010Prop28
280
     0
102
RTVSPost2010PropOp28
 70
     1
102
RTVSPost2010Prop29
280
     1
102
RTVSPost2010PropOp29
 70
     1
102
RTVSPost2010Prop30
280
     1
102
RTVSPost2010PropOp30
 70
     1
102
RTVSPost2010Prop31
280
     0
102
RTVSPost2010PropOp31
 70
     1
102
RTVSPost2010Prop32
280
     0
102
RTVSPost2010PropOp32
 70
     1
102
RTVSPost2010Prop33
280
     0
102
RTVSPost2010PropOp33
 70
     1
102
RTVSPost2010Prop34
280
     0
102
RTVSPost2010PropOp34
 70
     1
102
RTVSPost2010Prop35
280
     0
102
RTVSPost2010PropOp35
 70
     1
102
RTVSPost2010Prop36
280
     0
102
RTVSPost2010PropOp36
 70
     1
102
RTVSPost2010Prop37
 90
       50
102
RTVSPost2010PropOp37
 70
     1
102
RTVSPost2010Prop38
140
0.0
102
RTVSPost2010PropOp38
 70
     1
102
RTVSPost2010Prop39
140
1.0
102
RTVSPost2010PropOp39
 70
     1
102
RTVSPost2010Prop40
 90
        0
102
RTVSPost2010PropOp40
 70
     1
102
RTVSPost2010Prop41ColorIndex
 90
       18
102
RTVSPost2010Prop41ColorRGB
 90
        0
102
RTVSPost2010PropOp41
 70
     1
102
RTVSPost2010Prop42
 90
       50
102
RTVSPost2010PropOp42
 70
     1
102
RTVSPost2010Prop43
 90
        3
102
RTVSPost2010PropOp43
 70
     1
102
RTVSPost2010Prop44ColorIndex
 90
        5
102
RTVSPost2010Prop44ColorRGB
 90
      255
102
RTVSPost2010PropOp44
 70
     1
102
RTVSPost2010Prop45
280
     0
102
RTVSPost2010PropOp45
 70
     1
102
RTVSPost2010Prop46
 90
       50
102
RTVSPost2010PropOp46
 70
     1
102
RTVSPost2010Prop47
 90
       50
102
RTVSPost2010PropOp47
 70
     1
102
RTVSPost2010Prop48
 90
       50
102
RTVSPost2010PropOp48
 70
     1
102
RTVSPost2010Prop49
280
     0
102
RTVSPost2010PropOp49
 70
     1
102
RTVSPost2010Prop50
 90
       50
102
RTVSPost2010PropOp50
 70
     1
102
RTVSPost2010Prop51ColorIndex
 90
      256
102
RTVSPost2010Prop51ColorRGB
 90
-16777216
102
RTVSPost2010PropOp51
 70
     0
102
RTVSPost2010Prop52
140
1.0
102
RTVSPost2010PropOp52
 70
     0
102
RTVSPost2010Prop53
 90
        2
102
RTVSPost2010PropOp53
 70
     1
102
RTVSPost2010Prop54
  1
strokes_ogs.tif
102
RTVSPost2010PropOp54
 70
     1
102
RTVSPost2010Prop55
280
     0
102
RTVSPost2010PropOp55
 70
     1
102
RTVSPost2010Prop56
140
1.0
102
RTVSPost2010PropOp56
 70
     1
102
RTVSPost2010Prop57
140
1.0
102
RTVSPost2010PropOp57
 70
     1
  0
XRECORD
  5
19A
102
{ACAD_REACTORS
330
199
102
}
330
199
100
AcDbXrecord
280
     1
102
RTVSPost2010Prop28
280
     0
102
RTVSPost2010PropOp28
 70
     1
102
RTVSPost2010Prop29
280
     1
102
RTVSPost2010PropOp29
 70
     1
102
RTVSPost2010Prop30
280
     1
102
RTVSPost2010PropOp30
 70
     1
102
RTVSPost2010Prop31
280
     0
102
RTVSPost2010PropOp31
 70
     1
102
RTVSPost2010Prop32
280
     0
102
RTVSPost2010PropOp32
 70
     1
102
RTVSPost2010Prop33
280
     0
102
RTVSPost2010PropOp33
 70
     1
102
RTVSPost2010Prop34
280
     0
102
RTVSPost2010PropOp34
 70
     1
102
RTVSPost2010Prop35
280
     0
102
RTVSPost2010PropOp35
 70
     1
102
RTVSPost2010Prop36
280
     0
102
RTVSPost2010PropOp36
 70
     1
102
RTVSPost2010Prop37
 90
       50
102
RTVSPost2010PropOp37
 70
     1
102
RTVSPost2010Prop38
140
0.0
102
RTVSPost2010PropOp38
 70
     1
102
RTVSPost2010Prop39
140
1.0
102
RTVSPost2010PropOp39
 70
     1
102
RTVSPost2010Prop40
 90
        0
102
RTVSPost2010PropOp40
 70
     1
102
RTVSPost2010Prop41ColorIndex
 90
       18
102
RTVSPost2010Prop41ColorRGB
 90
        0
102
RTVSPost2010PropOp41
 70
     1
102
RTVSPost2010Prop42
 90
       50
102
RTVSPost2010PropOp42
 70
     1
102
RTVSPost2010Prop43
 90
        3
102
RTVSPost2010PropOp43
 70
     1
102
RTVSPost2010Prop44ColorIndex
 90
        5
102
RTVSPost2010Prop44ColorRGB
 90
      255
102
RTVSPost2010PropOp44
 70
     1
102
RTVSPost2010Prop45
280
     0
102
RTVSPost2010PropOp45
 70
     1
102
RTVSPost2010Prop46
 90
       50
102
RTVSPost2010PropOp46
 70
     1
102
RTVSPost2010Prop47
 90
       50
102
RTVSPost2010PropOp47
 70
     1
102
RTVSPost2010Prop48
 90
       50
102
RTVSPost2010PropOp48
 70
     1
102
RTVSPost2010Prop49
280
     0
102
RTVSPost2010PropOp49
 70
     1
102
RTVSPost2010Prop50
 90
       50
102
RTVSPost2010PropOp50
 70
     1
102
RTVSPost2010Prop51ColorIndex
 90
      256
102
RTVSPost2010Prop51ColorRGB
 90
-16777216
102
RTVSPost2010PropOp51
 70
     0
102
RTVSPost2010Prop52
140
1.0
102
RTVSPost2010PropOp52
 70
     0
102
RTVSPost2010Prop53
 90
        2
102
RTVSPost2010PropOp53
 70
     1
102
RTVSPost2010Prop54
  1
strokes_ogs.tif
102
RTVSPost2010PropOp54
 70
     1
102
RTVSPost2010Prop55
280
     0
102
RTVSPost2010PropOp55
 70
     1
102
RTVSPost2010Prop56
140
1.0
102
RTVSPost2010PropOp56
 70
     1
102
RTVSPost2010Prop57
140
1.0
102
RTVSPost2010PropOp57
 70
     1
  0
XRECORD
  5
1A2
102
{ACAD_REACTORS
330
1A1
102
}
330
1A1
100
AcDbXrecord
280
     1
102
RTVSPost2010Prop28
280
     0
102
RTVSPost2010PropOp28
 70
     1
102
RTVSPost2010Prop29
280
     1
102
RTVSPost2010PropOp29
 70
     1
102
RTVSPost2010Prop30
280
     1
102
RTVSPost2010PropOp30
 70
     1
102
RTVSPost2010Prop31
280
     0
102
RTVSPost2010PropOp31
 70
     1
102
RTVSPost2010Prop32
280
     0
102
RTVSPost2010PropOp32
 70
     1
102
RTVSPost2010Prop33
280
     0
102
RTVSPost2010PropOp33
 70
     1
102
RTVSPost2010Prop34
280
     0
102
RTVSPost2010PropOp34
 70
     1
102
RTVSPost2010Prop35
280
     0
102
RTVSPost2010PropOp35
 70
     1
102
RTVSPost2010Prop36
280
     0
102
RTVSPost2010PropOp36
 70
     1
102
RTVSPost2010Prop37
 90
       50
102
RTVSPost2010PropOp37
 70
     1
102
RTVSPost2010Prop38
140
0.0
102
RTVSPost2010PropOp38
 70
     1
102
RTVSPost2010Prop39
140
1.0
102
RTVSPost2010PropOp39
 70
     1
102
RTVSPost2010Prop40
 90
        0
102
RTVSPost2010PropOp40
 70
     1
102
RTVSPost2010Prop41ColorIndex
 90
       18
102
RTVSPost2010Prop41ColorRGB
 90
        0
102
RTVSPost2010PropOp41
 70
     1
102
RTVSPost2010Prop42
 90
       50
102
RTVSPost2010PropOp42
 70
     1
102
RTVSPost2010Prop43
 90
        3
102
RTVSPost2010PropOp43
 70
     1
102
RTVSPost2010Prop44ColorIndex
 90
        5
102
RTVSPost2010Prop44ColorRGB
 90
      255
102
RTVSPost2010PropOp44
 70
     1
102
RTVSPost2010Prop45
280
     0
102
RTVSPost2010PropOp45
 70
     1
102
RTVSPost2010Prop46
 90
       50
102
RTVSPost2010PropOp46
 70
     1
102
RTVSPost2010Prop47
 90
       50
102
RTVSPost2010PropOp47
 70
     1
102
RTVSPost2010Prop48
 90
       50
102
RTVSPost2010PropOp48
 70
     1
102
RTVSPost2010Prop49
280
     0
102
RTVSPost2010PropOp49
 70
     1
102
RTVSPost2010Prop50
 90
       50
102
RTVSPost2010PropOp50
 70
     1
102
RTVSPost2010Prop51ColorIndex
 90
      256
102
RTVSPost2010Prop51ColorRGB
 90
-16777216
102
RTVSPost2010PropOp51
 70
     0
102
RTVSPost2010Prop52
140
1.0
102
RTVSPost2010PropOp52
 70
     0
102
RTVSPost2010Prop53
 90
        2
102
RTVSPost2010PropOp53
 70
     1
102
RTVSPost2010Prop54
  1
strokes_ogs.tif
102
RTVSPost2010PropOp54
 70
     1
102
RTVSPost2010Prop55
280
     0
102
RTVSPost2010PropOp55
 70
     1
102
RTVSPost2010Prop56
140
1.0
102
RTVSPost2010PropOp56
 70
     1
102
RTVSPost2010Prop57
140
1.0
102
RTVSPost2010PropOp57
 70
     1
  0
XRECORD
  5
194
102
{ACAD_REACTORS
330
193
102
}
330
193
100
AcDbXrecord
280
     1
102
RTVSPost2010Prop28
280
     0
102
RTVSPost2010PropOp28
 70
     1
102
RTVSPost2010Prop29
280
     1
102
RTVSPost2010PropOp29
 70
     1
102
RTVSPost2010Prop30
280
     1
102
RTVSPost2010PropOp30
 70
     1
102
RTVSPost2010Prop31
280
     0
102
RTVSPost2010PropOp31
 70
     1
102
RTVSPost2010Prop32
280
     0
102
RTVSPost2010PropOp32
 70
     1
102
RTVSPost2010Prop33
280
     0
102
RTVSPost2010PropOp33
 70
     1
102
RTVSPost2010Prop34
280
     0
102
RTVSPost2010PropOp34
 70
     1
102
RTVSPost2010Prop35
280
     0
102
RTVSPost2010PropOp35
 70
     1
102
RTVSPost2010Prop36
280
     0
102
RTVSPost2010PropOp36
 70
     1
102
RTVSPost2010Prop37
 90
       50
102
RTVSPost2010PropOp37
 70
     1
102
RTVSPost2010Prop38
140
0.0
102
RTVSPost2010PropOp38
 70
     1
102
RTVSPost2010Prop39
140
1.0
102
RTVSPost2010PropOp39
 70
     1
102
RTVSPost2010Prop40
 90
        0
102
RTVSPost2010PropOp40
 70
     1
102
RTVSPost2010Prop41ColorIndex
 90
       18
102
RTVSPost2010Prop41ColorRGB
 90
        0
102
RTVSPost2010PropOp41
 70
     1
102
RTVSPost2010Prop42
 90
       50
102
RTVSPost2010PropOp42
 70
     1
102
RTVSPost2010Prop43
 90
        3
102
RTVSPost2010PropOp43
 70
     1
102
RTVSPost2010Prop44ColorIndex
 90
        5
102
RTVSPost2010Prop44ColorRGB
 90
      255
102
RTVSPost2010PropOp44
 70
     1
102
RTVSPost2010Prop45
280
     0
102
RTVSPost2010PropOp45
 70
     1
102
RTVSPost2010Prop46
 90
       50
102
RTVSPost2010PropOp46
 70
     1
102
RTVSPost2010Prop47
 90
       50
102
RTVSPost2010PropOp47
 70
     1
102
RTVSPost2010Prop48
 90
       50
102
RTVSPost2010PropOp48
 70
     1
102
RTVSPost2010Prop49
280
     0
102
RTVSPost2010PropOp49
 70
     1
102
RTVSPost2010Prop50
 90
       50
102
RTVSPost2010PropOp50
 70
     1
102
RTVSPost2010Prop51ColorIndex
 90
      256
102
RTVSPost2010Prop51ColorRGB
 90
-16777216
102
RTVSPost2010PropOp51
 70
     0
102
RTVSPost2010Prop52
140
1.0
102
RTVSPost2010PropOp52
 70
     0
102
RTVSPost2010Prop53
 90
        2
102
RTVSPost2010PropOp53
 70
     1
102
RTVSPost2010Prop54
  1
strokes_ogs.tif
102
RTVSPost2010PropOp54
 70
     1
102
RTVSPost2010Prop55
280
     0
102
RTVSPost2010PropOp55
 70
     1
102
RTVSPost2010Prop56
140
1.0
102
RTVSPost2010PropOp56
 70
     1
102
RTVSPost2010Prop57
140
1.0
102
RTVSPost2010PropOp57
 70
     1
  0
XRECORD
  5
198
102
{ACAD_REACTORS
330
197
102
}
330
197
100
AcDbXrecord
280
     1
102
RTVSPost2010Prop28
280
     0
102
RTVSPost2010PropOp28
 70
     1
102
RTVSPost2010Prop29
280
     1
102
RTVSPost2010PropOp29
 70
     1
102
RTVSPost2010Prop30
280
     1
102
RTVSPost2010PropOp30
 70
     1
102
RTVSPost2010Prop31
280
     0
102
RTVSPost2010PropOp31
 70
     1
102
RTVSPost2010Prop32
280
     0
102
RTVSPost2010PropOp32
 70
     1
102
RTVSPost2010Prop33
280
     0
102
RTVSPost2010PropOp33
 70
     1
102
RTVSPost2010Prop34
280
     0
102
RTVSPost2010PropOp34
 70
     1
102
RTVSPost2010Prop35
280
     0
102
RTVSPost2010PropOp35
 70
     1
102
RTVSPost2010Prop36
280
     0
102
RTVSPost2010PropOp36
 70
     1
102
RTVSPost2010Prop37
 90
       50
102
RTVSPost2010PropOp37
 70
     1
102
RTVSPost2010Prop38
140
0.0
102
RTVSPost2010PropOp38
 70
     1
102
RTVSPost2010Prop39
140
1.0
102
RTVSPost2010PropOp39
 70
     1
102
RTVSPost2010Prop40
 90
        0
102
RTVSPost2010PropOp40
 70
     1
102
RTVSPost2010Prop41ColorIndex
 90
       18
102
RTVSPost2010Prop41ColorRGB
 90
        0
102
RTVSPost2010PropOp41
 70
     1
102
RTVSPost2010Prop42
 90
       50
102
RTVSPost2010PropOp42
 70
     1
102
RTVSPost2010Prop43
 90
        3
102
RTVSPost2010PropOp43
 70
     1
102
RTVSPost2010Prop44ColorIndex
 90
        5
102
RTVSPost2010Prop44ColorRGB
 90
      255
102
RTVSPost2010PropOp44
 70
     1
102
RTVSPost2010Prop45
280
     0
102
RTVSPost2010PropOp45
 70
     1
102
RTVSPost2010Prop46
 90
       50
102
RTVSPost2010PropOp46
 70
     1
102
RTVSPost2010Prop47
 90
       50
102
RTVSPost2010PropOp47
 70
     1
102
RTVSPost2010Prop48
 90
       50
102
RTVSPost2010PropOp48
 70
     1
102
RTVSPost2010Prop49
280
     0
102
RTVSPost2010PropOp49
 70
     1
102
RTVSPost2010Prop50
 90
       50
102
RTVSPost2010PropOp50
 70
     1
102
RTVSPost2010Prop51ColorIndex
 90
      256
102
RTVSPost2010Prop51ColorRGB
 90
-16777216
102
RTVSPost2010PropOp51
 70
     0
102
RTVSPost2010Prop52
140
1.0
102
RTVSPost2010PropOp52
 70
     0
102
RTVSPost2010Prop53
 90
        2
102
RTVSPost2010PropOp53
 70
     1
102
RTVSPost2010Prop54
  1
strokes_ogs.tif
102
RTVSPost2010PropOp54
 70
     1
102
RTVSPost2010Prop55
280
     0
102
RTVSPost2010PropOp55
 70
     1
102
RTVSPost2010Prop56
140
1.0
102
RTVSPost2010PropOp56
 70
     1
102
RTVSPost2010Prop57
140
1.0
102
RTVSPost2010PropOp57
 70
     1
  0
XRECORD
  5
1B2
102
{ACAD_REACTORS
330
1B1
102
}
330
1B1
100
AcDbXrecord
280
     1
102
RTVSPost2010Prop28
280
     0
102
RTVSPost2010PropOp28
 70
     0
102
RTVSPost2010Prop29
280
     1
102
RTVSPost2010PropOp29
 70
     0
102
RTVSPost2010Prop30
280
     1
102
RTVSPost2010PropOp30
 70
     0
102
RTVSPost2010Prop31
280
     0
102
RTVSPost2010PropOp31
 70
     0
102
RTVSPost2010Prop32
280
     0
102
RTVSPost2010PropOp32
 70
     0
102
RTVSPost2010Prop33
280
     0
102
RTVSPost2010PropOp33
 70
     0
102
RTVSPost2010Prop34
280
     0
102
RTVSPost2010PropOp34
 70
     0
102
RTVSPost2010Prop35
280
     0
102
RTVSPost2010PropOp35
 70
     0
102
RTVSPost2010Prop36
280
     0
102
RTVSPost2010PropOp36
 70
     0
102
RTVSPost2010Prop37
 90
       50
102
RTVSPost2010PropOp37
 70
     0
102
RTVSPost2010Prop38
140
0.0
102
RTVSPost2010PropOp38
 70
     0
102
RTVSPost2010Prop39
140
1.0
102
RTVSPost2010PropOp39
 70
     0
102
RTVSPost2010Prop40
 90
        0
102
RTVSPost2010PropOp40
 70
     0
102
RTVSPost2010Prop41ColorIndex
 90
       18
102
RTVSPost2010Prop41ColorRGB
 90
        0
102
RTVSPost2010PropOp41
 70
     0
102
RTVSPost2010Prop42
 90
       50
102
RTVSPost2010PropOp42
 70
     0
102
RTVSPost2010Prop43
 90
        3
102
RTVSPost2010PropOp43
 70
     0
102
RTVSPost2010Prop44ColorIndex
 90
        5
102
RTVSPost2010Prop44ColorRGB
 90
      255
102
RTVSPost2010PropOp44
 70
     0
102
RTVSPost2010Prop45
280
     0
102
RTVSPost2010PropOp45
 70
     0
102
RTVSPost2010Prop46
 90
       50
102
RTVSPost2010PropOp46
 70
     0
102
RTVSPost2010Prop47
 90
       50
102
RTVSPost2010PropOp47
 70
     0
102
RTVSPost2010Prop48
 90
       50
102
RTVSPost2010PropOp48
 70
     0
102
RTVSPost2010Prop49
280
     0
102
RTVSPost2010PropOp49
 70
     0
102
RTVSPost2010Prop50
 90
       50
102
RTVSPost2010PropOp50
 70
     0
102
RTVSPost2010Prop51ColorIndex
 90
      256
102
RTVSPost2010Prop51ColorRGB
 90
-16777216
102
RTVSPost2010PropOp51
 70
     0
102
RTVSPost2010Prop52
140
1.0
102
RTVSPost2010PropOp52
 70
     0
102
RTVSPost2010Prop53
 90
        2
102
RTVSPost2010PropOp53
 70
     0
102
RTVSPost2010Prop54
  1
strokes_ogs.tif
102
RTVSPost2010PropOp54
 70
     0
102
RTVSPost2010Prop55
280
     0
102
RTVSPost2010PropOp55
 70
     0
102
RTVSPost2010Prop56
140
1.0
102
RTVSPost2010PropOp56
 70
     0
102
RTVSPost2010Prop57
140
1.0
102
RTVSPost2010PropOp57
 70
     0
  0
XRECORD
  5
1A0
102
{ACAD_REACTORS
330
19F
102
}
330
19F
100
AcDbXrecord
280
     1
102
RTVSPost2010Prop28
280
     0
102
RTVSPost2010PropOp28
 70
     1
102
RTVSPost2010Prop29
280
     1
102
RTVSPost2010PropOp29
 70
     1
102
RTVSPost2010Prop30
280
     1
102
RTVSPost2010PropOp30
 70
     1
102
RTVSPost2010Prop31
280
     0
102
RTVSPost2010PropOp31
 70
     1
102
RTVSPost2010Prop32
280
     0
102
RTVSPost2010PropOp32
 70
     1
102
RTVSPost2010Prop33
280
     0
102
RTVSPost2010PropOp33
 70
     1
102
RTVSPost2010Prop34
280
     0
102
RTVSPost2010PropOp34
 70
     1
102
RTVSPost2010Prop35
280
     0
102
RTVSPost2010PropOp35
 70
     1
102
RTVSPost2010Prop36
280
     0
102
RTVSPost2010PropOp36
 70
     1
102
RTVSPost2010Prop37
 90
       50
102
RTVSPost2010PropOp37
 70
     1
102
RTVSPost2010Prop38
140
0.0
102
RTVSPost2010PropOp38
 70
     1
102
RTVSPost2010Prop39
140
1.0
102
RTVSPost2010PropOp39
 70
     1
102
RTVSPost2010Prop40
 90
        0
102
RTVSPost2010PropOp40
 70
     1
102
RTVSPost2010Prop41ColorIndex
 90
       18
102
RTVSPost2010Prop41ColorRGB
 90
        0
102
RTVSPost2010PropOp41
 70
     1
102
RTVSPost2010Prop42
 90
       50
102
RTVSPost2010PropOp42
 70
     1
102
RTVSPost2010Prop43
 90
        3
102
RTVSPost2010PropOp43
 70
     1
102
RTVSPost2010Prop44ColorIndex
 90
        5
102
RTVSPost2010Prop44ColorRGB
 90
      255
102
RTVSPost2010PropOp44
 70
     1
102
RTVSPost2010Prop45
280
     0
102
RTVSPost2010PropOp45
 70
     1
102
RTVSPost2010Prop46
 90
       50
102
RTVSPost2010PropOp46
 70
     1
102
RTVSPost2010Prop47
 90
       50
102
RTVSPost2010PropOp47
 70
     1
102
RTVSPost2010Prop48
 90
       50
102
RTVSPost2010PropOp48
 70
     1
102
RTVSPost2010Prop49
280
     0
102
RTVSPost2010PropOp49
 70
     1
102
RTVSPost2010Prop50
 90
       50
102
RTVSPost2010PropOp50
 70
     1
102
RTVSPost2010Prop51ColorIndex
 90
      256
102
RTVSPost2010Prop51ColorRGB
 90
-16777216
102
RTVSPost2010PropOp51
 70
     0
102
RTVSPost2010Prop52
140
1.0
102
RTVSPost2010PropOp52
 70
     0
102
RTVSPost2010Prop53
 90
        2
102
RTVSPost2010PropOp53
 70
     1
102
RTVSPost2010Prop54
  1
strokes_ogs.tif
102
RTVSPost2010PropOp54
 70
     1
102
RTVSPost2010Prop55
280
     0
102
RTVSPost2010PropOp55
 70
     1
102
RTVSPost2010Prop56
140
1.0
102
RTVSPost2010PropOp56
 70
     1
102
RTVSPost2010Prop57
140
1.0
102
RTVSPost2010PropOp57
 70
     1
  0
XRECORD
  5
184
102
{ACAD_REACTORS
330
183
102
}
330
183
100
AcDbXrecord
280
     1
102
RTVSPost2010Prop28
280
     0
102
RTVSPost2010PropOp28
 70
     1
102
RTVSPost2010Prop29
280
     1
102
RTVSPost2010PropOp29
 70
     1
102
RTVSPost2010Prop30
280
     1
102
RTVSPost2010PropOp30
 70
     1
102
RTVSPost2010Prop31
280
     0
102
RTVSPost2010PropOp31
 70
     1
102
RTVSPost2010Prop32
280
     0
102
RTVSPost2010PropOp32
 70
     1
102
RTVSPost2010Prop33
280
     0
102
RTVSPost2010PropOp33
 70
     1
102
RTVSPost2010Prop34
280
     0
102
RTVSPost2010PropOp34
 70
     1
102
RTVSPost2010Prop35
280
     0
102
RTVSPost2010PropOp35
 70
     1
102
RTVSPost2010Prop36
280
     0
102
RTVSPost2010PropOp36
 70
     1
102
RTVSPost2010Prop37
 90
       50
102
RTVSPost2010PropOp37
 70
     1
102
RTVSPost2010Prop38
140
0.0
102
RTVSPost2010PropOp38
 70
     1
102
RTVSPost2010Prop39
140
1.0
102
RTVSPost2010PropOp39
 70
     1
102
RTVSPost2010Prop40
 90
        0
102
RTVSPost2010PropOp40
 70
     1
102
RTVSPost2010Prop41ColorIndex
 90
       18
102
RTVSPost2010Prop41ColorRGB
 90
        0
102
RTVSPost2010PropOp41
 70
     1
102
RTVSPost2010Prop42
 90
       50
102
RTVSPost2010PropOp42
 70
     1
102
RTVSPost2010Prop43
 90
        3
102
RTVSPost2010PropOp43
 70
     1
102
RTVSPost2010Prop44ColorIndex
 90
        5
102
RTVSPost2010Prop44ColorRGB
 90
      255
102
RTVSPost2010PropOp44
 70
     1
102
RTVSPost2010Prop45
280
     0
102
RTVSPost2010PropOp45
 70
     1
102
RTVSPost2010Prop46
 90
       50
102
RTVSPost2010PropOp46
 70
     1
102
RTVSPost2010Prop47
 90
       50
102
RTVSPost2010PropOp47
 70
     1
102
RTVSPost2010Prop48
 90
       50
102
RTVSPost2010PropOp48
 70
     1
102
RTVSPost2010Prop49
280
     0
102
RTVSPost2010PropOp49
 70
     1
102
RTVSPost2010Prop50
 90
       50
102
RTVSPost2010PropOp50
 70
     1
102
RTVSPost2010Prop51ColorIndex
 90
      256
102
RTVSPost2010Prop51ColorRGB
 90
-16777216
102
RTVSPost2010PropOp51
 70
     0
102
RTVSPost2010Prop52
140
1.0
102
RTVSPost2010PropOp52
 70
     0
102
RTVSPost2010Prop53
 90
        2
102
RTVSPost2010PropOp53
 70
     1
102
RTVSPost2010Prop54
  1
strokes_ogs.tif
102
RTVSPost2010PropOp54
 70
     1
102
RTVSPost2010Prop55
280
     0
102
RTVSPost2010PropOp55
 70
     1
102
RTVSPost2010Prop56
140
1.0
102
RTVSPost2010PropOp56
 70
     1
102
RTVSPost2010Prop57
140
1.0
102
RTVSPost2010PropOp57
 70
     1
  0
XRECORD
  5
186
102
{ACAD_REACTORS
330
185
102
}
330
185
100
AcDbXrecord
280
     1
102
RTVSPost2010Prop28
280
     0
102
RTVSPost2010PropOp28
 70
     1
102
RTVSPost2010Prop29
280
     1
102
RTVSPost2010PropOp29
 70
     1
102
RTVSPost2010Prop30
280
     1
102
RTVSPost2010PropOp30
 70
     1
102
RTVSPost2010Prop31
280
     0
102
RTVSPost2010PropOp31
 70
     1
102
RTVSPost2010Prop32
280
     0
102
RTVSPost2010PropOp32
 70
     1
102
RTVSPost2010Prop33
280
     0
102
RTVSPost2010PropOp33
 70
     1
102
RTVSPost2010Prop34
280
     0
102
RTVSPost2010PropOp34
 70
     1
102
RTVSPost2010Prop35
280
     0
102
RTVSPost2010PropOp35
 70
     1
102
RTVSPost2010Prop36
280
     0
102
RTVSPost2010PropOp36
 70
     1
102
RTVSPost2010Prop37
 90
       50
102
RTVSPost2010PropOp37
 70
     1
102
RTVSPost2010Prop38
140
0.0
102
RTVSPost2010PropOp38
 70
     1
102
RTVSPost2010Prop39
140
1.0
102
RTVSPost2010PropOp39
 70
     1
102
RTVSPost2010Prop40
 90
        0
102
RTVSPost2010PropOp40
 70
     1
102
RTVSPost2010Prop41ColorIndex
 90
       18
102
RTVSPost2010Prop41ColorRGB
 90
        0
102
RTVSPost2010PropOp41
 70
     1
102
RTVSPost2010Prop42
 90
       50
102
RTVSPost2010PropOp42
 70
     1
102
RTVSPost2010Prop43
 90
        3
102
RTVSPost2010PropOp43
 70
     1
102
RTVSPost2010Prop44ColorIndex
 90
        5
102
RTVSPost2010Prop44ColorRGB
 90
      255
102
RTVSPost2010PropOp44
 70
     1
102
RTVSPost2010Prop45
280
     0
102
RTVSPost2010PropOp45
 70
     1
102
RTVSPost2010Prop46
 90
       50
102
RTVSPost2010PropOp46
 70
     1
102
RTVSPost2010Prop47
 90
       50
102
RTVSPost2010PropOp47
 70
     1
102
RTVSPost2010Prop48
 90
       50
102
RTVSPost2010PropOp48
 70
     1
102
RTVSPost2010Prop49
280
     0
102
RTVSPost2010PropOp49
 70
     1
102
RTVSPost2010Prop50
 90
       50
102
RTVSPost2010PropOp50
 70
     1
102
RTVSPost2010Prop51ColorIndex
 90
      256
102
RTVSPost2010Prop51ColorRGB
 90
-16777216
102
RTVSPost2010PropOp51
 70
     0
102
RTVSPost2010Prop52
140
1.0
102
RTVSPost2010PropOp52
 70
     0
102
RTVSPost2010Prop53
 90
        2
102
RTVSPost2010PropOp53
 70
     1
102
RTVSPost2010Prop54
  1
strokes_ogs.tif
102
RTVSPost2010PropOp54
 70
     1
102
RTVSPost2010Prop55
280
     0
102
RTVSPost2010PropOp55
 70
     1
102
RTVSPost2010Prop56
140
1.0
102
RTVSPost2010PropOp56
 70
     1
102
RTVSPost2010Prop57
140
1.0
102
RTVSPost2010PropOp57
 70
     1
  0
XRECORD
  5
188
102
{ACAD_REACTORS
330
187
102
}
330
187
100
AcDbXrecord
280
     1
102
RTVSPost2010Prop28
280
     0
102
RTVSPost2010PropOp28
 70
     1
102
RTVSPost2010Prop29
280
     1
102
RTVSPost2010PropOp29
 70
     1
102
RTVSPost2010Prop30
280
     1
102
RTVSPost2010PropOp30
 70
     1
102
RTVSPost2010Prop31
280
     0
102
RTVSPost2010PropOp31
 70
     1
102
RTVSPost2010Prop32
280
     0
102
RTVSPost2010PropOp32
 70
     1
102
RTVSPost2010Prop33
280
     0
102
RTVSPost2010PropOp33
 70
     1
102
RTVSPost2010Prop34
280
     0
102
RTVSPost2010PropOp34
 70
     1
102
RTVSPost2010Prop35
280
     0
102
RTVSPost2010PropOp35
 70
     1
102
RTVSPost2010Prop36
280
     0
102
RTVSPost2010PropOp36
 70
     1
102
RTVSPost2010Prop37
 90
       50
102
RTVSPost2010PropOp37
 70
     1
102
RTVSPost2010Prop38
140
0.0
102
RTVSPost2010PropOp38
 70
     1
102
RTVSPost2010Prop39
140
1.0
102
RTVSPost2010PropOp39
 70
     1
102
RTVSPost2010Prop40
 90
        0
102
RTVSPost2010PropOp40
 70
     1
102
RTVSPost2010Prop41ColorIndex
 90
       18
102
RTVSPost2010Prop41ColorRGB
 90
        0
102
RTVSPost2010PropOp41
 70
     1
102
RTVSPost2010Prop42
 90
       50
102
RTVSPost2010PropOp42
 70
     1
102
RTVSPost2010Prop43
 90
        3
102
RTVSPost2010PropOp43
 70
     1
102
RTVSPost2010Prop44ColorIndex
 90
        5
102
RTVSPost2010Prop44ColorRGB
 90
      255
102
RTVSPost2010PropOp44
 70
     1
102
RTVSPost2010Prop45
280
     0
102
RTVSPost2010PropOp45
 70
     1
102
RTVSPost2010Prop46
 90
       50
102
RTVSPost2010PropOp46
 70
     1
102
RTVSPost2010Prop47
 90
       50
102
RTVSPost2010PropOp47
 70
     1
102
RTVSPost2010Prop48
 90
       50
102
RTVSPost2010PropOp48
 70
     1
102
RTVSPost2010Prop49
280
     0
102
RTVSPost2010PropOp49
 70
     1
102
RTVSPost2010Prop50
 90
       50
102
RTVSPost2010PropOp50
 70
     1
102
RTVSPost2010Prop51ColorIndex
 90
      256
102
RTVSPost2010Prop51ColorRGB
 90
-16777216
102
RTVSPost2010PropOp51
 70
     0
102
RTVSPost2010Prop52
140
1.0
102
RTVSPost2010PropOp52
 70
     0
102
RTVSPost2010Prop53
 90
        2
102
RTVSPost2010PropOp53
 70
     1
102
RTVSPost2010Prop54
  1
strokes_ogs.tif
102
RTVSPost2010PropOp54
 70
     1
102
RTVSPost2010Prop55
280
     0
102
RTVSPost2010PropOp55
 70
     1
102
RTVSPost2010Prop56
140
1.0
102
RTVSPost2010PropOp56
 70
     1
102
RTVSPost2010Prop57
140
1.0
102
RTVSPost2010PropOp57
 70
     1
  0
XRECORD
  5
18A
102
{ACAD_REACTORS
330
189
102
}
330
189
100
AcDbXrecord
280
     1
102
RTVSPost2010Prop28
280
     0
102
RTVSPost2010PropOp28
 70
     1
102
RTVSPost2010Prop29
280
     1
102
RTVSPost2010PropOp29
 70
     1
102
RTVSPost2010Prop30
280
     1
102
RTVSPost2010PropOp30
 70
     1
102
RTVSPost2010Prop31
280
     0
102
RTVSPost2010PropOp31
 70
     1
102
RTVSPost2010Prop32
280
     0
102
RTVSPost2010PropOp32
 70
     1
102
RTVSPost2010Prop33
280
     0
102
RTVSPost2010PropOp33
 70
     1
102
RTVSPost2010Prop34
280
     0
102
RTVSPost2010PropOp34
 70
     1
102
RTVSPost2010Prop35
280
     0
102
RTVSPost2010PropOp35
 70
     1
102
RTVSPost2010Prop36
280
     0
102
RTVSPost2010PropOp36
 70
     1
102
RTVSPost2010Prop37
 90
       50
102
RTVSPost2010PropOp37
 70
     1
102
RTVSPost2010Prop38
140
0.0
102
RTVSPost2010PropOp38
 70
     1
102
RTVSPost2010Prop39
140
1.0
102
RTVSPost2010PropOp39
 70
     1
102
RTVSPost2010Prop40
 90
        0
102
RTVSPost2010PropOp40
 70
     1
102
RTVSPost2010Prop41ColorIndex
 90
       18
102
RTVSPost2010Prop41ColorRGB
 90
        0
102
RTVSPost2010PropOp41
 70
     1
102
RTVSPost2010Prop42
 90
       50
102
RTVSPost2010PropOp42
 70
     1
102
RTVSPost2010Prop43
 90
        3
102
RTVSPost2010PropOp43
 70
     1
102
RTVSPost2010Prop44ColorIndex
 90
        5
102
RTVSPost2010Prop44ColorRGB
 90
      255
102
RTVSPost2010PropOp44
 70
     1
102
RTVSPost2010Prop45
280
     0
102
RTVSPost2010PropOp45
 70
     1
102
RTVSPost2010Prop46
 90
       50
102
RTVSPost2010PropOp46
 70
     1
102
RTVSPost2010Prop47
 90
       50
102
RTVSPost2010PropOp47
 70
     1
102
RTVSPost2010Prop48
 90
       50
102
RTVSPost2010PropOp48
 70
     1
102
RTVSPost2010Prop49
280
     0
102
RTVSPost2010PropOp49
 70
     1
102
RTVSPost2010Prop50
 90
       50
102
RTVSPost2010PropOp50
 70
     1
102
RTVSPost2010Prop51ColorIndex
 90
      256
102
RTVSPost2010Prop51ColorRGB
 90
-16777216
102
RTVSPost2010PropOp51
 70
     0
102
RTVSPost2010Prop52
140
1.0
102
RTVSPost2010PropOp52
 70
     0
102
RTVSPost2010Prop53
 90
        2
102
RTVSPost2010PropOp53
 70
     1
102
RTVSPost2010Prop54
  1
strokes_ogs.tif
102
RTVSPost2010PropOp54
 70
     1
102
RTVSPost2010Prop55
280
     0
102
RTVSPost2010PropOp55
 70
     1
102
RTVSPost2010Prop56
140
1.0
102
RTVSPost2010PropOp56
 70
     1
102
RTVSPost2010Prop57
140
1.0
102
RTVSPost2010PropOp57
 70
     1
  0
XRECORD
  5
192
102
{ACAD_REACTORS
330
191
102
}
330
191
100
AcDbXrecord
280
     1
102
RTVSPost2010Prop28
280
     0
102
RTVSPost2010PropOp28
 70
     1
102
RTVSPost2010Prop29
280
     1
102
RTVSPost2010PropOp29
 70
     1
102
RTVSPost2010Prop30
280
     1
102
RTVSPost2010PropOp30
 70
     1
102
RTVSPost2010Prop31
280
     0
102
RTVSPost2010PropOp31
 70
     1
102
RTVSPost2010Prop32
280
     0
102
RTVSPost2010PropOp32
 70
     1
102
RTVSPost2010Prop33
280
     0
102
RTVSPost2010PropOp33
 70
     1
102
RTVSPost2010Prop34
280
     0
102
RTVSPost2010PropOp34
 70
     1
102
RTVSPost2010Prop35
280
     0
102
RTVSPost2010PropOp35
 70
     1
102
RTVSPost2010Prop36
280
     0
102
RTVSPost2010PropOp36
 70
     1
102
RTVSPost2010Prop37
 90
       50
102
RTVSPost2010PropOp37
 70
     1
102
RTVSPost2010Prop38
140
0.0
102
RTVSPost2010PropOp38
 70
     1
102
RTVSPost2010Prop39
140
1.0
102
RTVSPost2010PropOp39
 70
     1
102
RTVSPost2010Prop40
 90
        0
102
RTVSPost2010PropOp40
 70
     1
102
RTVSPost2010Prop41ColorIndex
 90
       18
102
RTVSPost2010Prop41ColorRGB
 90
        0
102
RTVSPost2010PropOp41
 70
     1
102
RTVSPost2010Prop42
 90
       50
102
RTVSPost2010PropOp42
 70
     1
102
RTVSPost2010Prop43
 90
        3
102
RTVSPost2010PropOp43
 70
     1
102
RTVSPost2010Prop44ColorIndex
 90
        5
102
RTVSPost2010Prop44ColorRGB
 90
      255
102
RTVSPost2010PropOp44
 70
     1
102
RTVSPost2010Prop45
280
     0
102
RTVSPost2010PropOp45
 70
     1
102
RTVSPost2010Prop46
 90
       50
102
RTVSPost2010PropOp46
 70
     1
102
RTVSPost2010Prop47
 90
       50
102
RTVSPost2010PropOp47
 70
     1
102
RTVSPost2010Prop48
 90
       50
102
RTVSPost2010PropOp48
 70
     1
102
RTVSPost2010Prop49
280
     0
102
RTVSPost2010PropOp49
 70
     1
102
RTVSPost2010Prop50
 90
       50
102
RTVSPost2010PropOp50
 70
     1
102
RTVSPost2010Prop51ColorIndex
 90
      256
102
RTVSPost2010Prop51ColorRGB
 90
-16777216
102
RTVSPost2010PropOp51
 70
     0
102
RTVSPost2010Prop52
140
1.0
102
RTVSPost2010PropOp52
 70
     0
102
RTVSPost2010Prop53
 90
        2
102
RTVSPost2010PropOp53
 70
     1
102
RTVSPost2010Prop54
  1
strokes_ogs.tif
102
RTVSPost2010PropOp54
 70
     1
102
RTVSPost2010Prop55
280
     0
102
RTVSPost2010PropOp55
 70
     1
102
RTVSPost2010Prop56
140
1.0
102
RTVSPost2010PropOp56
 70
     1
102
RTVSPost2010Prop57
140
1.0
102
RTVSPost2010PropOp57
 70
     1
  0
XRECORD
  5
1AE
102
{ACAD_REACTORS
330
1AD
102
}
330
1AD
100
AcDbXrecord
280
     1
102
RTVSPost2010Prop28
280
     0
102
RTVSPost2010PropOp28
 70
     0
102
RTVSPost2010Prop29
280
     1
102
RTVSPost2010PropOp29
 70
     0
102
RTVSPost2010Prop30
280
     1
102
RTVSPost2010PropOp30
 70
     0
102
RTVSPost2010Prop31
280
     0
102
RTVSPost2010PropOp31
 70
     0
102
RTVSPost2010Prop32
280
     0
102
RTVSPost2010PropOp32
 70
     0
102
RTVSPost2010Prop33
280
     0
102
RTVSPost2010PropOp33
 70
     0
102
RTVSPost2010Prop34
280
     0
102
RTVSPost2010PropOp34
 70
     0
102
RTVSPost2010Prop35
280
     0
102
RTVSPost2010PropOp35
 70
     0
102
RTVSPost2010Prop36
280
     0
102
RTVSPost2010PropOp36
 70
     0
102
RTVSPost2010Prop37
 90
       50
102
RTVSPost2010PropOp37
 70
     0
102
RTVSPost2010Prop38
140
0.0
102
RTVSPost2010PropOp38
 70
     0
102
RTVSPost2010Prop39
140
1.0
102
RTVSPost2010PropOp39
 70
     0
102
RTVSPost2010Prop40
 90
        0
102
RTVSPost2010PropOp40
 70
     0
102
RTVSPost2010Prop41ColorIndex
 90
       18
102
RTVSPost2010Prop41ColorRGB
 90
        0
102
RTVSPost2010PropOp41
 70
     0
102
RTVSPost2010Prop42
 90
       50
102
RTVSPost2010PropOp42
 70
     0
102
RTVSPost2010Prop43
 90
        3
102
RTVSPost2010PropOp43
 70
     0
102
RTVSPost2010Prop44ColorIndex
 90
        5
102
RTVSPost2010Prop44ColorRGB
 90
      255
102
RTVSPost2010PropOp44
 70
     0
102
RTVSPost2010Prop45
280
     0
102
RTVSPost2010PropOp45
 70
     0
102
RTVSPost2010Prop46
 90
       50
102
RTVSPost2010PropOp46
 70
     0
102
RTVSPost2010Prop47
 90
       50
102
RTVSPost2010PropOp47
 70
     0
102
RTVSPost2010Prop48
 90
       50
102
RTVSPost2010PropOp48
 70
     0
102
RTVSPost2010Prop49
280
     0
102
RTVSPost2010PropOp49
 70
     0
102
RTVSPost2010Prop50
 90
       50
102
RTVSPost2010PropOp50
 70
     0
102
RTVSPost2010Prop51ColorIndex
 90
      256
102
RTVSPost2010Prop51ColorRGB
 90
-16777216
102
RTVSPost2010PropOp51
 70
     0
102
RTVSPost2010Prop52
140
1.0
102
RTVSPost2010PropOp52
 70
     0
102
RTVSPost2010Prop53
 90
        2
102
RTVSPost2010PropOp53
 70
     0
102
RTVSPost2010Prop54
  1
strokes_ogs.tif
102
RTVSPost2010PropOp54
 70
     0
102
RTVSPost2010Prop55
280
     0
102
RTVSPost2010PropOp55
 70
     0
102
RTVSPost2010Prop56
140
1.0
102
RTVSPost2010PropOp56
 70
     0
102
RTVSPost2010Prop57
140
1.0
102
RTVSPost2010PropOp57
 70
     0
  0
XRECORD
  5
19E
102
{ACAD_REACTORS
330
19D
102
}
330
19D
100
AcDbXrecord
280
     1
102
RTVSPost2010Prop28
280
     0
102
RTVSPost2010PropOp28
 70
     1
102
RTVSPost2010Prop29
280
     1
102
RTVSPost2010PropOp29
 70
     1
102
RTVSPost2010Prop30
280
     1
102
RTVSPost2010PropOp30
 70
     1
102
RTVSPost2010Prop31
280
     0
102
RTVSPost2010PropOp31
 70
     1
102
RTVSPost2010Prop32
280
     0
102
RTVSPost2010PropOp32
 70
     1
102
RTVSPost2010Prop33
280
     0
102
RTVSPost2010PropOp33
 70
     1
102
RTVSPost2010Prop34
280
     0
102
RTVSPost2010PropOp34
 70
     1
102
RTVSPost2010Prop35
280
     0
102
RTVSPost2010PropOp35
 70
     1
102
RTVSPost2010Prop36
280
     0
102
RTVSPost2010PropOp36
 70
     1
102
RTVSPost2010Prop37
 90
       50
102
RTVSPost2010PropOp37
 70
     1
102
RTVSPost2010Prop38
140
0.0
102
RTVSPost2010PropOp38
 70
     1
102
RTVSPost2010Prop39
140
1.0
102
RTVSPost2010PropOp39
 70
     1
102
RTVSPost2010Prop40
 90
        0
102
RTVSPost2010PropOp40
 70
     1
102
RTVSPost2010Prop41ColorIndex
 90
       18
102
RTVSPost2010Prop41ColorRGB
 90
        0
102
RTVSPost2010PropOp41
 70
     1
102
RTVSPost2010Prop42
 90
       50
102
RTVSPost2010PropOp42
 70
     1
102
RTVSPost2010Prop43
 90
        3
102
RTVSPost2010PropOp43
 70
     1
102
RTVSPost2010Prop44ColorIndex
 90
        5
102
RTVSPost2010Prop44ColorRGB
 90
      255
102
RTVSPost2010PropOp44
 70
     1
102
RTVSPost2010Prop45
280
     0
102
RTVSPost2010PropOp45
 70
     1
102
RTVSPost2010Prop46
 90
       50
102
RTVSPost2010PropOp46
 70
     1
102
RTVSPost2010Prop47
 90
       50
102
RTVSPost2010PropOp47
 70
     1
102
RTVSPost2010Prop48
 90
       50
102
RTVSPost2010PropOp48
 70
     1
102
RTVSPost2010Prop49
280
     0
102
RTVSPost2010PropOp49
 70
     1
102
RTVSPost2010Prop50
 90
       50
102
RTVSPost2010PropOp50
 70
     1
102
RTVSPost2010Prop51ColorIndex
 90
      256
102
RTVSPost2010Prop51ColorRGB
 90
-16777216
102
RTVSPost2010PropOp51
 70
     0
102
RTVSPost2010Prop52
140
1.0
102
RTVSPost2010PropOp52
 70
     0
102
RTVSPost2010Prop53
 90
        2
102
RTVSPost2010PropOp53
 70
     1
102
RTVSPost2010Prop54
  1
strokes_ogs.tif
102
RTVSPost2010PropOp54
 70
     1
102
RTVSPost2010Prop55
280
     0
102
RTVSPost2010PropOp55
 70
     1
102
RTVSPost2010Prop56
140
1.0
102
RTVSPost2010PropOp56
 70
     1
102
RTVSPost2010Prop57
140
1.0
102
RTVSPost2010PropOp57
 70
     1
  0
XRECORD
  5
1B0
102
{ACAD_REACTORS
330
1AF
102
}
330
1AF
100
AcDbXrecord
280
     1
102
RTVSPost2010Prop28
280
     0
102
RTVSPost2010PropOp28
 70
     0
102
RTVSPost2010Prop29
280
     1
102
RTVSPost2010PropOp29
 70
     0
102
RTVSPost2010Prop30
280
     1
102
RTVSPost2010PropOp30
 70
     0
102
RTVSPost2010Prop31
280
     0
102
RTVSPost2010PropOp31
 70
     0
102
RTVSPost2010Prop32
280
     0
102
RTVSPost2010PropOp32
 70
     0
102
RTVSPost2010Prop33
280
     0
102
RTVSPost2010PropOp33
 70
     0
102
RTVSPost2010Prop34
280
     0
102
RTVSPost2010PropOp34
 70
     0
102
RTVSPost2010Prop35
280
     0
102
RTVSPost2010PropOp35
 70
     0
102
RTVSPost2010Prop36
280
     0
102
RTVSPost2010PropOp36
 70
     0
102
RTVSPost2010Prop37
 90
       50
102
RTVSPost2010PropOp37
 70
     0
102
RTVSPost2010Prop38
140
0.0
102
RTVSPost2010PropOp38
 70
     0
102
RTVSPost2010Prop39
140
1.0
102
RTVSPost2010PropOp39
 70
     0
102
RTVSPost2010Prop40
 90
        0
102
RTVSPost2010PropOp40
 70
     0
102
RTVSPost2010Prop41ColorIndex
 90
       18
102
RTVSPost2010Prop41ColorRGB
 90
        0
102
RTVSPost2010PropOp41
 70
     0
102
RTVSPost2010Prop42
 90
       50
102
RTVSPost2010PropOp42
 70
     0
102
RTVSPost2010Prop43
 90
        3
102
RTVSPost2010PropOp43
 70
     0
102
RTVSPost2010Prop44ColorIndex
 90
        5
102
RTVSPost2010Prop44ColorRGB
 90
      255
102
RTVSPost2010PropOp44
 70
     0
102
RTVSPost2010Prop45
280
     0
102
RTVSPost2010PropOp45
 70
     0
102
RTVSPost2010Prop46
 90
       50
102
RTVSPost2010PropOp46
 70
     0
102
RTVSPost2010Prop47
 90
       50
102
RTVSPost2010PropOp47
 70
     0
102
RTVSPost2010Prop48
 90
       50
102
RTVSPost2010PropOp48
 70
     0
102
RTVSPost2010Prop49
280
     0
102
RTVSPost2010PropOp49
 70
     0
102
RTVSPost2010Prop50
 90
       50
102
RTVSPost2010PropOp50
 70
     0
102
RTVSPost2010Prop51ColorIndex
 90
      256
102
RTVSPost2010Prop51ColorRGB
 90
-16777216
102
RTVSPost2010PropOp51
 70
     0
102
RTVSPost2010Prop52
140
1.0
102
RTVSPost2010PropOp52
 70
     0
102
RTVSPost2010Prop53
 90
        2
102
RTVSPost2010PropOp53
 70
     0
102
RTVSPost2010Prop54
  1
strokes_ogs.tif
102
RTVSPost2010PropOp54
 70
     0
102
RTVSPost2010Prop55
280
     0
102
RTVSPost2010PropOp55
 70
     0
102
RTVSPost2010Prop56
140
1.0
102
RTVSPost2010PropOp56
 70
     0
102
RTVSPost2010Prop57
140
1.0
102
RTVSPost2010PropOp57
 70
     0
  0
XRECORD
  5
196
102
{ACAD_REACTORS
330
195
102
}
330
195
100
AcDbXrecord
280
     1
102
RTVSPost2010Prop28
280
     0
102
RTVSPost2010PropOp28
 70
     1
102
RTVSPost2010Prop29
280
     1
102
RTVSPost2010PropOp29
 70
     1
102
RTVSPost2010Prop30
280
     1
102
RTVSPost2010PropOp30
 70
     1
102
RTVSPost2010Prop31
280
     0
102
RTVSPost2010PropOp31
 70
     1
102
RTVSPost2010Prop32
280
     0
102
RTVSPost2010PropOp32
 70
     1
102
RTVSPost2010Prop33
280
     0
102
RTVSPost2010PropOp33
 70
     1
102
RTVSPost2010Prop34
280
     0
102
RTVSPost2010PropOp34
 70
     1
102
RTVSPost2010Prop35
280
     0
102
RTVSPost2010PropOp35
 70
     1
102
RTVSPost2010Prop36
280
     0
102
RTVSPost2010PropOp36
 70
     1
102
RTVSPost2010Prop37
 90
       50
102
RTVSPost2010PropOp37
 70
     1
102
RTVSPost2010Prop38
140
0.0
102
RTVSPost2010PropOp38
 70
     1
102
RTVSPost2010Prop39
140
1.0
102
RTVSPost2010PropOp39
 70
     1
102
RTVSPost2010Prop40
 90
        0
102
RTVSPost2010PropOp40
 70
     1
102
RTVSPost2010Prop41ColorIndex
 90
       18
102
RTVSPost2010Prop41ColorRGB
 90
        0
102
RTVSPost2010PropOp41
 70
     1
102
RTVSPost2010Prop42
 90
       50
102
RTVSPost2010PropOp42
 70
     1
102
RTVSPost2010Prop43
 90
        3
102
RTVSPost2010PropOp43
 70
     1
102
RTVSPost2010Prop44ColorIndex
 90
        5
102
RTVSPost2010Prop44ColorRGB
 90
      255
102
RTVSPost2010PropOp44
 70
     1
102
RTVSPost2010Prop45
280
     0
102
RTVSPost2010PropOp45
 70
     1
102
RTVSPost2010Prop46
 90
       50
102
RTVSPost2010PropOp46
 70
     1
102
RTVSPost2010Prop47
 90
       50
102
RTVSPost2010PropOp47
 70
     1
102
RTVSPost2010Prop48
 90
       50
102
RTVSPost2010PropOp48
 70
     1
102
RTVSPost2010Prop49
280
     0
102
RTVSPost2010PropOp49
 70
     1
102
RTVSPost2010Prop50
 90
       50
102
RTVSPost2010PropOp50
 70
     1
102
RTVSPost2010Prop51ColorIndex
 90
      256
102
RTVSPost2010Prop51ColorRGB
 90
-16777216
102
RTVSPost2010PropOp51
 70
     0
102
RTVSPost2010Prop52
140
1.0
102
RTVSPost2010PropOp52
 70
     0
102
RTVSPost2010Prop53
 90
        2
102
RTVSPost2010PropOp53
 70
     1
102
RTVSPost2010Prop54
  1
strokes_ogs.tif
102
RTVSPost2010PropOp54
 70
     1
102
RTVSPost2010Prop55
280
     0
102
RTVSPost2010PropOp55
 70
     1
102
RTVSPost2010Prop56
140
1.0
102
RTVSPost2010PropOp56
 70
     1
102
RTVSPost2010Prop57
140
1.0
102
RTVSPost2010PropOp57
 70
     1
  0
XRECORD
  5
1AC
102
{ACAD_REACTORS
330
1AB
102
}
330
1AB
100
AcDbXrecord
280
     1
102
RTVSPost2010Prop28
280
     0
102
RTVSPost2010PropOp28
 70
     1
102
RTVSPost2010Prop29
280
     1
102
RTVSPost2010PropOp29
 70
     1
102
RTVSPost2010Prop30
280
     1
102
RTVSPost2010PropOp30
 70
     1
102
RTVSPost2010Prop31
280
     0
102
RTVSPost2010PropOp31
 70
     1
102
RTVSPost2010Prop32
280
     0
102
RTVSPost2010PropOp32
 70
     1
102
RTVSPost2010Prop33
280
     0
102
RTVSPost2010PropOp33
 70
     1
102
RTVSPost2010Prop34
280
     0
102
RTVSPost2010PropOp34
 70
     1
102
RTVSPost2010Prop35
280
     0
102
RTVSPost2010PropOp35
 70
     1
102
RTVSPost2010Prop36
280
     0
102
RTVSPost2010PropOp36
 70
     1
102
RTVSPost2010Prop37
 90
       50
102
RTVSPost2010PropOp37
 70
     1
102
RTVSPost2010Prop38
140
0.0
102
RTVSPost2010PropOp38
 70
     1
102
RTVSPost2010Prop39
140
1.0
102
RTVSPost2010PropOp39
 70
     1
102
RTVSPost2010Prop40
 90
        0
102
RTVSPost2010PropOp40
 70
     1
102
RTVSPost2010Prop41ColorIndex
 90
       18
102
RTVSPost2010Prop41ColorRGB
 90
        0
102
RTVSPost2010PropOp41
 70
     1
102
RTVSPost2010Prop42
 90
       50
102
RTVSPost2010PropOp42
 70
     1
102
RTVSPost2010Prop43
 90
        3
102
RTVSPost2010PropOp43
 70
     1
102
RTVSPost2010Prop44ColorIndex
 90
        5
102
RTVSPost2010Prop44ColorRGB
 90
      255
102
RTVSPost2010PropOp44
 70
     1
102
RTVSPost2010Prop45
280
     0
102
RTVSPost2010PropOp45
 70
     1
102
RTVSPost2010Prop46
 90
       50
102
RTVSPost2010PropOp46
 70
     1
102
RTVSPost2010Prop47
 90
       50
102
RTVSPost2010PropOp47
 70
     1
102
RTVSPost2010Prop48
 90
       50
102
RTVSPost2010PropOp48
 70
     1
102
RTVSPost2010Prop49
280
     0
102
RTVSPost2010PropOp49
 70
     1
102
RTVSPost2010Prop50
 90
       50
102
RTVSPost2010PropOp50
 70
     1
102
RTVSPost2010Prop51ColorIndex
 90
      256
102
RTVSPost2010Prop51ColorRGB
 90
-16777216
102
RTVSPost2010PropOp51
 70
     0
102
RTVSPost2010Prop52
140
1.0
102
RTVSPost2010PropOp52
 70
     0
102
RTVSPost2010Prop53
 90
        2
102
RTVSPost2010PropOp53
 70
     1
102
RTVSPost2010Prop54
  1
strokes_ogs.tif
102
RTVSPost2010PropOp54
 70
     1
102
RTVSPost2010Prop55
280
     0
102
RTVSPost2010PropOp55
 70
     1
102
RTVSPost2010Prop56
140
1.0
102
RTVSPost2010PropOp56
 70
     1
102
RTVSPost2010Prop57
140
1.0
102
RTVSPost2010PropOp57
 70
     1
  0
XRECORD
  5
1AA
102
{ACAD_REACTORS
330
1A9
102
}
330
1A9
100
AcDbXrecord
280
     1
102
RTVSPost2010Prop28
280
     0
102
RTVSPost2010PropOp28
 70
     1
102
RTVSPost2010Prop29
280
     1
102
RTVSPost2010PropOp29
 70
     1
102
RTVSPost2010Prop30
280
     1
102
RTVSPost2010PropOp30
 70
     1
102
RTVSPost2010Prop31
280
     0
102
RTVSPost2010PropOp31
 70
     1
102
RTVSPost2010Prop32
280
     0
102
RTVSPost2010PropOp32
 70
     1
102
RTVSPost2010Prop33
280
     0
102
RTVSPost2010PropOp33
 70
     1
102
RTVSPost2010Prop34
280
     0
102
RTVSPost2010PropOp34
 70
     1
102
RTVSPost2010Prop35
280
     0
102
RTVSPost2010PropOp35
 70
     1
102
RTVSPost2010Prop36
280
     0
102
RTVSPost2010PropOp36
 70
     1
102
RTVSPost2010Prop37
 90
       50
102
RTVSPost2010PropOp37
 70
     1
102
RTVSPost2010Prop38
140
0.0
102
RTVSPost2010PropOp38
 70
     1
102
RTVSPost2010Prop39
140
1.0
102
RTVSPost2010PropOp39
 70
     1
102
RTVSPost2010Prop40
 90
        0
102
RTVSPost2010PropOp40
 70
     1
102
RTVSPost2010Prop41ColorIndex
 90
       18
102
RTVSPost2010Prop41ColorRGB
 90
        0
102
RTVSPost2010PropOp41
 70
     1
102
RTVSPost2010Prop42
 90
       50
102
RTVSPost2010PropOp42
 70
     1
102
RTVSPost2010Prop43
 90
        3
102
RTVSPost2010PropOp43
 70
     1
102
RTVSPost2010Prop44ColorIndex
 90
        5
102
RTVSPost2010Prop44ColorRGB
 90
      255
102
RTVSPost2010PropOp44
 70
     1
102
RTVSPost2010Prop45
280
     0
102
RTVSPost2010PropOp45
 70
     1
102
RTVSPost2010Prop46
 90
       50
102
RTVSPost2010PropOp46
 70
     1
102
RTVSPost2010Prop47
 90
       50
102
RTVSPost2010PropOp47
 70
     1
102
RTVSPost2010Prop48
 90
       50
102
RTVSPost2010PropOp48
 70
     1
102
RTVSPost2010Prop49
280
     0
102
RTVSPost2010PropOp49
 70
     1
102
RTVSPost2010Prop50
 90
       50
102
RTVSPost2010PropOp50
 70
     1
102
RTVSPost2010Prop51ColorIndex
 90
      256
102
RTVSPost2010Prop51ColorRGB
 90
-16777216
102
RTVSPost2010PropOp51
 70
     0
102
RTVSPost2010Prop52
140
1.0
102
RTVSPost2010PropOp52
 70
     0
102
RTVSPost2010Prop53
 90
        2
102
RTVSPost2010PropOp53
 70
     1
102
RTVSPost2010Prop54
  1
strokes_ogs.tif
102
RTVSPost2010PropOp54
 70
     1
102
RTVSPost2010Prop55
280
     0
102
RTVSPost2010PropOp55
 70
     1
102
RTVSPost2010Prop56
140
1.0
102
RTVSPost2010PropOp56
 70
     1
102
RTVSPost2010Prop57
140
1.0
102
RTVSPost2010PropOp57
 70
     1
  0
XRECORD
  5
1A4
102
{ACAD_REACTORS
330
1A3
102
}
330
1A3
100
AcDbXrecord
280
     1
102
RTVSPost2010Prop28
280
     0
102
RTVSPost2010PropOp28
 70
     1
102
RTVSPost2010Prop29
280
     1
102
RTVSPost2010PropOp29
 70
     1
102
RTVSPost2010Prop30
280
     1
102
RTVSPost2010PropOp30
 70
     1
102
RTVSPost2010Prop31
280
     0
102
RTVSPost2010PropOp31
 70
     1
102
RTVSPost2010Prop32
280
     0
102
RTVSPost2010PropOp32
 70
     1
102
RTVSPost2010Prop33
280
     0
102
RTVSPost2010PropOp33
 70
     1
102
RTVSPost2010Prop34
280
     0
102
RTVSPost2010PropOp34
 70
     1
102
RTVSPost2010Prop35
280
     0
102
RTVSPost2010PropOp35
 70
     1
102
RTVSPost2010Prop36
280
     0
102
RTVSPost2010PropOp36
 70
     1
102
RTVSPost2010Prop37
 90
       50
102
RTVSPost2010PropOp37
 70
     1
102
RTVSPost2010Prop38
140
0.0
102
RTVSPost2010PropOp38
 70
     1
102
RTVSPost2010Prop39
140
1.0
102
RTVSPost2010PropOp39
 70
     1
102
RTVSPost2010Prop40
 90
        0
102
RTVSPost2010PropOp40
 70
     1
102
RTVSPost2010Prop41ColorIndex
 90
       18
102
RTVSPost2010Prop41ColorRGB
 90
        0
102
RTVSPost2010PropOp41
 70
     1
102
RTVSPost2010Prop42
 90
       50
102
RTVSPost2010PropOp42
 70
     1
102
RTVSPost2010Prop43
 90
        3
102
RTVSPost2010PropOp43
 70
     1
102
RTVSPost2010Prop44ColorIndex
 90
        5
102
RTVSPost2010Prop44ColorRGB
 90
      255
102
RTVSPost2010PropOp44
 70
     1
102
RTVSPost2010Prop45
280
     0
102
RTVSPost2010PropOp45
 70
     1
102
RTVSPost2010Prop46
 90
       50
102
RTVSPost2010PropOp46
 70
     1
102
RTVSPost2010Prop47
 90
       50
102
RTVSPost2010PropOp47
 70
     1
102
RTVSPost2010Prop48
 90
       50
102
RTVSPost2010PropOp48
 70
     1
102
RTVSPost2010Prop49
280
     0
102
RTVSPost2010PropOp49
 70
     1
102
RTVSPost2010Prop50
 90
       50
102
RTVSPost2010PropOp50
 70
     1
102
RTVSPost2010Prop51ColorIndex
 90
      256
102
RTVSPost2010Prop51ColorRGB
 90
-16777216
102
RTVSPost2010PropOp51
 70
     0
102
RTVSPost2010Prop52
140
1.0
102
RTVSPost2010PropOp52
 70
     0
102
RTVSPost2010Prop53
 90
        2
102
RTVSPost2010PropOp53
 70
     1
102
RTVSPost2010Prop54
  1
strokes_ogs.tif
102
RTVSPost2010PropOp54
 70
     1
102
RTVSPost2010Prop55
280
     0
102
RTVSPost2010PropOp55
 70
     1
102
RTVSPost2010Prop56
140
1.0
102
RTVSPost2010PropOp56
 70
     1
102
RTVSPost2010Prop57
140
1.0
102
RTVSPost2010PropOp57
 70
     1
  0
XRECORD
  5
1A6
102
{ACAD_REACTORS
330
1A5
102
}
330
1A5
100
AcDbXrecord
280
     1
102
RTVSPost2010Prop28
280
     0
102
RTVSPost2010PropOp28
 70
     1
102
RTVSPost2010Prop29
280
     1
102
RTVSPost2010PropOp29
 70
     1
102
RTVSPost2010Prop30
280
     1
102
RTVSPost2010PropOp30
 70
     1
102
RTVSPost2010Prop31
280
     0
102
RTVSPost2010PropOp31
 70
     1
102
RTVSPost2010Prop32
280
     0
102
RTVSPost2010PropOp32
 70
     1
102
RTVSPost2010Prop33
280
     0
102
RTVSPost2010PropOp33
 70
     1
102
RTVSPost2010Prop34
280
     0
102
RTVSPost2010PropOp34
 70
     1
102
RTVSPost2010Prop35
280
     0
102
RTVSPost2010PropOp35
 70
     1
102
RTVSPost2010Prop36
280
     0
102
RTVSPost2010PropOp36
 70
     1
102
RTVSPost2010Prop37
 90
       50
102
RTVSPost2010PropOp37
 70
     1
102
RTVSPost2010Prop38
140
0.0
102
RTVSPost2010PropOp38
 70
     1
102
RTVSPost2010Prop39
140
1.0
102
RTVSPost2010PropOp39
 70
     1
102
RTVSPost2010Prop40
 90
        0
102
RTVSPost2010PropOp40
 70
     1
102
RTVSPost2010Prop41ColorIndex
 90
       18
102
RTVSPost2010Prop41ColorRGB
 90
        0
102
RTVSPost2010PropOp41
 70
     1
102
RTVSPost2010Prop42
 90
       50
102
RTVSPost2010PropOp42
 70
     1
102
RTVSPost2010Prop43
 90
        3
102
RTVSPost2010PropOp43
 70
     1
102
RTVSPost2010Prop44ColorIndex
 90
        5
102
RTVSPost2010Prop44ColorRGB
 90
      255
102
RTVSPost2010PropOp44
 70
     1
102
RTVSPost2010Prop45
280
     0
102
RTVSPost2010PropOp45
 70
     1
102
RTVSPost2010Prop46
 90
       50
102
RTVSPost2010PropOp46
 70
     1
102
RTVSPost2010Prop47
 90
       50
102
RTVSPost2010PropOp47
 70
     1
102
RTVSPost2010Prop48
 90
       50
102
RTVSPost2010PropOp48
 70
     1
102
RTVSPost2010Prop49
280
     0
102
RTVSPost2010PropOp49
 70
     1
102
RTVSPost2010Prop50
 90
       50
102
RTVSPost2010PropOp50
 70
     1
102
RTVSPost2010Prop51ColorIndex
 90
      256
102
RTVSPost2010Prop51ColorRGB
 90
-16777216
102
RTVSPost2010PropOp51
 70
     0
102
RTVSPost2010Prop52
140
1.0
102
RTVSPost2010PropOp52
 70
     0
102
RTVSPost2010Prop53
 90
        2
102
RTVSPost2010PropOp53
 70
     1
102
RTVSPost2010Prop54
  1
strokes_ogs.tif
102
RTVSPost2010PropOp54
 70
     1
102
RTVSPost2010Prop55
280
     0
102
RTVSPost2010PropOp55
 70
     1
102
RTVSPost2010Prop56
140
1.0
102
RTVSPost2010PropOp56
 70
     1
102
RTVSPost2010Prop57
140
1.0
102
RTVSPost2010PropOp57
 70
     1
  0
XRECORD
  5
19C
102
{ACAD_REACTORS
330
19B
102
}
330
19B
100
AcDbXrecord
280
     1
102
RTVSPost2010Prop28
280
     0
102
RTVSPost2010PropOp28
 70
     1
102
RTVSPost2010Prop29
280
     1
102
RTVSPost2010PropOp29
 70
     1
102
RTVSPost2010Prop30
280
     1
102
RTVSPost2010PropOp30
 70
     1
102
RTVSPost2010Prop31
280
     0
102
RTVSPost2010PropOp31
 70
     1
102
RTVSPost2010Prop32
280
     0
102
RTVSPost2010PropOp32
 70
     1
102
RTVSPost2010Prop33
280
     0
102
RTVSPost2010PropOp33
 70
     1
102
RTVSPost2010Prop34
280
     0
102
RTVSPost2010PropOp34
 70
     1
102
RTVSPost2010Prop35
280
     0
102
RTVSPost2010PropOp35
 70
     1
102
RTVSPost2010Prop36
280
     0
102
RTVSPost2010PropOp36
 70
     1
102
RTVSPost2010Prop37
 90
       50
102
RTVSPost2010PropOp37
 70
     1
102
RTVSPost2010Prop38
140
0.0
102
RTVSPost2010PropOp38
 70
     1
102
RTVSPost2010Prop39
140
1.0
102
RTVSPost2010PropOp39
 70
     1
102
RTVSPost2010Prop40
 90
        0
102
RTVSPost2010PropOp40
 70
     1
102
RTVSPost2010Prop41ColorIndex
 90
       18
102
RTVSPost2010Prop41ColorRGB
 90
        0
102
RTVSPost2010PropOp41
 70
     1
102
RTVSPost2010Prop42
 90
       50
102
RTVSPost2010PropOp42
 70
     1
102
RTVSPost2010Prop43
 90
        3
102
RTVSPost2010PropOp43
 70
     1
102
RTVSPost2010Prop44ColorIndex
 90
        5
102
RTVSPost2010Prop44ColorRGB
 90
      255
102
RTVSPost2010PropOp44
 70
     1
102
RTVSPost2010Prop45
280
     0
102
RTVSPost2010PropOp45
 70
     1
102
RTVSPost2010Prop46
 90
       50
102
RTVSPost2010PropOp46
 70
     1
102
RTVSPost2010Prop47
 90
       50
102
RTVSPost2010PropOp47
 70
     1
102
RTVSPost2010Prop48
 90
       50
102
RTVSPost2010PropOp48
 70
     1
102
RTVSPost2010Prop49
280
     0
102
RTVSPost2010PropOp49
 70
     1
102
RTVSPost2010Prop50
 90
       50
102
RTVSPost2010PropOp50
 70
     1
102
RTVSPost2010Prop51ColorIndex
 90
      256
102
RTVSPost2010Prop51ColorRGB
 90
-16777216
102
RTVSPost2010PropOp51
 70
     0
102
RTVSPost2010Prop52
140
1.0
102
RTVSPost2010PropOp52
 70
     0
102
RTVSPost2010Prop53
 90
        2
102
RTVSPost2010PropOp53
 70
     1
102
RTVSPost2010Prop54
  1
strokes_ogs.tif
102
RTVSPost2010PropOp54
 70
     1
102
RTVSPost2010Prop55
280
     0
102
RTVSPost2010PropOp55
 70
     1
102
RTVSPost2010Prop56
140
1.0
102
RTVSPost2010PropOp56
 70
     1
102
RTVSPost2010Prop57
140
1.0
102
RTVSPost2010PropOp57
 70
     1
  0
XRECORD
  5
190
102
{ACAD_REACTORS
330
18F
102
}
330
18F
100
AcDbXrecord
280
     1
102
RTVSPost2010Prop28
280
     0
102
RTVSPost2010PropOp28
 70
     1
102
RTVSPost2010Prop29
280
     1
102
RTVSPost2010PropOp29
 70
     1
102
RTVSPost2010Prop30
280
     1
102
RTVSPost2010PropOp30
 70
     1
102
RTVSPost2010Prop31
280
     0
102
RTVSPost2010PropOp31
 70
     1
102
RTVSPost2010Prop32
280
     0
102
RTVSPost2010PropOp32
 70
     1
102
RTVSPost2010Prop33
280
     0
102
RTVSPost2010PropOp33
 70
     1
102
RTVSPost2010Prop34
280
     0
102
RTVSPost2010PropOp34
 70
     1
102
RTVSPost2010Prop35
280
     0
102
RTVSPost2010PropOp35
 70
     1
102
RTVSPost2010Prop36
280
     0
102
RTVSPost2010PropOp36
 70
     1
102
RTVSPost2010Prop37
 90
       50
102
RTVSPost2010PropOp37
 70
     1
102
RTVSPost2010Prop38
140
0.0
102
RTVSPost2010PropOp38
 70
     1
102
RTVSPost2010Prop39
140
1.0
102
RTVSPost2010PropOp39
 70
     1
102
RTVSPost2010Prop40
 90
        0
102
RTVSPost2010PropOp40
 70
     1
102
RTVSPost2010Prop41ColorIndex
 90
       18
102
RTVSPost2010Prop41ColorRGB
 90
        0
102
RTVSPost2010PropOp41
 70
     1
102
RTVSPost2010Prop42
 90
       50
102
RTVSPost2010PropOp42
 70
     1
102
RTVSPost2010Prop43
 90
        3
102
RTVSPost2010PropOp43
 70
     1
102
RTVSPost2010Prop44ColorIndex
 90
        5
102
RTVSPost2010Prop44ColorRGB
 90
      255
102
RTVSPost2010PropOp44
 70
     1
102
RTVSPost2010Prop45
280
     0
102
RTVSPost2010PropOp45
 70
     1
102
RTVSPost2010Prop46
 90
       50
102
RTVSPost2010PropOp46
 70
     1
102
RTVSPost2010Prop47
 90
       50
102
RTVSPost2010PropOp47
 70
     1
102
RTVSPost2010Prop48
 90
       50
102
RTVSPost2010PropOp48
 70
     1
102
RTVSPost2010Prop49
280
     0
102
RTVSPost2010PropOp49
 70
     1
102
RTVSPost2010Prop50
 90
       50
102
RTVSPost2010PropOp50
 70
     1
102
RTVSPost2010Prop51ColorIndex
 90
      256
102
RTVSPost2010Prop51ColorRGB
 90
-16777216
102
RTVSPost2010PropOp51
 70
     0
102
RTVSPost2010Prop52
140
1.0
102
RTVSPost2010PropOp52
 70
     0
102
RTVSPost2010Prop53
 90
        2
102
RTVSPost2010PropOp53
 70
     1
102
RTVSPost2010Prop54
  1
strokes_ogs.tif
102
RTVSPost2010PropOp54
 70
     1
102
RTVSPost2010Prop55
280
     0
102
RTVSPost2010PropOp55
 70
     1
102
RTVSPost2010Prop56
140
1.0
102
RTVSPost2010PropOp56
 70
     1
102
RTVSPost2010Prop57
140
1.0
102
RTVSPost2010PropOp57
 70
     1
  0
XRECORD
  5
1A8
102
{ACAD_REACTORS
330
1A7
102
}
330
1A7
100
AcDbXrecord
280
     1
102
RTVSPost2010Prop28
280
     0
102
RTVSPost2010PropOp28
 70
     1
102
RTVSPost2010Prop29
280
     1
102
RTVSPost2010PropOp29
 70
     1
102
RTVSPost2010Prop30
280
     1
102
RTVSPost2010PropOp30
 70
     1
102
RTVSPost2010Prop31
280
     0
102
RTVSPost2010PropOp31
 70
     1
102
RTVSPost2010Prop32
280
     0
102
RTVSPost2010PropOp32
 70
     1
102
RTVSPost2010Prop33
280
     0
102
RTVSPost2010PropOp33
 70
     1
102
RTVSPost2010Prop34
280
     0
102
RTVSPost2010PropOp34
 70
     1
102
RTVSPost2010Prop35
280
     0
102
RTVSPost2010PropOp35
 70
     1
102
RTVSPost2010Prop36
280
     0
102
RTVSPost2010PropOp36
 70
     1
102
RTVSPost2010Prop37
 90
       50
102
RTVSPost2010PropOp37
 70
     1
102
RTVSPost2010Prop38
140
0.0
102
RTVSPost2010PropOp38
 70
     1
102
RTVSPost2010Prop39
140
1.0
102
RTVSPost2010PropOp39
 70
     1
102
RTVSPost2010Prop40
 90
        0
102
RTVSPost2010PropOp40
 70
     1
102
RTVSPost2010Prop41ColorIndex
 90
       18
102
RTVSPost2010Prop41ColorRGB
 90
        0
102
RTVSPost2010PropOp41
 70
     1
102
RTVSPost2010Prop42
 90
       50
102
RTVSPost2010PropOp42
 70
     1
102
RTVSPost2010Prop43
 90
        3
102
RTVSPost2010PropOp43
 70
     1
102
RTVSPost2010Prop44ColorIndex
 90
        5
102
RTVSPost2010Prop44ColorRGB
 90
      255
102
RTVSPost2010PropOp44
 70
     1
102
RTVSPost2010Prop45
280
     0
102
RTVSPost2010PropOp45
 70
     1
102
RTVSPost2010Prop46
 90
       50
102
RTVSPost2010PropOp46
 70
     1
102
RTVSPost2010Prop47
 90
       50
102
RTVSPost2010PropOp47
 70
     1
102
RTVSPost2010Prop48
 90
       50
102
RTVSPost2010PropOp48
 70
     1
102
RTVSPost2010Prop49
280
     0
102
RTVSPost2010PropOp49
 70
     1
102
RTVSPost2010Prop50
 90
       50
102
RTVSPost2010PropOp50
 70
     1
102
RTVSPost2010Prop51ColorIndex
 90
      256
102
RTVSPost2010Prop51ColorRGB
 90
-16777216
102
RTVSPost2010PropOp51
 70
     0
102
RTVSPost2010Prop52
140
1.0
102
RTVSPost2010PropOp52
 70
     0
102
RTVSPost2010Prop53
 90
        2
102
RTVSPost2010PropOp53
 70
     1
102
RTVSPost2010Prop54
  1
strokes_ogs.tif
102
RTVSPost2010PropOp54
 70
     1
102
RTVSPost2010Prop55
280
     0
102
RTVSPost2010PropOp55
 70
     1
102
RTVSPost2010Prop56
140
1.0
102
RTVSPost2010PropOp56
 70
     1
102
RTVSPost2010Prop57
140
1.0
102
RTVSPost2010PropOp57
 70
     1
  0
ENDSEC
  0
EOF
