  0
SECTION
  2
HEADER
  9
$ACADVER
  1
AC1024
  9
$ACADMAINTVER
 70
   226
  9
$DWGCODEPAGE
  3
ANSI_932
  9
$INSBASE
 10
0.0
 20
0.0
 30
0.0
  9
$EXTMIN
 10
1.000000000000000E+20
 20
1.000000000000000E+20
 30
1.000000000000000E+20
  9
$EXTMAX
 10
-1.000000000000000E+20
 20
-1.000000000000000E+20
 30
-1.000000000000000E+20
  9
$LIMMIN
 10
0.0
 20
0.0
  9
$LIMMAX
 10
12.0
 20
9.0
  9
$ORTHOMODE
 70
     0
  9
$REGENMODE
 70
     1
  9
$FILLMODE
 70
     1
  9
$QTEXTMODE
 70
     0
  9
$MIRRTEXT
 70
     0
  9
$LTSCALE
 40
1.0
  9
$ATTMODE
 70
     1
  9
$TEXTSIZE
 40
0.2
  9
$TRACEWID
 40
0.05
  9
$TEXTSTYLE
  7
Standard
  9
$CLAYER
  8
0
  9
$CELTYPE
  6
ByLayer
  9
$CECOLOR
 62
   256
  9
$CELTSCALE
 40
1.0
  9
$DISPSILH
 70
     0
  9
$DIMSCALE
 40
1.0
  9
$DIMASZ
 40
0.18
  9
$DIMEXO
 40
0.0625
  9
$DIMDLI
 40
0.38
  9
$DIMRND
 40
0.0
  9
$DIMDLE
 40
0.0
  9
$DIMEXE
 40
0.18
  9
$DIMTP
 40
0.0
  9
$DIMTM
 40
0.0
  9
$DIMTXT
 40
0.18
  9
$DIMCEN
 40
0.09
  9
$DIMTSZ
 40
0.0
  9
$DIMTOL
 70
     0
  9
$DIMLIM
 70
     0
  9
$DIMTIH
 70
     1
  9
$DIMTOH
 70
     1
  9
$DIMSE1
 70
     0
  9
$DIMSE2
 70
     0
  9
$DIMTAD
 70
     0
  9
$DIMZIN
 70
     0
  9
$DIMBLK
  1

  9
$DIMASO
 70
     1
  9
$DIMSHO
 70
     1
  9
$DIMPOST
  1

  9
$DIMAPOST
  1

  9
$DIMALT
 70
     0
  9
$DIMALTD
 70
     2
  9
$DIMALTF
 40
25.4
  9
$DIMLFAC
 40
1.0
  9
$DIMTOFL
 70
     0
  9
$DIMTVP
 40
0.0
  9
$DIMTIX
 70
     0
  9
$DIMSOXD
 70
     0
  9
$DIMSAH
 70
     0
  9
$DIMBLK1
  1

  9
$DIMBLK2
  1

  9
$DIMSTYLE
  2
Standard
  9
$DIMCLRD
 70
     0
  9
$DIMCLRE
 70
     0
  9
$DIMCLRT
 70
     0
  9
$DIMTFAC
 40
1.0
  9
$DIMGAP
 40
0.09
  9
$DIMJUST
 70
     0
  9
$DIMSD1
 70
     0
  9
$DIMSD2
 70
     0
  9
$DIMTOLJ
 70
     1
  9
$DIMTZIN
 70
     0
  9
$DIMALTZ
 70
     0
  9
$DIMALTTZ
 70
     0
  9
$DIMUPT
 70
     0
  9
$DIMDEC
 70
     4
  9
$DIMTDEC
 70
     4
  9
$DIMALTU
 70
     2
  9
$DIMALTTD
 70
     2
  9
$DIMTXSTY
  7
Standard
  9
$DIMAUNIT
 70
     0
  9
$DIMADEC
 70
     0
  9
$DIMALTRND
 40
0.0
  9
$DIMAZIN
 70
     0
  9
$DIMDSEP
 70
    46
  9
$DIMATFIT
 70
     3
  9
$DIMFRAC
 70
     0
  9
$DIMLDRBLK
  1

  9
$DIMLUNIT
 70
     2
  9
$DIMLWD
 70
    -2
  9
$DIMLWE
 70
    -2
  9
$DIMTMOVE
 70
     0
  9
$DIMFXL
 40
1.0
  9
$DIMFXLON
 70
     0
  9
$DIMJOGANG
 40
0.7853981633974483
  9
$DIMTFILL
 70
     0
  9
$DIMTFILLCLR
 70
     0
  9
$DIMARCSYM
 70
     0
  9
$DIMLTYPE
  6

  9
$DIMLTEX1
  6

  9
$DIMLTEX2
  6

  9
$DIMTXTDIRECTION
 70
     0
  9
$LUNITS
 70
     2
  9
$LUPREC
 70
     4
  9
$SKETCHINC
 40
0.1
  9
$FILLETRAD
 40
0.0
  9
$AUNITS
 70
     0
  9
$AUPREC
 70
     0
  9
$MENU
  1
.
  9
$ELEVATION
 40
0.0
  9
$PELEVATION
 40
0.0
  9
$THICKNESS
 40
0.0
  9
$LIMCHECK
 70
     0
  9
$CHAMFERA
 40
0.0
  9
$CHAMFERB
 40
0.0
  9
$CHAMFERC
 40
0.0
  9
$CHAMFERD
 40
0.0
  9
$SKPOLY
 70
     0
  9
$TDCREATE
 40
2459569.503425926
  9
$TDUCREATE
 40
2459569.128425926
  9
$TDUPDATE
 40
2459569.503425926
  9
$TDUUPDATE
 40
2459569.128425926
  9
$TDINDWG
 40
0.0000000000
  9
$TDUSRTIMER
 40
0.0000000000
  9
$USRTIMER
 70
     1
  9
$ANGBASE
 50
0.0
  9
$ANGDIR
 70
     0
  9
$PDMODE
 70
     0
  9
$PDSIZE
 40
0.0
  9
$PLINEWID
 40
0.0
  9
$SPLFRAME
 70
     0
  9
$SPLINETYPE
 70
     6
  9
$SPLINESEGS
 70
     8
  9
$HANDSEED
  5
1E0
  9
$SURFTAB1
 70
     6
  9
$SURFTAB2
 70
     6
  9
$SURFTYPE
 70
     6
  9
$SURFU
 70
     6
  9
$SURFV
 70
     6
  9
$UCSBASE
  2

  9
$UCSNAME
  2

  9
$UCSORG
 10
0.0
 20
0.0
 30
0.0
  9
$UCSXDIR
 10
1.0
 20
0.0
 30
0.0
  9
$UCSYDIR
 10
0.0
 20
1.0
 30
0.0
  9
$UCSORTHOREF
  2

  9
$UCSORTHOVIEW
 70
     0
  9
$UCSORGTOP
 10
0.0
 20
0.0
 30
0.0
  9
$UCSORGBOTTOM
 10
0.0
 20
0.0
 30
0.0
  9
$UCSORGLEFT
 10
0.0
 20
0.0
 30
0.0
  9
$UCSORGRIGHT
 10
0.0
 20
0.0
 30
0.0
  9
$UCSORGFRONT
 10
0.0
 20
0.0
 30
0.0
  9
$UCSORGBACK
 10
0.0
 20
0.0
 30
0.0
  9
$PUCSBASE
  2

  9
$PUCSNAME
  2

  9
$PUCSORG
 10
0.0
 20
0.0
 30
0.0
  9
$PUCSXDIR
 10
1.0
 20
0.0
 30
0.0
  9
$PUCSYDIR
 10
0.0
 20
1.0
 30
0.0
  9
$PUCSORTHOREF
  2

  9
$PUCSORTHOVIEW
 70
     0
  9
$PUCSORGTOP
 10
0.0
 20
0.0
 30
0.0
  9
$PUCSORGBOTTOM
 10
0.0
 20
0.0
 30
0.0
  9
$PUCSORGLEFT
 10
0.0
 20
0.0
 30
0.0
  9
$PUCSORGRIGHT
 10
0.0
 20
0.0
 30
0.0
  9
$PUCSORGFRONT
 10
0.0
 20
0.0
 30
0.0
  9
$PUCSORGBACK
 10
0.0
 20
0.0
 30
0.0
  9
$USERI1
 70
     0
  9
$USERI2
 70
     0
  9
$USERI3
 70
     0
  9
$USERI4
 70
     0
  9
$USERI5
 70
     0
  9
$USERR1
 40
0.0
  9
$USERR2
 40
0.0
  9
$USERR3
 40
0.0
  9
$USERR4
 40
0.0
  9
$USERR5
 40
0.0
  9
$WORLDVIEW
 70
     1
  9
$SHADEDGE
 70
     3
  9
$SHADEDIF
 70
    70
  9
$TILEMODE
 70
     1
  9
$MAXACTVP
 70
    64
  9
$PINSBASE
 10
0.0
 20
0.0
 30
0.0
  9
$PLIMCHECK
 70
     0
  9
$PEXTMIN
 10
1.000000000000000E+20
 20
1.000000000000000E+20
 30
1.000000000000000E+20
  9
$PEXTMAX
 10
-1.000000000000000E+20
 20
-1.000000000000000E+20
 30
-1.000000000000000E+20
  9
$PLIMMIN
 10
0.0
 20
0.0
  9
$PLIMMAX
 10
12.0
 20
9.0
  9
$UNITMODE
 70
     0
  9
$VISRETAIN
 70
     1
  9
$PLINEGEN
 70
     0
  9
$PSLTSCALE
 70
     1
  9
$TREEDEPTH
 70
  3020
  9
$CMLSTYLE
  2
Standard
  9
$CMLJUST
 70
     0
  9
$CMLSCALE
 40
1.0
  9
$PROXYGRAPHICS
 70
     1
  9
$MEASUREMENT
 70
     0
  9
$CELWEIGHT
370
    -1
  9
$ENDCAPS
280
     0
  9
$JOINSTYLE
280
     0
  9
$LWDISPLAY
290
     1
  9
$INSUNITS
 70
     4
  9
$HYPERLINKBASE
  1

  9
$STYLESHEET
  1

  9
$XEDIT
290
     1
  9
$CEPSNTYPE
380
     0
  9
$PSTYLEMODE
290
     1
  9
$FINGERPRINTGUID
  2
{3ED51CEE-8F70-454A-824F-C25E9001EDD7}
  9
$VERSIONGUID
  2
{6E590925-1E2D-ED49-8DD0-950C74364C0F}
  9
$EXTNAMES
290
     1
  9
$PSVPSCALE
 40
0.0
  9
$OLESTARTUP
290
     0
  9
$SORTENTS
280
   127
  9
$INDEXCTL
280
     0
  9
$HIDETEXT
280
     1
  9
$XCLIPFRAME
280
     2
  9
$HALOGAP
280
     0
  9
$OBSCOLOR
 70
   257
  9
$OBSLTYPE
280
     0
  9
$INTERSECTIONDISPLAY
280
     0
  9
$INTERSECTIONCOLOR
 70
   257
  9
$DIMASSOC
280
     2
  9
$PROJECTNAME
  1

  9
$CAMERADISPLAY
290
     0
  9
$LENSLENGTH
 40
50.0
  9
$CAMERAHEIGHT
 40
0.0
  9
$STEPSPERSEC
 40
2.0
  9
$STEPSIZE
 40
6.0
  9
$3DDWFPREC
 40
2.0
  9
$PSOLWIDTH
 40
0.25
  9
$PSOLHEIGHT
 40
4.0
  9
$LOFTANG1
 40
1.570796326794896
  9
$LOFTANG2
 40
1.570796326794896
  9
$LOFTMAG1
 40
0.0
  9
$LOFTMAG2
 40
0.0
  9
$LOFTPARAM
 70
     7
  9
$LOFTNORMALS
280
     1
  9
$LATITUDE
 40
37.795
  9
$LONGITUDE
 40
-122.394
  9
$NORTHDIRECTION
 40
0.0
  9
$TIMEZONE
 70
 -8000
  9
$LIGHTGLYPHDISPLAY
280
     1
  9
$TILEMODELIGHTSYNCH
280
     1
  9
$CMATERIAL
347
11
  9
$SOLIDHIST
280
     0
  9
$SHOWHIST
280
     1
  9
$DWFFRAME
280
     2
  9
$DGNFRAME
280
     0
  9
$REALWORLDSCALE
290
     1
  9
$INTERFERECOLOR
 62
     1
  9
$INTERFEREOBJVS
345
33
  9
$INTERFEREVPVS
346
30
  9
$CSHADOW
280
     0
  9
$SHADOWPLANELOCATION
 40
0.0
  0
ENDSEC
  0
SECTION
  2
CLASSES
  0
CLASS
  1
ACDBDICTIONARYWDFLT
  2
AcDbDictionaryWithDefault
  3
ObjectDBX Classes
 90
        0
 91
        1
280
     0
281
     0
  0
CLASS
  1
MATERIAL
  2
AcDbMaterial
  3
ObjectDBX Classes
 90
     1153
 91
        3
280
     0
281
     0
  0
CLASS
  1
VISUALSTYLE
  2
AcDbVisualStyle
  3
ObjectDBX Classes
 90
     4095
 91
       24
280
     0
281
     0
  0
CLASS
  1
SCALE
  2
AcDbScale
  3
ObjectDBX Classes
 90
     1153
 91
       17
280
     0
281
     0
  0
CLASS
  1
TABLESTYLE
  2
AcDbTableStyle
  3
ObjectDBX Classes
 90
     4095
 91
        1
280
     0
281
     0
  0
CLASS
  1
MLEADERSTYLE
  2
AcDbMLeaderStyle
  3
ACDB_MLEADERSTYLE_CLASS
 90
     4095
 91
        1
280
     0
281
     0
  0
CLASS
  1
ACDBSECTIONVIEWSTYLE
  2
AcDbSectionViewStyle
  3
ObjectDBX Classes
 90
     1025
 91
        1
280
     0
281
     0
  0
CLASS
  1
ACDBDETAILVIEWSTYLE
  2
AcDbDetailViewStyle
  3
ObjectDBX Classes
 90
     1025
 91
        1
280
     0
281
     0
  0
CLASS
  1
DICTIONARYVAR
  2
AcDbDictionaryVar
  3
ObjectDBX Classes
 90
        0
 91
        5
280
     0
281
     0
  0
CLASS
  1
CELLSTYLEMAP
  2
AcDbCellStyleMap
  3
ObjectDBX Classes
 90
     1152
 91
        1
280
     0
281
     0
  0
ENDSEC
  0
SECTION
  2
TABLES
  0
TABLE
  2
VPORT
  5
8
330
0
100
AcDbSymbolTable
 70
     1
  0
VPORT
  5
57
330
8
100
AcDbSymbolTableRecord
100
AcDbViewportTableRecord
  2
*Active
 70
     0
 10
0.0
 20
0.0
 11
1.0
 21
1.0
 12
0.0
 22
0.0
 13
0.0
 23
0.0
 14
1.0
 24
1.0
 15
0.0
 25
0.0
 16
0.0
 26
0.0
 36
1.0
 17
104.9999999737534
 27
-148.4999999628701
 37
0.0
 40
302.939999924255
 41
0.7070707070707534
 42
50.0
 43
0.0
 44
0.0
 50
0.0
 51
0.0
 71
     0
 72
   100
 73
     1
 74
     0
 75
     1
 76
     0
 77
     0
 78
     0
281
     0
 65
     1
110
0.0
120
0.0
130
0.0
111
1.0
121
0.0
131
0.0
112
0.0
122
1.0
132
0.0
 79
     0
146
0.0
 60
     3
 61
     5
292
     1
282
     1
141
0.0
142
0.0
 63
   250
421
  3355443
  0
ENDTAB
  0
TABLE
  2
LTYPE
  5
5
330
0
100
AcDbSymbolTable
 70
     3
  0
LTYPE
  5
5B
330
5
100
AcDbSymbolTableRecord
100
AcDbLinetypeTableRecord
  2
ByBlock
 70
     0
  3

 72
    65
 73
     0
 40
0.0
  0
LTYPE
  5
5C
330
5
100
AcDbSymbolTableRecord
100
AcDbLinetypeTableRecord
  2
ByLayer
 70
     0
  3

 72
    65
 73
     0
 40
0.0
  0
LTYPE
  5
5D
330
5
100
AcDbSymbolTableRecord
100
AcDbLinetypeTableRecord
  2
Continuous
 70
     0
  3
Solid line
 72
    65
 73
     0
 40
0.0
  0
LTYPE
  5
B4
330
5
100
AcDbSymbolTableRecord
100
AcDbLinetypeTableRecord
  2
AI-Linetype-0
 70
     0
  3
Adobe Illustrator Linetype No. 0
 72
    65
 73
     2
 40
1.411111110758333
 49
0.7055555553791667
 74
     0
 49
-0.7055555553791667
 74
     0
  0
LTYPE
  5
B6
330
5
100
AcDbSymbolTableRecord
100
AcDbLinetypeTableRecord
  2
AI-Linetype-1
 70
     0
  3
Adobe Illustrator Linetype No. 1
 72
    65
 73
     2
 40
1.411111110758333
 49
0.7055555553791667
 74
     0
 49
-0.7055555553791667
 74
     0
  0
ENDTAB
  0
TABLE
  2
LAYER
  5
2
330
0
100
AcDbSymbolTable
 70
     2
  0
LAYER
  5
54
330
2
100
AcDbSymbolTableRecord
100
AcDbLayerTableRecord
  2
0
 70
     0
 62
     7
  6
Continuous
370
    -3
390
F
347
21
  0
LAYER
  5
78
330
2
100
AcDbSymbolTableRecord
100
AcDbLayerTableRecord
  2
レイヤー 1
 70
     0
 62
     7
  6
Continuous
370
     0
390
F
347
21
  0
ENDTAB
  0
TABLE
  2
STYLE
  5
3
330
0
100
AcDbSymbolTable
 70
     2
  0
STYLE
  5
55
330
3
100
AcDbSymbolTableRecord
100
AcDbTextStyleTableRecord
  2
Standard
 70
     0
 40
0.0
 41
1.0
 50
0.0
 71
     0
 42
0.2
  3
txt
  4

  0
STYLE
  5
5A
330
3
100
AcDbSymbolTableRecord
100
AcDbTextStyleTableRecord
  2
Annotative
 70
     0
 40
0.0
 41
1.0
 50
0.0
 71
     0
 42
0.2
  3
txt
  4

1001
AcadAnnotative
1000
AnnotativeData
1002
{
1070
     1
1070
     1
1002
}
  0
ENDTAB
  0
TABLE
  2
VIEW
  5
6
330
0
100
AcDbSymbolTable
 70
     0
  0
ENDTAB
  0
TABLE
  2
UCS
  5
7
330
0
100
AcDbSymbolTable
 70
     0
  0
ENDTAB
  0
TABLE
  2
APPID
  5
9
330
0
100
AcDbSymbolTable
 70
     2
  0
APPID
  5
56
330
9
100
AcDbSymbolTableRecord
100
AcDbRegAppTableRecord
  2
ACAD
 70
     0
  0
APPID
  5
5E
330
9
100
AcDbSymbolTableRecord
100
AcDbRegAppTableRecord
  2
AcadAnnotative
 70
     0
  0
ENDTAB
  0
TABLE
  2
DIMSTYLE
  5
A
330
0
100
AcDbSymbolTable
 70
     2
100
AcDbDimStyleTable
 71
     0
  0
DIMSTYLE
105
58
330
A
100
AcDbSymbolTableRecord
100
AcDbDimStyleTableRecord
  2
Standard
 70
     0
340
55
  0
DIMSTYLE
105
59
330
A
100
AcDbSymbolTableRecord
100
AcDbDimStyleTableRecord
  2
Annotative
 70
     0
340
55
1001
AcadAnnotative
1000
AnnotativeData
1002
{
1070
     1
1070
     1
1002
}
  0
ENDTAB
  0
TABLE
  2
BLOCK_RECORD
  5
1
330
0
100
AcDbSymbolTable
 70
    18
  0
BLOCK_RECORD
  5
70
330
1
100
AcDbSymbolTableRecord
100
AcDbBlockTableRecord
  2
*Model_Space
340
73
 70
     0
280
     1
281
     0
  0
BLOCK_RECORD
  5
6C
330
1
100
AcDbSymbolTableRecord
100
AcDbBlockTableRecord
  2
*Paper_Space
340
6F
 70
     0
280
     1
281
     0
  0
BLOCK_RECORD
  5
74
330
1
100
AcDbSymbolTableRecord
100
AcDbBlockTableRecord
  2
*Paper_Space0
340
77
 70
     0
280
     1
281
     0
  0
BLOCK_RECORD
  5
79
330
1
100
AcDbSymbolTableRecord
100
AcDbBlockTableRecord
  2
Block_0
340
0
102
{BLKREFS
331
7A
102
}
 70
     0
280
     1
281
     0
  0
BLOCK_RECORD
  5
11E
330
1
100
AcDbSymbolTableRecord
100
AcDbBlockTableRecord
  2
Block_1
340
0
102
{BLKREFS
331
11F
102
}
 70
     0
280
     1
281
     0
  0
BLOCK_RECORD
  5
122
330
1
100
AcDbSymbolTableRecord
100
AcDbBlockTableRecord
  2
Block_2
340
0
102
{BLKREFS
331
123
102
}
 70
     0
280
     1
281
     0
  0
BLOCK_RECORD
  5
12F
330
1
100
AcDbSymbolTableRecord
100
AcDbBlockTableRecord
  2
Block_3
340
0
102
{BLKREFS
331
130
102
}
 70
     0
280
     1
281
     0
  0
BLOCK_RECORD
  5
133
330
1
100
AcDbSymbolTableRecord
100
AcDbBlockTableRecord
  2
Block_4
340
0
102
{BLKREFS
331
134
102
}
 70
     0
280
     1
281
     0
  0
BLOCK_RECORD
  5
13D
330
1
100
AcDbSymbolTableRecord
100
AcDbBlockTableRecord
  2
Block_5
340
0
102
{BLKREFS
331
13E
102
}
 70
     0
280
     1
281
     0
  0
BLOCK_RECORD
  5
147
330
1
100
AcDbSymbolTableRecord
100
AcDbBlockTableRecord
  2
Block_6
340
0
102
{BLKREFS
331
148
102
}
 70
     0
280
     1
281
     0
  0
BLOCK_RECORD
  5
14B
330
1
100
AcDbSymbolTableRecord
100
AcDbBlockTableRecord
  2
Block_7
340
0
102
{BLKREFS
331
14C
102
}
 70
     0
280
     1
281
     0
  0
BLOCK_RECORD
  5
156
330
1
100
AcDbSymbolTableRecord
100
AcDbBlockTableRecord
  2
Block_8
340
0
102
{BLKREFS
331
157
102
}
 70
     0
280
     1
281
     0
  0
BLOCK_RECORD
  5
15A
330
1
100
AcDbSymbolTableRecord
100
AcDbBlockTableRecord
  2
Block_9
340
0
102
{BLKREFS
331
15B
102
}
 70
     0
280
     1
281
     0
  0
BLOCK_RECORD
  5
168
330
1
100
AcDbSymbolTableRecord
100
AcDbBlockTableRecord
  2
Block_10
340
0
102
{BLKREFS
331
169
102
}
 70
     0
280
     1
281
     0
  0
BLOCK_RECORD
  5
16C
330
1
100
AcDbSymbolTableRecord
100
AcDbBlockTableRecord
  2
Block_11
340
0
102
{BLKREFS
331
16D
102
}
 70
     0
280
     1
281
     0
  0
BLOCK_RECORD
  5
175
330
1
100
AcDbSymbolTableRecord
100
AcDbBlockTableRecord
  2
Block_12
340
0
102
{BLKREFS
331
176
102
}
 70
     0
280
     1
281
     0
  0
BLOCK_RECORD
  5
17B
330
1
100
AcDbSymbolTableRecord
100
AcDbBlockTableRecord
  2
Block_13
340
0
102
{BLKREFS
331
17C
102
}
 70
     0
280
     1
281
     0
  0
BLOCK_RECORD
  5
17F
330
1
100
AcDbSymbolTableRecord
100
AcDbBlockTableRecord
  2
Block_14
340
0
102
{BLKREFS
331
180
102
}
 70
     0
280
     1
281
     0
  0
BLOCK_RECORD
  5
186
330
1
100
AcDbSymbolTableRecord
100
AcDbBlockTableRecord
  2
Block_15
340
0
102
{BLKREFS
331
187
102
}
 70
     0
280
     1
281
     0
  0
BLOCK_RECORD
  5
18A
330
1
100
AcDbSymbolTableRecord
100
AcDbBlockTableRecord
  2
Block_16
340
0
102
{BLKREFS
331
18B
102
}
 70
     0
280
     1
281
     0
  0
ENDTAB
  0
ENDSEC
  0
SECTION
  2
BLOCKS
  0
BLOCK
  5
71
330
70
100
AcDbEntity
  8
0
100
AcDbBlockBegin
  2
*Model_Space
 70
     0
 10
0.0
 20
0.0
 30
0.0
  3
*Model_Space
  1

  0
ENDBLK
  5
72
330
70
100
AcDbEntity
  8
0
100
AcDbBlockEnd
  0
BLOCK
  5
6D
330
6C
100
AcDbEntity
 67
     1
  8
0
100
AcDbBlockBegin
  2
*Paper_Space
 70
     0
 10
0.0
 20
0.0
 30
0.0
  3
*Paper_Space
  1

  0
ENDBLK
  5
6E
330
6C
100
AcDbEntity
 67
     1
  8
0
100
AcDbBlockEnd
  0
BLOCK
  5
75
330
74
100
AcDbEntity
 67
     1
  8
0
100
AcDbBlockBegin
  2
*Paper_Space0
 70
     0
 10
0.0
 20
0.0
 30
0.0
  3
*Paper_Space0
  1

  0
ENDBLK
  5
76
330
74
100
AcDbEntity
 67
     1
  8
0
100
AcDbBlockEnd
  0
BLOCK
  5
7B
330
79
100
AcDbEntity
  8
0
100
AcDbBlockBegin
  2
Block_0
 70
     0
 10
0.0
 20
0.0
 30
0.0
  3
Block_0
  1

  0
SPLINE
  5
7D
330
79
100
AcDbEntity
  8
レイヤー 1
 62
   250
420
  2299925
370
     9
100
AcDbSpline
210
0.0
220
0.0
230
1.0
 70
     8
 71
     3
 72
     8
 73
     4
 74
     0
 42
0.0000000001
 43
0.0000000001
 40
0.0
 40
0.0
 40
0.0
 40
0.0
 40
1.0
 40
1.0
 40
1.0
 40
1.0
 10
133.7902915882593
 20
-150.5244374755116
 30
0.0
 10
133.7902915882593
 20
-150.5244374755116
 30
0.0
 10
133.086464661771
 20
-150.0493869200745
 30
0.0
 10
132.9724116091252
 20
-150.4672521977476
 30
0.0
  0
SPLINE
  5
7E
330
79
100
AcDbEntity
  8
レイヤー 1
 62
   250
420
  2299925
370
     9
100
AcDbSpline
210
0.0
220
0.0
230
1.0
 70
     8
 71
     3
 72
    26
 73
    22
 74
     0
 42
0.0000000001
 43
0.0000000001
 40
0.0
 40
0.0
 40
0.0
 40
0.0
 40
1.0
 40
1.0
 40
1.0
 40
2.0
 40
2.0
 40
2.0
 40
3.0
 40
3.0
 40
3.0
 40
4.0
 40
4.0
 40
4.0
 40
5.0
 40
5.0
 40
5.0
 40
6.0
 40
6.0
 40
6.0
 40
7.0
 40
7.0
 40
7.0
 40
7.0
 10
134.3225626857911
 20
-143.5102274772647
 30
0.0
 10
134.3225626857911
 20
-143.5102274772647
 30
0.0
 10
125.7304837383266
 20
-146.5329685876202
 30
0.0
 10
125.7304837383266
 20
-146.5329685876202
 30
0.0
 10
125.7304837383266
 20
-146.5329685876202
 30
0.0
 10
124.3620940510149
 20
-146.7985749764425
 30
0.0
 10
124.8750682045945
 20
-147.2550694207727
 30
0.0
 10
124.8750682045945
 20
-147.2550694207727
 30
0.0
 10
125.1792684746115
 20
-147.4448638651699
 30
0.0
 10
125.711892349912
 20
-147.6543433095619
 30
0.0
 10
125.711892349912
 20
-147.6543433095619
 30
0.0
 10
130.7486063880814
 20
-149.6883188646095
 30
0.0
 10
130.7486063880814
 20
-149.6883188646095
 30
0.0
 10
130.7486063880814
 20
-149.6883188646095
 30
0.0
 10
130.7107180557146
 20
-152.7479252527326
 30
0.0
 10
130.7107180557146
 20
-152.7479252527326
 30
0.0
 10
130.7107180557146
 20
-152.7479252527326
 30
0.0
 10
133.3530940994132
 20
-154.0219116413032
 30
0.0
 10
133.3530940994132
 20
-154.0219116413032
 30
0.0
 10
133.3530940994132
 20
-154.0219116413032
 30
0.0
 10
137.0593420604144
 20
-152.4440424750316
 30
0.0
 10
137.0593420604144
 20
-152.4440424750316
 30
0.0
  0
LINE
  5
7F
330
79
100
AcDbEntity
  8
レイヤー 1
 62
   250
420
  2299925
370
     9
100
AcDbLine
 10
133.0482235516355
 20
-150.3342902533367
 30
0.0
 11
142.3434238700507
 21
-146.34243330989
 31
0.0
  0
SPLINE
  5
80
330
79
100
AcDbEntity
  8
レイヤー 1
 62
   250
420
  2299925
370
     9
100
AcDbSpline
210
0.0
220
0.0
230
1.0
 70
     8
 71
     3
 72
    26
 73
    22
 74
     0
 42
0.0000000001
 43
0.0000000001
 40
0.0
 40
0.0
 40
0.0
 40
0.0
 40
1.0
 40
1.0
 40
1.0
 40
2.0
 40
2.0
 40
2.0
 40
3.0
 40
3.0
 40
3.0
 40
4.0
 40
4.0
 40
4.0
 40
5.0
 40
5.0
 40
5.0
 40
6.0
 40
6.0
 40
6.0
 40
7.0
 40
7.0
 40
7.0
 40
7.0
 10
134.4169660167159
 20
-143.6811130327776
 30
0.0
 10
134.4169660167159
 20
-143.6811130327776
 30
0.0
 10
125.5217098547639
 20
-146.7985749764425
 30
0.0
 10
125.5217098547639
 20
-146.7985749764425
 30
0.0
 10
125.5217098547639
 20
-146.7985749764425
 30
0.0
 10
125.0466240335511
 20
-146.8747044208679
 30
0.0
 10
125.0845476436947
 20
-147.0455899763808
 30
0.0
 10
125.0845476436947
 20
-147.0455899763808
 30
0.0
 10
125.0656034775113
 20
-147.1217194208062
 30
0.0
 10
125.3698037475283
 20
-147.2168283096715
 30
0.0
 10
125.3698037475283
 20
-147.2168283096715
 30
0.0
 10
131.0524891581064
 20
-149.4595777535549
 30
0.0
 10
131.0524891581064
 20
-149.4595777535549
 30
0.0
 10
131.0524891581064
 20
-149.4595777535549
 30
0.0
 10
131.0524891581064
 20
-152.4254510861473
 30
0.0
 10
131.0524891581064
 20
-152.4254510861473
 30
0.0
 10
131.0524891581064
 20
-152.4254510861473
 30
0.0
 10
132.858746612025
 20
-153.2805138637114
 30
0.0
 10
132.858746612025
 20
-153.2805138637114
 30
0.0
 10
132.858746612025
 20
-153.2805138637114
 30
0.0
 10
132.9913910530854
 20
-150.4672521977476
 30
0.0
 10
132.9913910530854
 20
-150.4672521977476
 30
0.0
  0
LINE
  5
81
330
79
100
AcDbEntity
  8
レイヤー 1
 62
   250
420
  2299925
370
     9
100
AcDbLine
 10
140.3673391982426
 20
-145.7340327544867
 30
0.0
 11
131.0524891581064
 21
-149.5171158090966
 31
0.0
  0
SPLINE
  5
82
330
79
100
AcDbEntity
  8
レイヤー 1
 62
   250
420
  2299925
370
     9
100
AcDbSpline
210
0.0
220
0.0
230
1.0
 70
     8
 71
     3
 72
    20
 73
    16
 74
     0
 42
0.0000000001
 43
0.0000000001
 40
0.0
 40
0.0
 40
0.0
 40
0.0
 40
1.0
 40
1.0
 40
1.0
 40
2.0
 40
2.0
 40
2.0
 40
3.0
 40
3.0
 40
3.0
 40
4.0
 40
4.0
 40
4.0
 40
5.0
 40
5.0
 40
5.0
 40
5.0
 10
133.3530940994132
 20
-154.0219116413032
 30
0.0
 10
133.3530940994132
 20
-154.0219116413032
 30
0.0
 10
133.3530940994132
 20
-151.094596919813
 30
0.0
 10
133.3530940994132
 20
-151.094596919813
 30
0.0
 10
133.3530940994132
 20
-151.094596919813
 30
0.0
 10
133.3530940994132
 20
-150.7528610865653
 30
0.0
 10
133.5811690215697
 20
-150.8858230309762
 30
0.0
 10
133.5811690215697
 20
-150.8858230309762
 30
0.0
 10
138.8463025703808
 20
-153.1854402526233
 30
0.0
 10
138.8463025703808
 20
-153.1854402526233
 30
0.0
 10
138.8463025703808
 20
-153.1854402526233
 30
0.0
 10
139.5873475514752
 20
-153.6418994191761
 30
0.0
 10
140.2901514224341
 20
-153.432455252562
 30
0.0
 10
140.2901514224341
 20
-153.432455252562
 30
0.0
 10
149.8334250678538
 20
-149.3837658091297
 30
0.0
 10
149.8334250678538
 20
-149.3837658091297
 30
0.0
  0
SPLINE
  5
83
330
79
100
AcDbEntity
  8
レイヤー 1
 62
   250
420
  2299925
370
     9
100
AcDbSpline
210
0.0
220
0.0
230
1.0
 70
     8
 71
     3
 72
    20
 73
    16
 74
     0
 42
0.0000000001
 43
0.0000000001
 40
0.0
 40
0.0
 40
0.0
 40
0.0
 40
1.0
 40
1.0
 40
1.0
 40
2.0
 40
2.0
 40
2.0
 40
3.0
 40
3.0
 40
3.0
 40
4.0
 40
4.0
 40
4.0
 40
5.0
 40
5.0
 40
5.0
 40
5.0
 10
133.523979650609
 20
-150.3911227533222
 30
0.0
 10
133.523979650609
 20
-150.3911227533222
 30
0.0
 10
137.0407506719998
 20
-152.0068802529187
 30
0.0
 10
137.2123106873291
 20
-152.1023066417832
 30
0.0
 10
137.2123106873291
 20
-152.1023066417832
 30
0.0
 10
139.3592767239604
 20
-153.1096635859764
 30
0.0
 10
139.3592767239604
 20
-153.1096635859764
 30
0.0
 10
139.3592767239604
 20
-153.1096635859764
 30
0.0
 10
139.777882824392
 20
-153.4521049747789
 30
0.0
 10
140.6901308566742
 20
-152.9956105304493
 30
0.0
 10
140.6901308566742
 20
-152.9956105304493
 30
0.0
 10
147.9895967815604
 20
-149.8213160867979
 30
0.0
 10
147.9895967815604
 20
-149.8213160867979
 30
0.0
 10
147.9895967815604
 20
-149.8213160867979
 30
0.0
 10
149.6432425727057
 20
-149.1174538647519
 30
0.0
 10
149.6432425727057
 20
-149.1174538647519
 30
0.0
  0
LINE
  5
84
330
79
100
AcDbEntity
  8
レイヤー 1
 62
   250
420
  2299925
370
     9
100
AcDbLine
 10
131.0524891581064
 20
-152.4254510861473
 30
0.0
 11
132.8969877221605
 21
-151.7595124752022
 31
0.0
  0
SPLINE
  5
85
330
79
100
AcDbEntity
  8
レイヤー 1
 62
   250
420
  2299925
370
     9
100
AcDbSpline
210
0.0
220
0.0
230
1.0
 70
     9
 71
     3
 72
    17
 73
    13
 74
     0
 42
0.0000000001
 43
0.0000000001
 40
0.0
 40
0.0
 40
0.0
 40
0.0
 40
1.0
 40
1.0
 40
1.0
 40
2.0
 40
2.0
 40
2.0
 40
3.0
 40
3.0
 40
3.0
 40
4.0
 40
4.0
 40
4.0
 40
4.0
 10
137.647069823198
 20
-145.5152752545413
 30
0.0
 10
137.647069823198
 20
-145.7502252544823
 30
0.0
 10
137.3184220538048
 20
-145.9410780322124
 30
0.0
 10
136.9139623419011
 20
-145.9410780322124
 30
0.0
 10
136.5074606875054
 20
-145.9410780322124
 30
0.0
 10
136.179796527298
 20
-145.7502252544823
 30
0.0
 10
136.179796527298
 20
-145.5152752545413
 30
0.0
 10
136.179796527298
 20
-145.2799724768222
 30
0.0
 10
136.5074606875054
 20
-145.0901427546476
 30
0.0
 10
136.9139623419011
 20
-145.0901427546476
 30
0.0
 10
137.3184220538048
 20
-145.0901427546476
 30
0.0
 10
137.647069823198
 20
-145.2799724768222
 30
0.0
 10
137.647069823198
 20
-145.5152752545413
 30
0.0
  0
SPLINE
  5
86
330
79
100
AcDbEntity
  8
レイヤー 1
 62
   250
420
  2299925
370
     9
100
AcDbSpline
210
0.0
220
0.0
230
1.0
 70
     8
 71
     3
 72
    11
 73
     7
 74
     0
 42
0.0000000001
 43
0.0000000001
 40
0.0
 40
0.0
 40
0.0
 40
0.0
 40
1.0
 40
1.0
 40
1.0
 40
2.0
 40
2.0
 40
2.0
 40
2.0
 10
136.3072904129342
 20
-145.749554976705
 30
0.0
 10
136.3072904129342
 20
-145.749554976705
 30
0.0
 10
136.2852418023856
 20
-145.2383094212772
 30
0.0
 10
137.115151503435
 20
-145.2817010879329
 30
0.0
 10
137.115151503435
 20
-145.2817010879329
 30
0.0
 10
137.6040309354071
 20
-145.3450952545836
 30
0.0
 10
137.5196112153386
 20
-145.7281766433767
 30
0.0
  0
SPLINE
  5
87
330
79
100
AcDbEntity
  8
レイヤー 1
 62
   250
420
  2299925
370
     9
100
AcDbSpline
210
0.0
220
0.0
230
1.0
 70
    11
 71
     3
 72
    17
 73
    13
 74
     0
 42
0.0000000001
 43
0.0000000001
 40
0.0
 40
0.0
 40
0.0
 40
0.0
 40
1.0
 40
1.0
 40
1.0
 40
2.0
 40
2.0
 40
2.0
 40
3.0
 40
3.0
 40
3.0
 40
4.0
 40
4.0
 40
4.0
 40
4.0
 10
137.4107439958939
 20
-144.434893310367
 30
0.0
 10
137.4107439958939
 20
-144.669843310308
 30
0.0
 10
137.0817434487318
 20
-144.8606960880381
 30
0.0
 10
136.6772837368282
 20
-144.8606960880381
 30
0.0
 10
136.2714523542305
 20
-144.8606960880381
 30
0.0
 10
135.9434706999938
 20
-144.669843310308
 30
0.0
 10
135.9434706999938
 20
-144.434893310367
 30
0.0
 10
135.9434706999938
 20
-144.1999433104257
 30
0.0
 10
136.2714523542305
 20
-144.0090905326955
 30
0.0
 10
136.6772837368282
 20
-144.0090905326955
 30
0.0
 10
137.0817434487318
 20
-144.0090905326955
 30
0.0
 10
137.4107439958939
 20
-144.1999433104257
 30
0.0
 10
137.4107439958939
 20
-144.434893310367
 30
0.0
  0
SPLINE
  5
88
330
79
100
AcDbEntity
  8
レイヤー 1
 62
   250
420
  2299925
370
     9
100
AcDbSpline
210
0.0
220
0.0
230
1.0
 70
     8
 71
     3
 72
    11
 73
     7
 74
     0
 42
0.0000000001
 43
0.0000000001
 40
0.0
 40
0.0
 40
0.0
 40
0.0
 40
1.0
 40
1.0
 40
1.0
 40
2.0
 40
2.0
 40
2.0
 40
2.0
 10
136.0709293078532
 20
-144.6684674769751
 30
0.0
 10
136.0709293078532
 20
-144.6684674769751
 30
0.0
 10
136.0495862528421
 20
-144.1575746993254
 30
0.0
 10
136.8791784538997
 20
-144.2009663659808
 30
0.0
 10
136.8791784538997
 20
-144.2009663659808
 30
0.0
 10
137.3680226080949
 20
-144.2640077548544
 30
0.0
 10
137.2832853880345
 20
-144.6477946992024
 30
0.0
  0
SPLINE
  5
89
330
79
100
AcDbEntity
  8
レイヤー 1
 62
   250
420
  2299925
370
     9
100
AcDbSpline
210
0.0
220
0.0
230
1.0
 70
     9
 71
     3
 72
    17
 73
    13
 74
     0
 42
0.0000000001
 43
0.0000000001
 40
0.0
 40
0.0
 40
0.0
 40
0.0
 40
1.0
 40
1.0
 40
1.0
 40
2.0
 40
2.0
 40
2.0
 40
3.0
 40
3.0
 40
3.0
 40
4.0
 40
4.0
 40
4.0
 40
4.0
 10
127.753805353374
 20
-147.0345833097168
 30
0.0
 10
127.753805353374
 20
-147.2695333096581
 30
0.0
 10
127.4251223062039
 20
-147.4600333096105
 30
0.0
 10
127.0203450943084
 20
-147.4600333096105
 30
0.0
 10
126.6148662455337
 20
-147.4600333096105
 30
0.0
 10
126.2865320574739
 20
-147.2695333096581
 30
0.0
 10
126.2865320574739
 20
-147.0345833097168
 30
0.0
 10
126.2865320574739
 20
-146.7995980319982
 30
0.0
 10
126.6148662455337
 20
-146.6087452542678
 30
0.0
 10
127.0203450943084
 20
-146.6087452542678
 30
0.0
 10
127.4251223062039
 20
-146.6087452542678
 30
0.0
 10
127.753805353374
 20
-146.7995980319982
 30
0.0
 10
127.753805353374
 20
-147.0345833097168
 30
0.0
  0
SPLINE
  5
8A
330
79
100
AcDbEntity
  8
レイヤー 1
 62
   250
420
  2299925
370
     9
100
AcDbSpline
210
0.0
220
0.0
230
1.0
 70
     8
 71
     3
 72
    11
 73
     7
 74
     0
 42
0.0000000001
 43
0.0000000001
 40
0.0
 40
0.0
 40
0.0
 40
0.0
 40
1.0
 40
1.0
 40
1.0
 40
2.0
 40
2.0
 40
2.0
 40
2.0
 10
126.4146962208709
 20
-147.2684749763251
 30
0.0
 10
126.4146962208709
 20
-147.2684749763251
 30
0.0
 10
126.3926476103222
 20
-146.7575821986751
 30
0.0
 10
127.2222045336029
 20
-146.8006563653309
 30
0.0
 10
127.2222045336029
 20
-146.8006563653309
 30
0.0
 10
127.711083965575
 20
-146.8643680319818
 30
0.0
 10
127.6266642455065
 20
-147.2474846985525
 30
0.0
  0
SPLINE
  5
8B
330
79
100
AcDbEntity
  8
レイヤー 1
 62
   250
420
  2299925
370
     9
100
AcDbSpline
210
0.0
220
0.0
230
1.0
 70
     9
 71
     3
 72
    17
 73
    13
 74
     0
 42
0.0000000001
 43
0.0000000001
 40
0.0
 40
0.0
 40
0.0
 40
0.0
 40
1.0
 40
1.0
 40
1.0
 40
2.0
 40
2.0
 40
2.0
 40
3.0
 40
3.0
 40
3.0
 40
4.0
 40
4.0
 40
4.0
 40
4.0
 10
135.452192379194
 20
-146.5956571987157
 30
0.0
 10
135.452192379194
 20
-146.8306071986567
 30
0.0
 10
135.1221687765025
 20
-147.0214599763868
 30
0.0
 10
134.7180618423677
 20
-147.0214599763868
 30
0.0
 10
134.3132493526953
 20
-147.0214599763868
 30
0.0
 10
133.9849543610708
 20
-146.8306071986567
 30
0.0
 10
133.9849543610708
 20
-146.5956571987157
 30
0.0
 10
133.9849543610708
 20
-146.3610599765521
 30
0.0
 10
134.3132493526953
 20
-146.1705246988219
 30
0.0
 10
134.7180618423677
 20
-146.1705246988219
 30
0.0
 10
135.1221687765025
 20
-146.1705246988219
 30
0.0
 10
135.452192379194
 20
-146.3610599765521
 30
0.0
 10
135.452192379194
 20
-146.5956571987157
 30
0.0
  0
SPLINE
  5
8C
330
79
100
AcDbEntity
  8
レイヤー 1
 62
   250
420
  2299925
370
     9
100
AcDbSpline
210
0.0
220
0.0
230
1.0
 70
     8
 71
     3
 72
    11
 73
     7
 74
     0
 42
0.0000000001
 43
0.0000000001
 40
0.0
 40
0.0
 40
0.0
 40
0.0
 40
1.0
 40
1.0
 40
1.0
 40
2.0
 40
2.0
 40
2.0
 40
2.0
 10
134.1120601911614
 20
-146.8299369208793
 30
0.0
 10
134.1120601911614
 20
-146.8299369208793
 30
0.0
 10
134.0910346361423
 20
-146.3186913654515
 30
0.0
 10
134.9202740594311
 20
-146.3620830321072
 30
0.0
 10
134.9202740594311
 20
-146.3620830321072
 30
0.0
 10
135.409470991395
 20
-146.4254771987579
 30
0.0
 10
135.324063493574
 20
-146.8085585875511
 30
0.0
  0
SPLINE
  5
8D
330
79
100
AcDbEntity
  8
レイヤー 1
 62
   250
420
  2299925
370
     9
100
AcDbSpline
210
0.0
220
0.0
230
1.0
 70
     9
 71
     3
 72
    17
 73
    13
 74
     0
 42
0.0000000001
 43
0.0000000001
 40
0.0
 40
0.0
 40
0.0
 40
0.0
 40
1.0
 40
1.0
 40
1.0
 40
2.0
 40
2.0
 40
2.0
 40
3.0
 40
3.0
 40
3.0
 40
4.0
 40
4.0
 40
4.0
 40
4.0
 10
135.2151962741292
 20
-145.5152752545413
 30
0.0
 10
135.2151962741292
 20
-145.7502252544823
 30
0.0
 10
134.886513226959
 20
-145.9410780322124
 30
0.0
 10
134.4817360150635
 20
-145.9410780322124
 30
0.0
 10
134.0769235253912
 20
-145.9410780322124
 30
0.0
 10
133.7479229782291
 20
-145.7502252544823
 30
0.0
 10
133.7479229782291
 20
-145.5152752545413
 30
0.0
 10
133.7479229782291
 20
-145.2799724768222
 30
0.0
 10
134.0769235253912
 20
-145.0901427546476
 30
0.0
 10
134.4817360150635
 20
-145.0901427546476
 30
0.0
 10
134.886513226959
 20
-145.0901427546476
 30
0.0
 10
135.2151962741292
 20
-145.2799724768222
 30
0.0
 10
135.2151962741292
 20
-145.5152752545413
 30
0.0
  0
SPLINE
  5
8E
330
79
100
AcDbEntity
  8
レイヤー 1
 62
   250
420
  2299925
370
     9
100
AcDbSpline
210
0.0
220
0.0
230
1.0
 70
     8
 71
     3
 72
    11
 73
     7
 74
     0
 42
0.0000000001
 43
0.0000000001
 40
0.0
 40
0.0
 40
0.0
 40
0.0
 40
1.0
 40
1.0
 40
1.0
 40
2.0
 40
2.0
 40
2.0
 40
2.0
 10
133.8764046416179
 20
-145.749554976705
 30
0.0
 10
133.8764046416179
 20
-145.749554976705
 30
0.0
 10
133.8547088088381
 20
-145.2383094212772
 30
0.0
 10
134.6835995768496
 20
-145.2817010879329
 30
0.0
 10
134.6835995768496
 20
-145.2817010879329
 30
0.0
 10
135.172827664099
 20
-145.3450952545836
 30
0.0
 10
135.0880551662617
 20
-145.7281766433767
 30
0.0
  0
SPLINE
  5
8F
330
79
100
AcDbEntity
  8
レイヤー 1
 62
   250
420
  2299925
370
     9
100
AcDbSpline
210
0.0
220
0.0
230
1.0
 70
    11
 71
     3
 72
    17
 73
    13
 74
     0
 42
0.0000000001
 43
0.0000000001
 40
0.0
 40
0.0
 40
0.0
 40
0.0
 40
1.0
 40
1.0
 40
1.0
 40
2.0
 40
2.0
 40
2.0
 40
3.0
 40
3.0
 40
3.0
 40
4.0
 40
4.0
 40
4.0
 40
4.0
 10
134.6756932323375
 20
-144.5699366436663
 30
0.0
 10
134.6756932323375
 20
-144.8048866436077
 30
0.0
 10
134.346344021379
 20
-144.9957746991156
 30
0.0
 10
133.9422329732719
 20
-144.9957746991156
 30
0.0
 10
133.5367502058388
 20
-144.9957746991156
 30
0.0
 10
133.2077143808999
 20
-144.8048866436077
 30
0.0
 10
133.2077143808999
 20
-144.5699366436663
 30
0.0
 10
133.2077143808999
 20
-144.334986643725
 30
0.0
 10
133.5367502058388
 20
-144.1444866437726
 30
0.0
 10
133.9422329732719
 20
-144.1444866437726
 30
0.0
 10
134.346344021379
 20
-144.1444866437726
 30
0.0
 10
134.6756932323375
 20
-144.334986643725
 30
0.0
 10
134.6756932323375
 20
-144.5699366436663
 30
0.0
  0
SPLINE
  5
90
330
79
100
AcDbEntity
  8
レイヤー 1
 62
   250
420
  2299925
370
     9
100
AcDbSpline
210
0.0
220
0.0
230
1.0
 70
     8
 71
     3
 72
    11
 73
     7
 74
     0
 42
0.0000000001
 43
0.0000000001
 40
0.0
 40
0.0
 40
0.0
 40
0.0
 40
1.0
 40
1.0
 40
1.0
 40
2.0
 40
2.0
 40
2.0
 40
2.0
 10
133.3358785442968
 20
-144.80421636583
 30
0.0
 10
133.3358785442968
 20
-144.80421636583
 30
0.0
 10
133.3148529892776
 20
-144.2929708104022
 30
0.0
 10
134.1434221348057
 20
-144.3360096992805
 30
0.0
 10
134.1434221348057
 20
-144.3360096992805
 30
0.0
 10
134.6326190667697
 20
-144.3997566437089
 30
0.0
 10
134.5478818467094
 20
-144.782838032502
 30
0.0
  0
SPLINE
  5
91
330
79
100
AcDbEntity
  8
レイヤー 1
 62
   250
420
  2299925
370
     9
100
AcDbSpline
210
0.0
220
0.0
230
1.0
 70
    11
 71
     3
 72
    17
 73
    13
 74
     0
 42
0.0000000001
 43
0.0000000001
 40
0.0
 40
0.0
 40
0.0
 40
0.0
 40
1.0
 40
1.0
 40
1.0
 40
2.0
 40
2.0
 40
2.0
 40
3.0
 40
3.0
 40
3.0
 40
4.0
 40
4.0
 40
4.0
 40
4.0
 10
133.1557190216766
 20
-147.4059524762907
 30
0.0
 10
133.1557190216766
 20
-147.640902476232
 30
0.0
 10
132.8263616128512
 20
-147.8317552539621
 30
0.0
 10
132.4219019009476
 20
-147.8317552539621
 30
0.0
 10
132.0164191335146
 20
-147.8317552539621
 30
0.0
 10
131.6887944196507
 20
-147.640902476232
 30
0.0
 10
131.6887944196507
 20
-147.4059524762907
 30
0.0
 10
131.6887944196507
 20
-147.1710024763493
 30
0.0
 10
132.0164191335146
 20
-146.9808199763969
 30
0.0
 10
132.4219019009476
 20
-146.9808199763969
 30
0.0
 10
132.8263616128512
 20
-146.9808199763969
 30
0.0
 10
133.1557190216766
 20
-147.1710024763493
 30
0.0
 10
133.1557190216766
 20
-147.4059524762907
 30
0.0
  0
SPLINE
  5
92
330
79
100
AcDbEntity
  8
レイヤー 1
 62
   250
420
  2299925
370
     9
100
AcDbSpline
210
0.0
220
0.0
230
1.0
 70
     8
 71
     3
 72
    11
 73
     7
 74
     0
 42
0.0000000001
 43
0.0000000001
 40
0.0
 40
0.0
 40
0.0
 40
0.0
 40
1.0
 40
1.0
 40
1.0
 40
2.0
 40
2.0
 40
2.0
 40
2.0
 10
131.8162530275101
 20
-147.6398794206768
 30
0.0
 10
131.8162530275101
 20
-147.6398794206768
 30
0.0
 10
131.7945571947303
 20
-147.128951365249
 30
0.0
 10
132.6244668957797
 20
-147.1723783096825
 30
0.0
 10
132.6244668957797
 20
-147.1723783096825
 30
0.0
 10
133.1129935499831
 20
-147.2357724763332
 30
0.0
 10
133.0279035521539
 20
-147.6188538651264
 30
0.0
  0
SPLINE
  5
93
330
79
100
AcDbEntity
  8
レイヤー 1
 62
   250
420
  2299925
370
     9
100
AcDbSpline
210
0.0
220
0.0
230
1.0
 70
     9
 71
     3
 72
    17
 73
    13
 74
     0
 42
0.0000000001
 43
0.0000000001
 40
0.0
 40
0.0
 40
0.0
 40
0.0
 40
1.0
 40
1.0
 40
1.0
 40
2.0
 40
2.0
 40
2.0
 40
3.0
 40
3.0
 40
3.0
 40
4.0
 40
4.0
 40
4.0
 40
4.0
 10
132.9190363327091
 20
-146.3255705321163
 30
0.0
 10
132.9190363327091
 20
-146.5605205320576
 30
0.0
 10
132.5903532855389
 20
-146.75102053201
 30
0.0
 10
132.1855801330303
 20
-146.75102053201
 30
0.0
 10
131.7807635839711
 20
-146.75102053201
 30
0.0
 10
131.4521158145778
 20
-146.5605205320576
 30
0.0
 10
131.4521158145778
 20
-146.3255705321163
 30
0.0
 10
131.4521158145778
 20
-146.0909380321749
 30
0.0
 10
131.7807635839711
 20
-145.8997677544452
 30
0.0
 10
132.1855801330303
 20
-145.8997677544452
 30
0.0
 10
132.5903532855389
 20
-145.8997677544452
 30
0.0
 10
132.9190363327091
 20
-146.0909380321749
 30
0.0
 10
132.9190363327091
 20
-146.3255705321163
 30
0.0
  0
SPLINE
  5
94
330
79
100
AcDbEntity
  8
レイヤー 1
 62
   250
420
  2299925
370
     9
100
AcDbSpline
210
0.0
220
0.0
230
1.0
 70
     8
 71
     3
 72
    11
 73
     7
 74
     0
 42
0.0000000001
 43
0.0000000001
 40
0.0
 40
0.0
 40
0.0
 40
0.0
 40
1.0
 40
1.0
 40
1.0
 40
2.0
 40
2.0
 40
2.0
 40
2.0
 10
131.579927200206
 20
-146.5591446987247
 30
0.0
 10
131.579927200206
 20
-146.5591446987247
 30
0.0
 10
131.558548867418
 20
-146.0485694210747
 30
0.0
 10
132.387435512938
 20
-146.0916435877304
 30
0.0
 10
132.387435512938
 20
-146.0916435877304
 30
0.0
 10
132.8769852226708
 20
-146.1553905321589
 30
0.0
 10
132.7915777248497
 20
-146.538471920952
 30
0.0
  0
SPLINE
  5
95
330
79
100
AcDbEntity
  8
レイヤー 1
 62
   250
420
  2299925
370
     9
100
AcDbSpline
210
0.0
220
0.0
230
1.0
 70
     9
 71
     3
 72
    17
 73
    13
 74
     0
 42
0.0000000001
 43
0.0000000001
 40
0.0
 40
0.0
 40
0.0
 40
0.0
 40
1.0
 40
1.0
 40
1.0
 40
2.0
 40
2.0
 40
2.0
 40
3.0
 40
3.0
 40
3.0
 40
4.0
 40
4.0
 40
4.0
 40
4.0
 10
132.3795332909174
 20
-145.3802319212413
 30
0.0
 10
132.3795332909174
 20
-145.615181921183
 30
0.0
 10
132.0501799659866
 20
-145.8053644211354
 30
0.0
 10
131.6460730318518
 20
-145.8053644211354
 30
0.0
 10
131.2405902644187
 20
-145.8053644211354
 30
0.0
 10
130.9119072172485
 20
-145.615181921183
 30
0.0
 10
130.9119072172485
 20
-145.3802319212413
 30
0.0
 10
130.9119072172485
 20
-145.1452819213003
 30
0.0
 10
131.2405902644187
 20
-144.9550994213479
 30
0.0
 10
131.6460730318518
 20
-144.9550994213479
 30
0.0
 10
132.0501799659866
 20
-144.9550994213479
 30
0.0
 10
132.3795332909174
 20
-145.1452819213003
 30
0.0
 10
132.3795332909174
 20
-145.3802319212413
 30
0.0
  0
SPLINE
  5
96
330
79
100
AcDbEntity
  8
レイヤー 1
 62
   250
420
  2299925
370
     9
100
AcDbSpline
210
0.0
220
0.0
230
1.0
 70
     8
 71
     3
 72
    11
 73
     7
 74
     0
 42
0.0000000001
 43
0.0000000001
 40
0.0
 40
0.0
 40
0.0
 40
0.0
 40
1.0
 40
1.0
 40
1.0
 40
2.0
 40
2.0
 40
2.0
 40
2.0
 10
131.0397186028767
 20
-145.6138060878497
 30
0.0
 10
131.0397186028767
 20
-145.6138060878497
 30
0.0
 10
131.0183755478657
 20
-145.1029133101998
 30
0.0
 10
131.8469134664473
 20
-145.1466577546332
 30
0.0
 10
131.8469134664473
 20
-145.1466577546332
 30
0.0
 10
132.3364591253497
 20
-145.2096991435065
 30
0.0
 10
132.252074683058
 20
-145.5927805322996
 30
0.0
  0
SPLINE
  5
97
330
79
100
AcDbEntity
  8
レイヤー 1
 62
   250
420
  2299925
370
     9
100
AcDbSpline
210
0.0
220
0.0
230
1.0
 70
     9
 71
     3
 72
    17
 73
    13
 74
     0
 42
0.0000000001
 43
0.0000000001
 40
0.0
 40
0.0
 40
0.0
 40
0.0
 40
1.0
 40
1.0
 40
1.0
 40
2.0
 40
2.0
 40
2.0
 40
3.0
 40
3.0
 40
3.0
 40
4.0
 40
4.0
 40
4.0
 40
4.0
 10
130.7241588887051
 20
-148.2165652538659
 30
0.0
 10
130.7241588887051
 20
-148.4511977538073
 30
0.0
 10
130.3955111193118
 20
-148.6420505315374
 30
0.0
 10
129.9906986296394
 20
-148.6420505315374
 30
0.0
 10
129.5852158622064
 20
-148.6420505315374
 30
0.0
 10
129.256885592805
 20
-148.4511977538073
 30
0.0
 10
129.256885592805
 20
-148.2165652538659
 30
0.0
 10
129.256885592805
 20
-147.9816152539246
 30
0.0
 10
129.5852158622064
 20
-147.7911152539722
 30
0.0
 10
129.9906986296394
 20
-147.7911152539722
 30
0.0
 10
130.3955111193118
 20
-147.7911152539722
 30
0.0
 10
130.7241588887051
 20
-147.9816152539246
 30
0.0
 10
130.7241588887051
 20
-148.2165652538659
 30
0.0
  0
SPLINE
  5
98
330
79
100
AcDbEntity
  8
レイヤー 1
 62
   250
420
  2299925
370
     9
100
AcDbSpline
210
0.0
220
0.0
230
1.0
 70
     8
 71
     3
 72
    11
 73
     7
 74
     0
 42
0.0000000001
 43
0.0000000001
 40
0.0
 40
0.0
 40
0.0
 40
0.0
 40
1.0
 40
1.0
 40
1.0
 40
2.0
 40
2.0
 40
2.0
 40
2.0
 10
129.3846969784332
 20
-148.450139420474
 30
0.0
 10
129.3846969784332
 20
-148.450139420474
 30
0.0
 10
129.3630051337359
 20
-147.9395994206018
 30
0.0
 10
130.1932636244716
 20
-147.9826735872575
 30
0.0
 10
130.1932636244716
 20
-147.9826735872575
 30
0.0
 10
130.6817902786749
 20
-148.0457149761308
 30
0.0
 10
130.5973745778717
 20
-148.4295019204794
 30
0.0
  0
SPLINE
  5
99
330
79
100
AcDbEntity
  8
レイヤー 1
 62
   250
420
  2299925
370
     9
100
AcDbSpline
210
0.0
220
0.0
230
1.0
 70
     9
 71
     3
 72
    17
 73
    13
 74
     0
 42
0.0000000001
 43
0.0000000001
 40
0.0
 40
0.0
 40
0.0
 40
0.0
 40
1.0
 40
1.0
 40
1.0
 40
2.0
 40
2.0
 40
2.0
 40
3.0
 40
3.0
 40
3.0
 40
4.0
 40
4.0
 40
4.0
 40
4.0
 10
130.4885033391616
 20
-147.1358658096916
 30
0.0
 10
130.4885033391616
 20
-147.3708158096329
 30
0.0
 10
130.1588325142389
 20
-147.5613158095856
 30
0.0
 10
129.7543728023353
 20
-147.5613158095856
 30
0.0
 10
129.3492075348941
 20
-147.5613158095856
 30
0.0
 10
129.0209125432696
 20
-147.3708158096329
 30
0.0
 10
129.0209125432696
 20
-147.1358658096916
 30
0.0
 10
129.0209125432696
 20
-146.9008805319724
 30
0.0
 10
129.3492075348941
 20
-146.7103805320201
 30
0.0
 10
129.7543728023353
 20
-146.7103805320201
 30
0.0
 10
130.1588325142389
 20
-146.7103805320201
 30
0.0
 10
130.4885033391616
 20
-146.9008805319724
 30
0.0
 10
130.4885033391616
 20
-147.1358658096916
 30
0.0
  0
SPLINE
  5
9A
330
79
100
AcDbEntity
  8
レイヤー 1
 62
   250
420
  2299925
370
     9
100
AcDbSpline
210
0.0
220
0.0
230
1.0
 70
     8
 71
     3
 72
    11
 73
     7
 74
     0
 42
0.0000000001
 43
0.0000000001
 40
0.0
 40
0.0
 40
0.0
 40
0.0
 40
1.0
 40
1.0
 40
1.0
 40
2.0
 40
2.0
 40
2.0
 40
2.0
 10
129.1480183733602
 20
-147.3697574762996
 30
0.0
 10
129.1480183733602
 20
-147.3697574762996
 30
0.0
 10
129.1273495782387
 20
-146.8588646986497
 30
0.0
 10
129.9565850193986
 20
-146.9022916430832
 30
0.0
 10
129.9565850193986
 20
-146.9022916430832
 30
0.0
 10
130.4457819513626
 20
-146.9656505319564
 30
0.0
 10
130.3603391757647
 20
-147.3487671985273
 30
0.0
  0
SPLINE
  5
9B
330
79
100
AcDbEntity
  8
レイヤー 1
 62
   250
420
  2299925
370
     9
100
AcDbSpline
210
0.0
220
0.0
230
1.0
 70
    11
 71
     3
 72
    17
 73
    13
 74
     0
 42
0.0000000001
 43
0.0000000001
 40
0.0
 40
0.0
 40
0.0
 40
0.0
 40
1.0
 40
1.0
 40
1.0
 40
2.0
 40
2.0
 40
2.0
 40
3.0
 40
3.0
 40
3.0
 40
4.0
 40
4.0
 40
4.0
 40
4.0
 10
129.9476244640717
 20
-146.1905271988169
 30
0.0
 10
129.9476244640717
 20
-146.4254771987579
 30
0.0
 10
129.6189766946784
 20
-146.6163299764881
 30
0.0
 10
129.2145169827748
 20
-146.6163299764881
 30
0.0
 10
128.808681437573
 20
-146.6163299764881
 30
0.0
 10
128.4807079117341
 20
-146.4254771987579
 30
0.0
 10
128.4807079117341
 20
-146.1905271988169
 30
0.0
 10
128.4807079117341
 20
-145.9555771988759
 30
0.0
 10
128.808681437573
 20
-145.7653946989232
 30
0.0
 10
129.2145169827748
 20
-145.7653946989232
 30
0.0
 10
129.6189766946784
 20
-145.7653946989232
 30
0.0
 10
129.9476244640717
 20
-145.9555771988759
 30
0.0
 10
129.9476244640717
 20
-146.1905271988169
 30
0.0
  0
SPLINE
  5
9C
330
79
100
AcDbEntity
  8
レイヤー 1
 62
   250
420
  2299925
370
     9
100
AcDbSpline
210
0.0
220
0.0
230
1.0
 70
     8
 71
     3
 72
    11
 73
     7
 74
     0
 42
0.0000000001
 43
0.0000000001
 40
0.0
 40
0.0
 40
0.0
 40
0.0
 40
1.0
 40
1.0
 40
1.0
 40
2.0
 40
2.0
 40
2.0
 40
2.0
 10
128.6088681093373
 20
-146.4244541432028
 30
0.0
 10
128.6088681093373
 20
-146.4244541432028
 30
0.0
 10
128.5871722765575
 20
-145.913526087775
 30
0.0
 10
129.4164116998463
 20
-145.9566002544307
 30
0.0
 10
129.4164116998463
 20
-145.9566002544307
 30
0.0
 10
129.9056086318103
 20
-146.0203471988592
 30
0.0
 10
129.8205186339811
 20
-146.4034285876524
 30
0.0
  0
SPLINE
  5
9D
330
79
100
AcDbEntity
  8
レイヤー 1
 62
   250
420
  2299925
370
     9
100
AcDbSpline
210
0.0
220
0.0
230
1.0
 70
     9
 71
     3
 72
    17
 73
    13
 74
     0
 42
0.0000000001
 43
0.0000000001
 40
0.0
 40
0.0
 40
0.0
 40
0.0
 40
1.0
 40
1.0
 40
1.0
 40
2.0
 40
2.0
 40
2.0
 40
3.0
 40
3.0
 40
3.0
 40
4.0
 40
4.0
 40
4.0
 40
4.0
 10
140.2808380893383
 20
-150.9182080309682
 30
0.0
 10
140.2808380893383
 20
-151.1531933086873
 30
0.0
 10
139.9514847644075
 20
-151.3436933086401
 30
0.0
 10
139.546707552512
 20
-151.3436933086401
 30
0.0
 10
139.1415775628477
 20
-151.3436933086401
 30
0.0
 10
138.8136000712151
 20
-151.1531933086873
 30
0.0
 10
138.8136000712151
 20
-150.9182080309682
 30
0.0
 10
138.8136000712151
 20
-150.6832580310272
 30
0.0
 10
139.1415775628477
 20
-150.4927580310745
 30
0.0
 10
139.546707552512
 20
-150.4927580310745
 30
0.0
 10
139.9514847644075
 20
-150.4927580310745
 30
0.0
 10
140.2808380893383
 20
-150.6832580310272
 30
0.0
 10
140.2808380893383
 20
-150.9182080309682
 30
0.0
  0
SPLINE
  5
9E
330
79
100
AcDbEntity
  8
レイヤー 1
 62
   250
420
  2299925
370
     9
100
AcDbSpline
210
0.0
220
0.0
230
1.0
 70
     8
 71
     3
 72
    11
 73
     7
 74
     0
 42
0.0000000001
 43
0.0000000001
 40
0.0
 40
0.0
 40
0.0
 40
0.0
 40
1.0
 40
1.0
 40
1.0
 40
2.0
 40
2.0
 40
2.0
 40
2.0
 10
138.9407059013057
 20
-151.1518174753545
 30
0.0
 10
138.9407059013057
 20
-151.1518174753545
 30
0.0
 10
138.9193628462947
 20
-150.6412421977044
 30
0.0
 10
139.7486022695835
 20
-150.6839635865827
 30
0.0
 10
139.7486022695835
 20
-150.6839635865827
 30
0.0
 10
140.2381167015394
 20
-150.7476752532333
 30
0.0
 10
140.153379481479
 20
-151.1304391420262
 30
0.0
  0
SPLINE
  5
9F
330
79
100
AcDbEntity
  8
レイヤー 1
 62
   250
420
  2299925
370
     9
100
AcDbSpline
210
0.0
220
0.0
230
1.0
 70
     9
 71
     3
 72
    17
 73
    13
 74
     0
 42
0.0000000001
 43
0.0000000001
 40
0.0
 40
0.0
 40
0.0
 40
0.0
 40
1.0
 40
1.0
 40
1.0
 40
2.0
 40
2.0
 40
2.0
 40
3.0
 40
3.0
 40
3.0
 40
4.0
 40
4.0
 40
4.0
 40
4.0
 10
140.2808380893383
 20
-152.2345983084168
 30
0.0
 10
140.2808380893383
 20
-152.470253863914
 30
0.0
 10
139.9514847644075
 20
-152.6604010860883
 30
0.0
 10
139.546707552512
 20
-152.6604010860883
 30
0.0
 10
139.1415775628477
 20
-152.6604010860883
 30
0.0
 10
138.8136000712151
 20
-152.470253863914
 30
0.0
 10
138.8136000712151
 20
-152.2345983084168
 30
0.0
 10
138.8136000712151
 20
-151.9999658084754
 30
0.0
 10
139.1415775628477
 20
-151.8094658085234
 30
0.0
 10
139.546707552512
 20
-151.8094658085234
 30
0.0
 10
139.9514847644075
 20
-151.8094658085234
 30
0.0
 10
140.2808380893383
 20
-151.9999658084754
 30
0.0
 10
140.2808380893383
 20
-152.2345983084168
 30
0.0
  0
SPLINE
  5
A0
330
79
100
AcDbEntity
  8
レイヤー 1
 62
   250
420
  2299925
370
     9
100
AcDbSpline
210
0.0
220
0.0
230
1.0
 70
     8
 71
     3
 72
    11
 73
     7
 74
     0
 42
0.0000000001
 43
0.0000000001
 40
0.0
 40
0.0
 40
0.0
 40
0.0
 40
1.0
 40
1.0
 40
1.0
 40
2.0
 40
2.0
 40
2.0
 40
2.0
 10
138.9407059013057
 20
-152.4688427528029
 30
0.0
 10
138.9407059013057
 20
-152.4688427528029
 30
0.0
 10
138.9193628462947
 20
-151.9575971973755
 30
0.0
 10
139.7486022695835
 20
-152.0013769195865
 30
0.0
 10
139.7486022695835
 20
-152.0013769195865
 30
0.0
 10
140.2381167015394
 20
-152.0644183084591
 30
0.0
 10
140.153379481479
 20
-152.4474996972529
 30
0.0
  0
SPLINE
  5
A1
330
79
100
AcDbEntity
  8
レイヤー 1
 62
   250
420
  2299925
370
     9
100
AcDbSpline
210
0.0
220
0.0
230
1.0
 70
     9
 71
     3
 72
    17
 73
    13
 74
     0
 42
0.0000000001
 43
0.0000000001
 40
0.0
 40
0.0
 40
0.0
 40
0.0
 40
1.0
 40
1.0
 40
1.0
 40
2.0
 40
2.0
 40
2.0
 40
3.0
 40
3.0
 40
3.0
 40
4.0
 40
4.0
 40
4.0
 40
4.0
 10
140.2808380893383
 20
-149.7024652534942
 30
0.0
 10
140.2808380893383
 20
-149.9377327534355
 30
0.0
 10
139.9514847644075
 20
-150.1279152533879
 30
0.0
 10
139.546707552512
 20
-150.1279152533879
 30
0.0
 10
139.1415775628477
 20
-150.1279152533879
 30
0.0
 10
138.8136000712151
 20
-149.9377327534355
 30
0.0
 10
138.8136000712151
 20
-149.7024652534942
 30
0.0
 10
138.8136000712151
 20
-149.4671624757755
 30
0.0
 10
139.1415775628477
 20
-149.276979975823
 30
0.0
 10
139.546707552512
 20
-149.276979975823
 30
0.0
 10
139.9514847644075
 20
-149.276979975823
 30
0.0
 10
140.2808380893383
 20
-149.4671624757755
 30
0.0
 10
140.2808380893383
 20
-149.7024652534942
 30
0.0
  0
SPLINE
  5
A2
330
79
100
AcDbEntity
  8
レイヤー 1
 62
   250
420
  2299925
370
     9
100
AcDbSpline
210
0.0
220
0.0
230
1.0
 70
     8
 71
     3
 72
    11
 73
     7
 74
     0
 42
0.0000000001
 43
0.0000000001
 40
0.0
 40
0.0
 40
0.0
 40
0.0
 40
1.0
 40
1.0
 40
1.0
 40
2.0
 40
2.0
 40
2.0
 40
2.0
 10
138.9407059013057
 20
-149.9363569201026
 30
0.0
 10
138.9407059013057
 20
-149.9363569201026
 30
0.0
 10
138.9193628462947
 20
-149.4251113646752
 30
0.0
 10
139.7486022695835
 20
-149.4685383091083
 30
0.0
 10
139.7486022695835
 20
-149.4685383091083
 30
0.0
 10
140.2381167015394
 20
-149.5322499757596
 30
0.0
 10
140.153379481479
 20
-149.9153666423303
 30
0.0
  0
SPLINE
  5
A3
330
79
100
AcDbEntity
  8
レイヤー 1
 62
   250
420
  2299925
370
     9
100
AcDbSpline
210
0.0
220
0.0
230
1.0
 70
     9
 71
     3
 72
    17
 73
    13
 74
     0
 42
0.0000000001
 43
0.0000000001
 40
0.0
 40
0.0
 40
0.0
 40
0.0
 40
1.0
 40
1.0
 40
1.0
 40
2.0
 40
2.0
 40
2.0
 40
3.0
 40
3.0
 40
3.0
 40
4.0
 40
4.0
 40
4.0
 40
4.0
 10
142.492260810698
 20
-150.0910499756195
 30
0.0
 10
142.492260810698
 20
-150.3256824755609
 30
0.0
 10
142.163260263536
 20
-150.516182475513
 30
0.0
 10
141.7580949960948
 20
-150.516182475513
 30
0.0
 10
141.3529650064305
 20
-150.516182475513
 30
0.0
 10
141.0246347370291
 20
-150.3256824755609
 30
0.0
 10
141.0246347370291
 20
-150.0910499756195
 30
0.0
 10
141.0246347370291
 20
-149.8557471979002
 30
0.0
 10
141.3529650064305
 20
-149.6652471979481
 30
0.0
 10
141.7580949960948
 20
-149.6652471979481
 30
0.0
 10
142.163260263536
 20
-149.6652471979481
 30
0.0
 10
142.492260810698
 20
-149.8557471979002
 30
0.0
 10
142.492260810698
 20
-150.0910499756195
 30
0.0
  0
SPLINE
  5
A4
330
79
100
AcDbEntity
  8
レイヤー 1
 62
   250
420
  2299925
370
     9
100
AcDbSpline
210
0.0
220
0.0
230
1.0
 70
     8
 71
     3
 72
    11
 73
     7
 74
     0
 42
0.0000000001
 43
0.0000000001
 40
0.0
 40
0.0
 40
0.0
 40
0.0
 40
1.0
 40
1.0
 40
1.0
 40
2.0
 40
2.0
 40
2.0
 40
2.0
 10
141.1521329085656
 20
-150.3246241422277
 30
0.0
 10
141.1521329085656
 20
-150.3246241422277
 30
0.0
 10
141.1307502898775
 20
-149.8140841423551
 30
0.0
 10
141.9603467972528
 20
-149.8571230312337
 30
0.0
 10
141.9603467972528
 20
-149.8571230312337
 30
0.0
 10
142.449539422899
 20
-149.920517197884
 30
0.0
 10
142.3648022028386
 20
-150.3039513644556
 30
0.0
  0
SPLINE
  5
A5
330
79
100
AcDbEntity
  8
レイヤー 1
 62
   250
420
  2299925
370
     9
100
AcDbSpline
210
0.0
220
0.0
230
1.0
 70
     9
 71
     3
 72
    17
 73
    13
 74
     0
 42
0.0000000001
 43
0.0000000001
 40
0.0
 40
0.0
 40
0.0
 40
0.0
 40
1.0
 40
1.0
 40
1.0
 40
2.0
 40
2.0
 40
2.0
 40
3.0
 40
3.0
 40
3.0
 40
4.0
 40
4.0
 40
4.0
 40
4.0
 10
142.492260810698
 20
-151.4077577530684
 30
0.0
 10
142.492260810698
 20
-151.6427430307869
 30
0.0
 10
142.163260263536
 20
-151.8332430307396
 30
0.0
 10
141.7580949960948
 20
-151.8332430307396
 30
0.0
 10
141.3529650064305
 20
-151.8332430307396
 30
0.0
 10
141.0246347370291
 20
-151.6427430307869
 30
0.0
 10
141.0246347370291
 20
-151.4077577530684
 30
0.0
 10
141.0246347370291
 20
-151.1731605309045
 30
0.0
 10
141.3529650064305
 20
-150.9819549753963
 30
0.0
 10
141.7580949960948
 20
-150.9819549753963
 30
0.0
 10
142.163260263536
 20
-150.9819549753963
 30
0.0
 10
142.492260810698
 20
-151.1731605309045
 30
0.0
 10
142.492260810698
 20
-151.4077577530684
 30
0.0
  0
SPLINE
  5
A6
330
79
100
AcDbEntity
  8
レイヤー 1
 62
   250
420
  2299925
370
     9
100
AcDbSpline
210
0.0
220
0.0
230
1.0
 70
     8
 71
     3
 72
    11
 73
     7
 74
     0
 42
0.0000000001
 43
0.0000000001
 40
0.0
 40
0.0
 40
0.0
 40
0.0
 40
1.0
 40
1.0
 40
1.0
 40
2.0
 40
2.0
 40
2.0
 40
2.0
 10
141.1521329085656
 20
-151.6416846974537
 30
0.0
 10
141.1521329085656
 20
-151.6416846974537
 30
0.0
 10
141.1307502898775
 20
-151.1304391420262
 30
0.0
 10
141.9603467972528
 20
-151.1741835864597
 30
0.0
 10
141.9603467972528
 20
-151.1741835864597
 30
0.0
 10
142.449539422899
 20
-151.2375777531107
 30
0.0
 10
142.3648022028386
 20
-151.6210119196822
 30
0.0
  0
SPLINE
  5
A7
330
79
100
AcDbEntity
  8
レイヤー 1
 62
   250
420
  2299925
370
     9
100
AcDbSpline
210
0.0
220
0.0
230
1.0
 70
     9
 71
     3
 72
    17
 73
    13
 74
     0
 42
0.0000000001
 43
0.0000000001
 40
0.0
 40
0.0
 40
0.0
 40
0.0
 40
1.0
 40
1.0
 40
1.0
 40
2.0
 40
2.0
 40
2.0
 40
3.0
 40
3.0
 40
3.0
 40
4.0
 40
4.0
 40
4.0
 40
4.0
 10
142.492260810698
 20
-148.8756246981458
 30
0.0
 10
142.492260810698
 20
-149.1099044203088
 30
0.0
 10
142.163260263536
 20
-149.3007571980393
 30
0.0
 10
141.7580949960948
 20
-149.3007571980393
 30
0.0
 10
141.3529650064305
 20
-149.3007571980393
 30
0.0
 10
141.0246347370291
 20
-149.1099044203088
 30
0.0
 10
141.0246347370291
 20
-148.8756246981458
 30
0.0
 10
141.0246347370291
 20
-148.641027475982
 30
0.0
 10
141.3529650064305
 20
-148.4498219204741
 30
0.0
 10
141.7580949960948
 20
-148.4498219204741
 30
0.0
 10
142.163260263536
 20
-148.4498219204741
 30
0.0
 10
142.492260810698
 20
-148.641027475982
 30
0.0
 10
142.492260810698
 20
-148.8756246981458
 30
0.0
  0
SPLINE
  5
A8
330
79
100
AcDbEntity
  8
レイヤー 1
 62
   250
420
  2299925
370
     9
100
AcDbSpline
210
0.0
220
0.0
230
1.0
 70
     8
 71
     3
 72
    11
 73
     7
 74
     0
 42
0.0000000001
 43
0.0000000001
 40
0.0
 40
0.0
 40
0.0
 40
0.0
 40
1.0
 40
1.0
 40
1.0
 40
2.0
 40
2.0
 40
2.0
 40
2.0
 10
141.1521329085656
 20
-149.1091988647539
 30
0.0
 10
141.1521329085656
 20
-149.1091988647539
 30
0.0
 10
141.1307502898775
 20
-148.5979533093262
 30
0.0
 10
141.9603467972528
 20
-148.6413449759819
 30
0.0
 10
141.9603467972528
 20
-148.6413449759819
 30
0.0
 10
142.449539422899
 20
-148.7047391426326
 30
0.0
 10
142.3648022028386
 20
-149.0881733092035
 30
0.0
  0
SPLINE
  5
A9
330
79
100
AcDbEntity
  8
レイヤー 1
 62
   250
420
  2299925
370
     9
100
AcDbSpline
210
0.0
220
0.0
230
1.0
 70
     9
 71
     3
 72
    17
 73
    13
 74
     0
 42
0.0000000001
 43
0.0000000001
 40
0.0
 40
0.0
 40
0.0
 40
0.0
 40
1.0
 40
1.0
 40
1.0
 40
2.0
 40
2.0
 40
2.0
 40
3.0
 40
3.0
 40
3.0
 40
4.0
 40
4.0
 40
4.0
 40
4.0
 10
144.9400093593619
 20
-149.1622566425186
 30
0.0
 10
144.9400093593619
 20
-149.3975594202374
 30
0.0
 10
144.6110088121998
 20
-149.5880594201894
 30
0.0
 10
144.2068666002881
 20
-149.5880594201894
 30
0.0
 10
143.8013838328551
 20
-149.5880594201894
 30
0.0
 10
143.472383285693
 20
-149.3975594202374
 30
0.0
 10
143.472383285693
 20
-149.1622566425186
 30
0.0
 10
143.472383285693
 20
-148.927306642577
 30
0.0
 10
143.8013838328551
 20
-148.7367713648468
 30
0.0
 10
144.2068666002881
 20
-148.7367713648468
 30
0.0
 10
144.6110088121998
 20
-148.7367713648468
 30
0.0
 10
144.9400093593619
 20
-148.927306642577
 30
0.0
 10
144.9400093593619
 20
-149.1622566425186
 30
0.0
  0
SPLINE
  5
AA
330
79
100
AcDbEntity
  8
レイヤー 1
 62
   250
420
  2299925
370
     9
100
AcDbSpline
210
0.0
220
0.0
230
1.0
 70
     8
 71
     3
 72
    11
 73
     7
 74
     0
 42
0.0000000001
 43
0.0000000001
 40
0.0
 40
0.0
 40
0.0
 40
0.0
 40
1.0
 40
1.0
 40
1.0
 40
2.0
 40
2.0
 40
2.0
 40
2.0
 10
143.6001946713212
 20
-149.3961835869038
 30
0.0
 10
143.6001946713212
 20
-149.3961835869038
 30
0.0
 10
143.5788516163101
 20
-148.8849380314764
 30
0.0
 10
144.4080910395989
 20
-148.9283296981321
 30
0.0
 10
144.4080910395989
 20
-148.9283296981321
 30
0.0
 10
144.8972879715629
 20
-148.9917238647831
 30
0.0
 10
144.812202352095
 20
-149.3748052535763
 30
0.0
  0
SPLINE
  5
AB
330
79
100
AcDbEntity
  8
レイヤー 1
 62
   250
420
  2299925
370
     9
100
AcDbSpline
210
0.0
220
0.0
230
1.0
 70
    11
 71
     3
 72
    17
 73
    13
 74
     0
 42
0.0000000001
 43
0.0000000001
 40
0.0
 40
0.0
 40
0.0
 40
0.0
 40
1.0
 40
1.0
 40
1.0
 40
2.0
 40
2.0
 40
2.0
 40
3.0
 40
3.0
 40
3.0
 40
4.0
 40
4.0
 40
4.0
 40
4.0
 10
144.9400093593619
 20
-150.4793171977446
 30
0.0
 10
144.9400093593619
 20
-150.7146199754634
 30
0.0
 10
144.6110088121998
 20
-150.9048024754165
 30
0.0
 10
144.2068666002881
 20
-150.9048024754165
 30
0.0
 10
143.8013838328551
 20
-150.9048024754165
 30
0.0
 10
143.472383285693
 20
-150.7146199754634
 30
0.0
 10
143.472383285693
 20
-150.4793171977446
 30
0.0
 10
143.472383285693
 20
-150.2440144200259
 30
0.0
 10
143.8013838328551
 20
-150.0538319200727
 30
0.0
 10
144.2068666002881
 20
-150.0538319200727
 30
0.0
 10
144.6110088121998
 20
-150.0538319200727
 30
0.0
 10
144.9400093593619
 20
-150.2440144200259
 30
0.0
 10
144.9400093593619
 20
-150.4793171977446
 30
0.0
  0
SPLINE
  5
AC
330
79
100
AcDbEntity
  8
レイヤー 1
 62
   250
420
  2299925
370
     9
100
AcDbSpline
210
0.0
220
0.0
230
1.0
 70
     8
 71
     3
 72
    11
 73
     7
 74
     0
 42
0.0000000001
 43
0.0000000001
 40
0.0
 40
0.0
 40
0.0
 40
0.0
 40
1.0
 40
1.0
 40
1.0
 40
2.0
 40
2.0
 40
2.0
 40
2.0
 10
143.6001946713212
 20
-150.7132441421305
 30
0.0
 10
143.6001946713212
 20
-150.7132441421305
 30
0.0
 10
143.5788516163101
 20
-150.2019985867031
 30
0.0
 10
144.4080910395989
 20
-150.245037475581
 30
0.0
 10
144.4080910395989
 20
-150.245037475581
 30
0.0
 10
144.8972879715629
 20
-150.3087844200098
 30
0.0
 10
144.812202352095
 20
-150.6918658088022
 30
0.0
  0
SPLINE
  5
AD
330
79
100
AcDbEntity
  8
レイヤー 1
 62
   250
420
  2299925
370
     9
100
AcDbSpline
210
0.0
220
0.0
230
1.0
 70
     9
 71
     3
 72
    17
 73
    13
 74
     0
 42
0.0000000001
 43
0.0000000001
 40
0.0
 40
0.0
 40
0.0
 40
0.0
 40
1.0
 40
1.0
 40
1.0
 40
2.0
 40
2.0
 40
2.0
 40
3.0
 40
3.0
 40
3.0
 40
4.0
 40
4.0
 40
4.0
 40
4.0
 10
144.9400093593619
 20
-147.9468313650443
 30
0.0
 10
144.9400093593619
 20
-148.1814285872081
 30
0.0
 10
144.6110088121998
 20
-148.371963864938
 30
0.0
 10
144.2068666002881
 20
-148.371963864938
 30
0.0
 10
143.8013838328551
 20
-148.371963864938
 30
0.0
 10
143.472383285693
 20
-148.1814285872081
 30
0.0
 10
143.472383285693
 20
-147.9468313650443
 30
0.0
 10
143.472383285693
 20
-147.7118813651033
 30
0.0
 10
143.8013838328551
 20
-147.5213460873731
 30
0.0
 10
144.2068666002881
 20
-147.5213460873731
 30
0.0
 10
144.6110088121998
 20
-147.5213460873731
 30
0.0
 10
144.9400093593619
 20
-147.7118813651033
 30
0.0
 10
144.9400093593619
 20
-147.9468313650443
 30
0.0
  0
SPLINE
  5
AE
330
79
100
AcDbEntity
  8
レイヤー 1
 62
   250
420
  2299925
370
     9
100
AcDbSpline
210
0.0
220
0.0
230
1.0
 70
     8
 71
     3
 72
    11
 73
     7
 74
     0
 42
0.0000000001
 43
0.0000000001
 40
0.0
 40
0.0
 40
0.0
 40
0.0
 40
1.0
 40
1.0
 40
1.0
 40
2.0
 40
2.0
 40
2.0
 40
2.0
 10
143.6001946713212
 20
-148.1807583094305
 30
0.0
 10
143.6001946713212
 20
-148.1807583094305
 30
0.0
 10
143.5788516163101
 20
-147.6698302540026
 30
0.0
 10
144.4080910395989
 20
-147.7129044206584
 30
0.0
 10
144.4080910395989
 20
-147.7129044206584
 30
0.0
 10
144.8972879715629
 20
-147.7762985873094
 30
0.0
 10
144.812202352095
 20
-148.15973275388
 30
0.0
  0
SPLINE
  5
AF
330
79
100
AcDbEntity
  8
レイヤー 1
 62
   250
420
  2299925
370
     9
100
AcDbSpline
210
0.0
220
0.0
230
1.0
 70
     9
 71
     3
 72
    17
 73
    13
 74
     0
 42
0.0000000001
 43
0.0000000001
 40
0.0
 40
0.0
 40
0.0
 40
0.0
 40
1.0
 40
1.0
 40
1.0
 40
2.0
 40
2.0
 40
2.0
 40
3.0
 40
3.0
 40
3.0
 40
4.0
 40
4.0
 40
4.0
 40
4.0
 10
147.3040084657179
 20
-149.7024652534942
 30
0.0
 10
147.3040084657179
 20
-149.9377327534355
 30
0.0
 10
146.9743376407951
 20
-150.1279152533879
 30
0.0
 10
146.5702307066603
 20
-150.1279152533879
 30
0.0
 10
146.16439957398
 20
-150.1279152533879
 30
0.0
 10
145.8364176698259
 20
-149.9377327534355
 30
0.0
 10
145.8364176698259
 20
-149.7024652534942
 30
0.0
 10
145.8364176698259
 20
-149.4671624757755
 30
0.0
 10
146.16439957398
 20
-149.276979975823
 30
0.0
 10
146.5702307066603
 20
-149.276979975823
 30
0.0
 10
146.9743376407951
 20
-149.276979975823
 30
0.0
 10
147.3040084657179
 20
-149.4671624757755
 30
0.0
 10
147.3040084657179
 20
-149.7024652534942
 30
0.0
  0
SPLINE
  5
B0
330
79
100
AcDbEntity
  8
レイヤー 1
 62
   250
420
  2299925
370
     9
100
AcDbSpline
210
0.0
220
0.0
230
1.0
 70
     8
 71
     3
 72
    11
 73
     7
 74
     0
 42
0.0000000001
 43
0.0000000001
 40
0.0
 40
0.0
 40
0.0
 40
0.0
 40
1.0
 40
1.0
 40
1.0
 40
2.0
 40
2.0
 40
2.0
 40
2.0
 10
145.9638762776853
 20
-149.9363569201026
 30
0.0
 10
145.9638762776853
 20
-149.9363569201026
 30
0.0
 10
145.9425332226742
 20
-149.4251113646752
 30
0.0
 10
146.7720901459549
 20
-149.4685383091083
 30
0.0
 10
146.7720901459549
 20
-149.4685383091083
 30
0.0
 10
147.2613223556958
 20
-149.5322499757596
 30
0.0
 10
147.1761970800898
 20
-149.9153666423303
 30
0.0
  0
SPLINE
  5
B1
330
79
100
AcDbEntity
  8
レイヤー 1
 62
   250
420
  2299925
370
     9
100
AcDbSpline
210
0.0
220
0.0
230
1.0
 70
     9
 71
     3
 72
    17
 73
    13
 74
     0
 42
0.0000000001
 43
0.0000000001
 40
0.0
 40
0.0
 40
0.0
 40
0.0
 40
1.0
 40
1.0
 40
1.0
 40
2.0
 40
2.0
 40
2.0
 40
3.0
 40
3.0
 40
3.0
 40
4.0
 40
4.0
 40
4.0
 40
4.0
 10
147.3040084657179
 20
-148.4870046982427
 30
0.0
 10
147.3040084657179
 20
-148.7216371981844
 30
0.0
 10
146.9743376407951
 20
-148.9124899759142
 30
0.0
 10
146.5702307066603
 20
-148.9124899759142
 30
0.0
 10
146.16439957398
 20
-148.9124899759142
 30
0.0
 10
145.8364176698259
 20
-148.7216371981844
 30
0.0
 10
145.8364176698259
 20
-148.4870046982427
 30
0.0
 10
145.8364176698259
 20
-148.2520546983014
 30
0.0
 10
146.16439957398
 20
-148.061554698349
 30
0.0
 10
146.5702307066603
 20
-148.061554698349
 30
0.0
 10
146.9743376407951
 20
-148.061554698349
 30
0.0
 10
147.3040084657179
 20
-148.2520546983014
 30
0.0
 10
147.3040084657179
 20
-148.4870046982427
 30
0.0
  0
SPLINE
  5
B2
330
79
100
AcDbEntity
  8
レイヤー 1
 62
   250
420
  2299925
370
     9
100
AcDbSpline
210
0.0
220
0.0
230
1.0
 70
     8
 71
     3
 72
    11
 73
     7
 74
     0
 42
0.0000000001
 43
0.0000000001
 40
0.0
 40
0.0
 40
0.0
 40
0.0
 40
1.0
 40
1.0
 40
1.0
 40
2.0
 40
2.0
 40
2.0
 40
2.0
 10
145.9638762776853
 20
-148.7209316426286
 30
0.0
 10
145.9638762776853
 20
-148.7209316426286
 30
0.0
 10
145.9425332226742
 20
-148.2100388649786
 30
0.0
 10
146.7720901459549
 20
-148.2531130316346
 30
0.0
 10
146.7720901459549
 20
-148.2531130316346
 30
0.0
 10
147.2613223556958
 20
-148.3164719205075
 30
0.0
 10
147.1761970800898
 20
-148.6992358093007
 30
0.0
  0
ENDBLK
  5
7C
330
79
100
AcDbEntity
  8
0
100
AcDbBlockEnd
  0
BLOCK
  5
120
330
11E
100
AcDbEntity
  8
0
100
AcDbBlockBegin
  2
Block_1
 70
     0
 10
0.0
 20
0.0
 30
0.0
  3
Block_1
  1

  0
INSERT
  5
123
330
11E
100
AcDbEntity
  8
レイヤー 1
100
AcDbBlockReference
  2
Block_2
 10
0.0
 20
0.0
 30
0.0
  0
ENDBLK
  5
121
330
11E
100
AcDbEntity
  8
0
100
AcDbBlockEnd
  0
BLOCK
  5
124
330
122
100
AcDbEntity
  8
0
100
AcDbBlockBegin
  2
Block_2
 70
     0
 10
0.0
 20
0.0
 30
0.0
  3
Block_2
  1

  0
SPLINE
  5
126
330
122
100
AcDbEntity
  8
レイヤー 1
100
AcDbSpline
210
0.0
220
0.0
230
1.0
 70
     9
 71
     3
 72
    17
 73
    13
 74
     0
 42
0.0000000001
 43
0.0000000001
 40
0.0
 40
0.0
 40
0.0
 40
0.0
 40
1.0
 40
1.0
 40
1.0
 40
2.0
 40
2.0
 40
2.0
 40
3.0
 40
3.0
 40
3.0
 40
4.0
 40
4.0
 40
4.0
 40
4.0
 10
60.9571750064621
 20
-146.8123995943733
 30
0.0
 10
60.9571750064621
 20
-147.0621690170539
 30
0.0
 10
61.2405341101239
 20
-147.1086778061048
 30
0.0
 10
61.5853881681974
 20
-147.1086778061048
 30
0.0
 10
61.90492077445433
 20
-147.1086778061048
 30
0.0
 10
62.21377358470697
 20
-147.0725043035096
 30
0.0
 10
62.21377358470697
 20
-146.8123995943733
 30
0.0
 10
62.21377358470697
 20
-146.5646972289838
 30
0.0
 10
61.93230928356206
 20
-146.5161213826418
 30
0.0
 10
61.5853881681974
 20
-146.5161213826418
 30
0.0
 10
61.26602781671475
 20
-146.5161213826418
 30
0.0
 10
60.9571750064621
 20
-146.5543619425281
 30
0.0
 10
60.9571750064621
 20
-146.8123995943733
 30
0.0
  0
SPLINE
  5
127
330
122
100
AcDbEntity
  8
レイヤー 1
100
AcDbSpline
210
0.0
220
0.0
230
1.0
 70
     9
 71
     3
 72
    29
 73
    25
 74
     0
 42
0.0000000001
 43
0.0000000001
 40
0.0
 40
0.0
 40
0.0
 40
0.0
 40
1.0
 40
1.0
 40
1.0
 40
2.0
 40
2.0
 40
2.0
 40
3.0
 40
3.0
 40
3.0
 40
4.0
 40
4.0
 40
4.0
 40
5.0
 40
5.0
 40
5.0
 40
6.0
 40
6.0
 40
6.0
 40
7.0
 40
7.0
 40
7.0
 40
8.0
 40
8.0
 40
8.0
 40
8.0
 10
62.17983939417726
 20
-146.4144910658269
 30
0.0
 10
62.38930119968046
 20
-146.5226670640638
 30
0.0
 10
62.40842147962359
 20
-146.6959553669718
 30
0.0
 10
62.40842147962359
 20
-146.8123995943733
 30
0.0
 10
62.40842147962359
 20
-146.9732855535344
 30
0.0
 10
62.36191269057272
 20
-147.1148789779782
 30
0.0
 10
62.17983939417726
 20
-147.2099636133711
 30
0.0
 10
61.98536375403492
 20
-147.3136609874771
 30
0.0
 10
61.74834118464972
 20
-147.3329535221945
 30
0.0
 10
61.5853881681974
 20
-147.3329535221945
 30
0.0
 10
61.44155543168822
 20
-147.3329535221945
 30
0.0
 10
61.18989120649072
 20
-147.3157280447683
 30
0.0
 10
60.99093694221754
 20
-147.2099636133711
 30
0.0
 10
60.78784856336207
 20
-147.1021321246828
 30
0.0
 10
60.76459416883663
 20
-146.9412461655216
 30
0.0
 10
60.76459416883663
 20
-146.8123995943733
 30
0.0
 10
60.76459416883663
 20
-146.6535806925033
 30
0.0
 10
60.80903590059635
 20
-146.5099202107683
 30
0.0
 10
60.99093694221754
 20
-146.4144910658269
 30
0.0
 10
61.18351777984301
 20
-146.3152723158517
 30
0.0
 10
61.41192761051508
 20
-146.291845666552
 30
0.0
 10
61.5853881681974
 20
-146.291845666552
 30
0.0
 10
61.75678166858858
 20
-146.291845666552
 30
0.0
 10
61.98743081132606
 20
-146.3132052585606
 30
0.0
 10
62.17983939417726
 20
-146.4144910658269
 30
0.0
  0
HATCH
  5
128
330
122
100
AcDbEntity
  8
レイヤー 1
 62
   250
420
  2299925
440
 33554687
100
AcDbHatch
 10
0.0
 20
0.0
 30
0.0
210
0.0
220
0.0
230
1.0
  2
SOLID
 70
     1
 71
     1
 91
        2
 92
        1
 93
        1
 72
     4
 94
        3
 73
     0
 74
     0
 95
       17
 96
       13
 40
0.0
 40
0.0
 40
0.0
 40
0.0
 40
1.0
 40
1.0
 40
1.0
 40
2.0
 40
2.0
 40
2.0
 40
3.0
 40
3.0
 40
3.0
 40
4.0
 40
4.0
 40
4.0
 40
4.0
 10
60.9571750064621
 20
-146.8123995943733
 10
60.9571750064621
 20
-147.0621690170539
 10
61.2405341101239
 20
-147.1086778061048
 10
61.5853881681974
 20
-147.1086778061048
 10
61.90492077445433
 20
-147.1086778061048
 10
62.21377358470697
 20
-147.0725043035096
 10
62.21377358470697
 20
-146.8123995943733
 10
62.21377358470697
 20
-146.5646972289838
 10
61.93230928356206
 20
-146.5161213826418
 10
61.5853881681974
 20
-146.5161213826418
 10
61.26602781671475
 20
-146.5161213826418
 10
60.9571750064621
 20
-146.5543619425281
 10
60.9571750064621
 20
-146.8123995943733
 97
        0
 97
        1
330
126
 92
        1
 93
        1
 72
     4
 94
        3
 73
     0
 74
     0
 95
       29
 96
       25
 40
0.0
 40
0.0
 40
0.0
 40
0.0
 40
1.0
 40
1.0
 40
1.0
 40
2.0
 40
2.0
 40
2.0
 40
3.0
 40
3.0
 40
3.0
 40
4.0
 40
4.0
 40
4.0
 40
5.0
 40
5.0
 40
5.0
 40
6.0
 40
6.0
 40
6.0
 40
7.0
 40
7.0
 40
7.0
 40
8.0
 40
8.0
 40
8.0
 40
8.0
 10
62.17983939417726
 20
-146.4144910658269
 10
62.38930119968046
 20
-146.5226670640638
 10
62.40842147962359
 20
-146.6959553669718
 10
62.40842147962359
 20
-146.8123995943733
 10
62.40842147962359
 20
-146.9732855535344
 10
62.36191269057272
 20
-147.1148789779782
 10
62.17983939417726
 20
-147.2099636133711
 10
61.98536375403492
 20
-147.3136609874771
 10
61.74834118464972
 20
-147.3329535221945
 10
61.5853881681974
 20
-147.3329535221945
 10
61.44155543168822
 20
-147.3329535221945
 10
61.18989120649072
 20
-147.3157280447683
 10
60.99093694221754
 20
-147.2099636133711
 10
60.78784856336207
 20
-147.1021321246828
 10
60.76459416883663
 20
-146.9412461655216
 10
60.76459416883663
 20
-146.8123995943733
 10
60.76459416883663
 20
-146.6535806925033
 10
60.80903590059635
 20
-146.5099202107683
 10
60.99093694221754
 20
-146.4144910658269
 10
61.18351777984301
 20
-146.3152723158517
 10
61.41192761051508
 20
-146.291845666552
 10
61.5853881681974
 20
-146.291845666552
 10
61.75678166858858
 20
-146.291845666552
 10
61.98743081132606
 20
-146.3132052585606
 10
62.17983939417726
 20
-146.4144910658269
 97
        0
 97
        1
330
127
 75
     2
 76
     1
 98
        1
 10
0.0
 20
0.0
450
        0
451
        0
460
0.0
461
0.0
452
        0
462
0.0
453
        0
470

  0
SPLINE
  5
129
330
122
100
AcDbEntity
  8
レイヤー 1
100
AcDbSpline
210
0.0
220
0.0
230
1.0
 70
    11
 71
     3
 72
    17
 73
    13
 74
     0
 42
0.0000000001
 43
0.0000000001
 40
0.0
 40
0.0
 40
0.0
 40
0.0
 40
1.0
 40
1.0
 40
1.0
 40
2.0
 40
2.0
 40
2.0
 40
3.0
 40
3.0
 40
3.0
 40
4.0
 40
4.0
 40
4.0
 40
4.0
 10
62.35760632121616
 20
-146.0754936700783
 30
0.0
 10
62.35760632121616
 20
-146.0754936700783
 30
0.0
 10
62.10594209601866
 20
-146.0754936700783
 30
0.0
 10
62.10594209601866
 20
-146.0754936700783
 30
0.0
 10
62.10594209601866
 20
-146.0754936700783
 30
0.0
 10
62.10594209601866
 20
-145.8236571901066
 30
0.0
 10
62.10594209601866
 20
-145.8236571901066
 30
0.0
 10
62.10594209601866
 20
-145.8236571901066
 30
0.0
 10
62.35760632121616
 20
-145.8236571901066
 30
0.0
 10
62.35760632121616
 20
-145.8236571901066
 30
0.0
 10
62.35760632121616
 20
-145.8236571901066
 30
0.0
 10
62.35760632121616
 20
-146.0754936700783
 30
0.0
 10
62.35760632121616
 20
-146.0754936700783
 30
0.0
  0
HATCH
  5
12A
330
122
100
AcDbEntity
  8
レイヤー 1
 62
   250
420
  2299925
440
 33554687
100
AcDbHatch
 10
0.0
 20
0.0
 30
0.0
210
0.0
220
0.0
230
1.0
  2
SOLID
 70
     1
 71
     1
 91
        1
 92
        1
 93
        1
 72
     4
 94
        3
 73
     0
 74
     0
 95
       17
 96
       13
 40
0.0
 40
0.0
 40
0.0
 40
0.0
 40
1.0
 40
1.0
 40
1.0
 40
2.0
 40
2.0
 40
2.0
 40
3.0
 40
3.0
 40
3.0
 40
4.0
 40
4.0
 40
4.0
 40
4.0
 10
62.35760632121616
 20
-146.0754936700783
 10
62.35760632121616
 20
-146.0754936700783
 10
62.10594209601866
 20
-146.0754936700783
 10
62.10594209601866
 20
-146.0754936700783
 10
62.10594209601866
 20
-146.0754936700783
 10
62.10594209601866
 20
-145.8236571901066
 10
62.10594209601866
 20
-145.8236571901066
 10
62.10594209601866
 20
-145.8236571901066
 10
62.35760632121616
 20
-145.8236571901066
 10
62.35760632121616
 20
-145.8236571901066
 10
62.35760632121616
 20
-145.8236571901066
 10
62.35760632121616
 20
-146.0754936700783
 10
62.35760632121616
 20
-146.0754936700783
 97
        0
 97
        1
330
129
 75
     2
 76
     1
 98
        1
 10
0.0
 20
0.0
450
        0
451
        0
460
0.0
461
0.0
452
        0
462
0.0
453
        0
470

  0
SPLINE
  5
12B
330
122
100
AcDbEntity
  8
レイヤー 1
100
AcDbSpline
210
0.0
220
0.0
230
1.0
 70
     9
 71
     3
 72
    53
 73
    49
 74
     0
 42
0.0000000001
 43
0.0000000001
 40
0.0
 40
0.0
 40
0.0
 40
0.0
 40
1.0
 40
1.0
 40
1.0
 40
2.0
 40
2.0
 40
2.0
 40
3.0
 40
3.0
 40
3.0
 40
4.0
 40
4.0
 40
4.0
 40
5.0
 40
5.0
 40
5.0
 40
6.0
 40
6.0
 40
6.0
 40
7.0
 40
7.0
 40
7.0
 40
8.0
 40
8.0
 40
8.0
 40
9.0
 40
9.0
 40
9.0
 40
10.0
 40
10.0
 40
10.0
 40
11.0
 40
11.0
 40
11.0
 40
12.0
 40
12.0
 40
12.0
 40
13.0
 40
13.0
 40
13.0
 40
14.0
 40
14.0
 40
14.0
 40
15.0
 40
15.0
 40
15.0
 40
16.0
 40
16.0
 40
16.0
 40
16.0
 10
62.40842147962359
 20
-145.1063883100775
 30
0.0
 10
62.40842147962359
 20
-145.1845919775927
 30
0.0
 10
62.39154051174587
 20
-145.2862222944076
 30
0.0
 10
62.32797850004301
 20
-145.3878526112225
 30
0.0
 10
62.21790769928928
 20
-145.5611409141305
 30
0.0
 10
62.08682181607552
 20
-145.5825005061391
 30
0.0
 10
61.9789903273872
 20
-145.6014485313079
 30
0.0
 10
61.9789903273872
 20
-145.6014485313079
 30
0.0
 10
61.9789903273872
 20
-145.3792398725093
 30
0.0
 10
61.9789903273872
 20
-145.3792398725093
 30
0.0
 10
62.17777233688611
 20
-145.3244628542939
 30
0.0
 10
62.20740015805926
 20
-145.1973388308882
 30
0.0
 10
62.20740015805926
 20
-145.1043212527864
 30
0.0
 10
62.20740015805926
 20
-144.9647948856338
 30
0.0
 10
62.10800915330981
 20
-144.8125216651857
 30
0.0
 10
61.87529295328118
 20
-144.8125216651857
 30
0.0
 10
61.61932235872711
 20
-144.8125216651857
 30
0.0
 10
61.5495591751508
 20
-144.9923556495158
 30
0.0
 10
61.5495591751508
 20
-145.1129339914995
 30
0.0
 10
61.5495591751508
 20
-145.1446288699638
 30
0.0
 10
61.5495591751508
 20
-145.2862222944076
 30
0.0
 10
61.67857800107341
 20
-145.375105757927
 30
0.0
 10
61.67857800107341
 20
-145.375105757927
 30
0.0
 10
61.65945772113028
 20
-145.5508056276748
 30
0.0
 10
61.65945772113028
 20
-145.5508056276748
 30
0.0
 10
61.65945772113028
 20
-145.5508056276748
 30
0.0
 10
60.81334226995291
 20
-145.4302272856911
 30
0.0
 10
60.81334226995291
 20
-145.4302272856911
 30
0.0
 10
60.81334226995291
 20
-145.4302272856911
 30
0.0
 10
60.81334226995291
 20
-144.6516357060246
 30
0.0
 10
60.81334226995291
 20
-144.6516357060246
 30
0.0
 10
60.81334226995291
 20
-144.6516357060246
 30
0.0
 10
61.00799016486953
 20
-144.6516357060246
 30
0.0
 10
61.00799016486953
 20
-144.6516357060246
 30
0.0
 10
61.00799016486953
 20
-144.6516357060246
 30
0.0
 10
61.00799016486953
 20
-145.2672742692387
 30
0.0
 10
61.00799016486953
 20
-145.2672742692387
 30
0.0
 10
61.00799016486953
 20
-145.2672742692387
 30
0.0
 10
61.43104789045821
 20
-145.3327310834585
 30
0.0
 10
61.43104789045821
 20
-145.3327310834585
 30
0.0
 10
61.3971136999285
 20
-145.271408383821
 30
0.0
 10
61.35697833752534
 20
-145.1890706017236
 30
0.0
 10
61.35697833752534
 20
-145.070559317031
 30
0.0
 10
61.35697833752534
 20
-144.816655779768
 30
0.0
 10
61.54318574850309
 20
-144.5796332103828
 30
0.0
 10
61.85617267333804
 20
-144.5796332103828
 30
0.0
 10
62.17363822230382
 20
-144.5796332103828
 30
0.0
 10
62.40842147962359
 20
-144.8039089264726
 30
0.0
 10
62.40842147962359
 20
-145.1063883100775
 30
0.0
  0
HATCH
  5
12C
330
122
100
AcDbEntity
  8
レイヤー 1
 62
   250
420
  2299925
440
 33554687
100
AcDbHatch
 10
0.0
 20
0.0
 30
0.0
210
0.0
220
0.0
230
1.0
  2
SOLID
 70
     1
 71
     1
 91
        1
 92
        1
 93
        1
 72
     4
 94
        3
 73
     0
 74
     0
 95
       53
 96
       49
 40
0.0
 40
0.0
 40
0.0
 40
0.0
 40
1.0
 40
1.0
 40
1.0
 40
2.0
 40
2.0
 40
2.0
 40
3.0
 40
3.0
 40
3.0
 40
4.0
 40
4.0
 40
4.0
 40
5.0
 40
5.0
 40
5.0
 40
6.0
 40
6.0
 40
6.0
 40
7.0
 40
7.0
 40
7.0
 40
8.0
 40
8.0
 40
8.0
 40
9.0
 40
9.0
 40
9.0
 40
10.0
 40
10.0
 40
10.0
 40
11.0
 40
11.0
 40
11.0
 40
12.0
 40
12.0
 40
12.0
 40
13.0
 40
13.0
 40
13.0
 40
14.0
 40
14.0
 40
14.0
 40
15.0
 40
15.0
 40
15.0
 40
16.0
 40
16.0
 40
16.0
 40
16.0
 10
62.40842147962359
 20
-145.1063883100775
 10
62.40842147962359
 20
-145.1845919775927
 10
62.39154051174587
 20
-145.2862222944076
 10
62.32797850004301
 20
-145.3878526112225
 10
62.21790769928928
 20
-145.5611409141305
 10
62.08682181607552
 20
-145.5825005061391
 10
61.9789903273872
 20
-145.6014485313079
 10
61.9789903273872
 20
-145.6014485313079
 10
61.9789903273872
 20
-145.3792398725093
 10
61.9789903273872
 20
-145.3792398725093
 10
62.17777233688611
 20
-145.3244628542939
 10
62.20740015805926
 20
-145.1973388308882
 10
62.20740015805926
 20
-145.1043212527864
 10
62.20740015805926
 20
-144.9647948856338
 10
62.10800915330981
 20
-144.8125216651857
 10
61.87529295328118
 20
-144.8125216651857
 10
61.61932235872711
 20
-144.8125216651857
 10
61.5495591751508
 20
-144.9923556495158
 10
61.5495591751508
 20
-145.1129339914995
 10
61.5495591751508
 20
-145.1446288699638
 10
61.5495591751508
 20
-145.2862222944076
 10
61.67857800107341
 20
-145.375105757927
 10
61.67857800107341
 20
-145.375105757927
 10
61.65945772113028
 20
-145.5508056276748
 10
61.65945772113028
 20
-145.5508056276748
 10
61.65945772113028
 20
-145.5508056276748
 10
60.81334226995291
 20
-145.4302272856911
 10
60.81334226995291
 20
-145.4302272856911
 10
60.81334226995291
 20
-145.4302272856911
 10
60.81334226995291
 20
-144.6516357060246
 10
60.81334226995291
 20
-144.6516357060246
 10
60.81334226995291
 20
-144.6516357060246
 10
61.00799016486953
 20
-144.6516357060246
 10
61.00799016486953
 20
-144.6516357060246
 10
61.00799016486953
 20
-144.6516357060246
 10
61.00799016486953
 20
-145.2672742692387
 10
61.00799016486953
 20
-145.2672742692387
 10
61.00799016486953
 20
-145.2672742692387
 10
61.43104789045821
 20
-145.3327310834585
 10
61.43104789045821
 20
-145.3327310834585
 10
61.3971136999285
 20
-145.271408383821
 10
61.35697833752534
 20
-145.1890706017236
 10
61.35697833752534
 20
-145.070559317031
 10
61.35697833752534
 20
-144.816655779768
 10
61.54318574850309
 20
-144.5796332103828
 10
61.85617267333804
 20
-144.5796332103828
 10
62.17363822230382
 20
-144.5796332103828
 10
62.40842147962359
 20
-144.8039089264726
 10
62.40842147962359
 20
-145.1063883100775
 97
        0
 97
        1
330
12B
 75
     2
 76
     1
 98
        1
 10
0.0
 20
0.0
450
        0
451
        0
460
0.0
461
0.0
452
        0
462
0.0
453
        0
470

  0
ENDBLK
  5
125
330
122
100
AcDbEntity
  8
0
100
AcDbBlockEnd
  0
BLOCK
  5
131
330
12F
100
AcDbEntity
  8
0
100
AcDbBlockBegin
  2
Block_3
 70
     0
 10
0.0
 20
0.0
 30
0.0
  3
Block_3
  1

  0
INSERT
  5
134
330
12F
100
AcDbEntity
  8
レイヤー 1
100
AcDbBlockReference
  2
Block_4
 10
0.0
 20
0.0
 30
0.0
  0
ENDBLK
  5
132
330
12F
100
AcDbEntity
  8
0
100
AcDbBlockEnd
  0
BLOCK
  5
135
330
133
100
AcDbEntity
  8
0
100
AcDbBlockBegin
  2
Block_4
 70
     0
 10
0.0
 20
0.0
 30
0.0
  3
Block_4
  1

  0
SPLINE
  5
137
330
133
100
AcDbEntity
  8
レイヤー 1
100
AcDbSpline
210
0.0
220
0.0
230
1.0
 70
     9
 71
     3
 72
    44
 73
    40
 74
     0
 42
0.0000000001
 43
0.0000000001
 40
0.0
 40
0.0
 40
0.0
 40
0.0
 40
1.0
 40
1.0
 40
1.0
 40
2.0
 40
2.0
 40
2.0
 40
3.0
 40
3.0
 40
3.0
 40
4.0
 40
4.0
 40
4.0
 40
5.0
 40
5.0
 40
5.0
 40
6.0
 40
6.0
 40
6.0
 40
7.0
 40
7.0
 40
7.0
 40
8.0
 40
8.0
 40
8.0
 40
9.0
 40
9.0
 40
9.0
 40
10.0
 40
10.0
 40
10.0
 40
11.0
 40
11.0
 40
11.0
 40
12.0
 40
12.0
 40
12.0
 40
13.0
 40
13.0
 40
13.0
 40
13.0
 10
75.96039358995088
 20
-139.6000921960027
 30
0.0
 10
75.74249130050883
 20
-139.7587388430985
 30
0.0
 10
75.64930146763281
 20
-139.8328083960314
 30
0.0
 10
75.60072562129079
 20
-139.9766411325406
 30
0.0
 10
75.60072562129079
 20
-139.9766411325406
 30
0.0
 10
76.37914494618299
 20
-139.9766411325406
 30
0.0
 10
76.37914494618299
 20
-139.9766411325406
 30
0.0
 10
76.37914494618299
 20
-139.9766411325406
 30
0.0
 10
76.37914494618299
 20
-140.1817965686872
 30
0.0
 10
76.37914494618299
 20
-140.1817965686872
 30
0.0
 10
76.37914494618299
 20
-140.1817965686872
 30
0.0
 10
75.35112845338445
 20
-140.1817965686872
 30
0.0
 10
75.35112845338445
 20
-140.1817965686872
 30
0.0
 10
75.38282333184874
 20
-139.8241956573182
 30
0.0
 10
75.44845240084275
 20
-139.7459919898031
 30
0.0
 10
75.83344182131942
 20
-139.4476467207804
 30
0.0
 10
76.08941241587348
 20
-139.2488647112815
 30
0.0
 10
76.15486923009322
 20
-139.1811685849964
 30
0.0
 10
76.15486923009322
 20
-139.0437092751349
 30
0.0
 10
76.15486923009322
 20
-138.9251979904423
 30
0.0
 10
76.08303898922577
 20
-138.7939398524543
 30
0.0
 10
75.886324037018
 20
-138.7939398524543
 30
0.0
 10
75.62604707310739
 20
-138.7939398524543
 30
0.0
 10
75.61760658916852
 20
-139.0245889951918
 30
0.0
 10
75.61330021981196
 20
-139.1410332225932
 30
0.0
 10
75.61330021981196
 20
-139.1410332225932
 30
0.0
 10
75.38919675849645
 20
-139.1410332225932
 30
0.0
 10
75.38919675849645
 20
-139.1410332225932
 30
0.0
 10
75.39763724243532
 20
-139.0140814539617
 30
0.0
 10
75.40814478366534
 20
-138.9019435959169
 30
0.0
 10
75.48858776324592
 20
-138.7834323112243
 30
0.0
 10
75.59848630922537
 20
-138.6227186068374
 30
0.0
 10
75.78469372020314
 20
-138.5887844163077
 30
0.0
 10
75.90113794760458
 20
-138.5887844163077
 30
0.0
 10
76.17829587939294
 20
-138.5887844163077
 30
0.0
 10
76.3855183728307
 20
-138.7729247699942
 30
0.0
 10
76.3855183728307
 20
-139.045776332426
 30
0.0
 10
76.3855183728307
 20
-139.2741861630981
 30
0.0
 10
76.26924640020352
 20
-139.3737494226218
 30
0.0
 10
75.96039358995088
 20
-139.6000921960027
 30
0.0
  0
HATCH
  5
138
330
133
100
AcDbEntity
  8
レイヤー 1
 62
   250
420
  2299925
440
 33554687
100
AcDbHatch
 10
0.0
 20
0.0
 30
0.0
210
0.0
220
0.0
230
1.0
  2
SOLID
 70
     1
 71
     1
 91
        1
 92
        1
 93
        1
 72
     4
 94
        3
 73
     0
 74
     0
 95
       44
 96
       40
 40
0.0
 40
0.0
 40
0.0
 40
0.0
 40
1.0
 40
1.0
 40
1.0
 40
2.0
 40
2.0
 40
2.0
 40
3.0
 40
3.0
 40
3.0
 40
4.0
 40
4.0
 40
4.0
 40
5.0
 40
5.0
 40
5.0
 40
6.0
 40
6.0
 40
6.0
 40
7.0
 40
7.0
 40
7.0
 40
8.0
 40
8.0
 40
8.0
 40
9.0
 40
9.0
 40
9.0
 40
10.0
 40
10.0
 40
10.0
 40
11.0
 40
11.0
 40
11.0
 40
12.0
 40
12.0
 40
12.0
 40
13.0
 40
13.0
 40
13.0
 40
13.0
 10
75.96039358995088
 20
-139.6000921960027
 10
75.74249130050883
 20
-139.7587388430985
 10
75.64930146763281
 20
-139.8328083960314
 10
75.60072562129079
 20
-139.9766411325406
 10
75.60072562129079
 20
-139.9766411325406
 10
76.37914494618299
 20
-139.9766411325406
 10
76.37914494618299
 20
-139.9766411325406
 10
76.37914494618299
 20
-139.9766411325406
 10
76.37914494618299
 20
-140.1817965686872
 10
76.37914494618299
 20
-140.1817965686872
 10
76.37914494618299
 20
-140.1817965686872
 10
75.35112845338445
 20
-140.1817965686872
 10
75.35112845338445
 20
-140.1817965686872
 10
75.38282333184874
 20
-139.8241956573182
 10
75.44845240084275
 20
-139.7459919898031
 10
75.83344182131942
 20
-139.4476467207804
 10
76.08941241587348
 20
-139.2488647112815
 10
76.15486923009322
 20
-139.1811685849964
 10
76.15486923009322
 20
-139.0437092751349
 10
76.15486923009322
 20
-138.9251979904423
 10
76.08303898922577
 20
-138.7939398524543
 10
75.886324037018
 20
-138.7939398524543
 10
75.62604707310739
 20
-138.7939398524543
 10
75.61760658916852
 20
-139.0245889951918
 10
75.61330021981196
 20
-139.1410332225932
 10
75.61330021981196
 20
-139.1410332225932
 10
75.38919675849645
 20
-139.1410332225932
 10
75.38919675849645
 20
-139.1410332225932
 10
75.39763724243532
 20
-139.0140814539617
 10
75.40814478366534
 20
-138.9019435959169
 10
75.48858776324592
 20
-138.7834323112243
 10
75.59848630922537
 20
-138.6227186068374
 10
75.78469372020314
 20
-138.5887844163077
 10
75.90113794760458
 20
-138.5887844163077
 10
76.17829587939294
 20
-138.5887844163077
 10
76.3855183728307
 20
-138.7729247699942
 10
76.3855183728307
 20
-139.045776332426
 10
76.3855183728307
 20
-139.2741861630981
 10
76.26924640020352
 20
-139.3737494226218
 10
75.96039358995088
 20
-139.6000921960027
 97
        0
 97
        1
330
137
 75
     2
 76
     1
 98
        1
 10
0.0
 20
0.0
450
        0
451
        0
460
0.0
461
0.0
452
        0
462
0.0
453
        0
470

  0
SPLINE
  5
139
330
133
100
AcDbEntity
  8
レイヤー 1
100
AcDbSpline
210
0.0
220
0.0
230
1.0
 70
    11
 71
     3
 72
    26
 73
    22
 74
     0
 42
0.0000000001
 43
0.0000000001
 40
0.0
 40
0.0
 40
0.0
 40
0.0
 40
1.0
 40
1.0
 40
1.0
 40
2.0
 40
2.0
 40
2.0
 40
3.0
 40
3.0
 40
3.0
 40
4.0
 40
4.0
 40
4.0
 40
5.0
 40
5.0
 40
5.0
 40
6.0
 40
6.0
 40
6.0
 40
7.0
 40
7.0
 40
7.0
 40
7.0
 10
76.99547252849419
 20
-140.1817965686872
 30
0.0
 10
76.99547252849419
 20
-140.1817965686872
 30
0.0
 10
76.99547252849419
 20
-139.0774712108903
 30
0.0
 10
76.99547252849419
 20
-139.0774712108903
 30
0.0
 10
76.99547252849419
 20
-139.0774712108903
 30
0.0
 10
76.66543238100725
 20
-139.0774712108903
 30
0.0
 10
76.66543238100725
 20
-139.0774712108903
 30
0.0
 10
76.66543238100725
 20
-139.0774712108903
 30
0.0
 10
76.66543238100725
 20
-138.9293321050246
 30
0.0
 10
76.66543238100725
 20
-138.9293321050246
 30
0.0
 10
76.99753958578535
 20
-138.9146904492123
 30
0.0
 10
77.04404837483621
 20
-138.75173743276
 30
0.0
 10
77.07367619600936
 20
-138.6375325174239
 30
0.0
 10
77.07367619600936
 20
-138.6375325174239
 30
0.0
 10
77.21974824458396
 20
-138.6375325174239
 30
0.0
 10
77.21974824458396
 20
-138.6375325174239
 30
0.0
 10
77.21974824458396
 20
-138.6375325174239
 30
0.0
 10
77.21974824458396
 20
-140.1817965686872
 30
0.0
 10
77.21974824458396
 20
-140.1817965686872
 30
0.0
 10
77.21974824458396
 20
-140.1817965686872
 30
0.0
 10
76.99547252849419
 20
-140.1817965686872
 30
0.0
 10
76.99547252849419
 20
-140.1817965686872
 30
0.0
  0
HATCH
  5
13A
330
133
100
AcDbEntity
  8
レイヤー 1
 62
   250
420
  2299925
440
 33554687
100
AcDbHatch
 10
0.0
 20
0.0
 30
0.0
210
0.0
220
0.0
230
1.0
  2
SOLID
 70
     1
 71
     1
 91
        1
 92
        1
 93
        1
 72
     4
 94
        3
 73
     0
 74
     0
 95
       26
 96
       22
 40
0.0
 40
0.0
 40
0.0
 40
0.0
 40
1.0
 40
1.0
 40
1.0
 40
2.0
 40
2.0
 40
2.0
 40
3.0
 40
3.0
 40
3.0
 40
4.0
 40
4.0
 40
4.0
 40
5.0
 40
5.0
 40
5.0
 40
6.0
 40
6.0
 40
6.0
 40
7.0
 40
7.0
 40
7.0
 40
7.0
 10
76.99547252849419
 20
-140.1817965686872
 10
76.99547252849419
 20
-140.1817965686872
 10
76.99547252849419
 20
-139.0774712108903
 10
76.99547252849419
 20
-139.0774712108903
 10
76.99547252849419
 20
-139.0774712108903
 10
76.66543238100725
 20
-139.0774712108903
 10
76.66543238100725
 20
-139.0774712108903
 10
76.66543238100725
 20
-139.0774712108903
 10
76.66543238100725
 20
-138.9293321050246
 10
76.66543238100725
 20
-138.9293321050246
 10
76.99753958578535
 20
-138.9146904492123
 10
77.04404837483621
 20
-138.75173743276
 10
77.07367619600936
 20
-138.6375325174239
 10
77.07367619600936
 20
-138.6375325174239
 10
77.21974824458396
 20
-138.6375325174239
 10
77.21974824458396
 20
-138.6375325174239
 10
77.21974824458396
 20
-138.6375325174239
 10
77.21974824458396
 20
-140.1817965686872
 10
77.21974824458396
 20
-140.1817965686872
 10
77.21974824458396
 20
-140.1817965686872
 10
76.99547252849419
 20
-140.1817965686872
 10
76.99547252849419
 20
-140.1817965686872
 97
        0
 97
        1
330
139
 75
     2
 76
     1
 98
        1
 10
0.0
 20
0.0
450
        0
451
        0
460
0.0
461
0.0
452
        0
462
0.0
453
        0
470

  0
ENDBLK
  5
136
330
133
100
AcDbEntity
  8
0
100
AcDbBlockEnd
  0
BLOCK
  5
13F
330
13D
100
AcDbEntity
  8
0
100
AcDbBlockBegin
  2
Block_5
 70
     0
 10
0.0
 20
0.0
 30
0.0
  3
Block_5
  1

  0
SPLINE
  5
141
330
13D
100
AcDbEntity
  8
レイヤー 1
100
AcDbSpline
210
0.0
220
0.0
230
1.0
 70
     9
 71
     3
 72
    17
 73
    13
 74
     0
 42
0.0000000001
 43
0.0000000001
 40
0.0
 40
0.0
 40
0.0
 40
0.0
 40
1.0
 40
1.0
 40
1.0
 40
2.0
 40
2.0
 40
2.0
 40
3.0
 40
3.0
 40
3.0
 40
4.0
 40
4.0
 40
4.0
 40
4.0
 10
62.34796005385746
 20
-150.1551757437112
 30
0.0
 10
62.34796005385746
 20
-150.2988362254461
 30
0.0
 10
62.4346042053115
 20
-150.4514539554427
 30
0.0
 10
62.63769258416697
 20
-150.4514539554427
 30
0.0
 10
62.84284802031359
 20
-150.4514539554427
 30
0.0
 10
62.94447833712847
 20
-150.324329932037
 30
0.0
 10
62.94447833712847
 20
-150.1551757437112
 30
0.0
 10
62.94447833712847
 20
-149.9691405875077
 30
0.0
 10
62.82183293785357
 20
-149.8588975319797
 30
0.0
 10
62.64406601081468
 20
-149.8588975319797
 30
0.0
 10
62.42185735201607
 20
-149.8588975319797
 30
0.0
 10
62.34796005385746
 20
-150.021850548432
 30
0.0
 10
62.34796005385746
 20
-150.1551757437112
 30
0.0
  0
SPLINE
  5
142
330
13D
100
AcDbEntity
  8
レイヤー 1
100
AcDbSpline
210
0.0
220
0.0
230
1.0
 70
     9
 71
     3
 72
    17
 73
    13
 74
     0
 42
0.0000000001
 43
0.0000000001
 40
0.0
 40
0.0
 40
0.0
 40
0.0
 40
1.0
 40
1.0
 40
1.0
 40
2.0
 40
2.0
 40
2.0
 40
3.0
 40
3.0
 40
3.0
 40
4.0
 40
4.0
 40
4.0
 40
4.0
 10
61.68787975888359
 20
-150.1551757437112
 30
0.0
 10
61.68787975888359
 20
-150.3201958174547
 30
0.0
 10
61.78296439427648
 20
-150.4046006568433
 30
0.0
 10
61.9183566468468
 20
-150.4046006568433
 30
0.0
 10
62.04117430089596
 20
-150.4046006568433
 30
0.0
 10
62.15968558558856
 20
-150.3329426707501
 30
0.0
 10
62.15968558558856
 20
-150.1551757437112
 30
0.0
 10
62.15968558558856
 20
-149.9774088166723
 30
0.0
 10
62.04117430089596
 20
-149.9054063210306
 30
0.0
 10
61.9183566468468
 20
-149.9054063210306
 30
0.0
 10
61.78296439427648
 20
-149.9054063210306
 30
0.0
 10
61.68787975888359
 20
-149.9922227272589
 30
0.0
 10
61.68787975888359
 20
-150.1551757437112
 30
0.0
  0
SPLINE
  5
143
330
13D
100
AcDbEntity
  8
レイヤー 1
100
AcDbSpline
210
0.0
220
0.0
230
1.0
 70
     9
 71
     3
 72
    29
 73
    25
 74
     0
 42
0.0000000001
 43
0.0000000001
 40
0.0
 40
0.0
 40
0.0
 40
0.0
 40
1.0
 40
1.0
 40
1.0
 40
2.0
 40
2.0
 40
2.0
 40
3.0
 40
3.0
 40
3.0
 40
4.0
 40
4.0
 40
4.0
 40
5.0
 40
5.0
 40
5.0
 40
6.0
 40
6.0
 40
6.0
 40
7.0
 40
7.0
 40
7.0
 40
8.0
 40
8.0
 40
8.0
 40
8.0
 10
63.13912623204508
 20
-150.1551757437112
 30
0.0
 10
63.13912623204508
 20
-150.4218261342695
 30
0.0
 10
63.00149466740935
 20
-150.6753851619839
 30
0.0
 10
62.65250649475355
 20
-150.6753851619839
 30
0.0
 10
62.39653590019948
 20
-150.6753851619839
 30
0.0
 10
62.30127901003232
 20
-150.5337917375401
 30
0.0
 10
62.23995631039487
 20
-150.428027306143
 30
0.0
 10
62.18070066804858
 20
-150.552739762709
 30
0.0
 10
62.06649575271255
 20
-150.628876372933
 30
0.0
 10
61.90578204832564
 20
-150.628876372933
 30
0.0
 10
61.63069117382844
 20
-150.628876372933
 30
0.0
 10
61.49529892125812
 20
-150.4300943634341
 30
0.0
 10
61.49529892125812
 20
-150.1551757437112
 30
0.0
 10
61.49529892125812
 20
-149.8716443852751
 30
0.0
 10
61.6391316577673
 20
-149.6811306049408
 30
0.0
 10
61.90578204832564
 20
-149.6811306049408
 30
0.0
 10
62.06649575271255
 20
-149.6811306049408
 30
0.0
 10
62.18070066804858
 20
-149.7596787820045
 30
0.0
 10
62.23995631039487
 20
-149.8843912385706
 30
0.0
 10
62.29077146880231
 20
-149.7955077750511
 30
0.0
 10
62.38602835896947
 20
-149.6366888731811
 30
0.0
 10
62.64837238017125
 20
-149.6366888731811
 30
0.0
 10
63.02268200464363
 20
-149.6366888731811
 30
0.0
 10
63.13912623204508
 20
-149.9160861170348
 30
0.0
 10
63.13912623204508
 20
-150.1551757437112
 30
0.0
  0
HATCH
  5
144
330
13D
100
AcDbEntity
  8
レイヤー 1
 62
   250
420
  2299925
440
 33554687
100
AcDbHatch
 10
0.0
 20
0.0
 30
0.0
210
0.0
220
0.0
230
1.0
  2
SOLID
 70
     1
 71
     1
 91
        3
 92
        1
 93
        1
 72
     4
 94
        3
 73
     0
 74
     0
 95
       17
 96
       13
 40
0.0
 40
0.0
 40
0.0
 40
0.0
 40
1.0
 40
1.0
 40
1.0
 40
2.0
 40
2.0
 40
2.0
 40
3.0
 40
3.0
 40
3.0
 40
4.0
 40
4.0
 40
4.0
 40
4.0
 10
62.34796005385746
 20
-150.1551757437112
 10
62.34796005385746
 20
-150.2988362254461
 10
62.4346042053115
 20
-150.4514539554427
 10
62.63769258416697
 20
-150.4514539554427
 10
62.84284802031359
 20
-150.4514539554427
 10
62.94447833712847
 20
-150.324329932037
 10
62.94447833712847
 20
-150.1551757437112
 10
62.94447833712847
 20
-149.9691405875077
 10
62.82183293785357
 20
-149.8588975319797
 10
62.64406601081468
 20
-149.8588975319797
 10
62.42185735201607
 20
-149.8588975319797
 10
62.34796005385746
 20
-150.021850548432
 10
62.34796005385746
 20
-150.1551757437112
 97
        0
 97
        1
330
141
 92
        1
 93
        1
 72
     4
 94
        3
 73
     0
 74
     0
 95
       17
 96
       13
 40
0.0
 40
0.0
 40
0.0
 40
0.0
 40
1.0
 40
1.0
 40
1.0
 40
2.0
 40
2.0
 40
2.0
 40
3.0
 40
3.0
 40
3.0
 40
4.0
 40
4.0
 40
4.0
 40
4.0
 10
61.68787975888359
 20
-150.1551757437112
 10
61.68787975888359
 20
-150.3201958174547
 10
61.78296439427648
 20
-150.4046006568433
 10
61.9183566468468
 20
-150.4046006568433
 10
62.04117430089596
 20
-150.4046006568433
 10
62.15968558558856
 20
-150.3329426707501
 10
62.15968558558856
 20
-150.1551757437112
 10
62.15968558558856
 20
-149.9774088166723
 10
62.04117430089596
 20
-149.9054063210306
 10
61.9183566468468
 20
-149.9054063210306
 10
61.78296439427648
 20
-149.9054063210306
 10
61.68787975888359
 20
-149.9922227272589
 10
61.68787975888359
 20
-150.1551757437112
 97
        0
 97
        1
330
142
 92
        1
 93
        1
 72
     4
 94
        3
 73
     0
 74
     0
 95
       29
 96
       25
 40
0.0
 40
0.0
 40
0.0
 40
0.0
 40
1.0
 40
1.0
 40
1.0
 40
2.0
 40
2.0
 40
2.0
 40
3.0
 40
3.0
 40
3.0
 40
4.0
 40
4.0
 40
4.0
 40
5.0
 40
5.0
 40
5.0
 40
6.0
 40
6.0
 40
6.0
 40
7.0
 40
7.0
 40
7.0
 40
8.0
 40
8.0
 40
8.0
 40
8.0
 10
63.13912623204508
 20
-150.1551757437112
 10
63.13912623204508
 20
-150.4218261342695
 10
63.00149466740935
 20
-150.6753851619839
 10
62.65250649475355
 20
-150.6753851619839
 10
62.39653590019948
 20
-150.6753851619839
 10
62.30127901003232
 20
-150.5337917375401
 10
62.23995631039487
 20
-150.428027306143
 10
62.18070066804858
 20
-150.552739762709
 10
62.06649575271255
 20
-150.628876372933
 10
61.90578204832564
 20
-150.628876372933
 10
61.63069117382844
 20
-150.628876372933
 10
61.49529892125812
 20
-150.4300943634341
 10
61.49529892125812
 20
-150.1551757437112
 10
61.49529892125812
 20
-149.8716443852751
 10
61.6391316577673
 20
-149.6811306049408
 10
61.90578204832564
 20
-149.6811306049408
 10
62.06649575271255
 20
-149.6811306049408
 10
62.18070066804858
 20
-149.7596787820045
 10
62.23995631039487
 20
-149.8843912385706
 10
62.29077146880231
 20
-149.7955077750511
 10
62.38602835896947
 20
-149.6366888731811
 10
62.64837238017125
 20
-149.6366888731811
 10
63.02268200464363
 20
-149.6366888731811
 10
63.13912623204508
 20
-149.9160861170348
 10
63.13912623204508
 20
-150.1551757437112
 97
        0
 97
        1
330
143
 75
     2
 76
     1
 98
        1
 10
0.0
 20
0.0
450
        0
451
        0
460
0.0
461
0.0
452
        0
462
0.0
453
        0
470

  0
ENDBLK
  5
140
330
13D
100
AcDbEntity
  8
0
100
AcDbBlockEnd
  0
BLOCK
  5
149
330
147
100
AcDbEntity
  8
0
100
AcDbBlockBegin
  2
Block_6
 70
     0
 10
0.0
 20
0.0
 30
0.0
  3
Block_6
  1

  0
INSERT
  5
14C
330
147
100
AcDbEntity
  8
レイヤー 1
100
AcDbBlockReference
  2
Block_7
 10
0.0
 20
0.0
 30
0.0
  0
ENDBLK
  5
14A
330
147
100
AcDbEntity
  8
0
100
AcDbBlockEnd
  0
BLOCK
  5
14D
330
14B
100
AcDbEntity
  8
0
100
AcDbBlockBegin
  2
Block_7
 70
     0
 10
0.0
 20
0.0
 30
0.0
  3
Block_7
  1

  0
SPLINE
  5
14F
330
14B
100
AcDbEntity
  8
レイヤー 1
100
AcDbSpline
210
0.0
220
0.0
230
1.0
 70
     9
 71
     3
 72
    44
 73
    40
 74
     0
 42
0.0000000001
 43
0.0000000001
 40
0.0
 40
0.0
 40
0.0
 40
0.0
 40
1.0
 40
1.0
 40
1.0
 40
2.0
 40
2.0
 40
2.0
 40
3.0
 40
3.0
 40
3.0
 40
4.0
 40
4.0
 40
4.0
 40
5.0
 40
5.0
 40
5.0
 40
6.0
 40
6.0
 40
6.0
 40
7.0
 40
7.0
 40
7.0
 40
8.0
 40
8.0
 40
8.0
 40
9.0
 40
9.0
 40
9.0
 40
10.0
 40
10.0
 40
10.0
 40
11.0
 40
11.0
 40
11.0
 40
12.0
 40
12.0
 40
12.0
 40
13.0
 40
13.0
 40
13.0
 40
13.0
 10
106.9616020782943
 20
-139.6000921960027
 30
0.0
 10
106.7438720436265
 20
-139.7587388430985
 30
0.0
 10
106.6508544655248
 20
-139.8328083960314
 30
0.0
 10
106.6019341096342
 20
-139.9766411325406
 30
0.0
 10
106.6019341096342
 20
-139.9766411325406
 30
0.0
 10
107.3805256893007
 20
-139.9766411325406
 30
0.0
 10
107.3805256893007
 20
-139.9766411325406
 30
0.0
 10
107.3805256893007
 20
-139.9766411325406
 30
0.0
 10
107.3805256893007
 20
-140.1817965686872
 30
0.0
 10
107.3805256893007
 20
-140.1817965686872
 30
0.0
 10
107.3805256893007
 20
-140.1817965686872
 30
0.0
 10
106.3525091965021
 20
-140.1817965686872
 30
0.0
 10
106.3525091965021
 20
-140.1817965686872
 30
0.0
 10
106.3842040749664
 20
-139.8241956573182
 30
0.0
 10
106.4496608891862
 20
-139.7459919898031
 30
0.0
 10
106.8348225644371
 20
-139.4476467207804
 30
0.0
 10
107.0907931589912
 20
-139.2488647112815
 30
0.0
 10
107.1562499732109
 20
-139.1811685849964
 30
0.0
 10
107.1562499732109
 20
-139.0437092751349
 30
0.0
 10
107.1562499732109
 20
-138.9251979904423
 30
0.0
 10
107.0842474775692
 20
-138.7939398524543
 30
0.0
 10
106.8875325253614
 20
-138.7939398524543
 30
0.0
 10
106.6274278162251
 20
-138.7939398524543
 30
0.0
 10
106.6191595870605
 20
-139.0245889951918
 30
0.0
 10
106.6146809629296
 20
-139.1410332225932
 30
0.0
 10
106.6146809629296
 20
-139.1410332225932
 30
0.0
 10
106.3904052468399
 20
-139.1410332225932
 30
0.0
 10
106.3904052468399
 20
-139.1410332225932
 30
0.0
 10
106.399017985553
 20
-139.0140814539617
 30
0.0
 10
106.4096977815573
 20
-138.9019435959169
 30
0.0
 10
106.4899685063636
 20
-138.7834323112243
 30
0.0
 10
106.5998670523431
 20
-138.6227186068374
 30
0.0
 10
106.7862467180951
 20
-138.5887844163077
 30
0.0
 10
106.902346435948
 20
-138.5887844163077
 30
0.0
 10
107.1796766225106
 20
-138.5887844163077
 30
0.0
 10
107.3870713707226
 20
-138.7729247699942
 30
0.0
 10
107.3870713707226
 20
-139.045776332426
 30
0.0
 10
107.3870713707226
 20
-139.2741861630981
 30
0.0
 10
107.2706271433212
 20
-139.3737494226218
 30
0.0
 10
106.9616020782943
 20
-139.6000921960027
 30
0.0
  0
HATCH
  5
150
330
14B
100
AcDbEntity
  8
レイヤー 1
 62
   250
420
  2299925
440
 33554687
100
AcDbHatch
 10
0.0
 20
0.0
 30
0.0
210
0.0
220
0.0
230
1.0
  2
SOLID
 70
     1
 71
     1
 91
        1
 92
        1
 93
        1
 72
     4
 94
        3
 73
     0
 74
     0
 95
       44
 96
       40
 40
0.0
 40
0.0
 40
0.0
 40
0.0
 40
1.0
 40
1.0
 40
1.0
 40
2.0
 40
2.0
 40
2.0
 40
3.0
 40
3.0
 40
3.0
 40
4.0
 40
4.0
 40
4.0
 40
5.0
 40
5.0
 40
5.0
 40
6.0
 40
6.0
 40
6.0
 40
7.0
 40
7.0
 40
7.0
 40
8.0
 40
8.0
 40
8.0
 40
9.0
 40
9.0
 40
9.0
 40
10.0
 40
10.0
 40
10.0
 40
11.0
 40
11.0
 40
11.0
 40
12.0
 40
12.0
 40
12.0
 40
13.0
 40
13.0
 40
13.0
 40
13.0
 10
106.9616020782943
 20
-139.6000921960027
 10
106.7438720436265
 20
-139.7587388430985
 10
106.6508544655248
 20
-139.8328083960314
 10
106.6019341096342
 20
-139.9766411325406
 10
106.6019341096342
 20
-139.9766411325406
 10
107.3805256893007
 20
-139.9766411325406
 10
107.3805256893007
 20
-139.9766411325406
 10
107.3805256893007
 20
-139.9766411325406
 10
107.3805256893007
 20
-140.1817965686872
 10
107.3805256893007
 20
-140.1817965686872
 10
107.3805256893007
 20
-140.1817965686872
 10
106.3525091965021
 20
-140.1817965686872
 10
106.3525091965021
 20
-140.1817965686872
 10
106.3842040749664
 20
-139.8241956573182
 10
106.4496608891862
 20
-139.7459919898031
 10
106.8348225644371
 20
-139.4476467207804
 10
107.0907931589912
 20
-139.2488647112815
 10
107.1562499732109
 20
-139.1811685849964
 10
107.1562499732109
 20
-139.0437092751349
 10
107.1562499732109
 20
-138.9251979904423
 10
107.0842474775692
 20
-138.7939398524543
 10
106.8875325253614
 20
-138.7939398524543
 10
106.6274278162251
 20
-138.7939398524543
 10
106.6191595870605
 20
-139.0245889951918
 10
106.6146809629296
 20
-139.1410332225932
 10
106.6146809629296
 20
-139.1410332225932
 10
106.3904052468399
 20
-139.1410332225932
 10
106.3904052468399
 20
-139.1410332225932
 10
106.399017985553
 20
-139.0140814539617
 10
106.4096977815573
 20
-138.9019435959169
 10
106.4899685063636
 20
-138.7834323112243
 10
106.5998670523431
 20
-138.6227186068374
 10
106.7862467180951
 20
-138.5887844163077
 10
106.902346435948
 20
-138.5887844163077
 10
107.1796766225106
 20
-138.5887844163077
 10
107.3870713707226
 20
-138.7729247699942
 10
107.3870713707226
 20
-139.045776332426
 10
107.3870713707226
 20
-139.2741861630981
 10
107.2706271433212
 20
-139.3737494226218
 10
106.9616020782943
 20
-139.6000921960027
 97
        0
 97
        1
330
14F
 75
     2
 76
     1
 98
        1
 10
0.0
 20
0.0
450
        0
451
        0
460
0.0
461
0.0
452
        0
462
0.0
453
        0
470

  0
SPLINE
  5
151
330
14B
100
AcDbEntity
  8
レイヤー 1
100
AcDbSpline
210
0.0
220
0.0
230
1.0
 70
    11
 71
     3
 72
    26
 73
    22
 74
     0
 42
0.0000000001
 43
0.0000000001
 40
0.0
 40
0.0
 40
0.0
 40
0.0
 40
1.0
 40
1.0
 40
1.0
 40
2.0
 40
2.0
 40
2.0
 40
3.0
 40
3.0
 40
3.0
 40
4.0
 40
4.0
 40
4.0
 40
5.0
 40
5.0
 40
5.0
 40
6.0
 40
6.0
 40
6.0
 40
7.0
 40
7.0
 40
7.0
 40
7.0
 10
107.9968532716119
 20
-140.1817965686872
 30
0.0
 10
107.9968532716119
 20
-140.1817965686872
 30
0.0
 10
107.9968532716119
 20
-139.0774712108903
 30
0.0
 10
107.9968532716119
 20
-139.0774712108903
 30
0.0
 10
107.9968532716119
 20
-139.0774712108903
 30
0.0
 10
107.666813124125
 20
-139.0774712108903
 30
0.0
 10
107.666813124125
 20
-139.0774712108903
 30
0.0
 10
107.666813124125
 20
-139.0774712108903
 30
0.0
 10
107.666813124125
 20
-138.9293321050246
 30
0.0
 10
107.666813124125
 20
-138.9293321050246
 30
0.0
 10
107.998920328903
 20
-138.9146904492123
 30
0.0
 10
108.0454291179539
 20
-138.75173743276
 30
0.0
 10
108.0750569391271
 20
-138.6375325174239
 30
0.0
 10
108.0750569391271
 20
-138.6375325174239
 30
0.0
 10
108.2211289877016
 20
-138.6375325174239
 30
0.0
 10
108.2211289877016
 20
-138.6375325174239
 30
0.0
 10
108.2211289877016
 20
-138.6375325174239
 30
0.0
 10
108.2211289877016
 20
-140.1817965686872
 30
0.0
 10
108.2211289877016
 20
-140.1817965686872
 30
0.0
 10
108.2211289877016
 20
-140.1817965686872
 30
0.0
 10
107.9968532716119
 20
-140.1817965686872
 30
0.0
 10
107.9968532716119
 20
-140.1817965686872
 30
0.0
  0
HATCH
  5
152
330
14B
100
AcDbEntity
  8
レイヤー 1
 62
   250
420
  2299925
440
 33554687
100
AcDbHatch
 10
0.0
 20
0.0
 30
0.0
210
0.0
220
0.0
230
1.0
  2
SOLID
 70
     1
 71
     1
 91
        1
 92
        1
 93
        1
 72
     4
 94
        3
 73
     0
 74
     0
 95
       26
 96
       22
 40
0.0
 40
0.0
 40
0.0
 40
0.0
 40
1.0
 40
1.0
 40
1.0
 40
2.0
 40
2.0
 40
2.0
 40
3.0
 40
3.0
 40
3.0
 40
4.0
 40
4.0
 40
4.0
 40
5.0
 40
5.0
 40
5.0
 40
6.0
 40
6.0
 40
6.0
 40
7.0
 40
7.0
 40
7.0
 40
7.0
 10
107.9968532716119
 20
-140.1817965686872
 10
107.9968532716119
 20
-140.1817965686872
 10
107.9968532716119
 20
-139.0774712108903
 10
107.9968532716119
 20
-139.0774712108903
 10
107.9968532716119
 20
-139.0774712108903
 10
107.666813124125
 20
-139.0774712108903
 10
107.666813124125
 20
-139.0774712108903
 10
107.666813124125
 20
-139.0774712108903
 10
107.666813124125
 20
-138.9293321050246
 10
107.666813124125
 20
-138.9293321050246
 10
107.998920328903
 20
-138.9146904492123
 10
108.0454291179539
 20
-138.75173743276
 10
108.0750569391271
 20
-138.6375325174239
 10
108.0750569391271
 20
-138.6375325174239
 10
108.2211289877016
 20
-138.6375325174239
 10
108.2211289877016
 20
-138.6375325174239
 10
108.2211289877016
 20
-138.6375325174239
 10
108.2211289877016
 20
-140.1817965686872
 10
108.2211289877016
 20
-140.1817965686872
 10
108.2211289877016
 20
-140.1817965686872
 10
107.9968532716119
 20
-140.1817965686872
 10
107.9968532716119
 20
-140.1817965686872
 97
        0
 97
        1
330
151
 75
     2
 76
     1
 98
        1
 10
0.0
 20
0.0
450
        0
451
        0
460
0.0
461
0.0
452
        0
462
0.0
453
        0
470

  0
ENDBLK
  5
14E
330
14B
100
AcDbEntity
  8
0
100
AcDbBlockEnd
  0
BLOCK
  5
158
330
156
100
AcDbEntity
  8
0
100
AcDbBlockBegin
  2
Block_8
 70
     0
 10
0.0
 20
0.0
 30
0.0
  3
Block_8
  1

  0
INSERT
  5
15B
330
156
100
AcDbEntity
  8
レイヤー 1
100
AcDbBlockReference
  2
Block_9
 10
0.0
 20
0.0
 30
0.0
  0
ENDBLK
  5
159
330
156
100
AcDbEntity
  8
0
100
AcDbBlockEnd
  0
BLOCK
  5
15C
330
15A
100
AcDbEntity
  8
0
100
AcDbBlockBegin
  2
Block_9
 70
     0
 10
0.0
 20
0.0
 30
0.0
  3
Block_9
  1

  0
SPLINE
  5
15E
330
15A
100
AcDbEntity
  8
レイヤー 1
100
AcDbSpline
210
0.0
220
0.0
230
1.0
 70
    11
 71
     3
 72
    26
 73
    22
 74
     0
 42
0.0000000001
 43
0.0000000001
 40
0.0
 40
0.0
 40
0.0
 40
0.0
 40
1.0
 40
1.0
 40
1.0
 40
2.0
 40
2.0
 40
2.0
 40
3.0
 40
3.0
 40
3.0
 40
4.0
 40
4.0
 40
4.0
 40
5.0
 40
5.0
 40
5.0
 40
6.0
 40
6.0
 40
6.0
 40
7.0
 40
7.0
 40
7.0
 40
7.0
 10
91.3193182822917
 20
-140.1817965686872
 30
0.0
 10
91.3193182822917
 20
-140.1817965686872
 30
0.0
 10
91.3193182822917
 20
-139.0774712108903
 30
0.0
 10
91.3193182822917
 20
-139.0774712108903
 30
0.0
 10
91.3193182822917
 20
-139.0774712108903
 30
0.0
 10
90.98927813480477
 20
-139.0774712108903
 30
0.0
 10
90.98927813480477
 20
-139.0774712108903
 30
0.0
 10
90.98927813480477
 20
-139.0774712108903
 30
0.0
 10
90.98927813480477
 20
-138.9293321050246
 30
0.0
 10
90.98927813480477
 20
-138.9293321050246
 30
0.0
 10
91.32138533958285
 20
-138.9146904492123
 30
0.0
 10
91.36789412863372
 20
-138.75173743276
 30
0.0
 10
91.39752194980687
 20
-138.6375325174239
 30
0.0
 10
91.39752194980687
 20
-138.6375325174239
 30
0.0
 10
91.54359399838147
 20
-138.6375325174239
 30
0.0
 10
91.54359399838147
 20
-138.6375325174239
 30
0.0
 10
91.54359399838147
 20
-138.6375325174239
 30
0.0
 10
91.54359399838147
 20
-140.1817965686872
 30
0.0
 10
91.54359399838147
 20
-140.1817965686872
 30
0.0
 10
91.54359399838147
 20
-140.1817965686872
 30
0.0
 10
91.3193182822917
 20
-140.1817965686872
 30
0.0
 10
91.3193182822917
 20
-140.1817965686872
 30
0.0
  0
HATCH
  5
15F
330
15A
100
AcDbEntity
  8
レイヤー 1
 62
   250
420
  2299925
440
 33554687
100
AcDbHatch
 10
0.0
 20
0.0
 30
0.0
210
0.0
220
0.0
230
1.0
  2
SOLID
 70
     1
 71
     1
 91
        1
 92
        1
 93
        1
 72
     4
 94
        3
 73
     0
 74
     0
 95
       26
 96
       22
 40
0.0
 40
0.0
 40
0.0
 40
0.0
 40
1.0
 40
1.0
 40
1.0
 40
2.0
 40
2.0
 40
2.0
 40
3.0
 40
3.0
 40
3.0
 40
4.0
 40
4.0
 40
4.0
 40
5.0
 40
5.0
 40
5.0
 40
6.0
 40
6.0
 40
6.0
 40
7.0
 40
7.0
 40
7.0
 40
7.0
 10
91.3193182822917
 20
-140.1817965686872
 10
91.3193182822917
 20
-140.1817965686872
 10
91.3193182822917
 20
-139.0774712108903
 10
91.3193182822917
 20
-139.0774712108903
 10
91.3193182822917
 20
-139.0774712108903
 10
90.98927813480477
 20
-139.0774712108903
 10
90.98927813480477
 20
-139.0774712108903
 10
90.98927813480477
 20
-139.0774712108903
 10
90.98927813480477
 20
-138.9293321050246
 10
90.98927813480477
 20
-138.9293321050246
 10
91.32138533958285
 20
-138.9146904492123
 10
91.36789412863372
 20
-138.75173743276
 10
91.39752194980687
 20
-138.6375325174239
 10
91.39752194980687
 20
-138.6375325174239
 10
91.54359399838147
 20
-138.6375325174239
 10
91.54359399838147
 20
-138.6375325174239
 10
91.54359399838147
 20
-138.6375325174239
 10
91.54359399838147
 20
-140.1817965686872
 10
91.54359399838147
 20
-140.1817965686872
 10
91.54359399838147
 20
-140.1817965686872
 10
91.3193182822917
 20
-140.1817965686872
 10
91.3193182822917
 20
-140.1817965686872
 97
        0
 97
        1
330
15E
 75
     2
 76
     1
 98
        1
 10
0.0
 20
0.0
450
        0
451
        0
460
0.0
461
0.0
452
        0
462
0.0
453
        0
470

  0
SPLINE
  5
160
330
15A
100
AcDbEntity
  8
レイヤー 1
100
AcDbSpline
210
0.0
220
0.0
230
1.0
 70
     9
 71
     3
 72
    17
 73
    13
 74
     0
 42
0.0000000001
 43
0.0000000001
 40
0.0
 40
0.0
 40
0.0
 40
0.0
 40
1.0
 40
1.0
 40
1.0
 40
2.0
 40
2.0
 40
2.0
 40
3.0
 40
3.0
 40
3.0
 40
4.0
 40
4.0
 40
4.0
 40
4.0
 10
92.54473874639506
 20
-138.7813652539331
 30
0.0
 10
92.29496932371445
 20
-138.7813652539331
 30
0.0
 10
92.24846053466357
 20
-139.0647243575949
 30
0.0
 10
92.24846053466357
 20
-139.4095784156684
 30
0.0
 10
92.24846053466357
 20
-139.7291110219254
 30
0.0
 10
92.28463403725871
 20
-140.037963832178
 30
0.0
 10
92.54473874639506
 20
-140.037963832178
 30
0.0
 10
92.79244111178453
 20
-140.037963832178
 30
0.0
 10
92.84101695812656
 20
-139.7564995310331
 30
0.0
 10
92.84101695812656
 20
-139.4095784156684
 30
0.0
 10
92.84101695812656
 20
-139.0902180641858
 30
0.0
 10
92.80277639824028
 20
-138.7813652539331
 30
0.0
 10
92.54473874639506
 20
-138.7813652539331
 30
0.0
  0
SPLINE
  5
161
330
15A
100
AcDbEntity
  8
レイヤー 1
100
AcDbSpline
210
0.0
220
0.0
230
1.0
 70
     9
 71
     3
 72
    29
 73
    25
 74
     0
 42
0.0000000001
 43
0.0000000001
 40
0.0
 40
0.0
 40
0.0
 40
0.0
 40
1.0
 40
1.0
 40
1.0
 40
2.0
 40
2.0
 40
2.0
 40
3.0
 40
3.0
 40
3.0
 40
4.0
 40
4.0
 40
4.0
 40
5.0
 40
5.0
 40
5.0
 40
6.0
 40
6.0
 40
6.0
 40
7.0
 40
7.0
 40
7.0
 40
8.0
 40
8.0
 40
8.0
 40
8.0
 10
92.94264727494143
 20
-140.0040296416483
 30
0.0
 10
92.83447127670457
 20
-140.2134914471515
 30
0.0
 10
92.66118297379652
 20
-140.2326117270946
 30
0.0
 10
92.54473874639506
 20
-140.2326117270946
 30
0.0
 10
92.3838527872339
 20
-140.2326117270946
 30
0.0
 10
92.24225936279013
 20
-140.1861029380437
 30
0.0
 10
92.14717472739724
 20
-140.0040296416483
 30
0.0
 10
92.04347735329122
 20
-139.8095540015059
 30
0.0
 10
92.02418481857382
 20
-139.5725314321207
 30
0.0
 10
92.02418481857382
 20
-139.4095784156684
 30
0.0
 10
92.02418481857382
 20
-139.2657456791592
 30
0.0
 10
92.04141029600007
 20
-139.0140814539617
 30
0.0
 10
92.14717472739724
 20
-138.8151271896886
 30
0.0
 10
92.25500621608556
 20
-138.6120388108331
 30
0.0
 10
92.41589217524673
 20
-138.5887844163077
 30
0.0
 10
92.54473874639506
 20
-138.5887844163077
 30
0.0
 10
92.7035576482651
 20
-138.5887844163077
 30
0.0
 10
92.84721813
 20
-138.6332261480674
 30
0.0
 10
92.94264727494143
 20
-138.8151271896886
 30
0.0
 10
93.04186602491661
 20
-139.007708027314
 30
0.0
 10
93.06529267421632
 20
-139.2361178579861
 30
0.0
 10
93.06529267421632
 20
-139.4095784156684
 30
0.0
 10
93.06529267421632
 20
-139.5809719160596
 30
0.0
 10
93.04393308220777
 20
-139.8116210587971
 30
0.0
 10
92.94264727494143
 20
-140.0040296416483
 30
0.0
  0
HATCH
  5
162
330
15A
100
AcDbEntity
  8
レイヤー 1
 62
   250
420
  2299925
440
 33554687
100
AcDbHatch
 10
0.0
 20
0.0
 30
0.0
210
0.0
220
0.0
230
1.0
  2
SOLID
 70
     1
 71
     1
 91
        2
 92
        1
 93
        1
 72
     4
 94
        3
 73
     0
 74
     0
 95
       17
 96
       13
 40
0.0
 40
0.0
 40
0.0
 40
0.0
 40
1.0
 40
1.0
 40
1.0
 40
2.0
 40
2.0
 40
2.0
 40
3.0
 40
3.0
 40
3.0
 40
4.0
 40
4.0
 40
4.0
 40
4.0
 10
92.54473874639506
 20
-138.7813652539331
 10
92.29496932371445
 20
-138.7813652539331
 10
92.24846053466357
 20
-139.0647243575949
 10
92.24846053466357
 20
-139.4095784156684
 10
92.24846053466357
 20
-139.7291110219254
 10
92.28463403725871
 20
-140.037963832178
 10
92.54473874639506
 20
-140.037963832178
 10
92.79244111178453
 20
-140.037963832178
 10
92.84101695812656
 20
-139.7564995310331
 10
92.84101695812656
 20
-139.4095784156684
 10
92.84101695812656
 20
-139.0902180641858
 10
92.80277639824028
 20
-138.7813652539331
 10
92.54473874639506
 20
-138.7813652539331
 97
        0
 97
        1
330
160
 92
        1
 93
        1
 72
     4
 94
        3
 73
     0
 74
     0
 95
       29
 96
       25
 40
0.0
 40
0.0
 40
0.0
 40
0.0
 40
1.0
 40
1.0
 40
1.0
 40
2.0
 40
2.0
 40
2.0
 40
3.0
 40
3.0
 40
3.0
 40
4.0
 40
4.0
 40
4.0
 40
5.0
 40
5.0
 40
5.0
 40
6.0
 40
6.0
 40
6.0
 40
7.0
 40
7.0
 40
7.0
 40
8.0
 40
8.0
 40
8.0
 40
8.0
 10
92.94264727494143
 20
-140.0040296416483
 10
92.83447127670457
 20
-140.2134914471515
 10
92.66118297379652
 20
-140.2326117270946
 10
92.54473874639506
 20
-140.2326117270946
 10
92.3838527872339
 20
-140.2326117270946
 10
92.24225936279013
 20
-140.1861029380437
 10
92.14717472739724
 20
-140.0040296416483
 10
92.04347735329122
 20
-139.8095540015059
 10
92.02418481857382
 20
-139.5725314321207
 10
92.02418481857382
 20
-139.4095784156684
 10
92.02418481857382
 20
-139.2657456791592
 10
92.04141029600007
 20
-139.0140814539617
 10
92.14717472739724
 20
-138.8151271896886
 10
92.25500621608556
 20
-138.6120388108331
 10
92.41589217524673
 20
-138.5887844163077
 10
92.54473874639506
 20
-138.5887844163077
 10
92.7035576482651
 20
-138.5887844163077
 10
92.84721813
 20
-138.6332261480674
 10
92.94264727494143
 20
-138.8151271896886
 10
93.04186602491661
 20
-139.007708027314
 10
93.06529267421632
 20
-139.2361178579861
 10
93.06529267421632
 20
-139.4095784156684
 10
93.06529267421632
 20
-139.5809719160596
 10
93.04393308220777
 20
-139.8116210587971
 10
92.94264727494143
 20
-140.0040296416483
 97
        0
 97
        1
330
161
 75
     2
 76
     1
 98
        1
 10
0.0
 20
0.0
450
        0
451
        0
460
0.0
461
0.0
452
        0
462
0.0
453
        0
470

  0
ENDBLK
  5
15D
330
15A
100
AcDbEntity
  8
0
100
AcDbBlockEnd
  0
BLOCK
  5
16A
330
168
100
AcDbEntity
  8
0
100
AcDbBlockBegin
  2
Block_10
 70
     0
 10
0.0
 20
0.0
 30
0.0
  3
Block_10
  1

  0
INSERT
  5
16D
330
168
100
AcDbEntity
  8
レイヤー 1
100
AcDbBlockReference
  2
Block_11
 10
0.0
 20
0.0
 30
0.0
  0
ENDBLK
  5
16B
330
168
100
AcDbEntity
  8
0
100
AcDbBlockEnd
  0
BLOCK
  5
16E
330
16C
100
AcDbEntity
  8
0
100
AcDbBlockBegin
  2
Block_11
 70
     0
 10
0.0
 20
0.0
 30
0.0
  3
Block_11
  1

  0
SPLINE
  5
170
330
16C
100
AcDbEntity
  8
レイヤー 1
100
AcDbSpline
210
0.0
220
0.0
230
1.0
 70
    11
 71
     3
 72
    26
 73
    22
 74
     0
 42
0.0000000001
 43
0.0000000001
 40
0.0
 40
0.0
 40
0.0
 40
0.0
 40
1.0
 40
1.0
 40
1.0
 40
2.0
 40
2.0
 40
2.0
 40
3.0
 40
3.0
 40
3.0
 40
4.0
 40
4.0
 40
4.0
 40
5.0
 40
5.0
 40
5.0
 40
6.0
 40
6.0
 40
6.0
 40
7.0
 40
7.0
 40
7.0
 40
7.0
 10
91.63626706693468
 20
-157.5576524128675
 30
0.0
 10
91.63626706693468
 20
-157.5576524128675
 30
0.0
 10
91.63626706693468
 20
-156.4534993098449
 30
0.0
 10
91.63626706693468
 20
-156.4534993098449
 30
0.0
 10
91.63626706693468
 20
-156.4534993098449
 30
0.0
 10
91.30622691944775
 20
-156.4534993098449
 30
0.0
 10
91.30622691944775
 20
-156.4534993098449
 30
0.0
 10
91.30622691944775
 20
-156.4534993098449
 30
0.0
 10
91.30622691944775
 20
-156.3053602039792
 30
0.0
 10
91.30622691944775
 20
-156.3053602039792
 30
0.0
 10
91.63833412422583
 20
-156.2905462933926
 30
0.0
 10
91.6848429132767
 20
-156.1275932769403
 30
0.0
 10
91.71447073444985
 20
-156.01321610683
 30
0.0
 10
91.71447073444985
 20
-156.01321610683
 30
0.0
 10
91.86054278302446
 20
-156.01321610683
 30
0.0
 10
91.86054278302446
 20
-156.01321610683
 30
0.0
 10
91.86054278302446
 20
-156.01321610683
 30
0.0
 10
91.86054278302446
 20
-157.5576524128675
 30
0.0
 10
91.86054278302446
 20
-157.5576524128675
 30
0.0
 10
91.86054278302446
 20
-157.5576524128675
 30
0.0
 10
91.63626706693468
 20
-157.5576524128675
 30
0.0
 10
91.63626706693468
 20
-157.5576524128675
 30
0.0
  0
HATCH
  5
171
330
16C
100
AcDbEntity
  8
レイヤー 1
 62
   250
420
  2299925
440
 33554687
100
AcDbHatch
 10
0.0
 20
0.0
 30
0.0
210
0.0
220
0.0
230
1.0
  2
SOLID
 70
     1
 71
     1
 91
        1
 92
        1
 93
        1
 72
     4
 94
        3
 73
     0
 74
     0
 95
       26
 96
       22
 40
0.0
 40
0.0
 40
0.0
 40
0.0
 40
1.0
 40
1.0
 40
1.0
 40
2.0
 40
2.0
 40
2.0
 40
3.0
 40
3.0
 40
3.0
 40
4.0
 40
4.0
 40
4.0
 40
5.0
 40
5.0
 40
5.0
 40
6.0
 40
6.0
 40
6.0
 40
7.0
 40
7.0
 40
7.0
 40
7.0
 10
91.63626706693468
 20
-157.5576524128675
 10
91.63626706693468
 20
-157.5576524128675
 10
91.63626706693468
 20
-156.4534993098449
 10
91.63626706693468
 20
-156.4534993098449
 10
91.63626706693468
 20
-156.4534993098449
 10
91.30622691944775
 20
-156.4534993098449
 10
91.30622691944775
 20
-156.4534993098449
 10
91.30622691944775
 20
-156.4534993098449
 10
91.30622691944775
 20
-156.3053602039792
 10
91.30622691944775
 20
-156.3053602039792
 10
91.63833412422583
 20
-156.2905462933926
 10
91.6848429132767
 20
-156.1275932769403
 10
91.71447073444985
 20
-156.01321610683
 10
91.71447073444985
 20
-156.01321610683
 10
91.86054278302446
 20
-156.01321610683
 10
91.86054278302446
 20
-156.01321610683
 10
91.86054278302446
 20
-156.01321610683
 10
91.86054278302446
 20
-157.5576524128675
 10
91.86054278302446
 20
-157.5576524128675
 10
91.86054278302446
 20
-157.5576524128675
 10
91.63626706693468
 20
-157.5576524128675
 10
91.63626706693468
 20
-157.5576524128675
 97
        0
 97
        1
330
170
 75
     2
 76
     1
 98
        1
 10
0.0
 20
0.0
450
        0
451
        0
460
0.0
461
0.0
452
        0
462
0.0
453
        0
470

  0
SPLINE
  5
172
330
16C
100
AcDbEntity
  8
レイヤー 1
100
AcDbSpline
210
0.0
220
0.0
230
1.0
 70
     9
 71
     3
 72
    44
 73
    40
 74
     0
 42
0.0000000001
 43
0.0000000001
 40
0.0
 40
0.0
 40
0.0
 40
0.0
 40
1.0
 40
1.0
 40
1.0
 40
2.0
 40
2.0
 40
2.0
 40
3.0
 40
3.0
 40
3.0
 40
4.0
 40
4.0
 40
4.0
 40
5.0
 40
5.0
 40
5.0
 40
6.0
 40
6.0
 40
6.0
 40
7.0
 40
7.0
 40
7.0
 40
8.0
 40
8.0
 40
8.0
 40
9.0
 40
9.0
 40
9.0
 40
10.0
 40
10.0
 40
10.0
 40
11.0
 40
11.0
 40
11.0
 40
12.0
 40
12.0
 40
12.0
 40
13.0
 40
13.0
 40
13.0
 40
13.0
 10
92.95470510913979
 20
-156.9757757854088
 30
0.0
 10
92.73697507447201
 20
-157.1345946872788
 30
0.0
 10
92.64395749637026
 20
-157.2086642402117
 30
0.0
 10
92.59503714047971
 20
-157.3523247219466
 30
0.0
 10
92.59503714047971
 20
-157.3523247219466
 30
0.0
 10
93.37362872014619
 20
-157.3523247219466
 30
0.0
 10
93.37362872014619
 20
-157.3523247219466
 30
0.0
 10
93.37362872014619
 20
-157.3523247219466
 30
0.0
 10
93.37362872014619
 20
-157.5576524128675
 30
0.0
 10
93.37362872014619
 20
-157.5576524128675
 30
0.0
 10
93.37362872014619
 20
-157.5576524128675
 30
0.0
 10
92.34561222734763
 20
-157.5576524128675
 30
0.0
 10
92.34561222734763
 20
-157.5576524128675
 30
0.0
 10
92.37730710581192
 20
-157.2000515014986
 30
0.0
 10
92.44276392003168
 20
-157.1218478339834
 30
0.0
 10
92.8279255952826
 20
-156.8235025649608
 30
0.0
 10
93.08389618983666
 20
-156.6247205554619
 30
0.0
 10
93.14935300405641
 20
-156.5568521744024
 30
0.0
 10
93.14935300405641
 20
-156.419392864541
 30
0.0
 10
93.14935300405641
 20
-156.3008815798484
 30
0.0
 10
93.0773505084147
 20
-156.1699679514089
 30
0.0
 10
92.88063555620693
 20
-156.1699679514089
 30
0.0
 10
92.62053084707057
 20
-156.1699679514089
 30
0.0
 10
92.61191810835745
 20
-156.4004448393721
 30
0.0
 10
92.60778399377514
 20
-156.5168890667735
 30
0.0
 10
92.60778399377514
 20
-156.5168890667735
 30
0.0
 10
92.38350827768538
 20
-156.5168890667735
 30
0.0
 10
92.38350827768538
 20
-156.5168890667735
 30
0.0
 10
92.3921210163985
 20
-156.3897650433678
 30
0.0
 10
92.40280081240276
 20
-156.2777994400972
 30
0.0
 10
92.4830715372091
 20
-156.1592881554046
 30
0.0
 10
92.59297008318856
 20
-155.9984021962434
 30
0.0
 10
92.77934974894058
 20
-155.964640260488
 30
0.0
 10
92.89544946679351
 20
-155.964640260488
 30
0.0
 10
93.17277965335611
 20
-155.964640260488
 30
0.0
 10
93.38017440156816
 20
-156.1486083594003
 30
0.0
 10
93.38017440156816
 20
-156.4214599218321
 30
0.0
 10
93.38017440156816
 20
-156.6502142620527
 30
0.0
 10
93.26373017416671
 20
-156.7494330120279
 30
0.0
 10
92.95470510913979
 20
-156.9757757854088
 30
0.0
  0
HATCH
  5
173
330
16C
100
AcDbEntity
  8
レイヤー 1
 62
   250
420
  2299925
440
 33554687
100
AcDbHatch
 10
0.0
 20
0.0
 30
0.0
210
0.0
220
0.0
230
1.0
  2
SOLID
 70
     1
 71
     1
 91
        1
 92
        1
 93
        1
 72
     4
 94
        3
 73
     0
 74
     0
 95
       44
 96
       40
 40
0.0
 40
0.0
 40
0.0
 40
0.0
 40
1.0
 40
1.0
 40
1.0
 40
2.0
 40
2.0
 40
2.0
 40
3.0
 40
3.0
 40
3.0
 40
4.0
 40
4.0
 40
4.0
 40
5.0
 40
5.0
 40
5.0
 40
6.0
 40
6.0
 40
6.0
 40
7.0
 40
7.0
 40
7.0
 40
8.0
 40
8.0
 40
8.0
 40
9.0
 40
9.0
 40
9.0
 40
10.0
 40
10.0
 40
10.0
 40
11.0
 40
11.0
 40
11.0
 40
12.0
 40
12.0
 40
12.0
 40
13.0
 40
13.0
 40
13.0
 40
13.0
 10
92.95470510913979
 20
-156.9757757854088
 10
92.73697507447201
 20
-157.1345946872788
 10
92.64395749637026
 20
-157.2086642402117
 10
92.59503714047971
 20
-157.3523247219466
 10
92.59503714047971
 20
-157.3523247219466
 10
93.37362872014619
 20
-157.3523247219466
 10
93.37362872014619
 20
-157.3523247219466
 10
93.37362872014619
 20
-157.3523247219466
 10
93.37362872014619
 20
-157.5576524128675
 10
93.37362872014619
 20
-157.5576524128675
 10
93.37362872014619
 20
-157.5576524128675
 10
92.34561222734763
 20
-157.5576524128675
 10
92.34561222734763
 20
-157.5576524128675
 10
92.37730710581192
 20
-157.2000515014986
 10
92.44276392003168
 20
-157.1218478339834
 10
92.8279255952826
 20
-156.8235025649608
 10
93.08389618983666
 20
-156.6247205554619
 10
93.14935300405641
 20
-156.5568521744024
 10
93.14935300405641
 20
-156.419392864541
 10
93.14935300405641
 20
-156.3008815798484
 10
93.0773505084147
 20
-156.1699679514089
 10
92.88063555620693
 20
-156.1699679514089
 10
92.62053084707057
 20
-156.1699679514089
 10
92.61191810835745
 20
-156.4004448393721
 10
92.60778399377514
 20
-156.5168890667735
 10
92.60778399377514
 20
-156.5168890667735
 10
92.38350827768538
 20
-156.5168890667735
 10
92.38350827768538
 20
-156.5168890667735
 10
92.3921210163985
 20
-156.3897650433678
 10
92.40280081240276
 20
-156.2777994400972
 10
92.4830715372091
 20
-156.1592881554046
 10
92.59297008318856
 20
-155.9984021962434
 10
92.77934974894058
 20
-155.964640260488
 10
92.89544946679351
 20
-155.964640260488
 10
93.17277965335611
 20
-155.964640260488
 10
93.38017440156816
 20
-156.1486083594003
 10
93.38017440156816
 20
-156.4214599218321
 10
93.38017440156816
 20
-156.6502142620527
 10
93.26373017416671
 20
-156.7494330120279
 10
92.95470510913979
 20
-156.9757757854088
 97
        0
 97
        1
330
172
 75
     2
 76
     1
 98
        1
 10
0.0
 20
0.0
450
        0
451
        0
460
0.0
461
0.0
452
        0
462
0.0
453
        0
470

  0
ENDBLK
  5
16F
330
16C
100
AcDbEntity
  8
0
100
AcDbBlockEnd
  0
BLOCK
  5
177
330
175
100
AcDbEntity
  8
0
100
AcDbBlockBegin
  2
Block_12
 70
     0
 10
0.0
 20
0.0
 30
0.0
  3
Block_12
  1

  0
SPLINE
  5
179
330
175
100
AcDbEntity
  8
レイヤー 1
100
AcDbSpline
210
0.0
220
0.0
230
1.0
 70
    11
 71
     3
 72
    26
 73
    22
 74
     0
 42
0.0000000001
 43
0.0000000001
 40
0.0
 40
0.0
 40
0.0
 40
0.0
 40
1.0
 40
1.0
 40
1.0
 40
2.0
 40
2.0
 40
2.0
 40
3.0
 40
3.0
 40
3.0
 40
4.0
 40
4.0
 40
4.0
 40
5.0
 40
5.0
 40
5.0
 40
6.0
 40
6.0
 40
6.0
 40
7.0
 40
7.0
 40
7.0
 40
7.0
 10
99.96840275278568
 20
-149.5343695372692
 30
0.0
 10
99.96840275278568
 20
-149.5343695372692
 30
0.0
 10
99.96840275278568
 20
-148.4302164342466
 30
0.0
 10
99.96840275278568
 20
-148.4302164342466
 30
0.0
 10
99.96840275278568
 20
-148.4302164342466
 30
0.0
 10
99.63836260529875
 20
-148.4302164342466
 30
0.0
 10
99.63836260529875
 20
-148.4302164342466
 30
0.0
 10
99.63836260529875
 20
-148.4302164342466
 30
0.0
 10
99.63836260529875
 20
-148.2820773283808
 30
0.0
 10
99.63836260529875
 20
-148.2820773283808
 30
0.0
 10
99.97046981007684
 20
-148.2674356725685
 30
0.0
 10
100.0169785991277
 20
-148.1044826561162
 30
0.0
 10
100.0466064203008
 20
-147.9902777407802
 30
0.0
 10
100.0466064203008
 20
-147.9902777407802
 30
0.0
 10
100.1926784688754
 20
-147.9902777407802
 30
0.0
 10
100.1926784688754
 20
-147.9902777407802
 30
0.0
 10
100.1926784688754
 20
-147.9902777407802
 30
0.0
 10
100.1926784688754
 20
-149.5343695372692
 30
0.0
 10
100.1926784688754
 20
-149.5343695372692
 30
0.0
 10
100.1926784688754
 20
-149.5343695372692
 30
0.0
 10
99.96840275278568
 20
-149.5343695372692
 30
0.0
 10
99.96840275278568
 20
-149.5343695372692
 30
0.0
  0
HATCH
  5
17A
330
175
100
AcDbEntity
  8
レイヤー 1
 62
   250
420
  2299925
440
 33554687
100
AcDbHatch
 10
0.0
 20
0.0
 30
0.0
210
0.0
220
0.0
230
1.0
  2
SOLID
 70
     1
 71
     1
 91
        1
 92
        1
 93
        1
 72
     4
 94
        3
 73
     0
 74
     0
 95
       26
 96
       22
 40
0.0
 40
0.0
 40
0.0
 40
0.0
 40
1.0
 40
1.0
 40
1.0
 40
2.0
 40
2.0
 40
2.0
 40
3.0
 40
3.0
 40
3.0
 40
4.0
 40
4.0
 40
4.0
 40
5.0
 40
5.0
 40
5.0
 40
6.0
 40
6.0
 40
6.0
 40
7.0
 40
7.0
 40
7.0
 40
7.0
 10
99.96840275278568
 20
-149.5343695372692
 10
99.96840275278568
 20
-149.5343695372692
 10
99.96840275278568
 20
-148.4302164342466
 10
99.96840275278568
 20
-148.4302164342466
 10
99.96840275278568
 20
-148.4302164342466
 10
99.63836260529875
 20
-148.4302164342466
 10
99.63836260529875
 20
-148.4302164342466
 10
99.63836260529875
 20
-148.4302164342466
 10
99.63836260529875
 20
-148.2820773283808
 10
99.63836260529875
 20
-148.2820773283808
 10
99.97046981007684
 20
-148.2674356725685
 10
100.0169785991277
 20
-148.1044826561162
 10
100.0466064203008
 20
-147.9902777407802
 10
100.0466064203008
 20
-147.9902777407802
 10
100.1926784688754
 20
-147.9902777407802
 10
100.1926784688754
 20
-147.9902777407802
 10
100.1926784688754
 20
-147.9902777407802
 10
100.1926784688754
 20
-149.5343695372692
 10
100.1926784688754
 20
-149.5343695372692
 10
100.1926784688754
 20
-149.5343695372692
 10
99.96840275278568
 20
-149.5343695372692
 10
99.96840275278568
 20
-149.5343695372692
 97
        0
 97
        1
330
179
 75
     2
 76
     1
 98
        1
 10
0.0
 20
0.0
450
        0
451
        0
460
0.0
461
0.0
452
        0
462
0.0
453
        0
470

  0
ENDBLK
  5
178
330
175
100
AcDbEntity
  8
0
100
AcDbBlockEnd
  0
BLOCK
  5
17D
330
17B
100
AcDbEntity
  8
0
100
AcDbBlockBegin
  2
Block_13
 70
     0
 10
0.0
 20
0.0
 30
0.0
  3
Block_13
  1

  0
INSERT
  5
180
330
17B
100
AcDbEntity
  8
レイヤー 1
100
AcDbBlockReference
  2
Block_14
 10
0.0
 20
0.0
 30
0.0
  0
INSERT
  5
187
330
17B
100
AcDbEntity
  8
レイヤー 1
100
AcDbBlockReference
  2
Block_15
 10
0.0
 20
0.0
 30
0.0
  0
ENDBLK
  5
17E
330
17B
100
AcDbEntity
  8
0
100
AcDbBlockEnd
  0
BLOCK
  5
181
330
17F
100
AcDbEntity
  8
0
100
AcDbBlockBegin
  2
Block_14
 70
     0
 10
0.0
 20
0.0
 30
0.0
  3
Block_14
  1

  0
LINE
  5
183
330
17F
100
AcDbEntity
  8
レイヤー 1
 62
    18
420
        0
370
     9
100
AcDbLine
 10
109.3859369330885
 20
-147.3315163651984
 30
0.0
 11
110.1972552457234
 21
-147.9161749761633
 31
0.0
  0
LINE
  5
184
330
17F
100
AcDbEntity
  8
レイヤー 1
 62
    18
420
        0
370
     9
100
AcDbLine
 10
109.3859369330885
 20
-147.3315163651984
 30
0.0
 11
111.9635429784394
 21
-150.4886305310759
 31
0.0
  0
LINE
  5
185
330
17F
100
AcDbEntity
  8
レイヤー 1
 62
    18
420
        0
370
     9
100
AcDbLine
 10
109.3859369330885
 20
-147.3315163651984
 30
0.0
 11
109.7962527559538
 21
-148.2434469205257
 31
0.0
  0
ENDBLK
  5
182
330
17F
100
AcDbEntity
  8
0
100
AcDbBlockEnd
  0
BLOCK
  5
188
330
186
100
AcDbEntity
  8
0
100
AcDbBlockBegin
  2
Block_15
 70
     0
 10
0.0
 20
0.0
 30
0.0
  3
Block_15
  1

  0
INSERT
  5
18B
330
186
100
AcDbEntity
  8
レイヤー 1
100
AcDbBlockReference
  2
Block_16
 10
0.0
 20
0.0
 30
0.0
  0
ENDBLK
  5
189
330
186
100
AcDbEntity
  8
0
100
AcDbBlockEnd
  0
BLOCK
  5
18C
330
18A
100
AcDbEntity
  8
0
100
AcDbBlockBegin
  2
Block_16
 70
     0
 10
0.0
 20
0.0
 30
0.0
  3
Block_16
  1

  0
SPLINE
  5
18E
330
18A
100
AcDbEntity
  8
レイヤー 1
100
AcDbSpline
210
0.0
220
0.0
230
1.0
 70
     9
 71
     3
 72
    17
 73
    13
 74
     0
 42
0.0000000001
 43
0.0000000001
 40
0.0
 40
0.0
 40
0.0
 40
0.0
 40
1.0
 40
1.0
 40
1.0
 40
2.0
 40
2.0
 40
2.0
 40
3.0
 40
3.0
 40
3.0
 40
4.0
 40
4.0
 40
4.0
 40
4.0
 10
113.6299288995439
 20
-150.9358343806688
 30
0.0
 10
113.6130479316662
 20
-150.9654622018419
 30
0.0
 10
113.562405028033
 20
-151.0584797799437
 30
0.0
 10
113.5517252320287
 20
-151.0774278051126
 30
0.0
 10
113.742239012363
 20
-151.1366834474589
 30
0.0
 10
113.7632540948231
 20
-151.1432291288809
 30
0.0
 10
113.8352565904648
 20
-151.1704453832143
 30
0.0
 10
113.8900336086802
 20
-151.0839734865345
 30
0.0
 10
113.9134602579799
 20
-151.0099039336017
 30
0.0
 10
113.9282741685665
 20
-150.9358343806688
 30
0.0
 10
113.9282741685665
 20
-150.9358343806688
 30
0.0
 10
113.6299288995439
 20
-150.9358343806688
 30
0.0
 10
113.6299288995439
 20
-150.9358343806688
 30
0.0
  0
SPLINE
  5
18F
330
18A
100
AcDbEntity
  8
レイヤー 1
100
AcDbSpline
210
0.0
220
0.0
230
1.0
 70
    11
 71
     3
 72
    20
 73
    16
 74
     0
 42
0.0000000001
 43
0.0000000001
 40
0.0
 40
0.0
 40
0.0
 40
0.0
 40
1.0
 40
1.0
 40
1.0
 40
2.0
 40
2.0
 40
2.0
 40
3.0
 40
3.0
 40
3.0
 40
4.0
 40
4.0
 40
4.0
 40
5.0
 40
5.0
 40
5.0
 40
5.0
 10
113.5665391426153
 20
-150.0852403053606
 30
0.0
 10
113.5665391426153
 20
-150.0852403053606
 30
0.0
 10
113.534844264151
 20
-150.0852403053606
 30
0.0
 10
113.534844264151
 20
-150.0852403053606
 30
0.0
 10
113.5813530532019
 20
-150.1848035648843
 30
0.0
 10
113.6130479316662
 20
-150.2650742896907
 30
0.0
 10
113.6468098674216
 20
-150.3921983130964
 30
0.0
 10
113.6468098674216
 20
-150.3921983130964
 30
0.0
 10
113.8542046156336
 20
-150.3921983130964
 30
0.0
 10
113.8542046156336
 20
-150.3921983130964
 30
0.0
 10
113.8858994940979
 20
-150.2991807349946
 30
0.0
 10
113.9093261433977
 20
-150.2144313860575
 30
0.0
 10
113.9324082831488
 20
-150.0852403053606
 30
0.0
 10
113.9324082831488
 20
-150.0852403053606
 30
0.0
 10
113.5665391426153
 20
-150.0852403053606
 30
0.0
 10
113.5665391426153
 20
-150.0852403053606
 30
0.0
  0
SPLINE
  5
190
330
18A
100
AcDbEntity
  8
レイヤー 1
100
AcDbSpline
210
0.0
220
0.0
230
1.0
 70
     9
 71
     3
 72
   242
 73
   238
 74
     0
 42
0.0000000001
 43
0.0000000001
 40
0.0
 40
0.0
 40
0.0
 40
0.0
 40
1.0
 40
1.0
 40
1.0
 40
2.0
 40
2.0
 40
2.0
 40
3.0
 40
3.0
 40
3.0
 40
4.0
 40
4.0
 40
4.0
 40
5.0
 40
5.0
 40
5.0
 40
6.0
 40
6.0
 40
6.0
 40
7.0
 40
7.0
 40
7.0
 40
8.0
 40
8.0
 40
8.0
 40
9.0
 40
9.0
 40
9.0
 40
10.0
 40
10.0
 40
10.0
 40
11.0
 40
11.0
 40
11.0
 40
12.0
 40
12.0
 40
12.0
 40
13.0
 40
13.0
 40
13.0
 40
14.0
 40
14.0
 40
14.0
 40
15.0
 40
15.0
 40
15.0
 40
16.0
 40
16.0
 40
16.0
 40
17.0
 40
17.0
 40
17.0
 40
18.0
 40
18.0
 40
18.0
 40
19.0
 40
19.0
 40
19.0
 40
20.0
 40
20.0
 40
20.0
 40
21.0
 40
21.0
 40
21.0
 40
22.0
 40
22.0
 40
22.0
 40
23.0
 40
23.0
 40
23.0
 40
24.0
 40
24.0
 40
24.0
 40
25.0
 40
25.0
 40
25.0
 40
26.0
 40
26.0
 40
26.0
 40
27.0
 40
27.0
 40
27.0
 40
28.0
 40
28.0
 40
28.0
 40
29.0
 40
29.0
 40
29.0
 40
30.0
 40
30.0
 40
30.0
 40
31.0
 40
31.0
 40
31.0
 40
32.0
 40
32.0
 40
32.0
 40
33.0
 40
33.0
 40
33.0
 40
34.0
 40
34.0
 40
34.0
 40
35.0
 40
35.0
 40
35.0
 40
36.0
 40
36.0
 40
36.0
 40
37.0
 40
37.0
 40
37.0
 40
38.0
 40
38.0
 40
38.0
 40
39.0
 40
39.0
 40
39.0
 40
40.0
 40
40.0
 40
40.0
 40
41.0
 40
41.0
 40
41.0
 40
42.0
 40
42.0
 40
42.0
 40
43.0
 40
43.0
 40
43.0
 40
44.0
 40
44.0
 40
44.0
 40
45.0
 40
45.0
 40
45.0
 40
46.0
 40
46.0
 40
46.0
 40
47.0
 40
47.0
 40
47.0
 40
48.0
 40
48.0
 40
48.0
 40
49.0
 40
49.0
 40
49.0
 40
50.0
 40
50.0
 40
50.0
 40
51.0
 40
51.0
 40
51.0
 40
52.0
 40
52.0
 40
52.0
 40
53.0
 40
53.0
 40
53.0
 40
54.0
 40
54.0
 40
54.0
 40
55.0
 40
55.0
 40
55.0
 40
56.0
 40
56.0
 40
56.0
 40
57.0
 40
57.0
 40
57.0
 40
58.0
 40
58.0
 40
58.0
 40
59.0
 40
59.0
 40
59.0
 40
60.0
 40
60.0
 40
60.0
 40
61.0
 40
61.0
 40
61.0
 40
62.0
 40
62.0
 40
62.0
 40
63.0
 40
63.0
 40
63.0
 40
64.0
 40
64.0
 40
64.0
 40
65.0
 40
65.0
 40
65.0
 40
66.0
 40
66.0
 40
66.0
 40
67.0
 40
67.0
 40
67.0
 40
68.0
 40
68.0
 40
68.0
 40
69.0
 40
69.0
 40
69.0
 40
70.0
 40
70.0
 40
70.0
 40
71.0
 40
71.0
 40
71.0
 40
72.0
 40
72.0
 40
72.0
 40
73.0
 40
73.0
 40
73.0
 40
74.0
 40
74.0
 40
74.0
 40
75.0
 40
75.0
 40
75.0
 40
76.0
 40
76.0
 40
76.0
 40
77.0
 40
77.0
 40
77.0
 40
78.0
 40
78.0
 40
78.0
 40
79.0
 40
79.0
 40
79.0
 40
79.0
 10
114.1949245591248
 20
-150.5506727054179
 30
0.0
 10
114.1949245591248
 20
-150.5506727054179
 30
0.0
 10
113.9410210218619
 20
-150.5506727054179
 30
0.0
 10
113.9410210218619
 20
-150.5506727054179
 30
0.0
 10
113.9410210218619
 20
-150.5506727054179
 30
0.0
 10
113.6636908352993
 20
-150.5506727054179
 30
0.0
 10
113.6636908352993
 20
-150.5506727054179
 30
0.0
 10
113.6636908352993
 20
-150.5506727054179
 30
0.0
 10
113.7908148587051
 20
-150.5930473798864
 30
0.0
 10
113.7908148587051
 20
-150.5930473798864
 30
0.0
 10
113.8014946547093
 20
-150.5971814944687
 30
0.0
 10
113.8138969984562
 20
-150.6037271758907
 30
0.0
 10
113.8138969984562
 20
-150.6164740291862
 30
0.0
 10
113.8138969984562
 20
-150.6374891116462
 30
0.0
 10
113.7822021199919
 20
-150.6436902835196
 30
0.0
 10
113.7611870375319
 20
-150.6481689076504
 30
0.0
 10
113.7505072415276
 20
-150.6712510474016
 30
0.0
 10
113.7208794203545
 20
-150.7370523711699
 30
0.0
 10
113.7019313951856
 20
-150.7814941029296
 30
0.0
 10
113.7019313951856
 20
-150.7814941029296
 30
0.0
 10
113.9727159003262
 20
-150.7814941029296
 30
0.0
 10
113.9727159003262
 20
-150.7814941029296
 30
0.0
 10
114.0636664211369
 20
-150.7814941029296
 30
0.0
 10
114.2603813733446
 20
-150.7770154787988
 30
0.0
 10
114.4019747977884
 20
-150.7687472496342
 30
0.0
 10
114.4019747977884
 20
-150.7687472496342
 30
0.0
 10
114.4019747977884
 20
-150.9465141766731
 30
0.0
 10
114.4019747977884
 20
-150.9465141766731
 30
0.0
 10
114.3196370156909
 20
-150.9420355525423
 30
0.0
 10
114.2986219332309
 20
-150.9420355525423
 30
0.0
 10
114.1187879489008
 20
-150.9379014379599
 30
0.0
 10
114.0870930704365
 20
-151.0922417156991
 30
0.0
 10
114.0426513386768
 20
-151.172856950054
 30
0.0
 10
113.9982096069171
 20
-151.2424478788561
 30
0.0
 10
114.1187879489008
 20
-151.3017035212024
 30
0.0
 10
114.224552380298
 20
-151.3695719022618
 30
0.0
 10
114.328249754404
 20
-151.4519096843592
 30
0.0
 10
114.328249754404
 20
-151.4519096843592
 30
0.0
 10
114.2097384697114
 20
-151.6189968153939
 30
0.0
 10
114.2097384697114
 20
-151.6189968153939
 30
0.0
 10
114.1863118204117
 20
-151.600048790225
 30
0.0
 10
114.1735649671163
 20
-151.5914360515118
 30
0.0
 10
114.0615993638457
 20
-151.5070312121232
 30
0.0
 10
114.0130235175037
 20
-151.4687906522369
 30
0.0
 10
113.9537678751574
 20
-151.4329616591903
 30
0.0
 10
113.8731526408025
 20
-151.3885199274306
 30
0.0
 10
113.6616237780082
 20
-151.5745550836341
 30
0.0
 10
113.4566405966358
 20
-151.5979817329338
 30
0.0
 10
113.1665635567778
 20
-151.627609554107
 30
0.0
 10
113.1665635567778
 20
-151.627609554107
 30
0.0
 10
113.0628661826718
 20
-151.4477755697769
 30
0.0
 10
113.0628661826718
 20
-151.4477755697769
 30
0.0
 10
113.3805039864118
 20
-151.4436414551946
 30
0.0
 10
113.555859346611
 20
-151.4181477486038
 30
0.0
 10
113.7081325670591
 20
-151.3082492026243
 30
0.0
 10
113.5896212823665
 20
-151.2572617894426
 30
0.0
 10
113.5010823283955
 20
-151.2297010255606
 30
0.0
 10
113.4649088258004
 20
-151.2172986818137
 30
0.0
 10
113.4459608006315
 20
-151.2445149361472
 30
0.0
 10
113.431146890045
 20
-151.2638074708646
 30
0.0
 10
113.403586126163
 20
-151.29756940662
 30
0.0
 10
113.403586126163
 20
-151.29756940662
 30
0.0
 10
113.2068711739552
 20
-151.214887114974
 30
0.0
 10
113.2068711739552
 20
-151.214887114974
 30
0.0
 10
113.2892089560527
 20
-151.1346163901677
 30
0.0
 10
113.3508761652386
 20
-151.0395317547748
 30
0.0
 10
113.4077202407453
 20
-150.9379014379599
 30
0.0
 10
113.2175509699595
 20
-150.9420355525423
 30
0.0
 10
113.1961913779509
 20
-150.9420355525423
 30
0.0
 10
113.1138535958535
 20
-150.9465141766731
 30
0.0
 10
113.1138535958535
 20
-150.9465141766731
 30
0.0
 10
113.1138535958535
 20
-150.7687472496342
 30
0.0
 10
113.1138535958535
 20
-150.7687472496342
 30
0.0
 10
113.2533799630061
 20
-150.7749484215076
 30
0.0
 10
113.4628417685093
 20
-150.7790825360899
 30
0.0
 10
113.4883354751001
 20
-150.7790825360899
 30
0.0
 10
113.5052164429778
 20
-150.7453206003345
 30
0.0
 10
113.5599934611933
 20
-150.6247422583508
 30
0.0
 10
113.5792859959107
 20
-150.5506727054179
 30
0.0
 10
113.5599934611933
 20
-150.5506727054179
 30
0.0
 10
113.3825710437029
 20
-150.5572183868399
 30
0.0
 10
113.1879231487863
 20
-150.5699652401353
 30
0.0
 10
113.1879231487863
 20
-150.5699652401353
 30
0.0
 10
113.1879231487863
 20
-150.7029459258659
 30
0.0
 10
113.1879231487863
 20
-150.7029459258659
 30
0.0
 10
113.1393473024443
 20
-150.7284396324568
 30
0.0
 10
113.080091660098
 20
-150.7601345109211
 30
0.0
 10
112.9467664648188
 20
-150.8259358346893
 30
0.0
 10
112.9467664648188
 20
-150.8259358346893
 30
0.0
 10
112.9467664648188
 20
-150.9716633737154
 30
0.0
 10
112.9467664648188
 20
-150.9716633737154
 30
0.0
 10
112.9467664648188
 20
-150.9716633737154
 30
0.0
 10
112.9467664648188
 20
-151.4391628310638
 30
0.0
 10
112.9467664648188
 20
-151.4391628310638
 30
0.0
 10
112.9467664648188
 20
-151.5662868544695
 30
0.0
 10
112.9105929622237
 20
-151.6255424968158
 30
0.0
 10
112.6270616037877
 20
-151.6169297581027
 30
0.0
 10
112.6270616037877
 20
-151.6169297581027
 30
0.0
 10
112.5237087392302
 20
-151.4095350098906
 30
0.0
 10
112.5237087392302
 20
-151.4095350098906
 30
0.0
 10
112.5870984961588
 20
-151.4222818631861
 30
0.0
 10
112.6356743425008
 20
-151.4264159777684
 30
0.0
 10
112.6759819596782
 20
-151.4264159777684
 30
0.0
 10
112.7521185699022
 20
-151.4264159777684
 30
0.0
 10
112.762453856358
 20
-151.4033338380172
 30
0.0
 10
112.762453856358
 20
-151.3378770237975
 30
0.0
 10
112.762453856358
 20
-151.3378770237975
 30
0.0
 10
112.762453856358
 20
-150.9082736167868
 30
0.0
 10
112.762453856358
 20
-150.9082736167868
 30
0.0
 10
112.6653021636739
 20
-150.9485812339642
 30
0.0
 10
112.6484211957962
 20
-150.9547824058377
 30
0.0
 10
112.6019124067453
 20
-150.9737304310065
 30
0.0
 10
112.597778292163
 20
-150.9950900230151
 30
0.0
 10
112.5932996680322
 20
-151.0247178441882
 30
0.0
 10
112.5743516428633
 20
-151.0247178441882
 30
0.0
 10
112.5657389041502
 20
-151.0247178441882
 30
0.0
 10
112.5554036176945
 20
-151.0205837296059
 30
0.0
 10
112.5488579362725
 20
-150.9971570803062
 30
0.0
 10
112.5488579362725
 20
-150.9971570803062
 30
0.0
 10
112.4961479753482
 20
-150.8045762426808
 30
0.0
 10
112.4961479753482
 20
-150.8045762426808
 30
0.0
 10
112.6418755143742
 20
-150.7580674536299
 30
0.0
 10
112.7076768381425
 20
-150.7349853138787
 30
0.0
 10
112.762453856358
 20
-150.7136257218702
 30
0.0
 10
112.762453856358
 20
-150.7136257218702
 30
0.0
 10
112.762453856358
 20
-150.3012477922858
 30
0.0
 10
112.762453856358
 20
-150.3012477922858
 30
0.0
 10
112.762453856358
 20
-150.3012477922858
 30
0.0
 10
112.7097438954336
 20
-150.3012477922858
 30
0.0
 10
112.7097438954336
 20
-150.3012477922858
 30
0.0
 10
112.7097438954336
 20
-150.3012477922858
 30
0.0
 10
112.6315402279185
 20
-150.3012477922858
 30
0.0
 10
112.6315402279185
 20
-150.3012477922858
 30
0.0
 10
112.5636718468591
 20
-150.3012477922858
 30
0.0
 10
112.5554036176945
 20
-150.3012477922858
 30
0.0
 10
112.5192301150993
 20
-150.3074489641592
 30
0.0
 10
112.5192301150993
 20
-150.3074489641592
 30
0.0
 10
112.5192301150993
 20
-150.1128010692426
 30
0.0
 10
112.5192301150993
 20
-150.1128010692426
 30
0.0
 10
112.5467908789813
 20
-150.1193467506646
 30
0.0
 10
112.5554036176945
 20
-150.1193467506646
 30
0.0
 10
112.6249945464965
 20
-150.1193467506646
 30
0.0
 10
112.6249945464965
 20
-150.1193467506646
 30
0.0
 10
112.7583197417757
 20
-150.1193467506646
 30
0.0
 10
112.7583197417757
 20
-150.1193467506646
 30
0.0
 10
112.7583197417757
 20
-150.049411312314
 30
0.0
 10
112.7583197417757
 20
-149.966729020668
 30
0.0
 10
112.7562526844845
 20
-149.9625949060857
 30
0.0
 10
112.7476399457714
 20
-149.7827609217557
 30
0.0
 10
112.7476399457714
 20
-149.7638128965868
 30
0.0
 10
112.7455728884803
 20
-149.7173041075359
 30
0.0
 10
112.7455728884803
 20
-149.7173041075359
 30
0.0
 10
112.9615803754054
 20
-149.7255723367005
 30
0.0
 10
112.9615803754054
 20
-149.7255723367005
 30
0.0
 10
112.9719156618612
 20
-149.7255723367005
 30
0.0
 10
112.9932752538697
 20
-149.7279839035402
 30
0.0
 10
112.9932752538697
 20
-149.7448648714179
 30
0.0
 10
112.9932752538697
 20
-149.7638128965868
 30
0.0
 10
112.9784613432831
 20
-149.7744926925911
 30
0.0
 10
112.9529676366923
 20
-149.7934407177599
 30
0.0
 10
112.9529676366923
 20
-149.8440836213931
 30
0.0
 10
112.9467664648188
 20
-150.0724934520652
 30
0.0
 10
112.94883352211
 20
-150.1193467506646
 30
0.0
 10
113.0776800932583
 20
-150.1193467506646
 30
0.0
 10
113.0904269465538
 20
-150.1193467506646
 30
0.0
 10
113.1879231487863
 20
-150.1107340119514
 30
0.0
 10
113.1879231487863
 20
-150.1107340119514
 30
0.0
 10
113.1879231487863
 20
-150.3053819068681
 30
0.0
 10
113.1879231487863
 20
-150.3053819068681
 30
0.0
 10
113.1496825889001
 20
-150.3033148495769
 30
0.0
 10
113.0821587173892
 20
-150.2991807349946
 30
0.0
 10
112.9467664648188
 20
-150.3012477922858
 30
0.0
 10
112.9467664648188
 20
-150.3012477922858
 30
0.0
 10
112.9467664648188
 20
-150.6395561689373
 30
0.0
 10
112.9467664648188
 20
-150.6395561689373
 30
0.0
 10
113.0015434830343
 20
-150.6164740291862
 30
0.0
 10
113.0673448068026
 20
-150.5889132653041
 30
0.0
 10
113.1159206531446
 20
-150.5654866160045
 30
0.0
 10
113.1159206531446
 20
-150.5654866160045
 30
0.0
 10
113.1159206531446
 20
-150.3877196889655
 30
0.0
 10
113.1159206531446
 20
-150.3877196889655
 30
0.0
 10
113.2302978232549
 20
-150.400466542261
 30
0.0
 10
113.348464598399
 20
-150.400466542261
 30
0.0
 10
113.4649088258004
 20
-150.400466542261
 30
0.0
 10
113.4418266860492
 20
-150.3053819068681
 30
0.0
 10
113.4142659221673
 20
-150.2226996152221
 30
0.0
 10
113.3508761652386
 20
-150.0897189294914
 30
0.0
 10
113.3064344334789
 20
-150.0917859867826
 30
0.0
 10
113.2237521418329
 20
-150.0959201013649
 30
0.0
 10
113.1858560914952
 20
-150.097987158656
 30
0.0
 10
113.1858560914952
 20
-150.097987158656
 30
0.0
 10
113.1858560914952
 20
-149.918153174326
 30
0.0
 10
113.1858560914952
 20
-149.918153174326
 30
0.0
 10
113.3105685480612
 20
-149.9267659130391
 30
0.0
 10
113.4838568509693
 20
-149.9309000276214
 30
0.0
 10
113.5665391426153
 20
-149.9309000276214
 30
0.0
 10
113.5665391426153
 20
-149.9309000276214
 30
0.0
 10
113.6488769247128
 20
-149.9309000276214
 30
0.0
 10
113.6488769247128
 20
-149.9309000276214
 30
0.0
 10
113.6488769247128
 20
-149.7679470111691
 30
0.0
 10
113.6488769247128
 20
-149.7576117247134
 30
0.0
 10
113.6468098674216
 20
-149.7024901969494
 30
0.0
 10
113.6468098674216
 20
-149.7024901969494
 30
0.0
 10
113.8710855835114
 20
-149.7279839035402
 30
0.0
 10
113.8710855835114
 20
-149.7279839035402
 30
0.0
 10
113.8752196980937
 20
-149.7279839035402
 30
0.0
 10
113.8965792901022
 20
-149.7300509608314
 30
0.0
 10
113.8965792901022
 20
-149.7469319287091
 30
0.0
 10
113.8965792901022
 20
-149.7617458392957
 30
0.0
 10
113.8858994940979
 20
-149.7700140684603
 30
0.0
 10
113.858338730216
 20
-149.7848279790468
 30
0.0
 10
113.8521375583425
 20
-149.8506293028151
 30
0.0
 10
113.8500705010514
 20
-149.8716443852751
 30
0.0
 10
113.8500705010514
 20
-149.9309000276214
 30
0.0
 10
113.8500705010514
 20
-149.9309000276214
 30
0.0
 10
113.9451551364442
 20
-149.9309000276214
 30
0.0
 10
113.9451551364442
 20
-149.9309000276214
 30
0.0
 10
114.0278374280902
 20
-149.9309000276214
 30
0.0
 10
114.2011257309983
 20
-149.9267659130391
 30
0.0
 10
114.3258381875643
 20
-149.918153174326
 30
0.0
 10
114.3258381875643
 20
-149.918153174326
 30
0.0
 10
114.3258381875643
 20
-150.097987158656
 30
0.0
 10
114.3258381875643
 20
-150.097987158656
 30
0.0
 10
114.2962103663912
 20
-150.0959201013649
 30
0.0
 10
114.1780435912471
 20
-150.0917859867826
 30
0.0
 10
114.1377359740697
 20
-150.0897189294914
 30
0.0
 10
114.1229220634831
 20
-150.1403618331246
 30
0.0
 10
114.0891601277277
 20
-150.2523274363952
 30
0.0
 10
114.0233588039594
 20
-150.3921983130964
 30
0.0
 10
114.065733478428
 20
-150.3921983130964
 30
0.0
 10
114.3430636649906
 20
-150.372905778379
 30
0.0
 10
114.4043863646281
 20
-150.3708387210878
 30
0.0
 10
114.4043863646281
 20
-150.3708387210878
 30
0.0
 10
114.4043863646281
 20
-150.5551513295487
 30
0.0
 10
114.4043863646281
 20
-150.5551513295487
 30
0.0
 10
114.3747585434549
 20
-150.5551513295487
 30
0.0
 10
114.3578775755772
 20
-150.5506727054179
 30
0.0
 10
114.1949245591248
 20
-150.5506727054179
 30
0.0
  0
HATCH
  5
191
330
18A
100
AcDbEntity
  8
レイヤー 1
 62
    18
420
        0
440
 33554687
100
AcDbHatch
 10
0.0
 20
0.0
 30
0.0
210
0.0
220
0.0
230
1.0
  2
SOLID
 70
     1
 71
     1
 91
        3
 92
        1
 93
        1
 72
     4
 94
        3
 73
     0
 74
     0
 95
       17
 96
       13
 40
0.0
 40
0.0
 40
0.0
 40
0.0
 40
1.0
 40
1.0
 40
1.0
 40
2.0
 40
2.0
 40
2.0
 40
3.0
 40
3.0
 40
3.0
 40
4.0
 40
4.0
 40
4.0
 40
4.0
 10
113.6299288995439
 20
-150.9358343806688
 10
113.6130479316662
 20
-150.9654622018419
 10
113.562405028033
 20
-151.0584797799437
 10
113.5517252320287
 20
-151.0774278051126
 10
113.742239012363
 20
-151.1366834474589
 10
113.7632540948231
 20
-151.1432291288809
 10
113.8352565904648
 20
-151.1704453832143
 10
113.8900336086802
 20
-151.0839734865345
 10
113.9134602579799
 20
-151.0099039336017
 10
113.9282741685665
 20
-150.9358343806688
 10
113.9282741685665
 20
-150.9358343806688
 10
113.6299288995439
 20
-150.9358343806688
 10
113.6299288995439
 20
-150.9358343806688
 97
        0
 97
        1
330
18E
 92
        1
 93
        1
 72
     4
 94
        3
 73
     0
 74
     0
 95
       20
 96
       16
 40
0.0
 40
0.0
 40
0.0
 40
0.0
 40
1.0
 40
1.0
 40
1.0
 40
2.0
 40
2.0
 40
2.0
 40
3.0
 40
3.0
 40
3.0
 40
4.0
 40
4.0
 40
4.0
 40
5.0
 40
5.0
 40
5.0
 40
5.0
 10
113.5665391426153
 20
-150.0852403053606
 10
113.5665391426153
 20
-150.0852403053606
 10
113.534844264151
 20
-150.0852403053606
 10
113.534844264151
 20
-150.0852403053606
 10
113.5813530532019
 20
-150.1848035648843
 10
113.6130479316662
 20
-150.2650742896907
 10
113.6468098674216
 20
-150.3921983130964
 10
113.6468098674216
 20
-150.3921983130964
 10
113.8542046156336
 20
-150.3921983130964
 10
113.8542046156336
 20
-150.3921983130964
 10
113.8858994940979
 20
-150.2991807349946
 10
113.9093261433977
 20
-150.2144313860575
 10
113.9324082831488
 20
-150.0852403053606
 10
113.9324082831488
 20
-150.0852403053606
 10
113.5665391426153
 20
-150.0852403053606
 10
113.5665391426153
 20
-150.0852403053606
 97
        0
 97
        1
330
18F
 92
        1
 93
        1
 72
     4
 94
        3
 73
     0
 74
     0
 95
      242
 96
      238
 40
0.0
 40
0.0
 40
0.0
 40
0.0
 40
1.0
 40
1.0
 40
1.0
 40
2.0
 40
2.0
 40
2.0
 40
3.0
 40
3.0
 40
3.0
 40
4.0
 40
4.0
 40
4.0
 40
5.0
 40
5.0
 40
5.0
 40
6.0
 40
6.0
 40
6.0
 40
7.0
 40
7.0
 40
7.0
 40
8.0
 40
8.0
 40
8.0
 40
9.0
 40
9.0
 40
9.0
 40
10.0
 40
10.0
 40
10.0
 40
11.0
 40
11.0
 40
11.0
 40
12.0
 40
12.0
 40
12.0
 40
13.0
 40
13.0
 40
13.0
 40
14.0
 40
14.0
 40
14.0
 40
15.0
 40
15.0
 40
15.0
 40
16.0
 40
16.0
 40
16.0
 40
17.0
 40
17.0
 40
17.0
 40
18.0
 40
18.0
 40
18.0
 40
19.0
 40
19.0
 40
19.0
 40
20.0
 40
20.0
 40
20.0
 40
21.0
 40
21.0
 40
21.0
 40
22.0
 40
22.0
 40
22.0
 40
23.0
 40
23.0
 40
23.0
 40
24.0
 40
24.0
 40
24.0
 40
25.0
 40
25.0
 40
25.0
 40
26.0
 40
26.0
 40
26.0
 40
27.0
 40
27.0
 40
27.0
 40
28.0
 40
28.0
 40
28.0
 40
29.0
 40
29.0
 40
29.0
 40
30.0
 40
30.0
 40
30.0
 40
31.0
 40
31.0
 40
31.0
 40
32.0
 40
32.0
 40
32.0
 40
33.0
 40
33.0
 40
33.0
 40
34.0
 40
34.0
 40
34.0
 40
35.0
 40
35.0
 40
35.0
 40
36.0
 40
36.0
 40
36.0
 40
37.0
 40
37.0
 40
37.0
 40
38.0
 40
38.0
 40
38.0
 40
39.0
 40
39.0
 40
39.0
 40
40.0
 40
40.0
 40
40.0
 40
41.0
 40
41.0
 40
41.0
 40
42.0
 40
42.0
 40
42.0
 40
43.0
 40
43.0
 40
43.0
 40
44.0
 40
44.0
 40
44.0
 40
45.0
 40
45.0
 40
45.0
 40
46.0
 40
46.0
 40
46.0
 40
47.0
 40
47.0
 40
47.0
 40
48.0
 40
48.0
 40
48.0
 40
49.0
 40
49.0
 40
49.0
 40
50.0
 40
50.0
 40
50.0
 40
51.0
 40
51.0
 40
51.0
 40
52.0
 40
52.0
 40
52.0
 40
53.0
 40
53.0
 40
53.0
 40
54.0
 40
54.0
 40
54.0
 40
55.0
 40
55.0
 40
55.0
 40
56.0
 40
56.0
 40
56.0
 40
57.0
 40
57.0
 40
57.0
 40
58.0
 40
58.0
 40
58.0
 40
59.0
 40
59.0
 40
59.0
 40
60.0
 40
60.0
 40
60.0
 40
61.0
 40
61.0
 40
61.0
 40
62.0
 40
62.0
 40
62.0
 40
63.0
 40
63.0
 40
63.0
 40
64.0
 40
64.0
 40
64.0
 40
65.0
 40
65.0
 40
65.0
 40
66.0
 40
66.0
 40
66.0
 40
67.0
 40
67.0
 40
67.0
 40
68.0
 40
68.0
 40
68.0
 40
69.0
 40
69.0
 40
69.0
 40
70.0
 40
70.0
 40
70.0
 40
71.0
 40
71.0
 40
71.0
 40
72.0
 40
72.0
 40
72.0
 40
73.0
 40
73.0
 40
73.0
 40
74.0
 40
74.0
 40
74.0
 40
75.0
 40
75.0
 40
75.0
 40
76.0
 40
76.0
 40
76.0
 40
77.0
 40
77.0
 40
77.0
 40
78.0
 40
78.0
 40
78.0
 40
79.0
 40
79.0
 40
79.0
 40
79.0
 10
114.1949245591248
 20
-150.5506727054179
 10
114.1949245591248
 20
-150.5506727054179
 10
113.9410210218619
 20
-150.5506727054179
 10
113.9410210218619
 20
-150.5506727054179
 10
113.9410210218619
 20
-150.5506727054179
 10
113.6636908352993
 20
-150.5506727054179
 10
113.6636908352993
 20
-150.5506727054179
 10
113.6636908352993
 20
-150.5506727054179
 10
113.7908148587051
 20
-150.5930473798864
 10
113.7908148587051
 20
-150.5930473798864
 10
113.8014946547093
 20
-150.5971814944687
 10
113.8138969984562
 20
-150.6037271758907
 10
113.8138969984562
 20
-150.6164740291862
 10
113.8138969984562
 20
-150.6374891116462
 10
113.7822021199919
 20
-150.6436902835196
 10
113.7611870375319
 20
-150.6481689076504
 10
113.7505072415276
 20
-150.6712510474016
 10
113.7208794203545
 20
-150.7370523711699
 10
113.7019313951856
 20
-150.7814941029296
 10
113.7019313951856
 20
-150.7814941029296
 10
113.9727159003262
 20
-150.7814941029296
 10
113.9727159003262
 20
-150.7814941029296
 10
114.0636664211369
 20
-150.7814941029296
 10
114.2603813733446
 20
-150.7770154787988
 10
114.4019747977884
 20
-150.7687472496342
 10
114.4019747977884
 20
-150.7687472496342
 10
114.4019747977884
 20
-150.9465141766731
 10
114.4019747977884
 20
-150.9465141766731
 10
114.3196370156909
 20
-150.9420355525423
 10
114.2986219332309
 20
-150.9420355525423
 10
114.1187879489008
 20
-150.9379014379599
 10
114.0870930704365
 20
-151.0922417156991
 10
114.0426513386768
 20
-151.172856950054
 10
113.9982096069171
 20
-151.2424478788561
 10
114.1187879489008
 20
-151.3017035212024
 10
114.224552380298
 20
-151.3695719022618
 10
114.328249754404
 20
-151.4519096843592
 10
114.328249754404
 20
-151.4519096843592
 10
114.2097384697114
 20
-151.6189968153939
 10
114.2097384697114
 20
-151.6189968153939
 10
114.1863118204117
 20
-151.600048790225
 10
114.1735649671163
 20
-151.5914360515118
 10
114.0615993638457
 20
-151.5070312121232
 10
114.0130235175037
 20
-151.4687906522369
 10
113.9537678751574
 20
-151.4329616591903
 10
113.8731526408025
 20
-151.3885199274306
 10
113.6616237780082
 20
-151.5745550836341
 10
113.4566405966358
 20
-151.5979817329338
 10
113.1665635567778
 20
-151.627609554107
 10
113.1665635567778
 20
-151.627609554107
 10
113.0628661826718
 20
-151.4477755697769
 10
113.0628661826718
 20
-151.4477755697769
 10
113.3805039864118
 20
-151.4436414551946
 10
113.555859346611
 20
-151.4181477486038
 10
113.7081325670591
 20
-151.3082492026243
 10
113.5896212823665
 20
-151.2572617894426
 10
113.5010823283955
 20
-151.2297010255606
 10
113.4649088258004
 20
-151.2172986818137
 10
113.4459608006315
 20
-151.2445149361472
 10
113.431146890045
 20
-151.2638074708646
 10
113.403586126163
 20
-151.29756940662
 10
113.403586126163
 20
-151.29756940662
 10
113.2068711739552
 20
-151.214887114974
 10
113.2068711739552
 20
-151.214887114974
 10
113.2892089560527
 20
-151.1346163901677
 10
113.3508761652386
 20
-151.0395317547748
 10
113.4077202407453
 20
-150.9379014379599
 10
113.2175509699595
 20
-150.9420355525423
 10
113.1961913779509
 20
-150.9420355525423
 10
113.1138535958535
 20
-150.9465141766731
 10
113.1138535958535
 20
-150.9465141766731
 10
113.1138535958535
 20
-150.7687472496342
 10
113.1138535958535
 20
-150.7687472496342
 10
113.2533799630061
 20
-150.7749484215076
 10
113.4628417685093
 20
-150.7790825360899
 10
113.4883354751001
 20
-150.7790825360899
 10
113.5052164429778
 20
-150.7453206003345
 10
113.5599934611933
 20
-150.6247422583508
 10
113.5792859959107
 20
-150.5506727054179
 10
113.5599934611933
 20
-150.5506727054179
 10
113.3825710437029
 20
-150.5572183868399
 10
113.1879231487863
 20
-150.5699652401353
 10
113.1879231487863
 20
-150.5699652401353
 10
113.1879231487863
 20
-150.7029459258659
 10
113.1879231487863
 20
-150.7029459258659
 10
113.1393473024443
 20
-150.7284396324568
 10
113.080091660098
 20
-150.7601345109211
 10
112.9467664648188
 20
-150.8259358346893
 10
112.9467664648188
 20
-150.8259358346893
 10
112.9467664648188
 20
-150.9716633737154
 10
112.9467664648188
 20
-150.9716633737154
 10
112.9467664648188
 20
-150.9716633737154
 10
112.9467664648188
 20
-151.4391628310638
 10
112.9467664648188
 20
-151.4391628310638
 10
112.9467664648188
 20
-151.5662868544695
 10
112.9105929622237
 20
-151.6255424968158
 10
112.6270616037877
 20
-151.6169297581027
 10
112.6270616037877
 20
-151.6169297581027
 10
112.5237087392302
 20
-151.4095350098906
 10
112.5237087392302
 20
-151.4095350098906
 10
112.5870984961588
 20
-151.4222818631861
 10
112.6356743425008
 20
-151.4264159777684
 10
112.6759819596782
 20
-151.4264159777684
 10
112.7521185699022
 20
-151.4264159777684
 10
112.762453856358
 20
-151.4033338380172
 10
112.762453856358
 20
-151.3378770237975
 10
112.762453856358
 20
-151.3378770237975
 10
112.762453856358
 20
-150.9082736167868
 10
112.762453856358
 20
-150.9082736167868
 10
112.6653021636739
 20
-150.9485812339642
 10
112.6484211957962
 20
-150.9547824058377
 10
112.6019124067453
 20
-150.9737304310065
 10
112.597778292163
 20
-150.9950900230151
 10
112.5932996680322
 20
-151.0247178441882
 10
112.5743516428633
 20
-151.0247178441882
 10
112.5657389041502
 20
-151.0247178441882
 10
112.5554036176945
 20
-151.0205837296059
 10
112.5488579362725
 20
-150.9971570803062
 10
112.5488579362725
 20
-150.9971570803062
 10
112.4961479753482
 20
-150.8045762426808
 10
112.4961479753482
 20
-150.8045762426808
 10
112.6418755143742
 20
-150.7580674536299
 10
112.7076768381425
 20
-150.7349853138787
 10
112.762453856358
 20
-150.7136257218702
 10
112.762453856358
 20
-150.7136257218702
 10
112.762453856358
 20
-150.3012477922858
 10
112.762453856358
 20
-150.3012477922858
 10
112.762453856358
 20
-150.3012477922858
 10
112.7097438954336
 20
-150.3012477922858
 10
112.7097438954336
 20
-150.3012477922858
 10
112.7097438954336
 20
-150.3012477922858
 10
112.6315402279185
 20
-150.3012477922858
 10
112.6315402279185
 20
-150.3012477922858
 10
112.5636718468591
 20
-150.3012477922858
 10
112.5554036176945
 20
-150.3012477922858
 10
112.5192301150993
 20
-150.3074489641592
 10
112.5192301150993
 20
-150.3074489641592
 10
112.5192301150993
 20
-150.1128010692426
 10
112.5192301150993
 20
-150.1128010692426
 10
112.5467908789813
 20
-150.1193467506646
 10
112.5554036176945
 20
-150.1193467506646
 10
112.6249945464965
 20
-150.1193467506646
 10
112.6249945464965
 20
-150.1193467506646
 10
112.7583197417757
 20
-150.1193467506646
 10
112.7583197417757
 20
-150.1193467506646
 10
112.7583197417757
 20
-150.049411312314
 10
112.7583197417757
 20
-149.966729020668
 10
112.7562526844845
 20
-149.9625949060857
 10
112.7476399457714
 20
-149.7827609217557
 10
112.7476399457714
 20
-149.7638128965868
 10
112.7455728884803
 20
-149.7173041075359
 10
112.7455728884803
 20
-149.7173041075359
 10
112.9615803754054
 20
-149.7255723367005
 10
112.9615803754054
 20
-149.7255723367005
 10
112.9719156618612
 20
-149.7255723367005
 10
112.9932752538697
 20
-149.7279839035402
 10
112.9932752538697
 20
-149.7448648714179
 10
112.9932752538697
 20
-149.7638128965868
 10
112.9784613432831
 20
-149.7744926925911
 10
112.9529676366923
 20
-149.7934407177599
 10
112.9529676366923
 20
-149.8440836213931
 10
112.9467664648188
 20
-150.0724934520652
 10
112.94883352211
 20
-150.1193467506646
 10
113.0776800932583
 20
-150.1193467506646
 10
113.0904269465538
 20
-150.1193467506646
 10
113.1879231487863
 20
-150.1107340119514
 10
113.1879231487863
 20
-150.1107340119514
 10
113.1879231487863
 20
-150.3053819068681
 10
113.1879231487863
 20
-150.3053819068681
 10
113.1496825889001
 20
-150.3033148495769
 10
113.0821587173892
 20
-150.2991807349946
 10
112.9467664648188
 20
-150.3012477922858
 10
112.9467664648188
 20
-150.3012477922858
 10
112.9467664648188
 20
-150.6395561689373
 10
112.9467664648188
 20
-150.6395561689373
 10
113.0015434830343
 20
-150.6164740291862
 10
113.0673448068026
 20
-150.5889132653041
 10
113.1159206531446
 20
-150.5654866160045
 10
113.1159206531446
 20
-150.5654866160045
 10
113.1159206531446
 20
-150.3877196889655
 10
113.1159206531446
 20
-150.3877196889655
 10
113.2302978232549
 20
-150.400466542261
 10
113.348464598399
 20
-150.400466542261
 10
113.4649088258004
 20
-150.400466542261
 10
113.4418266860492
 20
-150.3053819068681
 10
113.4142659221673
 20
-150.2226996152221
 10
113.3508761652386
 20
-150.0897189294914
 10
113.3064344334789
 20
-150.0917859867826
 10
113.2237521418329
 20
-150.0959201013649
 10
113.1858560914952
 20
-150.097987158656
 10
113.1858560914952
 20
-150.097987158656
 10
113.1858560914952
 20
-149.918153174326
 10
113.1858560914952
 20
-149.918153174326
 10
113.3105685480612
 20
-149.9267659130391
 10
113.4838568509693
 20
-149.9309000276214
 10
113.5665391426153
 20
-149.9309000276214
 10
113.5665391426153
 20
-149.9309000276214
 10
113.6488769247128
 20
-149.9309000276214
 10
113.6488769247128
 20
-149.9309000276214
 10
113.6488769247128
 20
-149.7679470111691
 10
113.6488769247128
 20
-149.7576117247134
 10
113.6468098674216
 20
-149.7024901969494
 10
113.6468098674216
 20
-149.7024901969494
 10
113.8710855835114
 20
-149.7279839035402
 10
113.8710855835114
 20
-149.7279839035402
 10
113.8752196980937
 20
-149.7279839035402
 10
113.8965792901022
 20
-149.7300509608314
 10
113.8965792901022
 20
-149.7469319287091
 10
113.8965792901022
 20
-149.7617458392957
 10
113.8858994940979
 20
-149.7700140684603
 10
113.858338730216
 20
-149.7848279790468
 10
113.8521375583425
 20
-149.8506293028151
 10
113.8500705010514
 20
-149.8716443852751
 10
113.8500705010514
 20
-149.9309000276214
 10
113.8500705010514
 20
-149.9309000276214
 10
113.9451551364442
 20
-149.9309000276214
 10
113.9451551364442
 20
-149.9309000276214
 10
114.0278374280902
 20
-149.9309000276214
 10
114.2011257309983
 20
-149.9267659130391
 10
114.3258381875643
 20
-149.918153174326
 10
114.3258381875643
 20
-149.918153174326
 10
114.3258381875643
 20
-150.097987158656
 10
114.3258381875643
 20
-150.097987158656
 10
114.2962103663912
 20
-150.0959201013649
 10
114.1780435912471
 20
-150.0917859867826
 10
114.1377359740697
 20
-150.0897189294914
 10
114.1229220634831
 20
-150.1403618331246
 10
114.0891601277277
 20
-150.2523274363952
 10
114.0233588039594
 20
-150.3921983130964
 10
114.065733478428
 20
-150.3921983130964
 10
114.3430636649906
 20
-150.372905778379
 10
114.4043863646281
 20
-150.3708387210878
 10
114.4043863646281
 20
-150.3708387210878
 10
114.4043863646281
 20
-150.5551513295487
 10
114.4043863646281
 20
-150.5551513295487
 10
114.3747585434549
 20
-150.5551513295487
 10
114.3578775755772
 20
-150.5506727054179
 10
114.1949245591248
 20
-150.5506727054179
 97
        0
 97
        1
330
190
 75
     2
 76
     1
 98
        1
 10
0.0
 20
0.0
450
        0
451
        0
460
0.0
461
0.0
452
        0
462
0.0
453
        0
470

  0
SPLINE
  5
192
330
18A
100
AcDbEntity
  8
レイヤー 1
100
AcDbSpline
210
0.0
220
0.0
230
1.0
 70
    11
 71
     3
 72
    17
 73
    13
 74
     0
 42
0.0000000001
 43
0.0000000001
 40
0.0
 40
0.0
 40
0.0
 40
0.0
 40
1.0
 40
1.0
 40
1.0
 40
2.0
 40
2.0
 40
2.0
 40
3.0
 40
3.0
 40
3.0
 40
4.0
 40
4.0
 40
4.0
 40
4.0
 10
116.0511420065775
 20
-151.3502793675443
 30
0.0
 10
116.0511420065775
 20
-151.3502793675443
 30
0.0
 10
115.3445529225527
 20
-151.3502793675443
 30
0.0
 10
115.3445529225527
 20
-151.3502793675443
 30
0.0
 10
115.3445529225527
 20
-151.3502793675443
 30
0.0
 10
115.3445529225527
 20
-151.4646565376547
 30
0.0
 10
115.3445529225527
 20
-151.4646565376547
 30
0.0
 10
115.3445529225527
 20
-151.4646565376547
 30
0.0
 10
116.0511420065775
 20
-151.4646565376547
 30
0.0
 10
116.0511420065775
 20
-151.4646565376547
 30
0.0
 10
116.0511420065775
 20
-151.4646565376547
 30
0.0
 10
116.0511420065775
 20
-151.3502793675443
 30
0.0
 10
116.0511420065775
 20
-151.3502793675443
 30
0.0
  0
SPLINE
  5
193
330
18A
100
AcDbEntity
  8
レイヤー 1
100
AcDbSpline
210
0.0
220
0.0
230
1.0
 70
    11
 71
     3
 72
    17
 73
    13
 74
     0
 42
0.0000000001
 43
0.0000000001
 40
0.0
 40
0.0
 40
0.0
 40
0.0
 40
1.0
 40
1.0
 40
1.0
 40
2.0
 40
2.0
 40
2.0
 40
3.0
 40
3.0
 40
3.0
 40
4.0
 40
4.0
 40
4.0
 40
4.0
 10
116.0511420065775
 20
-151.1070556262857
 30
0.0
 10
116.0511420065775
 20
-151.1070556262857
 30
0.0
 10
115.3445529225527
 20
-151.1070556262857
 30
0.0
 10
115.3445529225527
 20
-151.1070556262857
 30
0.0
 10
115.3445529225527
 20
-151.1070556262857
 30
0.0
 10
115.3445529225527
 20
-151.221432796396
 30
0.0
 10
115.3445529225527
 20
-151.221432796396
 30
0.0
 10
115.3445529225527
 20
-151.221432796396
 30
0.0
 10
116.0511420065775
 20
-151.221432796396
 30
0.0
 10
116.0511420065775
 20
-151.221432796396
 30
0.0
 10
116.0511420065775
 20
-151.221432796396
 30
0.0
 10
116.0511420065775
 20
-151.1070556262857
 30
0.0
 10
116.0511420065775
 20
-151.1070556262857
 30
0.0
  0
SPLINE
  5
194
330
18A
100
AcDbEntity
  8
レイヤー 1
100
AcDbSpline
210
0.0
220
0.0
230
1.0
 70
    11
 71
     3
 72
    17
 73
    13
 74
     0
 42
0.0000000001
 43
0.0000000001
 40
0.0
 40
0.0
 40
0.0
 40
0.0
 40
1.0
 40
1.0
 40
1.0
 40
2.0
 40
2.0
 40
2.0
 40
3.0
 40
3.0
 40
3.0
 40
4.0
 40
4.0
 40
4.0
 40
4.0
 10
116.0511420065775
 20
-150.8745116810314
 30
0.0
 10
116.0511420065775
 20
-150.8745116810314
 30
0.0
 10
115.3445529225527
 20
-150.8745116810314
 30
0.0
 10
115.3445529225527
 20
-150.8745116810314
 30
0.0
 10
115.3445529225527
 20
-150.8745116810314
 30
0.0
 10
115.3445529225527
 20
-150.9823431697197
 30
0.0
 10
115.3445529225527
 20
-150.9823431697197
 30
0.0
 10
115.3445529225527
 20
-150.9823431697197
 30
0.0
 10
116.0511420065775
 20
-150.9823431697197
 30
0.0
 10
116.0511420065775
 20
-150.9823431697197
 30
0.0
 10
116.0511420065775
 20
-150.9823431697197
 30
0.0
 10
116.0511420065775
 20
-150.8745116810314
 30
0.0
 10
116.0511420065775
 20
-150.8745116810314
 30
0.0
  0
SPLINE
  5
195
330
18A
100
AcDbEntity
  8
レイヤー 1
100
AcDbSpline
210
0.0
220
0.0
230
1.0
 70
     9
 71
     3
 72
   203
 73
   199
 74
     0
 42
0.0000000001
 43
0.0000000001
 40
0.0
 40
0.0
 40
0.0
 40
0.0
 40
1.0
 40
1.0
 40
1.0
 40
2.0
 40
2.0
 40
2.0
 40
3.0
 40
3.0
 40
3.0
 40
4.0
 40
4.0
 40
4.0
 40
5.0
 40
5.0
 40
5.0
 40
6.0
 40
6.0
 40
6.0
 40
7.0
 40
7.0
 40
7.0
 40
8.0
 40
8.0
 40
8.0
 40
9.0
 40
9.0
 40
9.0
 40
10.0
 40
10.0
 40
10.0
 40
11.0
 40
11.0
 40
11.0
 40
12.0
 40
12.0
 40
12.0
 40
13.0
 40
13.0
 40
13.0
 40
14.0
 40
14.0
 40
14.0
 40
15.0
 40
15.0
 40
15.0
 40
16.0
 40
16.0
 40
16.0
 40
17.0
 40
17.0
 40
17.0
 40
18.0
 40
18.0
 40
18.0
 40
19.0
 40
19.0
 40
19.0
 40
20.0
 40
20.0
 40
20.0
 40
21.0
 40
21.0
 40
21.0
 40
22.0
 40
22.0
 40
22.0
 40
23.0
 40
23.0
 40
23.0
 40
24.0
 40
24.0
 40
24.0
 40
25.0
 40
25.0
 40
25.0
 40
26.0
 40
26.0
 40
26.0
 40
27.0
 40
27.0
 40
27.0
 40
28.0
 40
28.0
 40
28.0
 40
29.0
 40
29.0
 40
29.0
 40
30.0
 40
30.0
 40
30.0
 40
31.0
 40
31.0
 40
31.0
 40
32.0
 40
32.0
 40
32.0
 40
33.0
 40
33.0
 40
33.0
 40
34.0
 40
34.0
 40
34.0
 40
35.0
 40
35.0
 40
35.0
 40
36.0
 40
36.0
 40
36.0
 40
37.0
 40
37.0
 40
37.0
 40
38.0
 40
38.0
 40
38.0
 40
39.0
 40
39.0
 40
39.0
 40
40.0
 40
40.0
 40
40.0
 40
41.0
 40
41.0
 40
41.0
 40
42.0
 40
42.0
 40
42.0
 40
43.0
 40
43.0
 40
43.0
 40
44.0
 40
44.0
 40
44.0
 40
45.0
 40
45.0
 40
45.0
 40
46.0
 40
46.0
 40
46.0
 40
47.0
 40
47.0
 40
47.0
 40
48.0
 40
48.0
 40
48.0
 40
49.0
 40
49.0
 40
49.0
 40
50.0
 40
50.0
 40
50.0
 40
51.0
 40
51.0
 40
51.0
 40
52.0
 40
52.0
 40
52.0
 40
53.0
 40
53.0
 40
53.0
 40
54.0
 40
54.0
 40
54.0
 40
55.0
 40
55.0
 40
55.0
 40
56.0
 40
56.0
 40
56.0
 40
57.0
 40
57.0
 40
57.0
 40
58.0
 40
58.0
 40
58.0
 40
59.0
 40
59.0
 40
59.0
 40
60.0
 40
60.0
 40
60.0
 40
61.0
 40
61.0
 40
61.0
 40
62.0
 40
62.0
 40
62.0
 40
63.0
 40
63.0
 40
63.0
 40
64.0
 40
64.0
 40
64.0
 40
65.0
 40
65.0
 40
65.0
 40
66.0
 40
66.0
 40
66.0
 40
66.0
 10
115.886121932834
 20
-150.6185410864773
 30
0.0
 10
115.886121932834
 20
-150.6185410864773
 30
0.0
 10
115.327671954675
 20
-150.6185410864773
 30
0.0
 10
115.327671954675
 20
-150.6185410864773
 30
0.0
 10
115.3173366682193
 20
-150.662982818237
 30
0.0
 10
115.3087239295061
 20
-150.6946776967013
 30
0.0
 10
115.2959770762107
 20
-150.7325737470391
 30
0.0
 10
115.3214707828016
 20
-150.7325737470391
 30
0.0
 10
115.3362846933881
 20
-150.7349853138787
 30
0.0
 10
115.3424858652616
 20
-150.7349853138787
 30
0.0
 10
115.3424858652616
 20
-150.7349853138787
 30
0.0
 10
115.5309325883048
 20
-150.7349853138787
 30
0.0
 10
115.5309325883048
 20
-150.7349853138787
 30
0.0
 10
115.5309325883048
 20
-150.7349853138787
 30
0.0
 10
115.9054144675514
 20
-150.7349853138787
 30
0.0
 10
115.9054144675514
 20
-150.7349853138787
 30
0.0
 10
115.9560573711846
 20
-150.7349853138787
 30
0.0
 10
116.2395887296206
 20
-150.7222384605833
 30
0.0
 10
116.2712836080849
 20
-150.7222384605833
 30
0.0
 10
116.2692165507938
 20
-150.7497992244653
 30
0.0
 10
116.2671494935026
 20
-150.7687472496342
 30
0.0
 10
116.2671494935026
 20
-150.7983750708073
 30
0.0
 10
116.2650824362115
 20
-150.8300699492716
 30
0.0
 10
116.2650824362115
 20
-150.9654622018419
 30
0.0
 10
116.2650824362115
 20
-150.993022965724
 30
0.0
 10
116.2650824362115
 20
-150.993022965724
 30
0.0
 10
116.2650824362115
 20
-151.2383137642737
 30
0.0
 10
116.2650824362115
 20
-151.2383137642737
 30
0.0
 10
116.2650824362115
 20
-151.2827554960334
 30
0.0
 10
116.2692165507938
 20
-151.4794704482412
 30
0.0
 10
116.2733506653761
 20
-151.6317436686893
 30
0.0
 10
116.2733506653761
 20
-151.6317436686893
 30
0.0
 10
116.0470078919952
 20
-151.6317436686893
 30
0.0
 10
116.0470078919952
 20
-151.6317436686893
 30
0.0
 10
116.0470078919952
 20
-151.6317436686893
 30
0.0
 10
116.0490749492863
 20
-151.5979817329338
 30
0.0
 10
116.0490749492863
 20
-151.5979817329338
 30
0.0
 10
116.0490749492863
 20
-151.5979817329338
 30
0.0
 10
115.3469644893924
 20
-151.5979817329338
 30
0.0
 10
115.3469644893924
 20
-151.5979817329338
 30
0.0
 10
115.3469644893924
 20
-151.5979817329338
 30
0.0
 10
115.3490315466836
 20
-151.6317436686893
 30
0.0
 10
115.3490315466836
 20
-151.6317436686893
 30
0.0
 10
115.3490315466836
 20
-151.6317436686893
 30
0.0
 10
115.1309570024672
 20
-151.6317436686893
 30
0.0
 10
115.1309570024672
 20
-151.6317436686893
 30
0.0
 10
115.1350911170496
 20
-151.5766221409253
 30
0.0
 10
115.1350911170496
 20
-151.5642197971784
 30
0.0
 10
115.1416367984715
 20
-151.4498426270681
 30
0.0
 10
115.1437038557627
 20
-151.4222818631861
 30
0.0
 10
115.1457709130538
 20
-151.2889566679069
 30
0.0
 10
115.1457709130538
 20
-151.270008642738
 30
0.0
 10
115.1457709130538
 20
-151.270008642738
 30
0.0
 10
115.1457709130538
 20
-151.0670925186568
 30
0.0
 10
115.1457709130538
 20
-151.0670925186568
 30
0.0
 10
115.0062445459012
 20
-151.3165174317889
 30
0.0
 10
114.8370903575754
 20
-151.4477755697769
 30
0.0
 10
114.7313259261783
 20
-151.5132323839967
 30
0.0
 10
114.7313259261783
 20
-151.5132323839967
 30
0.0
 10
114.5576931137217
 20
-151.373706016844
 30
0.0
 10
114.5576931137217
 20
-151.373706016844
 30
0.0
 10
114.6465765772411
 20
-151.3230631132109
 30
0.0
 10
114.7905815685246
 20
-151.2362467069826
 30
0.0
 10
114.928040878386
 20
-151.041598812066
 30
0.0
 10
115.0189913991966
 20
-150.9144747886602
 30
0.0
 10
115.0844482134164
 20
-150.7708143069253
 30
0.0
 10
115.1182101491718
 20
-150.6185410864773
 30
0.0
 10
114.8898003184998
 20
-150.6206081437684
 30
0.0
 10
114.7099663341697
 20
-150.6268093156419
 30
0.0
 10
114.6148816987768
 20
-150.628876372933
 30
0.0
 10
114.6148816987768
 20
-150.628876372933
 30
0.0
 10
114.6148816987768
 20
-150.4514539554427
 30
0.0
 10
114.6148816987768
 20
-150.4514539554427
 30
0.0
 10
114.8115966509846
 20
-150.4576551273161
 30
0.0
 10
115.0951280094206
 20
-150.4617892418984
 30
0.0
 10
115.2453341725775
 20
-150.4617892418984
 30
0.0
 10
115.2453341725775
 20
-150.4617892418984
 30
0.0
 10
115.458930092663
 20
-150.4617892418984
 30
0.0
 10
115.458930092663
 20
-150.4617892418984
 30
0.0
 10
115.458930092663
 20
-150.4617892418984
 30
0.0
 10
115.458930092663
 20
-150.3539577532101
 30
0.0
 10
115.458930092663
 20
-150.3539577532101
 30
0.0
 10
115.458930092663
 20
-150.3539577532101
 30
0.0
 10
115.3128580440884
 20
-150.3539577532101
 30
0.0
 10
115.3128580440884
 20
-150.3539577532101
 30
0.0
 10
115.1437038557627
 20
-150.3539577532101
 30
0.0
 10
114.9745496674369
 20
-150.3580918677924
 30
0.0
 10
114.8074625364023
 20
-150.3646375492144
 30
0.0
 10
114.8074625364023
 20
-150.3646375492144
 30
0.0
 10
114.8074625364023
 20
-150.1934163035975
 30
0.0
 10
114.8074625364023
 20
-150.1934163035975
 30
0.0
 10
114.9618028141415
 20
-150.2037515900532
 30
0.0
 10
115.147837970345
 20
-150.2037515900532
 30
0.0
 10
115.3128580440884
 20
-150.2037515900532
 30
0.0
 10
115.3128580440884
 20
-150.2037515900532
 30
0.0
 10
115.458930092663
 20
-150.2037515900532
 30
0.0
 10
115.458930092663
 20
-150.2037515900532
 30
0.0
 10
115.458930092663
 20
-150.2037515900532
 30
0.0
 10
115.458930092663
 20
-150.0852403053606
 30
0.0
 10
115.458930092663
 20
-150.0852403053606
 30
0.0
 10
115.458930092663
 20
-150.0852403053606
 30
0.0
 10
115.327671954675
 20
-150.0852403053606
 30
0.0
 10
115.327671954675
 20
-150.0852403053606
 30
0.0
 10
115.2811631656241
 20
-150.0852403053606
 30
0.0
 10
115.0782470415429
 20
-150.0938530440737
 30
0.0
 10
115.0358723670743
 20
-150.0938530440737
 30
0.0
 10
114.8326117334446
 20
-150.097987158656
 30
0.0
 10
114.7564751232206
 20
-150.1000542159472
 30
0.0
 10
114.6782714557054
 20
-150.1021212732383
 30
0.0
 10
114.6782714557054
 20
-150.1021212732383
 30
0.0
 10
114.6782714557054
 20
-149.918153174326
 30
0.0
 10
114.6782714557054
 20
-149.918153174326
 30
0.0
 10
114.7926486258157
 20
-149.9267659130391
 30
0.0
 10
114.8370903575754
 20
-149.9267659130391
 30
0.0
 10
115.2198404659867
 20
-149.9350341422037
 30
0.0
 10
115.1564507090581
 20
-149.8399495068108
 30
0.0
 10
115.1288899451761
 20
-149.8123887429288
 30
0.0
 10
115.0930609521295
 20
-149.7765597498822
 30
0.0
 10
115.0930609521295
 20
-149.7765597498822
 30
0.0
 10
115.2684163123287
 20
-149.6938774582362
 30
0.0
 10
115.2684163123287
 20
-149.6938774582362
 30
0.0
 10
115.3087239295061
 20
-149.7300509608314
 30
0.0
 10
115.3531656612658
 20
-149.7724256352999
 30
0.0
 10
115.4272352141987
 20
-149.8823241812794
 30
0.0
 10
115.4272352141987
 20
-149.8823241812794
 30
0.0
 10
115.3128580440884
 20
-149.9374457090434
 30
0.0
 10
115.3128580440884
 20
-149.9374457090434
 30
0.0
 10
115.3128580440884
 20
-149.9374457090434
 30
0.0
 10
115.3235378400927
 20
-149.9374457090434
 30
0.0
 10
115.3235378400927
 20
-149.9374457090434
 30
0.0
 10
115.3235378400927
 20
-149.9374457090434
 30
0.0
 10
115.8461588252051
 20
-149.9374457090434
 30
0.0
 10
115.8461588252051
 20
-149.9374457090434
 30
0.0
 10
115.8461588252051
 20
-149.9374457090434
 30
0.0
 10
115.7507296802637
 20
-149.8930039772837
 30
0.0
 10
115.7507296802637
 20
-149.8930039772837
 30
0.0
 10
115.7782904441457
 20
-149.8547634173974
 30
0.0
 10
115.8354790292008
 20
-149.7744926925911
 30
0.0
 10
115.8502929397874
 20
-149.7004231396582
 30
0.0
 10
115.8502929397874
 20
-149.7004231396582
 30
0.0
 10
116.0638888598729
 20
-149.7638128965868
 30
0.0
 10
116.0638888598729
 20
-149.7638128965868
 30
0.0
 10
116.072501598586
 20
-149.765879953878
 30
0.0
 10
116.093516681046
 20
-149.7765597498822
 30
0.0
 10
116.093516681046
 20
-149.7975748323423
 30
0.0
 10
116.093516681046
 20
-149.8358153922285
 30
0.0
 10
116.0280598668263
 20
-149.8358153922285
 30
0.0
 10
116.0091118416574
 20
-149.8358153922285
 30
0.0
 10
115.9984320456532
 20
-149.8547634173974
 30
0.0
 10
115.9750053963535
 20
-149.8950710345748
 30
0.0
 10
115.9453775751803
 20
-149.9350341422037
 30
0.0
 10
116.3453531610178
 20
-149.9288329703303
 30
0.0
 10
116.374980982191
 20
-149.9267659130391
 30
0.0
 10
116.451117592415
 20
-149.9202202316172
 30
0.0
 10
116.451117592415
 20
-149.9202202316172
 30
0.0
 10
116.451117592415
 20
-150.1021212732383
 30
0.0
 10
116.451117592415
 20
-150.1021212732383
 30
0.0
 10
116.4321695672461
 20
-150.1021212732383
 30
0.0
 10
116.4066758606553
 20
-150.1000542159472
 30
0.0
 10
116.1865342591478
 20
-150.0917859867826
 30
0.0
 10
116.1358913555146
 20
-150.0897189294914
 30
0.0
 10
115.9157497540072
 20
-150.0852403053606
 30
0.0
 10
115.8713080222474
 20
-150.0852403053606
 30
0.0
 10
115.8713080222474
 20
-150.0852403053606
 30
0.0
 10
115.6556450448708
 20
-150.0852403053606
 30
0.0
 10
115.6556450448708
 20
-150.0852403053606
 30
0.0
 10
115.6556450448708
 20
-150.0852403053606
 30
0.0
 10
115.6556450448708
 20
-150.2037515900532
 30
0.0
 10
115.6556450448708
 20
-150.2037515900532
 30
0.0
 10
115.6556450448708
 20
-150.2037515900532
 30
0.0
 10
115.8292778573274
 20
-150.2037515900532
 30
0.0
 10
115.8292778573274
 20
-150.2037515900532
 30
0.0
 10
115.9918863642312
 20
-150.2037515900532
 30
0.0
 10
116.1824001445655
 20
-150.2037515900532
 30
0.0
 10
116.3391519891444
 20
-150.1934163035975
 30
0.0
 10
116.3391519891444
 20
-150.1934163035975
 30
0.0
 10
116.3391519891444
 20
-150.3646375492144
 30
0.0
 10
116.3391519891444
 20
-150.3646375492144
 30
0.0
 10
116.1296901836412
 20
-150.3560248105013
 30
0.0
 10
115.9329752314334
 20
-150.3539577532101
 30
0.0
 10
115.8292778573274
 20
-150.3539577532101
 30
0.0
 10
115.8292778573274
 20
-150.3539577532101
 30
0.0
 10
115.6556450448708
 20
-150.3539577532101
 30
0.0
 10
115.6556450448708
 20
-150.3539577532101
 30
0.0
 10
115.6556450448708
 20
-150.3539577532101
 30
0.0
 10
115.6556450448708
 20
-150.4617892418984
 30
0.0
 10
115.6556450448708
 20
-150.4617892418984
 30
0.0
 10
115.6556450448708
 20
-150.4617892418984
 30
0.0
 10
115.886121932834
 20
-150.4617892418984
 30
0.0
 10
115.886121932834
 20
-150.4617892418984
 30
0.0
 10
116.0194471281132
 20
-150.4617892418984
 30
0.0
 10
116.3071126011315
 20
-150.4576551273161
 30
0.0
 10
116.5165744066347
 20
-150.4514539554427
 30
0.0
 10
116.5165744066347
 20
-150.4514539554427
 30
0.0
 10
116.5165744066347
 20
-150.628876372933
 30
0.0
 10
116.5165744066347
 20
-150.628876372933
 30
0.0
 10
116.3243380785578
 20
-150.6226752010596
 30
0.0
 10
116.0111788989486
 20
-150.6185410864773
 30
0.0
 10
115.886121932834
 20
-150.6185410864773
 30
0.0
  0
HATCH
  5
196
330
18A
100
AcDbEntity
  8
レイヤー 1
 62
    18
420
        0
440
 33554687
100
AcDbHatch
 10
0.0
 20
0.0
 30
0.0
210
0.0
220
0.0
230
1.0
  2
SOLID
 70
     1
 71
     1
 91
        4
 92
        1
 93
        1
 72
     4
 94
        3
 73
     0
 74
     0
 95
       17
 96
       13
 40
0.0
 40
0.0
 40
0.0
 40
0.0
 40
1.0
 40
1.0
 40
1.0
 40
2.0
 40
2.0
 40
2.0
 40
3.0
 40
3.0
 40
3.0
 40
4.0
 40
4.0
 40
4.0
 40
4.0
 10
116.0511420065775
 20
-151.3502793675443
 10
116.0511420065775
 20
-151.3502793675443
 10
115.3445529225527
 20
-151.3502793675443
 10
115.3445529225527
 20
-151.3502793675443
 10
115.3445529225527
 20
-151.3502793675443
 10
115.3445529225527
 20
-151.4646565376547
 10
115.3445529225527
 20
-151.4646565376547
 10
115.3445529225527
 20
-151.4646565376547
 10
116.0511420065775
 20
-151.4646565376547
 10
116.0511420065775
 20
-151.4646565376547
 10
116.0511420065775
 20
-151.4646565376547
 10
116.0511420065775
 20
-151.3502793675443
 10
116.0511420065775
 20
-151.3502793675443
 97
        0
 97
        1
330
192
 92
        1
 93
        1
 72
     4
 94
        3
 73
     0
 74
     0
 95
       17
 96
       13
 40
0.0
 40
0.0
 40
0.0
 40
0.0
 40
1.0
 40
1.0
 40
1.0
 40
2.0
 40
2.0
 40
2.0
 40
3.0
 40
3.0
 40
3.0
 40
4.0
 40
4.0
 40
4.0
 40
4.0
 10
116.0511420065775
 20
-151.1070556262857
 10
116.0511420065775
 20
-151.1070556262857
 10
115.3445529225527
 20
-151.1070556262857
 10
115.3445529225527
 20
-151.1070556262857
 10
115.3445529225527
 20
-151.1070556262857
 10
115.3445529225527
 20
-151.221432796396
 10
115.3445529225527
 20
-151.221432796396
 10
115.3445529225527
 20
-151.221432796396
 10
116.0511420065775
 20
-151.221432796396
 10
116.0511420065775
 20
-151.221432796396
 10
116.0511420065775
 20
-151.221432796396
 10
116.0511420065775
 20
-151.1070556262857
 10
116.0511420065775
 20
-151.1070556262857
 97
        0
 97
        1
330
193
 92
        1
 93
        1
 72
     4
 94
        3
 73
     0
 74
     0
 95
       17
 96
       13
 40
0.0
 40
0.0
 40
0.0
 40
0.0
 40
1.0
 40
1.0
 40
1.0
 40
2.0
 40
2.0
 40
2.0
 40
3.0
 40
3.0
 40
3.0
 40
4.0
 40
4.0
 40
4.0
 40
4.0
 10
116.0511420065775
 20
-150.8745116810314
 10
116.0511420065775
 20
-150.8745116810314
 10
115.3445529225527
 20
-150.8745116810314
 10
115.3445529225527
 20
-150.8745116810314
 10
115.3445529225527
 20
-150.8745116810314
 10
115.3445529225527
 20
-150.9823431697197
 10
115.3445529225527
 20
-150.9823431697197
 10
115.3445529225527
 20
-150.9823431697197
 10
116.0511420065775
 20
-150.9823431697197
 10
116.0511420065775
 20
-150.9823431697197
 10
116.0511420065775
 20
-150.9823431697197
 10
116.0511420065775
 20
-150.8745116810314
 10
116.0511420065775
 20
-150.8745116810314
 97
        0
 97
        1
330
194
 92
        1
 93
        1
 72
     4
 94
        3
 73
     0
 74
     0
 95
      203
 96
      199
 40
0.0
 40
0.0
 40
0.0
 40
0.0
 40
1.0
 40
1.0
 40
1.0
 40
2.0
 40
2.0
 40
2.0
 40
3.0
 40
3.0
 40
3.0
 40
4.0
 40
4.0
 40
4.0
 40
5.0
 40
5.0
 40
5.0
 40
6.0
 40
6.0
 40
6.0
 40
7.0
 40
7.0
 40
7.0
 40
8.0
 40
8.0
 40
8.0
 40
9.0
 40
9.0
 40
9.0
 40
10.0
 40
10.0
 40
10.0
 40
11.0
 40
11.0
 40
11.0
 40
12.0
 40
12.0
 40
12.0
 40
13.0
 40
13.0
 40
13.0
 40
14.0
 40
14.0
 40
14.0
 40
15.0
 40
15.0
 40
15.0
 40
16.0
 40
16.0
 40
16.0
 40
17.0
 40
17.0
 40
17.0
 40
18.0
 40
18.0
 40
18.0
 40
19.0
 40
19.0
 40
19.0
 40
20.0
 40
20.0
 40
20.0
 40
21.0
 40
21.0
 40
21.0
 40
22.0
 40
22.0
 40
22.0
 40
23.0
 40
23.0
 40
23.0
 40
24.0
 40
24.0
 40
24.0
 40
25.0
 40
25.0
 40
25.0
 40
26.0
 40
26.0
 40
26.0
 40
27.0
 40
27.0
 40
27.0
 40
28.0
 40
28.0
 40
28.0
 40
29.0
 40
29.0
 40
29.0
 40
30.0
 40
30.0
 40
30.0
 40
31.0
 40
31.0
 40
31.0
 40
32.0
 40
32.0
 40
32.0
 40
33.0
 40
33.0
 40
33.0
 40
34.0
 40
34.0
 40
34.0
 40
35.0
 40
35.0
 40
35.0
 40
36.0
 40
36.0
 40
36.0
 40
37.0
 40
37.0
 40
37.0
 40
38.0
 40
38.0
 40
38.0
 40
39.0
 40
39.0
 40
39.0
 40
40.0
 40
40.0
 40
40.0
 40
41.0
 40
41.0
 40
41.0
 40
42.0
 40
42.0
 40
42.0
 40
43.0
 40
43.0
 40
43.0
 40
44.0
 40
44.0
 40
44.0
 40
45.0
 40
45.0
 40
45.0
 40
46.0
 40
46.0
 40
46.0
 40
47.0
 40
47.0
 40
47.0
 40
48.0
 40
48.0
 40
48.0
 40
49.0
 40
49.0
 40
49.0
 40
50.0
 40
50.0
 40
50.0
 40
51.0
 40
51.0
 40
51.0
 40
52.0
 40
52.0
 40
52.0
 40
53.0
 40
53.0
 40
53.0
 40
54.0
 40
54.0
 40
54.0
 40
55.0
 40
55.0
 40
55.0
 40
56.0
 40
56.0
 40
56.0
 40
57.0
 40
57.0
 40
57.0
 40
58.0
 40
58.0
 40
58.0
 40
59.0
 40
59.0
 40
59.0
 40
60.0
 40
60.0
 40
60.0
 40
61.0
 40
61.0
 40
61.0
 40
62.0
 40
62.0
 40
62.0
 40
63.0
 40
63.0
 40
63.0
 40
64.0
 40
64.0
 40
64.0
 40
65.0
 40
65.0
 40
65.0
 40
66.0
 40
66.0
 40
66.0
 40
66.0
 10
115.886121932834
 20
-150.6185410864773
 10
115.886121932834
 20
-150.6185410864773
 10
115.327671954675
 20
-150.6185410864773
 10
115.327671954675
 20
-150.6185410864773
 10
115.3173366682193
 20
-150.662982818237
 10
115.3087239295061
 20
-150.6946776967013
 10
115.2959770762107
 20
-150.7325737470391
 10
115.3214707828016
 20
-150.7325737470391
 10
115.3362846933881
 20
-150.7349853138787
 10
115.3424858652616
 20
-150.7349853138787
 10
115.3424858652616
 20
-150.7349853138787
 10
115.5309325883048
 20
-150.7349853138787
 10
115.5309325883048
 20
-150.7349853138787
 10
115.5309325883048
 20
-150.7349853138787
 10
115.9054144675514
 20
-150.7349853138787
 10
115.9054144675514
 20
-150.7349853138787
 10
115.9560573711846
 20
-150.7349853138787
 10
116.2395887296206
 20
-150.7222384605833
 10
116.2712836080849
 20
-150.7222384605833
 10
116.2692165507938
 20
-150.7497992244653
 10
116.2671494935026
 20
-150.7687472496342
 10
116.2671494935026
 20
-150.7983750708073
 10
116.2650824362115
 20
-150.8300699492716
 10
116.2650824362115
 20
-150.9654622018419
 10
116.2650824362115
 20
-150.993022965724
 10
116.2650824362115
 20
-150.993022965724
 10
116.2650824362115
 20
-151.2383137642737
 10
116.2650824362115
 20
-151.2383137642737
 10
116.2650824362115
 20
-151.2827554960334
 10
116.2692165507938
 20
-151.4794704482412
 10
116.2733506653761
 20
-151.6317436686893
 10
116.2733506653761
 20
-151.6317436686893
 10
116.0470078919952
 20
-151.6317436686893
 10
116.0470078919952
 20
-151.6317436686893
 10
116.0470078919952
 20
-151.6317436686893
 10
116.0490749492863
 20
-151.5979817329338
 10
116.0490749492863
 20
-151.5979817329338
 10
116.0490749492863
 20
-151.5979817329338
 10
115.3469644893924
 20
-151.5979817329338
 10
115.3469644893924
 20
-151.5979817329338
 10
115.3469644893924
 20
-151.5979817329338
 10
115.3490315466836
 20
-151.6317436686893
 10
115.3490315466836
 20
-151.6317436686893
 10
115.3490315466836
 20
-151.6317436686893
 10
115.1309570024672
 20
-151.6317436686893
 10
115.1309570024672
 20
-151.6317436686893
 10
115.1350911170496
 20
-151.5766221409253
 10
115.1350911170496
 20
-151.5642197971784
 10
115.1416367984715
 20
-151.4498426270681
 10
115.1437038557627
 20
-151.4222818631861
 10
115.1457709130538
 20
-151.2889566679069
 10
115.1457709130538
 20
-151.270008642738
 10
115.1457709130538
 20
-151.270008642738
 10
115.1457709130538
 20
-151.0670925186568
 10
115.1457709130538
 20
-151.0670925186568
 10
115.0062445459012
 20
-151.3165174317889
 10
114.8370903575754
 20
-151.4477755697769
 10
114.7313259261783
 20
-151.5132323839967
 10
114.7313259261783
 20
-151.5132323839967
 10
114.5576931137217
 20
-151.373706016844
 10
114.5576931137217
 20
-151.373706016844
 10
114.6465765772411
 20
-151.3230631132109
 10
114.7905815685246
 20
-151.2362467069826
 10
114.928040878386
 20
-151.041598812066
 10
115.0189913991966
 20
-150.9144747886602
 10
115.0844482134164
 20
-150.7708143069253
 10
115.1182101491718
 20
-150.6185410864773
 10
114.8898003184998
 20
-150.6206081437684
 10
114.7099663341697
 20
-150.6268093156419
 10
114.6148816987768
 20
-150.628876372933
 10
114.6148816987768
 20
-150.628876372933
 10
114.6148816987768
 20
-150.4514539554427
 10
114.6148816987768
 20
-150.4514539554427
 10
114.8115966509846
 20
-150.4576551273161
 10
115.0951280094206
 20
-150.4617892418984
 10
115.2453341725775
 20
-150.4617892418984
 10
115.2453341725775
 20
-150.4617892418984
 10
115.458930092663
 20
-150.4617892418984
 10
115.458930092663
 20
-150.4617892418984
 10
115.458930092663
 20
-150.4617892418984
 10
115.458930092663
 20
-150.3539577532101
 10
115.458930092663
 20
-150.3539577532101
 10
115.458930092663
 20
-150.3539577532101
 10
115.3128580440884
 20
-150.3539577532101
 10
115.3128580440884
 20
-150.3539577532101
 10
115.1437038557627
 20
-150.3539577532101
 10
114.9745496674369
 20
-150.3580918677924
 10
114.8074625364023
 20
-150.3646375492144
 10
114.8074625364023
 20
-150.3646375492144
 10
114.8074625364023
 20
-150.1934163035975
 10
114.8074625364023
 20
-150.1934163035975
 10
114.9618028141415
 20
-150.2037515900532
 10
115.147837970345
 20
-150.2037515900532
 10
115.3128580440884
 20
-150.2037515900532
 10
115.3128580440884
 20
-150.2037515900532
 10
115.458930092663
 20
-150.2037515900532
 10
115.458930092663
 20
-150.2037515900532
 10
115.458930092663
 20
-150.2037515900532
 10
115.458930092663
 20
-150.0852403053606
 10
115.458930092663
 20
-150.0852403053606
 10
115.458930092663
 20
-150.0852403053606
 10
115.327671954675
 20
-150.0852403053606
 10
115.327671954675
 20
-150.0852403053606
 10
115.2811631656241
 20
-150.0852403053606
 10
115.0782470415429
 20
-150.0938530440737
 10
115.0358723670743
 20
-150.0938530440737
 10
114.8326117334446
 20
-150.097987158656
 10
114.7564751232206
 20
-150.1000542159472
 10
114.6782714557054
 20
-150.1021212732383
 10
114.6782714557054
 20
-150.1021212732383
 10
114.6782714557054
 20
-149.918153174326
 10
114.6782714557054
 20
-149.918153174326
 10
114.7926486258157
 20
-149.9267659130391
 10
114.8370903575754
 20
-149.9267659130391
 10
115.2198404659867
 20
-149.9350341422037
 10
115.1564507090581
 20
-149.8399495068108
 10
115.1288899451761
 20
-149.8123887429288
 10
115.0930609521295
 20
-149.7765597498822
 10
115.0930609521295
 20
-149.7765597498822
 10
115.2684163123287
 20
-149.6938774582362
 10
115.2684163123287
 20
-149.6938774582362
 10
115.3087239295061
 20
-149.7300509608314
 10
115.3531656612658
 20
-149.7724256352999
 10
115.4272352141987
 20
-149.8823241812794
 10
115.4272352141987
 20
-149.8823241812794
 10
115.3128580440884
 20
-149.9374457090434
 10
115.3128580440884
 20
-149.9374457090434
 10
115.3128580440884
 20
-149.9374457090434
 10
115.3235378400927
 20
-149.9374457090434
 10
115.3235378400927
 20
-149.9374457090434
 10
115.3235378400927
 20
-149.9374457090434
 10
115.8461588252051
 20
-149.9374457090434
 10
115.8461588252051
 20
-149.9374457090434
 10
115.8461588252051
 20
-149.9374457090434
 10
115.7507296802637
 20
-149.8930039772837
 10
115.7507296802637
 20
-149.8930039772837
 10
115.7782904441457
 20
-149.8547634173974
 10
115.8354790292008
 20
-149.7744926925911
 10
115.8502929397874
 20
-149.7004231396582
 10
115.8502929397874
 20
-149.7004231396582
 10
116.0638888598729
 20
-149.7638128965868
 10
116.0638888598729
 20
-149.7638128965868
 10
116.072501598586
 20
-149.765879953878
 10
116.093516681046
 20
-149.7765597498822
 10
116.093516681046
 20
-149.7975748323423
 10
116.093516681046
 20
-149.8358153922285
 10
116.0280598668263
 20
-149.8358153922285
 10
116.0091118416574
 20
-149.8358153922285
 10
115.9984320456532
 20
-149.8547634173974
 10
115.9750053963535
 20
-149.8950710345748
 10
115.9453775751803
 20
-149.9350341422037
 10
116.3453531610178
 20
-149.9288329703303
 10
116.374980982191
 20
-149.9267659130391
 10
116.451117592415
 20
-149.9202202316172
 10
116.451117592415
 20
-149.9202202316172
 10
116.451117592415
 20
-150.1021212732383
 10
116.451117592415
 20
-150.1021212732383
 10
116.4321695672461
 20
-150.1021212732383
 10
116.4066758606553
 20
-150.1000542159472
 10
116.1865342591478
 20
-150.0917859867826
 10
116.1358913555146
 20
-150.0897189294914
 10
115.9157497540072
 20
-150.0852403053606
 10
115.8713080222474
 20
-150.0852403053606
 10
115.8713080222474
 20
-150.0852403053606
 10
115.6556450448708
 20
-150.0852403053606
 10
115.6556450448708
 20
-150.0852403053606
 10
115.6556450448708
 20
-150.0852403053606
 10
115.6556450448708
 20
-150.2037515900532
 10
115.6556450448708
 20
-150.2037515900532
 10
115.6556450448708
 20
-150.2037515900532
 10
115.8292778573274
 20
-150.2037515900532
 10
115.8292778573274
 20
-150.2037515900532
 10
115.9918863642312
 20
-150.2037515900532
 10
116.1824001445655
 20
-150.2037515900532
 10
116.3391519891444
 20
-150.1934163035975
 10
116.3391519891444
 20
-150.1934163035975
 10
116.3391519891444
 20
-150.3646375492144
 10
116.3391519891444
 20
-150.3646375492144
 10
116.1296901836412
 20
-150.3560248105013
 10
115.9329752314334
 20
-150.3539577532101
 10
115.8292778573274
 20
-150.3539577532101
 10
115.8292778573274
 20
-150.3539577532101
 10
115.6556450448708
 20
-150.3539577532101
 10
115.6556450448708
 20
-150.3539577532101
 10
115.6556450448708
 20
-150.3539577532101
 10
115.6556450448708
 20
-150.4617892418984
 10
115.6556450448708
 20
-150.4617892418984
 10
115.6556450448708
 20
-150.4617892418984
 10
115.886121932834
 20
-150.4617892418984
 10
115.886121932834
 20
-150.4617892418984
 10
116.0194471281132
 20
-150.4617892418984
 10
116.3071126011315
 20
-150.4576551273161
 10
116.5165744066347
 20
-150.4514539554427
 10
116.5165744066347
 20
-150.4514539554427
 10
116.5165744066347
 20
-150.628876372933
 10
116.5165744066347
 20
-150.628876372933
 10
116.3243380785578
 20
-150.6226752010596
 10
116.0111788989486
 20
-150.6185410864773
 10
115.886121932834
 20
-150.6185410864773
 97
        0
 97
        1
330
195
 75
     2
 76
     1
 98
        1
 10
0.0
 20
0.0
450
        0
451
        0
460
0.0
461
0.0
452
        0
462
0.0
453
        0
470

  0
SPLINE
  5
197
330
18A
100
AcDbEntity
  8
レイヤー 1
100
AcDbSpline
210
0.0
220
0.0
230
1.0
 70
     9
 71
     3
 72
    29
 73
    25
 74
     0
 42
0.0000000001
 43
0.0000000001
 40
0.0
 40
0.0
 40
0.0
 40
0.0
 40
1.0
 40
1.0
 40
1.0
 40
2.0
 40
2.0
 40
2.0
 40
3.0
 40
3.0
 40
3.0
 40
4.0
 40
4.0
 40
4.0
 40
5.0
 40
5.0
 40
5.0
 40
6.0
 40
6.0
 40
6.0
 40
7.0
 40
7.0
 40
7.0
 40
8.0
 40
8.0
 40
8.0
 40
8.0
 10
117.761631915004
 20
-150.0662922801917
 30
0.0
 10
117.761631915004
 20
-150.0662922801917
 30
0.0
 10
117.4085096277659
 20
-150.0662922801917
 30
0.0
 10
117.4085096277659
 20
-150.0662922801917
 30
0.0
 10
117.2961995149468
 20
-150.0662922801917
 30
0.0
 10
117.1566731477941
 20
-150.0724934520652
 30
0.0
 10
117.0488416591058
 20
-150.0852403053606
 30
0.0
 10
117.0488416591058
 20
-150.0852403053606
 30
0.0
 10
117.0488416591058
 20
-149.8506293028151
 30
0.0
 10
117.0488416591058
 20
-149.8506293028151
 30
0.0
 10
117.1673529437984
 20
-149.8654432134017
 30
0.0
 10
117.3513210427107
 20
-149.869577327984
 30
0.0
 10
117.4085096277659
 20
-149.869577327984
 30
0.0
 10
117.4085096277659
 20
-149.869577327984
 30
0.0
 10
117.761631915004
 20
-149.869577327984
 30
0.0
 10
117.761631915004
 20
-149.869577327984
 30
0.0
 10
117.7809244497214
 20
-149.869577327984
 30
0.0
 10
117.9838405738026
 20
-149.869577327984
 30
0.0
 10
118.1254339982464
 20
-149.8506293028151
 30
0.0
 10
118.1254339982464
 20
-149.8506293028151
 30
0.0
 10
118.1254339982464
 20
-150.0852403053606
 30
0.0
 10
118.1254339982464
 20
-150.0852403053606
 30
0.0
 10
117.9690266632161
 20
-150.0662922801917
 30
0.0
 10
117.7785128828817
 20
-150.0662922801917
 30
0.0
 10
117.761631915004
 20
-150.0662922801917
 30
0.0
  0
SPLINE
  5
198
330
18A
100
AcDbEntity
  8
レイヤー 1
100
AcDbSpline
210
0.0
220
0.0
230
1.0
 70
     9
 71
     3
 72
    47
 73
    43
 74
     0
 42
0.0000000001
 43
0.0000000001
 40
0.0
 40
0.0
 40
0.0
 40
0.0
 40
1.0
 40
1.0
 40
1.0
 40
2.0
 40
2.0
 40
2.0
 40
3.0
 40
3.0
 40
3.0
 40
4.0
 40
4.0
 40
4.0
 40
5.0
 40
5.0
 40
5.0
 40
6.0
 40
6.0
 40
6.0
 40
7.0
 40
7.0
 40
7.0
 40
8.0
 40
8.0
 40
8.0
 40
9.0
 40
9.0
 40
9.0
 40
10.0
 40
10.0
 40
10.0
 40
11.0
 40
11.0
 40
11.0
 40
12.0
 40
12.0
 40
12.0
 40
13.0
 40
13.0
 40
13.0
 40
14.0
 40
14.0
 40
14.0
 40
14.0
 10
117.8632622318189
 20
-150.5951144371776
 30
0.0
 10
117.8632622318189
 20
-150.5951144371776
 30
0.0
 10
117.761631915004
 20
-150.5951144371776
 30
0.0
 10
117.761631915004
 20
-150.5951144371776
 30
0.0
 10
117.761631915004
 20
-150.6819308434059
 30
0.0
 10
117.740616832544
 20
-151.0712266332391
 30
0.0
 10
117.5439018803362
 20
-151.2913682347466
 30
0.0
 10
117.3916286598882
 20
-151.4605224230724
 30
0.0
 10
117.1842339116762
 20
-151.5301133518744
 30
0.0
 10
117.099484562739
 20
-151.5576741157564
 30
0.0
 10
117.099484562739
 20
-151.5576741157564
 30
0.0
 10
116.9048366678224
 20
-151.3905869847218
 30
0.0
 10
116.9048366678224
 20
-151.3905869847218
 30
0.0
 10
117.0023328700549
 20
-151.3778401314264
 30
0.0
 10
117.1776882302542
 20
-151.3547579916752
 30
0.0
 10
117.3661349532973
 20
-151.166311268632
 30
0.0
 10
117.4402045062302
 20
-151.0943087729903
 30
0.0
 10
117.5439018803362
 20
-150.9547824058377
 30
0.0
 10
117.5439018803362
 20
-150.5951144371776
 30
0.0
 10
117.5439018803362
 20
-150.5951144371776
 30
0.0
 10
117.3130804828245
 20
-150.5951144371776
 30
0.0
 10
117.3130804828245
 20
-150.5951144371776
 30
0.0
 10
117.127045326621
 20
-150.5951144371776
 30
0.0
 10
116.9410101704175
 20
-150.5995930613084
 30
0.0
 10
116.7546305046655
 20
-150.6140624623465
 30
0.0
 10
116.7546305046655
 20
-150.6140624623465
 30
0.0
 10
116.7546305046655
 20
-150.3942653703875
 30
0.0
 10
116.7546305046655
 20
-150.3942653703875
 30
0.0
 10
116.9430772277087
 20
-150.4090792809741
 30
0.0
 10
117.2286756434359
 20
-150.4132133955564
 30
0.0
 10
117.3130804828245
 20
-150.4132133955564
 30
0.0
 10
117.3130804828245
 20
-150.4132133955564
 30
0.0
 10
117.8632622318189
 20
-150.4132133955564
 30
0.0
 10
117.8632622318189
 20
-150.4132133955564
 30
0.0
 10
117.8822102569878
 20
-150.4132133955564
 30
0.0
 10
118.1995035511793
 20
-150.4132133955564
 30
0.0
 10
118.4282578913999
 20
-150.3942653703875
 30
0.0
 10
118.4282578913999
 20
-150.3942653703875
 30
0.0
 10
118.4282578913999
 20
-150.6140624623465
 30
0.0
 10
118.4282578913999
 20
-150.6140624623465
 30
0.0
 10
118.2398111683567
 20
-150.5995930613084
 30
0.0
 10
118.0517089548621
 20
-150.5951144371776
 30
0.0
 10
117.8632622318189
 20
-150.5951144371776
 30
0.0
  0
HATCH
  5
199
330
18A
100
AcDbEntity
  8
レイヤー 1
 62
    18
420
        0
440
 33554687
100
AcDbHatch
 10
0.0
 20
0.0
 30
0.0
210
0.0
220
0.0
230
1.0
  2
SOLID
 70
     1
 71
     1
 91
        2
 92
        1
 93
        1
 72
     4
 94
        3
 73
     0
 74
     0
 95
       29
 96
       25
 40
0.0
 40
0.0
 40
0.0
 40
0.0
 40
1.0
 40
1.0
 40
1.0
 40
2.0
 40
2.0
 40
2.0
 40
3.0
 40
3.0
 40
3.0
 40
4.0
 40
4.0
 40
4.0
 40
5.0
 40
5.0
 40
5.0
 40
6.0
 40
6.0
 40
6.0
 40
7.0
 40
7.0
 40
7.0
 40
8.0
 40
8.0
 40
8.0
 40
8.0
 10
117.761631915004
 20
-150.0662922801917
 10
117.761631915004
 20
-150.0662922801917
 10
117.4085096277659
 20
-150.0662922801917
 10
117.4085096277659
 20
-150.0662922801917
 10
117.2961995149468
 20
-150.0662922801917
 10
117.1566731477941
 20
-150.0724934520652
 10
117.0488416591058
 20
-150.0852403053606
 10
117.0488416591058
 20
-150.0852403053606
 10
117.0488416591058
 20
-149.8506293028151
 10
117.0488416591058
 20
-149.8506293028151
 10
117.1673529437984
 20
-149.8654432134017
 10
117.3513210427107
 20
-149.869577327984
 10
117.4085096277659
 20
-149.869577327984
 10
117.4085096277659
 20
-149.869577327984
 10
117.761631915004
 20
-149.869577327984
 10
117.761631915004
 20
-149.869577327984
 10
117.7809244497214
 20
-149.869577327984
 10
117.9838405738026
 20
-149.869577327984
 10
118.1254339982464
 20
-149.8506293028151
 10
118.1254339982464
 20
-149.8506293028151
 10
118.1254339982464
 20
-150.0852403053606
 10
118.1254339982464
 20
-150.0852403053606
 10
117.9690266632161
 20
-150.0662922801917
 10
117.7785128828817
 20
-150.0662922801917
 10
117.761631915004
 20
-150.0662922801917
 97
        0
 97
        1
330
197
 92
        1
 93
        1
 72
     4
 94
        3
 73
     0
 74
     0
 95
       47
 96
       43
 40
0.0
 40
0.0
 40
0.0
 40
0.0
 40
1.0
 40
1.0
 40
1.0
 40
2.0
 40
2.0
 40
2.0
 40
3.0
 40
3.0
 40
3.0
 40
4.0
 40
4.0
 40
4.0
 40
5.0
 40
5.0
 40
5.0
 40
6.0
 40
6.0
 40
6.0
 40
7.0
 40
7.0
 40
7.0
 40
8.0
 40
8.0
 40
8.0
 40
9.0
 40
9.0
 40
9.0
 40
10.0
 40
10.0
 40
10.0
 40
11.0
 40
11.0
 40
11.0
 40
12.0
 40
12.0
 40
12.0
 40
13.0
 40
13.0
 40
13.0
 40
14.0
 40
14.0
 40
14.0
 40
14.0
 10
117.8632622318189
 20
-150.5951144371776
 10
117.8632622318189
 20
-150.5951144371776
 10
117.761631915004
 20
-150.5951144371776
 10
117.761631915004
 20
-150.5951144371776
 10
117.761631915004
 20
-150.6819308434059
 10
117.740616832544
 20
-151.0712266332391
 10
117.5439018803362
 20
-151.2913682347466
 10
117.3916286598882
 20
-151.4605224230724
 10
117.1842339116762
 20
-151.5301133518744
 10
117.099484562739
 20
-151.5576741157564
 10
117.099484562739
 20
-151.5576741157564
 10
116.9048366678224
 20
-151.3905869847218
 10
116.9048366678224
 20
-151.3905869847218
 10
117.0023328700549
 20
-151.3778401314264
 10
117.1776882302542
 20
-151.3547579916752
 10
117.3661349532973
 20
-151.166311268632
 10
117.4402045062302
 20
-151.0943087729903
 10
117.5439018803362
 20
-150.9547824058377
 10
117.5439018803362
 20
-150.5951144371776
 10
117.5439018803362
 20
-150.5951144371776
 10
117.3130804828245
 20
-150.5951144371776
 10
117.3130804828245
 20
-150.5951144371776
 10
117.127045326621
 20
-150.5951144371776
 10
116.9410101704175
 20
-150.5995930613084
 10
116.7546305046655
 20
-150.6140624623465
 10
116.7546305046655
 20
-150.6140624623465
 10
116.7546305046655
 20
-150.3942653703875
 10
116.7546305046655
 20
-150.3942653703875
 10
116.9430772277087
 20
-150.4090792809741
 10
117.2286756434359
 20
-150.4132133955564
 10
117.3130804828245
 20
-150.4132133955564
 10
117.3130804828245
 20
-150.4132133955564
 10
117.8632622318189
 20
-150.4132133955564
 10
117.8632622318189
 20
-150.4132133955564
 10
117.8822102569878
 20
-150.4132133955564
 10
118.1995035511793
 20
-150.4132133955564
 10
118.4282578913999
 20
-150.3942653703875
 10
118.4282578913999
 20
-150.3942653703875
 10
118.4282578913999
 20
-150.6140624623465
 10
118.4282578913999
 20
-150.6140624623465
 10
118.2398111683567
 20
-150.5995930613084
 10
118.0517089548621
 20
-150.5951144371776
 10
117.8632622318189
 20
-150.5951144371776
 97
        0
 97
        1
330
198
 75
     2
 76
     1
 98
        1
 10
0.0
 20
0.0
450
        0
451
        0
460
0.0
461
0.0
452
        0
462
0.0
453
        0
470

  0
SPLINE
  5
19A
330
18A
100
AcDbEntity
  8
レイヤー 1
100
AcDbSpline
210
0.0
220
0.0
230
1.0
 70
     9
 71
     3
 72
    29
 73
    25
 74
     0
 42
0.0000000001
 43
0.0000000001
 40
0.0
 40
0.0
 40
0.0
 40
0.0
 40
1.0
 40
1.0
 40
1.0
 40
2.0
 40
2.0
 40
2.0
 40
3.0
 40
3.0
 40
3.0
 40
4.0
 40
4.0
 40
4.0
 40
5.0
 40
5.0
 40
5.0
 40
6.0
 40
6.0
 40
6.0
 40
7.0
 40
7.0
 40
7.0
 40
8.0
 40
8.0
 40
8.0
 40
8.0
 10
119.7091443928157
 20
-150.7580674536299
 30
0.0
 10
119.7091443928157
 20
-150.7580674536299
 30
0.0
 10
119.2247639675896
 20
-150.7580674536299
 30
0.0
 10
119.2247639675896
 20
-150.7580674536299
 30
0.0
 10
119.1972032037076
 20
-150.7580674536299
 30
0.0
 10
118.8799099095161
 20
-150.7580674536299
 30
0.0
 10
118.6683810467218
 20
-150.7835611602208
 30
0.0
 10
118.6683810467218
 20
-150.7835611602208
 30
0.0
 10
118.6683810467218
 20
-150.552739762709
 30
0.0
 10
118.6683810467218
 20
-150.552739762709
 30
0.0
 10
118.8268554390432
 20
-150.5761664120087
 30
0.0
 10
119.0173692193776
 20
-150.5782334692999
 30
0.0
 10
119.2247639675896
 20
-150.5782334692999
 30
0.0
 10
119.2247639675896
 20
-150.5782334692999
 30
0.0
 10
119.7091443928157
 20
-150.5782334692999
 30
0.0
 10
119.7091443928157
 20
-150.5782334692999
 30
0.0
 10
119.8951795490192
 20
-150.5782334692999
 30
0.0
 10
120.0812147052227
 20
-150.5761664120087
 30
0.0
 10
120.2655273136836
 20
-150.552739762709
 30
0.0
 10
120.2655273136836
 20
-150.552739762709
 30
0.0
 10
120.2655273136836
 20
-150.7835611602208
 30
0.0
 10
120.2655273136836
 20
-150.7835611602208
 30
0.0
 10
120.0812147052227
 20
-150.7601345109211
 30
0.0
 10
119.8338568493818
 20
-150.7580674536299
 30
0.0
 10
119.7091443928157
 20
-150.7580674536299
 30
0.0
  0
HATCH
  5
19B
330
18A
100
AcDbEntity
  8
レイヤー 1
 62
    18
420
        0
440
 33554687
100
AcDbHatch
 10
0.0
 20
0.0
 30
0.0
210
0.0
220
0.0
230
1.0
  2
SOLID
 70
     1
 71
     1
 91
        1
 92
        1
 93
        1
 72
     4
 94
        3
 73
     0
 74
     0
 95
       29
 96
       25
 40
0.0
 40
0.0
 40
0.0
 40
0.0
 40
1.0
 40
1.0
 40
1.0
 40
2.0
 40
2.0
 40
2.0
 40
3.0
 40
3.0
 40
3.0
 40
4.0
 40
4.0
 40
4.0
 40
5.0
 40
5.0
 40
5.0
 40
6.0
 40
6.0
 40
6.0
 40
7.0
 40
7.0
 40
7.0
 40
8.0
 40
8.0
 40
8.0
 40
8.0
 10
119.7091443928157
 20
-150.7580674536299
 10
119.7091443928157
 20
-150.7580674536299
 10
119.2247639675896
 20
-150.7580674536299
 10
119.2247639675896
 20
-150.7580674536299
 10
119.1972032037076
 20
-150.7580674536299
 10
118.8799099095161
 20
-150.7580674536299
 10
118.6683810467218
 20
-150.7835611602208
 10
118.6683810467218
 20
-150.7835611602208
 10
118.6683810467218
 20
-150.552739762709
 10
118.6683810467218
 20
-150.552739762709
 10
118.8268554390432
 20
-150.5761664120087
 10
119.0173692193776
 20
-150.5782334692999
 10
119.2247639675896
 20
-150.5782334692999
 10
119.2247639675896
 20
-150.5782334692999
 10
119.7091443928157
 20
-150.5782334692999
 10
119.7091443928157
 20
-150.5782334692999
 10
119.8951795490192
 20
-150.5782334692999
 10
120.0812147052227
 20
-150.5761664120087
 10
120.2655273136836
 20
-150.552739762709
 10
120.2655273136836
 20
-150.552739762709
 10
120.2655273136836
 20
-150.7835611602208
 10
120.2655273136836
 20
-150.7835611602208
 10
120.0812147052227
 20
-150.7601345109211
 10
119.8338568493818
 20
-150.7580674536299
 10
119.7091443928157
 20
-150.7580674536299
 97
        0
 97
        1
330
19A
 75
     2
 76
     1
 98
        1
 10
0.0
 20
0.0
450
        0
451
        0
460
0.0
461
0.0
452
        0
462
0.0
453
        0
470

  0
SPLINE
  5
19C
330
18A
100
AcDbEntity
  8
レイヤー 1
100
AcDbSpline
210
0.0
220
0.0
230
1.0
 70
     9
 71
     3
 72
    47
 73
    43
 74
     0
 42
0.0000000001
 43
0.0000000001
 40
0.0
 40
0.0
 40
0.0
 40
0.0
 40
1.0
 40
1.0
 40
1.0
 40
2.0
 40
2.0
 40
2.0
 40
3.0
 40
3.0
 40
3.0
 40
4.0
 40
4.0
 40
4.0
 40
5.0
 40
5.0
 40
5.0
 40
6.0
 40
6.0
 40
6.0
 40
7.0
 40
7.0
 40
7.0
 40
8.0
 40
8.0
 40
8.0
 40
9.0
 40
9.0
 40
9.0
 40
10.0
 40
10.0
 40
10.0
 40
11.0
 40
11.0
 40
11.0
 40
12.0
 40
12.0
 40
12.0
 40
13.0
 40
13.0
 40
13.0
 40
14.0
 40
14.0
 40
14.0
 40
14.0
 10
121.9291639235107
 20
-150.1637884824243
 30
0.0
 10
121.8592284851602
 20
-150.4428412167295
 30
0.0
 10
121.7830918749362
 20
-150.7473876576256
 30
0.0
 10
121.4702772048755
 20
-151.0794948624037
 30
0.0
 10
121.2332546354903
 20
-151.3292642850843
 30
0.0
 10
120.9879638369405
 20
-151.4288275446081
 30
0.0
 10
120.8821994055433
 20
-151.4708577095281
 30
0.0
 10
120.8821994055433
 20
-151.4708577095281
 30
0.0
 10
120.6875515106267
 20
-151.2889566679069
 30
0.0
 10
120.6875515106267
 20
-151.2889566679069
 30
0.0
 10
120.8735866668302
 20
-151.2424478788561
 30
0.0
 10
121.2353216927814
 20
-151.1494303007543
 30
0.0
 10
121.5315999045129
 20
-150.6543700795239
 30
0.0
 10
121.6921413541256
 20
-150.3877196889655
 30
0.0
 10
121.704888207421
 20
-150.2144313860575
 30
0.0
 10
121.7135009461341
 20
-150.1234808652469
 30
0.0
 10
121.7135009461341
 20
-150.1234808652469
 30
0.0
 10
121.2077609288994
 20
-150.1234808652469
 30
0.0
 10
121.2077609288994
 20
-150.1234808652469
 30
0.0
 10
121.0892496442068
 20
-150.1234808652469
 30
0.0
 10
120.6682589759093
 20
-150.1424288904158
 30
0.0
 10
120.5159857554613
 20
-150.15310868642
 30
0.0
 10
120.5159857554613
 20
-150.15310868642
 30
0.0
 10
120.5159857554613
 20
-149.9436468809169
 30
0.0
 10
120.5159857554613
 20
-149.9436468809169
 30
0.0
 10
120.6579236894536
 20
-149.9563937342123
 30
0.0
 10
120.9349093664676
 20
-149.9605278487946
 30
0.0
 10
121.0513535938691
 20
-149.9605278487946
 30
0.0
 10
121.0513535938691
 20
-149.9605278487946
 30
0.0
 10
121.4065429383984
 20
-149.9605278487946
 30
0.0
 10
121.4065429383984
 20
-149.9605278487946
 30
0.0
 10
121.4341037022803
 20
-149.9605278487946
 30
0.0
 10
121.5949896614415
 20
-149.9584607915034
 30
0.0
 10
121.704888207421
 20
-149.9436468809169
 30
0.0
 10
121.7620767924761
 20
-149.9374457090434
 30
0.0
 10
121.7789577603539
 20
-149.918153174326
 30
0.0
 10
121.8023844096535
 20
-149.8950710345748
 30
0.0
 10
121.8023844096535
 20
-149.8950710345748
 30
0.0
 10
121.9904866231482
 20
-150.0452771977317
 30
0.0
 10
121.9904866231482
 20
-150.0452771977317
 30
0.0
 10
121.9756727125616
 20
-150.0749050189049
 30
0.0
 10
121.9653374261059
 20
-150.0938530440737
 30
0.0
 10
121.9291639235107
 20
-150.1637884824243
 30
0.0
  0
HATCH
  5
19D
330
18A
100
AcDbEntity
  8
レイヤー 1
 62
    18
420
        0
440
 33554687
100
AcDbHatch
 10
0.0
 20
0.0
 30
0.0
210
0.0
220
0.0
230
1.0
  2
SOLID
 70
     1
 71
     1
 91
        1
 92
        1
 93
        1
 72
     4
 94
        3
 73
     0
 74
     0
 95
       47
 96
       43
 40
0.0
 40
0.0
 40
0.0
 40
0.0
 40
1.0
 40
1.0
 40
1.0
 40
2.0
 40
2.0
 40
2.0
 40
3.0
 40
3.0
 40
3.0
 40
4.0
 40
4.0
 40
4.0
 40
5.0
 40
5.0
 40
5.0
 40
6.0
 40
6.0
 40
6.0
 40
7.0
 40
7.0
 40
7.0
 40
8.0
 40
8.0
 40
8.0
 40
9.0
 40
9.0
 40
9.0
 40
10.0
 40
10.0
 40
10.0
 40
11.0
 40
11.0
 40
11.0
 40
12.0
 40
12.0
 40
12.0
 40
13.0
 40
13.0
 40
13.0
 40
14.0
 40
14.0
 40
14.0
 40
14.0
 10
121.9291639235107
 20
-150.1637884824243
 10
121.8592284851602
 20
-150.4428412167295
 10
121.7830918749362
 20
-150.7473876576256
 10
121.4702772048755
 20
-151.0794948624037
 10
121.2332546354903
 20
-151.3292642850843
 10
120.9879638369405
 20
-151.4288275446081
 10
120.8821994055433
 20
-151.4708577095281
 10
120.8821994055433
 20
-151.4708577095281
 10
120.6875515106267
 20
-151.2889566679069
 10
120.6875515106267
 20
-151.2889566679069
 10
120.8735866668302
 20
-151.2424478788561
 10
121.2353216927814
 20
-151.1494303007543
 10
121.5315999045129
 20
-150.6543700795239
 10
121.6921413541256
 20
-150.3877196889655
 10
121.704888207421
 20
-150.2144313860575
 10
121.7135009461341
 20
-150.1234808652469
 10
121.7135009461341
 20
-150.1234808652469
 10
121.2077609288994
 20
-150.1234808652469
 10
121.2077609288994
 20
-150.1234808652469
 10
121.0892496442068
 20
-150.1234808652469
 10
120.6682589759093
 20
-150.1424288904158
 10
120.5159857554613
 20
-150.15310868642
 10
120.5159857554613
 20
-150.15310868642
 10
120.5159857554613
 20
-149.9436468809169
 10
120.5159857554613
 20
-149.9436468809169
 10
120.6579236894536
 20
-149.9563937342123
 10
120.9349093664676
 20
-149.9605278487946
 10
121.0513535938691
 20
-149.9605278487946
 10
121.0513535938691
 20
-149.9605278487946
 10
121.4065429383984
 20
-149.9605278487946
 10
121.4065429383984
 20
-149.9605278487946
 10
121.4341037022803
 20
-149.9605278487946
 10
121.5949896614415
 20
-149.9584607915034
 10
121.704888207421
 20
-149.9436468809169
 10
121.7620767924761
 20
-149.9374457090434
 10
121.7789577603539
 20
-149.918153174326
 10
121.8023844096535
 20
-149.8950710345748
 10
121.8023844096535
 20
-149.8950710345748
 10
121.9904866231482
 20
-150.0452771977317
 10
121.9904866231482
 20
-150.0452771977317
 10
121.9756727125616
 20
-150.0749050189049
 10
121.9653374261059
 20
-150.0938530440737
 10
121.9291639235107
 20
-150.1637884824243
 97
        0
 97
        1
330
19C
 75
     2
 76
     1
 98
        1
 10
0.0
 20
0.0
450
        0
451
        0
460
0.0
461
0.0
452
        0
462
0.0
453
        0
470

  0
SPLINE
  5
19E
330
18A
100
AcDbEntity
  8
レイヤー 1
100
AcDbSpline
210
0.0
220
0.0
230
1.0
 70
    11
 71
     3
 72
    17
 73
    13
 74
     0
 42
0.0000000001
 43
0.0000000001
 40
0.0
 40
0.0
 40
0.0
 40
0.0
 40
1.0
 40
1.0
 40
1.0
 40
2.0
 40
2.0
 40
2.0
 40
3.0
 40
3.0
 40
3.0
 40
4.0
 40
4.0
 40
4.0
 40
4.0
 10
122.3194932419896
 20
-149.945713938208
 30
0.0
 10
122.3194932419896
 20
-150.0049695805543
 30
0.0
 10
122.3660020310404
 20
-150.0514783696052
 30
0.0
 10
122.4252576733867
 20
-150.0514783696052
 30
0.0
 10
122.484513315733
 20
-150.0514783696052
 30
0.0
 10
122.5330891620751
 20
-150.0049695805543
 30
0.0
 10
122.5330891620751
 20
-149.945713938208
 30
0.0
 10
122.5330891620751
 20
-149.8864582958617
 30
0.0
 10
122.484513315733
 20
-149.8378824495197
 30
0.0
 10
122.4252576733867
 20
-149.8378824495197
 30
0.0
 10
122.3660020310404
 20
-149.8378824495197
 30
0.0
 10
122.3194932419896
 20
-149.8864582958617
 30
0.0
 10
122.3194932419896
 20
-149.945713938208
 30
0.0
  0
SPLINE
  5
19F
330
18A
100
AcDbEntity
  8
レイヤー 1
100
AcDbSpline
210
0.0
220
0.0
230
1.0
 70
     9
 71
     3
 72
    17
 73
    13
 74
     0
 42
0.0000000001
 43
0.0000000001
 40
0.0
 40
0.0
 40
0.0
 40
0.0
 40
1.0
 40
1.0
 40
1.0
 40
2.0
 40
2.0
 40
2.0
 40
3.0
 40
3.0
 40
3.0
 40
4.0
 40
4.0
 40
4.0
 40
4.0
 10
122.6347194788899
 20
-149.945713938208
 30
0.0
 10
122.6347194788899
 20
-150.0600911083183
 30
0.0
 10
122.5417019007882
 20
-150.1551757437112
 30
0.0
 10
122.4252576733867
 20
-150.1551757437112
 30
0.0
 10
122.3108805032764
 20
-150.1551757437112
 30
0.0
 10
122.2157958678835
 20
-150.0600911083183
 30
0.0
 10
122.2157958678835
 20
-149.945713938208
 30
0.0
 10
122.2157958678835
 20
-149.8292697108066
 30
0.0
 10
122.3108805032764
 20
-149.7362521327048
 30
0.0
 10
122.4252576733867
 20
-149.7362521327048
 30
0.0
 10
122.539634843497
 20
-149.7362521327048
 30
0.0
 10
122.6347194788899
 20
-149.8292697108066
 30
0.0
 10
122.6347194788899
 20
-149.945713938208
 30
0.0
  0
HATCH
  5
1A0
330
18A
100
AcDbEntity
  8
レイヤー 1
 62
    18
420
        0
440
 33554687
100
AcDbHatch
 10
0.0
 20
0.0
 30
0.0
210
0.0
220
0.0
230
1.0
  2
SOLID
 70
     1
 71
     1
 91
        2
 92
        1
 93
        1
 72
     4
 94
        3
 73
     0
 74
     0
 95
       17
 96
       13
 40
0.0
 40
0.0
 40
0.0
 40
0.0
 40
1.0
 40
1.0
 40
1.0
 40
2.0
 40
2.0
 40
2.0
 40
3.0
 40
3.0
 40
3.0
 40
4.0
 40
4.0
 40
4.0
 40
4.0
 10
122.3194932419896
 20
-149.945713938208
 10
122.3194932419896
 20
-150.0049695805543
 10
122.3660020310404
 20
-150.0514783696052
 10
122.4252576733867
 20
-150.0514783696052
 10
122.484513315733
 20
-150.0514783696052
 10
122.5330891620751
 20
-150.0049695805543
 10
122.5330891620751
 20
-149.945713938208
 10
122.5330891620751
 20
-149.8864582958617
 10
122.484513315733
 20
-149.8378824495197
 10
122.4252576733867
 20
-149.8378824495197
 10
122.3660020310404
 20
-149.8378824495197
 10
122.3194932419896
 20
-149.8864582958617
 10
122.3194932419896
 20
-149.945713938208
 97
        0
 97
        1
330
19E
 92
        1
 93
        1
 72
     4
 94
        3
 73
     0
 74
     0
 95
       17
 96
       13
 40
0.0
 40
0.0
 40
0.0
 40
0.0
 40
1.0
 40
1.0
 40
1.0
 40
2.0
 40
2.0
 40
2.0
 40
3.0
 40
3.0
 40
3.0
 40
4.0
 40
4.0
 40
4.0
 40
4.0
 10
122.6347194788899
 20
-149.945713938208
 10
122.6347194788899
 20
-150.0600911083183
 10
122.5417019007882
 20
-150.1551757437112
 10
122.4252576733867
 20
-150.1551757437112
 10
122.3108805032764
 20
-150.1551757437112
 10
122.2157958678835
 20
-150.0600911083183
 10
122.2157958678835
 20
-149.945713938208
 10
122.2157958678835
 20
-149.8292697108066
 10
122.3108805032764
 20
-149.7362521327048
 10
122.4252576733867
 20
-149.7362521327048
 10
122.539634843497
 20
-149.7362521327048
 10
122.6347194788899
 20
-149.8292697108066
 10
122.6347194788899
 20
-149.945713938208
 97
        0
 97
        1
330
19F
 75
     2
 76
     1
 98
        1
 10
0.0
 20
0.0
450
        0
451
        0
460
0.0
461
0.0
452
        0
462
0.0
453
        0
470

  0
ENDBLK
  5
18D
330
18A
100
AcDbEntity
  8
0
100
AcDbBlockEnd
  0
ENDSEC
  0
SECTION
  2
ENTITIES
  0
INSERT
  5
7A
330
70
100
AcDbEntity
  8
レイヤー 1
100
AcDbBlockReference
  2
Block_0
 10
0.0
 20
0.0
 30
0.0
  0
LINE
  5
B3
330
70
100
AcDbEntity
  8
レイヤー 1
  6
AI-Linetype-0
 62
   154
420
    23468
370
    25
100
AcDbLine
 10
66.03145415026429
 20
-146.8964355319736
 30
0.0
 11
76.03153972847419
 21
-146.8964355319736
 31
0.0
  0
LINE
  5
B5
330
70
100
AcDbEntity
  8
レイヤー 1
  6
AI-Linetype-1
 62
   154
420
    23468
370
    25
100
AcDbLine
 10
107.5338536470057
 20
-146.8964355319736
 30
0.0
 11
118.0337900457967
 21
-146.8964355319736
 31
0.0
  0
LINE
  5
B7
330
70
100
AcDbEntity
  8
レイヤー 1
 62
   250
420
  2299925
370
    25
100
AcDbLine
 10
98.03227833385527
 20
-154.1576605301581
 30
0.0
 11
86.03233086222164
 21
-154.1576605301581
 31
0.0
  0
LINE
  5
B8
330
70
100
AcDbEntity
  8
レイヤー 1
 62
   250
420
  2299925
370
    25
100
AcDbLine
 10
66.03145415026429
 20
-145.6575505322835
 30
0.0
 11
66.03145415026429
 21
-146.1577894210472
 31
0.0
  0
LINE
  5
B9
330
70
100
AcDbEntity
  8
レイヤー 1
 62
   250
420
  2299925
370
    25
100
AcDbLine
 10
86.03233086222164
 20
-146.1577894210472
 30
0.0
 11
66.03145415026429
 21
-146.1577894210472
 31
0.0
  0
LINE
  5
BA
330
70
100
AcDbEntity
  8
レイヤー 1
 62
   250
420
  2299925
370
    25
100
AcDbLine
 10
66.03145415026429
 20
-145.6575505322835
 30
0.0
 11
66.54513385938145
 21
-146.0396088655212
 31
0.0
  0
LINE
  5
BB
330
70
100
AcDbEntity
  8
レイヤー 1
 62
   250
420
  2299925
370
    25
100
AcDbLine
 10
66.54513385938145
 20
-146.0396088655212
 30
0.0
 11
67.03055606921953
 21
-145.6220610878477
 31
0.0
  0
LINE
  5
BC
330
70
100
AcDbEntity
  8
レイヤー 1
 62
   250
420
  2299925
370
    25
100
AcDbLine
 10
67.54455327832859
 20
-146.0041546988636
 30
0.0
 11
68.02997548816666
 21
-145.5862541434123
 31
0.0
  0
LINE
  5
BD
330
70
100
AcDbEntity
  8
レイヤー 1
 62
   250
420
  2299925
370
    25
100
AcDbLine
 10
67.03055606921953
 20
-145.6220610878477
 30
0.0
 11
67.54455327832859
 21
-146.0041546988636
 31
0.0
  0
LINE
  5
BE
330
70
100
AcDbEntity
  8
レイヤー 1
 62
   250
420
  2299925
370
    25
100
AcDbLine
 10
68.02997548816666
 20
-145.5862541434123
 30
0.0
 11
68.54397269727572
 21
-145.9683124766503
 31
0.0
  0
LINE
  5
BF
330
70
100
AcDbEntity
  8
レイヤー 1
 62
   250
420
  2299925
370
    25
100
AcDbLine
 10
68.54397269727572
 20
-145.9683124766503
 30
0.0
 11
69.02939490711379
 21
-145.5507646989771
 31
0.0
  0
LINE
  5
C0
330
70
100
AcDbEntity
  8
レイヤー 1
 62
   250
420
  2299925
370
    25
100
AcDbLine
 10
69.02939490711379
 20
-145.5507646989771
 30
0.0
 11
69.54339211622285
 21
-145.932470254437
 31
0.0
  0
LINE
  5
C1
330
70
100
AcDbEntity
  8
レイヤー 1
 62
   250
420
  2299925
370
    25
100
AcDbLine
 10
69.54339211622285
 20
-145.932470254437
 30
0.0
 11
70.02846154829214
 21
-145.5149224767636
 31
0.0
  0
LINE
  5
C2
330
70
100
AcDbEntity
  8
レイヤー 1
 62
   250
420
  2299925
370
    25
100
AcDbLine
 10
70.02846154829214
 20
-145.5149224767636
 30
0.0
 11
70.54245875740121
 21
-145.8966633100013
 31
0.0
  0
LINE
  5
C3
330
70
100
AcDbEntity
  8
レイヤー 1
 62
   250
420
  2299925
370
    25
100
AcDbLine
 10
70.54245875740121
 20
-145.8966633100013
 30
0.0
 11
71.02823374500805
 21
-145.4791155323281
 31
0.0
  0
LINE
  5
C4
330
70
100
AcDbEntity
  8
レイヤー 1
 62
   250
420
  2299925
370
    25
100
AcDbLine
 10
71.02823374500805
 20
-145.4791155323281
 30
0.0
 11
71.54223095411712
 21
-145.8611738655658
 31
0.0
  0
LINE
  5
C5
330
70
100
AcDbEntity
  8
レイヤー 1
 62
   250
420
  2299925
370
    25
100
AcDbLine
 10
71.54223095411712
 20
-145.8611738655658
 30
0.0
 11
72.02730038618639
 21
-145.4436260878923
 31
0.0
  0
LINE
  5
C6
330
70
100
AcDbEntity
  8
レイヤー 1
 62
   250
420
  2299925
370
    25
100
AcDbLine
 10
72.02730038618639
 20
-145.4436260878923
 30
0.0
 11
72.54133287307235
 21
-145.8256844211303
 31
0.0
  0
LINE
  5
C7
330
70
100
AcDbEntity
  8
レイヤー 1
 62
   250
420
  2299925
370
    25
100
AcDbLine
 10
72.54133287307235
 20
-145.8256844211303
 30
0.0
 11
73.02671980513354
 21
-145.4077838656791
 31
0.0
  0
LINE
  5
C8
330
70
100
AcDbEntity
  8
レイヤー 1
 62
   250
420
  2299925
370
    25
100
AcDbLine
 10
73.54075229201948
 20
-145.7898421989171
 30
0.0
 11
74.02613922408066
 21
-145.3722944212436
 31
0.0
  0
LINE
  5
C9
330
70
100
AcDbEntity
  8
レイヤー 1
 62
   250
420
  2299925
370
    25
100
AcDbLine
 10
73.02671980513354
 20
-145.4077838656791
 30
0.0
 11
73.54075229201948
 21
-145.7898421989171
 31
0.0
  0
LINE
  5
CA
330
70
100
AcDbEntity
  8
レイヤー 1
 62
   250
420
  2299925
370
    25
100
AcDbLine
 10
74.02613922408066
 20
-145.3722944212436
 30
0.0
 11
74.5401717109666
 21
-145.7540352544814
 31
0.0
  0
LINE
  5
CB
330
70
100
AcDbEntity
  8
レイヤー 1
 62
   250
420
  2299925
370
    25
100
AcDbLine
 10
74.5401717109666
 20
-145.7540352544814
 30
0.0
 11
75.02559392080468
 21
-145.3364874768082
 31
0.0
  0
LINE
  5
CC
330
70
100
AcDbEntity
  8
レイヤー 1
 62
   250
420
  2299925
370
    25
100
AcDbLine
 10
75.53923835214496
 20
-145.7181930322681
 30
0.0
 11
76.02501333975181
 21
-145.3006452545949
 31
0.0
  0
LINE
  5
CD
330
70
100
AcDbEntity
  8
レイヤー 1
 62
   250
420
  2299925
370
    25
100
AcDbLine
 10
75.02559392080468
 20
-145.3364874768082
 30
0.0
 11
75.53923835214496
 21
-145.7181930322681
 31
0.0
  0
LINE
  5
CE
330
70
100
AcDbEntity
  8
レイヤー 1
 62
   250
420
  2299925
370
    25
100
AcDbLine
 10
76.53901054886119
 20
-145.6827035878326
 30
0.0
 11
77.02407998093015
 21
-145.2651558101591
 31
0.0
  0
LINE
  5
CF
330
70
100
AcDbEntity
  8
レイヤー 1
 62
   250
420
  2299925
370
    25
100
AcDbLine
 10
76.02501333975181
 20
-145.3006452545949
 30
0.0
 11
76.53901054886119
 21
-145.6827035878326
 31
0.0
  0
LINE
  5
D0
330
70
100
AcDbEntity
  8
レイヤー 1
 62
   250
420
  2299925
370
    25
100
AcDbLine
 10
77.02407998093015
 20
-145.2651558101591
 30
0.0
 11
77.53807719003922
 21
-145.6472141433972
 31
0.0
  0
LINE
  5
D1
330
70
100
AcDbEntity
  8
レイヤー 1
 62
   250
420
  2299925
370
    25
100
AcDbLine
 10
77.53807719003922
 20
-145.6472141433972
 30
0.0
 11
78.02385217764575
 21
-145.2293488657237
 31
0.0
  0
LINE
  5
D2
330
70
100
AcDbEntity
  8
レイヤー 1
 62
   250
420
  2299925
370
    25
100
AcDbLine
 10
78.02385217764575
 20
-145.2293488657237
 30
0.0
 11
78.53749660898635
 21
-145.6114071989617
 31
0.0
  0
LINE
  5
D3
330
70
100
AcDbEntity
  8
レイヤー 1
 62
   250
420
  2299925
370
    25
100
AcDbLine
 10
78.53749660898635
 20
-145.6114071989617
 30
0.0
 11
79.02291881882442
 21
-145.1938594212886
 31
0.0
  0
LINE
  5
D4
330
70
100
AcDbEntity
  8
レイヤー 1
 62
   250
420
  2299925
370
    25
100
AcDbLine
 10
79.02291881882442
 20
-145.1938594212886
 30
0.0
 11
79.53691602793348
 21
-145.5755649767482
 31
0.0
  0
LINE
  5
D5
330
70
100
AcDbEntity
  8
レイヤー 1
 62
   250
420
  2299925
370
    25
100
AcDbLine
 10
79.53691602793348
 20
-145.5755649767482
 30
0.0
 11
80.02233823777187
 21
-145.1580171990753
 31
0.0
  0
LINE
  5
D6
330
70
100
AcDbEntity
  8
レイヤー 1
 62
   250
420
  2299925
370
    25
100
AcDbLine
 10
80.02233823777187
 20
-145.1580171990753
 30
0.0
 11
80.53637072465749
 21
-145.5397227545349
 31
0.0
  0
LINE
  5
D7
330
70
100
AcDbEntity
  8
レイヤー 1
 62
   250
420
  2299925
370
    25
100
AcDbLine
 10
80.53637072465749
 20
-145.5397227545349
 30
0.0
 11
81.02175765671868
 21
-145.1222102546396
 31
0.0
  0
LINE
  5
D8
330
70
100
AcDbEntity
  8
レイヤー 1
 62
   250
420
  2299925
370
    25
100
AcDbLine
 10
81.02175765671868
 20
-145.1222102546396
 30
0.0
 11
81.53579014360493
 21
-145.5042685878773
 31
0.0
  0
LINE
  5
D9
330
70
100
AcDbEntity
  8
レイヤー 1
 62
   250
420
  2299925
370
    25
100
AcDbLine
 10
81.53579014360493
 20
-145.5042685878773
 30
0.0
 11
82.02085957567391
 21
-145.0867208102038
 31
0.0
  0
LINE
  5
DA
330
70
100
AcDbEntity
  8
レイヤー 1
 62
   250
420
  2299925
370
    25
100
AcDbLine
 10
82.02085957567391
 20
-145.0867208102038
 30
0.0
 11
82.53485678478297
 21
-145.4687791434418
 31
0.0
  0
LINE
  5
DB
330
70
100
AcDbEntity
  8
レイヤー 1
 62
   250
420
  2299925
370
    25
100
AcDbLine
 10
82.53485678478297
 20
-145.4687791434418
 30
0.0
 11
83.02059649461295
 21
-145.0508785879905
 31
0.0
  0
LINE
  5
DC
330
70
100
AcDbEntity
  8
レイヤー 1
 62
   250
420
  2299925
370
    25
100
AcDbLine
 10
83.02059649461295
 20
-145.0508785879905
 30
0.0
 11
83.53462898149889
 21
-145.4329369212285
 31
0.0
  0
LINE
  5
DD
330
70
100
AcDbEntity
  8
レイヤー 1
 62
   250
420
  2299925
370
    25
100
AcDbLine
 10
83.53462898149889
 20
-145.4329369212285
 30
0.0
 11
84.01969841356818
 21
-145.015389143555
 31
0.0
  0
LINE
  5
DE
330
70
100
AcDbEntity
  8
レイヤー 1
 62
   250
420
  2299925
370
    25
100
AcDbLine
 10
84.01969841356818
 20
-145.015389143555
 30
0.0
 11
84.53369562267722
 21
-145.3971299767928
 31
0.0
  0
LINE
  5
DF
330
70
100
AcDbEntity
  8
レイヤー 1
 62
   250
420
  2299925
370
    25
100
AcDbLine
 10
84.53369562267722
 20
-145.3971299767928
 30
0.0
 11
85.01876505474685
 21
-144.9795821991197
 31
0.0
  0
LINE
  5
E0
330
70
100
AcDbEntity
  8
レイヤー 1
 62
   250
420
  2299925
370
    25
100
AcDbLine
 10
85.01876505474685
 20
-144.9795821991197
 30
0.0
 11
85.53276226385559
 21
-145.3612877545796
 31
0.0
  0
LINE
  5
E1
330
70
100
AcDbEntity
  8
レイヤー 1
 62
   250
420
  2299925
370
    25
100
AcDbLine
 10
85.53276226385559
 20
-145.3612877545796
 30
0.0
 11
86.01853725146243
 21
-144.9437399769064
 31
0.0
  0
LINE
  5
E2
330
70
100
AcDbEntity
  8
レイヤー 1
 62
   250
420
  2299925
370
    25
100
AcDbLine
 10
86.13253446071137
 20
-144.8955152546962
 30
0.0
 11
87.03277333669822
 21
-144.8955152546962
 31
0.0
  0
LINE
  5
E3
330
70
100
AcDbEntity
  8
レイヤー 1
 62
   250
420
  2299925
370
    25
100
AcDbLine
 10
87.03277333669822
 20
-144.8955152546962
 30
0.0
 11
87.03277333669822
 21
-153.1575355304084
 31
0.0
  0
LINE
  5
E4
330
70
100
AcDbEntity
  8
レイヤー 1
 62
   250
420
  2299925
370
    25
100
AcDbLine
 10
86.03233086222164
 20
-146.1577894210472
 30
0.0
 11
86.03233086222164
 21
-154.1576605301581
 31
0.0
  0
LINE
  5
E5
330
70
100
AcDbEntity
  8
レイヤー 1
 62
   250
420
  2299925
370
    25
100
AcDbLine
 10
97.03250613713903
 20
-153.1575355304084
 30
0.0
 11
87.03277333669822
 21
-153.1575355304084
 31
0.0
  0
LINE
  5
E6
330
70
100
AcDbEntity
  8
レイヤー 1
 62
   250
420
  2299925
370
    25
100
AcDbLine
 10
108.0402661340861
 20
-145.3006452545949
 30
0.0
 11
107.526268924977
 21
-145.6827035878326
 31
0.0
  0
LINE
  5
E7
330
70
100
AcDbEntity
  8
レイヤー 1
 62
   250
420
  2299925
370
    25
100
AcDbLine
 10
113.0370457288298
 20
-145.4791155323281
 30
0.0
 11
112.5230132419439
 21
-145.8611738655658
 31
0.0
  0
LINE
  5
E8
330
70
100
AcDbEntity
  8
レイヤー 1
 62
   250
420
  2299925
370
    25
100
AcDbLine
 10
108.5253355661554
 20
-145.7181930322681
 30
0.0
 11
108.0402661340861
 21
-145.3006452545949
 31
0.0
  0
LINE
  5
E9
330
70
100
AcDbEntity
  8
レイヤー 1
 62
   250
420
  2299925
370
    25
100
AcDbLine
 10
109.5251077628713
 20
-145.7540352544814
 30
0.0
 11
109.0393327752644
 21
-145.3364874768082
 31
0.0
  0
LINE
  5
EA
330
70
100
AcDbEntity
  8
レイヤー 1
 62
   250
420
  2299925
370
    25
100
AcDbLine
 10
107.526268924977
 20
-145.6827035878326
 30
0.0
 11
107.0404939373702
 21
-145.2651558101591
 31
0.0
  0
LINE
  5
EB
330
70
100
AcDbEntity
  8
レイヤー 1
 62
   250
420
  2299925
370
    25
100
AcDbLine
 10
109.0393327752644
 20
-145.3364874768082
 30
0.0
 11
108.5253355661554
 21
-145.7181930322681
 31
0.0
  0
LINE
  5
EC
330
70
100
AcDbEntity
  8
レイヤー 1
 62
   250
420
  2299925
370
    25
100
AcDbLine
 10
117.0347234046184
 20
-145.6220610878477
 30
0.0
 11
116.5207261955093
 21
-146.0041546988636
 31
0.0
  0
LINE
  5
ED
330
70
100
AcDbEntity
  8
レイヤー 1
 62
   250
420
  2299925
370
    25
100
AcDbLine
 10
110.0391049719803
 20
-145.3722944212436
 30
0.0
 11
109.5251077628713
 21
-145.7540352544814
 31
0.0
  0
LINE
  5
EE
330
70
100
AcDbEntity
  8
レイヤー 1
 62
   250
420
  2299925
370
    25
100
AcDbLine
 10
111.0382068909355
 20
-145.4077838656791
 30
0.0
 11
110.5241744040496
 21
-145.7898421989171
 31
0.0
  0
LINE
  5
EF
330
70
100
AcDbEntity
  8
レイヤー 1
 62
   250
420
  2299925
370
    25
100
AcDbLine
 10
97.03250613713903
 20
-144.8955152546962
 30
0.0
 11
97.03250613713903
 21
-153.1575355304084
 31
0.0
  0
LINE
  5
F0
330
70
100
AcDbEntity
  8
レイヤー 1
 62
   250
420
  2299925
370
    25
100
AcDbLine
 10
110.5241744040496
 20
-145.7898421989171
 30
0.0
 11
110.0391049719803
 21
-145.3722944212436
 31
0.0
  0
LINE
  5
F1
330
70
100
AcDbEntity
  8
レイヤー 1
 62
   250
420
  2299925
370
    25
100
AcDbLine
 10
111.5239466007655
 20
-145.8256844211303
 30
0.0
 11
111.0382068909355
 21
-145.4077838656791
 31
0.0
  0
LINE
  5
F2
330
70
100
AcDbEntity
  8
レイヤー 1
 62
   250
420
  2299925
370
    25
100
AcDbLine
 10
116.5207261955093
 20
-146.0041546988636
 30
0.0
 11
116.0349512079024
 21
-145.5862541434123
 31
0.0
  0
LINE
  5
F3
330
70
100
AcDbEntity
  8
レイヤー 1
 62
   250
420
  2299925
370
    25
100
AcDbLine
 10
112.0372735321139
 20
-145.4436260878923
 30
0.0
 11
111.5239466007655
 21
-145.8256844211303
 31
0.0
  0
LINE
  5
F4
330
70
100
AcDbEntity
  8
レイヤー 1
 62
   250
420
  2299925
370
    25
100
AcDbLine
 10
112.5230132419439
 20
-145.8611738655658
 30
0.0
 11
112.0372735321139
 21
-145.4436260878923
 31
0.0
  0
LINE
  5
F5
330
70
100
AcDbEntity
  8
レイヤー 1
 62
   250
420
  2299925
370
    25
100
AcDbLine
 10
117.5197928366876
 20
-146.0396088655212
 30
0.0
 11
117.0347234046184
 21
-145.6220610878477
 31
0.0
  0
LINE
  5
F6
330
70
100
AcDbEntity
  8
レイヤー 1
 62
   250
420
  2299925
370
    25
100
AcDbLine
 10
114.0361123700082
 20
-145.5149224767636
 30
0.0
 11
113.5221151608991
 21
-145.8966633100013
 31
0.0
  0
LINE
  5
F7
330
70
100
AcDbEntity
  8
レイヤー 1
 62
   250
420
  2299925
370
    25
100
AcDbLine
 10
115.0358845667241
 20
-145.5507646989771
 30
0.0
 11
114.521887357615
 21
-145.932470254437
 31
0.0
  0
LINE
  5
F8
330
70
100
AcDbEntity
  8
レイヤー 1
 62
   250
420
  2299925
370
    25
100
AcDbLine
 10
114.521887357615
 20
-145.932470254437
 30
0.0
 11
114.0361123700082
 21
-145.5149224767636
 31
0.0
  0
LINE
  5
F9
330
70
100
AcDbEntity
  8
レイヤー 1
 62
   250
420
  2299925
370
    25
100
AcDbLine
 10
118.0337900457967
 20
-145.6575505322835
 30
0.0
 11
117.5197928366876
 21
-146.0396088655212
 31
0.0
  0
LINE
  5
FA
330
70
100
AcDbEntity
  8
レイヤー 1
 62
   250
420
  2299925
370
    25
100
AcDbLine
 10
113.5221151608991
 20
-145.8966633100013
 30
0.0
 11
113.0370457288298
 21
-145.4791155323281
 31
0.0
  0
LINE
  5
FB
330
70
100
AcDbEntity
  8
レイヤー 1
 62
   250
420
  2299925
370
    25
100
AcDbLine
 10
116.0349512079024
 20
-145.5862541434123
 30
0.0
 11
115.5209539987934
 21
-145.9683124766503
 31
0.0
  0
LINE
  5
FC
330
70
100
AcDbEntity
  8
レイヤー 1
 62
   250
420
  2299925
370
    25
100
AcDbLine
 10
115.5209539987934
 20
-145.9683124766503
 30
0.0
 11
115.0358845667241
 21
-145.5507646989771
 31
0.0
  0
LINE
  5
FD
330
70
100
AcDbEntity
  8
レイヤー 1
 62
   250
420
  2299925
370
    25
100
AcDbLine
 10
118.0337900457967
 20
-145.6575505322835
 30
0.0
 11
118.0337900457967
 21
-146.1577894210472
 31
0.0
  0
LINE
  5
FE
330
70
100
AcDbEntity
  8
レイヤー 1
 62
   250
420
  2299925
370
    25
100
AcDbLine
 10
98.03227833385527
 20
-146.1577894210472
 30
0.0
 11
118.0337900457967
 21
-146.1577894210472
 31
0.0
  0
LINE
  5
FF
330
70
100
AcDbEntity
  8
レイヤー 1
 62
   250
420
  2299925
370
    25
100
AcDbLine
 10
107.0404939373702
 20
-145.2651558101591
 30
0.0
 11
106.5264967282611
 21
-145.6472141433972
 31
0.0
  0
LINE
  5
100
330
70
100
AcDbEntity
  8
レイヤー 1
 62
   250
420
  2299925
370
    25
100
AcDbLine
 10
106.5264967282611
 20
-145.6472141433972
 30
0.0
 11
106.0414272961918
 21
-145.2293488657237
 31
0.0
  0
LINE
  5
101
330
70
100
AcDbEntity
  8
レイヤー 1
 62
   250
420
  2299925
370
    25
100
AcDbLine
 10
106.0414272961918
 20
-145.2293488657237
 30
0.0
 11
105.5274300870827
 21
-145.6114071989617
 31
0.0
  0
LINE
  5
102
330
70
100
AcDbEntity
  8
レイヤー 1
 62
   250
420
  2299925
370
    25
100
AcDbLine
 10
105.5274300870827
 20
-145.6114071989617
 30
0.0
 11
105.0423606550131
 21
-145.1938594212886
 31
0.0
  0
LINE
  5
103
330
70
100
AcDbEntity
  8
レイヤー 1
 62
   250
420
  2299925
370
    25
100
AcDbLine
 10
105.0423606550131
 20
-145.1938594212886
 30
0.0
 11
104.5283281681272
 21
-145.5755649767482
 31
0.0
  0
LINE
  5
104
330
70
100
AcDbEntity
  8
レイヤー 1
 62
   250
420
  2299925
370
    25
100
AcDbLine
 10
104.5283281681272
 20
-145.5755649767482
 30
0.0
 11
104.0425884582972
 21
-145.1580171990753
 31
0.0
  0
LINE
  5
105
330
70
100
AcDbEntity
  8
レイヤー 1
 62
   250
420
  2299925
370
    25
100
AcDbLine
 10
104.0425884582972
 20
-145.1580171990753
 30
0.0
 11
103.5285912491882
 21
-145.5397227545349
 31
0.0
  0
LINE
  5
106
330
70
100
AcDbEntity
  8
レイヤー 1
 62
   250
420
  2299925
370
    25
100
AcDbLine
 10
103.5285912491882
 20
-145.5397227545349
 30
0.0
 11
103.0435218171189
 21
-145.1222102546396
 31
0.0
  0
LINE
  5
107
330
70
100
AcDbEntity
  8
レイヤー 1
 62
   250
420
  2299925
370
    25
100
AcDbLine
 10
103.0435218171189
 20
-145.1222102546396
 30
0.0
 11
102.5294893302329
 21
-145.5042685878773
 31
0.0
  0
LINE
  5
108
330
70
100
AcDbEntity
  8
レイヤー 1
 62
   250
420
  2299925
370
    25
100
AcDbLine
 10
102.5294893302329
 20
-145.5042685878773
 30
0.0
 11
102.0437496204026
 21
-145.0867208102038
 31
0.0
  0
LINE
  5
109
330
70
100
AcDbEntity
  8
レイヤー 1
 62
   250
420
  2299925
370
    25
100
AcDbLine
 10
102.0437496204026
 20
-145.0867208102038
 30
0.0
 11
101.529717133517
 21
-145.4687791434418
 31
0.0
  0
LINE
  5
10A
330
70
100
AcDbEntity
  8
レイヤー 1
 62
   250
420
  2299925
370
    25
100
AcDbLine
 10
101.529717133517
 20
-145.4687791434418
 30
0.0
 11
101.0446477014477
 21
-145.0508785879905
 31
0.0
  0
LINE
  5
10B
330
70
100
AcDbEntity
  8
レイヤー 1
 62
   250
420
  2299925
370
    25
100
AcDbLine
 10
101.0446477014477
 20
-145.0508785879905
 30
0.0
 11
100.5306504923387
 21
-145.4329369212285
 31
0.0
  0
LINE
  5
10C
330
70
100
AcDbEntity
  8
レイヤー 1
 62
   250
420
  2299925
370
    25
100
AcDbLine
 10
100.5306504923387
 20
-145.4329369212285
 30
0.0
 11
100.0455810602694
 21
-145.015389143555
 31
0.0
  0
LINE
  5
10D
330
70
100
AcDbEntity
  8
レイヤー 1
 62
   250
420
  2299925
370
    25
100
AcDbLine
 10
100.0455810602694
 20
-145.015389143555
 30
0.0
 11
99.53158385116067
 21
-145.3971299767928
 31
0.0
  0
LINE
  5
10E
330
70
100
AcDbEntity
  8
レイヤー 1
 62
   250
420
  2299925
370
    25
100
AcDbLine
 10
99.53158385116067
 20
-145.3971299767928
 30
0.0
 11
99.04580886355383
 21
-144.9795821991197
 31
0.0
  0
LINE
  5
10F
330
70
100
AcDbEntity
  8
レイヤー 1
 62
   250
420
  2299925
370
    25
100
AcDbLine
 10
99.04580886355383
 20
-144.9795821991197
 30
0.0
 11
98.53181165444411
 21
-145.3612877545796
 31
0.0
  0
LINE
  5
110
330
70
100
AcDbEntity
  8
レイヤー 1
 62
   250
420
  2299925
370
    25
100
AcDbLine
 10
98.53181165444411
 20
-145.3612877545796
 30
0.0
 11
98.04674222237515
 21
-144.9437399769064
 31
0.0
  0
LINE
  5
111
330
70
100
AcDbEntity
  8
レイヤー 1
 62
   250
420
  2299925
370
    25
100
AcDbLine
 10
97.93274501312621
 20
-144.8955152546962
 30
0.0
 11
97.03250613713903
 21
-144.8955152546962
 31
0.0
  0
LINE
  5
112
330
70
100
AcDbEntity
  8
レイヤー 1
 62
   250
420
  2299925
370
    25
100
AcDbLine
 10
98.03227833385527
 20
-146.1577894210472
 30
0.0
 11
98.03227833385527
 21
-154.1576605301581
 31
0.0
  0
SPLINE
  5
113
330
70
100
AcDbEntity
  8
レイヤー 1
 62
   250
420
  2299925
370
     9
100
AcDbSpline
210
0.0
220
0.0
230
1.0
 70
     9
 71
     3
 72
    17
 73
    13
 74
     0
 42
0.0000000001
 43
0.0000000001
 40
0.0
 40
0.0
 40
0.0
 40
0.0
 40
1.0
 40
1.0
 40
1.0
 40
2.0
 40
2.0
 40
2.0
 40
3.0
 40
3.0
 40
3.0
 40
4.0
 40
4.0
 40
4.0
 40
4.0
 10
66.13136081438213
 20
-140.8957560890293
 30
0.0
 10
66.13136081438213
 20
-140.840299422377
 30
0.0
 10
66.08659331552424
 20
-140.7954966446099
 30
0.0
 10
66.03145415026429
 20
-140.7954966446099
 30
0.0
 10
65.97599748501244
 20
-140.7954966446099
 30
0.0
 10
65.93122998615456
 20
-140.840299422377
 30
0.0
 10
65.93122998615456
 20
-140.8957560890293
 30
0.0
 10
65.93122998615456
 20
-140.9508599779046
 30
0.0
 10
65.97599748501244
 20
-140.995662755671
 30
0.0
 10
66.03145415026429
 20
-140.995662755671
 30
0.0
 10
66.08659331552424
 20
-140.995662755671
 30
0.0
 10
66.13136081438213
 20
-140.9508599779046
 30
0.0
 10
66.13136081438213
 20
-140.8957560890293
 30
0.0
  0
SPLINE
  5
114
330
70
100
AcDbEntity
  8
レイヤー 1
 62
   250
420
  2299925
370
     9
100
AcDbSpline
210
0.0
220
0.0
230
1.0
 70
     9
 71
     3
 72
    17
 73
    13
 74
     0
 42
0.0000000001
 43
0.0000000001
 40
0.0
 40
0.0
 40
0.0
 40
0.0
 40
1.0
 40
1.0
 40
1.0
 40
2.0
 40
2.0
 40
2.0
 40
3.0
 40
3.0
 40
3.0
 40
4.0
 40
4.0
 40
4.0
 40
4.0
 10
63.90169948237664
 20
-145.6575505322835
 30
0.0
 10
63.90169948237664
 20
-145.6024466434083
 30
0.0
 10
63.85693198351876
 20
-145.5576438656419
 30
0.0
 10
63.80147531826691
 20
-145.5576438656419
 30
0.0
 10
63.74633848347306
 20
-145.5576438656419
 30
0.0
 10
63.70153570570634
 20
-145.6024466434083
 30
0.0
 10
63.70153570570634
 20
-145.6575505322835
 30
0.0
 10
63.70153570570634
 20
-145.7126896989363
 30
0.0
 10
63.74633848347306
 20
-145.7574571989252
 30
0.0
 10
63.80147531826691
 20
-145.7574571989252
 30
0.0
 10
63.85693198351876
 20
-145.7574571989252
 30
0.0
 10
63.90169948237664
 20
-145.7126896989363
 30
0.0
 10
63.90169948237664
 20
-145.6575505322835
 30
0.0
  0
SPLINE
  5
115
330
70
100
AcDbEntity
  8
レイヤー 1
 62
   250
420
  2299925
370
     9
100
AcDbSpline
210
0.0
220
0.0
230
1.0
 70
     9
 71
     3
 72
    17
 73
    13
 74
     0
 42
0.0000000001
 43
0.0000000001
 40
0.0
 40
0.0
 40
0.0
 40
0.0
 40
1.0
 40
1.0
 40
1.0
 40
2.0
 40
2.0
 40
2.0
 40
3.0
 40
3.0
 40
3.0
 40
4.0
 40
4.0
 40
4.0
 40
4.0
 10
63.90169948237664
 20
-146.1577894210472
 30
0.0
 10
63.90169948237664
 20
-146.102685532172
 30
0.0
 10
63.85693198351876
 20
-146.0578827544059
 30
0.0
 10
63.80147531826691
 20
-146.0578827544059
 30
0.0
 10
63.74633848347306
 20
-146.0578827544059
 30
0.0
 10
63.70153570570634
 20
-146.102685532172
 30
0.0
 10
63.70153570570634
 20
-146.1577894210472
 30
0.0
 10
63.70153570570634
 20
-146.2129285877
 30
0.0
 10
63.74633848347306
 20
-146.2576960876889
 30
0.0
 10
63.80147531826691
 20
-146.2576960876889
 30
0.0
 10
63.85693198351876
 20
-146.2576960876889
 30
0.0
 10
63.90169948237664
 20
-146.2129285877
 30
0.0
 10
63.90169948237664
 20
-146.1577894210472
 30
0.0
  0
SPLINE
  5
116
330
70
100
AcDbEntity
  8
レイヤー 1
 62
   250
420
  2299925
370
     9
100
AcDbSpline
210
0.0
220
0.0
230
1.0
 70
     9
 71
     3
 72
    17
 73
    13
 74
     0
 42
0.0000000001
 43
0.0000000001
 40
0.0
 40
0.0
 40
0.0
 40
0.0
 40
1.0
 40
1.0
 40
1.0
 40
2.0
 40
2.0
 40
2.0
 40
3.0
 40
3.0
 40
3.0
 40
4.0
 40
4.0
 40
4.0
 40
4.0
 10
63.90169948237664
 20
-154.1576605301581
 30
0.0
 10
63.90169948237664
 20
-154.1025213635057
 30
0.0
 10
63.85693198351876
 20
-154.0577538635171
 30
0.0
 10
63.80147531826691
 20
-154.0577538635171
 30
0.0
 10
63.74633848347306
 20
-154.0577538635171
 30
0.0
 10
63.70153570570634
 20
-154.1025213635057
 30
0.0
 10
63.70153570570634
 20
-154.1576605301581
 30
0.0
 10
63.70153570570634
 20
-154.2127644190337
 30
0.0
 10
63.74633848347306
 20
-154.2575671968004
 30
0.0
 10
63.80147531826691
 20
-154.2575671968004
 30
0.0
 10
63.85693198351876
 20
-154.2575671968004
 30
0.0
 10
63.90169948237664
 20
-154.2127644190337
 30
0.0
 10
63.90169948237664
 20
-154.1576605301581
 30
0.0
  0
SPLINE
  5
117
330
70
100
AcDbEntity
  8
レイヤー 1
 62
   250
420
  2299925
370
     9
100
AcDbSpline
210
0.0
220
0.0
230
1.0
 70
     9
 71
     3
 72
    17
 73
    13
 74
     0
 42
0.0000000001
 43
0.0000000001
 40
0.0
 40
0.0
 40
0.0
 40
0.0
 40
1.0
 40
1.0
 40
1.0
 40
2.0
 40
2.0
 40
2.0
 40
3.0
 40
3.0
 40
3.0
 40
4.0
 40
4.0
 40
4.0
 40
4.0
 10
87.13268292207073
 20
-140.8957560890293
 30
0.0
 10
87.13268292207073
 20
-140.840299422377
 30
0.0
 10
87.08788014430465
 20
-140.7954966446099
 30
0.0
 10
87.03277333669822
 20
-140.7954966446099
 30
0.0
 10
86.97696389367791
 20
-140.7954966446099
 30
0.0
 10
86.93216111704284
 20
-140.840299422377
 30
0.0
 10
86.93216111704284
 20
-140.8957560890293
 30
0.0
 10
86.93216111704284
 20
-140.9508599779046
 30
0.0
 10
86.97696389367791
 20
-140.995662755671
 30
0.0
 10
87.03277333669822
 20
-140.995662755671
 30
0.0
 10
87.08788014430465
 20
-140.995662755671
 30
0.0
 10
87.13268292207073
 20
-140.9508599779046
 30
0.0
 10
87.13268292207073
 20
-140.8957560890293
 30
0.0
  0
SPLINE
  5
118
330
70
100
AcDbEntity
  8
レイヤー 1
 62
   250
420
  2299925
370
     9
100
AcDbSpline
210
0.0
220
0.0
230
1.0
 70
     9
 71
     3
 72
    17
 73
    13
 74
     0
 42
0.0000000001
 43
0.0000000001
 40
0.0
 40
0.0
 40
0.0
 40
0.0
 40
1.0
 40
1.0
 40
1.0
 40
2.0
 40
2.0
 40
2.0
 40
3.0
 40
3.0
 40
3.0
 40
4.0
 40
4.0
 40
4.0
 40
4.0
 10
118.1336967099145
 20
-140.8957560890293
 30
0.0
 10
118.1336967099145
 20
-140.840299422377
 30
0.0
 10
118.0889329143313
 20
-140.7954966446099
 30
0.0
 10
118.0337900457967
 20
-140.7954966446099
 30
0.0
 10
117.9786861583136
 20
-140.7954966446099
 30
0.0
 10
117.9338833816789
 20
-140.840299422377
 30
0.0
 10
117.9338833816789
 20
-140.8957560890293
 30
0.0
 10
117.9338833816789
 20
-140.9508599779046
 30
0.0
 10
117.9786861583136
 20
-140.995662755671
 30
0.0
 10
118.0337900457967
 20
-140.995662755671
 30
0.0
 10
118.0889329143313
 20
-140.995662755671
 30
0.0
 10
118.1336967099145
 20
-140.9508599779046
 30
0.0
 10
118.1336967099145
 20
-140.8957560890293
 30
0.0
  0
SPLINE
  5
119
330
70
100
AcDbEntity
  8
レイヤー 1
 62
   250
420
  2299925
370
     9
100
AcDbSpline
210
0.0
220
0.0
230
1.0
 70
     9
 71
     3
 72
    17
 73
    13
 74
     0
 42
0.0000000001
 43
0.0000000001
 40
0.0
 40
0.0
 40
0.0
 40
0.0
 40
1.0
 40
1.0
 40
1.0
 40
2.0
 40
2.0
 40
2.0
 40
3.0
 40
3.0
 40
3.0
 40
4.0
 40
4.0
 40
4.0
 40
4.0
 10
97.13241280125719
 20
-140.8957560890293
 30
0.0
 10
97.13241280125719
 20
-140.840299422377
 30
0.0
 10
97.08761002462274
 20
-140.7954966446099
 30
0.0
 10
97.03250613713903
 20
-140.7954966446099
 30
0.0
 10
96.9773669718794
 20
-140.7954966446099
 30
0.0
 10
96.93259947302152
 20
-140.840299422377
 30
0.0
 10
96.93259947302152
 20
-140.8957560890293
 30
0.0
 10
96.93259947302152
 20
-140.9508599779046
 30
0.0
 10
96.9773669718794
 20
-140.995662755671
 30
0.0
 10
97.03250613713903
 20
-140.995662755671
 30
0.0
 10
97.08761002462274
 20
-140.995662755671
 30
0.0
 10
97.13241280125719
 20
-140.9508599779046
 30
0.0
 10
97.13241280125719
 20
-140.8957560890293
 30
0.0
  0
LINE
  5
11A
330
70
100
AcDbEntity
  8
レイヤー 1
 62
   250
420
  2299925
370
     9
100
AcDbLine
 10
63.80147531826691
 20
-145.6575505322835
 30
0.0
 11
63.80147531826691
 21
-140.3999974780424
 31
0.0
  0
LINE
  5
11B
330
70
100
AcDbEntity
  8
レイヤー 1
 62
   250
420
  2299925
370
     9
100
AcDbLine
 10
63.80147531826691
 20
-145.6575505322835
 30
0.0
 11
63.80147531826691
 21
-146.1577894210472
 31
0.0
  0
LINE
  5
11C
330
70
100
AcDbEntity
  8
レイヤー 1
 62
   250
420
  2299925
370
     9
100
AcDbLine
 10
65.26148139213017
 20
-145.6575505322835
 30
0.0
 11
62.801703121551
 21
-145.6575505322835
 31
0.0
  0
LINE
  5
11D
330
70
100
AcDbEntity
  8
レイヤー 1
 62
   250
420
  2299925
370
     9
100
AcDbLine
 10
65.26148139213017
 20
-146.1577894210472
 30
0.0
 11
62.801703121551
 21
-146.1577894210472
 31
0.0
  0
INSERT
  5
11F
330
70
100
AcDbEntity
  8
レイヤー 1
100
AcDbBlockReference
  2
Block_1
 10
0.0
 20
0.0
 30
0.0
  0
LINE
  5
12D
330
70
100
AcDbEntity
  8
レイヤー 1
 62
   250
420
  2299925
370
     9
100
AcDbLine
 10
66.03145415026429
 20
-140.8957560890293
 30
0.0
 11
87.03277333669822
 21
-140.8957560890293
 31
0.0
  0
LINE
  5
12E
330
70
100
AcDbEntity
  8
レイヤー 1
 62
   250
420
  2299925
370
     9
100
AcDbLine
 10
66.03145415026429
 20
-143.1178327551407
 30
0.0
 11
66.03145415026429
 21
-139.8956310892794
 31
0.0
  0
INSERT
  5
130
330
70
100
AcDbEntity
  8
レイヤー 1
100
AcDbBlockReference
  2
Block_3
 10
0.0
 20
0.0
 30
0.0
  0
LINE
  5
13B
330
70
100
AcDbEntity
  8
レイヤー 1
 62
   250
420
  2299925
370
     9
100
AcDbLine
 10
63.80147531826691
 20
-146.1577894210472
 30
0.0
 11
63.80147531826691
 21
-154.1576605301581
 31
0.0
  0
LINE
  5
13C
330
70
100
AcDbEntity
  8
レイヤー 1
 62
   250
420
  2299925
370
     9
100
AcDbLine
 10
85.26302838184818
 20
-154.1576605301581
 30
0.0
 11
62.801703121551
 21
-154.1576605301581
 31
0.0
  0
INSERT
  5
13E
330
70
100
AcDbEntity
  8
レイヤー 1
100
AcDbBlockReference
  2
Block_5
 10
0.0
 20
0.0
 30
0.0
  0
LINE
  5
145
330
70
100
AcDbEntity
  8
レイヤー 1
 62
   250
420
  2299925
370
     9
100
AcDbLine
 10
118.0337900457967
 20
-140.8957560890293
 30
0.0
 11
97.03250613713903
 21
-140.8957560890293
 31
0.0
  0
LINE
  5
146
330
70
100
AcDbEntity
  8
レイヤー 1
 62
   250
420
  2299925
370
     9
100
AcDbLine
 10
118.0337900457967
 20
-143.1178327551407
 30
0.0
 11
118.0337900457967
 21
-139.8956310892794
 31
0.0
  0
INSERT
  5
148
330
70
100
AcDbEntity
  8
レイヤー 1
100
AcDbBlockReference
  2
Block_6
 10
0.0
 20
0.0
 30
0.0
  0
LINE
  5
153
330
70
100
AcDbEntity
  8
レイヤー 1
 62
   250
420
  2299925
370
     9
100
AcDbLine
 10
87.03277333669822
 20
-140.8957560890293
 30
0.0
 11
97.03250613713903
 21
-140.8957560890293
 31
0.0
  0
LINE
  5
154
330
70
100
AcDbEntity
  8
レイヤー 1
 62
   250
420
  2299925
370
     9
100
AcDbLine
 10
87.03277333669822
 20
-142.3557974775533
 30
0.0
 11
87.03277333669822
 21
-139.8956310892794
 31
0.0
  0
LINE
  5
155
330
70
100
AcDbEntity
  8
レイヤー 1
 62
   250
420
  2299925
370
     9
100
AcDbLine
 10
97.03250613713903
 20
-142.3557974775533
 30
0.0
 11
97.03250613713903
 21
-139.8956310892794
 31
0.0
  0
INSERT
  5
157
330
70
100
AcDbEntity
  8
レイヤー 1
100
AcDbBlockReference
  2
Block_8
 10
0.0
 20
0.0
 30
0.0
  0
SPLINE
  5
163
330
70
100
AcDbEntity
  8
レイヤー 1
 62
   250
420
  2299925
370
     9
100
AcDbSpline
210
0.0
220
0.0
230
1.0
 70
     9
 71
     3
 72
    17
 73
    13
 74
     0
 42
0.0000000001
 43
0.0000000001
 40
0.0
 40
0.0
 40
0.0
 40
0.0
 40
1.0
 40
1.0
 40
1.0
 40
2.0
 40
2.0
 40
2.0
 40
3.0
 40
3.0
 40
3.0
 40
4.0
 40
4.0
 40
4.0
 40
4.0
 10
86.34580918755748
 20
-158.2710846957968
 30
0.0
 10
86.34580918755748
 20
-158.2159808069212
 30
0.0
 10
86.26244780079499
 20
-158.1711780291551
 30
0.0
 10
86.159789470081
 20
-158.1711780291551
 30
0.0
 10
86.05815419489616
 20
-158.1711780291551
 30
0.0
 10
85.97511030812558
 20
-158.2159808069212
 30
0.0
 10
85.97511030812558
 20
-158.2710846957968
 30
0.0
 10
85.97511030812558
 20
-158.3262238624492
 30
0.0
 10
86.05815419489616
 20
-158.3709913624384
 30
0.0
 10
86.159789470081
 20
-158.3709913624384
 30
0.0
 10
86.26244780079499
 20
-158.3709913624384
 30
0.0
 10
86.34580918755748
 20
-158.3262238624492
 30
0.0
 10
86.34580918755748
 20
-158.2710846957968
 30
0.0
  0
SPLINE
  5
164
330
70
100
AcDbEntity
  8
レイヤー 1
 62
   250
420
  2299925
370
     9
100
AcDbSpline
210
0.0
220
0.0
230
1.0
 70
     9
 71
     3
 72
    17
 73
    13
 74
     0
 42
0.0000000001
 43
0.0000000001
 40
0.0
 40
0.0
 40
0.0
 40
0.0
 40
1.0
 40
1.0
 40
1.0
 40
2.0
 40
2.0
 40
2.0
 40
3.0
 40
3.0
 40
3.0
 40
4.0
 40
4.0
 40
4.0
 40
4.0
 10
98.38847804698975
 20
-158.2710846957968
 30
0.0
 10
98.38847804698975
 20
-158.2159808069212
 30
0.0
 10
98.30546943799667
 20
-158.1711780291551
 30
0.0
 10
98.20383416281183
 20
-158.1711780291551
 30
0.0
 10
98.10015277656809
 20
-158.1711780291551
 30
0.0
 10
98.01781444533538
 20
-158.2159808069212
 30
0.0
 10
98.01781444533538
 20
-158.2710846957968
 30
0.0
 10
98.01781444533538
 20
-158.3262238624492
 30
0.0
 10
98.10015277656809
 20
-158.3709913624384
 30
0.0
 10
98.20383416281183
 20
-158.3709913624384
 30
0.0
 10
98.30546943799667
 20
-158.3709913624384
 30
0.0
 10
98.38847804698975
 20
-158.3262238624492
 30
0.0
 10
98.38847804698975
 20
-158.2710846957968
 30
0.0
  0
LINE
  5
165
330
70
100
AcDbEntity
  8
レイヤー 1
 62
   250
420
  2299925
370
     9
100
AcDbLine
 10
98.20383416281183
 20
-158.2710846957968
 30
0.0
 11
86.159789470081
 21
-158.2710846957968
 31
0.0
  0
LINE
  5
166
330
70
100
AcDbEntity
  8
レイヤー 1
 62
   250
420
  2299925
370
     9
100
AcDbLine
 10
98.20383416281183
 20
-156.8110433072731
 30
0.0
 11
98.20383416281183
 21
-159.2712096955464
 31
0.0
  0
LINE
  5
167
330
70
100
AcDbEntity
  8
レイヤー 1
 62
   250
420
  2299925
370
     9
100
AcDbLine
 10
86.159789470081
 20
-156.8110433072731
 30
0.0
 11
86.159789470081
 21
-159.2712096955464
 31
0.0
  0
INSERT
  5
169
330
70
100
AcDbEntity
  8
レイヤー 1
100
AcDbBlockReference
  2
Block_10
 10
0.0
 20
0.0
 30
0.0
  0
LINE
  5
174
330
70
100
AcDbEntity
  8
レイヤー 1
 62
   250
420
  2299925
370
     9
100
AcDbLine
 10
95.00851424433124
 20
-150.3029283088998
 30
0.0
 11
103.0087026513405
 21
-150.3029283088998
 31
0.0
  0
INSERT
  5
176
330
70
100
AcDbEntity
  8
レイヤー 1
100
AcDbBlockReference
  2
Block_12
 10
0.0
 20
0.0
 30
0.0
  0
INSERT
  5
17C
330
70
100
AcDbEntity
  8
レイヤー 1
100
AcDbBlockReference
  2
Block_13
 10
0.0
 20
0.0
 30
0.0
  0
ENDSEC
  0
SECTION
  2
OBJECTS
  0
DICTIONARY
  5
C
330
0
100
AcDbDictionary
281
     1
  3
ACAD_COLOR
350
63
  3
ACAD_DETAILVIEWSTYLE
350
6A
  3
ACAD_GROUP
350
D
  3
ACAD_LAYOUT
350
62
  3
ACAD_MATERIAL
350
10
  3
ACAD_MLEADERSTYLE
350
66
  3
ACAD_MLINESTYLE
350
5F
  3
ACAD_PLOTSETTINGS
350
61
  3
ACAD_PLOTSTYLENAME
350
E
  3
ACAD_SCALELIST
350
42
  3
ACAD_SECTIONVIEWSTYLE
350
68
  3
ACAD_TABLESTYLE
350
64
  3
ACAD_VISUALSTYLE
350
29
  3
ACDB_RECOMPOSE_DATA
350
1A9
  3
AcDbVariableDictionary
350
1A1
  0
DICTIONARY
  5
63
102
{ACAD_REACTORS
330
C
102
}
330
C
100
AcDbDictionary
281
     1
  0
DICTIONARY
  5
6A
102
{ACAD_REACTORS
330
C
102
}
330
C
100
AcDbDictionary
281
     1
  3
Imperial24
350
6B
  0
DICTIONARY
  5
D
102
{ACAD_REACTORS
330
C
102
}
330
C
100
AcDbDictionary
281
     1
  0
DICTIONARY
  5
62
102
{ACAD_REACTORS
330
C
102
}
330
C
100
AcDbDictionary
281
     1
  3
Layout1
350
6F
  3
Layout2
350
77
  3
Model
350
73
  0
DICTIONARY
  5
10
102
{ACAD_REACTORS
330
C
102
}
330
C
100
AcDbDictionary
281
     1
  3
ByBlock
350
19
  3
ByLayer
350
11
  3
Global
350
21
  0
DICTIONARY
  5
66
102
{ACAD_REACTORS
330
C
102
}
330
C
100
AcDbDictionary
281
     1
  3
Standard
350
67
  0
DICTIONARY
  5
5F
102
{ACAD_REACTORS
330
C
102
}
330
C
100
AcDbDictionary
281
     1
  3
Standard
350
60
  0
DICTIONARY
  5
61
102
{ACAD_REACTORS
330
C
102
}
330
C
100
AcDbDictionary
281
     1
  0
ACDBDICTIONARYWDFLT
  5
E
102
{ACAD_REACTORS
330
C
102
}
330
C
100
AcDbDictionary
281
     1
  3
Normal
350
F
100
AcDbDictionaryWithDefault
340
F
  0
DICTIONARY
  5
42
102
{ACAD_REACTORS
330
C
102
}
330
C
100
AcDbDictionary
281
     1
  3
A0
350
43
  3
A1
350
44
  3
A2
350
45
  3
A3
350
46
  3
A4
350
47
  3
A5
350
48
  3
A6
350
49
  3
A7
350
4A
  3
A8
350
4B
  3
A9
350
4C
  3
B0
350
4D
  3
B1
350
4E
  3
B2
350
4F
  3
B3
350
50
  3
B4
350
51
  3
B5
350
52
  3
B6
350
53
  0
DICTIONARY
  5
68
102
{ACAD_REACTORS
330
C
102
}
330
C
100
AcDbDictionary
281
     1
  3
Imperial24
350
69
  0
DICTIONARY
  5
64
102
{ACAD_REACTORS
330
C
102
}
330
C
100
AcDbDictionary
281
     1
  3
Standard
350
65
  0
DICTIONARY
  5
29
102
{ACAD_REACTORS
330
C
102
}
330
C
100
AcDbDictionary
281
     1
  3
2dWireframe
350
2F
  3
Basic
350
2E
  3
Brighten
350
35
  3
ColorChange
350
39
  3
Conceptual
350
32
  3
Dim
350
34
  3
EdgeColorOff
350
41
  3
Facepattern
350
38
  3
Flat
350
2A
  3
FlatWithEdges
350
2B
  3
Gouraud
350
2C
  3
GouraudWithEdges
350
2D
  3
Hidden
350
31
  3
JitterOff
350
3F
  3
Linepattern
350
37
  3
OverhangOff
350
40
  3
Realistic
350
33
  3
Shaded
350
3E
  3
Shaded with edges
350
3D
  3
Shades of Gray
350
3A
  3
Sketchy
350
3B
  3
Thicken
350
36
  3
Wireframe
350
30
  3
X-Ray
350
3C
  0
XRECORD
  5
1A9
102
{ACAD_REACTORS
330
C
102
}
330
C
100
AcDbXrecord
280
     1
 90
        1
330
65
  0
DICTIONARY
  5
1A1
102
{ACAD_REACTORS
330
C
102
}
330
C
100
AcDbDictionary
281
     1
  3
CANNOSCALE
350
1A6
  3
CMLEADERSTYLE
350
1A3
  3
CTABLESTYLE
350
1A2
  3
CVIEWDETAILSTYLE
350
1A4
  3
CVIEWSECTIONSTYLE
350
1A5
  0
ACDBDETAILVIEWSTYLE
  5
6B
102
{ACAD_XDICTIONARY
360
1DE
102
}
102
{ACAD_REACTORS
330
6A
102
}
330
6A
100
AcDbModelDocViewStyle
 70
     0
  3
Imperial24
290
     0
100
AcDbDetailViewStyle
 70
     0
 71
     0
 90
        3
 71
     1
340
55
 62
   256
 40
0.24
340
0
 62
   256
 40
0.24
300

 40
0.36
280
     3
 71
     2
340
5D
 90
       25
 62
   256
 71
     3
340
55
 62
   256
 40
0.24
 90
        1
 40
0.75
 90
        1
300
%<\AcVar ViewType \f "%tc1">% %<\AcVar ViewDetailId>%\PSCALE %<\AcVar ViewScale \f "%sn">%
 71
     4
340
5D
 90
       25
 62
   256
340
5D
 90
       25
 62
   256
280
     0
  0
LAYOUT
  5
6F
102
{ACAD_REACTORS
330
62
102
}
330
62
100
AcDbPlotSettings
  1

  2

  4

  6

 40
0.0
 41
0.0
 42
0.0
 43
0.0
 44
0.0
 45
0.0
 46
0.0
 47
0.0
 48
0.0
 49
0.0
140
0.0
141
0.0
142
1.0
143
1.0
 70
   688
 72
     0
 73
     0
 74
     5
  7

 75
    16
147
1.0
 76
     0
 77
     2
 78
   300
148
0.0
149
0.0
100
AcDbLayout
  1
Layout1
 70
     1
 71
     1
 10
0.0
 20
0.0
 11
12.0
 21
9.0
 12
0.0
 22
0.0
 32
0.0
 14
0.0
 24
0.0
 34
0.0
 15
0.0
 25
0.0
 35
0.0
146
0.0
 13
0.0
 23
0.0
 33
0.0
 16
1.0
 26
0.0
 36
0.0
 17
0.0
 27
1.0
 37
0.0
 76
     0
330
6C
  0
LAYOUT
  5
77
102
{ACAD_REACTORS
330
62
102
}
330
62
100
AcDbPlotSettings
  1

  2

  4

  6

 40
0.0
 41
0.0
 42
0.0
 43
0.0
 44
0.0
 45
0.0
 46
0.0
 47
0.0
 48
0.0
 49
0.0
140
0.0
141
0.0
142
1.0
143
1.0
 70
   688
 72
     0
 73
     0
 74
     5
  7

 75
    16
147
1.0
 76
     0
 77
     2
 78
   300
148
0.0
149
0.0
100
AcDbLayout
  1
Layout2
 70
     1
 71
     2
 10
0.0
 20
0.0
 11
12.0
 21
9.0
 12
0.0
 22
0.0
 32
0.0
 14
0.0
 24
0.0
 34
0.0
 15
0.0
 25
0.0
 35
0.0
146
0.0
 13
0.0
 23
0.0
 33
0.0
 16
1.0
 26
0.0
 36
0.0
 17
0.0
 27
1.0
 37
0.0
 76
     0
330
74
  0
LAYOUT
  5
73
102
{ACAD_REACTORS
330
62
102
}
330
62
100
AcDbPlotSettings
  1

  2

  4

  6

 40
0.0
 41
0.0
 42
0.0
 43
0.0
 44
0.0
 45
0.0
 46
0.0
 47
0.0
 48
0.0
 49
0.0
140
0.0
141
0.0
142
1.0
143
1.0
 70
  1712
 72
     0
 73
     0
 74
     0
  7

 75
     0
147
1.0
 76
     0
 77
     2
 78
   300
148
0.0
149
0.0
100
AcDbLayout
  1
Model
 70
     1
 71
     0
 10
0.0
 20
0.0
 11
12.0
 21
9.0
 12
0.0
 22
0.0
 32
0.0
 14
0.0
 24
0.0
 34
0.0
 15
0.0
 25
0.0
 35
0.0
146
0.0
 13
0.0
 23
0.0
 33
0.0
 16
1.0
 26
0.0
 36
0.0
 17
0.0
 27
1.0
 37
0.0
 76
     0
330
70
  0
MATERIAL
  5
19
102
{ACAD_XDICTIONARY
360
1A
102
}
102
{ACAD_REACTORS
330
10
102
}
330
10
100
AcDbMaterial
  1
ByBlock
 72
     0
 43
0.0208333333333333
 43
0.0
 43
0.0
 43
0.0
 43
0.0
 43
0.0208333333333333
 43
0.0
 43
0.0
 43
0.0
 43
0.0
 43
1.0
 43
0.0
 43
0.0
 43
0.0
 43
0.0
 43
1.0
 77
     0
 47
0.0208333333333333
 47
0.0
 47
0.0
 47
0.0
 47
0.0
 47
0.0208333333333333
 47
0.0
 47
0.0
 47
0.0
 47
0.0
 47
1.0
 47
0.0
 47
0.0
 47
0.0
 47
0.0
 47
1.0
171
     0
 49
0.0208333333333333
 49
0.0
 49
0.0
 49
0.0
 49
0.0
 49
0.0208333333333333
 49
0.0
 49
0.0
 49
0.0
 49
0.0
 49
1.0
 49
0.0
 49
0.0
 49
0.0
 49
0.0
 49
1.0
175
     0
142
0.0208333333333333
142
0.0
142
0.0
142
0.0
142
0.0
142
0.0208333333333333
142
0.0
142
0.0
142
0.0
142
0.0
142
1.0
142
0.0
142
0.0
142
0.0
142
0.0
142
1.0
179
     0
144
0.0208333333333333
144
0.0
144
0.0
144
0.0
144
0.0
144
0.0208333333333333
144
0.0
144
0.0
144
0.0
144
0.0
144
1.0
144
0.0
144
0.0
144
0.0
144
0.0
144
1.0
147
0.0208333333333333
147
0.0
147
0.0
147
0.0
147
0.0
147
0.0208333333333333
147
0.0
147
0.0
147
0.0
147
0.0
147
1.0
147
0.0
147
0.0
147
0.0
147
0.0
147
1.0
  0
MATERIAL
  5
11
102
{ACAD_XDICTIONARY
360
12
102
}
102
{ACAD_REACTORS
330
10
102
}
330
10
100
AcDbMaterial
  1
ByLayer
 72
     0
 43
0.0208333333333333
 43
0.0
 43
0.0
 43
0.0
 43
0.0
 43
0.0208333333333333
 43
0.0
 43
0.0
 43
0.0
 43
0.0
 43
1.0
 43
0.0
 43
0.0
 43
0.0
 43
0.0
 43
1.0
 77
     0
 47
0.0208333333333333
 47
0.0
 47
0.0
 47
0.0
 47
0.0
 47
0.0208333333333333
 47
0.0
 47
0.0
 47
0.0
 47
0.0
 47
1.0
 47
0.0
 47
0.0
 47
0.0
 47
0.0
 47
1.0
171
     0
 49
0.0208333333333333
 49
0.0
 49
0.0
 49
0.0
 49
0.0
 49
0.0208333333333333
 49
0.0
 49
0.0
 49
0.0
 49
0.0
 49
1.0
 49
0.0
 49
0.0
 49
0.0
 49
0.0
 49
1.0
175
     0
142
0.0208333333333333
142
0.0
142
0.0
142
0.0
142
0.0
142
0.0208333333333333
142
0.0
142
0.0
142
0.0
142
0.0
142
1.0
142
0.0
142
0.0
142
0.0
142
0.0
142
1.0
179
     0
144
0.0208333333333333
144
0.0
144
0.0
144
0.0
144
0.0
144
0.0208333333333333
144
0.0
144
0.0
144
0.0
144
0.0
144
1.0
144
0.0
144
0.0
144
0.0
144
0.0
144
1.0
147
0.0208333333333333
147
0.0
147
0.0
147
0.0
147
0.0
147
0.0208333333333333
147
0.0
147
0.0
147
0.0
147
0.0
147
1.0
147
0.0
147
0.0
147
0.0
147
0.0
147
1.0
  0
MATERIAL
  5
21
102
{ACAD_XDICTIONARY
360
22
102
}
102
{ACAD_REACTORS
330
10
102
}
330
10
100
AcDbMaterial
  1
Global
 72
     0
 43
0.0208333333333333
 43
0.0
 43
0.0
 43
0.0
 43
0.0
 43
0.0208333333333333
 43
0.0
 43
0.0
 43
0.0
 43
0.0
 43
1.0
 43
0.0
 43
0.0
 43
0.0
 43
0.0
 43
1.0
 77
     0
 47
0.0208333333333333
 47
0.0
 47
0.0
 47
0.0
 47
0.0
 47
0.0208333333333333
 47
0.0
 47
0.0
 47
0.0
 47
0.0
 47
1.0
 47
0.0
 47
0.0
 47
0.0
 47
0.0
 47
1.0
171
     0
 49
0.0208333333333333
 49
0.0
 49
0.0
 49
0.0
 49
0.0
 49
0.0208333333333333
 49
0.0
 49
0.0
 49
0.0
 49
0.0
 49
1.0
 49
0.0
 49
0.0
 49
0.0
 49
0.0
 49
1.0
175
     0
142
0.0208333333333333
142
0.0
142
0.0
142
0.0
142
0.0
142
0.0208333333333333
142
0.0
142
0.0
142
0.0
142
0.0
142
1.0
142
0.0
142
0.0
142
0.0
142
0.0
142
1.0
179
     0
144
0.0208333333333333
144
0.0
144
0.0
144
0.0
144
0.0
144
0.0208333333333333
144
0.0
144
0.0
144
0.0
144
0.0
144
1.0
144
0.0
144
0.0
144
0.0
144
0.0
144
1.0
147
0.0208333333333333
147
0.0
147
0.0
147
0.0
147
0.0
147
0.0208333333333333
147
0.0
147
0.0
147
0.0
147
0.0
147
1.0
147
0.0
147
0.0
147
0.0
147
0.0
147
1.0
  0
MLEADERSTYLE
  5
67
102
{ACAD_XDICTIONARY
360
1DA
102
}
102
{ACAD_REACTORS
330
66
102
}
330
66
100
AcDbMLeaderStyle
179
     2
170
     2
171
     1
172
     0
 90
        2
 40
0.0
 41
0.0
173
     1
 91
-1056964608
340
5B
 92
       -2
290
     1
 42
0.09
291
     1
 43
0.36
  3
Standard
 44
0.18
300

342
55
174
     1
178
     6
175
     1
176
     0
 93
-1056964608
 45
0.18
292
     0
297
     0
 46
0.18
 94
-1056964608
 47
1.0
 49
1.0
140
1.0
293
     1
141
0.0
294
     1
177
     0
142
1.0
295
     0
296
     0
143
0.125
271
     0
272
     9
273
     9
  0
MLINESTYLE
  5
60
102
{ACAD_REACTORS
330
5F
102
}
330
5F
100
AcDbMlineStyle
  2
STANDARD
 70
     0
  3

 62
   256
 51
90.0
 52
90.0
 71
     2
 49
0.5
 62
   256
  6
BYLAYER
 49
-0.5
 62
   256
  6
BYLAYER
  0
ACDBPLACEHOLDER
  5
F
102
{ACAD_REACTORS
330
E
102
}
330
E
  0
SCALE
  5
43
102
{ACAD_REACTORS
330
42
102
}
330
42
100
AcDbScale
 70
     0
300
1:1
140
1.0
141
1.0
290
     1
  0
SCALE
  5
44
102
{ACAD_REACTORS
330
42
102
}
330
42
100
AcDbScale
 70
     0
300
1/128" = 1'-0"
140
0.0078125
141
12.0
290
     0
  0
SCALE
  5
45
102
{ACAD_REACTORS
330
42
102
}
330
42
100
AcDbScale
 70
     0
300
1/64" = 1'-0"
140
0.015625
141
12.0
290
     0
  0
SCALE
  5
46
102
{ACAD_REACTORS
330
42
102
}
330
42
100
AcDbScale
 70
     0
300
1/32" = 1'-0"
140
0.03125
141
12.0
290
     0
  0
SCALE
  5
47
102
{ACAD_REACTORS
330
42
102
}
330
42
100
AcDbScale
 70
     0
300
1/16" = 1'-0"
140
0.0625
141
12.0
290
     0
  0
SCALE
  5
48
102
{ACAD_REACTORS
330
42
102
}
330
42
100
AcDbScale
 70
     0
300
3/32" = 1'-0"
140
0.09375
141
12.0
290
     0
  0
SCALE
  5
49
102
{ACAD_REACTORS
330
42
102
}
330
42
100
AcDbScale
 70
     0
300
1/8" = 1'-0"
140
0.125
141
12.0
290
     0
  0
SCALE
  5
4A
102
{ACAD_REACTORS
330
42
102
}
330
42
100
AcDbScale
 70
     0
300
3/16" = 1'-0"
140
0.1875
141
12.0
290
     0
  0
SCALE
  5
4B
102
{ACAD_REACTORS
330
42
102
}
330
42
100
AcDbScale
 70
     0
300
1/4" = 1'-0"
140
0.25
141
12.0
290
     0
  0
SCALE
  5
4C
102
{ACAD_REACTORS
330
42
102
}
330
42
100
AcDbScale
 70
     0
300
3/8" = 1'-0"
140
0.375
141
12.0
290
     0
  0
SCALE
  5
4D
102
{ACAD_REACTORS
330
42
102
}
330
42
100
AcDbScale
 70
     0
300
1/2" = 1'-0"
140
0.5
141
12.0
290
     0
  0
SCALE
  5
4E
102
{ACAD_REACTORS
330
42
102
}
330
42
100
AcDbScale
 70
     0
300
3/4" = 1'-0"
140
0.75
141
12.0
290
     0
  0
SCALE
  5
4F
102
{ACAD_REACTORS
330
42
102
}
330
42
100
AcDbScale
 70
     0
300
1" = 1'-0"
140
1.0
141
12.0
290
     0
  0
SCALE
  5
50
102
{ACAD_REACTORS
330
42
102
}
330
42
100
AcDbScale
 70
     0
300
1-1/2" = 1'-0"
140
1.5
141
12.0
290
     0
  0
SCALE
  5
51
102
{ACAD_REACTORS
330
42
102
}
330
42
100
AcDbScale
 70
     0
300
3" = 1'-0"
140
3.0
141
12.0
290
     0
  0
SCALE
  5
52
102
{ACAD_REACTORS
330
42
102
}
330
42
100
AcDbScale
 70
     0
300
6" = 1'-0"
140
6.0
141
12.0
290
     0
  0
SCALE
  5
53
102
{ACAD_REACTORS
330
42
102
}
330
42
100
AcDbScale
 70
     0
300
1'-0" = 1'-0"
140
12.0
141
12.0
290
     0
  0
ACDBSECTIONVIEWSTYLE
  5
69
102
{ACAD_XDICTIONARY
360
1DC
102
}
102
{ACAD_REACTORS
330
68
102
}
330
68
100
AcDbModelDocViewStyle
 70
     0
  3
Imperial24
290
     0
100
AcDbSectionViewStyle
 70
     0
 71
     0
 90
       78
 71
     1
340
55
 62
   256
 40
0.24
340
0
340
0
 62
   256
 40
0.24
300
I, O, Q, S, X, Z
 40
0.48
 90
        3
 40
0.18
 90
        1
 71
     2
340
5D
 90
       25
 62
   256
340
5D
 90
       50
 62
   256
 40
0.24
 40
0.0
 40
0.24
 71
     3
340
55
 62
   256
 40
0.24
 90
        1
 40
0.75
 90
        1
300
%<\AcVar ViewType \f "%tc1">% %<\AcVar ViewSectionStartId>%-%<\AcVar ViewSectionEndId>%\PSCALE %<\AcVar ViewScale \f "%sn">%
 71
     4
 62
   256
 62
   257
300
ANSI31
 40
1.0
 90
        0
290
     0
290
     0
 90
        6
 40
0.0
 40
1.570796326794896
 40
0.2617993877991494
 40
1.308996938995747
 40
-0.2617993877991494
 40
1.832595714594046
  0
TABLESTYLE
  5
65
102
{ACAD_XDICTIONARY
360
1A7
102
}
102
{ACAD_REACTORS
330
64
102
}
330
64
100
AcDbTableStyle
280
     0
  3
Standard
 70
     0
 71
     0
 40
0.06
 41
0.06
280
     0
281
     0
  7
Standard
140
0.18
170
     2
 62
     0
 63
     7
283
     0
 90
      512
 91
        0
  1

274
    -2
284
     1
 64
     0
275
    -2
285
     1
 65
     0
276
    -2
286
     1
 66
     0
277
    -2
287
     1
 67
     0
278
    -2
288
     1
 68
     0
279
    -2
289
     1
 69
     0
  7
Standard
140
0.25
170
     5
 62
     0
 63
     7
283
     0
 90
      512
 91
        0
  1

274
    -2
284
     1
 64
     0
275
    -2
285
     1
 65
     0
276
    -2
286
     1
 66
     0
277
    -2
287
     1
 67
     0
278
    -2
288
     1
 68
     0
279
    -2
289
     1
 69
     0
  7
Standard
140
0.18
170
     5
 62
     0
 63
     7
283
     0
 90
      512
 91
        0
  1

274
    -2
284
     1
 64
     0
275
    -2
285
     1
 65
     0
276
    -2
286
     1
 66
     0
277
    -2
287
     1
 67
     0
278
    -2
288
     1
 68
     0
279
    -2
289
     1
 69
     0
  0
VISUALSTYLE
  5
2F
102
{ACAD_XDICTIONARY
360
1B4
102
}
102
{ACAD_REACTORS
330
29
102
}
330
29
100
AcDbVisualStyle
  2
2dWireframe
 70
     4
177
     2
291
     0
 71
     0
176
     1
 72
     2
176
     1
 73
     0
176
     1
 90
        0
176
     1
 40
0.6
176
     1
 41
30.0
176
     1
 63
     7
421
 16777215
176
     1
 74
     1
176
     1
 91
        4
176
     1
 64
     7
176
     1
 65
   257
176
     1
 75
     1
176
     1
175
     1
176
     1
 42
1.0
176
     1
 92
        0
176
     1
 66
   257
176
     1
 43
1.0
176
     1
 76
     1
176
     1
 77
     6
176
     1
 78
     2
176
     1
 67
     7
176
     1
 79
     5
176
     1
170
     0
176
     1
171
     0
176
     1
290
     0
176
     1
 93
        1
176
     1
 44
0.0
176
     1
173
     0
176
     1
1001
ACAD
1000
AcDbSavedByObjectVersion
1070
     0
  0
VISUALSTYLE
  5
2E
102
{ACAD_XDICTIONARY
360
1B2
102
}
102
{ACAD_REACTORS
330
29
102
}
330
29
100
AcDbVisualStyle
  2
Basic
 70
     7
177
     2
291
     1
 71
     1
176
     1
 72
     0
176
     1
 73
     1
176
     1
 90
        0
176
     1
 40
0.6
176
     1
 41
30.0
176
     1
 63
     7
421
 16777215
176
     1
 74
     0
176
     1
 91
        4
176
     1
 64
     7
176
     1
 65
   257
176
     1
 75
     1
176
     1
175
     1
176
     1
 42
1.0
176
     1
 92
        8
176
     1
 66
     7
176
     1
 43
1.0
176
     1
 76
     1
176
     1
 77
     6
176
     1
 78
     2
176
     1
 67
     7
176
     1
 79
     5
176
     1
170
     0
176
     1
171
     0
176
     1
290
     0
176
     1
 93
        1
176
     1
 44
0.0
176
     1
173
     0
176
     1
1001
ACAD
1000
AcDbSavedByObjectVersion
1070
     0
  0
VISUALSTYLE
  5
35
102
{ACAD_XDICTIONARY
360
1C0
102
}
102
{ACAD_REACTORS
330
29
102
}
330
29
100
AcDbVisualStyle
  2
Brighten
 70
    12
177
     2
291
     1
 71
     2
176
     1
 72
     2
176
     1
 73
     0
176
     1
 90
        0
176
     1
 40
0.6
176
     1
 41
30.0
176
     1
 63
     7
421
 16777215
176
     1
 74
     1
176
     1
 91
        4
176
     1
 64
     7
176
     1
 65
   257
176
     1
 75
     1
176
     1
175
     1
176
     1
 42
1.0
176
     1
 92
        8
176
     1
 66
     7
176
     1
 43
1.0
176
     1
 76
     1
176
     1
 77
     6
176
     1
 78
     2
176
     1
 67
     7
176
     1
 79
     5
176
     1
170
     0
176
     1
171
     0
176
     1
290
     0
176
     1
 93
        1
176
     1
 44
50.0
176
     1
173
     0
176
     1
1001
ACAD
1000
AcDbSavedByObjectVersion
1070
     0
  0
VISUALSTYLE
  5
39
102
{ACAD_XDICTIONARY
360
1C8
102
}
102
{ACAD_REACTORS
330
29
102
}
330
29
100
AcDbVisualStyle
  2
ColorChange
 70
    16
177
     2
291
     1
 71
     2
176
     1
 72
     2
176
     1
 73
     3
176
     1
 90
        0
176
     1
 40
0.6
176
     1
 41
30.0
176
     1
 63
     8
421
  8421504
176
     1
 74
     1
176
     1
 91
        4
176
     1
 64
     7
176
     1
 65
   257
176
     1
 75
     1
176
     1
175
     1
176
     1
 42
1.0
176
     1
 92
        8
176
     1
 66
     8
424
  8421504
176
     1
 43
1.0
176
     1
 76
     1
176
     1
 77
     6
176
     1
 78
     2
176
     1
 67
     7
176
     1
 79
     5
176
     1
170
     0
176
     1
171
     0
176
     1
290
     0
176
     1
 93
        1
176
     1
 44
0.0
176
     1
173
     0
176
     1
1001
ACAD
1000
AcDbSavedByObjectVersion
1070
     0
  0
VISUALSTYLE
  5
32
102
{ACAD_XDICTIONARY
360
1BA
102
}
102
{ACAD_REACTORS
330
29
102
}
330
29
100
AcDbVisualStyle
  2
Conceptual
 70
     9
177
     2
291
     0
 71
     3
176
     1
 72
     2
176
     1
 73
     0
176
     1
 90
        0
176
     1
 40
0.6
176
     1
 41
30.0
176
     1
 63
     7
421
 16777215
176
     1
 74
     2
176
     1
 91
        2
176
     1
 64
     7
176
     1
 65
   257
176
     1
 75
     1
176
     1
175
     1
176
     1
 42
179.0
176
     1
 92
        8
176
     1
 66
     7
176
     1
 43
1.0
176
     1
 76
     1
176
     1
 77
     6
176
     1
 78
     2
176
     1
 67
     7
176
     1
 79
     3
176
     1
170
     0
176
     1
171
     0
176
     1
290
     0
176
     1
 93
        1
176
     1
 44
0.0
176
     1
173
     0
176
     1
1001
ACAD
1000
AcDbSavedByObjectVersion
1070
     0
  0
VISUALSTYLE
  5
34
102
{ACAD_XDICTIONARY
360
1BE
102
}
102
{ACAD_REACTORS
330
29
102
}
330
29
100
AcDbVisualStyle
  2
Dim
 70
    11
177
     2
291
     1
 71
     2
176
     1
 72
     2
176
     1
 73
     0
176
     1
 90
        0
176
     1
 40
0.6
176
     1
 41
30.0
176
     1
 63
     7
421
 16777215
176
     1
 74
     1
176
     1
 91
        4
176
     1
 64
     7
176
     1
 65
   257
176
     1
 75
     1
176
     1
175
     1
176
     1
 42
1.0
176
     1
 92
        8
176
     1
 66
     7
176
     1
 43
1.0
176
     1
 76
     1
176
     1
 77
     6
176
     1
 78
     2
176
     1
 67
     7
176
     1
 79
     5
176
     1
170
     0
176
     1
171
     0
176
     1
290
     0
176
     1
 93
        1
176
     1
 44
-50.0
176
     1
173
     0
176
     1
1001
ACAD
1000
AcDbSavedByObjectVersion
1070
     0
  0
VISUALSTYLE
  5
41
102
{ACAD_XDICTIONARY
360
1D8
102
}
102
{ACAD_REACTORS
330
29
102
}
330
29
100
AcDbVisualStyle
  2
EdgeColorOff
 70
    22
177
     2
291
     1
 71
     2
176
     0
 72
     2
176
     0
 73
     0
176
     0
 90
        0
176
     0
 40
0.6
176
     0
 41
30.0
176
     0
 63
     7
421
 16777215
176
     0
 74
     1
176
     0
 91
        4
176
     0
 64
     7
176
     0
 65
   257
176
     0
 75
     1
176
     0
175
     1
176
     0
 42
1.0
176
     0
 92
        8
176
     2
 66
     7
176
     0
 43
1.0
176
     0
 76
     1
176
     0
 77
     6
176
     0
 78
     2
176
     0
 67
     7
176
     0
 79
     5
176
     0
170
     0
176
     0
171
     0
176
     0
290
     0
176
     0
 93
        1
176
     0
 44
0.0
176
     0
173
     0
176
     0
1001
ACAD
1000
AcDbSavedByObjectVersion
1070
     0
  0
VISUALSTYLE
  5
38
102
{ACAD_XDICTIONARY
360
1C6
102
}
102
{ACAD_REACTORS
330
29
102
}
330
29
100
AcDbVisualStyle
  2
Facepattern
 70
    15
177
     2
291
     1
 71
     2
176
     1
 72
     2
176
     1
 73
     0
176
     1
 90
        0
176
     1
 40
0.6
176
     1
 41
30.0
176
     1
 63
     7
421
 16777215
176
     1
 74
     1
176
     1
 91
        4
176
     1
 64
     7
176
     1
 65
   257
176
     1
 75
     1
176
     1
175
     1
176
     1
 42
1.0
176
     1
 92
        8
176
     1
 66
     7
176
     1
 43
1.0
176
     1
 76
     1
176
     1
 77
     6
176
     1
 78
     2
176
     1
 67
     7
176
     1
 79
     5
176
     1
170
     0
176
     1
171
     0
176
     1
290
     0
176
     1
 93
        1
176
     1
 44
0.0
176
     1
173
     0
176
     1
1001
ACAD
1000
AcDbSavedByObjectVersion
1070
     0
  0
VISUALSTYLE
  5
2A
102
{ACAD_XDICTIONARY
360
1AA
102
}
102
{ACAD_REACTORS
330
29
102
}
330
29
100
AcDbVisualStyle
  2
Flat
 70
     0
177
     2
291
     1
 71
     2
176
     1
 72
     1
176
     1
 73
     1
176
     1
 90
        2
176
     1
 40
0.6
176
     1
 41
30.0
176
     1
 63
     7
421
 16777215
176
     1
 74
     0
176
     1
 91
        0
176
     1
 64
     7
176
     1
 65
   257
176
     1
 75
     1
176
     1
175
     1
176
     1
 42
1.0
176
     1
 92
        8
176
     1
 66
     7
176
     1
 43
1.0
176
     1
 76
     1
176
     1
 77
     6
176
     1
 78
     2
176
     1
 67
     7
176
     1
 79
     5
176
     1
170
     0
176
     1
171
     0
176
     1
290
     0
176
     1
 93
       13
176
     1
 44
0.0
176
     1
173
     0
176
     1
1001
ACAD
1000
AcDbSavedByObjectVersion
1070
     0
  0
VISUALSTYLE
  5
2B
102
{ACAD_XDICTIONARY
360
1AC
102
}
102
{ACAD_REACTORS
330
29
102
}
330
29
100
AcDbVisualStyle
  2
FlatWithEdges
 70
     1
177
     2
291
     1
 71
     2
176
     1
 72
     1
176
     1
 73
     1
176
     1
 90
        2
176
     1
 40
0.6
176
     1
 41
30.0
176
     1
 63
     7
421
 16777215
176
     1
 74
     1
176
     1
 91
        0
176
     1
 64
     7
176
     1
 65
   257
176
     1
 75
     1
176
     1
175
     1
176
     1
 42
1.0
176
     1
 92
        0
176
     1
 66
   257
176
     1
 43
1.0
176
     1
 76
     1
176
     1
 77
     6
176
     1
 78
     2
176
     1
 67
     7
176
     1
 79
     5
176
     1
170
     0
176
     1
171
     0
176
     1
290
     0
176
     1
 93
       13
176
     1
 44
0.0
176
     1
173
     0
176
     1
1001
ACAD
1000
AcDbSavedByObjectVersion
1070
     0
  0
VISUALSTYLE
  5
2C
102
{ACAD_XDICTIONARY
360
1AE
102
}
102
{ACAD_REACTORS
330
29
102
}
330
29
100
AcDbVisualStyle
  2
Gouraud
 70
     2
177
     2
291
     1
 71
     2
176
     1
 72
     2
176
     1
 73
     1
176
     1
 90
        2
176
     1
 40
0.6
176
     1
 41
30.0
176
     1
 63
     7
421
 16777215
176
     1
 74
     0
176
     1
 91
        0
176
     1
 64
     7
176
     1
 65
   257
176
     1
 75
     1
176
     1
175
     1
176
     1
 42
1.0
176
     1
 92
        0
176
     1
 66
     7
176
     1
 43
1.0
176
     1
 76
     1
176
     1
 77
     6
176
     1
 78
     2
176
     1
 67
     7
176
     1
 79
     5
176
     1
170
     0
176
     1
171
     0
176
     1
290
     0
176
     1
 93
       13
176
     1
 44
0.0
176
     1
173
     0
176
     1
1001
ACAD
1000
AcDbSavedByObjectVersion
1070
     0
  0
VISUALSTYLE
  5
2D
102
{ACAD_XDICTIONARY
360
1B0
102
}
102
{ACAD_REACTORS
330
29
102
}
330
29
100
AcDbVisualStyle
  2
GouraudWithEdges
 70
     3
177
     2
291
     1
 71
     2
176
     1
 72
     2
176
     1
 73
     1
176
     1
 90
        2
176
     1
 40
0.6
176
     1
 41
30.0
176
     1
 63
     7
421
 16777215
176
     1
 74
     1
176
     1
 91
        0
176
     1
 64
     7
176
     1
 65
   257
176
     1
 75
     1
176
     1
175
     1
176
     1
 42
1.0
176
     1
 92
        0
176
     1
 66
   257
176
     1
 43
1.0
176
     1
 76
     1
176
     1
 77
     6
176
     1
 78
     2
176
     1
 67
     7
176
     1
 79
     5
176
     1
170
     0
176
     1
171
     0
176
     1
290
     0
176
     1
 93
       13
176
     1
 44
0.0
176
     1
173
     0
176
     1
1001
ACAD
1000
AcDbSavedByObjectVersion
1070
     0
  0
VISUALSTYLE
  5
31
102
{ACAD_XDICTIONARY
360
1B8
102
}
102
{ACAD_REACTORS
330
29
102
}
330
29
100
AcDbVisualStyle
  2
Hidden
 70
     6
177
     2
291
     0
 71
     1
176
     1
 72
     2
176
     1
 73
     2
176
     1
 90
        0
176
     1
 40
0.6
176
     1
 41
30.0
176
     1
 63
     7
421
 16777215
176
     1
 74
     2
176
     1
 91
        2
176
     1
 64
     7
176
     1
 65
   257
176
     1
 75
     2
176
     1
175
     1
176
     1
 42
40.0
176
     1
 92
        0
176
     1
 66
   257
176
     1
 43
1.0
176
     1
 76
     1
176
     1
 77
     6
176
     1
 78
     2
176
     1
 67
     7
176
     1
 79
     3
176
     1
170
     0
176
     1
171
     0
176
     1
290
     0
176
     1
 93
        1
176
     1
 44
0.0
176
     1
173
     0
176
     1
1001
ACAD
1000
AcDbSavedByObjectVersion
1070
     0
  0
VISUALSTYLE
  5
3F
102
{ACAD_XDICTIONARY
360
1D4
102
}
102
{ACAD_REACTORS
330
29
102
}
330
29
100
AcDbVisualStyle
  2
JitterOff
 70
    20
177
     2
291
     1
 71
     2
176
     0
 72
     2
176
     0
 73
     0
176
     0
 90
        0
176
     0
 40
0.6
176
     0
 41
30.0
176
     0
 63
     7
421
 16777215
176
     0
 74
     1
176
     0
 91
        4
176
     0
 64
     7
176
     0
 65
   257
176
     0
 75
     1
176
     0
175
     1
176
     0
 42
1.0
176
     0
 92
       10
176
     2
 66
     7
176
     0
 43
1.0
176
     0
 76
     1
176
     0
 77
     6
176
     0
 78
     2
176
     0
 67
     7
176
     0
 79
     5
176
     0
170
     0
176
     0
171
     0
176
     0
290
     0
176
     0
 93
        1
176
     0
 44
0.0
176
     0
173
     0
176
     0
1001
ACAD
1000
AcDbSavedByObjectVersion
1070
     0
  0
VISUALSTYLE
  5
37
102
{ACAD_XDICTIONARY
360
1C4
102
}
102
{ACAD_REACTORS
330
29
102
}
330
29
100
AcDbVisualStyle
  2
Linepattern
 70
    14
177
     2
291
     1
 71
     2
176
     1
 72
     2
176
     1
 73
     0
176
     1
 90
        0
176
     1
 40
0.6
176
     1
 41
30.0
176
     1
 63
     7
421
 16777215
176
     1
 74
     1
176
     1
 91
        4
176
     1
 64
     7
176
     1
 65
   257
176
     1
 75
     7
176
     1
175
     7
176
     1
 42
1.0
176
     1
 92
        8
176
     1
 66
     7
176
     1
 43
1.0
176
     1
 76
     1
176
     1
 77
     6
176
     1
 78
     2
176
     1
 67
     7
176
     1
 79
     5
176
     1
170
     0
176
     1
171
     0
176
     1
290
     0
176
     1
 93
        1
176
     1
 44
0.0
176
     1
173
     0
176
     1
1001
ACAD
1000
AcDbSavedByObjectVersion
1070
     0
  0
VISUALSTYLE
  5
40
102
{ACAD_XDICTIONARY
360
1D6
102
}
102
{ACAD_REACTORS
330
29
102
}
330
29
100
AcDbVisualStyle
  2
OverhangOff
 70
    21
177
     2
291
     1
 71
     2
176
     0
 72
     2
176
     0
 73
     0
176
     0
 90
        0
176
     0
 40
0.6
176
     0
 41
30.0
176
     0
 63
     7
421
 16777215
176
     0
 74
     1
176
     0
 91
        4
176
     0
 64
     7
176
     0
 65
   257
176
     0
 75
     1
176
     0
175
     1
176
     0
 42
1.0
176
     0
 92
        9
176
     2
 66
     7
176
     0
 43
1.0
176
     0
 76
     1
176
     0
 77
     6
176
     0
 78
     2
176
     0
 67
     7
176
     0
 79
     5
176
     0
170
     0
176
     0
171
     0
176
     0
290
     0
176
     0
 93
        1
176
     0
 44
0.0
176
     0
173
     0
176
     0
1001
ACAD
1000
AcDbSavedByObjectVersion
1070
     0
  0
VISUALSTYLE
  5
33
102
{ACAD_XDICTIONARY
360
1BC
102
}
102
{ACAD_REACTORS
330
29
102
}
330
29
100
AcDbVisualStyle
  2
Realistic
 70
     8
177
     2
291
     0
 71
     2
176
     1
 72
     3
176
     1
 73
     0
176
     1
 90
        2
176
     1
 40
0.6
176
     1
 41
30.0
176
     1
 63
     7
421
 16777215
176
     1
 74
     0
176
     1
 91
        0
176
     1
 64
     7
176
     1
 65
   257
176
     1
 75
     1
176
     1
175
     1
176
     1
 42
1.0
176
     1
 92
        8
176
     1
 66
   257
176
     1
 43
1.0
176
     1
 76
     1
176
     1
 77
     6
176
     1
 78
     2
176
     1
 67
     7
176
     1
 79
     3
176
     1
170
     0
176
     1
171
     0
176
     1
290
     0
176
     1
 93
       13
176
     1
 44
0.0
176
     1
173
     0
176
     1
1001
ACAD
1000
AcDbSavedByObjectVersion
1070
     0
  0
VISUALSTYLE
  5
3E
102
{ACAD_XDICTIONARY
360
1D2
102
}
102
{ACAD_REACTORS
330
29
102
}
330
29
100
AcDbVisualStyle
  2
Shaded
 70
    27
177
     2
291
     0
 71
     2
176
     1
 72
     2
176
     1
 73
     1
176
     1
 90
        2
176
     1
 40
0.6
176
     1
 41
30.0
176
     1
 63
     7
421
 16777215
176
     1
 74
     0
176
     1
 91
        4
176
     1
 64
     7
176
     1
 65
   257
176
     1
 75
     1
176
     1
175
     1
176
     1
 42
1.0
176
     1
 92
        8
176
     1
 66
   257
176
     1
 43
1.0
176
     1
 76
     1
176
     1
 77
     6
176
     1
 78
     2
176
     1
 67
     8
425
  7895160
176
     1
 79
     3
176
     1
170
     0
176
     1
171
     0
176
     1
290
     0
176
     1
 93
        5
176
     1
 44
0.0
176
     1
173
     0
176
     1
1001
ACAD
1000
AcDbSavedByObjectVersion
1070
     0
  0
VISUALSTYLE
  5
3D
102
{ACAD_XDICTIONARY
360
1D0
102
}
102
{ACAD_REACTORS
330
29
102
}
330
29
100
AcDbVisualStyle
  2
Shaded with edges
 70
    26
177
     2
291
     0
 71
     2
176
     1
 72
     2
176
     1
 73
     1
176
     1
 90
        2
176
     1
 40
0.6
176
     1
 41
30.0
176
     1
 63
     7
421
 16777215
176
     1
 74
     1
176
     1
 91
        2
176
     1
 64
     7
176
     1
 65
   257
176
     1
 75
     2
176
     1
175
     1
176
     1
 42
1.0
176
     1
 92
        8
176
     1
 66
   257
176
     1
 43
1.0
176
     1
 76
     1
176
     1
 77
     6
176
     1
 78
     2
176
     1
 67
     7
176
     1
 79
     3
176
     1
170
     0
176
     1
171
     0
176
     1
290
     0
176
     1
 93
        5
176
     1
 44
0.0
176
     1
173
     0
176
     1
1001
ACAD
1000
AcDbSavedByObjectVersion
1070
     0
  0
VISUALSTYLE
  5
3A
102
{ACAD_XDICTIONARY
360
1CA
102
}
102
{ACAD_REACTORS
330
29
102
}
330
29
100
AcDbVisualStyle
  2
Shades of Gray
 70
    23
177
     2
291
     0
 71
     2
176
     1
 72
     2
176
     1
 73
     3
176
     1
 90
        0
176
     1
 40
0.6
176
     1
 41
30.0
176
     1
 63
     7
421
 16777215
176
     1
 74
     2
176
     1
 91
        2
176
     1
 64
     7
176
     1
 65
     7
176
     1
 75
     1
176
     1
175
     1
176
     1
 42
40.0
176
     1
 92
        8
176
     1
 66
     7
176
     1
 43
1.0
176
     1
 76
     1
176
     1
 77
     6
176
     1
 78
     2
176
     1
 67
     7
176
     1
 79
     3
176
     1
170
     0
176
     1
171
     0
176
     1
290
     0
176
     1
 93
        1
176
     1
 44
0.0
176
     1
173
     0
176
     1
1001
ACAD
1000
AcDbSavedByObjectVersion
1070
     0
  0
VISUALSTYLE
  5
3B
102
{ACAD_XDICTIONARY
360
1CC
102
}
102
{ACAD_REACTORS
330
29
102
}
330
29
100
AcDbVisualStyle
  2
Sketchy
 70
    24
177
     2
291
     0
 71
     1
176
     1
 72
     2
176
     1
 73
     2
176
     1
 90
        0
176
     1
 40
0.6
176
     1
 41
30.0
176
     1
 63
     7
421
 16777215
176
     1
 74
     2
176
     1
 91
        2
176
     1
 64
     7
176
     1
 65
     7
176
     1
 75
     1
176
     1
175
     1
176
     1
 42
40.0
176
     1
 92
       11
176
     1
 66
     7
176
     1
 43
1.0
176
     1
 76
     1
176
     1
 77
     6
176
     1
 78
     2
176
     1
 67
     7
176
     1
 79
     6
176
     1
170
     0
176
     1
171
     0
176
     1
290
     0
176
     1
 93
        1
176
     1
 44
0.0
176
     1
173
     0
176
     1
1001
ACAD
1000
AcDbSavedByObjectVersion
1070
     0
  0
VISUALSTYLE
  5
36
102
{ACAD_XDICTIONARY
360
1C2
102
}
102
{ACAD_REACTORS
330
29
102
}
330
29
100
AcDbVisualStyle
  2
Thicken
 70
    13
177
     2
291
     1
 71
     2
176
     1
 72
     2
176
     1
 73
     0
176
     1
 90
        0
176
     1
 40
0.6
176
     1
 41
30.0
176
     1
 63
     7
421
 16777215
176
     1
 74
     1
176
     1
 91
        4
176
     1
 64
     7
176
     1
 65
   257
176
     1
 75
     1
176
     1
175
     1
176
     1
 42
1.0
176
     1
 92
       12
176
     1
 66
     7
176
     1
 43
1.0
176
     1
 76
     1
176
     1
 77
     6
176
     1
 78
     2
176
     1
 67
     7
176
     1
 79
     5
176
     1
170
     0
176
     1
171
     0
176
     1
290
     0
176
     1
 93
        1
176
     1
 44
0.0
176
     1
173
     0
176
     1
1001
ACAD
1000
AcDbSavedByObjectVersion
1070
     0
  0
VISUALSTYLE
  5
30
102
{ACAD_XDICTIONARY
360
1B6
102
}
102
{ACAD_REACTORS
330
29
102
}
330
29
100
AcDbVisualStyle
  2
Wireframe
 70
     5
177
     2
291
     0
 71
     0
176
     1
 72
     2
176
     1
 73
     0
176
     1
 90
        0
176
     1
 40
0.6
176
     1
 41
30.0
176
     1
 63
     7
421
 16777215
176
     1
 74
     1
176
     1
 91
        4
176
     1
 64
     7
176
     1
 65
   257
176
     1
 75
     1
176
     1
175
     1
176
     1
 42
1.0
176
     1
 92
        0
176
     1
 66
   257
176
     1
 43
1.0
176
     1
 76
     1
176
     1
 77
     6
176
     1
 78
     2
176
     1
 67
     7
176
     1
 79
     3
176
     1
170
     0
176
     1
171
     0
176
     1
290
     0
176
     1
 93
        1
176
     1
 44
0.0
176
     1
173
     0
176
     1
1001
ACAD
1000
AcDbSavedByObjectVersion
1070
     0
  0
VISUALSTYLE
  5
3C
102
{ACAD_XDICTIONARY
360
1CE
102
}
102
{ACAD_REACTORS
330
29
102
}
330
29
100
AcDbVisualStyle
  2
X-Ray
 70
    25
177
     2
291
     0
 71
     2
176
     1
 72
     2
176
     1
 73
     1
176
     1
 90
        1
176
     1
 40
0.5
176
     1
 41
30.0
176
     1
 63
     7
421
 16777215
176
     1
 74
     1
176
     1
 91
        0
176
     1
 64
     7
176
     1
 65
   257
176
     1
 75
     1
176
     1
175
     1
176
     1
 42
1.0
176
     1
 92
        8
176
     1
 66
     7
176
     1
 43
1.0
176
     1
 76
     1
176
     1
 77
     6
176
     1
 78
     2
176
     1
 67
     7
176
     1
 79
     3
176
     1
170
     0
176
     1
171
     0
176
     1
290
     0
176
     1
 93
       13
176
     1
 44
0.0
176
     1
173
     0
176
     1
1001
ACAD
1000
AcDbSavedByObjectVersion
1070
     0
  0
DICTIONARYVAR
  5
1A6
102
{ACAD_REACTORS
330
1A1
102
}
330
1A1
100
DictionaryVariables
280
     0
  1
1:1
  0
DICTIONARYVAR
  5
1A3
102
{ACAD_REACTORS
330
1A1
102
}
330
1A1
100
DictionaryVariables
280
     0
  1
STANDARD
  0
DICTIONARYVAR
  5
1A2
102
{ACAD_REACTORS
330
1A1
102
}
330
1A1
100
DictionaryVariables
280
     0
  1
STANDARD
  0
DICTIONARYVAR
  5
1A4
102
{ACAD_REACTORS
330
1A1
102
}
330
1A1
100
DictionaryVariables
280
     0
  1
Imperial24
  0
DICTIONARYVAR
  5
1A5
102
{ACAD_REACTORS
330
1A1
102
}
330
1A1
100
DictionaryVariables
280
     0
  1
Imperial24
  0
DICTIONARY
  5
1DE
330
6B
100
AcDbDictionary
280
     1
281
     1
  3
ACAD_XREC_ROUNDTRIP
360
1DF
  0
DICTIONARY
  5
1A
330
19
100
AcDbDictionary
280
     1
281
     1
  3
BUMPTILE
360
1C
  3
DIFFUSETILE
360
1B
  3
OPACITYTILE
360
1F
  3
REFLECTIONTILE
360
1E
  3
REFRACTIONTILE
360
20
  3
SPECULARTILE
360
1D
  0
DICTIONARY
  5
12
330
11
100
AcDbDictionary
280
     1
281
     1
  3
BUMPTILE
360
14
  3
DIFFUSETILE
360
13
  3
OPACITYTILE
360
17
  3
REFLECTIONTILE
360
16
  3
REFRACTIONTILE
360
18
  3
SPECULARTILE
360
15
  0
DICTIONARY
  5
22
330
21
100
AcDbDictionary
280
     1
281
     1
  3
BUMPTILE
360
24
  3
DIFFUSETILE
360
23
  3
OPACITYTILE
360
27
  3
REFLECTIONTILE
360
26
  3
REFRACTIONTILE
360
28
  3
SPECULARTILE
360
25
  0
DICTIONARY
  5
1DA
330
67
100
AcDbDictionary
280
     1
281
     1
  3
ACAD_XREC_ROUNDTRIP
360
1DB
  0
DICTIONARY
  5
1DC
330
69
100
AcDbDictionary
280
     1
281
     1
  3
ACAD_XREC_ROUNDTRIP
360
1DD
  0
DICTIONARY
  5
1A7
330
65
100
AcDbDictionary
280
     1
281
     1
  3
ACAD_ROUNDTRIP_2008_TABLESTYLE_CELLSTYLEMAP
360
1A8
  0
DICTIONARY
  5
1B4
330
2F
100
AcDbDictionary
280
     1
281
     1
  3
ACAD_XREC_ROUNDTRIP
360
1B5
  0
DICTIONARY
  5
1B2
330
2E
100
AcDbDictionary
280
     1
281
     1
  3
ACAD_XREC_ROUNDTRIP
360
1B3
  0
DICTIONARY
  5
1C0
330
35
100
AcDbDictionary
280
     1
281
     1
  3
ACAD_XREC_ROUNDTRIP
360
1C1
  0
DICTIONARY
  5
1C8
330
39
100
AcDbDictionary
280
     1
281
     1
  3
ACAD_XREC_ROUNDTRIP
360
1C9
  0
DICTIONARY
  5
1BA
330
32
100
AcDbDictionary
280
     1
281
     1
  3
ACAD_XREC_ROUNDTRIP
360
1BB
  0
DICTIONARY
  5
1BE
330
34
100
AcDbDictionary
280
     1
281
     1
  3
ACAD_XREC_ROUNDTRIP
360
1BF
  0
DICTIONARY
  5
1D8
330
41
100
AcDbDictionary
280
     1
281
     1
  3
ACAD_XREC_ROUNDTRIP
360
1D9
  0
DICTIONARY
  5
1C6
330
38
100
AcDbDictionary
280
     1
281
     1
  3
ACAD_XREC_ROUNDTRIP
360
1C7
  0
DICTIONARY
  5
1AA
330
2A
100
AcDbDictionary
280
     1
281
     1
  3
ACAD_XREC_ROUNDTRIP
360
1AB
  0
DICTIONARY
  5
1AC
330
2B
100
AcDbDictionary
280
     1
281
     1
  3
ACAD_XREC_ROUNDTRIP
360
1AD
  0
DICTIONARY
  5
1AE
330
2C
100
AcDbDictionary
280
     1
281
     1
  3
ACAD_XREC_ROUNDTRIP
360
1AF
  0
DICTIONARY
  5
1B0
330
2D
100
AcDbDictionary
280
     1
281
     1
  3
ACAD_XREC_ROUNDTRIP
360
1B1
  0
DICTIONARY
  5
1B8
330
31
100
AcDbDictionary
280
     1
281
     1
  3
ACAD_XREC_ROUNDTRIP
360
1B9
  0
DICTIONARY
  5
1D4
330
3F
100
AcDbDictionary
280
     1
281
     1
  3
ACAD_XREC_ROUNDTRIP
360
1D5
  0
DICTIONARY
  5
1C4
330
37
100
AcDbDictionary
280
     1
281
     1
  3
ACAD_XREC_ROUNDTRIP
360
1C5
  0
DICTIONARY
  5
1D6
330
40
100
AcDbDictionary
280
     1
281
     1
  3
ACAD_XREC_ROUNDTRIP
360
1D7
  0
DICTIONARY
  5
1BC
330
33
100
AcDbDictionary
280
     1
281
     1
  3
ACAD_XREC_ROUNDTRIP
360
1BD
  0
DICTIONARY
  5
1D2
330
3E
100
AcDbDictionary
280
     1
281
     1
  3
ACAD_XREC_ROUNDTRIP
360
1D3
  0
DICTIONARY
  5
1D0
330
3D
100
AcDbDictionary
280
     1
281
     1
  3
ACAD_XREC_ROUNDTRIP
360
1D1
  0
DICTIONARY
  5
1CA
330
3A
100
AcDbDictionary
280
     1
281
     1
  3
ACAD_XREC_ROUNDTRIP
360
1CB
  0
DICTIONARY
  5
1CC
330
3B
100
AcDbDictionary
280
     1
281
     1
  3
ACAD_XREC_ROUNDTRIP
360
1CD
  0
DICTIONARY
  5
1C2
330
36
100
AcDbDictionary
280
     1
281
     1
  3
ACAD_XREC_ROUNDTRIP
360
1C3
  0
DICTIONARY
  5
1B6
330
30
100
AcDbDictionary
280
     1
281
     1
  3
ACAD_XREC_ROUNDTRIP
360
1B7
  0
DICTIONARY
  5
1CE
330
3C
100
AcDbDictionary
280
     1
281
     1
  3
ACAD_XREC_ROUNDTRIP
360
1CF
  0
XRECORD
  5
1DF
102
{ACAD_REACTORS
330
1DE
102
}
330
1DE
100
AcDbXrecord
280
     1
102
DISPLAYNAME
  1
Imperial24
102
FLAGS
 90
        0
  0
XRECORD
  5
1C
102
{ACAD_REACTORS
330
1A
102
}
330
1A
100
AcDbXrecord
280
     1
270
     1
271
     1
  0
XRECORD
  5
1B
102
{ACAD_REACTORS
330
1A
102
}
330
1A
100
AcDbXrecord
280
     1
270
     1
271
     1
  0
XRECORD
  5
1F
102
{ACAD_REACTORS
330
1A
102
}
330
1A
100
AcDbXrecord
280
     1
270
     1
271
     1
  0
XRECORD
  5
1E
102
{ACAD_REACTORS
330
1A
102
}
330
1A
100
AcDbXrecord
280
     1
270
     1
271
     1
  0
XRECORD
  5
20
102
{ACAD_REACTORS
330
1A
102
}
330
1A
100
AcDbXrecord
280
     1
270
     1
271
     1
  0
XRECORD
  5
1D
102
{ACAD_REACTORS
330
1A
102
}
330
1A
100
AcDbXrecord
280
     1
270
     1
271
     1
  0
XRECORD
  5
14
102
{ACAD_REACTORS
330
12
102
}
330
12
100
AcDbXrecord
280
     1
270
     1
271
     1
  0
XRECORD
  5
13
102
{ACAD_REACTORS
330
12
102
}
330
12
100
AcDbXrecord
280
     1
270
     1
271
     1
  0
XRECORD
  5
17
102
{ACAD_REACTORS
330
12
102
}
330
12
100
AcDbXrecord
280
     1
270
     1
271
     1
  0
XRECORD
  5
16
102
{ACAD_REACTORS
330
12
102
}
330
12
100
AcDbXrecord
280
     1
270
     1
271
     1
  0
XRECORD
  5
18
102
{ACAD_REACTORS
330
12
102
}
330
12
100
AcDbXrecord
280
     1
270
     1
271
     1
  0
XRECORD
  5
15
102
{ACAD_REACTORS
330
12
102
}
330
12
100
AcDbXrecord
280
     1
270
     1
271
     1
  0
XRECORD
  5
24
102
{ACAD_REACTORS
330
22
102
}
330
22
100
AcDbXrecord
280
     1
270
     1
271
     1
  0
XRECORD
  5
23
102
{ACAD_REACTORS
330
22
102
}
330
22
100
AcDbXrecord
280
     1
270
     1
271
     1
  0
XRECORD
  5
27
102
{ACAD_REACTORS
330
22
102
}
330
22
100
AcDbXrecord
280
     1
270
     1
271
     1
  0
XRECORD
  5
26
102
{ACAD_REACTORS
330
22
102
}
330
22
100
AcDbXrecord
280
     1
270
     1
271
     1
  0
XRECORD
  5
28
102
{ACAD_REACTORS
330
22
102
}
330
22
100
AcDbXrecord
280
     1
270
     1
271
     1
  0
XRECORD
  5
25
102
{ACAD_REACTORS
330
22
102
}
330
22
100
AcDbXrecord
280
     1
270
     1
271
     1
  0
XRECORD
  5
1DB
102
{ACAD_REACTORS
330
1DA
102
}
330
1DA
100
AcDbXrecord
280
     1
102
ACAD_ROUNDTRIP_2012_MLEADER_STYLE
298
     1
  0
XRECORD
  5
1DD
102
{ACAD_REACTORS
330
1DC
102
}
330
1DC
100
AcDbXrecord
280
     1
102
DISPLAYNAME
  1
Imperial24
102
FLAGS
 90
        0
  0
CELLSTYLEMAP
  5
1A8
102
{ACAD_REACTORS
330
1A7
102
}
330
1A7
100
AcDbCellStyleMap
 90
        3
300
CELLSTYLE
  1
TABLEFORMAT_BEGIN
 90
        5
170
     1
 91
        0
 92
    32768
 62
   257
 93
        1
300
CONTENTFORMAT
  1
CONTENTFORMAT_BEGIN
 90
        0
 91
        0
 92
      512
 93
        0
300

 40
0.0
140
1.0
 94
        5
 62
     0
340
55
144
0.25
309
CONTENTFORMAT_END
171
     0
 94
        0
309
TABLEFORMAT_END
  1
CELLSTYLE_BEGIN
 90
        1
 91
        1
300
_TITLE
309
CELLSTYLE_END
300
CELLSTYLE
  1
TABLEFORMAT_BEGIN
 90
        5
170
     1
 91
        0
 92
        0
 62
   257
 93
        1
300
CONTENTFORMAT
  1
CONTENTFORMAT_BEGIN
 90
        0
 91
        0
 92
      512
 93
        0
300

 40
0.0
140
1.0
 94
        5
 62
     0
340
55
144
0.18
309
CONTENTFORMAT_END
171
     0
 94
        0
309
TABLEFORMAT_END
  1
CELLSTYLE_BEGIN
 90
        2
 91
        1
300
_HEADER
309
CELLSTYLE_END
300
CELLSTYLE
  1
TABLEFORMAT_BEGIN
 90
        5
170
     1
 91
        0
 92
        0
 62
   257
 93
        1
300
CONTENTFORMAT
  1
CONTENTFORMAT_BEGIN
 90
        0
 91
        0
 92
      512
 93
        0
300

 40
0.0
140
1.0
 94
        2
 62
     0
340
55
144
0.18
309
CONTENTFORMAT_END
171
     0
 94
        0
309
TABLEFORMAT_END
  1
CELLSTYLE_BEGIN
 90
        3
 91
        2
300
_DATA
309
CELLSTYLE_END
  0
XRECORD
  5
1B5
102
{ACAD_REACTORS
330
1B4
102
}
330
1B4
100
AcDbXrecord
280
     1
102
RTVSPost2010Prop28
280
     1
102
RTVSPost2010PropOp28
 70
     1
102
RTVSPost2010Prop29
280
     1
102
RTVSPost2010PropOp29
 70
     1
102
RTVSPost2010Prop30
280
     0
102
RTVSPost2010PropOp30
 70
     1
102
RTVSPost2010Prop31
280
     0
102
RTVSPost2010PropOp31
 70
     1
102
RTVSPost2010Prop32
280
     0
102
RTVSPost2010PropOp32
 70
     1
102
RTVSPost2010Prop33
280
     0
102
RTVSPost2010PropOp33
 70
     1
102
RTVSPost2010Prop34
280
     0
102
RTVSPost2010PropOp34
 70
     1
102
RTVSPost2010Prop35
280
     0
102
RTVSPost2010PropOp35
 70
     1
102
RTVSPost2010Prop36
280
     0
102
RTVSPost2010PropOp36
 70
     1
102
RTVSPost2010Prop37
 90
       50
102
RTVSPost2010PropOp37
 70
     1
102
RTVSPost2010Prop38
140
0.0
102
RTVSPost2010PropOp38
 70
     1
102
RTVSPost2010Prop39
140
1.0
102
RTVSPost2010PropOp39
 70
     1
102
RTVSPost2010Prop40
 90
        0
102
RTVSPost2010PropOp40
 70
     1
102
RTVSPost2010Prop41ColorIndex
 90
       18
102
RTVSPost2010Prop41ColorRGB
 90
        0
102
RTVSPost2010PropOp41
 70
     1
102
RTVSPost2010Prop42
 90
       50
102
RTVSPost2010PropOp42
 70
     1
102
RTVSPost2010Prop43
 90
        3
102
RTVSPost2010PropOp43
 70
     1
102
RTVSPost2010Prop44ColorIndex
 90
        5
102
RTVSPost2010Prop44ColorRGB
 90
      255
102
RTVSPost2010PropOp44
 70
     1
102
RTVSPost2010Prop45
280
     0
102
RTVSPost2010PropOp45
 70
     1
102
RTVSPost2010Prop46
 90
       50
102
RTVSPost2010PropOp46
 70
     1
102
RTVSPost2010Prop47
 90
       50
102
RTVSPost2010PropOp47
 70
     1
102
RTVSPost2010Prop48
 90
       50
102
RTVSPost2010PropOp48
 70
     1
102
RTVSPost2010Prop49
280
     0
102
RTVSPost2010PropOp49
 70
     1
102
RTVSPost2010Prop50
 90
       50
102
RTVSPost2010PropOp50
 70
     1
102
RTVSPost2010Prop51ColorIndex
 90
      256
102
RTVSPost2010Prop51ColorRGB
 90
-16777216
102
RTVSPost2010PropOp51
 70
     0
102
RTVSPost2010Prop52
140
1.0
102
RTVSPost2010PropOp52
 70
     0
102
RTVSPost2010Prop53
 90
        2
102
RTVSPost2010PropOp53
 70
     1
102
RTVSPost2010Prop54
  1
strokes_ogs.tif
102
RTVSPost2010PropOp54
 70
     1
102
RTVSPost2010Prop55
280
     0
102
RTVSPost2010PropOp55
 70
     1
102
RTVSPost2010Prop56
140
1.0
102
RTVSPost2010PropOp56
 70
     1
102
RTVSPost2010Prop57
140
1.0
102
RTVSPost2010PropOp57
 70
     1
  0
XRECORD
  5
1B3
102
{ACAD_REACTORS
330
1B2
102
}
330
1B2
100
AcDbXrecord
280
     1
102
RTVSPost2010Prop28
280
     0
102
RTVSPost2010PropOp28
 70
     1
102
RTVSPost2010Prop29
280
     1
102
RTVSPost2010PropOp29
 70
     1
102
RTVSPost2010Prop30
280
     1
102
RTVSPost2010PropOp30
 70
     1
102
RTVSPost2010Prop31
280
     0
102
RTVSPost2010PropOp31
 70
     1
102
RTVSPost2010Prop32
280
     0
102
RTVSPost2010PropOp32
 70
     1
102
RTVSPost2010Prop33
280
     0
102
RTVSPost2010PropOp33
 70
     1
102
RTVSPost2010Prop34
280
     0
102
RTVSPost2010PropOp34
 70
     1
102
RTVSPost2010Prop35
280
     0
102
RTVSPost2010PropOp35
 70
     1
102
RTVSPost2010Prop36
280
     0
102
RTVSPost2010PropOp36
 70
     1
102
RTVSPost2010Prop37
 90
       50
102
RTVSPost2010PropOp37
 70
     1
102
RTVSPost2010Prop38
140
0.0
102
RTVSPost2010PropOp38
 70
     1
102
RTVSPost2010Prop39
140
1.0
102
RTVSPost2010PropOp39
 70
     1
102
RTVSPost2010Prop40
 90
        0
102
RTVSPost2010PropOp40
 70
     1
102
RTVSPost2010Prop41ColorIndex
 90
       18
102
RTVSPost2010Prop41ColorRGB
 90
        0
102
RTVSPost2010PropOp41
 70
     1
102
RTVSPost2010Prop42
 90
       50
102
RTVSPost2010PropOp42
 70
     1
102
RTVSPost2010Prop43
 90
        3
102
RTVSPost2010PropOp43
 70
     1
102
RTVSPost2010Prop44ColorIndex
 90
        5
102
RTVSPost2010Prop44ColorRGB
 90
      255
102
RTVSPost2010PropOp44
 70
     1
102
RTVSPost2010Prop45
280
     0
102
RTVSPost2010PropOp45
 70
     1
102
RTVSPost2010Prop46
 90
       50
102
RTVSPost2010PropOp46
 70
     1
102
RTVSPost2010Prop47
 90
       50
102
RTVSPost2010PropOp47
 70
     1
102
RTVSPost2010Prop48
 90
       50
102
RTVSPost2010PropOp48
 70
     1
102
RTVSPost2010Prop49
280
     0
102
RTVSPost2010PropOp49
 70
     1
102
RTVSPost2010Prop50
 90
       50
102
RTVSPost2010PropOp50
 70
     1
102
RTVSPost2010Prop51ColorIndex
 90
      256
102
RTVSPost2010Prop51ColorRGB
 90
-16777216
102
RTVSPost2010PropOp51
 70
     0
102
RTVSPost2010Prop52
140
1.0
102
RTVSPost2010PropOp52
 70
     0
102
RTVSPost2010Prop53
 90
        2
102
RTVSPost2010PropOp53
 70
     1
102
RTVSPost2010Prop54
  1
strokes_ogs.tif
102
RTVSPost2010PropOp54
 70
     1
102
RTVSPost2010Prop55
280
     0
102
RTVSPost2010PropOp55
 70
     1
102
RTVSPost2010Prop56
140
1.0
102
RTVSPost2010PropOp56
 70
     1
102
RTVSPost2010Prop57
140
1.0
102
RTVSPost2010PropOp57
 70
     1
  0
XRECORD
  5
1C1
102
{ACAD_REACTORS
330
1C0
102
}
330
1C0
100
AcDbXrecord
280
     1
102
RTVSPost2010Prop28
280
     0
102
RTVSPost2010PropOp28
 70
     1
102
RTVSPost2010Prop29
280
     1
102
RTVSPost2010PropOp29
 70
     1
102
RTVSPost2010Prop30
280
     1
102
RTVSPost2010PropOp30
 70
     1
102
RTVSPost2010Prop31
280
     0
102
RTVSPost2010PropOp31
 70
     1
102
RTVSPost2010Prop32
280
     0
102
RTVSPost2010PropOp32
 70
     1
102
RTVSPost2010Prop33
280
     0
102
RTVSPost2010PropOp33
 70
     1
102
RTVSPost2010Prop34
280
     0
102
RTVSPost2010PropOp34
 70
     1
102
RTVSPost2010Prop35
280
     0
102
RTVSPost2010PropOp35
 70
     1
102
RTVSPost2010Prop36
280
     0
102
RTVSPost2010PropOp36
 70
     1
102
RTVSPost2010Prop37
 90
       50
102
RTVSPost2010PropOp37
 70
     1
102
RTVSPost2010Prop38
140
0.0
102
RTVSPost2010PropOp38
 70
     1
102
RTVSPost2010Prop39
140
1.0
102
RTVSPost2010PropOp39
 70
     1
102
RTVSPost2010Prop40
 90
        0
102
RTVSPost2010PropOp40
 70
     1
102
RTVSPost2010Prop41ColorIndex
 90
       18
102
RTVSPost2010Prop41ColorRGB
 90
        0
102
RTVSPost2010PropOp41
 70
     1
102
RTVSPost2010Prop42
 90
       50
102
RTVSPost2010PropOp42
 70
     1
102
RTVSPost2010Prop43
 90
        3
102
RTVSPost2010PropOp43
 70
     1
102
RTVSPost2010Prop44ColorIndex
 90
        5
102
RTVSPost2010Prop44ColorRGB
 90
      255
102
RTVSPost2010PropOp44
 70
     1
102
RTVSPost2010Prop45
280
     0
102
RTVSPost2010PropOp45
 70
     1
102
RTVSPost2010Prop46
 90
       50
102
RTVSPost2010PropOp46
 70
     1
102
RTVSPost2010Prop47
 90
       50
102
RTVSPost2010PropOp47
 70
     1
102
RTVSPost2010Prop48
 90
       50
102
RTVSPost2010PropOp48
 70
     1
102
RTVSPost2010Prop49
280
     0
102
RTVSPost2010PropOp49
 70
     1
102
RTVSPost2010Prop50
 90
       50
102
RTVSPost2010PropOp50
 70
     1
102
RTVSPost2010Prop51ColorIndex
 90
      256
102
RTVSPost2010Prop51ColorRGB
 90
-16777216
102
RTVSPost2010PropOp51
 70
     0
102
RTVSPost2010Prop52
140
1.0
102
RTVSPost2010PropOp52
 70
     0
102
RTVSPost2010Prop53
 90
        2
102
RTVSPost2010PropOp53
 70
     1
102
RTVSPost2010Prop54
  1
strokes_ogs.tif
102
RTVSPost2010PropOp54
 70
     1
102
RTVSPost2010Prop55
280
     0
102
RTVSPost2010PropOp55
 70
     1
102
RTVSPost2010Prop56
140
1.0
102
RTVSPost2010PropOp56
 70
     1
102
RTVSPost2010Prop57
140
1.0
102
RTVSPost2010PropOp57
 70
     1
  0
XRECORD
  5
1C9
102
{ACAD_REACTORS
330
1C8
102
}
330
1C8
100
AcDbXrecord
280
     1
102
RTVSPost2010Prop28
280
     0
102
RTVSPost2010PropOp28
 70
     1
102
RTVSPost2010Prop29
280
     1
102
RTVSPost2010PropOp29
 70
     1
102
RTVSPost2010Prop30
280
     1
102
RTVSPost2010PropOp30
 70
     1
102
RTVSPost2010Prop31
280
     0
102
RTVSPost2010PropOp31
 70
     1
102
RTVSPost2010Prop32
280
     0
102
RTVSPost2010PropOp32
 70
     1
102
RTVSPost2010Prop33
280
     0
102
RTVSPost2010PropOp33
 70
     1
102
RTVSPost2010Prop34
280
     0
102
RTVSPost2010PropOp34
 70
     1
102
RTVSPost2010Prop35
280
     0
102
RTVSPost2010PropOp35
 70
     1
102
RTVSPost2010Prop36
280
     0
102
RTVSPost2010PropOp36
 70
     1
102
RTVSPost2010Prop37
 90
       50
102
RTVSPost2010PropOp37
 70
     1
102
RTVSPost2010Prop38
140
0.0
102
RTVSPost2010PropOp38
 70
     1
102
RTVSPost2010Prop39
140
1.0
102
RTVSPost2010PropOp39
 70
     1
102
RTVSPost2010Prop40
 90
        0
102
RTVSPost2010PropOp40
 70
     1
102
RTVSPost2010Prop41ColorIndex
 90
       18
102
RTVSPost2010Prop41ColorRGB
 90
        0
102
RTVSPost2010PropOp41
 70
     1
102
RTVSPost2010Prop42
 90
       50
102
RTVSPost2010PropOp42
 70
     1
102
RTVSPost2010Prop43
 90
        3
102
RTVSPost2010PropOp43
 70
     1
102
RTVSPost2010Prop44ColorIndex
 90
        5
102
RTVSPost2010Prop44ColorRGB
 90
      255
102
RTVSPost2010PropOp44
 70
     1
102
RTVSPost2010Prop45
280
     0
102
RTVSPost2010PropOp45
 70
     1
102
RTVSPost2010Prop46
 90
       50
102
RTVSPost2010PropOp46
 70
     1
102
RTVSPost2010Prop47
 90
       50
102
RTVSPost2010PropOp47
 70
     1
102
RTVSPost2010Prop48
 90
       50
102
RTVSPost2010PropOp48
 70
     1
102
RTVSPost2010Prop49
280
     0
102
RTVSPost2010PropOp49
 70
     1
102
RTVSPost2010Prop50
 90
       50
102
RTVSPost2010PropOp50
 70
     1
102
RTVSPost2010Prop51ColorIndex
 90
      256
102
RTVSPost2010Prop51ColorRGB
 90
-16777216
102
RTVSPost2010PropOp51
 70
     0
102
RTVSPost2010Prop52
140
1.0
102
RTVSPost2010PropOp52
 70
     0
102
RTVSPost2010Prop53
 90
        2
102
RTVSPost2010PropOp53
 70
     1
102
RTVSPost2010Prop54
  1
strokes_ogs.tif
102
RTVSPost2010PropOp54
 70
     1
102
RTVSPost2010Prop55
280
     0
102
RTVSPost2010PropOp55
 70
     1
102
RTVSPost2010Prop56
140
1.0
102
RTVSPost2010PropOp56
 70
     1
102
RTVSPost2010Prop57
140
1.0
102
RTVSPost2010PropOp57
 70
     1
  0
XRECORD
  5
1BB
102
{ACAD_REACTORS
330
1BA
102
}
330
1BA
100
AcDbXrecord
280
     1
102
RTVSPost2010Prop28
280
     0
102
RTVSPost2010PropOp28
 70
     1
102
RTVSPost2010Prop29
280
     1
102
RTVSPost2010PropOp29
 70
     1
102
RTVSPost2010Prop30
280
     1
102
RTVSPost2010PropOp30
 70
     1
102
RTVSPost2010Prop31
280
     0
102
RTVSPost2010PropOp31
 70
     1
102
RTVSPost2010Prop32
280
     0
102
RTVSPost2010PropOp32
 70
     1
102
RTVSPost2010Prop33
280
     0
102
RTVSPost2010PropOp33
 70
     1
102
RTVSPost2010Prop34
280
     0
102
RTVSPost2010PropOp34
 70
     1
102
RTVSPost2010Prop35
280
     0
102
RTVSPost2010PropOp35
 70
     1
102
RTVSPost2010Prop36
280
     0
102
RTVSPost2010PropOp36
 70
     1
102
RTVSPost2010Prop37
 90
       50
102
RTVSPost2010PropOp37
 70
     1
102
RTVSPost2010Prop38
140
0.0
102
RTVSPost2010PropOp38
 70
     1
102
RTVSPost2010Prop39
140
1.0
102
RTVSPost2010PropOp39
 70
     1
102
RTVSPost2010Prop40
 90
        0
102
RTVSPost2010PropOp40
 70
     1
102
RTVSPost2010Prop41ColorIndex
 90
       18
102
RTVSPost2010Prop41ColorRGB
 90
        0
102
RTVSPost2010PropOp41
 70
     1
102
RTVSPost2010Prop42
 90
       50
102
RTVSPost2010PropOp42
 70
     1
102
RTVSPost2010Prop43
 90
        3
102
RTVSPost2010PropOp43
 70
     1
102
RTVSPost2010Prop44ColorIndex
 90
        5
102
RTVSPost2010Prop44ColorRGB
 90
      255
102
RTVSPost2010PropOp44
 70
     1
102
RTVSPost2010Prop45
280
     0
102
RTVSPost2010PropOp45
 70
     1
102
RTVSPost2010Prop46
 90
       50
102
RTVSPost2010PropOp46
 70
     1
102
RTVSPost2010Prop47
 90
       50
102
RTVSPost2010PropOp47
 70
     1
102
RTVSPost2010Prop48
 90
       50
102
RTVSPost2010PropOp48
 70
     1
102
RTVSPost2010Prop49
280
     0
102
RTVSPost2010PropOp49
 70
     1
102
RTVSPost2010Prop50
 90
       50
102
RTVSPost2010PropOp50
 70
     1
102
RTVSPost2010Prop51ColorIndex
 90
      256
102
RTVSPost2010Prop51ColorRGB
 90
-16777216
102
RTVSPost2010PropOp51
 70
     0
102
RTVSPost2010Prop52
140
1.0
102
RTVSPost2010PropOp52
 70
     0
102
RTVSPost2010Prop53
 90
        2
102
RTVSPost2010PropOp53
 70
     1
102
RTVSPost2010Prop54
  1
strokes_ogs.tif
102
RTVSPost2010PropOp54
 70
     1
102
RTVSPost2010Prop55
280
     0
102
RTVSPost2010PropOp55
 70
     1
102
RTVSPost2010Prop56
140
1.0
102
RTVSPost2010PropOp56
 70
     1
102
RTVSPost2010Prop57
140
1.0
102
RTVSPost2010PropOp57
 70
     1
  0
XRECORD
  5
1BF
102
{ACAD_REACTORS
330
1BE
102
}
330
1BE
100
AcDbXrecord
280
     1
102
RTVSPost2010Prop28
280
     0
102
RTVSPost2010PropOp28
 70
     1
102
RTVSPost2010Prop29
280
     1
102
RTVSPost2010PropOp29
 70
     1
102
RTVSPost2010Prop30
280
     1
102
RTVSPost2010PropOp30
 70
     1
102
RTVSPost2010Prop31
280
     0
102
RTVSPost2010PropOp31
 70
     1
102
RTVSPost2010Prop32
280
     0
102
RTVSPost2010PropOp32
 70
     1
102
RTVSPost2010Prop33
280
     0
102
RTVSPost2010PropOp33
 70
     1
102
RTVSPost2010Prop34
280
     0
102
RTVSPost2010PropOp34
 70
     1
102
RTVSPost2010Prop35
280
     0
102
RTVSPost2010PropOp35
 70
     1
102
RTVSPost2010Prop36
280
     0
102
RTVSPost2010PropOp36
 70
     1
102
RTVSPost2010Prop37
 90
       50
102
RTVSPost2010PropOp37
 70
     1
102
RTVSPost2010Prop38
140
0.0
102
RTVSPost2010PropOp38
 70
     1
102
RTVSPost2010Prop39
140
1.0
102
RTVSPost2010PropOp39
 70
     1
102
RTVSPost2010Prop40
 90
        0
102
RTVSPost2010PropOp40
 70
     1
102
RTVSPost2010Prop41ColorIndex
 90
       18
102
RTVSPost2010Prop41ColorRGB
 90
        0
102
RTVSPost2010PropOp41
 70
     1
102
RTVSPost2010Prop42
 90
       50
102
RTVSPost2010PropOp42
 70
     1
102
RTVSPost2010Prop43
 90
        3
102
RTVSPost2010PropOp43
 70
     1
102
RTVSPost2010Prop44ColorIndex
 90
        5
102
RTVSPost2010Prop44ColorRGB
 90
      255
102
RTVSPost2010PropOp44
 70
     1
102
RTVSPost2010Prop45
280
     0
102
RTVSPost2010PropOp45
 70
     1
102
RTVSPost2010Prop46
 90
       50
102
RTVSPost2010PropOp46
 70
     1
102
RTVSPost2010Prop47
 90
       50
102
RTVSPost2010PropOp47
 70
     1
102
RTVSPost2010Prop48
 90
       50
102
RTVSPost2010PropOp48
 70
     1
102
RTVSPost2010Prop49
280
     0
102
RTVSPost2010PropOp49
 70
     1
102
RTVSPost2010Prop50
 90
       50
102
RTVSPost2010PropOp50
 70
     1
102
RTVSPost2010Prop51ColorIndex
 90
      256
102
RTVSPost2010Prop51ColorRGB
 90
-16777216
102
RTVSPost2010PropOp51
 70
     0
102
RTVSPost2010Prop52
140
1.0
102
RTVSPost2010PropOp52
 70
     0
102
RTVSPost2010Prop53
 90
        2
102
RTVSPost2010PropOp53
 70
     1
102
RTVSPost2010Prop54
  1
strokes_ogs.tif
102
RTVSPost2010PropOp54
 70
     1
102
RTVSPost2010Prop55
280
     0
102
RTVSPost2010PropOp55
 70
     1
102
RTVSPost2010Prop56
140
1.0
102
RTVSPost2010PropOp56
 70
     1
102
RTVSPost2010Prop57
140
1.0
102
RTVSPost2010PropOp57
 70
     1
  0
XRECORD
  5
1D9
102
{ACAD_REACTORS
330
1D8
102
}
330
1D8
100
AcDbXrecord
280
     1
102
RTVSPost2010Prop28
280
     0
102
RTVSPost2010PropOp28
 70
     0
102
RTVSPost2010Prop29
280
     1
102
RTVSPost2010PropOp29
 70
     0
102
RTVSPost2010Prop30
280
     1
102
RTVSPost2010PropOp30
 70
     0
102
RTVSPost2010Prop31
280
     0
102
RTVSPost2010PropOp31
 70
     0
102
RTVSPost2010Prop32
280
     0
102
RTVSPost2010PropOp32
 70
     0
102
RTVSPost2010Prop33
280
     0
102
RTVSPost2010PropOp33
 70
     0
102
RTVSPost2010Prop34
280
     0
102
RTVSPost2010PropOp34
 70
     0
102
RTVSPost2010Prop35
280
     0
102
RTVSPost2010PropOp35
 70
     0
102
RTVSPost2010Prop36
280
     0
102
RTVSPost2010PropOp36
 70
     0
102
RTVSPost2010Prop37
 90
       50
102
RTVSPost2010PropOp37
 70
     0
102
RTVSPost2010Prop38
140
0.0
102
RTVSPost2010PropOp38
 70
     0
102
RTVSPost2010Prop39
140
1.0
102
RTVSPost2010PropOp39
 70
     0
102
RTVSPost2010Prop40
 90
        0
102
RTVSPost2010PropOp40
 70
     0
102
RTVSPost2010Prop41ColorIndex
 90
       18
102
RTVSPost2010Prop41ColorRGB
 90
        0
102
RTVSPost2010PropOp41
 70
     0
102
RTVSPost2010Prop42
 90
       50
102
RTVSPost2010PropOp42
 70
     0
102
RTVSPost2010Prop43
 90
        3
102
RTVSPost2010PropOp43
 70
     0
102
RTVSPost2010Prop44ColorIndex
 90
        5
102
RTVSPost2010Prop44ColorRGB
 90
      255
102
RTVSPost2010PropOp44
 70
     0
102
RTVSPost2010Prop45
280
     0
102
RTVSPost2010PropOp45
 70
     0
102
RTVSPost2010Prop46
 90
       50
102
RTVSPost2010PropOp46
 70
     0
102
RTVSPost2010Prop47
 90
       50
102
RTVSPost2010PropOp47
 70
     0
102
RTVSPost2010Prop48
 90
       50
102
RTVSPost2010PropOp48
 70
     0
102
RTVSPost2010Prop49
280
     0
102
RTVSPost2010PropOp49
 70
     0
102
RTVSPost2010Prop50
 90
       50
102
RTVSPost2010PropOp50
 70
     0
102
RTVSPost2010Prop51ColorIndex
 90
      256
102
RTVSPost2010Prop51ColorRGB
 90
-16777216
102
RTVSPost2010PropOp51
 70
     0
102
RTVSPost2010Prop52
140
1.0
102
RTVSPost2010PropOp52
 70
     0
102
RTVSPost2010Prop53
 90
        2
102
RTVSPost2010PropOp53
 70
     0
102
RTVSPost2010Prop54
  1
strokes_ogs.tif
102
RTVSPost2010PropOp54
 70
     0
102
RTVSPost2010Prop55
280
     0
102
RTVSPost2010PropOp55
 70
     0
102
RTVSPost2010Prop56
140
1.0
102
RTVSPost2010PropOp56
 70
     0
102
RTVSPost2010Prop57
140
1.0
102
RTVSPost2010PropOp57
 70
     0
  0
XRECORD
  5
1C7
102
{ACAD_REACTORS
330
1C6
102
}
330
1C6
100
AcDbXrecord
280
     1
102
RTVSPost2010Prop28
280
     0
102
RTVSPost2010PropOp28
 70
     1
102
RTVSPost2010Prop29
280
     1
102
RTVSPost2010PropOp29
 70
     1
102
RTVSPost2010Prop30
280
     1
102
RTVSPost2010PropOp30
 70
     1
102
RTVSPost2010Prop31
280
     0
102
RTVSPost2010PropOp31
 70
     1
102
RTVSPost2010Prop32
280
     0
102
RTVSPost2010PropOp32
 70
     1
102
RTVSPost2010Prop33
280
     0
102
RTVSPost2010PropOp33
 70
     1
102
RTVSPost2010Prop34
280
     0
102
RTVSPost2010PropOp34
 70
     1
102
RTVSPost2010Prop35
280
     0
102
RTVSPost2010PropOp35
 70
     1
102
RTVSPost2010Prop36
280
     0
102
RTVSPost2010PropOp36
 70
     1
102
RTVSPost2010Prop37
 90
       50
102
RTVSPost2010PropOp37
 70
     1
102
RTVSPost2010Prop38
140
0.0
102
RTVSPost2010PropOp38
 70
     1
102
RTVSPost2010Prop39
140
1.0
102
RTVSPost2010PropOp39
 70
     1
102
RTVSPost2010Prop40
 90
        0
102
RTVSPost2010PropOp40
 70
     1
102
RTVSPost2010Prop41ColorIndex
 90
       18
102
RTVSPost2010Prop41ColorRGB
 90
        0
102
RTVSPost2010PropOp41
 70
     1
102
RTVSPost2010Prop42
 90
       50
102
RTVSPost2010PropOp42
 70
     1
102
RTVSPost2010Prop43
 90
        3
102
RTVSPost2010PropOp43
 70
     1
102
RTVSPost2010Prop44ColorIndex
 90
        5
102
RTVSPost2010Prop44ColorRGB
 90
      255
102
RTVSPost2010PropOp44
 70
     1
102
RTVSPost2010Prop45
280
     0
102
RTVSPost2010PropOp45
 70
     1
102
RTVSPost2010Prop46
 90
       50
102
RTVSPost2010PropOp46
 70
     1
102
RTVSPost2010Prop47
 90
       50
102
RTVSPost2010PropOp47
 70
     1
102
RTVSPost2010Prop48
 90
       50
102
RTVSPost2010PropOp48
 70
     1
102
RTVSPost2010Prop49
280
     0
102
RTVSPost2010PropOp49
 70
     1
102
RTVSPost2010Prop50
 90
       50
102
RTVSPost2010PropOp50
 70
     1
102
RTVSPost2010Prop51ColorIndex
 90
      256
102
RTVSPost2010Prop51ColorRGB
 90
-16777216
102
RTVSPost2010PropOp51
 70
     0
102
RTVSPost2010Prop52
140
1.0
102
RTVSPost2010PropOp52
 70
     0
102
RTVSPost2010Prop53
 90
        2
102
RTVSPost2010PropOp53
 70
     1
102
RTVSPost2010Prop54
  1
strokes_ogs.tif
102
RTVSPost2010PropOp54
 70
     1
102
RTVSPost2010Prop55
280
     0
102
RTVSPost2010PropOp55
 70
     1
102
RTVSPost2010Prop56
140
1.0
102
RTVSPost2010PropOp56
 70
     1
102
RTVSPost2010Prop57
140
1.0
102
RTVSPost2010PropOp57
 70
     1
  0
XRECORD
  5
1AB
102
{ACAD_REACTORS
330
1AA
102
}
330
1AA
100
AcDbXrecord
280
     1
102
RTVSPost2010Prop28
280
     0
102
RTVSPost2010PropOp28
 70
     1
102
RTVSPost2010Prop29
280
     1
102
RTVSPost2010PropOp29
 70
     1
102
RTVSPost2010Prop30
280
     1
102
RTVSPost2010PropOp30
 70
     1
102
RTVSPost2010Prop31
280
     0
102
RTVSPost2010PropOp31
 70
     1
102
RTVSPost2010Prop32
280
     0
102
RTVSPost2010PropOp32
 70
     1
102
RTVSPost2010Prop33
280
     0
102
RTVSPost2010PropOp33
 70
     1
102
RTVSPost2010Prop34
280
     0
102
RTVSPost2010PropOp34
 70
     1
102
RTVSPost2010Prop35
280
     0
102
RTVSPost2010PropOp35
 70
     1
102
RTVSPost2010Prop36
280
     0
102
RTVSPost2010PropOp36
 70
     1
102
RTVSPost2010Prop37
 90
       50
102
RTVSPost2010PropOp37
 70
     1
102
RTVSPost2010Prop38
140
0.0
102
RTVSPost2010PropOp38
 70
     1
102
RTVSPost2010Prop39
140
1.0
102
RTVSPost2010PropOp39
 70
     1
102
RTVSPost2010Prop40
 90
        0
102
RTVSPost2010PropOp40
 70
     1
102
RTVSPost2010Prop41ColorIndex
 90
       18
102
RTVSPost2010Prop41ColorRGB
 90
        0
102
RTVSPost2010PropOp41
 70
     1
102
RTVSPost2010Prop42
 90
       50
102
RTVSPost2010PropOp42
 70
     1
102
RTVSPost2010Prop43
 90
        3
102
RTVSPost2010PropOp43
 70
     1
102
RTVSPost2010Prop44ColorIndex
 90
        5
102
RTVSPost2010Prop44ColorRGB
 90
      255
102
RTVSPost2010PropOp44
 70
     1
102
RTVSPost2010Prop45
280
     0
102
RTVSPost2010PropOp45
 70
     1
102
RTVSPost2010Prop46
 90
       50
102
RTVSPost2010PropOp46
 70
     1
102
RTVSPost2010Prop47
 90
       50
102
RTVSPost2010PropOp47
 70
     1
102
RTVSPost2010Prop48
 90
       50
102
RTVSPost2010PropOp48
 70
     1
102
RTVSPost2010Prop49
280
     0
102
RTVSPost2010PropOp49
 70
     1
102
RTVSPost2010Prop50
 90
       50
102
RTVSPost2010PropOp50
 70
     1
102
RTVSPost2010Prop51ColorIndex
 90
      256
102
RTVSPost2010Prop51ColorRGB
 90
-16777216
102
RTVSPost2010PropOp51
 70
     0
102
RTVSPost2010Prop52
140
1.0
102
RTVSPost2010PropOp52
 70
     0
102
RTVSPost2010Prop53
 90
        2
102
RTVSPost2010PropOp53
 70
     1
102
RTVSPost2010Prop54
  1
strokes_ogs.tif
102
RTVSPost2010PropOp54
 70
     1
102
RTVSPost2010Prop55
280
     0
102
RTVSPost2010PropOp55
 70
     1
102
RTVSPost2010Prop56
140
1.0
102
RTVSPost2010PropOp56
 70
     1
102
RTVSPost2010Prop57
140
1.0
102
RTVSPost2010PropOp57
 70
     1
  0
XRECORD
  5
1AD
102
{ACAD_REACTORS
330
1AC
102
}
330
1AC
100
AcDbXrecord
280
     1
102
RTVSPost2010Prop28
280
     0
102
RTVSPost2010PropOp28
 70
     1
102
RTVSPost2010Prop29
280
     1
102
RTVSPost2010PropOp29
 70
     1
102
RTVSPost2010Prop30
280
     1
102
RTVSPost2010PropOp30
 70
     1
102
RTVSPost2010Prop31
280
     0
102
RTVSPost2010PropOp31
 70
     1
102
RTVSPost2010Prop32
280
     0
102
RTVSPost2010PropOp32
 70
     1
102
RTVSPost2010Prop33
280
     0
102
RTVSPost2010PropOp33
 70
     1
102
RTVSPost2010Prop34
280
     0
102
RTVSPost2010PropOp34
 70
     1
102
RTVSPost2010Prop35
280
     0
102
RTVSPost2010PropOp35
 70
     1
102
RTVSPost2010Prop36
280
     0
102
RTVSPost2010PropOp36
 70
     1
102
RTVSPost2010Prop37
 90
       50
102
RTVSPost2010PropOp37
 70
     1
102
RTVSPost2010Prop38
140
0.0
102
RTVSPost2010PropOp38
 70
     1
102
RTVSPost2010Prop39
140
1.0
102
RTVSPost2010PropOp39
 70
     1
102
RTVSPost2010Prop40
 90
        0
102
RTVSPost2010PropOp40
 70
     1
102
RTVSPost2010Prop41ColorIndex
 90
       18
102
RTVSPost2010Prop41ColorRGB
 90
        0
102
RTVSPost2010PropOp41
 70
     1
102
RTVSPost2010Prop42
 90
       50
102
RTVSPost2010PropOp42
 70
     1
102
RTVSPost2010Prop43
 90
        3
102
RTVSPost2010PropOp43
 70
     1
102
RTVSPost2010Prop44ColorIndex
 90
        5
102
RTVSPost2010Prop44ColorRGB
 90
      255
102
RTVSPost2010PropOp44
 70
     1
102
RTVSPost2010Prop45
280
     0
102
RTVSPost2010PropOp45
 70
     1
102
RTVSPost2010Prop46
 90
       50
102
RTVSPost2010PropOp46
 70
     1
102
RTVSPost2010Prop47
 90
       50
102
RTVSPost2010PropOp47
 70
     1
102
RTVSPost2010Prop48
 90
       50
102
RTVSPost2010PropOp48
 70
     1
102
RTVSPost2010Prop49
280
     0
102
RTVSPost2010PropOp49
 70
     1
102
RTVSPost2010Prop50
 90
       50
102
RTVSPost2010PropOp50
 70
     1
102
RTVSPost2010Prop51ColorIndex
 90
      256
102
RTVSPost2010Prop51ColorRGB
 90
-16777216
102
RTVSPost2010PropOp51
 70
     0
102
RTVSPost2010Prop52
140
1.0
102
RTVSPost2010PropOp52
 70
     0
102
RTVSPost2010Prop53
 90
        2
102
RTVSPost2010PropOp53
 70
     1
102
RTVSPost2010Prop54
  1
strokes_ogs.tif
102
RTVSPost2010PropOp54
 70
     1
102
RTVSPost2010Prop55
280
     0
102
RTVSPost2010PropOp55
 70
     1
102
RTVSPost2010Prop56
140
1.0
102
RTVSPost2010PropOp56
 70
     1
102
RTVSPost2010Prop57
140
1.0
102
RTVSPost2010PropOp57
 70
     1
  0
XRECORD
  5
1AF
102
{ACAD_REACTORS
330
1AE
102
}
330
1AE
100
AcDbXrecord
280
     1
102
RTVSPost2010Prop28
280
     0
102
RTVSPost2010PropOp28
 70
     1
102
RTVSPost2010Prop29
280
     1
102
RTVSPost2010PropOp29
 70
     1
102
RTVSPost2010Prop30
280
     1
102
RTVSPost2010PropOp30
 70
     1
102
RTVSPost2010Prop31
280
     0
102
RTVSPost2010PropOp31
 70
     1
102
RTVSPost2010Prop32
280
     0
102
RTVSPost2010PropOp32
 70
     1
102
RTVSPost2010Prop33
280
     0
102
RTVSPost2010PropOp33
 70
     1
102
RTVSPost2010Prop34
280
     0
102
RTVSPost2010PropOp34
 70
     1
102
RTVSPost2010Prop35
280
     0
102
RTVSPost2010PropOp35
 70
     1
102
RTVSPost2010Prop36
280
     0
102
RTVSPost2010PropOp36
 70
     1
102
RTVSPost2010Prop37
 90
       50
102
RTVSPost2010PropOp37
 70
     1
102
RTVSPost2010Prop38
140
0.0
102
RTVSPost2010PropOp38
 70
     1
102
RTVSPost2010Prop39
140
1.0
102
RTVSPost2010PropOp39
 70
     1
102
RTVSPost2010Prop40
 90
        0
102
RTVSPost2010PropOp40
 70
     1
102
RTVSPost2010Prop41ColorIndex
 90
       18
102
RTVSPost2010Prop41ColorRGB
 90
        0
102
RTVSPost2010PropOp41
 70
     1
102
RTVSPost2010Prop42
 90
       50
102
RTVSPost2010PropOp42
 70
     1
102
RTVSPost2010Prop43
 90
        3
102
RTVSPost2010PropOp43
 70
     1
102
RTVSPost2010Prop44ColorIndex
 90
        5
102
RTVSPost2010Prop44ColorRGB
 90
      255
102
RTVSPost2010PropOp44
 70
     1
102
RTVSPost2010Prop45
280
     0
102
RTVSPost2010PropOp45
 70
     1
102
RTVSPost2010Prop46
 90
       50
102
RTVSPost2010PropOp46
 70
     1
102
RTVSPost2010Prop47
 90
       50
102
RTVSPost2010PropOp47
 70
     1
102
RTVSPost2010Prop48
 90
       50
102
RTVSPost2010PropOp48
 70
     1
102
RTVSPost2010Prop49
280
     0
102
RTVSPost2010PropOp49
 70
     1
102
RTVSPost2010Prop50
 90
       50
102
RTVSPost2010PropOp50
 70
     1
102
RTVSPost2010Prop51ColorIndex
 90
      256
102
RTVSPost2010Prop51ColorRGB
 90
-16777216
102
RTVSPost2010PropOp51
 70
     0
102
RTVSPost2010Prop52
140
1.0
102
RTVSPost2010PropOp52
 70
     0
102
RTVSPost2010Prop53
 90
        2
102
RTVSPost2010PropOp53
 70
     1
102
RTVSPost2010Prop54
  1
strokes_ogs.tif
102
RTVSPost2010PropOp54
 70
     1
102
RTVSPost2010Prop55
280
     0
102
RTVSPost2010PropOp55
 70
     1
102
RTVSPost2010Prop56
140
1.0
102
RTVSPost2010PropOp56
 70
     1
102
RTVSPost2010Prop57
140
1.0
102
RTVSPost2010PropOp57
 70
     1
  0
XRECORD
  5
1B1
102
{ACAD_REACTORS
330
1B0
102
}
330
1B0
100
AcDbXrecord
280
     1
102
RTVSPost2010Prop28
280
     0
102
RTVSPost2010PropOp28
 70
     1
102
RTVSPost2010Prop29
280
     1
102
RTVSPost2010PropOp29
 70
     1
102
RTVSPost2010Prop30
280
     1
102
RTVSPost2010PropOp30
 70
     1
102
RTVSPost2010Prop31
280
     0
102
RTVSPost2010PropOp31
 70
     1
102
RTVSPost2010Prop32
280
     0
102
RTVSPost2010PropOp32
 70
     1
102
RTVSPost2010Prop33
280
     0
102
RTVSPost2010PropOp33
 70
     1
102
RTVSPost2010Prop34
280
     0
102
RTVSPost2010PropOp34
 70
     1
102
RTVSPost2010Prop35
280
     0
102
RTVSPost2010PropOp35
 70
     1
102
RTVSPost2010Prop36
280
     0
102
RTVSPost2010PropOp36
 70
     1
102
RTVSPost2010Prop37
 90
       50
102
RTVSPost2010PropOp37
 70
     1
102
RTVSPost2010Prop38
140
0.0
102
RTVSPost2010PropOp38
 70
     1
102
RTVSPost2010Prop39
140
1.0
102
RTVSPost2010PropOp39
 70
     1
102
RTVSPost2010Prop40
 90
        0
102
RTVSPost2010PropOp40
 70
     1
102
RTVSPost2010Prop41ColorIndex
 90
       18
102
RTVSPost2010Prop41ColorRGB
 90
        0
102
RTVSPost2010PropOp41
 70
     1
102
RTVSPost2010Prop42
 90
       50
102
RTVSPost2010PropOp42
 70
     1
102
RTVSPost2010Prop43
 90
        3
102
RTVSPost2010PropOp43
 70
     1
102
RTVSPost2010Prop44ColorIndex
 90
        5
102
RTVSPost2010Prop44ColorRGB
 90
      255
102
RTVSPost2010PropOp44
 70
     1
102
RTVSPost2010Prop45
280
     0
102
RTVSPost2010PropOp45
 70
     1
102
RTVSPost2010Prop46
 90
       50
102
RTVSPost2010PropOp46
 70
     1
102
RTVSPost2010Prop47
 90
       50
102
RTVSPost2010PropOp47
 70
     1
102
RTVSPost2010Prop48
 90
       50
102
RTVSPost2010PropOp48
 70
     1
102
RTVSPost2010Prop49
280
     0
102
RTVSPost2010PropOp49
 70
     1
102
RTVSPost2010Prop50
 90
       50
102
RTVSPost2010PropOp50
 70
     1
102
RTVSPost2010Prop51ColorIndex
 90
      256
102
RTVSPost2010Prop51ColorRGB
 90
-16777216
102
RTVSPost2010PropOp51
 70
     0
102
RTVSPost2010Prop52
140
1.0
102
RTVSPost2010PropOp52
 70
     0
102
RTVSPost2010Prop53
 90
        2
102
RTVSPost2010PropOp53
 70
     1
102
RTVSPost2010Prop54
  1
strokes_ogs.tif
102
RTVSPost2010PropOp54
 70
     1
102
RTVSPost2010Prop55
280
     0
102
RTVSPost2010PropOp55
 70
     1
102
RTVSPost2010Prop56
140
1.0
102
RTVSPost2010PropOp56
 70
     1
102
RTVSPost2010Prop57
140
1.0
102
RTVSPost2010PropOp57
 70
     1
  0
XRECORD
  5
1B9
102
{ACAD_REACTORS
330
1B8
102
}
330
1B8
100
AcDbXrecord
280
     1
102
RTVSPost2010Prop28
280
     0
102
RTVSPost2010PropOp28
 70
     1
102
RTVSPost2010Prop29
280
     1
102
RTVSPost2010PropOp29
 70
     1
102
RTVSPost2010Prop30
280
     1
102
RTVSPost2010PropOp30
 70
     1
102
RTVSPost2010Prop31
280
     0
102
RTVSPost2010PropOp31
 70
     1
102
RTVSPost2010Prop32
280
     0
102
RTVSPost2010PropOp32
 70
     1
102
RTVSPost2010Prop33
280
     0
102
RTVSPost2010PropOp33
 70
     1
102
RTVSPost2010Prop34
280
     0
102
RTVSPost2010PropOp34
 70
     1
102
RTVSPost2010Prop35
280
     0
102
RTVSPost2010PropOp35
 70
     1
102
RTVSPost2010Prop36
280
     0
102
RTVSPost2010PropOp36
 70
     1
102
RTVSPost2010Prop37
 90
       50
102
RTVSPost2010PropOp37
 70
     1
102
RTVSPost2010Prop38
140
0.0
102
RTVSPost2010PropOp38
 70
     1
102
RTVSPost2010Prop39
140
1.0
102
RTVSPost2010PropOp39
 70
     1
102
RTVSPost2010Prop40
 90
        0
102
RTVSPost2010PropOp40
 70
     1
102
RTVSPost2010Prop41ColorIndex
 90
       18
102
RTVSPost2010Prop41ColorRGB
 90
        0
102
RTVSPost2010PropOp41
 70
     1
102
RTVSPost2010Prop42
 90
       50
102
RTVSPost2010PropOp42
 70
     1
102
RTVSPost2010Prop43
 90
        3
102
RTVSPost2010PropOp43
 70
     1
102
RTVSPost2010Prop44ColorIndex
 90
        5
102
RTVSPost2010Prop44ColorRGB
 90
      255
102
RTVSPost2010PropOp44
 70
     1
102
RTVSPost2010Prop45
280
     0
102
RTVSPost2010PropOp45
 70
     1
102
RTVSPost2010Prop46
 90
       50
102
RTVSPost2010PropOp46
 70
     1
102
RTVSPost2010Prop47
 90
       50
102
RTVSPost2010PropOp47
 70
     1
102
RTVSPost2010Prop48
 90
       50
102
RTVSPost2010PropOp48
 70
     1
102
RTVSPost2010Prop49
280
     0
102
RTVSPost2010PropOp49
 70
     1
102
RTVSPost2010Prop50
 90
       50
102
RTVSPost2010PropOp50
 70
     1
102
RTVSPost2010Prop51ColorIndex
 90
      256
102
RTVSPost2010Prop51ColorRGB
 90
-16777216
102
RTVSPost2010PropOp51
 70
     0
102
RTVSPost2010Prop52
140
1.0
102
RTVSPost2010PropOp52
 70
     0
102
RTVSPost2010Prop53
 90
        2
102
RTVSPost2010PropOp53
 70
     1
102
RTVSPost2010Prop54
  1
strokes_ogs.tif
102
RTVSPost2010PropOp54
 70
     1
102
RTVSPost2010Prop55
280
     0
102
RTVSPost2010PropOp55
 70
     1
102
RTVSPost2010Prop56
140
1.0
102
RTVSPost2010PropOp56
 70
     1
102
RTVSPost2010Prop57
140
1.0
102
RTVSPost2010PropOp57
 70
     1
  0
XRECORD
  5
1D5
102
{ACAD_REACTORS
330
1D4
102
}
330
1D4
100
AcDbXrecord
280
     1
102
RTVSPost2010Prop28
280
     0
102
RTVSPost2010PropOp28
 70
     0
102
RTVSPost2010Prop29
280
     1
102
RTVSPost2010PropOp29
 70
     0
102
RTVSPost2010Prop30
280
     1
102
RTVSPost2010PropOp30
 70
     0
102
RTVSPost2010Prop31
280
     0
102
RTVSPost2010PropOp31
 70
     0
102
RTVSPost2010Prop32
280
     0
102
RTVSPost2010PropOp32
 70
     0
102
RTVSPost2010Prop33
280
     0
102
RTVSPost2010PropOp33
 70
     0
102
RTVSPost2010Prop34
280
     0
102
RTVSPost2010PropOp34
 70
     0
102
RTVSPost2010Prop35
280
     0
102
RTVSPost2010PropOp35
 70
     0
102
RTVSPost2010Prop36
280
     0
102
RTVSPost2010PropOp36
 70
     0
102
RTVSPost2010Prop37
 90
       50
102
RTVSPost2010PropOp37
 70
     0
102
RTVSPost2010Prop38
140
0.0
102
RTVSPost2010PropOp38
 70
     0
102
RTVSPost2010Prop39
140
1.0
102
RTVSPost2010PropOp39
 70
     0
102
RTVSPost2010Prop40
 90
        0
102
RTVSPost2010PropOp40
 70
     0
102
RTVSPost2010Prop41ColorIndex
 90
       18
102
RTVSPost2010Prop41ColorRGB
 90
        0
102
RTVSPost2010PropOp41
 70
     0
102
RTVSPost2010Prop42
 90
       50
102
RTVSPost2010PropOp42
 70
     0
102
RTVSPost2010Prop43
 90
        3
102
RTVSPost2010PropOp43
 70
     0
102
RTVSPost2010Prop44ColorIndex
 90
        5
102
RTVSPost2010Prop44ColorRGB
 90
      255
102
RTVSPost2010PropOp44
 70
     0
102
RTVSPost2010Prop45
280
     0
102
RTVSPost2010PropOp45
 70
     0
102
RTVSPost2010Prop46
 90
       50
102
RTVSPost2010PropOp46
 70
     0
102
RTVSPost2010Prop47
 90
       50
102
RTVSPost2010PropOp47
 70
     0
102
RTVSPost2010Prop48
 90
       50
102
RTVSPost2010PropOp48
 70
     0
102
RTVSPost2010Prop49
280
     0
102
RTVSPost2010PropOp49
 70
     0
102
RTVSPost2010Prop50
 90
       50
102
RTVSPost2010PropOp50
 70
     0
102
RTVSPost2010Prop51ColorIndex
 90
      256
102
RTVSPost2010Prop51ColorRGB
 90
-16777216
102
RTVSPost2010PropOp51
 70
     0
102
RTVSPost2010Prop52
140
1.0
102
RTVSPost2010PropOp52
 70
     0
102
RTVSPost2010Prop53
 90
        2
102
RTVSPost2010PropOp53
 70
     0
102
RTVSPost2010Prop54
  1
strokes_ogs.tif
102
RTVSPost2010PropOp54
 70
     0
102
RTVSPost2010Prop55
280
     0
102
RTVSPost2010PropOp55
 70
     0
102
RTVSPost2010Prop56
140
1.0
102
RTVSPost2010PropOp56
 70
     0
102
RTVSPost2010Prop57
140
1.0
102
RTVSPost2010PropOp57
 70
     0
  0
XRECORD
  5
1C5
102
{ACAD_REACTORS
330
1C4
102
}
330
1C4
100
AcDbXrecord
280
     1
102
RTVSPost2010Prop28
280
     0
102
RTVSPost2010PropOp28
 70
     1
102
RTVSPost2010Prop29
280
     1
102
RTVSPost2010PropOp29
 70
     1
102
RTVSPost2010Prop30
280
     1
102
RTVSPost2010PropOp30
 70
     1
102
RTVSPost2010Prop31
280
     0
102
RTVSPost2010PropOp31
 70
     1
102
RTVSPost2010Prop32
280
     0
102
RTVSPost2010PropOp32
 70
     1
102
RTVSPost2010Prop33
280
     0
102
RTVSPost2010PropOp33
 70
     1
102
RTVSPost2010Prop34
280
     0
102
RTVSPost2010PropOp34
 70
     1
102
RTVSPost2010Prop35
280
     0
102
RTVSPost2010PropOp35
 70
     1
102
RTVSPost2010Prop36
280
     0
102
RTVSPost2010PropOp36
 70
     1
102
RTVSPost2010Prop37
 90
       50
102
RTVSPost2010PropOp37
 70
     1
102
RTVSPost2010Prop38
140
0.0
102
RTVSPost2010PropOp38
 70
     1
102
RTVSPost2010Prop39
140
1.0
102
RTVSPost2010PropOp39
 70
     1
102
RTVSPost2010Prop40
 90
        0
102
RTVSPost2010PropOp40
 70
     1
102
RTVSPost2010Prop41ColorIndex
 90
       18
102
RTVSPost2010Prop41ColorRGB
 90
        0
102
RTVSPost2010PropOp41
 70
     1
102
RTVSPost2010Prop42
 90
       50
102
RTVSPost2010PropOp42
 70
     1
102
RTVSPost2010Prop43
 90
        3
102
RTVSPost2010PropOp43
 70
     1
102
RTVSPost2010Prop44ColorIndex
 90
        5
102
RTVSPost2010Prop44ColorRGB
 90
      255
102
RTVSPost2010PropOp44
 70
     1
102
RTVSPost2010Prop45
280
     0
102
RTVSPost2010PropOp45
 70
     1
102
RTVSPost2010Prop46
 90
       50
102
RTVSPost2010PropOp46
 70
     1
102
RTVSPost2010Prop47
 90
       50
102
RTVSPost2010PropOp47
 70
     1
102
RTVSPost2010Prop48
 90
       50
102
RTVSPost2010PropOp48
 70
     1
102
RTVSPost2010Prop49
280
     0
102
RTVSPost2010PropOp49
 70
     1
102
RTVSPost2010Prop50
 90
       50
102
RTVSPost2010PropOp50
 70
     1
102
RTVSPost2010Prop51ColorIndex
 90
      256
102
RTVSPost2010Prop51ColorRGB
 90
-16777216
102
RTVSPost2010PropOp51
 70
     0
102
RTVSPost2010Prop52
140
1.0
102
RTVSPost2010PropOp52
 70
     0
102
RTVSPost2010Prop53
 90
        2
102
RTVSPost2010PropOp53
 70
     1
102
RTVSPost2010Prop54
  1
strokes_ogs.tif
102
RTVSPost2010PropOp54
 70
     1
102
RTVSPost2010Prop55
280
     0
102
RTVSPost2010PropOp55
 70
     1
102
RTVSPost2010Prop56
140
1.0
102
RTVSPost2010PropOp56
 70
     1
102
RTVSPost2010Prop57
140
1.0
102
RTVSPost2010PropOp57
 70
     1
  0
XRECORD
  5
1D7
102
{ACAD_REACTORS
330
1D6
102
}
330
1D6
100
AcDbXrecord
280
     1
102
RTVSPost2010Prop28
280
     0
102
RTVSPost2010PropOp28
 70
     0
102
RTVSPost2010Prop29
280
     1
102
RTVSPost2010PropOp29
 70
     0
102
RTVSPost2010Prop30
280
     1
102
RTVSPost2010PropOp30
 70
     0
102
RTVSPost2010Prop31
280
     0
102
RTVSPost2010PropOp31
 70
     0
102
RTVSPost2010Prop32
280
     0
102
RTVSPost2010PropOp32
 70
     0
102
RTVSPost2010Prop33
280
     0
102
RTVSPost2010PropOp33
 70
     0
102
RTVSPost2010Prop34
280
     0
102
RTVSPost2010PropOp34
 70
     0
102
RTVSPost2010Prop35
280
     0
102
RTVSPost2010PropOp35
 70
     0
102
RTVSPost2010Prop36
280
     0
102
RTVSPost2010PropOp36
 70
     0
102
RTVSPost2010Prop37
 90
       50
102
RTVSPost2010PropOp37
 70
     0
102
RTVSPost2010Prop38
140
0.0
102
RTVSPost2010PropOp38
 70
     0
102
RTVSPost2010Prop39
140
1.0
102
RTVSPost2010PropOp39
 70
     0
102
RTVSPost2010Prop40
 90
        0
102
RTVSPost2010PropOp40
 70
     0
102
RTVSPost2010Prop41ColorIndex
 90
       18
102
RTVSPost2010Prop41ColorRGB
 90
        0
102
RTVSPost2010PropOp41
 70
     0
102
RTVSPost2010Prop42
 90
       50
102
RTVSPost2010PropOp42
 70
     0
102
RTVSPost2010Prop43
 90
        3
102
RTVSPost2010PropOp43
 70
     0
102
RTVSPost2010Prop44ColorIndex
 90
        5
102
RTVSPost2010Prop44ColorRGB
 90
      255
102
RTVSPost2010PropOp44
 70
     0
102
RTVSPost2010Prop45
280
     0
102
RTVSPost2010PropOp45
 70
     0
102
RTVSPost2010Prop46
 90
       50
102
RTVSPost2010PropOp46
 70
     0
102
RTVSPost2010Prop47
 90
       50
102
RTVSPost2010PropOp47
 70
     0
102
RTVSPost2010Prop48
 90
       50
102
RTVSPost2010PropOp48
 70
     0
102
RTVSPost2010Prop49
280
     0
102
RTVSPost2010PropOp49
 70
     0
102
RTVSPost2010Prop50
 90
       50
102
RTVSPost2010PropOp50
 70
     0
102
RTVSPost2010Prop51ColorIndex
 90
      256
102
RTVSPost2010Prop51ColorRGB
 90
-16777216
102
RTVSPost2010PropOp51
 70
     0
102
RTVSPost2010Prop52
140
1.0
102
RTVSPost2010PropOp52
 70
     0
102
RTVSPost2010Prop53
 90
        2
102
RTVSPost2010PropOp53
 70
     0
102
RTVSPost2010Prop54
  1
strokes_ogs.tif
102
RTVSPost2010PropOp54
 70
     0
102
RTVSPost2010Prop55
280
     0
102
RTVSPost2010PropOp55
 70
     0
102
RTVSPost2010Prop56
140
1.0
102
RTVSPost2010PropOp56
 70
     0
102
RTVSPost2010Prop57
140
1.0
102
RTVSPost2010PropOp57
 70
     0
  0
XRECORD
  5
1BD
102
{ACAD_REACTORS
330
1BC
102
}
330
1BC
100
AcDbXrecord
280
     1
102
RTVSPost2010Prop28
280
     0
102
RTVSPost2010PropOp28
 70
     1
102
RTVSPost2010Prop29
280
     1
102
RTVSPost2010PropOp29
 70
     1
102
RTVSPost2010Prop30
280
     1
102
RTVSPost2010PropOp30
 70
     1
102
RTVSPost2010Prop31
280
     0
102
RTVSPost2010PropOp31
 70
     1
102
RTVSPost2010Prop32
280
     0
102
RTVSPost2010PropOp32
 70
     1
102
RTVSPost2010Prop33
280
     0
102
RTVSPost2010PropOp33
 70
     1
102
RTVSPost2010Prop34
280
     0
102
RTVSPost2010PropOp34
 70
     1
102
RTVSPost2010Prop35
280
     0
102
RTVSPost2010PropOp35
 70
     1
102
RTVSPost2010Prop36
280
     0
102
RTVSPost2010PropOp36
 70
     1
102
RTVSPost2010Prop37
 90
       50
102
RTVSPost2010PropOp37
 70
     1
102
RTVSPost2010Prop38
140
0.0
102
RTVSPost2010PropOp38
 70
     1
102
RTVSPost2010Prop39
140
1.0
102
RTVSPost2010PropOp39
 70
     1
102
RTVSPost2010Prop40
 90
        0
102
RTVSPost2010PropOp40
 70
     1
102
RTVSPost2010Prop41ColorIndex
 90
       18
102
RTVSPost2010Prop41ColorRGB
 90
        0
102
RTVSPost2010PropOp41
 70
     1
102
RTVSPost2010Prop42
 90
       50
102
RTVSPost2010PropOp42
 70
     1
102
RTVSPost2010Prop43
 90
        3
102
RTVSPost2010PropOp43
 70
     1
102
RTVSPost2010Prop44ColorIndex
 90
        5
102
RTVSPost2010Prop44ColorRGB
 90
      255
102
RTVSPost2010PropOp44
 70
     1
102
RTVSPost2010Prop45
280
     0
102
RTVSPost2010PropOp45
 70
     1
102
RTVSPost2010Prop46
 90
       50
102
RTVSPost2010PropOp46
 70
     1
102
RTVSPost2010Prop47
 90
       50
102
RTVSPost2010PropOp47
 70
     1
102
RTVSPost2010Prop48
 90
       50
102
RTVSPost2010PropOp48
 70
     1
102
RTVSPost2010Prop49
280
     0
102
RTVSPost2010PropOp49
 70
     1
102
RTVSPost2010Prop50
 90
       50
102
RTVSPost2010PropOp50
 70
     1
102
RTVSPost2010Prop51ColorIndex
 90
      256
102
RTVSPost2010Prop51ColorRGB
 90
-16777216
102
RTVSPost2010PropOp51
 70
     0
102
RTVSPost2010Prop52
140
1.0
102
RTVSPost2010PropOp52
 70
     0
102
RTVSPost2010Prop53
 90
        2
102
RTVSPost2010PropOp53
 70
     1
102
RTVSPost2010Prop54
  1
strokes_ogs.tif
102
RTVSPost2010PropOp54
 70
     1
102
RTVSPost2010Prop55
280
     0
102
RTVSPost2010PropOp55
 70
     1
102
RTVSPost2010Prop56
140
1.0
102
RTVSPost2010PropOp56
 70
     1
102
RTVSPost2010Prop57
140
1.0
102
RTVSPost2010PropOp57
 70
     1
  0
XRECORD
  5
1D3
102
{ACAD_REACTORS
330
1D2
102
}
330
1D2
100
AcDbXrecord
280
     1
102
RTVSPost2010Prop28
280
     0
102
RTVSPost2010PropOp28
 70
     1
102
RTVSPost2010Prop29
280
     1
102
RTVSPost2010PropOp29
 70
     1
102
RTVSPost2010Prop30
280
     1
102
RTVSPost2010PropOp30
 70
     1
102
RTVSPost2010Prop31
280
     0
102
RTVSPost2010PropOp31
 70
     1
102
RTVSPost2010Prop32
280
     0
102
RTVSPost2010PropOp32
 70
     1
102
RTVSPost2010Prop33
280
     0
102
RTVSPost2010PropOp33
 70
     1
102
RTVSPost2010Prop34
280
     0
102
RTVSPost2010PropOp34
 70
     1
102
RTVSPost2010Prop35
280
     0
102
RTVSPost2010PropOp35
 70
     1
102
RTVSPost2010Prop36
280
     0
102
RTVSPost2010PropOp36
 70
     1
102
RTVSPost2010Prop37
 90
       50
102
RTVSPost2010PropOp37
 70
     1
102
RTVSPost2010Prop38
140
0.0
102
RTVSPost2010PropOp38
 70
     1
102
RTVSPost2010Prop39
140
1.0
102
RTVSPost2010PropOp39
 70
     1
102
RTVSPost2010Prop40
 90
        0
102
RTVSPost2010PropOp40
 70
     1
102
RTVSPost2010Prop41ColorIndex
 90
       18
102
RTVSPost2010Prop41ColorRGB
 90
        0
102
RTVSPost2010PropOp41
 70
     1
102
RTVSPost2010Prop42
 90
       50
102
RTVSPost2010PropOp42
 70
     1
102
RTVSPost2010Prop43
 90
        3
102
RTVSPost2010PropOp43
 70
     1
102
RTVSPost2010Prop44ColorIndex
 90
        5
102
RTVSPost2010Prop44ColorRGB
 90
      255
102
RTVSPost2010PropOp44
 70
     1
102
RTVSPost2010Prop45
280
     0
102
RTVSPost2010PropOp45
 70
     1
102
RTVSPost2010Prop46
 90
       50
102
RTVSPost2010PropOp46
 70
     1
102
RTVSPost2010Prop47
 90
       50
102
RTVSPost2010PropOp47
 70
     1
102
RTVSPost2010Prop48
 90
       50
102
RTVSPost2010PropOp48
 70
     1
102
RTVSPost2010Prop49
280
     0
102
RTVSPost2010PropOp49
 70
     1
102
RTVSPost2010Prop50
 90
       50
102
RTVSPost2010PropOp50
 70
     1
102
RTVSPost2010Prop51ColorIndex
 90
      256
102
RTVSPost2010Prop51ColorRGB
 90
-16777216
102
RTVSPost2010PropOp51
 70
     0
102
RTVSPost2010Prop52
140
1.0
102
RTVSPost2010PropOp52
 70
     0
102
RTVSPost2010Prop53
 90
        2
102
RTVSPost2010PropOp53
 70
     1
102
RTVSPost2010Prop54
  1
strokes_ogs.tif
102
RTVSPost2010PropOp54
 70
     1
102
RTVSPost2010Prop55
280
     0
102
RTVSPost2010PropOp55
 70
     1
102
RTVSPost2010Prop56
140
1.0
102
RTVSPost2010PropOp56
 70
     1
102
RTVSPost2010Prop57
140
1.0
102
RTVSPost2010PropOp57
 70
     1
  0
XRECORD
  5
1D1
102
{ACAD_REACTORS
330
1D0
102
}
330
1D0
100
AcDbXrecord
280
     1
102
RTVSPost2010Prop28
280
     0
102
RTVSPost2010PropOp28
 70
     1
102
RTVSPost2010Prop29
280
     1
102
RTVSPost2010PropOp29
 70
     1
102
RTVSPost2010Prop30
280
     1
102
RTVSPost2010PropOp30
 70
     1
102
RTVSPost2010Prop31
280
     0
102
RTVSPost2010PropOp31
 70
     1
102
RTVSPost2010Prop32
280
     0
102
RTVSPost2010PropOp32
 70
     1
102
RTVSPost2010Prop33
280
     0
102
RTVSPost2010PropOp33
 70
     1
102
RTVSPost2010Prop34
280
     0
102
RTVSPost2010PropOp34
 70
     1
102
RTVSPost2010Prop35
280
     0
102
RTVSPost2010PropOp35
 70
     1
102
RTVSPost2010Prop36
280
     0
102
RTVSPost2010PropOp36
 70
     1
102
RTVSPost2010Prop37
 90
       50
102
RTVSPost2010PropOp37
 70
     1
102
RTVSPost2010Prop38
140
0.0
102
RTVSPost2010PropOp38
 70
     1
102
RTVSPost2010Prop39
140
1.0
102
RTVSPost2010PropOp39
 70
     1
102
RTVSPost2010Prop40
 90
        0
102
RTVSPost2010PropOp40
 70
     1
102
RTVSPost2010Prop41ColorIndex
 90
       18
102
RTVSPost2010Prop41ColorRGB
 90
        0
102
RTVSPost2010PropOp41
 70
     1
102
RTVSPost2010Prop42
 90
       50
102
RTVSPost2010PropOp42
 70
     1
102
RTVSPost2010Prop43
 90
        3
102
RTVSPost2010PropOp43
 70
     1
102
RTVSPost2010Prop44ColorIndex
 90
        5
102
RTVSPost2010Prop44ColorRGB
 90
      255
102
RTVSPost2010PropOp44
 70
     1
102
RTVSPost2010Prop45
280
     0
102
RTVSPost2010PropOp45
 70
     1
102
RTVSPost2010Prop46
 90
       50
102
RTVSPost2010PropOp46
 70
     1
102
RTVSPost2010Prop47
 90
       50
102
RTVSPost2010PropOp47
 70
     1
102
RTVSPost2010Prop48
 90
       50
102
RTVSPost2010PropOp48
 70
     1
102
RTVSPost2010Prop49
280
     0
102
RTVSPost2010PropOp49
 70
     1
102
RTVSPost2010Prop50
 90
       50
102
RTVSPost2010PropOp50
 70
     1
102
RTVSPost2010Prop51ColorIndex
 90
      256
102
RTVSPost2010Prop51ColorRGB
 90
-16777216
102
RTVSPost2010PropOp51
 70
     0
102
RTVSPost2010Prop52
140
1.0
102
RTVSPost2010PropOp52
 70
     0
102
RTVSPost2010Prop53
 90
        2
102
RTVSPost2010PropOp53
 70
     1
102
RTVSPost2010Prop54
  1
strokes_ogs.tif
102
RTVSPost2010PropOp54
 70
     1
102
RTVSPost2010Prop55
280
     0
102
RTVSPost2010PropOp55
 70
     1
102
RTVSPost2010Prop56
140
1.0
102
RTVSPost2010PropOp56
 70
     1
102
RTVSPost2010Prop57
140
1.0
102
RTVSPost2010PropOp57
 70
     1
  0
XRECORD
  5
1CB
102
{ACAD_REACTORS
330
1CA
102
}
330
1CA
100
AcDbXrecord
280
     1
102
RTVSPost2010Prop28
280
     0
102
RTVSPost2010PropOp28
 70
     1
102
RTVSPost2010Prop29
280
     1
102
RTVSPost2010PropOp29
 70
     1
102
RTVSPost2010Prop30
280
     1
102
RTVSPost2010PropOp30
 70
     1
102
RTVSPost2010Prop31
280
     0
102
RTVSPost2010PropOp31
 70
     1
102
RTVSPost2010Prop32
280
     0
102
RTVSPost2010PropOp32
 70
     1
102
RTVSPost2010Prop33
280
     0
102
RTVSPost2010PropOp33
 70
     1
102
RTVSPost2010Prop34
280
     0
102
RTVSPost2010PropOp34
 70
     1
102
RTVSPost2010Prop35
280
     0
102
RTVSPost2010PropOp35
 70
     1
102
RTVSPost2010Prop36
280
     0
102
RTVSPost2010PropOp36
 70
     1
102
RTVSPost2010Prop37
 90
       50
102
RTVSPost2010PropOp37
 70
     1
102
RTVSPost2010Prop38
140
0.0
102
RTVSPost2010PropOp38
 70
     1
102
RTVSPost2010Prop39
140
1.0
102
RTVSPost2010PropOp39
 70
     1
102
RTVSPost2010Prop40
 90
        0
102
RTVSPost2010PropOp40
 70
     1
102
RTVSPost2010Prop41ColorIndex
 90
       18
102
RTVSPost2010Prop41ColorRGB
 90
        0
102
RTVSPost2010PropOp41
 70
     1
102
RTVSPost2010Prop42
 90
       50
102
RTVSPost2010PropOp42
 70
     1
102
RTVSPost2010Prop43
 90
        3
102
RTVSPost2010PropOp43
 70
     1
102
RTVSPost2010Prop44ColorIndex
 90
        5
102
RTVSPost2010Prop44ColorRGB
 90
      255
102
RTVSPost2010PropOp44
 70
     1
102
RTVSPost2010Prop45
280
     0
102
RTVSPost2010PropOp45
 70
     1
102
RTVSPost2010Prop46
 90
       50
102
RTVSPost2010PropOp46
 70
     1
102
RTVSPost2010Prop47
 90
       50
102
RTVSPost2010PropOp47
 70
     1
102
RTVSPost2010Prop48
 90
       50
102
RTVSPost2010PropOp48
 70
     1
102
RTVSPost2010Prop49
280
     0
102
RTVSPost2010PropOp49
 70
     1
102
RTVSPost2010Prop50
 90
       50
102
RTVSPost2010PropOp50
 70
     1
102
RTVSPost2010Prop51ColorIndex
 90
      256
102
RTVSPost2010Prop51ColorRGB
 90
-16777216
102
RTVSPost2010PropOp51
 70
     0
102
RTVSPost2010Prop52
140
1.0
102
RTVSPost2010PropOp52
 70
     0
102
RTVSPost2010Prop53
 90
        2
102
RTVSPost2010PropOp53
 70
     1
102
RTVSPost2010Prop54
  1
strokes_ogs.tif
102
RTVSPost2010PropOp54
 70
     1
102
RTVSPost2010Prop55
280
     0
102
RTVSPost2010PropOp55
 70
     1
102
RTVSPost2010Prop56
140
1.0
102
RTVSPost2010PropOp56
 70
     1
102
RTVSPost2010Prop57
140
1.0
102
RTVSPost2010PropOp57
 70
     1
  0
XRECORD
  5
1CD
102
{ACAD_REACTORS
330
1CC
102
}
330
1CC
100
AcDbXrecord
280
     1
102
RTVSPost2010Prop28
280
     0
102
RTVSPost2010PropOp28
 70
     1
102
RTVSPost2010Prop29
280
     1
102
RTVSPost2010PropOp29
 70
     1
102
RTVSPost2010Prop30
280
     1
102
RTVSPost2010PropOp30
 70
     1
102
RTVSPost2010Prop31
280
     0
102
RTVSPost2010PropOp31
 70
     1
102
RTVSPost2010Prop32
280
     0
102
RTVSPost2010PropOp32
 70
     1
102
RTVSPost2010Prop33
280
     0
102
RTVSPost2010PropOp33
 70
     1
102
RTVSPost2010Prop34
280
     0
102
RTVSPost2010PropOp34
 70
     1
102
RTVSPost2010Prop35
280
     0
102
RTVSPost2010PropOp35
 70
     1
102
RTVSPost2010Prop36
280
     0
102
RTVSPost2010PropOp36
 70
     1
102
RTVSPost2010Prop37
 90
       50
102
RTVSPost2010PropOp37
 70
     1
102
RTVSPost2010Prop38
140
0.0
102
RTVSPost2010PropOp38
 70
     1
102
RTVSPost2010Prop39
140
1.0
102
RTVSPost2010PropOp39
 70
     1
102
RTVSPost2010Prop40
 90
        0
102
RTVSPost2010PropOp40
 70
     1
102
RTVSPost2010Prop41ColorIndex
 90
       18
102
RTVSPost2010Prop41ColorRGB
 90
        0
102
RTVSPost2010PropOp41
 70
     1
102
RTVSPost2010Prop42
 90
       50
102
RTVSPost2010PropOp42
 70
     1
102
RTVSPost2010Prop43
 90
        3
102
RTVSPost2010PropOp43
 70
     1
102
RTVSPost2010Prop44ColorIndex
 90
        5
102
RTVSPost2010Prop44ColorRGB
 90
      255
102
RTVSPost2010PropOp44
 70
     1
102
RTVSPost2010Prop45
280
     0
102
RTVSPost2010PropOp45
 70
     1
102
RTVSPost2010Prop46
 90
       50
102
RTVSPost2010PropOp46
 70
     1
102
RTVSPost2010Prop47
 90
       50
102
RTVSPost2010PropOp47
 70
     1
102
RTVSPost2010Prop48
 90
       50
102
RTVSPost2010PropOp48
 70
     1
102
RTVSPost2010Prop49
280
     0
102
RTVSPost2010PropOp49
 70
     1
102
RTVSPost2010Prop50
 90
       50
102
RTVSPost2010PropOp50
 70
     1
102
RTVSPost2010Prop51ColorIndex
 90
      256
102
RTVSPost2010Prop51ColorRGB
 90
-16777216
102
RTVSPost2010PropOp51
 70
     0
102
RTVSPost2010Prop52
140
1.0
102
RTVSPost2010PropOp52
 70
     0
102
RTVSPost2010Prop53
 90
        2
102
RTVSPost2010PropOp53
 70
     1
102
RTVSPost2010Prop54
  1
strokes_ogs.tif
102
RTVSPost2010PropOp54
 70
     1
102
RTVSPost2010Prop55
280
     0
102
RTVSPost2010PropOp55
 70
     1
102
RTVSPost2010Prop56
140
1.0
102
RTVSPost2010PropOp56
 70
     1
102
RTVSPost2010Prop57
140
1.0
102
RTVSPost2010PropOp57
 70
     1
  0
XRECORD
  5
1C3
102
{ACAD_REACTORS
330
1C2
102
}
330
1C2
100
AcDbXrecord
280
     1
102
RTVSPost2010Prop28
280
     0
102
RTVSPost2010PropOp28
 70
     1
102
RTVSPost2010Prop29
280
     1
102
RTVSPost2010PropOp29
 70
     1
102
RTVSPost2010Prop30
280
     1
102
RTVSPost2010PropOp30
 70
     1
102
RTVSPost2010Prop31
280
     0
102
RTVSPost2010PropOp31
 70
     1
102
RTVSPost2010Prop32
280
     0
102
RTVSPost2010PropOp32
 70
     1
102
RTVSPost2010Prop33
280
     0
102
RTVSPost2010PropOp33
 70
     1
102
RTVSPost2010Prop34
280
     0
102
RTVSPost2010PropOp34
 70
     1
102
RTVSPost2010Prop35
280
     0
102
RTVSPost2010PropOp35
 70
     1
102
RTVSPost2010Prop36
280
     0
102
RTVSPost2010PropOp36
 70
     1
102
RTVSPost2010Prop37
 90
       50
102
RTVSPost2010PropOp37
 70
     1
102
RTVSPost2010Prop38
140
0.0
102
RTVSPost2010PropOp38
 70
     1
102
RTVSPost2010Prop39
140
1.0
102
RTVSPost2010PropOp39
 70
     1
102
RTVSPost2010Prop40
 90
        0
102
RTVSPost2010PropOp40
 70
     1
102
RTVSPost2010Prop41ColorIndex
 90
       18
102
RTVSPost2010Prop41ColorRGB
 90
        0
102
RTVSPost2010PropOp41
 70
     1
102
RTVSPost2010Prop42
 90
       50
102
RTVSPost2010PropOp42
 70
     1
102
RTVSPost2010Prop43
 90
        3
102
RTVSPost2010PropOp43
 70
     1
102
RTVSPost2010Prop44ColorIndex
 90
        5
102
RTVSPost2010Prop44ColorRGB
 90
      255
102
RTVSPost2010PropOp44
 70
     1
102
RTVSPost2010Prop45
280
     0
102
RTVSPost2010PropOp45
 70
     1
102
RTVSPost2010Prop46
 90
       50
102
RTVSPost2010PropOp46
 70
     1
102
RTVSPost2010Prop47
 90
       50
102
RTVSPost2010PropOp47
 70
     1
102
RTVSPost2010Prop48
 90
       50
102
RTVSPost2010PropOp48
 70
     1
102
RTVSPost2010Prop49
280
     0
102
RTVSPost2010PropOp49
 70
     1
102
RTVSPost2010Prop50
 90
       50
102
RTVSPost2010PropOp50
 70
     1
102
RTVSPost2010Prop51ColorIndex
 90
      256
102
RTVSPost2010Prop51ColorRGB
 90
-16777216
102
RTVSPost2010PropOp51
 70
     0
102
RTVSPost2010Prop52
140
1.0
102
RTVSPost2010PropOp52
 70
     0
102
RTVSPost2010Prop53
 90
        2
102
RTVSPost2010PropOp53
 70
     1
102
RTVSPost2010Prop54
  1
strokes_ogs.tif
102
RTVSPost2010PropOp54
 70
     1
102
RTVSPost2010Prop55
280
     0
102
RTVSPost2010PropOp55
 70
     1
102
RTVSPost2010Prop56
140
1.0
102
RTVSPost2010PropOp56
 70
     1
102
RTVSPost2010Prop57
140
1.0
102
RTVSPost2010PropOp57
 70
     1
  0
XRECORD
  5
1B7
102
{ACAD_REACTORS
330
1B6
102
}
330
1B6
100
AcDbXrecord
280
     1
102
RTVSPost2010Prop28
280
     0
102
RTVSPost2010PropOp28
 70
     1
102
RTVSPost2010Prop29
280
     1
102
RTVSPost2010PropOp29
 70
     1
102
RTVSPost2010Prop30
280
     1
102
RTVSPost2010PropOp30
 70
     1
102
RTVSPost2010Prop31
280
     0
102
RTVSPost2010PropOp31
 70
     1
102
RTVSPost2010Prop32
280
     0
102
RTVSPost2010PropOp32
 70
     1
102
RTVSPost2010Prop33
280
     0
102
RTVSPost2010PropOp33
 70
     1
102
RTVSPost2010Prop34
280
     0
102
RTVSPost2010PropOp34
 70
     1
102
RTVSPost2010Prop35
280
     0
102
RTVSPost2010PropOp35
 70
     1
102
RTVSPost2010Prop36
280
     0
102
RTVSPost2010PropOp36
 70
     1
102
RTVSPost2010Prop37
 90
       50
102
RTVSPost2010PropOp37
 70
     1
102
RTVSPost2010Prop38
140
0.0
102
RTVSPost2010PropOp38
 70
     1
102
RTVSPost2010Prop39
140
1.0
102
RTVSPost2010PropOp39
 70
     1
102
RTVSPost2010Prop40
 90
        0
102
RTVSPost2010PropOp40
 70
     1
102
RTVSPost2010Prop41ColorIndex
 90
       18
102
RTVSPost2010Prop41ColorRGB
 90
        0
102
RTVSPost2010PropOp41
 70
     1
102
RTVSPost2010Prop42
 90
       50
102
RTVSPost2010PropOp42
 70
     1
102
RTVSPost2010Prop43
 90
        3
102
RTVSPost2010PropOp43
 70
     1
102
RTVSPost2010Prop44ColorIndex
 90
        5
102
RTVSPost2010Prop44ColorRGB
 90
      255
102
RTVSPost2010PropOp44
 70
     1
102
RTVSPost2010Prop45
280
     0
102
RTVSPost2010PropOp45
 70
     1
102
RTVSPost2010Prop46
 90
       50
102
RTVSPost2010PropOp46
 70
     1
102
RTVSPost2010Prop47
 90
       50
102
RTVSPost2010PropOp47
 70
     1
102
RTVSPost2010Prop48
 90
       50
102
RTVSPost2010PropOp48
 70
     1
102
RTVSPost2010Prop49
280
     0
102
RTVSPost2010PropOp49
 70
     1
102
RTVSPost2010Prop50
 90
       50
102
RTVSPost2010PropOp50
 70
     1
102
RTVSPost2010Prop51ColorIndex
 90
      256
102
RTVSPost2010Prop51ColorRGB
 90
-16777216
102
RTVSPost2010PropOp51
 70
     0
102
RTVSPost2010Prop52
140
1.0
102
RTVSPost2010PropOp52
 70
     0
102
RTVSPost2010Prop53
 90
        2
102
RTVSPost2010PropOp53
 70
     1
102
RTVSPost2010Prop54
  1
strokes_ogs.tif
102
RTVSPost2010PropOp54
 70
     1
102
RTVSPost2010Prop55
280
     0
102
RTVSPost2010PropOp55
 70
     1
102
RTVSPost2010Prop56
140
1.0
102
RTVSPost2010PropOp56
 70
     1
102
RTVSPost2010Prop57
140
1.0
102
RTVSPost2010PropOp57
 70
     1
  0
XRECORD
  5
1CF
102
{ACAD_REACTORS
330
1CE
102
}
330
1CE
100
AcDbXrecord
280
     1
102
RTVSPost2010Prop28
280
     0
102
RTVSPost2010PropOp28
 70
     1
102
RTVSPost2010Prop29
280
     1
102
RTVSPost2010PropOp29
 70
     1
102
RTVSPost2010Prop30
280
     1
102
RTVSPost2010PropOp30
 70
     1
102
RTVSPost2010Prop31
280
     0
102
RTVSPost2010PropOp31
 70
     1
102
RTVSPost2010Prop32
280
     0
102
RTVSPost2010PropOp32
 70
     1
102
RTVSPost2010Prop33
280
     0
102
RTVSPost2010PropOp33
 70
     1
102
RTVSPost2010Prop34
280
     0
102
RTVSPost2010PropOp34
 70
     1
102
RTVSPost2010Prop35
280
     0
102
RTVSPost2010PropOp35
 70
     1
102
RTVSPost2010Prop36
280
     0
102
RTVSPost2010PropOp36
 70
     1
102
RTVSPost2010Prop37
 90
       50
102
RTVSPost2010PropOp37
 70
     1
102
RTVSPost2010Prop38
140
0.0
102
RTVSPost2010PropOp38
 70
     1
102
RTVSPost2010Prop39
140
1.0
102
RTVSPost2010PropOp39
 70
     1
102
RTVSPost2010Prop40
 90
        0
102
RTVSPost2010PropOp40
 70
     1
102
RTVSPost2010Prop41ColorIndex
 90
       18
102
RTVSPost2010Prop41ColorRGB
 90
        0
102
RTVSPost2010PropOp41
 70
     1
102
RTVSPost2010Prop42
 90
       50
102
RTVSPost2010PropOp42
 70
     1
102
RTVSPost2010Prop43
 90
        3
102
RTVSPost2010PropOp43
 70
     1
102
RTVSPost2010Prop44ColorIndex
 90
        5
102
RTVSPost2010Prop44ColorRGB
 90
      255
102
RTVSPost2010PropOp44
 70
     1
102
RTVSPost2010Prop45
280
     0
102
RTVSPost2010PropOp45
 70
     1
102
RTVSPost2010Prop46
 90
       50
102
RTVSPost2010PropOp46
 70
     1
102
RTVSPost2010Prop47
 90
       50
102
RTVSPost2010PropOp47
 70
     1
102
RTVSPost2010Prop48
 90
       50
102
RTVSPost2010PropOp48
 70
     1
102
RTVSPost2010Prop49
280
     0
102
RTVSPost2010PropOp49
 70
     1
102
RTVSPost2010Prop50
 90
       50
102
RTVSPost2010PropOp50
 70
     1
102
RTVSPost2010Prop51ColorIndex
 90
      256
102
RTVSPost2010Prop51ColorRGB
 90
-16777216
102
RTVSPost2010PropOp51
 70
     0
102
RTVSPost2010Prop52
140
1.0
102
RTVSPost2010PropOp52
 70
     0
102
RTVSPost2010Prop53
 90
        2
102
RTVSPost2010PropOp53
 70
     1
102
RTVSPost2010Prop54
  1
strokes_ogs.tif
102
RTVSPost2010PropOp54
 70
     1
102
RTVSPost2010Prop55
280
     0
102
RTVSPost2010PropOp55
 70
     1
102
RTVSPost2010Prop56
140
1.0
102
RTVSPost2010PropOp56
 70
     1
102
RTVSPost2010Prop57
140
1.0
102
RTVSPost2010PropOp57
 70
     1
  0
ENDSEC
  0
EOF
