  0
SECTION
  2
HEADER
  9
$ACADVER
  1
AC1024
  9
$ACADMAINTVER
 70
   226
  9
$DWGCODEPAGE
  3
ANSI_932
  9
$INSBASE
 10
0.0
 20
0.0
 30
0.0
  9
$EXTMIN
 10
1.000000000000000E+20
 20
1.000000000000000E+20
 30
1.000000000000000E+20
  9
$EXTMAX
 10
-1.000000000000000E+20
 20
-1.000000000000000E+20
 30
-1.000000000000000E+20
  9
$LIMMIN
 10
0.0
 20
0.0
  9
$LIMMAX
 10
12.0
 20
9.0
  9
$ORTHOMODE
 70
     0
  9
$REGENMODE
 70
     1
  9
$FILLMODE
 70
     1
  9
$QTEXTMODE
 70
     0
  9
$MIRRTEXT
 70
     0
  9
$LTSCALE
 40
1.0
  9
$ATTMODE
 70
     1
  9
$TEXTSIZE
 40
0.2
  9
$TRACEWID
 40
0.05
  9
$TEXTSTYLE
  7
Standard
  9
$CLAYER
  8
0
  9
$CELTYPE
  6
ByLayer
  9
$CECOLOR
 62
   256
  9
$CELTSCALE
 40
1.0
  9
$DISPSILH
 70
     0
  9
$DIMSCALE
 40
1.0
  9
$DIMASZ
 40
0.18
  9
$DIMEXO
 40
0.0625
  9
$DIMDLI
 40
0.38
  9
$DIMRND
 40
0.0
  9
$DIMDLE
 40
0.0
  9
$DIMEXE
 40
0.18
  9
$DIMTP
 40
0.0
  9
$DIMTM
 40
0.0
  9
$DIMTXT
 40
0.18
  9
$DIMCEN
 40
0.09
  9
$DIMTSZ
 40
0.0
  9
$DIMTOL
 70
     0
  9
$DIMLIM
 70
     0
  9
$DIMTIH
 70
     1
  9
$DIMTOH
 70
     1
  9
$DIMSE1
 70
     0
  9
$DIMSE2
 70
     0
  9
$DIMTAD
 70
     0
  9
$DIMZIN
 70
     0
  9
$DIMBLK
  1

  9
$DIMASO
 70
     1
  9
$DIMSHO
 70
     1
  9
$DIMPOST
  1

  9
$DIMAPOST
  1

  9
$DIMALT
 70
     0
  9
$DIMALTD
 70
     2
  9
$DIMALTF
 40
25.4
  9
$DIMLFAC
 40
1.0
  9
$DIMTOFL
 70
     0
  9
$DIMTVP
 40
0.0
  9
$DIMTIX
 70
     0
  9
$DIMSOXD
 70
     0
  9
$DIMSAH
 70
     0
  9
$DIMBLK1
  1

  9
$DIMBLK2
  1

  9
$DIMSTYLE
  2
Standard
  9
$DIMCLRD
 70
     0
  9
$DIMCLRE
 70
     0
  9
$DIMCLRT
 70
     0
  9
$DIMTFAC
 40
1.0
  9
$DIMGAP
 40
0.09
  9
$DIMJUST
 70
     0
  9
$DIMSD1
 70
     0
  9
$DIMSD2
 70
     0
  9
$DIMTOLJ
 70
     1
  9
$DIMTZIN
 70
     0
  9
$DIMALTZ
 70
     0
  9
$DIMALTTZ
 70
     0
  9
$DIMUPT
 70
     0
  9
$DIMDEC
 70
     4
  9
$DIMTDEC
 70
     4
  9
$DIMALTU
 70
     2
  9
$DIMALTTD
 70
     2
  9
$DIMTXSTY
  7
Standard
  9
$DIMAUNIT
 70
     0
  9
$DIMADEC
 70
     0
  9
$DIMALTRND
 40
0.0
  9
$DIMAZIN
 70
     0
  9
$DIMDSEP
 70
    46
  9
$DIMATFIT
 70
     3
  9
$DIMFRAC
 70
     0
  9
$DIMLDRBLK
  1

  9
$DIMLUNIT
 70
     2
  9
$DIMLWD
 70
    -2
  9
$DIMLWE
 70
    -2
  9
$DIMTMOVE
 70
     0
  9
$DIMFXL
 40
1.0
  9
$DIMFXLON
 70
     0
  9
$DIMJOGANG
 40
0.7853981633974483
  9
$DIMTFILL
 70
     0
  9
$DIMTFILLCLR
 70
     0
  9
$DIMARCSYM
 70
     0
  9
$DIMLTYPE
  6

  9
$DIMLTEX1
  6

  9
$DIMLTEX2
  6

  9
$DIMTXTDIRECTION
 70
     0
  9
$LUNITS
 70
     2
  9
$LUPREC
 70
     4
  9
$SKETCHINC
 40
0.1
  9
$FILLETRAD
 40
0.0
  9
$AUNITS
 70
     0
  9
$AUPREC
 70
     0
  9
$MENU
  1
.
  9
$ELEVATION
 40
0.0
  9
$PELEVATION
 40
0.0
  9
$THICKNESS
 40
0.0
  9
$LIMCHECK
 70
     0
  9
$CHAMFERA
 40
0.0
  9
$CHAMFERB
 40
0.0
  9
$CHAMFERC
 40
0.0
  9
$CHAMFERD
 40
0.0
  9
$SKPOLY
 70
     0
  9
$TDCREATE
 40
2459569.503402778
  9
$TDUCREATE
 40
2459569.128402778
  9
$TDUPDATE
 40
2459569.503402778
  9
$TDUUPDATE
 40
2459569.128402778
  9
$TDINDWG
 40
0.0000000000
  9
$TDUSRTIMER
 40
0.0000000000
  9
$USRTIMER
 70
     1
  9
$ANGBASE
 50
0.0
  9
$ANGDIR
 70
     0
  9
$PDMODE
 70
     0
  9
$PDSIZE
 40
0.0
  9
$PLINEWID
 40
0.0
  9
$SPLFRAME
 70
     0
  9
$SPLINETYPE
 70
     6
  9
$SPLINESEGS
 70
     8
  9
$HANDSEED
  5
1A6
  9
$SURFTAB1
 70
     6
  9
$SURFTAB2
 70
     6
  9
$SURFTYPE
 70
     6
  9
$SURFU
 70
     6
  9
$SURFV
 70
     6
  9
$UCSBASE
  2

  9
$UCSNAME
  2

  9
$UCSORG
 10
0.0
 20
0.0
 30
0.0
  9
$UCSXDIR
 10
1.0
 20
0.0
 30
0.0
  9
$UCSYDIR
 10
0.0
 20
1.0
 30
0.0
  9
$UCSORTHOREF
  2

  9
$UCSORTHOVIEW
 70
     0
  9
$UCSORGTOP
 10
0.0
 20
0.0
 30
0.0
  9
$UCSORGBOTTOM
 10
0.0
 20
0.0
 30
0.0
  9
$UCSORGLEFT
 10
0.0
 20
0.0
 30
0.0
  9
$UCSORGRIGHT
 10
0.0
 20
0.0
 30
0.0
  9
$UCSORGFRONT
 10
0.0
 20
0.0
 30
0.0
  9
$UCSORGBACK
 10
0.0
 20
0.0
 30
0.0
  9
$PUCSBASE
  2

  9
$PUCSNAME
  2

  9
$PUCSORG
 10
0.0
 20
0.0
 30
0.0
  9
$PUCSXDIR
 10
1.0
 20
0.0
 30
0.0
  9
$PUCSYDIR
 10
0.0
 20
1.0
 30
0.0
  9
$PUCSORTHOREF
  2

  9
$PUCSORTHOVIEW
 70
     0
  9
$PUCSORGTOP
 10
0.0
 20
0.0
 30
0.0
  9
$PUCSORGBOTTOM
 10
0.0
 20
0.0
 30
0.0
  9
$PUCSORGLEFT
 10
0.0
 20
0.0
 30
0.0
  9
$PUCSORGRIGHT
 10
0.0
 20
0.0
 30
0.0
  9
$PUCSORGFRONT
 10
0.0
 20
0.0
 30
0.0
  9
$PUCSORGBACK
 10
0.0
 20
0.0
 30
0.0
  9
$USERI1
 70
     0
  9
$USERI2
 70
     0
  9
$USERI3
 70
     0
  9
$USERI4
 70
     0
  9
$USERI5
 70
     0
  9
$USERR1
 40
0.0
  9
$USERR2
 40
0.0
  9
$USERR3
 40
0.0
  9
$USERR4
 40
0.0
  9
$USERR5
 40
0.0
  9
$WORLDVIEW
 70
     1
  9
$SHADEDGE
 70
     3
  9
$SHADEDIF
 70
    70
  9
$TILEMODE
 70
     1
  9
$MAXACTVP
 70
    64
  9
$PINSBASE
 10
0.0
 20
0.0
 30
0.0
  9
$PLIMCHECK
 70
     0
  9
$PEXTMIN
 10
1.000000000000000E+20
 20
1.000000000000000E+20
 30
1.000000000000000E+20
  9
$PEXTMAX
 10
-1.000000000000000E+20
 20
-1.000000000000000E+20
 30
-1.000000000000000E+20
  9
$PLIMMIN
 10
0.0
 20
0.0
  9
$PLIMMAX
 10
12.0
 20
9.0
  9
$UNITMODE
 70
     0
  9
$VISRETAIN
 70
     1
  9
$PLINEGEN
 70
     0
  9
$PSLTSCALE
 70
     1
  9
$TREEDEPTH
 70
  3020
  9
$CMLSTYLE
  2
Standard
  9
$CMLJUST
 70
     0
  9
$CMLSCALE
 40
1.0
  9
$PROXYGRAPHICS
 70
     1
  9
$MEASUREMENT
 70
     0
  9
$CELWEIGHT
370
    -1
  9
$ENDCAPS
280
     0
  9
$JOINSTYLE
280
     0
  9
$LWDISPLAY
290
     1
  9
$INSUNITS
 70
     4
  9
$HYPERLINKBASE
  1

  9
$STYLESHEET
  1

  9
$XEDIT
290
     1
  9
$CEPSNTYPE
380
     0
  9
$PSTYLEMODE
290
     1
  9
$FINGERPRINTGUID
  2
{9142AF82-8422-C64A-9B4A-2ABD5A83C255}
  9
$VERSIONGUID
  2
{3F76079D-B6B3-164A-90BE-D7F93C30FF1A}
  9
$EXTNAMES
290
     1
  9
$PSVPSCALE
 40
0.0
  9
$OLESTARTUP
290
     0
  9
$SORTENTS
280
   127
  9
$INDEXCTL
280
     0
  9
$HIDETEXT
280
     1
  9
$XCLIPFRAME
280
     2
  9
$HALOGAP
280
     0
  9
$OBSCOLOR
 70
   257
  9
$OBSLTYPE
280
     0
  9
$INTERSECTIONDISPLAY
280
     0
  9
$INTERSECTIONCOLOR
 70
   257
  9
$DIMASSOC
280
     2
  9
$PROJECTNAME
  1

  9
$CAMERADISPLAY
290
     0
  9
$LENSLENGTH
 40
50.0
  9
$CAMERAHEIGHT
 40
0.0
  9
$STEPSPERSEC
 40
2.0
  9
$STEPSIZE
 40
6.0
  9
$3DDWFPREC
 40
2.0
  9
$PSOLWIDTH
 40
0.25
  9
$PSOLHEIGHT
 40
4.0
  9
$LOFTANG1
 40
1.570796326794896
  9
$LOFTANG2
 40
1.570796326794896
  9
$LOFTMAG1
 40
0.0
  9
$LOFTMAG2
 40
0.0
  9
$LOFTPARAM
 70
     7
  9
$LOFTNORMALS
280
     1
  9
$LATITUDE
 40
37.795
  9
$LONGITUDE
 40
-122.394
  9
$NORTHDIRECTION
 40
0.0
  9
$TIMEZONE
 70
 -8000
  9
$LIGHTGLYPHDISPLAY
280
     1
  9
$TILEMODELIGHTSYNCH
280
     1
  9
$CMATERIAL
347
11
  9
$SOLIDHIST
280
     0
  9
$SHOWHIST
280
     1
  9
$DWFFRAME
280
     2
  9
$DGNFRAME
280
     0
  9
$REALWORLDSCALE
290
     1
  9
$INTERFERECOLOR
 62
     1
  9
$INTERFEREOBJVS
345
33
  9
$INTERFEREVPVS
346
30
  9
$CSHADOW
280
     0
  9
$SHADOWPLANELOCATION
 40
0.0
  0
ENDSEC
  0
SECTION
  2
CLASSES
  0
CLASS
  1
ACDBDICTIONARYWDFLT
  2
AcDbDictionaryWithDefault
  3
ObjectDBX Classes
 90
        0
 91
        1
280
     0
281
     0
  0
CLASS
  1
MATERIAL
  2
AcDbMaterial
  3
ObjectDBX Classes
 90
     1153
 91
        3
280
     0
281
     0
  0
CLASS
  1
VISUALSTYLE
  2
AcDbVisualStyle
  3
ObjectDBX Classes
 90
     4095
 91
       24
280
     0
281
     0
  0
CLASS
  1
SCALE
  2
AcDbScale
  3
ObjectDBX Classes
 90
     1153
 91
       17
280
     0
281
     0
  0
CLASS
  1
TABLESTYLE
  2
AcDbTableStyle
  3
ObjectDBX Classes
 90
     4095
 91
        1
280
     0
281
     0
  0
CLASS
  1
MLEADERSTYLE
  2
AcDbMLeaderStyle
  3
ACDB_MLEADERSTYLE_CLASS
 90
     4095
 91
        1
280
     0
281
     0
  0
CLASS
  1
ACDBSECTIONVIEWSTYLE
  2
AcDbSectionViewStyle
  3
ObjectDBX Classes
 90
     1025
 91
        1
280
     0
281
     0
  0
CLASS
  1
ACDBDETAILVIEWSTYLE
  2
AcDbDetailViewStyle
  3
ObjectDBX Classes
 90
     1025
 91
        1
280
     0
281
     0
  0
CLASS
  1
DICTIONARYVAR
  2
AcDbDictionaryVar
  3
ObjectDBX Classes
 90
        0
 91
        5
280
     0
281
     0
  0
CLASS
  1
CELLSTYLEMAP
  2
AcDbCellStyleMap
  3
ObjectDBX Classes
 90
     1152
 91
        1
280
     0
281
     0
  0
ENDSEC
  0
SECTION
  2
TABLES
  0
TABLE
  2
VPORT
  5
8
330
0
100
AcDbSymbolTable
 70
     1
  0
VPORT
  5
57
330
8
100
AcDbSymbolTableRecord
100
AcDbViewportTableRecord
  2
*Active
 70
     0
 10
0.0
 20
0.0
 11
1.0
 21
1.0
 12
0.0
 22
0.0
 13
0.0
 23
0.0
 14
1.0
 24
1.0
 15
0.0
 25
0.0
 16
0.0
 26
0.0
 36
1.0
 17
104.9999999737534
 27
-148.4999999628701
 37
0.0
 40
302.939999924255
 41
0.7070707070707534
 42
50.0
 43
0.0
 44
0.0
 50
0.0
 51
0.0
 71
     0
 72
   100
 73
     1
 74
     0
 75
     1
 76
     0
 77
     0
 78
     0
281
     0
 65
     1
110
0.0
120
0.0
130
0.0
111
1.0
121
0.0
131
0.0
112
0.0
122
1.0
132
0.0
 79
     0
146
0.0
 60
     3
 61
     5
292
     1
282
     1
141
0.0
142
0.0
 63
   250
421
  3355443
  0
ENDTAB
  0
TABLE
  2
LTYPE
  5
5
330
0
100
AcDbSymbolTable
 70
     3
  0
LTYPE
  5
5B
330
5
100
AcDbSymbolTableRecord
100
AcDbLinetypeTableRecord
  2
ByBlock
 70
     0
  3

 72
    65
 73
     0
 40
0.0
  0
LTYPE
  5
5C
330
5
100
AcDbSymbolTableRecord
100
AcDbLinetypeTableRecord
  2
ByLayer
 70
     0
  3

 72
    65
 73
     0
 40
0.0
  0
LTYPE
  5
5D
330
5
100
AcDbSymbolTableRecord
100
AcDbLinetypeTableRecord
  2
Continuous
 70
     0
  3
Solid line
 72
    65
 73
     0
 40
0.0
  0
LTYPE
  5
13E
330
5
100
AcDbSymbolTableRecord
100
AcDbLinetypeTableRecord
  2
AI-Linetype-0
 70
     0
  3
Adobe Illustrator Linetype No. 0
 72
    65
 73
     2
 40
1.411111110758333
 49
0.7055555553791667
 74
     0
 49
-0.7055555553791667
 74
     0
  0
LTYPE
  5
140
330
5
100
AcDbSymbolTableRecord
100
AcDbLinetypeTableRecord
  2
AI-Linetype-1
 70
     0
  3
Adobe Illustrator Linetype No. 1
 72
    65
 73
     2
 40
1.411111110758333
 49
0.7055555553791667
 74
     0
 49
-0.7055555553791667
 74
     0
  0
ENDTAB
  0
TABLE
  2
LAYER
  5
2
330
0
100
AcDbSymbolTable
 70
     2
  0
LAYER
  5
54
330
2
100
AcDbSymbolTableRecord
100
AcDbLayerTableRecord
  2
0
 70
     0
 62
     7
  6
Continuous
370
    -3
390
F
347
21
  0
LAYER
  5
78
330
2
100
AcDbSymbolTableRecord
100
AcDbLayerTableRecord
  2
レイヤー 1
 70
     0
 62
     7
  6
Continuous
370
     0
390
F
347
21
  0
ENDTAB
  0
TABLE
  2
STYLE
  5
3
330
0
100
AcDbSymbolTable
 70
     2
  0
STYLE
  5
55
330
3
100
AcDbSymbolTableRecord
100
AcDbTextStyleTableRecord
  2
Standard
 70
     0
 40
0.0
 41
1.0
 50
0.0
 71
     0
 42
0.2
  3
txt
  4

  0
STYLE
  5
5A
330
3
100
AcDbSymbolTableRecord
100
AcDbTextStyleTableRecord
  2
Annotative
 70
     0
 40
0.0
 41
1.0
 50
0.0
 71
     0
 42
0.2
  3
txt
  4

1001
AcadAnnotative
1000
AnnotativeData
1002
{
1070
     1
1070
     1
1002
}
  0
ENDTAB
  0
TABLE
  2
VIEW
  5
6
330
0
100
AcDbSymbolTable
 70
     0
  0
ENDTAB
  0
TABLE
  2
UCS
  5
7
330
0
100
AcDbSymbolTable
 70
     0
  0
ENDTAB
  0
TABLE
  2
APPID
  5
9
330
0
100
AcDbSymbolTable
 70
     2
  0
APPID
  5
56
330
9
100
AcDbSymbolTableRecord
100
AcDbRegAppTableRecord
  2
ACAD
 70
     0
  0
APPID
  5
5E
330
9
100
AcDbSymbolTableRecord
100
AcDbRegAppTableRecord
  2
AcadAnnotative
 70
     0
  0
ENDTAB
  0
TABLE
  2
DIMSTYLE
  5
A
330
0
100
AcDbSymbolTable
 70
     2
100
AcDbDimStyleTable
 71
     0
  0
DIMSTYLE
105
58
330
A
100
AcDbSymbolTableRecord
100
AcDbDimStyleTableRecord
  2
Standard
 70
     0
340
55
  0
DIMSTYLE
105
59
330
A
100
AcDbSymbolTableRecord
100
AcDbDimStyleTableRecord
  2
Annotative
 70
     0
340
55
1001
AcadAnnotative
1000
AnnotativeData
1002
{
1070
     1
1070
     1
1002
}
  0
ENDTAB
  0
TABLE
  2
BLOCK_RECORD
  5
1
330
0
100
AcDbSymbolTable
 70
    17
  0
BLOCK_RECORD
  5
70
330
1
100
AcDbSymbolTableRecord
100
AcDbBlockTableRecord
  2
*Model_Space
340
73
 70
     0
280
     1
281
     0
  0
BLOCK_RECORD
  5
6C
330
1
100
AcDbSymbolTableRecord
100
AcDbBlockTableRecord
  2
*Paper_Space
340
6F
 70
     0
280
     1
281
     0
  0
BLOCK_RECORD
  5
74
330
1
100
AcDbSymbolTableRecord
100
AcDbBlockTableRecord
  2
*Paper_Space0
340
77
 70
     0
280
     1
281
     0
  0
BLOCK_RECORD
  5
E0
330
1
100
AcDbSymbolTableRecord
100
AcDbBlockTableRecord
  2
Block_0
340
0
102
{BLKREFS
331
E1
102
}
 70
     0
280
     1
281
     0
  0
BLOCK_RECORD
  5
E4
330
1
100
AcDbSymbolTableRecord
100
AcDbBlockTableRecord
  2
Block_1
340
0
102
{BLKREFS
331
E5
102
}
 70
     0
280
     1
281
     0
  0
BLOCK_RECORD
  5
F1
330
1
100
AcDbSymbolTableRecord
100
AcDbBlockTableRecord
  2
Block_2
340
0
102
{BLKREFS
331
F2
102
}
 70
     0
280
     1
281
     0
  0
BLOCK_RECORD
  5
F5
330
1
100
AcDbSymbolTableRecord
100
AcDbBlockTableRecord
  2
Block_3
340
0
102
{BLKREFS
331
F6
102
}
 70
     0
280
     1
281
     0
  0
BLOCK_RECORD
  5
FF
330
1
100
AcDbSymbolTableRecord
100
AcDbBlockTableRecord
  2
Block_4
340
0
102
{BLKREFS
331
100
102
}
 70
     0
280
     1
281
     0
  0
BLOCK_RECORD
  5
109
330
1
100
AcDbSymbolTableRecord
100
AcDbBlockTableRecord
  2
Block_5
340
0
102
{BLKREFS
331
10A
102
}
 70
     0
280
     1
281
     0
  0
BLOCK_RECORD
  5
10D
330
1
100
AcDbSymbolTableRecord
100
AcDbBlockTableRecord
  2
Block_6
340
0
102
{BLKREFS
331
10E
102
}
 70
     0
280
     1
281
     0
  0
BLOCK_RECORD
  5
118
330
1
100
AcDbSymbolTableRecord
100
AcDbBlockTableRecord
  2
Block_7
340
0
102
{BLKREFS
331
119
102
}
 70
     0
280
     1
281
     0
  0
BLOCK_RECORD
  5
11C
330
1
100
AcDbSymbolTableRecord
100
AcDbBlockTableRecord
  2
Block_8
340
0
102
{BLKREFS
331
11D
102
}
 70
     0
280
     1
281
     0
  0
BLOCK_RECORD
  5
12A
330
1
100
AcDbSymbolTableRecord
100
AcDbBlockTableRecord
  2
Block_9
340
0
102
{BLKREFS
331
12B
102
}
 70
     0
280
     1
281
     0
  0
BLOCK_RECORD
  5
12E
330
1
100
AcDbSymbolTableRecord
100
AcDbBlockTableRecord
  2
Block_10
340
0
102
{BLKREFS
331
12F
102
}
 70
     0
280
     1
281
     0
  0
BLOCK_RECORD
  5
137
330
1
100
AcDbSymbolTableRecord
100
AcDbBlockTableRecord
  2
Block_11
340
0
102
{BLKREFS
331
138
102
}
 70
     0
280
     1
281
     0
  0
BLOCK_RECORD
  5
141
330
1
100
AcDbSymbolTableRecord
100
AcDbBlockTableRecord
  2
Block_12
340
0
102
{BLKREFS
331
142
102
}
 70
     0
280
     1
281
     0
  0
BLOCK_RECORD
  5
145
330
1
100
AcDbSymbolTableRecord
100
AcDbBlockTableRecord
  2
Block_13
340
0
102
{BLKREFS
331
146
102
}
 70
     0
280
     1
281
     0
  0
BLOCK_RECORD
  5
14C
330
1
100
AcDbSymbolTableRecord
100
AcDbBlockTableRecord
  2
Block_14
340
0
102
{BLKREFS
331
14D
102
}
 70
     0
280
     1
281
     0
  0
BLOCK_RECORD
  5
150
330
1
100
AcDbSymbolTableRecord
100
AcDbBlockTableRecord
  2
Block_15
340
0
102
{BLKREFS
331
151
102
}
 70
     0
280
     1
281
     0
  0
ENDTAB
  0
ENDSEC
  0
SECTION
  2
BLOCKS
  0
BLOCK
  5
71
330
70
100
AcDbEntity
  8
0
100
AcDbBlockBegin
  2
*Model_Space
 70
     0
 10
0.0
 20
0.0
 30
0.0
  3
*Model_Space
  1

  0
ENDBLK
  5
72
330
70
100
AcDbEntity
  8
0
100
AcDbBlockEnd
  0
BLOCK
  5
6D
330
6C
100
AcDbEntity
 67
     1
  8
0
100
AcDbBlockBegin
  2
*Paper_Space
 70
     0
 10
0.0
 20
0.0
 30
0.0
  3
*Paper_Space
  1

  0
ENDBLK
  5
6E
330
6C
100
AcDbEntity
 67
     1
  8
0
100
AcDbBlockEnd
  0
BLOCK
  5
75
330
74
100
AcDbEntity
 67
     1
  8
0
100
AcDbBlockBegin
  2
*Paper_Space0
 70
     0
 10
0.0
 20
0.0
 30
0.0
  3
*Paper_Space0
  1

  0
ENDBLK
  5
76
330
74
100
AcDbEntity
 67
     1
  8
0
100
AcDbBlockEnd
  0
BLOCK
  5
E2
330
E0
100
AcDbEntity
  8
0
100
AcDbBlockBegin
  2
Block_0
 70
     0
 10
0.0
 20
0.0
 30
0.0
  3
Block_0
  1

  0
INSERT
  5
E5
330
E0
100
AcDbEntity
  8
レイヤー 1
100
AcDbBlockReference
  2
Block_1
 10
0.0
 20
0.0
 30
0.0
  0
ENDBLK
  5
E3
330
E0
100
AcDbEntity
  8
0
100
AcDbBlockEnd
  0
BLOCK
  5
E6
330
E4
100
AcDbEntity
  8
0
100
AcDbBlockBegin
  2
Block_1
 70
     0
 10
0.0
 20
0.0
 30
0.0
  3
Block_1
  1

  0
SPLINE
  5
E8
330
E4
100
AcDbEntity
  8
レイヤー 1
100
AcDbSpline
210
0.0
220
0.0
230
1.0
 70
     9
 71
     3
 72
    17
 73
    13
 74
     0
 42
0.0000000001
 43
0.0000000001
 40
0.0
 40
0.0
 40
0.0
 40
0.0
 40
1.0
 40
1.0
 40
1.0
 40
2.0
 40
2.0
 40
2.0
 40
3.0
 40
3.0
 40
3.0
 40
4.0
 40
4.0
 40
4.0
 40
4.0
 10
70.42016328534635
 20
-146.8125718491475
 30
0.0
 10
70.42016328534635
 20
-147.0623412718281
 30
0.0
 10
70.70352238900816
 20
-147.108850060879
 30
0.0
 10
71.04837644708166
 20
-147.108850060879
 30
0.0
 10
71.36790905333858
 20
-147.108850060879
 30
0.0
 10
71.67676186359122
 20
-147.0726765582839
 30
0.0
 10
71.67676186359122
 20
-146.8125718491475
 30
0.0
 10
71.67676186359122
 20
-146.5648694837581
 30
0.0
 10
71.39529756244631
 20
-146.5162936374161
 30
0.0
 10
71.04837644708166
 20
-146.5162936374161
 30
0.0
 10
70.72901609559899
 20
-146.5162936374161
 30
0.0
 10
70.42016328534635
 20
-146.5545341973023
 30
0.0
 10
70.42016328534635
 20
-146.8125718491475
 30
0.0
  0
SPLINE
  5
E9
330
E4
100
AcDbEntity
  8
レイヤー 1
100
AcDbSpline
210
0.0
220
0.0
230
1.0
 70
     9
 71
     3
 72
    29
 73
    25
 74
     0
 42
0.0000000001
 43
0.0000000001
 40
0.0
 40
0.0
 40
0.0
 40
0.0
 40
1.0
 40
1.0
 40
1.0
 40
2.0
 40
2.0
 40
2.0
 40
3.0
 40
3.0
 40
3.0
 40
4.0
 40
4.0
 40
4.0
 40
5.0
 40
5.0
 40
5.0
 40
6.0
 40
6.0
 40
6.0
 40
7.0
 40
7.0
 40
7.0
 40
8.0
 40
8.0
 40
8.0
 40
8.0
 10
71.64282767306151
 20
-146.4146633206012
 30
0.0
 10
71.85228947856471
 20
-146.522839318838
 30
0.0
 10
71.87140975850785
 20
-146.6961276217461
 30
0.0
 10
71.87140975850785
 20
-146.8125718491475
 30
0.0
 10
71.87140975850785
 20
-146.9734578083087
 30
0.0
 10
71.82490096945698
 20
-147.1150512327525
 30
0.0
 10
71.64282767306151
 20
-147.2101358681454
 30
0.0
 10
71.44835203291916
 20
-147.3138332422514
 30
0.0
 10
71.21132946353397
 20
-147.3331257769688
 30
0.0
 10
71.04837644708166
 20
-147.3331257769688
 30
0.0
 10
70.90454371057248
 20
-147.3331257769688
 30
0.0
 10
70.65287948537498
 20
-147.3159002995425
 30
0.0
 10
70.4539252211018
 20
-147.2101358681454
 30
0.0
 10
70.25083684224632
 20
-147.1023043794571
 30
0.0
 10
70.22758244772089
 20
-146.9414184202959
 30
0.0
 10
70.22758244772089
 20
-146.8125718491475
 30
0.0
 10
70.22758244772089
 20
-146.6537529472775
 30
0.0
 10
70.2720241794806
 20
-146.5100924655426
 30
0.0
 10
70.4539252211018
 20
-146.4146633206012
 30
0.0
 10
70.64650605872727
 20
-146.315444570626
 30
0.0
 10
70.87491588939933
 20
-146.2920179213263
 30
0.0
 10
71.04837644708166
 20
-146.2920179213263
 30
0.0
 10
71.21976994747284
 20
-146.2920179213263
 30
0.0
 10
71.45041909021031
 20
-146.3133775133348
 30
0.0
 10
71.64282767306151
 20
-146.4146633206012
 30
0.0
  0
HATCH
  5
EA
330
E4
100
AcDbEntity
  8
レイヤー 1
 62
   250
420
  2299925
440
 33554687
100
AcDbHatch
 10
0.0
 20
0.0
 30
0.0
210
0.0
220
0.0
230
1.0
  2
SOLID
 70
     1
 71
     1
 91
        2
 92
        1
 93
        1
 72
     4
 94
        3
 73
     0
 74
     0
 95
       17
 96
       13
 40
0.0
 40
0.0
 40
0.0
 40
0.0
 40
1.0
 40
1.0
 40
1.0
 40
2.0
 40
2.0
 40
2.0
 40
3.0
 40
3.0
 40
3.0
 40
4.0
 40
4.0
 40
4.0
 40
4.0
 10
70.42016328534635
 20
-146.8125718491475
 10
70.42016328534635
 20
-147.0623412718281
 10
70.70352238900816
 20
-147.108850060879
 10
71.04837644708166
 20
-147.108850060879
 10
71.36790905333858
 20
-147.108850060879
 10
71.67676186359122
 20
-147.0726765582839
 10
71.67676186359122
 20
-146.8125718491475
 10
71.67676186359122
 20
-146.5648694837581
 10
71.39529756244631
 20
-146.5162936374161
 10
71.04837644708166
 20
-146.5162936374161
 10
70.72901609559899
 20
-146.5162936374161
 10
70.42016328534635
 20
-146.5545341973023
 10
70.42016328534635
 20
-146.8125718491475
 97
        0
 97
        1
330
E8
 92
        1
 93
        1
 72
     4
 94
        3
 73
     0
 74
     0
 95
       29
 96
       25
 40
0.0
 40
0.0
 40
0.0
 40
0.0
 40
1.0
 40
1.0
 40
1.0
 40
2.0
 40
2.0
 40
2.0
 40
3.0
 40
3.0
 40
3.0
 40
4.0
 40
4.0
 40
4.0
 40
5.0
 40
5.0
 40
5.0
 40
6.0
 40
6.0
 40
6.0
 40
7.0
 40
7.0
 40
7.0
 40
8.0
 40
8.0
 40
8.0
 40
8.0
 10
71.64282767306151
 20
-146.4146633206012
 10
71.85228947856471
 20
-146.522839318838
 10
71.87140975850785
 20
-146.6961276217461
 10
71.87140975850785
 20
-146.8125718491475
 10
71.87140975850785
 20
-146.9734578083087
 10
71.82490096945698
 20
-147.1150512327525
 10
71.64282767306151
 20
-147.2101358681454
 10
71.44835203291916
 20
-147.3138332422514
 10
71.21132946353397
 20
-147.3331257769688
 10
71.04837644708166
 20
-147.3331257769688
 10
70.90454371057248
 20
-147.3331257769688
 10
70.65287948537498
 20
-147.3159002995425
 10
70.4539252211018
 20
-147.2101358681454
 10
70.25083684224632
 20
-147.1023043794571
 10
70.22758244772089
 20
-146.9414184202959
 10
70.22758244772089
 20
-146.8125718491475
 10
70.22758244772089
 20
-146.6537529472775
 10
70.2720241794806
 20
-146.5100924655426
 10
70.4539252211018
 20
-146.4146633206012
 10
70.64650605872727
 20
-146.315444570626
 10
70.87491588939933
 20
-146.2920179213263
 10
71.04837644708166
 20
-146.2920179213263
 10
71.21976994747284
 20
-146.2920179213263
 10
71.45041909021031
 20
-146.3133775133348
 10
71.64282767306151
 20
-146.4146633206012
 97
        0
 97
        1
330
E9
 75
     2
 76
     1
 98
        1
 10
0.0
 20
0.0
450
        0
451
        0
460
0.0
461
0.0
452
        0
462
0.0
453
        0
470

  0
SPLINE
  5
EB
330
E4
100
AcDbEntity
  8
レイヤー 1
100
AcDbSpline
210
0.0
220
0.0
230
1.0
 70
    11
 71
     3
 72
    17
 73
    13
 74
     0
 42
0.0000000001
 43
0.0000000001
 40
0.0
 40
0.0
 40
0.0
 40
0.0
 40
1.0
 40
1.0
 40
1.0
 40
2.0
 40
2.0
 40
2.0
 40
3.0
 40
3.0
 40
3.0
 40
4.0
 40
4.0
 40
4.0
 40
4.0
 10
71.82059460010041
 20
-146.0756659248526
 30
0.0
 10
71.82059460010041
 20
-146.0756659248526
 30
0.0
 10
71.56893037490291
 20
-146.0756659248526
 30
0.0
 10
71.56893037490291
 20
-146.0756659248526
 30
0.0
 10
71.56893037490291
 20
-146.0756659248526
 30
0.0
 10
71.56893037490291
 20
-145.8238294448808
 30
0.0
 10
71.56893037490291
 20
-145.8238294448808
 30
0.0
 10
71.56893037490291
 20
-145.8238294448808
 30
0.0
 10
71.82059460010041
 20
-145.8238294448808
 30
0.0
 10
71.82059460010041
 20
-145.8238294448808
 30
0.0
 10
71.82059460010041
 20
-145.8238294448808
 30
0.0
 10
71.82059460010041
 20
-146.0756659248526
 30
0.0
 10
71.82059460010041
 20
-146.0756659248526
 30
0.0
  0
HATCH
  5
EC
330
E4
100
AcDbEntity
  8
レイヤー 1
 62
   250
420
  2299925
440
 33554687
100
AcDbHatch
 10
0.0
 20
0.0
 30
0.0
210
0.0
220
0.0
230
1.0
  2
SOLID
 70
     1
 71
     1
 91
        1
 92
        1
 93
        1
 72
     4
 94
        3
 73
     0
 74
     0
 95
       17
 96
       13
 40
0.0
 40
0.0
 40
0.0
 40
0.0
 40
1.0
 40
1.0
 40
1.0
 40
2.0
 40
2.0
 40
2.0
 40
3.0
 40
3.0
 40
3.0
 40
4.0
 40
4.0
 40
4.0
 40
4.0
 10
71.82059460010041
 20
-146.0756659248526
 10
71.82059460010041
 20
-146.0756659248526
 10
71.56893037490291
 20
-146.0756659248526
 10
71.56893037490291
 20
-146.0756659248526
 10
71.56893037490291
 20
-146.0756659248526
 10
71.56893037490291
 20
-145.8238294448808
 10
71.56893037490291
 20
-145.8238294448808
 10
71.56893037490291
 20
-145.8238294448808
 10
71.82059460010041
 20
-145.8238294448808
 10
71.82059460010041
 20
-145.8238294448808
 10
71.82059460010041
 20
-145.8238294448808
 10
71.82059460010041
 20
-146.0756659248526
 10
71.82059460010041
 20
-146.0756659248526
 97
        0
 97
        1
330
EB
 75
     2
 76
     1
 98
        1
 10
0.0
 20
0.0
450
        0
451
        0
460
0.0
461
0.0
452
        0
462
0.0
453
        0
470

  0
SPLINE
  5
ED
330
E4
100
AcDbEntity
  8
レイヤー 1
100
AcDbSpline
210
0.0
220
0.0
230
1.0
 70
     9
 71
     3
 72
    53
 73
    49
 74
     0
 42
0.0000000001
 43
0.0000000001
 40
0.0
 40
0.0
 40
0.0
 40
0.0
 40
1.0
 40
1.0
 40
1.0
 40
2.0
 40
2.0
 40
2.0
 40
3.0
 40
3.0
 40
3.0
 40
4.0
 40
4.0
 40
4.0
 40
5.0
 40
5.0
 40
5.0
 40
6.0
 40
6.0
 40
6.0
 40
7.0
 40
7.0
 40
7.0
 40
8.0
 40
8.0
 40
8.0
 40
9.0
 40
9.0
 40
9.0
 40
10.0
 40
10.0
 40
10.0
 40
11.0
 40
11.0
 40
11.0
 40
12.0
 40
12.0
 40
12.0
 40
13.0
 40
13.0
 40
13.0
 40
14.0
 40
14.0
 40
14.0
 40
15.0
 40
15.0
 40
15.0
 40
16.0
 40
16.0
 40
16.0
 40
16.0
 10
71.87140975850785
 20
-145.1065605648518
 30
0.0
 10
71.87140975850785
 20
-145.184764232367
 30
0.0
 10
71.85452879063013
 20
-145.2863945491819
 30
0.0
 10
71.79096677892726
 20
-145.3880248659967
 30
0.0
 10
71.68089597817353
 20
-145.5613131689048
 30
0.0
 10
71.54981009495976
 20
-145.5826727609133
 30
0.0
 10
71.44197860627144
 20
-145.6016207860822
 30
0.0
 10
71.44197860627144
 20
-145.6016207860822
 30
0.0
 10
71.44197860627144
 20
-145.3794121272836
 30
0.0
 10
71.44197860627144
 20
-145.3794121272836
 30
0.0
 10
71.64076061577038
 20
-145.3246351090681
 30
0.0
 10
71.67038843694351
 20
-145.1975110856624
 30
0.0
 10
71.67038843694351
 20
-145.1044935075606
 30
0.0
 10
71.67038843694351
 20
-144.964967140408
 30
0.0
 10
71.57099743219406
 20
-144.81269391996
 30
0.0
 10
71.33828123216543
 20
-144.81269391996
 30
0.0
 10
71.08231063761137
 20
-144.81269391996
 30
0.0
 10
71.01254745403505
 20
-144.99252790429
 30
0.0
 10
71.01254745403505
 20
-145.1131062462738
 30
0.0
 10
71.01254745403505
 20
-145.1448011247381
 30
0.0
 10
71.01254745403505
 20
-145.2863945491819
 30
0.0
 10
71.14156627995767
 20
-145.3752780127013
 30
0.0
 10
71.14156627995767
 20
-145.3752780127013
 30
0.0
 10
71.12244600001453
 20
-145.5509778824491
 30
0.0
 10
71.12244600001453
 20
-145.5509778824491
 30
0.0
 10
71.12244600001453
 20
-145.5509778824491
 30
0.0
 10
70.27633054883716
 20
-145.4303995404653
 30
0.0
 10
70.27633054883716
 20
-145.4303995404653
 30
0.0
 10
70.27633054883716
 20
-145.4303995404653
 30
0.0
 10
70.27633054883716
 20
-144.6518079607988
 30
0.0
 10
70.27633054883716
 20
-144.6518079607988
 30
0.0
 10
70.27633054883716
 20
-144.6518079607988
 30
0.0
 10
70.47097844375379
 20
-144.6518079607988
 30
0.0
 10
70.47097844375379
 20
-144.6518079607988
 30
0.0
 10
70.47097844375379
 20
-144.6518079607988
 30
0.0
 10
70.47097844375379
 20
-145.267446524013
 30
0.0
 10
70.47097844375379
 20
-145.267446524013
 30
0.0
 10
70.47097844375379
 20
-145.267446524013
 30
0.0
 10
70.89403616934247
 20
-145.3329033382327
 30
0.0
 10
70.89403616934247
 20
-145.3329033382327
 30
0.0
 10
70.86010197881275
 20
-145.2715806385953
 30
0.0
 10
70.8199666164096
 20
-145.1892428564978
 30
0.0
 10
70.8199666164096
 20
-145.0707315718052
 30
0.0
 10
70.8199666164096
 20
-144.8168280345423
 30
0.0
 10
71.00617402738734
 20
-144.5798054651571
 30
0.0
 10
71.31916095222229
 20
-144.5798054651571
 30
0.0
 10
71.63662650118808
 20
-144.5798054651571
 30
0.0
 10
71.87140975850785
 20
-144.8040811812469
 30
0.0
 10
71.87140975850785
 20
-145.1065605648518
 30
0.0
  0
HATCH
  5
EE
330
E4
100
AcDbEntity
  8
レイヤー 1
 62
   250
420
  2299925
440
 33554687
100
AcDbHatch
 10
0.0
 20
0.0
 30
0.0
210
0.0
220
0.0
230
1.0
  2
SOLID
 70
     1
 71
     1
 91
        1
 92
        1
 93
        1
 72
     4
 94
        3
 73
     0
 74
     0
 95
       53
 96
       49
 40
0.0
 40
0.0
 40
0.0
 40
0.0
 40
1.0
 40
1.0
 40
1.0
 40
2.0
 40
2.0
 40
2.0
 40
3.0
 40
3.0
 40
3.0
 40
4.0
 40
4.0
 40
4.0
 40
5.0
 40
5.0
 40
5.0
 40
6.0
 40
6.0
 40
6.0
 40
7.0
 40
7.0
 40
7.0
 40
8.0
 40
8.0
 40
8.0
 40
9.0
 40
9.0
 40
9.0
 40
10.0
 40
10.0
 40
10.0
 40
11.0
 40
11.0
 40
11.0
 40
12.0
 40
12.0
 40
12.0
 40
13.0
 40
13.0
 40
13.0
 40
14.0
 40
14.0
 40
14.0
 40
15.0
 40
15.0
 40
15.0
 40
16.0
 40
16.0
 40
16.0
 40
16.0
 10
71.87140975850785
 20
-145.1065605648518
 10
71.87140975850785
 20
-145.184764232367
 10
71.85452879063013
 20
-145.2863945491819
 10
71.79096677892726
 20
-145.3880248659967
 10
71.68089597817353
 20
-145.5613131689048
 10
71.54981009495976
 20
-145.5826727609133
 10
71.44197860627144
 20
-145.6016207860822
 10
71.44197860627144
 20
-145.6016207860822
 10
71.44197860627144
 20
-145.3794121272836
 10
71.44197860627144
 20
-145.3794121272836
 10
71.64076061577038
 20
-145.3246351090681
 10
71.67038843694351
 20
-145.1975110856624
 10
71.67038843694351
 20
-145.1044935075606
 10
71.67038843694351
 20
-144.964967140408
 10
71.57099743219406
 20
-144.81269391996
 10
71.33828123216543
 20
-144.81269391996
 10
71.08231063761137
 20
-144.81269391996
 10
71.01254745403505
 20
-144.99252790429
 10
71.01254745403505
 20
-145.1131062462738
 10
71.01254745403505
 20
-145.1448011247381
 10
71.01254745403505
 20
-145.2863945491819
 10
71.14156627995767
 20
-145.3752780127013
 10
71.14156627995767
 20
-145.3752780127013
 10
71.12244600001453
 20
-145.5509778824491
 10
71.12244600001453
 20
-145.5509778824491
 10
71.12244600001453
 20
-145.5509778824491
 10
70.27633054883716
 20
-145.4303995404653
 10
70.27633054883716
 20
-145.4303995404653
 10
70.27633054883716
 20
-145.4303995404653
 10
70.27633054883716
 20
-144.6518079607988
 10
70.27633054883716
 20
-144.6518079607988
 10
70.27633054883716
 20
-144.6518079607988
 10
70.47097844375379
 20
-144.6518079607988
 10
70.47097844375379
 20
-144.6518079607988
 10
70.47097844375379
 20
-144.6518079607988
 10
70.47097844375379
 20
-145.267446524013
 10
70.47097844375379
 20
-145.267446524013
 10
70.47097844375379
 20
-145.267446524013
 10
70.89403616934247
 20
-145.3329033382327
 10
70.89403616934247
 20
-145.3329033382327
 10
70.86010197881275
 20
-145.2715806385953
 10
70.8199666164096
 20
-145.1892428564978
 10
70.8199666164096
 20
-145.0707315718052
 10
70.8199666164096
 20
-144.8168280345423
 10
71.00617402738734
 20
-144.5798054651571
 10
71.31916095222229
 20
-144.5798054651571
 10
71.63662650118808
 20
-144.5798054651571
 10
71.87140975850785
 20
-144.8040811812469
 10
71.87140975850785
 20
-145.1065605648518
 97
        0
 97
        1
330
ED
 75
     2
 76
     1
 98
        1
 10
0.0
 20
0.0
450
        0
451
        0
460
0.0
461
0.0
452
        0
462
0.0
453
        0
470

  0
ENDBLK
  5
E7
330
E4
100
AcDbEntity
  8
0
100
AcDbBlockEnd
  0
BLOCK
  5
F3
330
F1
100
AcDbEntity
  8
0
100
AcDbBlockBegin
  2
Block_2
 70
     0
 10
0.0
 20
0.0
 30
0.0
  3
Block_2
  1

  0
INSERT
  5
F6
330
F1
100
AcDbEntity
  8
レイヤー 1
100
AcDbBlockReference
  2
Block_3
 10
0.0
 20
0.0
 30
0.0
  0
ENDBLK
  5
F4
330
F1
100
AcDbEntity
  8
0
100
AcDbBlockEnd
  0
BLOCK
  5
F7
330
F5
100
AcDbEntity
  8
0
100
AcDbBlockBegin
  2
Block_3
 70
     0
 10
0.0
 20
0.0
 30
0.0
  3
Block_3
  1

  0
SPLINE
  5
F9
330
F5
100
AcDbEntity
  8
レイヤー 1
100
AcDbSpline
210
0.0
220
0.0
230
1.0
 70
     9
 71
     3
 72
    44
 73
    40
 74
     0
 42
0.0000000001
 43
0.0000000001
 40
0.0
 40
0.0
 40
0.0
 40
0.0
 40
1.0
 40
1.0
 40
1.0
 40
2.0
 40
2.0
 40
2.0
 40
3.0
 40
3.0
 40
3.0
 40
4.0
 40
4.0
 40
4.0
 40
5.0
 40
5.0
 40
5.0
 40
6.0
 40
6.0
 40
6.0
 40
7.0
 40
7.0
 40
7.0
 40
8.0
 40
8.0
 40
8.0
 40
9.0
 40
9.0
 40
9.0
 40
10.0
 40
10.0
 40
10.0
 40
11.0
 40
11.0
 40
11.0
 40
12.0
 40
12.0
 40
12.0
 40
13.0
 40
13.0
 40
13.0
 40
13.0
 10
87.19381643870503
 20
-139.600264450777
 30
0.0
 10
86.97591414926298
 20
-139.7589110978728
 30
0.0
 10
86.88272431638695
 20
-139.8329806508056
 30
0.0
 10
86.83414847004494
 20
-139.9768133873148
 30
0.0
 10
86.83414847004494
 20
-139.9768133873148
 30
0.0
 10
87.61256779493713
 20
-139.9768133873148
 30
0.0
 10
87.61256779493713
 20
-139.9768133873148
 30
0.0
 10
87.61256779493713
 20
-139.9768133873148
 30
0.0
 10
87.61256779493713
 20
-140.1819688234614
 30
0.0
 10
87.61256779493713
 20
-140.1819688234614
 30
0.0
 10
87.61256779493713
 20
-140.1819688234614
 30
0.0
 10
86.58455130213859
 20
-140.1819688234614
 30
0.0
 10
86.58455130213859
 20
-140.1819688234614
 30
0.0
 10
86.61624618060288
 20
-139.8243679120925
 30
0.0
 10
86.68187524959689
 20
-139.7461642445773
 30
0.0
 10
87.06686467007356
 20
-139.4478189755547
 30
0.0
 10
87.32283526462763
 20
-139.2490369660558
 30
0.0
 10
87.38829207884737
 20
-139.1813408397706
 30
0.0
 10
87.38829207884737
 20
-139.0438815299092
 30
0.0
 10
87.38829207884737
 20
-138.9253702452166
 30
0.0
 10
87.31646183797991
 20
-138.7941121072285
 30
0.0
 10
87.11974688577214
 20
-138.7941121072285
 30
0.0
 10
86.85946992186153
 20
-138.7941121072285
 30
0.0
 10
86.85102943792266
 20
-139.024761249966
 30
0.0
 10
86.8467230685661
 20
-139.1412054773675
 30
0.0
 10
86.8467230685661
 20
-139.1412054773675
 30
0.0
 10
86.62261960725059
 20
-139.1412054773675
 30
0.0
 10
86.62261960725059
 20
-139.1412054773675
 30
0.0
 10
86.63106009118946
 20
-139.014253708736
 30
0.0
 10
86.64156763241946
 20
-138.9021158506911
 30
0.0
 10
86.72201061200006
 20
-138.7836045659985
 30
0.0
 10
86.83190915797952
 20
-138.6228908616116
 30
0.0
 10
87.01811656895728
 20
-138.5889566710819
 30
0.0
 10
87.13456079635873
 20
-138.5889566710819
 30
0.0
 10
87.41171872814708
 20
-138.5889566710819
 30
0.0
 10
87.61894122158485
 20
-138.7730970247685
 30
0.0
 10
87.61894122158485
 20
-139.0459485872003
 30
0.0
 10
87.61894122158485
 20
-139.2743584178724
 30
0.0
 10
87.50266924895766
 20
-139.3739216773961
 30
0.0
 10
87.19381643870503
 20
-139.600264450777
 30
0.0
  0
HATCH
  5
FA
330
F5
100
AcDbEntity
  8
レイヤー 1
 62
   250
420
  2299925
440
 33554687
100
AcDbHatch
 10
0.0
 20
0.0
 30
0.0
210
0.0
220
0.0
230
1.0
  2
SOLID
 70
     1
 71
     1
 91
        1
 92
        1
 93
        1
 72
     4
 94
        3
 73
     0
 74
     0
 95
       44
 96
       40
 40
0.0
 40
0.0
 40
0.0
 40
0.0
 40
1.0
 40
1.0
 40
1.0
 40
2.0
 40
2.0
 40
2.0
 40
3.0
 40
3.0
 40
3.0
 40
4.0
 40
4.0
 40
4.0
 40
5.0
 40
5.0
 40
5.0
 40
6.0
 40
6.0
 40
6.0
 40
7.0
 40
7.0
 40
7.0
 40
8.0
 40
8.0
 40
8.0
 40
9.0
 40
9.0
 40
9.0
 40
10.0
 40
10.0
 40
10.0
 40
11.0
 40
11.0
 40
11.0
 40
12.0
 40
12.0
 40
12.0
 40
13.0
 40
13.0
 40
13.0
 40
13.0
 10
87.19381643870503
 20
-139.600264450777
 10
86.97591414926298
 20
-139.7589110978728
 10
86.88272431638695
 20
-139.8329806508056
 10
86.83414847004494
 20
-139.9768133873148
 10
86.83414847004494
 20
-139.9768133873148
 10
87.61256779493713
 20
-139.9768133873148
 10
87.61256779493713
 20
-139.9768133873148
 10
87.61256779493713
 20
-139.9768133873148
 10
87.61256779493713
 20
-140.1819688234614
 10
87.61256779493713
 20
-140.1819688234614
 10
87.61256779493713
 20
-140.1819688234614
 10
86.58455130213859
 20
-140.1819688234614
 10
86.58455130213859
 20
-140.1819688234614
 10
86.61624618060288
 20
-139.8243679120925
 10
86.68187524959689
 20
-139.7461642445773
 10
87.06686467007356
 20
-139.4478189755547
 10
87.32283526462763
 20
-139.2490369660558
 10
87.38829207884737
 20
-139.1813408397706
 10
87.38829207884737
 20
-139.0438815299092
 10
87.38829207884737
 20
-138.9253702452166
 10
87.31646183797991
 20
-138.7941121072285
 10
87.11974688577214
 20
-138.7941121072285
 10
86.85946992186153
 20
-138.7941121072285
 10
86.85102943792266
 20
-139.024761249966
 10
86.8467230685661
 20
-139.1412054773675
 10
86.8467230685661
 20
-139.1412054773675
 10
86.62261960725059
 20
-139.1412054773675
 10
86.62261960725059
 20
-139.1412054773675
 10
86.63106009118946
 20
-139.014253708736
 10
86.64156763241946
 20
-138.9021158506911
 10
86.72201061200006
 20
-138.7836045659985
 10
86.83190915797952
 20
-138.6228908616116
 10
87.01811656895728
 20
-138.5889566710819
 10
87.13456079635873
 20
-138.5889566710819
 10
87.41171872814708
 20
-138.5889566710819
 10
87.61894122158485
 20
-138.7730970247685
 10
87.61894122158485
 20
-139.0459485872003
 10
87.61894122158485
 20
-139.2743584178724
 10
87.50266924895766
 20
-139.3739216773961
 10
87.19381643870503
 20
-139.600264450777
 97
        0
 97
        1
330
F9
 75
     2
 76
     1
 98
        1
 10
0.0
 20
0.0
450
        0
451
        0
460
0.0
461
0.0
452
        0
462
0.0
453
        0
470

  0
SPLINE
  5
FB
330
F5
100
AcDbEntity
  8
レイヤー 1
100
AcDbSpline
210
0.0
220
0.0
230
1.0
 70
    11
 71
     3
 72
    26
 73
    22
 74
     0
 42
0.0000000001
 43
0.0000000001
 40
0.0
 40
0.0
 40
0.0
 40
0.0
 40
1.0
 40
1.0
 40
1.0
 40
2.0
 40
2.0
 40
2.0
 40
3.0
 40
3.0
 40
3.0
 40
4.0
 40
4.0
 40
4.0
 40
5.0
 40
5.0
 40
5.0
 40
6.0
 40
6.0
 40
6.0
 40
7.0
 40
7.0
 40
7.0
 40
7.0
 10
88.22889537724833
 20
-140.1819688234614
 30
0.0
 10
88.22889537724833
 20
-140.1819688234614
 30
0.0
 10
88.22889537724833
 20
-139.0776434656646
 30
0.0
 10
88.22889537724833
 20
-139.0776434656646
 30
0.0
 10
88.22889537724833
 20
-139.0776434656646
 30
0.0
 10
87.8988552297614
 20
-139.0776434656646
 30
0.0
 10
87.8988552297614
 20
-139.0776434656646
 30
0.0
 10
87.8988552297614
 20
-139.0776434656646
 30
0.0
 10
87.8988552297614
 20
-138.9295043597988
 30
0.0
 10
87.8988552297614
 20
-138.9295043597988
 30
0.0
 10
88.23096243453949
 20
-138.9148627039865
 30
0.0
 10
88.27747122359035
 20
-138.7519096875342
 30
0.0
 10
88.3070990447635
 20
-138.6377047721982
 30
0.0
 10
88.3070990447635
 20
-138.6377047721982
 30
0.0
 10
88.4531710933381
 20
-138.6377047721982
 30
0.0
 10
88.4531710933381
 20
-138.6377047721982
 30
0.0
 10
88.4531710933381
 20
-138.6377047721982
 30
0.0
 10
88.4531710933381
 20
-140.1819688234614
 30
0.0
 10
88.4531710933381
 20
-140.1819688234614
 30
0.0
 10
88.4531710933381
 20
-140.1819688234614
 30
0.0
 10
88.22889537724833
 20
-140.1819688234614
 30
0.0
 10
88.22889537724833
 20
-140.1819688234614
 30
0.0
  0
HATCH
  5
FC
330
F5
100
AcDbEntity
  8
レイヤー 1
 62
   250
420
  2299925
440
 33554687
100
AcDbHatch
 10
0.0
 20
0.0
 30
0.0
210
0.0
220
0.0
230
1.0
  2
SOLID
 70
     1
 71
     1
 91
        1
 92
        1
 93
        1
 72
     4
 94
        3
 73
     0
 74
     0
 95
       26
 96
       22
 40
0.0
 40
0.0
 40
0.0
 40
0.0
 40
1.0
 40
1.0
 40
1.0
 40
2.0
 40
2.0
 40
2.0
 40
3.0
 40
3.0
 40
3.0
 40
4.0
 40
4.0
 40
4.0
 40
5.0
 40
5.0
 40
5.0
 40
6.0
 40
6.0
 40
6.0
 40
7.0
 40
7.0
 40
7.0
 40
7.0
 10
88.22889537724833
 20
-140.1819688234614
 10
88.22889537724833
 20
-140.1819688234614
 10
88.22889537724833
 20
-139.0776434656646
 10
88.22889537724833
 20
-139.0776434656646
 10
88.22889537724833
 20
-139.0776434656646
 10
87.8988552297614
 20
-139.0776434656646
 10
87.8988552297614
 20
-139.0776434656646
 10
87.8988552297614
 20
-139.0776434656646
 10
87.8988552297614
 20
-138.9295043597988
 10
87.8988552297614
 20
-138.9295043597988
 10
88.23096243453949
 20
-138.9148627039865
 10
88.27747122359035
 20
-138.7519096875342
 10
88.3070990447635
 20
-138.6377047721982
 10
88.3070990447635
 20
-138.6377047721982
 10
88.4531710933381
 20
-138.6377047721982
 10
88.4531710933381
 20
-138.6377047721982
 10
88.4531710933381
 20
-138.6377047721982
 10
88.4531710933381
 20
-140.1819688234614
 10
88.4531710933381
 20
-140.1819688234614
 10
88.4531710933381
 20
-140.1819688234614
 10
88.22889537724833
 20
-140.1819688234614
 10
88.22889537724833
 20
-140.1819688234614
 97
        0
 97
        1
330
FB
 75
     2
 76
     1
 98
        1
 10
0.0
 20
0.0
450
        0
451
        0
460
0.0
461
0.0
452
        0
462
0.0
453
        0
470

  0
ENDBLK
  5
F8
330
F5
100
AcDbEntity
  8
0
100
AcDbBlockEnd
  0
BLOCK
  5
101
330
FF
100
AcDbEntity
  8
0
100
AcDbBlockBegin
  2
Block_4
 70
     0
 10
0.0
 20
0.0
 30
0.0
  3
Block_4
  1

  0
SPLINE
  5
103
330
FF
100
AcDbEntity
  8
レイヤー 1
100
AcDbSpline
210
0.0
220
0.0
230
1.0
 70
     9
 71
     3
 72
    17
 73
    13
 74
     0
 42
0.0000000001
 43
0.0000000001
 40
0.0
 40
0.0
 40
0.0
 40
0.0
 40
1.0
 40
1.0
 40
1.0
 40
2.0
 40
2.0
 40
2.0
 40
3.0
 40
3.0
 40
3.0
 40
4.0
 40
4.0
 40
4.0
 40
4.0
 10
71.81094833274172
 20
-150.1551757437112
 30
0.0
 10
71.81094833274172
 20
-150.2988362254461
 30
0.0
 10
71.89759248419574
 20
-150.4514539554427
 30
0.0
 10
72.10068086305122
 20
-150.4514539554427
 30
0.0
 10
72.30583629919784
 20
-150.4514539554427
 30
0.0
 10
72.40746661601273
 20
-150.324329932037
 30
0.0
 10
72.40746661601273
 20
-150.1551757437112
 30
0.0
 10
72.40746661601273
 20
-149.9691405875077
 30
0.0
 10
72.28482121673782
 20
-149.8588975319797
 30
0.0
 10
72.10705428969894
 20
-149.8588975319797
 30
0.0
 10
71.88484563090032
 20
-149.8588975319797
 30
0.0
 10
71.81094833274172
 20
-150.021850548432
 30
0.0
 10
71.81094833274172
 20
-150.1551757437112
 30
0.0
  0
SPLINE
  5
104
330
FF
100
AcDbEntity
  8
レイヤー 1
100
AcDbSpline
210
0.0
220
0.0
230
1.0
 70
     9
 71
     3
 72
    17
 73
    13
 74
     0
 42
0.0000000001
 43
0.0000000001
 40
0.0
 40
0.0
 40
0.0
 40
0.0
 40
1.0
 40
1.0
 40
1.0
 40
2.0
 40
2.0
 40
2.0
 40
3.0
 40
3.0
 40
3.0
 40
4.0
 40
4.0
 40
4.0
 40
4.0
 10
71.15086803776783
 20
-150.1551757437112
 30
0.0
 10
71.15086803776783
 20
-150.3201958174547
 30
0.0
 10
71.24595267316074
 20
-150.4046006568433
 30
0.0
 10
71.38134492573105
 20
-150.4046006568433
 30
0.0
 10
71.50416257978021
 20
-150.4046006568433
 30
0.0
 10
71.6226738644728
 20
-150.3329426707501
 30
0.0
 10
71.6226738644728
 20
-150.1551757437112
 30
0.0
 10
71.6226738644728
 20
-149.9774088166723
 30
0.0
 10
71.50416257978021
 20
-149.9054063210306
 30
0.0
 10
71.38134492573105
 20
-149.9054063210306
 30
0.0
 10
71.24595267316074
 20
-149.9054063210306
 30
0.0
 10
71.15086803776783
 20
-149.9922227272589
 30
0.0
 10
71.15086803776783
 20
-150.1551757437112
 30
0.0
  0
SPLINE
  5
105
330
FF
100
AcDbEntity
  8
レイヤー 1
100
AcDbSpline
210
0.0
220
0.0
230
1.0
 70
     9
 71
     3
 72
    29
 73
    25
 74
     0
 42
0.0000000001
 43
0.0000000001
 40
0.0
 40
0.0
 40
0.0
 40
0.0
 40
1.0
 40
1.0
 40
1.0
 40
2.0
 40
2.0
 40
2.0
 40
3.0
 40
3.0
 40
3.0
 40
4.0
 40
4.0
 40
4.0
 40
5.0
 40
5.0
 40
5.0
 40
6.0
 40
6.0
 40
6.0
 40
7.0
 40
7.0
 40
7.0
 40
8.0
 40
8.0
 40
8.0
 40
8.0
 10
72.60211451092934
 20
-150.1551757437112
 30
0.0
 10
72.60211451092934
 20
-150.4218261342695
 30
0.0
 10
72.4644829462936
 20
-150.6753851619839
 30
0.0
 10
72.11549477363779
 20
-150.6753851619839
 30
0.0
 10
71.85952417908374
 20
-150.6753851619839
 30
0.0
 10
71.76426728891657
 20
-150.5337917375401
 30
0.0
 10
71.70294458927912
 20
-150.428027306143
 30
0.0
 10
71.64368894693282
 20
-150.552739762709
 30
0.0
 10
71.5294840315968
 20
-150.628876372933
 30
0.0
 10
71.36877032720988
 20
-150.628876372933
 30
0.0
 10
71.09367945271269
 20
-150.628876372933
 30
0.0
 10
70.95828720014238
 20
-150.4300943634341
 30
0.0
 10
70.95828720014238
 20
-150.1551757437112
 30
0.0
 10
70.95828720014238
 20
-149.8716443852751
 30
0.0
 10
71.10211993665156
 20
-149.6811306049408
 30
0.0
 10
71.36877032720988
 20
-149.6811306049408
 30
0.0
 10
71.5294840315968
 20
-149.6811306049408
 30
0.0
 10
71.64368894693282
 20
-149.7596787820045
 30
0.0
 10
71.70294458927912
 20
-149.8843912385706
 30
0.0
 10
71.75375974768655
 20
-149.7955077750511
 30
0.0
 10
71.84901663785372
 20
-149.6366888731811
 30
0.0
 10
72.11136065905549
 20
-149.6366888731811
 30
0.0
 10
72.48567028352789
 20
-149.6366888731811
 30
0.0
 10
72.60211451092934
 20
-149.9160861170348
 30
0.0
 10
72.60211451092934
 20
-150.1551757437112
 30
0.0
  0
HATCH
  5
106
330
FF
100
AcDbEntity
  8
レイヤー 1
 62
   250
420
  2299925
440
 33554687
100
AcDbHatch
 10
0.0
 20
0.0
 30
0.0
210
0.0
220
0.0
230
1.0
  2
SOLID
 70
     1
 71
     1
 91
        3
 92
        1
 93
        1
 72
     4
 94
        3
 73
     0
 74
     0
 95
       17
 96
       13
 40
0.0
 40
0.0
 40
0.0
 40
0.0
 40
1.0
 40
1.0
 40
1.0
 40
2.0
 40
2.0
 40
2.0
 40
3.0
 40
3.0
 40
3.0
 40
4.0
 40
4.0
 40
4.0
 40
4.0
 10
71.81094833274172
 20
-150.1551757437112
 10
71.81094833274172
 20
-150.2988362254461
 10
71.89759248419574
 20
-150.4514539554427
 10
72.10068086305122
 20
-150.4514539554427
 10
72.30583629919784
 20
-150.4514539554427
 10
72.40746661601273
 20
-150.324329932037
 10
72.40746661601273
 20
-150.1551757437112
 10
72.40746661601273
 20
-149.9691405875077
 10
72.28482121673782
 20
-149.8588975319797
 10
72.10705428969894
 20
-149.8588975319797
 10
71.88484563090032
 20
-149.8588975319797
 10
71.81094833274172
 20
-150.021850548432
 10
71.81094833274172
 20
-150.1551757437112
 97
        0
 97
        1
330
103
 92
        1
 93
        1
 72
     4
 94
        3
 73
     0
 74
     0
 95
       17
 96
       13
 40
0.0
 40
0.0
 40
0.0
 40
0.0
 40
1.0
 40
1.0
 40
1.0
 40
2.0
 40
2.0
 40
2.0
 40
3.0
 40
3.0
 40
3.0
 40
4.0
 40
4.0
 40
4.0
 40
4.0
 10
71.15086803776783
 20
-150.1551757437112
 10
71.15086803776783
 20
-150.3201958174547
 10
71.24595267316074
 20
-150.4046006568433
 10
71.38134492573105
 20
-150.4046006568433
 10
71.50416257978021
 20
-150.4046006568433
 10
71.6226738644728
 20
-150.3329426707501
 10
71.6226738644728
 20
-150.1551757437112
 10
71.6226738644728
 20
-149.9774088166723
 10
71.50416257978021
 20
-149.9054063210306
 10
71.38134492573105
 20
-149.9054063210306
 10
71.24595267316074
 20
-149.9054063210306
 10
71.15086803776783
 20
-149.9922227272589
 10
71.15086803776783
 20
-150.1551757437112
 97
        0
 97
        1
330
104
 92
        1
 93
        1
 72
     4
 94
        3
 73
     0
 74
     0
 95
       29
 96
       25
 40
0.0
 40
0.0
 40
0.0
 40
0.0
 40
1.0
 40
1.0
 40
1.0
 40
2.0
 40
2.0
 40
2.0
 40
3.0
 40
3.0
 40
3.0
 40
4.0
 40
4.0
 40
4.0
 40
5.0
 40
5.0
 40
5.0
 40
6.0
 40
6.0
 40
6.0
 40
7.0
 40
7.0
 40
7.0
 40
8.0
 40
8.0
 40
8.0
 40
8.0
 10
72.60211451092934
 20
-150.1551757437112
 10
72.60211451092934
 20
-150.4218261342695
 10
72.4644829462936
 20
-150.6753851619839
 10
72.11549477363779
 20
-150.6753851619839
 10
71.85952417908374
 20
-150.6753851619839
 10
71.76426728891657
 20
-150.5337917375401
 10
71.70294458927912
 20
-150.428027306143
 10
71.64368894693282
 20
-150.552739762709
 10
71.5294840315968
 20
-150.628876372933
 10
71.36877032720988
 20
-150.628876372933
 10
71.09367945271269
 20
-150.628876372933
 10
70.95828720014238
 20
-150.4300943634341
 10
70.95828720014238
 20
-150.1551757437112
 10
70.95828720014238
 20
-149.8716443852751
 10
71.10211993665156
 20
-149.6811306049408
 10
71.36877032720988
 20
-149.6811306049408
 10
71.5294840315968
 20
-149.6811306049408
 10
71.64368894693282
 20
-149.7596787820045
 10
71.70294458927912
 20
-149.8843912385706
 10
71.75375974768655
 20
-149.7955077750511
 10
71.84901663785372
 20
-149.6366888731811
 10
72.11136065905549
 20
-149.6366888731811
 10
72.48567028352789
 20
-149.6366888731811
 10
72.60211451092934
 20
-149.9160861170348
 10
72.60211451092934
 20
-150.1551757437112
 97
        0
 97
        1
330
105
 75
     2
 76
     1
 98
        1
 10
0.0
 20
0.0
450
        0
451
        0
460
0.0
461
0.0
452
        0
462
0.0
453
        0
470

  0
ENDBLK
  5
102
330
FF
100
AcDbEntity
  8
0
100
AcDbBlockEnd
  0
BLOCK
  5
10B
330
109
100
AcDbEntity
  8
0
100
AcDbBlockBegin
  2
Block_5
 70
     0
 10
0.0
 20
0.0
 30
0.0
  3
Block_5
  1

  0
INSERT
  5
10E
330
109
100
AcDbEntity
  8
レイヤー 1
100
AcDbBlockReference
  2
Block_6
 10
0.0
 20
0.0
 30
0.0
  0
ENDBLK
  5
10C
330
109
100
AcDbEntity
  8
0
100
AcDbBlockEnd
  0
BLOCK
  5
10F
330
10D
100
AcDbEntity
  8
0
100
AcDbBlockBegin
  2
Block_6
 70
     0
 10
0.0
 20
0.0
 30
0.0
  3
Block_6
  1

  0
SPLINE
  5
111
330
10D
100
AcDbEntity
  8
レイヤー 1
100
AcDbSpline
210
0.0
220
0.0
230
1.0
 70
     9
 71
     3
 72
    44
 73
    40
 74
     0
 42
0.0000000001
 43
0.0000000001
 40
0.0
 40
0.0
 40
0.0
 40
0.0
 40
1.0
 40
1.0
 40
1.0
 40
2.0
 40
2.0
 40
2.0
 40
3.0
 40
3.0
 40
3.0
 40
4.0
 40
4.0
 40
4.0
 40
5.0
 40
5.0
 40
5.0
 40
6.0
 40
6.0
 40
6.0
 40
7.0
 40
7.0
 40
7.0
 40
8.0
 40
8.0
 40
8.0
 40
9.0
 40
9.0
 40
9.0
 40
10.0
 40
10.0
 40
10.0
 40
11.0
 40
11.0
 40
11.0
 40
12.0
 40
12.0
 40
12.0
 40
13.0
 40
13.0
 40
13.0
 40
13.0
 10
118.1946804174999
 20
-139.600264450777
 30
0.0
 10
117.9769503828321
 20
-139.7589110978728
 30
0.0
 10
117.8839328047304
 20
-139.8329806508056
 30
0.0
 10
117.8350124488398
 20
-139.9768133873148
 30
0.0
 10
117.8350124488398
 20
-139.9768133873148
 30
0.0
 10
118.6136040285063
 20
-139.9768133873148
 30
0.0
 10
118.6136040285063
 20
-139.9768133873148
 30
0.0
 10
118.6136040285063
 20
-139.9768133873148
 30
0.0
 10
118.6136040285063
 20
-140.1819688234614
 30
0.0
 10
118.6136040285063
 20
-140.1819688234614
 30
0.0
 10
118.6136040285063
 20
-140.1819688234614
 30
0.0
 10
117.5855875357078
 20
-140.1819688234614
 30
0.0
 10
117.5855875357078
 20
-140.1819688234614
 30
0.0
 10
117.617282414172
 20
-139.8243679120925
 30
0.0
 10
117.6827392283918
 20
-139.7461642445773
 30
0.0
 10
118.0679009036427
 20
-139.4478189755547
 30
0.0
 10
118.3238714981968
 20
-139.2490369660558
 30
0.0
 10
118.3893283124165
 20
-139.1813408397706
 30
0.0
 10
118.3893283124165
 20
-139.0438815299092
 30
0.0
 10
118.3893283124165
 20
-138.9253702452166
 30
0.0
 10
118.3173258167748
 20
-138.7941121072285
 30
0.0
 10
118.120610864567
 20
-138.7941121072285
 30
0.0
 10
117.8605061554307
 20
-138.7941121072285
 30
0.0
 10
117.8522379262661
 20
-139.024761249966
 30
0.0
 10
117.8477593021353
 20
-139.1412054773675
 30
0.0
 10
117.8477593021353
 20
-139.1412054773675
 30
0.0
 10
117.6234835860455
 20
-139.1412054773675
 30
0.0
 10
117.6234835860455
 20
-139.1412054773675
 30
0.0
 10
117.6320963247586
 20
-139.014253708736
 30
0.0
 10
117.6427761207629
 20
-138.9021158506911
 30
0.0
 10
117.7230468455692
 20
-138.7836045659985
 30
0.0
 10
117.8329453915487
 20
-138.6228908616116
 30
0.0
 10
118.0193250573007
 20
-138.5889566710819
 30
0.0
 10
118.1354247751536
 20
-138.5889566710819
 30
0.0
 10
118.4127549617162
 20
-138.5889566710819
 30
0.0
 10
118.6201497099283
 20
-138.7730970247685
 30
0.0
 10
118.6201497099283
 20
-139.0459485872003
 30
0.0
 10
118.6201497099283
 20
-139.2743584178724
 30
0.0
 10
118.5037054825268
 20
-139.3739216773961
 30
0.0
 10
118.1946804174999
 20
-139.600264450777
 30
0.0
  0
HATCH
  5
112
330
10D
100
AcDbEntity
  8
レイヤー 1
 62
   250
420
  2299925
440
 33554687
100
AcDbHatch
 10
0.0
 20
0.0
 30
0.0
210
0.0
220
0.0
230
1.0
  2
SOLID
 70
     1
 71
     1
 91
        1
 92
        1
 93
        1
 72
     4
 94
        3
 73
     0
 74
     0
 95
       44
 96
       40
 40
0.0
 40
0.0
 40
0.0
 40
0.0
 40
1.0
 40
1.0
 40
1.0
 40
2.0
 40
2.0
 40
2.0
 40
3.0
 40
3.0
 40
3.0
 40
4.0
 40
4.0
 40
4.0
 40
5.0
 40
5.0
 40
5.0
 40
6.0
 40
6.0
 40
6.0
 40
7.0
 40
7.0
 40
7.0
 40
8.0
 40
8.0
 40
8.0
 40
9.0
 40
9.0
 40
9.0
 40
10.0
 40
10.0
 40
10.0
 40
11.0
 40
11.0
 40
11.0
 40
12.0
 40
12.0
 40
12.0
 40
13.0
 40
13.0
 40
13.0
 40
13.0
 10
118.1946804174999
 20
-139.600264450777
 10
117.9769503828321
 20
-139.7589110978728
 10
117.8839328047304
 20
-139.8329806508056
 10
117.8350124488398
 20
-139.9768133873148
 10
117.8350124488398
 20
-139.9768133873148
 10
118.6136040285063
 20
-139.9768133873148
 10
118.6136040285063
 20
-139.9768133873148
 10
118.6136040285063
 20
-139.9768133873148
 10
118.6136040285063
 20
-140.1819688234614
 10
118.6136040285063
 20
-140.1819688234614
 10
118.6136040285063
 20
-140.1819688234614
 10
117.5855875357078
 20
-140.1819688234614
 10
117.5855875357078
 20
-140.1819688234614
 10
117.617282414172
 20
-139.8243679120925
 10
117.6827392283918
 20
-139.7461642445773
 10
118.0679009036427
 20
-139.4478189755547
 10
118.3238714981968
 20
-139.2490369660558
 10
118.3893283124165
 20
-139.1813408397706
 10
118.3893283124165
 20
-139.0438815299092
 10
118.3893283124165
 20
-138.9253702452166
 10
118.3173258167748
 20
-138.7941121072285
 10
118.120610864567
 20
-138.7941121072285
 10
117.8605061554307
 20
-138.7941121072285
 10
117.8522379262661
 20
-139.024761249966
 10
117.8477593021353
 20
-139.1412054773675
 10
117.8477593021353
 20
-139.1412054773675
 10
117.6234835860455
 20
-139.1412054773675
 10
117.6234835860455
 20
-139.1412054773675
 10
117.6320963247586
 20
-139.014253708736
 10
117.6427761207629
 20
-138.9021158506911
 10
117.7230468455692
 20
-138.7836045659985
 10
117.8329453915487
 20
-138.6228908616116
 10
118.0193250573007
 20
-138.5889566710819
 10
118.1354247751536
 20
-138.5889566710819
 10
118.4127549617162
 20
-138.5889566710819
 10
118.6201497099283
 20
-138.7730970247685
 10
118.6201497099283
 20
-139.0459485872003
 10
118.6201497099283
 20
-139.2743584178724
 10
118.5037054825268
 20
-139.3739216773961
 10
118.1946804174999
 20
-139.600264450777
 97
        0
 97
        1
330
111
 75
     2
 76
     1
 98
        1
 10
0.0
 20
0.0
450
        0
451
        0
460
0.0
461
0.0
452
        0
462
0.0
453
        0
470

  0
SPLINE
  5
113
330
10D
100
AcDbEntity
  8
レイヤー 1
100
AcDbSpline
210
0.0
220
0.0
230
1.0
 70
    11
 71
     3
 72
    26
 73
    22
 74
     0
 42
0.0000000001
 43
0.0000000001
 40
0.0
 40
0.0
 40
0.0
 40
0.0
 40
1.0
 40
1.0
 40
1.0
 40
2.0
 40
2.0
 40
2.0
 40
3.0
 40
3.0
 40
3.0
 40
4.0
 40
4.0
 40
4.0
 40
5.0
 40
5.0
 40
5.0
 40
6.0
 40
6.0
 40
6.0
 40
7.0
 40
7.0
 40
7.0
 40
7.0
 10
119.2299316108175
 20
-140.1819688234614
 30
0.0
 10
119.2299316108175
 20
-140.1819688234614
 30
0.0
 10
119.2299316108175
 20
-139.0776434656646
 30
0.0
 10
119.2299316108175
 20
-139.0776434656646
 30
0.0
 10
119.2299316108175
 20
-139.0776434656646
 30
0.0
 10
118.8998914633306
 20
-139.0776434656646
 30
0.0
 10
118.8998914633306
 20
-139.0776434656646
 30
0.0
 10
118.8998914633306
 20
-139.0776434656646
 30
0.0
 10
118.8998914633306
 20
-138.9295043597988
 30
0.0
 10
118.8998914633306
 20
-138.9295043597988
 30
0.0
 10
119.2319986681086
 20
-138.9148627039865
 30
0.0
 10
119.2785074571595
 20
-138.7519096875342
 30
0.0
 10
119.3081352783327
 20
-138.6377047721982
 30
0.0
 10
119.3081352783327
 20
-138.6377047721982
 30
0.0
 10
119.4542073269073
 20
-138.6377047721982
 30
0.0
 10
119.4542073269073
 20
-138.6377047721982
 30
0.0
 10
119.4542073269073
 20
-138.6377047721982
 30
0.0
 10
119.4542073269073
 20
-140.1819688234614
 30
0.0
 10
119.4542073269073
 20
-140.1819688234614
 30
0.0
 10
119.4542073269073
 20
-140.1819688234614
 30
0.0
 10
119.2299316108175
 20
-140.1819688234614
 30
0.0
 10
119.2299316108175
 20
-140.1819688234614
 30
0.0
  0
HATCH
  5
114
330
10D
100
AcDbEntity
  8
レイヤー 1
 62
   250
420
  2299925
440
 33554687
100
AcDbHatch
 10
0.0
 20
0.0
 30
0.0
210
0.0
220
0.0
230
1.0
  2
SOLID
 70
     1
 71
     1
 91
        1
 92
        1
 93
        1
 72
     4
 94
        3
 73
     0
 74
     0
 95
       26
 96
       22
 40
0.0
 40
0.0
 40
0.0
 40
0.0
 40
1.0
 40
1.0
 40
1.0
 40
2.0
 40
2.0
 40
2.0
 40
3.0
 40
3.0
 40
3.0
 40
4.0
 40
4.0
 40
4.0
 40
5.0
 40
5.0
 40
5.0
 40
6.0
 40
6.0
 40
6.0
 40
7.0
 40
7.0
 40
7.0
 40
7.0
 10
119.2299316108175
 20
-140.1819688234614
 10
119.2299316108175
 20
-140.1819688234614
 10
119.2299316108175
 20
-139.0776434656646
 10
119.2299316108175
 20
-139.0776434656646
 10
119.2299316108175
 20
-139.0776434656646
 10
118.8998914633306
 20
-139.0776434656646
 10
118.8998914633306
 20
-139.0776434656646
 10
118.8998914633306
 20
-139.0776434656646
 10
118.8998914633306
 20
-138.9295043597988
 10
118.8998914633306
 20
-138.9295043597988
 10
119.2319986681086
 20
-138.9148627039865
 10
119.2785074571595
 20
-138.7519096875342
 10
119.3081352783327
 20
-138.6377047721982
 10
119.3081352783327
 20
-138.6377047721982
 10
119.4542073269073
 20
-138.6377047721982
 10
119.4542073269073
 20
-138.6377047721982
 10
119.4542073269073
 20
-138.6377047721982
 10
119.4542073269073
 20
-140.1819688234614
 10
119.4542073269073
 20
-140.1819688234614
 10
119.4542073269073
 20
-140.1819688234614
 10
119.2299316108175
 20
-140.1819688234614
 10
119.2299316108175
 20
-140.1819688234614
 97
        0
 97
        1
330
113
 75
     2
 76
     1
 98
        1
 10
0.0
 20
0.0
450
        0
451
        0
460
0.0
461
0.0
452
        0
462
0.0
453
        0
470

  0
ENDBLK
  5
110
330
10D
100
AcDbEntity
  8
0
100
AcDbBlockEnd
  0
BLOCK
  5
11A
330
118
100
AcDbEntity
  8
0
100
AcDbBlockBegin
  2
Block_7
 70
     0
 10
0.0
 20
0.0
 30
0.0
  3
Block_7
  1

  0
INSERT
  5
11D
330
118
100
AcDbEntity
  8
レイヤー 1
100
AcDbBlockReference
  2
Block_8
 10
0.0
 20
0.0
 30
0.0
  0
ENDBLK
  5
11B
330
118
100
AcDbEntity
  8
0
100
AcDbBlockEnd
  0
BLOCK
  5
11E
330
11C
100
AcDbEntity
  8
0
100
AcDbBlockBegin
  2
Block_8
 70
     0
 10
0.0
 20
0.0
 30
0.0
  3
Block_8
  1

  0
SPLINE
  5
120
330
11C
100
AcDbEntity
  8
レイヤー 1
100
AcDbSpline
210
0.0
220
0.0
230
1.0
 70
    11
 71
     3
 72
    26
 73
    22
 74
     0
 42
0.0000000001
 43
0.0000000001
 40
0.0
 40
0.0
 40
0.0
 40
0.0
 40
1.0
 40
1.0
 40
1.0
 40
2.0
 40
2.0
 40
2.0
 40
3.0
 40
3.0
 40
3.0
 40
4.0
 40
4.0
 40
4.0
 40
5.0
 40
5.0
 40
5.0
 40
6.0
 40
6.0
 40
6.0
 40
7.0
 40
7.0
 40
7.0
 40
7.0
 10
102.5527411310458
 20
-140.1819688234614
 30
0.0
 10
102.5527411310458
 20
-140.1819688234614
 30
0.0
 10
102.5527411310458
 20
-139.0776434656646
 30
0.0
 10
102.5527411310458
 20
-139.0776434656646
 30
0.0
 10
102.5527411310458
 20
-139.0776434656646
 30
0.0
 10
102.2227009835589
 20
-139.0776434656646
 30
0.0
 10
102.2227009835589
 20
-139.0776434656646
 30
0.0
 10
102.2227009835589
 20
-139.0776434656646
 30
0.0
 10
102.2227009835589
 20
-138.9295043597988
 30
0.0
 10
102.2227009835589
 20
-138.9295043597988
 30
0.0
 10
102.554808188337
 20
-138.9148627039865
 30
0.0
 10
102.6013169773879
 20
-138.7519096875342
 30
0.0
 10
102.630944798561
 20
-138.6377047721982
 30
0.0
 10
102.630944798561
 20
-138.6377047721982
 30
0.0
 10
102.7770168471356
 20
-138.6377047721982
 30
0.0
 10
102.7770168471356
 20
-138.6377047721982
 30
0.0
 10
102.7770168471356
 20
-138.6377047721982
 30
0.0
 10
102.7770168471356
 20
-140.1819688234614
 30
0.0
 10
102.7770168471356
 20
-140.1819688234614
 30
0.0
 10
102.7770168471356
 20
-140.1819688234614
 30
0.0
 10
102.5527411310458
 20
-140.1819688234614
 30
0.0
 10
102.5527411310458
 20
-140.1819688234614
 30
0.0
  0
HATCH
  5
121
330
11C
100
AcDbEntity
  8
レイヤー 1
 62
   250
420
  2299925
440
 33554687
100
AcDbHatch
 10
0.0
 20
0.0
 30
0.0
210
0.0
220
0.0
230
1.0
  2
SOLID
 70
     1
 71
     1
 91
        1
 92
        1
 93
        1
 72
     4
 94
        3
 73
     0
 74
     0
 95
       26
 96
       22
 40
0.0
 40
0.0
 40
0.0
 40
0.0
 40
1.0
 40
1.0
 40
1.0
 40
2.0
 40
2.0
 40
2.0
 40
3.0
 40
3.0
 40
3.0
 40
4.0
 40
4.0
 40
4.0
 40
5.0
 40
5.0
 40
5.0
 40
6.0
 40
6.0
 40
6.0
 40
7.0
 40
7.0
 40
7.0
 40
7.0
 10
102.5527411310458
 20
-140.1819688234614
 10
102.5527411310458
 20
-140.1819688234614
 10
102.5527411310458
 20
-139.0776434656646
 10
102.5527411310458
 20
-139.0776434656646
 10
102.5527411310458
 20
-139.0776434656646
 10
102.2227009835589
 20
-139.0776434656646
 10
102.2227009835589
 20
-139.0776434656646
 10
102.2227009835589
 20
-139.0776434656646
 10
102.2227009835589
 20
-138.9295043597988
 10
102.2227009835589
 20
-138.9295043597988
 10
102.554808188337
 20
-138.9148627039865
 10
102.6013169773879
 20
-138.7519096875342
 10
102.630944798561
 20
-138.6377047721982
 10
102.630944798561
 20
-138.6377047721982
 10
102.7770168471356
 20
-138.6377047721982
 10
102.7770168471356
 20
-138.6377047721982
 10
102.7770168471356
 20
-138.6377047721982
 10
102.7770168471356
 20
-140.1819688234614
 10
102.7770168471356
 20
-140.1819688234614
 10
102.7770168471356
 20
-140.1819688234614
 10
102.5527411310458
 20
-140.1819688234614
 10
102.5527411310458
 20
-140.1819688234614
 97
        0
 97
        1
330
120
 75
     2
 76
     1
 98
        1
 10
0.0
 20
0.0
450
        0
451
        0
460
0.0
461
0.0
452
        0
462
0.0
453
        0
470

  0
SPLINE
  5
122
330
11C
100
AcDbEntity
  8
レイヤー 1
100
AcDbSpline
210
0.0
220
0.0
230
1.0
 70
     9
 71
     3
 72
    17
 73
    13
 74
     0
 42
0.0000000001
 43
0.0000000001
 40
0.0
 40
0.0
 40
0.0
 40
0.0
 40
1.0
 40
1.0
 40
1.0
 40
2.0
 40
2.0
 40
2.0
 40
3.0
 40
3.0
 40
3.0
 40
4.0
 40
4.0
 40
4.0
 40
4.0
 10
103.7781615951492
 20
-138.7815375087074
 30
0.0
 10
103.5283921724686
 20
-138.7815375087074
 30
0.0
 10
103.4818833834177
 20
-139.0648966123692
 30
0.0
 10
103.4818833834177
 20
-139.4097506704427
 30
0.0
 10
103.4818833834177
 20
-139.7292832766996
 30
0.0
 10
103.5180568860128
 20
-140.0381360869523
 30
0.0
 10
103.7781615951492
 20
-140.0381360869523
 30
0.0
 10
104.0258639605387
 20
-140.0381360869523
 30
0.0
 10
104.0744398068807
 20
-139.7566717858073
 30
0.0
 10
104.0744398068807
 20
-139.4097506704427
 30
0.0
 10
104.0744398068807
 20
-139.09039031896
 30
0.0
 10
104.0361992469944
 20
-138.7815375087074
 30
0.0
 10
103.7781615951492
 20
-138.7815375087074
 30
0.0
  0
SPLINE
  5
123
330
11C
100
AcDbEntity
  8
レイヤー 1
100
AcDbSpline
210
0.0
220
0.0
230
1.0
 70
     9
 71
     3
 72
    29
 73
    25
 74
     0
 42
0.0000000001
 43
0.0000000001
 40
0.0
 40
0.0
 40
0.0
 40
0.0
 40
1.0
 40
1.0
 40
1.0
 40
2.0
 40
2.0
 40
2.0
 40
3.0
 40
3.0
 40
3.0
 40
4.0
 40
4.0
 40
4.0
 40
5.0
 40
5.0
 40
5.0
 40
6.0
 40
6.0
 40
6.0
 40
7.0
 40
7.0
 40
7.0
 40
8.0
 40
8.0
 40
8.0
 40
8.0
 10
104.1760701236955
 20
-140.0042018964225
 30
0.0
 10
104.0678941254587
 20
-140.2136637019257
 30
0.0
 10
103.8946058225506
 20
-140.2327839818689
 30
0.0
 10
103.7781615951492
 20
-140.2327839818689
 30
0.0
 10
103.617275635988
 20
-140.2327839818689
 30
0.0
 10
103.4756822115443
 20
-140.186275192818
 30
0.0
 10
103.3805975761514
 20
-140.0042018964225
 30
0.0
 10
103.2769002020453
 20
-139.8097262562802
 30
0.0
 10
103.2576076673279
 20
-139.572703686895
 30
0.0
 10
103.2576076673279
 20
-139.4097506704427
 30
0.0
 10
103.2576076673279
 20
-139.2659179339335
 30
0.0
 10
103.2748331447542
 20
-139.014253708736
 30
0.0
 10
103.3805975761514
 20
-138.8152994444628
 30
0.0
 10
103.4884290648397
 20
-138.6122110656073
 30
0.0
 10
103.6493150240008
 20
-138.5889566710819
 30
0.0
 10
103.7781615951492
 20
-138.5889566710819
 30
0.0
 10
103.9369804970192
 20
-138.5889566710819
 30
0.0
 10
104.0806409787541
 20
-138.6333984028416
 30
0.0
 10
104.1760701236955
 20
-138.8152994444628
 30
0.0
 10
104.2752888736707
 20
-139.0078802820883
 30
0.0
 10
104.2987155229704
 20
-139.2362901127603
 30
0.0
 10
104.2987155229704
 20
-139.4097506704427
 30
0.0
 10
104.2987155229704
 20
-139.5811441708339
 30
0.0
 10
104.2773559309619
 20
-139.8117933135713
 30
0.0
 10
104.1760701236955
 20
-140.0042018964225
 30
0.0
  0
HATCH
  5
124
330
11C
100
AcDbEntity
  8
レイヤー 1
 62
   250
420
  2299925
440
 33554687
100
AcDbHatch
 10
0.0
 20
0.0
 30
0.0
210
0.0
220
0.0
230
1.0
  2
SOLID
 70
     1
 71
     1
 91
        2
 92
        1
 93
        1
 72
     4
 94
        3
 73
     0
 74
     0
 95
       17
 96
       13
 40
0.0
 40
0.0
 40
0.0
 40
0.0
 40
1.0
 40
1.0
 40
1.0
 40
2.0
 40
2.0
 40
2.0
 40
3.0
 40
3.0
 40
3.0
 40
4.0
 40
4.0
 40
4.0
 40
4.0
 10
103.7781615951492
 20
-138.7815375087074
 10
103.5283921724686
 20
-138.7815375087074
 10
103.4818833834177
 20
-139.0648966123692
 10
103.4818833834177
 20
-139.4097506704427
 10
103.4818833834177
 20
-139.7292832766996
 10
103.5180568860128
 20
-140.0381360869523
 10
103.7781615951492
 20
-140.0381360869523
 10
104.0258639605387
 20
-140.0381360869523
 10
104.0744398068807
 20
-139.7566717858073
 10
104.0744398068807
 20
-139.4097506704427
 10
104.0744398068807
 20
-139.09039031896
 10
104.0361992469944
 20
-138.7815375087074
 10
103.7781615951492
 20
-138.7815375087074
 97
        0
 97
        1
330
122
 92
        1
 93
        1
 72
     4
 94
        3
 73
     0
 74
     0
 95
       29
 96
       25
 40
0.0
 40
0.0
 40
0.0
 40
0.0
 40
1.0
 40
1.0
 40
1.0
 40
2.0
 40
2.0
 40
2.0
 40
3.0
 40
3.0
 40
3.0
 40
4.0
 40
4.0
 40
4.0
 40
5.0
 40
5.0
 40
5.0
 40
6.0
 40
6.0
 40
6.0
 40
7.0
 40
7.0
 40
7.0
 40
8.0
 40
8.0
 40
8.0
 40
8.0
 10
104.1760701236955
 20
-140.0042018964225
 10
104.0678941254587
 20
-140.2136637019257
 10
103.8946058225506
 20
-140.2327839818689
 10
103.7781615951492
 20
-140.2327839818689
 10
103.617275635988
 20
-140.2327839818689
 10
103.4756822115443
 20
-140.186275192818
 10
103.3805975761514
 20
-140.0042018964225
 10
103.2769002020453
 20
-139.8097262562802
 10
103.2576076673279
 20
-139.572703686895
 10
103.2576076673279
 20
-139.4097506704427
 10
103.2576076673279
 20
-139.2659179339335
 10
103.2748331447542
 20
-139.014253708736
 10
103.3805975761514
 20
-138.8152994444628
 10
103.4884290648397
 20
-138.6122110656073
 10
103.6493150240008
 20
-138.5889566710819
 10
103.7781615951492
 20
-138.5889566710819
 10
103.9369804970192
 20
-138.5889566710819
 10
104.0806409787541
 20
-138.6333984028416
 10
104.1760701236955
 20
-138.8152994444628
 10
104.2752888736707
 20
-139.0078802820883
 10
104.2987155229704
 20
-139.2362901127603
 10
104.2987155229704
 20
-139.4097506704427
 10
104.2987155229704
 20
-139.5811441708339
 10
104.2773559309619
 20
-139.8117933135713
 10
104.1760701236955
 20
-140.0042018964225
 97
        0
 97
        1
330
123
 75
     2
 76
     1
 98
        1
 10
0.0
 20
0.0
450
        0
451
        0
460
0.0
461
0.0
452
        0
462
0.0
453
        0
470

  0
ENDBLK
  5
11F
330
11C
100
AcDbEntity
  8
0
100
AcDbBlockEnd
  0
BLOCK
  5
12C
330
12A
100
AcDbEntity
  8
0
100
AcDbBlockBegin
  2
Block_9
 70
     0
 10
0.0
 20
0.0
 30
0.0
  3
Block_9
  1

  0
INSERT
  5
12F
330
12A
100
AcDbEntity
  8
レイヤー 1
100
AcDbBlockReference
  2
Block_10
 10
0.0
 20
0.0
 30
0.0
  0
ENDBLK
  5
12D
330
12A
100
AcDbEntity
  8
0
100
AcDbBlockEnd
  0
BLOCK
  5
130
330
12E
100
AcDbEntity
  8
0
100
AcDbBlockBegin
  2
Block_10
 70
     0
 10
0.0
 20
0.0
 30
0.0
  3
Block_10
  1

  0
SPLINE
  5
132
330
12E
100
AcDbEntity
  8
レイヤー 1
100
AcDbSpline
210
0.0
220
0.0
230
1.0
 70
    11
 71
     3
 72
    26
 73
    22
 74
     0
 42
0.0000000001
 43
0.0000000001
 40
0.0
 40
0.0
 40
0.0
 40
0.0
 40
1.0
 40
1.0
 40
1.0
 40
2.0
 40
2.0
 40
2.0
 40
3.0
 40
3.0
 40
3.0
 40
4.0
 40
4.0
 40
4.0
 40
5.0
 40
5.0
 40
5.0
 40
6.0
 40
6.0
 40
6.0
 40
7.0
 40
7.0
 40
7.0
 40
7.0
 10
102.8696899156888
 20
-157.5569633937705
 30
0.0
 10
102.8696899156888
 20
-157.5569633937705
 30
0.0
 10
102.8696899156888
 20
-156.4528102907479
 30
0.0
 10
102.8696899156888
 20
-156.4528102907479
 30
0.0
 10
102.8696899156888
 20
-156.4528102907479
 30
0.0
 10
102.5396497682019
 20
-156.4528102907479
 30
0.0
 10
102.5396497682019
 20
-156.4528102907479
 30
0.0
 10
102.5396497682019
 20
-156.4528102907479
 30
0.0
 10
102.5396497682019
 20
-156.3046711848822
 30
0.0
 10
102.5396497682019
 20
-156.3046711848822
 30
0.0
 10
102.87175697298
 20
-156.2898572742956
 30
0.0
 10
102.9182657620308
 20
-156.1269042578433
 30
0.0
 10
102.947893583204
 20
-156.012527087733
 30
0.0
 10
102.947893583204
 20
-156.012527087733
 30
0.0
 10
103.0939656317786
 20
-156.012527087733
 30
0.0
 10
103.0939656317786
 20
-156.012527087733
 30
0.0
 10
103.0939656317786
 20
-156.012527087733
 30
0.0
 10
103.0939656317786
 20
-157.5569633937705
 30
0.0
 10
103.0939656317786
 20
-157.5569633937705
 30
0.0
 10
103.0939656317786
 20
-157.5569633937705
 30
0.0
 10
102.8696899156888
 20
-157.5569633937705
 30
0.0
 10
102.8696899156888
 20
-157.5569633937705
 30
0.0
  0
HATCH
  5
133
330
12E
100
AcDbEntity
  8
レイヤー 1
 62
   250
420
  2299925
440
 33554687
100
AcDbHatch
 10
0.0
 20
0.0
 30
0.0
210
0.0
220
0.0
230
1.0
  2
SOLID
 70
     1
 71
     1
 91
        1
 92
        1
 93
        1
 72
     4
 94
        3
 73
     0
 74
     0
 95
       26
 96
       22
 40
0.0
 40
0.0
 40
0.0
 40
0.0
 40
1.0
 40
1.0
 40
1.0
 40
2.0
 40
2.0
 40
2.0
 40
3.0
 40
3.0
 40
3.0
 40
4.0
 40
4.0
 40
4.0
 40
5.0
 40
5.0
 40
5.0
 40
6.0
 40
6.0
 40
6.0
 40
7.0
 40
7.0
 40
7.0
 40
7.0
 10
102.8696899156888
 20
-157.5569633937705
 10
102.8696899156888
 20
-157.5569633937705
 10
102.8696899156888
 20
-156.4528102907479
 10
102.8696899156888
 20
-156.4528102907479
 10
102.8696899156888
 20
-156.4528102907479
 10
102.5396497682019
 20
-156.4528102907479
 10
102.5396497682019
 20
-156.4528102907479
 10
102.5396497682019
 20
-156.4528102907479
 10
102.5396497682019
 20
-156.3046711848822
 10
102.5396497682019
 20
-156.3046711848822
 10
102.87175697298
 20
-156.2898572742956
 10
102.9182657620308
 20
-156.1269042578433
 10
102.947893583204
 20
-156.012527087733
 10
102.947893583204
 20
-156.012527087733
 10
103.0939656317786
 20
-156.012527087733
 10
103.0939656317786
 20
-156.012527087733
 10
103.0939656317786
 20
-156.012527087733
 10
103.0939656317786
 20
-157.5569633937705
 10
103.0939656317786
 20
-157.5569633937705
 10
103.0939656317786
 20
-157.5569633937705
 10
102.8696899156888
 20
-157.5569633937705
 10
102.8696899156888
 20
-157.5569633937705
 97
        0
 97
        1
330
132
 75
     2
 76
     1
 98
        1
 10
0.0
 20
0.0
450
        0
451
        0
460
0.0
461
0.0
452
        0
462
0.0
453
        0
470

  0
SPLINE
  5
134
330
12E
100
AcDbEntity
  8
レイヤー 1
100
AcDbSpline
210
0.0
220
0.0
230
1.0
 70
     9
 71
     3
 72
    44
 73
    40
 74
     0
 42
0.0000000001
 43
0.0000000001
 40
0.0
 40
0.0
 40
0.0
 40
0.0
 40
1.0
 40
1.0
 40
1.0
 40
2.0
 40
2.0
 40
2.0
 40
3.0
 40
3.0
 40
3.0
 40
4.0
 40
4.0
 40
4.0
 40
5.0
 40
5.0
 40
5.0
 40
6.0
 40
6.0
 40
6.0
 40
7.0
 40
7.0
 40
7.0
 40
8.0
 40
8.0
 40
8.0
 40
9.0
 40
9.0
 40
9.0
 40
10.0
 40
10.0
 40
10.0
 40
11.0
 40
11.0
 40
11.0
 40
12.0
 40
12.0
 40
12.0
 40
13.0
 40
13.0
 40
13.0
 40
13.0
 10
104.1881279578939
 20
-156.9750867663118
 30
0.0
 10
103.9703979232261
 20
-157.1339056681818
 30
0.0
 10
103.8773803451244
 20
-157.2079752211147
 30
0.0
 10
103.8284599892338
 20
-157.3516357028496
 30
0.0
 10
103.8284599892338
 20
-157.3516357028496
 30
0.0
 10
104.6070515689003
 20
-157.3516357028496
 30
0.0
 10
104.6070515689003
 20
-157.3516357028496
 30
0.0
 10
104.6070515689003
 20
-157.3516357028496
 30
0.0
 10
104.6070515689003
 20
-157.5569633937705
 30
0.0
 10
104.6070515689003
 20
-157.5569633937705
 30
0.0
 10
104.6070515689003
 20
-157.5569633937705
 30
0.0
 10
103.5790350761017
 20
-157.5569633937705
 30
0.0
 10
103.5790350761017
 20
-157.5569633937705
 30
0.0
 10
103.610729954566
 20
-157.1993624824015
 30
0.0
 10
103.6761867687858
 20
-157.1211588148863
 30
0.0
 10
104.0613484440367
 20
-156.8228135458637
 30
0.0
 10
104.3173190385908
 20
-156.6240315363648
 30
0.0
 10
104.3827758528105
 20
-156.5561631553054
 30
0.0
 10
104.3827758528105
 20
-156.4187038454439
 30
0.0
 10
104.3827758528105
 20
-156.3001925607513
 30
0.0
 10
104.3107733571688
 20
-156.1692789323118
 30
0.0
 10
104.114058404961
 20
-156.1692789323118
 30
0.0
 10
103.8539536958247
 20
-156.1692789323118
 30
0.0
 10
103.8453409571116
 20
-156.399755820275
 30
0.0
 10
103.8412068425293
 20
-156.5162000476765
 30
0.0
 10
103.8412068425293
 20
-156.5162000476765
 30
0.0
 10
103.6169311264395
 20
-156.5162000476765
 30
0.0
 10
103.6169311264395
 20
-156.5162000476765
 30
0.0
 10
103.6255438651526
 20
-156.3890760242708
 30
0.0
 10
103.6362236611569
 20
-156.2771104210002
 30
0.0
 10
103.7164943859632
 20
-156.1585991363076
 30
0.0
 10
103.8263929319427
 20
-155.9977131771464
 30
0.0
 10
104.0127725976947
 20
-155.9639512413909
 30
0.0
 10
104.1288723155476
 20
-155.9639512413909
 30
0.0
 10
104.4062025021102
 20
-155.9639512413909
 30
0.0
 10
104.6135972503223
 20
-156.1479193403033
 30
0.0
 10
104.6135972503223
 20
-156.4207709027351
 30
0.0
 10
104.6135972503223
 20
-156.6495252429557
 30
0.0
 10
104.4971530229208
 20
-156.7487439929309
 30
0.0
 10
104.1881279578939
 20
-156.9750867663118
 30
0.0
  0
HATCH
  5
135
330
12E
100
AcDbEntity
  8
レイヤー 1
 62
   250
420
  2299925
440
 33554687
100
AcDbHatch
 10
0.0
 20
0.0
 30
0.0
210
0.0
220
0.0
230
1.0
  2
SOLID
 70
     1
 71
     1
 91
        1
 92
        1
 93
        1
 72
     4
 94
        3
 73
     0
 74
     0
 95
       44
 96
       40
 40
0.0
 40
0.0
 40
0.0
 40
0.0
 40
1.0
 40
1.0
 40
1.0
 40
2.0
 40
2.0
 40
2.0
 40
3.0
 40
3.0
 40
3.0
 40
4.0
 40
4.0
 40
4.0
 40
5.0
 40
5.0
 40
5.0
 40
6.0
 40
6.0
 40
6.0
 40
7.0
 40
7.0
 40
7.0
 40
8.0
 40
8.0
 40
8.0
 40
9.0
 40
9.0
 40
9.0
 40
10.0
 40
10.0
 40
10.0
 40
11.0
 40
11.0
 40
11.0
 40
12.0
 40
12.0
 40
12.0
 40
13.0
 40
13.0
 40
13.0
 40
13.0
 10
104.1881279578939
 20
-156.9750867663118
 10
103.9703979232261
 20
-157.1339056681818
 10
103.8773803451244
 20
-157.2079752211147
 10
103.8284599892338
 20
-157.3516357028496
 10
103.8284599892338
 20
-157.3516357028496
 10
104.6070515689003
 20
-157.3516357028496
 10
104.6070515689003
 20
-157.3516357028496
 10
104.6070515689003
 20
-157.3516357028496
 10
104.6070515689003
 20
-157.5569633937705
 10
104.6070515689003
 20
-157.5569633937705
 10
104.6070515689003
 20
-157.5569633937705
 10
103.5790350761017
 20
-157.5569633937705
 10
103.5790350761017
 20
-157.5569633937705
 10
103.610729954566
 20
-157.1993624824015
 10
103.6761867687858
 20
-157.1211588148863
 10
104.0613484440367
 20
-156.8228135458637
 10
104.3173190385908
 20
-156.6240315363648
 10
104.3827758528105
 20
-156.5561631553054
 10
104.3827758528105
 20
-156.4187038454439
 10
104.3827758528105
 20
-156.3001925607513
 10
104.3107733571688
 20
-156.1692789323118
 10
104.114058404961
 20
-156.1692789323118
 10
103.8539536958247
 20
-156.1692789323118
 10
103.8453409571116
 20
-156.399755820275
 10
103.8412068425293
 20
-156.5162000476765
 10
103.8412068425293
 20
-156.5162000476765
 10
103.6169311264395
 20
-156.5162000476765
 10
103.6169311264395
 20
-156.5162000476765
 10
103.6255438651526
 20
-156.3890760242708
 10
103.6362236611569
 20
-156.2771104210002
 10
103.7164943859632
 20
-156.1585991363076
 10
103.8263929319427
 20
-155.9977131771464
 10
104.0127725976947
 20
-155.9639512413909
 10
104.1288723155476
 20
-155.9639512413909
 10
104.4062025021102
 20
-155.9639512413909
 10
104.6135972503223
 20
-156.1479193403033
 10
104.6135972503223
 20
-156.4207709027351
 10
104.6135972503223
 20
-156.6495252429557
 10
104.4971530229208
 20
-156.7487439929309
 10
104.1881279578939
 20
-156.9750867663118
 97
        0
 97
        1
330
134
 75
     2
 76
     1
 98
        1
 10
0.0
 20
0.0
450
        0
451
        0
460
0.0
461
0.0
452
        0
462
0.0
453
        0
470

  0
ENDBLK
  5
131
330
12E
100
AcDbEntity
  8
0
100
AcDbBlockEnd
  0
BLOCK
  5
139
330
137
100
AcDbEntity
  8
0
100
AcDbBlockBegin
  2
Block_11
 70
     0
 10
0.0
 20
0.0
 30
0.0
  3
Block_11
  1

  0
SPLINE
  5
13B
330
137
100
AcDbEntity
  8
レイヤー 1
100
AcDbSpline
210
0.0
220
0.0
230
1.0
 70
    11
 71
     3
 72
    26
 73
    22
 74
     0
 42
0.0000000001
 43
0.0000000001
 40
0.0
 40
0.0
 40
0.0
 40
0.0
 40
1.0
 40
1.0
 40
1.0
 40
2.0
 40
2.0
 40
2.0
 40
3.0
 40
3.0
 40
3.0
 40
4.0
 40
4.0
 40
4.0
 40
5.0
 40
5.0
 40
5.0
 40
6.0
 40
6.0
 40
6.0
 40
7.0
 40
7.0
 40
7.0
 40
7.0
 10
111.2018256015398
 20
-149.5347140468177
 30
0.0
 10
111.2018256015398
 20
-149.5347140468177
 30
0.0
 10
111.2018256015398
 20
-148.4303886890208
 30
0.0
 10
111.2018256015398
 20
-148.4303886890208
 30
0.0
 10
111.2018256015398
 20
-148.4303886890208
 30
0.0
 10
110.8717854540529
 20
-148.4303886890208
 30
0.0
 10
110.8717854540529
 20
-148.4303886890208
 30
0.0
 10
110.8717854540529
 20
-148.4303886890208
 30
0.0
 10
110.8717854540529
 20
-148.2822495831551
 30
0.0
 10
110.8717854540529
 20
-148.2822495831551
 30
0.0
 10
111.203892658831
 20
-148.2676079273428
 30
0.0
 10
111.2504014478818
 20
-148.1046549108905
 30
0.0
 10
111.280029269055
 20
-147.9904499955545
 30
0.0
 10
111.280029269055
 20
-147.9904499955545
 30
0.0
 10
111.4261013176296
 20
-147.9904499955545
 30
0.0
 10
111.4261013176296
 20
-147.9904499955545
 30
0.0
 10
111.4261013176296
 20
-147.9904499955545
 30
0.0
 10
111.4261013176296
 20
-149.5347140468177
 30
0.0
 10
111.4261013176296
 20
-149.5347140468177
 30
0.0
 10
111.4261013176296
 20
-149.5347140468177
 30
0.0
 10
111.2018256015398
 20
-149.5347140468177
 30
0.0
 10
111.2018256015398
 20
-149.5347140468177
 30
0.0
  0
HATCH
  5
13C
330
137
100
AcDbEntity
  8
レイヤー 1
 62
   250
420
  2299925
440
 33554687
100
AcDbHatch
 10
0.0
 20
0.0
 30
0.0
210
0.0
220
0.0
230
1.0
  2
SOLID
 70
     1
 71
     1
 91
        1
 92
        1
 93
        1
 72
     4
 94
        3
 73
     0
 74
     0
 95
       26
 96
       22
 40
0.0
 40
0.0
 40
0.0
 40
0.0
 40
1.0
 40
1.0
 40
1.0
 40
2.0
 40
2.0
 40
2.0
 40
3.0
 40
3.0
 40
3.0
 40
4.0
 40
4.0
 40
4.0
 40
5.0
 40
5.0
 40
5.0
 40
6.0
 40
6.0
 40
6.0
 40
7.0
 40
7.0
 40
7.0
 40
7.0
 10
111.2018256015398
 20
-149.5347140468177
 10
111.2018256015398
 20
-149.5347140468177
 10
111.2018256015398
 20
-148.4303886890208
 10
111.2018256015398
 20
-148.4303886890208
 10
111.2018256015398
 20
-148.4303886890208
 10
110.8717854540529
 20
-148.4303886890208
 10
110.8717854540529
 20
-148.4303886890208
 10
110.8717854540529
 20
-148.4303886890208
 10
110.8717854540529
 20
-148.2822495831551
 10
110.8717854540529
 20
-148.2822495831551
 10
111.203892658831
 20
-148.2676079273428
 10
111.2504014478818
 20
-148.1046549108905
 10
111.280029269055
 20
-147.9904499955545
 10
111.280029269055
 20
-147.9904499955545
 10
111.4261013176296
 20
-147.9904499955545
 10
111.4261013176296
 20
-147.9904499955545
 10
111.4261013176296
 20
-147.9904499955545
 10
111.4261013176296
 20
-149.5347140468177
 10
111.4261013176296
 20
-149.5347140468177
 10
111.4261013176296
 20
-149.5347140468177
 10
111.2018256015398
 20
-149.5347140468177
 10
111.2018256015398
 20
-149.5347140468177
 97
        0
 97
        1
330
13B
 75
     2
 76
     1
 98
        1
 10
0.0
 20
0.0
450
        0
451
        0
460
0.0
461
0.0
452
        0
462
0.0
453
        0
470

  0
ENDBLK
  5
13A
330
137
100
AcDbEntity
  8
0
100
AcDbBlockEnd
  0
BLOCK
  5
143
330
141
100
AcDbEntity
  8
0
100
AcDbBlockBegin
  2
Block_12
 70
     0
 10
0.0
 20
0.0
 30
0.0
  3
Block_12
  1

  0
INSERT
  5
146
330
141
100
AcDbEntity
  8
レイヤー 1
100
AcDbBlockReference
  2
Block_13
 10
0.0
 20
0.0
 30
0.0
  0
INSERT
  5
14D
330
141
100
AcDbEntity
  8
レイヤー 1
100
AcDbBlockReference
  2
Block_14
 10
0.0
 20
0.0
 30
0.0
  0
ENDBLK
  5
144
330
141
100
AcDbEntity
  8
0
100
AcDbBlockEnd
  0
BLOCK
  5
147
330
145
100
AcDbEntity
  8
0
100
AcDbBlockBegin
  2
Block_13
 70
     0
 10
0.0
 20
0.0
 30
0.0
  3
Block_13
  1

  0
LINE
  5
149
330
145
100
AcDbEntity
  8
レイヤー 1
 62
    18
420
        0
370
     9
100
AcDbLine
 10
123.7563866644622
 20
-147.2984620520551
 30
0.0
 11
124.5677086049863
 21
-147.8830853852425
 31
0.0
  0
LINE
  5
14A
330
145
100
AcDbEntity
  8
レイヤー 1
 62
    18
420
        0
370
     9
100
AcDbLine
 10
123.7563866644622
 20
-147.2984620520551
 30
0.0
 11
126.3339927098131
 21
-150.4555409401548
 31
0.0
  0
LINE
  5
14B
330
145
100
AcDbEntity
  8
レイヤー 1
 62
    18
420
        0
370
     9
100
AcDbLine
 10
123.7563866644622
 20
-147.2984620520551
 30
0.0
 11
124.1667024873275
 21
-148.2105689962716
 31
0.0
  0
ENDBLK
  5
148
330
145
100
AcDbEntity
  8
0
100
AcDbBlockEnd
  0
BLOCK
  5
14E
330
14C
100
AcDbEntity
  8
0
100
AcDbBlockBegin
  2
Block_14
 70
     0
 10
0.0
 20
0.0
 30
0.0
  3
Block_14
  1

  0
INSERT
  5
151
330
14C
100
AcDbEntity
  8
レイヤー 1
100
AcDbBlockReference
  2
Block_15
 10
0.0
 20
0.0
 30
0.0
  0
ENDBLK
  5
14F
330
14C
100
AcDbEntity
  8
0
100
AcDbBlockEnd
  0
BLOCK
  5
152
330
150
100
AcDbEntity
  8
0
100
AcDbBlockBegin
  2
Block_15
 70
     0
 10
0.0
 20
0.0
 30
0.0
  3
Block_15
  1

  0
SPLINE
  5
154
330
150
100
AcDbEntity
  8
レイヤー 1
100
AcDbSpline
210
0.0
220
0.0
230
1.0
 70
     9
 71
     3
 72
    17
 73
    13
 74
     0
 42
0.0000000001
 43
0.0000000001
 40
0.0
 40
0.0
 40
0.0
 40
0.0
 40
1.0
 40
1.0
 40
1.0
 40
2.0
 40
2.0
 40
2.0
 40
3.0
 40
3.0
 40
3.0
 40
4.0
 40
4.0
 40
4.0
 40
4.0
 10
128.0004556971665
 20
-150.9027614640104
 30
0.0
 10
127.9835747292888
 20
-150.9323892851836
 30
0.0
 10
127.9329318256556
 20
-151.0254068632853
 30
0.0
 10
127.9222520296514
 20
-151.0443548884542
 30
0.0
 10
128.1127658099857
 20
-151.1036105308005
 30
0.0
 10
128.1337808924457
 20
-151.1101562122225
 30
0.0
 10
128.2057833880874
 20
-151.1373724665559
 30
0.0
 10
128.2605604063029
 20
-151.0509005698762
 30
0.0
 10
128.2839870556026
 20
-150.9768310169433
 30
0.0
 10
128.2988009661892
 20
-150.9027614640104
 30
0.0
 10
128.2988009661892
 20
-150.9027614640104
 30
0.0
 10
128.0004556971665
 20
-150.9027614640104
 30
0.0
 10
128.0004556971665
 20
-150.9027614640104
 30
0.0
  0
SPLINE
  5
155
330
150
100
AcDbEntity
  8
レイヤー 1
100
AcDbSpline
210
0.0
220
0.0
230
1.0
 70
    11
 71
     3
 72
    20
 73
    16
 74
     0
 42
0.0000000001
 43
0.0000000001
 40
0.0
 40
0.0
 40
0.0
 40
0.0
 40
1.0
 40
1.0
 40
1.0
 40
2.0
 40
2.0
 40
2.0
 40
3.0
 40
3.0
 40
3.0
 40
4.0
 40
4.0
 40
4.0
 40
5.0
 40
5.0
 40
5.0
 40
5.0
 10
127.9370659402379
 20
-150.0521673887022
 30
0.0
 10
127.9370659402379
 20
-150.0521673887022
 30
0.0
 10
127.9053710617736
 20
-150.0521673887022
 30
0.0
 10
127.9053710617736
 20
-150.0521673887022
 30
0.0
 10
127.9518798508245
 20
-150.1517306482259
 30
0.0
 10
127.9835747292888
 20
-150.2320013730323
 30
0.0
 10
128.0173366650442
 20
-150.359125396438
 30
0.0
 10
128.0173366650442
 20
-150.359125396438
 30
0.0
 10
128.2247314132563
 20
-150.359125396438
 30
0.0
 10
128.2247314132563
 20
-150.359125396438
 30
0.0
 10
128.2564262917206
 20
-150.2661078183362
 30
0.0
 10
128.2798529410203
 20
-150.1813584693991
 30
0.0
 10
128.3029350807715
 20
-150.0521673887022
 30
0.0
 10
128.3029350807715
 20
-150.0521673887022
 30
0.0
 10
127.9370659402379
 20
-150.0521673887022
 30
0.0
 10
127.9370659402379
 20
-150.0521673887022
 30
0.0
  0
SPLINE
  5
156
330
150
100
AcDbEntity
  8
レイヤー 1
100
AcDbSpline
210
0.0
220
0.0
230
1.0
 70
     9
 71
     3
 72
   242
 73
   238
 74
     0
 42
0.0000000001
 43
0.0000000001
 40
0.0
 40
0.0
 40
0.0
 40
0.0
 40
1.0
 40
1.0
 40
1.0
 40
2.0
 40
2.0
 40
2.0
 40
3.0
 40
3.0
 40
3.0
 40
4.0
 40
4.0
 40
4.0
 40
5.0
 40
5.0
 40
5.0
 40
6.0
 40
6.0
 40
6.0
 40
7.0
 40
7.0
 40
7.0
 40
8.0
 40
8.0
 40
8.0
 40
9.0
 40
9.0
 40
9.0
 40
10.0
 40
10.0
 40
10.0
 40
11.0
 40
11.0
 40
11.0
 40
12.0
 40
12.0
 40
12.0
 40
13.0
 40
13.0
 40
13.0
 40
14.0
 40
14.0
 40
14.0
 40
15.0
 40
15.0
 40
15.0
 40
16.0
 40
16.0
 40
16.0
 40
17.0
 40
17.0
 40
17.0
 40
18.0
 40
18.0
 40
18.0
 40
19.0
 40
19.0
 40
19.0
 40
20.0
 40
20.0
 40
20.0
 40
21.0
 40
21.0
 40
21.0
 40
22.0
 40
22.0
 40
22.0
 40
23.0
 40
23.0
 40
23.0
 40
24.0
 40
24.0
 40
24.0
 40
25.0
 40
25.0
 40
25.0
 40
26.0
 40
26.0
 40
26.0
 40
27.0
 40
27.0
 40
27.0
 40
28.0
 40
28.0
 40
28.0
 40
29.0
 40
29.0
 40
29.0
 40
30.0
 40
30.0
 40
30.0
 40
31.0
 40
31.0
 40
31.0
 40
32.0
 40
32.0
 40
32.0
 40
33.0
 40
33.0
 40
33.0
 40
34.0
 40
34.0
 40
34.0
 40
35.0
 40
35.0
 40
35.0
 40
36.0
 40
36.0
 40
36.0
 40
37.0
 40
37.0
 40
37.0
 40
38.0
 40
38.0
 40
38.0
 40
39.0
 40
39.0
 40
39.0
 40
40.0
 40
40.0
 40
40.0
 40
41.0
 40
41.0
 40
41.0
 40
42.0
 40
42.0
 40
42.0
 40
43.0
 40
43.0
 40
43.0
 40
44.0
 40
44.0
 40
44.0
 40
45.0
 40
45.0
 40
45.0
 40
46.0
 40
46.0
 40
46.0
 40
47.0
 40
47.0
 40
47.0
 40
48.0
 40
48.0
 40
48.0
 40
49.0
 40
49.0
 40
49.0
 40
50.0
 40
50.0
 40
50.0
 40
51.0
 40
51.0
 40
51.0
 40
52.0
 40
52.0
 40
52.0
 40
53.0
 40
53.0
 40
53.0
 40
54.0
 40
54.0
 40
54.0
 40
55.0
 40
55.0
 40
55.0
 40
56.0
 40
56.0
 40
56.0
 40
57.0
 40
57.0
 40
57.0
 40
58.0
 40
58.0
 40
58.0
 40
59.0
 40
59.0
 40
59.0
 40
60.0
 40
60.0
 40
60.0
 40
61.0
 40
61.0
 40
61.0
 40
62.0
 40
62.0
 40
62.0
 40
63.0
 40
63.0
 40
63.0
 40
64.0
 40
64.0
 40
64.0
 40
65.0
 40
65.0
 40
65.0
 40
66.0
 40
66.0
 40
66.0
 40
67.0
 40
67.0
 40
67.0
 40
68.0
 40
68.0
 40
68.0
 40
69.0
 40
69.0
 40
69.0
 40
70.0
 40
70.0
 40
70.0
 40
71.0
 40
71.0
 40
71.0
 40
72.0
 40
72.0
 40
72.0
 40
73.0
 40
73.0
 40
73.0
 40
74.0
 40
74.0
 40
74.0
 40
75.0
 40
75.0
 40
75.0
 40
76.0
 40
76.0
 40
76.0
 40
77.0
 40
77.0
 40
77.0
 40
78.0
 40
78.0
 40
78.0
 40
79.0
 40
79.0
 40
79.0
 40
79.0
 10
128.5654513567475
 20
-150.5175997887595
 30
0.0
 10
128.5654513567475
 20
-150.5175997887595
 30
0.0
 10
128.3115478194846
 20
-150.5175997887595
 30
0.0
 10
128.3115478194846
 20
-150.5175997887595
 30
0.0
 10
128.3115478194846
 20
-150.5175997887595
 30
0.0
 10
128.034217632922
 20
-150.5175997887595
 30
0.0
 10
128.034217632922
 20
-150.5175997887595
 30
0.0
 10
128.034217632922
 20
-150.5175997887595
 30
0.0
 10
128.1613416563277
 20
-150.559974463228
 30
0.0
 10
128.1613416563277
 20
-150.559974463228
 30
0.0
 10
128.172021452332
 20
-150.5641085778103
 30
0.0
 10
128.1844237960789
 20
-150.5706542592323
 30
0.0
 10
128.1844237960789
 20
-150.5834011125278
 30
0.0
 10
128.1844237960789
 20
-150.6044161949878
 30
0.0
 10
128.1527289176146
 20
-150.6106173668612
 30
0.0
 10
128.1317138351546
 20
-150.6150959909921
 30
0.0
 10
128.1210340391503
 20
-150.6381781307432
 30
0.0
 10
128.0914062179771
 20
-150.7039794545115
 30
0.0
 10
128.0724581928083
 20
-150.7484211862712
 30
0.0
 10
128.0724581928083
 20
-150.7484211862712
 30
0.0
 10
128.3432426979489
 20
-150.7484211862712
 30
0.0
 10
128.3432426979489
 20
-150.7484211862712
 30
0.0
 10
128.4341932187595
 20
-150.7484211862712
 30
0.0
 10
128.6309081709672
 20
-150.7439425621404
 30
0.0
 10
128.772501595411
 20
-150.7356743329758
 30
0.0
 10
128.772501595411
 20
-150.7356743329758
 30
0.0
 10
128.772501595411
 20
-150.9134412600147
 30
0.0
 10
128.772501595411
 20
-150.9134412600147
 30
0.0
 10
128.6901638133135
 20
-150.9089626358839
 30
0.0
 10
128.6691487308535
 20
-150.9089626358839
 30
0.0
 10
128.4893147465235
 20
-150.9048285213015
 30
0.0
 10
128.4576198680592
 20
-151.0591687990407
 30
0.0
 10
128.4131781362995
 20
-151.1397840333956
 30
0.0
 10
128.3687364045397
 20
-151.2093749621977
 30
0.0
 10
128.4893147465235
 20
-151.268630604544
 30
0.0
 10
128.5950791779207
 20
-151.3364989856034
 30
0.0
 10
128.6987765520267
 20
-151.4188367677008
 30
0.0
 10
128.6987765520267
 20
-151.4188367677008
 30
0.0
 10
128.5802652673341
 20
-151.5859238987355
 30
0.0
 10
128.5802652673341
 20
-151.5859238987355
 30
0.0
 10
128.5568386180344
 20
-151.5669758735666
 30
0.0
 10
128.544091764739
 20
-151.5583631348534
 30
0.0
 10
128.4321261614683
 20
-151.4739582954648
 30
0.0
 10
128.3835503151263
 20
-151.4357177355786
 30
0.0
 10
128.32429467278
 20
-151.399888742532
 30
0.0
 10
128.2436794384252
 20
-151.3554470107722
 30
0.0
 10
128.0321505756308
 20
-151.5414821669757
 30
0.0
 10
127.8271673942585
 20
-151.5649088162754
 30
0.0
 10
127.5370903544004
 20
-151.5945366374486
 30
0.0
 10
127.5370903544004
 20
-151.5945366374486
 30
0.0
 10
127.4333929802944
 20
-151.4147026531185
 30
0.0
 10
127.4333929802944
 20
-151.4147026531185
 30
0.0
 10
127.7510307840344
 20
-151.4105685385362
 30
0.0
 10
127.9263861442337
 20
-151.3850748319454
 30
0.0
 10
128.0786593646817
 20
-151.2751762859659
 30
0.0
 10
127.9601480799891
 20
-151.2241888727842
 30
0.0
 10
127.8716091260182
 20
-151.1966281089022
 30
0.0
 10
127.8354356234231
 20
-151.1842257651553
 30
0.0
 10
127.8164875982542
 20
-151.2114420194888
 30
0.0
 10
127.8016736876676
 20
-151.2307345542062
 30
0.0
 10
127.7741129237856
 20
-151.2644964899616
 30
0.0
 10
127.7741129237856
 20
-151.2644964899616
 30
0.0
 10
127.5773979715778
 20
-151.1818141983156
 30
0.0
 10
127.5773979715778
 20
-151.1818141983156
 30
0.0
 10
127.6600802632239
 20
-151.1015434735093
 30
0.0
 10
127.7214029628613
 20
-151.0064588381164
 30
0.0
 10
127.7782470383679
 20
-150.9048285213015
 30
0.0
 10
127.5880777675821
 20
-150.9089626358839
 30
0.0
 10
127.5667181755736
 20
-150.9089626358839
 30
0.0
 10
127.4843803934761
 20
-150.9134412600147
 30
0.0
 10
127.4843803934761
 20
-150.9134412600147
 30
0.0
 10
127.4843803934761
 20
-150.7356743329758
 30
0.0
 10
127.4843803934761
 20
-150.7356743329758
 30
0.0
 10
127.6239067606287
 20
-150.7418755048492
 30
0.0
 10
127.8333685661319
 20
-150.7460096194315
 30
0.0
 10
127.8588622727228
 20
-150.7460096194315
 30
0.0
 10
127.8757432406005
 20
-150.7122476836761
 30
0.0
 10
127.9308647683645
 20
-150.5916693416924
 30
0.0
 10
127.9498127935334
 20
-150.5175997887595
 30
0.0
 10
127.9308647683645
 20
-150.5175997887595
 30
0.0
 10
127.7530978413256
 20
-150.5241454701815
 30
0.0
 10
127.558449946409
 20
-150.5368923234769
 30
0.0
 10
127.558449946409
 20
-150.5368923234769
 30
0.0
 10
127.558449946409
 20
-150.6698730092075
 30
0.0
 10
127.558449946409
 20
-150.6698730092075
 30
0.0
 10
127.5098741000669
 20
-150.6953667157984
 30
0.0
 10
127.4506184577206
 20
-150.7270615942627
 30
0.0
 10
127.3172932624415
 20
-150.7928629180309
 30
0.0
 10
127.3172932624415
 20
-150.7928629180309
 30
0.0
 10
127.3172932624415
 20
-150.938590457057
 30
0.0
 10
127.3172932624415
 20
-150.938590457057
 30
0.0
 10
127.3172932624415
 20
-150.938590457057
 30
0.0
 10
127.3172932624415
 20
-151.4060899144054
 30
0.0
 10
127.3172932624415
 20
-151.4060899144054
 30
0.0
 10
127.3172932624415
 20
-151.5332139378111
 30
0.0
 10
127.2811197598464
 20
-151.5924695801574
 30
0.0
 10
126.9975884014103
 20
-151.5838568414443
 30
0.0
 10
126.9975884014103
 20
-151.5838568414443
 30
0.0
 10
126.8942355368528
 20
-151.3764620932323
 30
0.0
 10
126.8942355368528
 20
-151.3764620932323
 30
0.0
 10
126.9576252937814
 20
-151.3892089465277
 30
0.0
 10
127.0062011401234
 20
-151.39334306111
 30
0.0
 10
127.0465087573009
 20
-151.39334306111
 30
0.0
 10
127.1226453675249
 20
-151.39334306111
 30
0.0
 10
127.1329806539806
 20
-151.3702609213588
 30
0.0
 10
127.1329806539806
 20
-151.3048041071391
 30
0.0
 10
127.1329806539806
 20
-151.3048041071391
 30
0.0
 10
127.1329806539806
 20
-150.8752007001284
 30
0.0
 10
127.1329806539806
 20
-150.8752007001284
 30
0.0
 10
127.0358289612966
 20
-150.9155083173058
 30
0.0
 10
127.0189479934189
 20
-150.9217094891793
 30
0.0
 10
126.972439204368
 20
-150.9406575143481
 30
0.0
 10
126.9683050897857
 20
-150.9620171063567
 30
0.0
 10
126.9638264656548
 20
-150.9916449275299
 30
0.0
 10
126.944878440486
 20
-150.9916449275299
 30
0.0
 10
126.9362657017728
 20
-150.9916449275299
 30
0.0
 10
126.9259304153171
 20
-150.9875108129475
 30
0.0
 10
126.9193847338951
 20
-150.9640841636479
 30
0.0
 10
126.9193847338951
 20
-150.9640841636479
 30
0.0
 10
126.8666747729708
 20
-150.7715033260224
 30
0.0
 10
126.8666747729708
 20
-150.7715033260224
 30
0.0
 10
127.0124023119969
 20
-150.7249945369715
 30
0.0
 10
127.0782036357652
 20
-150.7019123972203
 30
0.0
 10
127.1329806539806
 20
-150.6805528052118
 30
0.0
 10
127.1329806539806
 20
-150.6805528052118
 30
0.0
 10
127.1329806539806
 20
-150.2681748756274
 30
0.0
 10
127.1329806539806
 20
-150.2681748756274
 30
0.0
 10
127.1329806539806
 20
-150.2681748756274
 30
0.0
 10
127.0802706930563
 20
-150.2681748756274
 30
0.0
 10
127.0802706930563
 20
-150.2681748756274
 30
0.0
 10
127.0802706930563
 20
-150.2681748756274
 30
0.0
 10
127.0020670255411
 20
-150.2681748756274
 30
0.0
 10
127.0020670255411
 20
-150.2681748756274
 30
0.0
 10
126.9341986444817
 20
-150.2681748756274
 30
0.0
 10
126.9259304153171
 20
-150.2681748756274
 30
0.0
 10
126.889756912722
 20
-150.2743760475008
 30
0.0
 10
126.889756912722
 20
-150.2743760475008
 30
0.0
 10
126.889756912722
 20
-150.0797281525842
 30
0.0
 10
126.889756912722
 20
-150.0797281525842
 30
0.0
 10
126.917317676604
 20
-150.0862738340062
 30
0.0
 10
126.9259304153171
 20
-150.0862738340062
 30
0.0
 10
126.9955213441191
 20
-150.0862738340062
 30
0.0
 10
126.9955213441191
 20
-150.0862738340062
 30
0.0
 10
127.1288465393983
 20
-150.0862738340062
 30
0.0
 10
127.1288465393983
 20
-150.0862738340062
 30
0.0
 10
127.1288465393983
 20
-150.0163383956556
 30
0.0
 10
127.1288465393983
 20
-149.9336561040096
 30
0.0
 10
127.1267794821072
 20
-149.9295219894273
 30
0.0
 10
127.1185112529426
 20
-149.7496880050973
 30
0.0
 10
127.1185112529426
 20
-149.7307399799284
 30
0.0
 10
127.1160996861029
 20
-149.6842311908775
 30
0.0
 10
127.1160996861029
 20
-149.6842311908775
 30
0.0
 10
127.3321071730281
 20
-149.6924994200421
 30
0.0
 10
127.3321071730281
 20
-149.6924994200421
 30
0.0
 10
127.3424424594838
 20
-149.6924994200421
 30
0.0
 10
127.3638020514924
 20
-149.6949109868818
 30
0.0
 10
127.3638020514924
 20
-149.7117919547595
 30
0.0
 10
127.3638020514924
 20
-149.7307399799284
 30
0.0
 10
127.3489881409058
 20
-149.7414197759327
 30
0.0
 10
127.3234944343149
 20
-149.7603678011016
 30
0.0
 10
127.3234944343149
 20
-149.8110107047347
 30
0.0
 10
127.3172932624415
 20
-150.0394205354068
 30
0.0
 10
127.3193603197326
 20
-150.0862738340062
 30
0.0
 10
127.448206890881
 20
-150.0862738340062
 30
0.0
 10
127.4609537441764
 20
-150.0862738340062
 30
0.0
 10
127.558449946409
 20
-150.0776610952931
 30
0.0
 10
127.558449946409
 20
-150.0776610952931
 30
0.0
 10
127.558449946409
 20
-150.2723089902097
 30
0.0
 10
127.558449946409
 20
-150.2723089902097
 30
0.0
 10
127.5202093865227
 20
-150.2702419329185
 30
0.0
 10
127.4526855150118
 20
-150.2661078183362
 30
0.0
 10
127.3172932624415
 20
-150.2681748756274
 30
0.0
 10
127.3172932624415
 20
-150.2681748756274
 30
0.0
 10
127.3172932624415
 20
-150.6064832522789
 30
0.0
 10
127.3172932624415
 20
-150.6064832522789
 30
0.0
 10
127.372070280657
 20
-150.5834011125278
 30
0.0
 10
127.4378716044252
 20
-150.5558403486458
 30
0.0
 10
127.4864474507673
 20
-150.5324136993461
 30
0.0
 10
127.4864474507673
 20
-150.5324136993461
 30
0.0
 10
127.4864474507673
 20
-150.3546467723072
 30
0.0
 10
127.4864474507673
 20
-150.3546467723072
 30
0.0
 10
127.6008246208776
 20
-150.3673936256026
 30
0.0
 10
127.7189913960216
 20
-150.3673936256026
 30
0.0
 10
127.8354356234231
 20
-150.3673936256026
 30
0.0
 10
127.8123534836719
 20
-150.2723089902097
 30
0.0
 10
127.7847927197899
 20
-150.1896266985637
 30
0.0
 10
127.7214029628613
 20
-150.056646012833
 30
0.0
 10
127.6769612311016
 20
-150.0587130701242
 30
0.0
 10
127.5942789394556
 20
-150.0628471847065
 30
0.0
 10
127.5563828891178
 20
-150.0649142419976
 30
0.0
 10
127.5563828891178
 20
-150.0649142419976
 30
0.0
 10
127.5563828891178
 20
-149.8850802576676
 30
0.0
 10
127.5563828891178
 20
-149.8850802576676
 30
0.0
 10
127.6810953456839
 20
-149.8936929963807
 30
0.0
 10
127.8543836485919
 20
-149.897827110963
 30
0.0
 10
127.9370659402379
 20
-149.897827110963
 30
0.0
 10
127.9370659402379
 20
-149.897827110963
 30
0.0
 10
128.0194037223354
 20
-149.897827110963
 30
0.0
 10
128.0194037223354
 20
-149.897827110963
 30
0.0
 10
128.0194037223354
 20
-149.7348740945107
 30
0.0
 10
128.0194037223354
 20
-149.724538808055
 30
0.0
 10
128.0173366650442
 20
-149.669417280291
 30
0.0
 10
128.0173366650442
 20
-149.669417280291
 30
0.0
 10
128.241612381134
 20
-149.6949109868818
 30
0.0
 10
128.241612381134
 20
-149.6949109868818
 30
0.0
 10
128.2457464957163
 20
-149.6949109868818
 30
0.0
 10
128.2671060877249
 20
-149.696978044173
 30
0.0
 10
128.2671060877249
 20
-149.7138590120507
 30
0.0
 10
128.2671060877249
 20
-149.7286729226373
 30
0.0
 10
128.2564262917206
 20
-149.7369411518019
 30
0.0
 10
128.2288655278386
 20
-149.7517550623884
 30
0.0
 10
128.2226643559652
 20
-149.8175563861567
 30
0.0
 10
128.220597298674
 20
-149.8385714686167
 30
0.0
 10
128.220597298674
 20
-149.897827110963
 30
0.0
 10
128.220597298674
 20
-149.897827110963
 30
0.0
 10
128.3156819340669
 20
-149.897827110963
 30
0.0
 10
128.3156819340669
 20
-149.897827110963
 30
0.0
 10
128.3983642257129
 20
-149.897827110963
 30
0.0
 10
128.5716525286209
 20
-149.8936929963807
 30
0.0
 10
128.696364985187
 20
-149.8850802576676
 30
0.0
 10
128.696364985187
 20
-149.8850802576676
 30
0.0
 10
128.696364985187
 20
-150.0649142419976
 30
0.0
 10
128.696364985187
 20
-150.0649142419976
 30
0.0
 10
128.6667371640139
 20
-150.0628471847065
 30
0.0
 10
128.5485703888698
 20
-150.0587130701242
 30
0.0
 10
128.5082627716924
 20
-150.056646012833
 30
0.0
 10
128.4934488611058
 20
-150.1072889164662
 30
0.0
 10
128.4596869253503
 20
-150.2192545197369
 30
0.0
 10
128.3938856015821
 20
-150.359125396438
 30
0.0
 10
128.4362602760506
 20
-150.359125396438
 30
0.0
 10
128.7135904626133
 20
-150.3398328617206
 30
0.0
 10
128.7749131622507
 20
-150.3377658044295
 30
0.0
 10
128.7749131622507
 20
-150.3377658044295
 30
0.0
 10
128.7749131622507
 20
-150.5220784128903
 30
0.0
 10
128.7749131622507
 20
-150.5220784128903
 30
0.0
 10
128.7452853410775
 20
-150.5220784128903
 30
0.0
 10
128.7284043731998
 20
-150.5175997887595
 30
0.0
 10
128.5654513567475
 20
-150.5175997887595
 30
0.0
  0
HATCH
  5
157
330
150
100
AcDbEntity
  8
レイヤー 1
 62
    18
420
        0
440
 33554687
100
AcDbHatch
 10
0.0
 20
0.0
 30
0.0
210
0.0
220
0.0
230
1.0
  2
SOLID
 70
     1
 71
     1
 91
        3
 92
        1
 93
        1
 72
     4
 94
        3
 73
     0
 74
     0
 95
       17
 96
       13
 40
0.0
 40
0.0
 40
0.0
 40
0.0
 40
1.0
 40
1.0
 40
1.0
 40
2.0
 40
2.0
 40
2.0
 40
3.0
 40
3.0
 40
3.0
 40
4.0
 40
4.0
 40
4.0
 40
4.0
 10
128.0004556971665
 20
-150.9027614640104
 10
127.9835747292888
 20
-150.9323892851836
 10
127.9329318256556
 20
-151.0254068632853
 10
127.9222520296514
 20
-151.0443548884542
 10
128.1127658099857
 20
-151.1036105308005
 10
128.1337808924457
 20
-151.1101562122225
 10
128.2057833880874
 20
-151.1373724665559
 10
128.2605604063029
 20
-151.0509005698762
 10
128.2839870556026
 20
-150.9768310169433
 10
128.2988009661892
 20
-150.9027614640104
 10
128.2988009661892
 20
-150.9027614640104
 10
128.0004556971665
 20
-150.9027614640104
 10
128.0004556971665
 20
-150.9027614640104
 97
        0
 97
        1
330
154
 92
        1
 93
        1
 72
     4
 94
        3
 73
     0
 74
     0
 95
       20
 96
       16
 40
0.0
 40
0.0
 40
0.0
 40
0.0
 40
1.0
 40
1.0
 40
1.0
 40
2.0
 40
2.0
 40
2.0
 40
3.0
 40
3.0
 40
3.0
 40
4.0
 40
4.0
 40
4.0
 40
5.0
 40
5.0
 40
5.0
 40
5.0
 10
127.9370659402379
 20
-150.0521673887022
 10
127.9370659402379
 20
-150.0521673887022
 10
127.9053710617736
 20
-150.0521673887022
 10
127.9053710617736
 20
-150.0521673887022
 10
127.9518798508245
 20
-150.1517306482259
 10
127.9835747292888
 20
-150.2320013730323
 10
128.0173366650442
 20
-150.359125396438
 10
128.0173366650442
 20
-150.359125396438
 10
128.2247314132563
 20
-150.359125396438
 10
128.2247314132563
 20
-150.359125396438
 10
128.2564262917206
 20
-150.2661078183362
 10
128.2798529410203
 20
-150.1813584693991
 10
128.3029350807715
 20
-150.0521673887022
 10
128.3029350807715
 20
-150.0521673887022
 10
127.9370659402379
 20
-150.0521673887022
 10
127.9370659402379
 20
-150.0521673887022
 97
        0
 97
        1
330
155
 92
        1
 93
        1
 72
     4
 94
        3
 73
     0
 74
     0
 95
      242
 96
      238
 40
0.0
 40
0.0
 40
0.0
 40
0.0
 40
1.0
 40
1.0
 40
1.0
 40
2.0
 40
2.0
 40
2.0
 40
3.0
 40
3.0
 40
3.0
 40
4.0
 40
4.0
 40
4.0
 40
5.0
 40
5.0
 40
5.0
 40
6.0
 40
6.0
 40
6.0
 40
7.0
 40
7.0
 40
7.0
 40
8.0
 40
8.0
 40
8.0
 40
9.0
 40
9.0
 40
9.0
 40
10.0
 40
10.0
 40
10.0
 40
11.0
 40
11.0
 40
11.0
 40
12.0
 40
12.0
 40
12.0
 40
13.0
 40
13.0
 40
13.0
 40
14.0
 40
14.0
 40
14.0
 40
15.0
 40
15.0
 40
15.0
 40
16.0
 40
16.0
 40
16.0
 40
17.0
 40
17.0
 40
17.0
 40
18.0
 40
18.0
 40
18.0
 40
19.0
 40
19.0
 40
19.0
 40
20.0
 40
20.0
 40
20.0
 40
21.0
 40
21.0
 40
21.0
 40
22.0
 40
22.0
 40
22.0
 40
23.0
 40
23.0
 40
23.0
 40
24.0
 40
24.0
 40
24.0
 40
25.0
 40
25.0
 40
25.0
 40
26.0
 40
26.0
 40
26.0
 40
27.0
 40
27.0
 40
27.0
 40
28.0
 40
28.0
 40
28.0
 40
29.0
 40
29.0
 40
29.0
 40
30.0
 40
30.0
 40
30.0
 40
31.0
 40
31.0
 40
31.0
 40
32.0
 40
32.0
 40
32.0
 40
33.0
 40
33.0
 40
33.0
 40
34.0
 40
34.0
 40
34.0
 40
35.0
 40
35.0
 40
35.0
 40
36.0
 40
36.0
 40
36.0
 40
37.0
 40
37.0
 40
37.0
 40
38.0
 40
38.0
 40
38.0
 40
39.0
 40
39.0
 40
39.0
 40
40.0
 40
40.0
 40
40.0
 40
41.0
 40
41.0
 40
41.0
 40
42.0
 40
42.0
 40
42.0
 40
43.0
 40
43.0
 40
43.0
 40
44.0
 40
44.0
 40
44.0
 40
45.0
 40
45.0
 40
45.0
 40
46.0
 40
46.0
 40
46.0
 40
47.0
 40
47.0
 40
47.0
 40
48.0
 40
48.0
 40
48.0
 40
49.0
 40
49.0
 40
49.0
 40
50.0
 40
50.0
 40
50.0
 40
51.0
 40
51.0
 40
51.0
 40
52.0
 40
52.0
 40
52.0
 40
53.0
 40
53.0
 40
53.0
 40
54.0
 40
54.0
 40
54.0
 40
55.0
 40
55.0
 40
55.0
 40
56.0
 40
56.0
 40
56.0
 40
57.0
 40
57.0
 40
57.0
 40
58.0
 40
58.0
 40
58.0
 40
59.0
 40
59.0
 40
59.0
 40
60.0
 40
60.0
 40
60.0
 40
61.0
 40
61.0
 40
61.0
 40
62.0
 40
62.0
 40
62.0
 40
63.0
 40
63.0
 40
63.0
 40
64.0
 40
64.0
 40
64.0
 40
65.0
 40
65.0
 40
65.0
 40
66.0
 40
66.0
 40
66.0
 40
67.0
 40
67.0
 40
67.0
 40
68.0
 40
68.0
 40
68.0
 40
69.0
 40
69.0
 40
69.0
 40
70.0
 40
70.0
 40
70.0
 40
71.0
 40
71.0
 40
71.0
 40
72.0
 40
72.0
 40
72.0
 40
73.0
 40
73.0
 40
73.0
 40
74.0
 40
74.0
 40
74.0
 40
75.0
 40
75.0
 40
75.0
 40
76.0
 40
76.0
 40
76.0
 40
77.0
 40
77.0
 40
77.0
 40
78.0
 40
78.0
 40
78.0
 40
79.0
 40
79.0
 40
79.0
 40
79.0
 10
128.5654513567475
 20
-150.5175997887595
 10
128.5654513567475
 20
-150.5175997887595
 10
128.3115478194846
 20
-150.5175997887595
 10
128.3115478194846
 20
-150.5175997887595
 10
128.3115478194846
 20
-150.5175997887595
 10
128.034217632922
 20
-150.5175997887595
 10
128.034217632922
 20
-150.5175997887595
 10
128.034217632922
 20
-150.5175997887595
 10
128.1613416563277
 20
-150.559974463228
 10
128.1613416563277
 20
-150.559974463228
 10
128.172021452332
 20
-150.5641085778103
 10
128.1844237960789
 20
-150.5706542592323
 10
128.1844237960789
 20
-150.5834011125278
 10
128.1844237960789
 20
-150.6044161949878
 10
128.1527289176146
 20
-150.6106173668612
 10
128.1317138351546
 20
-150.6150959909921
 10
128.1210340391503
 20
-150.6381781307432
 10
128.0914062179771
 20
-150.7039794545115
 10
128.0724581928083
 20
-150.7484211862712
 10
128.0724581928083
 20
-150.7484211862712
 10
128.3432426979489
 20
-150.7484211862712
 10
128.3432426979489
 20
-150.7484211862712
 10
128.4341932187595
 20
-150.7484211862712
 10
128.6309081709672
 20
-150.7439425621404
 10
128.772501595411
 20
-150.7356743329758
 10
128.772501595411
 20
-150.7356743329758
 10
128.772501595411
 20
-150.9134412600147
 10
128.772501595411
 20
-150.9134412600147
 10
128.6901638133135
 20
-150.9089626358839
 10
128.6691487308535
 20
-150.9089626358839
 10
128.4893147465235
 20
-150.9048285213015
 10
128.4576198680592
 20
-151.0591687990407
 10
128.4131781362995
 20
-151.1397840333956
 10
128.3687364045397
 20
-151.2093749621977
 10
128.4893147465235
 20
-151.268630604544
 10
128.5950791779207
 20
-151.3364989856034
 10
128.6987765520267
 20
-151.4188367677008
 10
128.6987765520267
 20
-151.4188367677008
 10
128.5802652673341
 20
-151.5859238987355
 10
128.5802652673341
 20
-151.5859238987355
 10
128.5568386180344
 20
-151.5669758735666
 10
128.544091764739
 20
-151.5583631348534
 10
128.4321261614683
 20
-151.4739582954648
 10
128.3835503151263
 20
-151.4357177355786
 10
128.32429467278
 20
-151.399888742532
 10
128.2436794384252
 20
-151.3554470107722
 10
128.0321505756308
 20
-151.5414821669757
 10
127.8271673942585
 20
-151.5649088162754
 10
127.5370903544004
 20
-151.5945366374486
 10
127.5370903544004
 20
-151.5945366374486
 10
127.4333929802944
 20
-151.4147026531185
 10
127.4333929802944
 20
-151.4147026531185
 10
127.7510307840344
 20
-151.4105685385362
 10
127.9263861442337
 20
-151.3850748319454
 10
128.0786593646817
 20
-151.2751762859659
 10
127.9601480799891
 20
-151.2241888727842
 10
127.8716091260182
 20
-151.1966281089022
 10
127.8354356234231
 20
-151.1842257651553
 10
127.8164875982542
 20
-151.2114420194888
 10
127.8016736876676
 20
-151.2307345542062
 10
127.7741129237856
 20
-151.2644964899616
 10
127.7741129237856
 20
-151.2644964899616
 10
127.5773979715778
 20
-151.1818141983156
 10
127.5773979715778
 20
-151.1818141983156
 10
127.6600802632239
 20
-151.1015434735093
 10
127.7214029628613
 20
-151.0064588381164
 10
127.7782470383679
 20
-150.9048285213015
 10
127.5880777675821
 20
-150.9089626358839
 10
127.5667181755736
 20
-150.9089626358839
 10
127.4843803934761
 20
-150.9134412600147
 10
127.4843803934761
 20
-150.9134412600147
 10
127.4843803934761
 20
-150.7356743329758
 10
127.4843803934761
 20
-150.7356743329758
 10
127.6239067606287
 20
-150.7418755048492
 10
127.8333685661319
 20
-150.7460096194315
 10
127.8588622727228
 20
-150.7460096194315
 10
127.8757432406005
 20
-150.7122476836761
 10
127.9308647683645
 20
-150.5916693416924
 10
127.9498127935334
 20
-150.5175997887595
 10
127.9308647683645
 20
-150.5175997887595
 10
127.7530978413256
 20
-150.5241454701815
 10
127.558449946409
 20
-150.5368923234769
 10
127.558449946409
 20
-150.5368923234769
 10
127.558449946409
 20
-150.6698730092075
 10
127.558449946409
 20
-150.6698730092075
 10
127.5098741000669
 20
-150.6953667157984
 10
127.4506184577206
 20
-150.7270615942627
 10
127.3172932624415
 20
-150.7928629180309
 10
127.3172932624415
 20
-150.7928629180309
 10
127.3172932624415
 20
-150.938590457057
 10
127.3172932624415
 20
-150.938590457057
 10
127.3172932624415
 20
-150.938590457057
 10
127.3172932624415
 20
-151.4060899144054
 10
127.3172932624415
 20
-151.4060899144054
 10
127.3172932624415
 20
-151.5332139378111
 10
127.2811197598464
 20
-151.5924695801574
 10
126.9975884014103
 20
-151.5838568414443
 10
126.9975884014103
 20
-151.5838568414443
 10
126.8942355368528
 20
-151.3764620932323
 10
126.8942355368528
 20
-151.3764620932323
 10
126.9576252937814
 20
-151.3892089465277
 10
127.0062011401234
 20
-151.39334306111
 10
127.0465087573009
 20
-151.39334306111
 10
127.1226453675249
 20
-151.39334306111
 10
127.1329806539806
 20
-151.3702609213588
 10
127.1329806539806
 20
-151.3048041071391
 10
127.1329806539806
 20
-151.3048041071391
 10
127.1329806539806
 20
-150.8752007001284
 10
127.1329806539806
 20
-150.8752007001284
 10
127.0358289612966
 20
-150.9155083173058
 10
127.0189479934189
 20
-150.9217094891793
 10
126.972439204368
 20
-150.9406575143481
 10
126.9683050897857
 20
-150.9620171063567
 10
126.9638264656548
 20
-150.9916449275299
 10
126.944878440486
 20
-150.9916449275299
 10
126.9362657017728
 20
-150.9916449275299
 10
126.9259304153171
 20
-150.9875108129475
 10
126.9193847338951
 20
-150.9640841636479
 10
126.9193847338951
 20
-150.9640841636479
 10
126.8666747729708
 20
-150.7715033260224
 10
126.8666747729708
 20
-150.7715033260224
 10
127.0124023119969
 20
-150.7249945369715
 10
127.0782036357652
 20
-150.7019123972203
 10
127.1329806539806
 20
-150.6805528052118
 10
127.1329806539806
 20
-150.6805528052118
 10
127.1329806539806
 20
-150.2681748756274
 10
127.1329806539806
 20
-150.2681748756274
 10
127.1329806539806
 20
-150.2681748756274
 10
127.0802706930563
 20
-150.2681748756274
 10
127.0802706930563
 20
-150.2681748756274
 10
127.0802706930563
 20
-150.2681748756274
 10
127.0020670255411
 20
-150.2681748756274
 10
127.0020670255411
 20
-150.2681748756274
 10
126.9341986444817
 20
-150.2681748756274
 10
126.9259304153171
 20
-150.2681748756274
 10
126.889756912722
 20
-150.2743760475008
 10
126.889756912722
 20
-150.2743760475008
 10
126.889756912722
 20
-150.0797281525842
 10
126.889756912722
 20
-150.0797281525842
 10
126.917317676604
 20
-150.0862738340062
 10
126.9259304153171
 20
-150.0862738340062
 10
126.9955213441191
 20
-150.0862738340062
 10
126.9955213441191
 20
-150.0862738340062
 10
127.1288465393983
 20
-150.0862738340062
 10
127.1288465393983
 20
-150.0862738340062
 10
127.1288465393983
 20
-150.0163383956556
 10
127.1288465393983
 20
-149.9336561040096
 10
127.1267794821072
 20
-149.9295219894273
 10
127.1185112529426
 20
-149.7496880050973
 10
127.1185112529426
 20
-149.7307399799284
 10
127.1160996861029
 20
-149.6842311908775
 10
127.1160996861029
 20
-149.6842311908775
 10
127.3321071730281
 20
-149.6924994200421
 10
127.3321071730281
 20
-149.6924994200421
 10
127.3424424594838
 20
-149.6924994200421
 10
127.3638020514924
 20
-149.6949109868818
 10
127.3638020514924
 20
-149.7117919547595
 10
127.3638020514924
 20
-149.7307399799284
 10
127.3489881409058
 20
-149.7414197759327
 10
127.3234944343149
 20
-149.7603678011016
 10
127.3234944343149
 20
-149.8110107047347
 10
127.3172932624415
 20
-150.0394205354068
 10
127.3193603197326
 20
-150.0862738340062
 10
127.448206890881
 20
-150.0862738340062
 10
127.4609537441764
 20
-150.0862738340062
 10
127.558449946409
 20
-150.0776610952931
 10
127.558449946409
 20
-150.0776610952931
 10
127.558449946409
 20
-150.2723089902097
 10
127.558449946409
 20
-150.2723089902097
 10
127.5202093865227
 20
-150.2702419329185
 10
127.4526855150118
 20
-150.2661078183362
 10
127.3172932624415
 20
-150.2681748756274
 10
127.3172932624415
 20
-150.2681748756274
 10
127.3172932624415
 20
-150.6064832522789
 10
127.3172932624415
 20
-150.6064832522789
 10
127.372070280657
 20
-150.5834011125278
 10
127.4378716044252
 20
-150.5558403486458
 10
127.4864474507673
 20
-150.5324136993461
 10
127.4864474507673
 20
-150.5324136993461
 10
127.4864474507673
 20
-150.3546467723072
 10
127.4864474507673
 20
-150.3546467723072
 10
127.6008246208776
 20
-150.3673936256026
 10
127.7189913960216
 20
-150.3673936256026
 10
127.8354356234231
 20
-150.3673936256026
 10
127.8123534836719
 20
-150.2723089902097
 10
127.7847927197899
 20
-150.1896266985637
 10
127.7214029628613
 20
-150.056646012833
 10
127.6769612311016
 20
-150.0587130701242
 10
127.5942789394556
 20
-150.0628471847065
 10
127.5563828891178
 20
-150.0649142419976
 10
127.5563828891178
 20
-150.0649142419976
 10
127.5563828891178
 20
-149.8850802576676
 10
127.5563828891178
 20
-149.8850802576676
 10
127.6810953456839
 20
-149.8936929963807
 10
127.8543836485919
 20
-149.897827110963
 10
127.9370659402379
 20
-149.897827110963
 10
127.9370659402379
 20
-149.897827110963
 10
128.0194037223354
 20
-149.897827110963
 10
128.0194037223354
 20
-149.897827110963
 10
128.0194037223354
 20
-149.7348740945107
 10
128.0194037223354
 20
-149.724538808055
 10
128.0173366650442
 20
-149.669417280291
 10
128.0173366650442
 20
-149.669417280291
 10
128.241612381134
 20
-149.6949109868818
 10
128.241612381134
 20
-149.6949109868818
 10
128.2457464957163
 20
-149.6949109868818
 10
128.2671060877249
 20
-149.696978044173
 10
128.2671060877249
 20
-149.7138590120507
 10
128.2671060877249
 20
-149.7286729226373
 10
128.2564262917206
 20
-149.7369411518019
 10
128.2288655278386
 20
-149.7517550623884
 10
128.2226643559652
 20
-149.8175563861567
 10
128.220597298674
 20
-149.8385714686167
 10
128.220597298674
 20
-149.897827110963
 10
128.220597298674
 20
-149.897827110963
 10
128.3156819340669
 20
-149.897827110963
 10
128.3156819340669
 20
-149.897827110963
 10
128.3983642257129
 20
-149.897827110963
 10
128.5716525286209
 20
-149.8936929963807
 10
128.696364985187
 20
-149.8850802576676
 10
128.696364985187
 20
-149.8850802576676
 10
128.696364985187
 20
-150.0649142419976
 10
128.696364985187
 20
-150.0649142419976
 10
128.6667371640139
 20
-150.0628471847065
 10
128.5485703888698
 20
-150.0587130701242
 10
128.5082627716924
 20
-150.056646012833
 10
128.4934488611058
 20
-150.1072889164662
 10
128.4596869253503
 20
-150.2192545197369
 10
128.3938856015821
 20
-150.359125396438
 10
128.4362602760506
 20
-150.359125396438
 10
128.7135904626133
 20
-150.3398328617206
 10
128.7749131622507
 20
-150.3377658044295
 10
128.7749131622507
 20
-150.3377658044295
 10
128.7749131622507
 20
-150.5220784128903
 10
128.7749131622507
 20
-150.5220784128903
 10
128.7452853410775
 20
-150.5220784128903
 10
128.7284043731998
 20
-150.5175997887595
 10
128.5654513567475
 20
-150.5175997887595
 97
        0
 97
        1
330
156
 75
     2
 76
     1
 98
        1
 10
0.0
 20
0.0
450
        0
451
        0
460
0.0
461
0.0
452
        0
462
0.0
453
        0
470

  0
SPLINE
  5
158
330
150
100
AcDbEntity
  8
レイヤー 1
100
AcDbSpline
210
0.0
220
0.0
230
1.0
 70
    11
 71
     3
 72
    17
 73
    13
 74
     0
 42
0.0000000001
 43
0.0000000001
 40
0.0
 40
0.0
 40
0.0
 40
0.0
 40
1.0
 40
1.0
 40
1.0
 40
2.0
 40
2.0
 40
2.0
 40
3.0
 40
3.0
 40
3.0
 40
4.0
 40
4.0
 40
4.0
 40
4.0
 10
130.4216688042001
 20
-151.3172064508859
 30
0.0
 10
130.4216688042001
 20
-151.3172064508859
 30
0.0
 10
129.7150797201754
 20
-151.3172064508859
 30
0.0
 10
129.7150797201754
 20
-151.3172064508859
 30
0.0
 10
129.7150797201754
 20
-151.3172064508859
 30
0.0
 10
129.7150797201754
 20
-151.4315836209962
 30
0.0
 10
129.7150797201754
 20
-151.4315836209962
 30
0.0
 10
129.7150797201754
 20
-151.4315836209962
 30
0.0
 10
130.4216688042001
 20
-151.4315836209962
 30
0.0
 10
130.4216688042001
 20
-151.4315836209962
 30
0.0
 10
130.4216688042001
 20
-151.4315836209962
 30
0.0
 10
130.4216688042001
 20
-151.3172064508859
 30
0.0
 10
130.4216688042001
 20
-151.3172064508859
 30
0.0
  0
SPLINE
  5
159
330
150
100
AcDbEntity
  8
レイヤー 1
100
AcDbSpline
210
0.0
220
0.0
230
1.0
 70
    11
 71
     3
 72
    17
 73
    13
 74
     0
 42
0.0000000001
 43
0.0000000001
 40
0.0
 40
0.0
 40
0.0
 40
0.0
 40
1.0
 40
1.0
 40
1.0
 40
2.0
 40
2.0
 40
2.0
 40
3.0
 40
3.0
 40
3.0
 40
4.0
 40
4.0
 40
4.0
 40
4.0
 10
130.4216688042001
 20
-151.0739827096273
 30
0.0
 10
130.4216688042001
 20
-151.0739827096273
 30
0.0
 10
129.7150797201754
 20
-151.0739827096273
 30
0.0
 10
129.7150797201754
 20
-151.0739827096273
 30
0.0
 10
129.7150797201754
 20
-151.0739827096273
 30
0.0
 10
129.7150797201754
 20
-151.1883598797376
 30
0.0
 10
129.7150797201754
 20
-151.1883598797376
 30
0.0
 10
129.7150797201754
 20
-151.1883598797376
 30
0.0
 10
130.4216688042001
 20
-151.1883598797376
 30
0.0
 10
130.4216688042001
 20
-151.1883598797376
 30
0.0
 10
130.4216688042001
 20
-151.1883598797376
 30
0.0
 10
130.4216688042001
 20
-151.0739827096273
 30
0.0
 10
130.4216688042001
 20
-151.0739827096273
 30
0.0
  0
SPLINE
  5
15A
330
150
100
AcDbEntity
  8
レイヤー 1
100
AcDbSpline
210
0.0
220
0.0
230
1.0
 70
    11
 71
     3
 72
    17
 73
    13
 74
     0
 42
0.0000000001
 43
0.0000000001
 40
0.0
 40
0.0
 40
0.0
 40
0.0
 40
1.0
 40
1.0
 40
1.0
 40
2.0
 40
2.0
 40
2.0
 40
3.0
 40
3.0
 40
3.0
 40
4.0
 40
4.0
 40
4.0
 40
4.0
 10
130.4216688042001
 20
-150.841438764373
 30
0.0
 10
130.4216688042001
 20
-150.841438764373
 30
0.0
 10
129.7150797201754
 20
-150.841438764373
 30
0.0
 10
129.7150797201754
 20
-150.841438764373
 30
0.0
 10
129.7150797201754
 20
-150.841438764373
 30
0.0
 10
129.7150797201754
 20
-150.9492702530613
 30
0.0
 10
129.7150797201754
 20
-150.9492702530613
 30
0.0
 10
129.7150797201754
 20
-150.9492702530613
 30
0.0
 10
130.4216688042001
 20
-150.9492702530613
 30
0.0
 10
130.4216688042001
 20
-150.9492702530613
 30
0.0
 10
130.4216688042001
 20
-150.9492702530613
 30
0.0
 10
130.4216688042001
 20
-150.841438764373
 30
0.0
 10
130.4216688042001
 20
-150.841438764373
 30
0.0
  0
SPLINE
  5
15B
330
150
100
AcDbEntity
  8
レイヤー 1
100
AcDbSpline
210
0.0
220
0.0
230
1.0
 70
     9
 71
     3
 72
   203
 73
   199
 74
     0
 42
0.0000000001
 43
0.0000000001
 40
0.0
 40
0.0
 40
0.0
 40
0.0
 40
1.0
 40
1.0
 40
1.0
 40
2.0
 40
2.0
 40
2.0
 40
3.0
 40
3.0
 40
3.0
 40
4.0
 40
4.0
 40
4.0
 40
5.0
 40
5.0
 40
5.0
 40
6.0
 40
6.0
 40
6.0
 40
7.0
 40
7.0
 40
7.0
 40
8.0
 40
8.0
 40
8.0
 40
9.0
 40
9.0
 40
9.0
 40
10.0
 40
10.0
 40
10.0
 40
11.0
 40
11.0
 40
11.0
 40
12.0
 40
12.0
 40
12.0
 40
13.0
 40
13.0
 40
13.0
 40
14.0
 40
14.0
 40
14.0
 40
15.0
 40
15.0
 40
15.0
 40
16.0
 40
16.0
 40
16.0
 40
17.0
 40
17.0
 40
17.0
 40
18.0
 40
18.0
 40
18.0
 40
19.0
 40
19.0
 40
19.0
 40
20.0
 40
20.0
 40
20.0
 40
21.0
 40
21.0
 40
21.0
 40
22.0
 40
22.0
 40
22.0
 40
23.0
 40
23.0
 40
23.0
 40
24.0
 40
24.0
 40
24.0
 40
25.0
 40
25.0
 40
25.0
 40
26.0
 40
26.0
 40
26.0
 40
27.0
 40
27.0
 40
27.0
 40
28.0
 40
28.0
 40
28.0
 40
29.0
 40
29.0
 40
29.0
 40
30.0
 40
30.0
 40
30.0
 40
31.0
 40
31.0
 40
31.0
 40
32.0
 40
32.0
 40
32.0
 40
33.0
 40
33.0
 40
33.0
 40
34.0
 40
34.0
 40
34.0
 40
35.0
 40
35.0
 40
35.0
 40
36.0
 40
36.0
 40
36.0
 40
37.0
 40
37.0
 40
37.0
 40
38.0
 40
38.0
 40
38.0
 40
39.0
 40
39.0
 40
39.0
 40
40.0
 40
40.0
 40
40.0
 40
41.0
 40
41.0
 40
41.0
 40
42.0
 40
42.0
 40
42.0
 40
43.0
 40
43.0
 40
43.0
 40
44.0
 40
44.0
 40
44.0
 40
45.0
 40
45.0
 40
45.0
 40
46.0
 40
46.0
 40
46.0
 40
47.0
 40
47.0
 40
47.0
 40
48.0
 40
48.0
 40
48.0
 40
49.0
 40
49.0
 40
49.0
 40
50.0
 40
50.0
 40
50.0
 40
51.0
 40
51.0
 40
51.0
 40
52.0
 40
52.0
 40
52.0
 40
53.0
 40
53.0
 40
53.0
 40
54.0
 40
54.0
 40
54.0
 40
55.0
 40
55.0
 40
55.0
 40
56.0
 40
56.0
 40
56.0
 40
57.0
 40
57.0
 40
57.0
 40
58.0
 40
58.0
 40
58.0
 40
59.0
 40
59.0
 40
59.0
 40
60.0
 40
60.0
 40
60.0
 40
61.0
 40
61.0
 40
61.0
 40
62.0
 40
62.0
 40
62.0
 40
63.0
 40
63.0
 40
63.0
 40
64.0
 40
64.0
 40
64.0
 40
65.0
 40
65.0
 40
65.0
 40
66.0
 40
66.0
 40
66.0
 40
66.0
 10
130.2566487304567
 20
-150.5854681698189
 30
0.0
 10
130.2566487304567
 20
-150.5854681698189
 30
0.0
 10
129.6981987522977
 20
-150.5854681698189
 30
0.0
 10
129.6981987522977
 20
-150.5854681698189
 30
0.0
 10
129.6878634658419
 20
-150.6299099015786
 30
0.0
 10
129.6792507271288
 20
-150.6616047800429
 30
0.0
 10
129.6665038738334
 20
-150.6995008303807
 30
0.0
 10
129.6919975804242
 20
-150.6995008303807
 30
0.0
 10
129.7068114910108
 20
-150.7019123972203
 30
0.0
 10
129.7130126628842
 20
-150.7019123972203
 30
0.0
 10
129.7130126628842
 20
-150.7019123972203
 30
0.0
 10
129.9014593859274
 20
-150.7019123972203
 30
0.0
 10
129.9014593859274
 20
-150.7019123972203
 30
0.0
 10
129.9014593859274
 20
-150.7019123972203
 30
0.0
 10
130.2759412651741
 20
-150.7019123972203
 30
0.0
 10
130.2759412651741
 20
-150.7019123972203
 30
0.0
 10
130.3265841688072
 20
-150.7019123972203
 30
0.0
 10
130.6101155272433
 20
-150.6891655439249
 30
0.0
 10
130.6418104057076
 20
-150.6891655439249
 30
0.0
 10
130.6397433484164
 20
-150.7167263078069
 30
0.0
 10
130.6376762911253
 20
-150.7356743329758
 30
0.0
 10
130.6376762911253
 20
-150.765302154149
 30
0.0
 10
130.6356092338341
 20
-150.7969970326132
 30
0.0
 10
130.6356092338341
 20
-150.9323892851836
 30
0.0
 10
130.6356092338341
 20
-150.9599500490656
 30
0.0
 10
130.6356092338341
 20
-150.9599500490656
 30
0.0
 10
130.6356092338341
 20
-151.2052408476153
 30
0.0
 10
130.6356092338341
 20
-151.2052408476153
 30
0.0
 10
130.6356092338341
 20
-151.2496825793751
 30
0.0
 10
130.6397433484164
 20
-151.4463975315828
 30
0.0
 10
130.6438774629987
 20
-151.5986707520309
 30
0.0
 10
130.6438774629987
 20
-151.5986707520309
 30
0.0
 10
130.4175346896178
 20
-151.5986707520309
 30
0.0
 10
130.4175346896178
 20
-151.5986707520309
 30
0.0
 10
130.4175346896178
 20
-151.5986707520309
 30
0.0
 10
130.419601746909
 20
-151.5649088162754
 30
0.0
 10
130.419601746909
 20
-151.5649088162754
 30
0.0
 10
130.419601746909
 20
-151.5649088162754
 30
0.0
 10
129.717491287015
 20
-151.5649088162754
 30
0.0
 10
129.717491287015
 20
-151.5649088162754
 30
0.0
 10
129.717491287015
 20
-151.5649088162754
 30
0.0
 10
129.7195583443062
 20
-151.5986707520309
 30
0.0
 10
129.7195583443062
 20
-151.5986707520309
 30
0.0
 10
129.7195583443062
 20
-151.5986707520309
 30
0.0
 10
129.5014838000899
 20
-151.5986707520309
 30
0.0
 10
129.5014838000899
 20
-151.5986707520309
 30
0.0
 10
129.5059624242207
 20
-151.5435492242669
 30
0.0
 10
129.5059624242207
 20
-151.53114688052
 30
0.0
 10
129.5121635960942
 20
-151.4167697104097
 30
0.0
 10
129.5142306533853
 20
-151.3892089465277
 30
0.0
 10
129.5162977106765
 20
-151.2558837512485
 30
0.0
 10
129.5162977106765
 20
-151.2369357260796
 30
0.0
 10
129.5162977106765
 20
-151.2369357260796
 30
0.0
 10
129.5162977106765
 20
-151.0340196019984
 30
0.0
 10
129.5162977106765
 20
-151.0340196019984
 30
0.0
 10
129.3767713435238
 20
-151.2834445151305
 30
0.0
 10
129.2076171551981
 20
-151.4147026531185
 30
0.0
 10
129.1018527238009
 20
-151.4801594673383
 30
0.0
 10
129.1018527238009
 20
-151.4801594673383
 30
0.0
 10
128.9282199113443
 20
-151.3406331001857
 30
0.0
 10
128.9282199113443
 20
-151.3406331001857
 30
0.0
 10
129.0171033748638
 20
-151.2899901965525
 30
0.0
 10
129.1611083661472
 20
-151.2031737903242
 30
0.0
 10
129.2985676760087
 20
-151.0085258954076
 30
0.0
 10
129.3895181968193
 20
-150.8814018720018
 30
0.0
 10
129.454975011039
 20
-150.7377413902669
 30
0.0
 10
129.4887369467945
 20
-150.5854681698189
 30
0.0
 10
129.2603271161224
 20
-150.58753522711
 30
0.0
 10
129.0804931317924
 20
-150.5937363989835
 30
0.0
 10
128.9854084963995
 20
-150.5958034562747
 30
0.0
 10
128.9854084963995
 20
-150.5958034562747
 30
0.0
 10
128.9854084963995
 20
-150.4183810387843
 30
0.0
 10
128.9854084963995
 20
-150.4183810387843
 30
0.0
 10
129.1821234486072
 20
-150.4245822106577
 30
0.0
 10
129.4656548070433
 20
-150.42871632524
 30
0.0
 10
129.6158609702002
 20
-150.42871632524
 30
0.0
 10
129.6158609702002
 20
-150.42871632524
 30
0.0
 10
129.8294568902857
 20
-150.42871632524
 30
0.0
 10
129.8294568902857
 20
-150.42871632524
 30
0.0
 10
129.8294568902857
 20
-150.42871632524
 30
0.0
 10
129.8294568902857
 20
-150.3208848365517
 30
0.0
 10
129.8294568902857
 20
-150.3208848365517
 30
0.0
 10
129.8294568902857
 20
-150.3208848365517
 30
0.0
 10
129.6833848417111
 20
-150.3208848365517
 30
0.0
 10
129.6833848417111
 20
-150.3208848365517
 30
0.0
 10
129.5142306533853
 20
-150.3208848365517
 30
0.0
 10
129.3450764650595
 20
-150.325018951134
 30
0.0
 10
129.1779893340249
 20
-150.331564632556
 30
0.0
 10
129.1779893340249
 20
-150.331564632556
 30
0.0
 10
129.1779893340249
 20
-150.1603433869391
 30
0.0
 10
129.1779893340249
 20
-150.1603433869391
 30
0.0
 10
129.3323296117641
 20
-150.1706786733948
 30
0.0
 10
129.5183647679676
 20
-150.1706786733948
 30
0.0
 10
129.6833848417111
 20
-150.1706786733948
 30
0.0
 10
129.6833848417111
 20
-150.1706786733948
 30
0.0
 10
129.8294568902857
 20
-150.1706786733948
 30
0.0
 10
129.8294568902857
 20
-150.1706786733948
 30
0.0
 10
129.8294568902857
 20
-150.1706786733948
 30
0.0
 10
129.8294568902857
 20
-150.0521673887022
 30
0.0
 10
129.8294568902857
 20
-150.0521673887022
 30
0.0
 10
129.8294568902857
 20
-150.0521673887022
 30
0.0
 10
129.6981987522977
 20
-150.0521673887022
 30
0.0
 10
129.6981987522977
 20
-150.0521673887022
 30
0.0
 10
129.6516899632468
 20
-150.0521673887022
 30
0.0
 10
129.4487738391656
 20
-150.0607801274153
 30
0.0
 10
129.406399164697
 20
-150.0607801274153
 30
0.0
 10
129.2031385310673
 20
-150.0649142419976
 30
0.0
 10
129.1270019208432
 20
-150.0669812992888
 30
0.0
 10
129.048798253328
 20
-150.0690483565799
 30
0.0
 10
129.048798253328
 20
-150.0690483565799
 30
0.0
 10
129.048798253328
 20
-149.8850802576676
 30
0.0
 10
129.048798253328
 20
-149.8850802576676
 30
0.0
 10
129.1631754234384
 20
-149.8936929963807
 30
0.0
 10
129.2076171551981
 20
-149.8936929963807
 30
0.0
 10
129.5903672636093
 20
-149.9019612255453
 30
0.0
 10
129.5269775066807
 20
-149.8068765901524
 30
0.0
 10
129.4994167427987
 20
-149.7793158262704
 30
0.0
 10
129.4635877497521
 20
-149.7434868332238
 30
0.0
 10
129.4635877497521
 20
-149.7434868332238
 30
0.0
 10
129.6389431099514
 20
-149.6608045415779
 30
0.0
 10
129.6389431099514
 20
-149.6608045415779
 30
0.0
 10
129.6792507271288
 20
-149.696978044173
 30
0.0
 10
129.7236924588885
 20
-149.7393527186415
 30
0.0
 10
129.7977620118214
 20
-149.849251264621
 30
0.0
 10
129.7977620118214
 20
-149.849251264621
 30
0.0
 10
129.6833848417111
 20
-149.904372792385
 30
0.0
 10
129.6833848417111
 20
-149.904372792385
 30
0.0
 10
129.6833848417111
 20
-149.904372792385
 30
0.0
 10
129.6940646377153
 20
-149.904372792385
 30
0.0
 10
129.6940646377153
 20
-149.904372792385
 30
0.0
 10
129.6940646377153
 20
-149.904372792385
 30
0.0
 10
130.2166856228277
 20
-149.904372792385
 30
0.0
 10
130.2166856228277
 20
-149.904372792385
 30
0.0
 10
130.2166856228277
 20
-149.904372792385
 30
0.0
 10
130.1212564778863
 20
-149.8599310606253
 30
0.0
 10
130.1212564778863
 20
-149.8599310606253
 30
0.0
 10
130.1488172417683
 20
-149.821690500739
 30
0.0
 10
130.2060058268235
 20
-149.7414197759327
 30
0.0
 10
130.22081973741
 20
-149.6673502229998
 30
0.0
 10
130.22081973741
 20
-149.6673502229998
 30
0.0
 10
130.4344156574956
 20
-149.7307399799284
 30
0.0
 10
130.4344156574956
 20
-149.7307399799284
 30
0.0
 10
130.4430283962087
 20
-149.7328070372196
 30
0.0
 10
130.4640434786687
 20
-149.7434868332238
 30
0.0
 10
130.4640434786687
 20
-149.7645019156839
 30
0.0
 10
130.4640434786687
 20
-149.8027424755701
 30
0.0
 10
130.3985866644489
 20
-149.8027424755701
 30
0.0
 10
130.3796386392801
 20
-149.8027424755701
 30
0.0
 10
130.3689588432758
 20
-149.821690500739
 30
0.0
 10
130.3455321939761
 20
-149.8619981179164
 30
0.0
 10
130.315904372803
 20
-149.9019612255453
 30
0.0
 10
130.7158799586404
 20
-149.8957600536719
 30
0.0
 10
130.7455077798136
 20
-149.8936929963807
 30
0.0
 10
130.8216443900376
 20
-149.8871473149588
 30
0.0
 10
130.8216443900376
 20
-149.8871473149588
 30
0.0
 10
130.8216443900376
 20
-150.0690483565799
 30
0.0
 10
130.8216443900376
 20
-150.0690483565799
 30
0.0
 10
130.8026963648688
 20
-150.0690483565799
 30
0.0
 10
130.7772026582779
 20
-150.0669812992888
 30
0.0
 10
130.5570610567704
 20
-150.0587130701242
 30
0.0
 10
130.5064181531373
 20
-150.056646012833
 30
0.0
 10
130.2862765516298
 20
-150.0521673887022
 30
0.0
 10
130.2418348198701
 20
-150.0521673887022
 30
0.0
 10
130.2418348198701
 20
-150.0521673887022
 30
0.0
 10
130.0261718424934
 20
-150.0521673887022
 30
0.0
 10
130.0261718424934
 20
-150.0521673887022
 30
0.0
 10
130.0261718424934
 20
-150.0521673887022
 30
0.0
 10
130.0261718424934
 20
-150.1706786733948
 30
0.0
 10
130.0261718424934
 20
-150.1706786733948
 30
0.0
 10
130.0261718424934
 20
-150.1706786733948
 30
0.0
 10
130.19980465495
 20
-150.1706786733948
 30
0.0
 10
130.19980465495
 20
-150.1706786733948
 30
0.0
 10
130.3624131618538
 20
-150.1706786733948
 30
0.0
 10
130.5529269421881
 20
-150.1706786733948
 30
0.0
 10
130.709678786767
 20
-150.1603433869391
 30
0.0
 10
130.709678786767
 20
-150.1603433869391
 30
0.0
 10
130.709678786767
 20
-150.331564632556
 30
0.0
 10
130.709678786767
 20
-150.331564632556
 30
0.0
 10
130.5002169812638
 20
-150.3229518938429
 30
0.0
 10
130.303502029056
 20
-150.3208848365517
 30
0.0
 10
130.19980465495
 20
-150.3208848365517
 30
0.0
 10
130.19980465495
 20
-150.3208848365517
 30
0.0
 10
130.0261718424934
 20
-150.3208848365517
 30
0.0
 10
130.0261718424934
 20
-150.3208848365517
 30
0.0
 10
130.0261718424934
 20
-150.3208848365517
 30
0.0
 10
130.0261718424934
 20
-150.42871632524
 30
0.0
 10
130.0261718424934
 20
-150.42871632524
 30
0.0
 10
130.0261718424934
 20
-150.42871632524
 30
0.0
 10
130.2566487304567
 20
-150.42871632524
 30
0.0
 10
130.2566487304567
 20
-150.42871632524
 30
0.0
 10
130.3899739257358
 20
-150.42871632524
 30
0.0
 10
130.6776393987542
 20
-150.4245822106577
 30
0.0
 10
130.8871012042574
 20
-150.4183810387843
 30
0.0
 10
130.8871012042574
 20
-150.4183810387843
 30
0.0
 10
130.8871012042574
 20
-150.5958034562747
 30
0.0
 10
130.8871012042574
 20
-150.5958034562747
 30
0.0
 10
130.6948648761804
 20
-150.5896022844012
 30
0.0
 10
130.3817056965712
 20
-150.5854681698189
 30
0.0
 10
130.2566487304567
 20
-150.5854681698189
 30
0.0
  0
HATCH
  5
15C
330
150
100
AcDbEntity
  8
レイヤー 1
 62
    18
420
        0
440
 33554687
100
AcDbHatch
 10
0.0
 20
0.0
 30
0.0
210
0.0
220
0.0
230
1.0
  2
SOLID
 70
     1
 71
     1
 91
        4
 92
        1
 93
        1
 72
     4
 94
        3
 73
     0
 74
     0
 95
       17
 96
       13
 40
0.0
 40
0.0
 40
0.0
 40
0.0
 40
1.0
 40
1.0
 40
1.0
 40
2.0
 40
2.0
 40
2.0
 40
3.0
 40
3.0
 40
3.0
 40
4.0
 40
4.0
 40
4.0
 40
4.0
 10
130.4216688042001
 20
-151.3172064508859
 10
130.4216688042001
 20
-151.3172064508859
 10
129.7150797201754
 20
-151.3172064508859
 10
129.7150797201754
 20
-151.3172064508859
 10
129.7150797201754
 20
-151.3172064508859
 10
129.7150797201754
 20
-151.4315836209962
 10
129.7150797201754
 20
-151.4315836209962
 10
129.7150797201754
 20
-151.4315836209962
 10
130.4216688042001
 20
-151.4315836209962
 10
130.4216688042001
 20
-151.4315836209962
 10
130.4216688042001
 20
-151.4315836209962
 10
130.4216688042001
 20
-151.3172064508859
 10
130.4216688042001
 20
-151.3172064508859
 97
        0
 97
        1
330
158
 92
        1
 93
        1
 72
     4
 94
        3
 73
     0
 74
     0
 95
       17
 96
       13
 40
0.0
 40
0.0
 40
0.0
 40
0.0
 40
1.0
 40
1.0
 40
1.0
 40
2.0
 40
2.0
 40
2.0
 40
3.0
 40
3.0
 40
3.0
 40
4.0
 40
4.0
 40
4.0
 40
4.0
 10
130.4216688042001
 20
-151.0739827096273
 10
130.4216688042001
 20
-151.0739827096273
 10
129.7150797201754
 20
-151.0739827096273
 10
129.7150797201754
 20
-151.0739827096273
 10
129.7150797201754
 20
-151.0739827096273
 10
129.7150797201754
 20
-151.1883598797376
 10
129.7150797201754
 20
-151.1883598797376
 10
129.7150797201754
 20
-151.1883598797376
 10
130.4216688042001
 20
-151.1883598797376
 10
130.4216688042001
 20
-151.1883598797376
 10
130.4216688042001
 20
-151.1883598797376
 10
130.4216688042001
 20
-151.0739827096273
 10
130.4216688042001
 20
-151.0739827096273
 97
        0
 97
        1
330
159
 92
        1
 93
        1
 72
     4
 94
        3
 73
     0
 74
     0
 95
       17
 96
       13
 40
0.0
 40
0.0
 40
0.0
 40
0.0
 40
1.0
 40
1.0
 40
1.0
 40
2.0
 40
2.0
 40
2.0
 40
3.0
 40
3.0
 40
3.0
 40
4.0
 40
4.0
 40
4.0
 40
4.0
 10
130.4216688042001
 20
-150.841438764373
 10
130.4216688042001
 20
-150.841438764373
 10
129.7150797201754
 20
-150.841438764373
 10
129.7150797201754
 20
-150.841438764373
 10
129.7150797201754
 20
-150.841438764373
 10
129.7150797201754
 20
-150.9492702530613
 10
129.7150797201754
 20
-150.9492702530613
 10
129.7150797201754
 20
-150.9492702530613
 10
130.4216688042001
 20
-150.9492702530613
 10
130.4216688042001
 20
-150.9492702530613
 10
130.4216688042001
 20
-150.9492702530613
 10
130.4216688042001
 20
-150.841438764373
 10
130.4216688042001
 20
-150.841438764373
 97
        0
 97
        1
330
15A
 92
        1
 93
        1
 72
     4
 94
        3
 73
     0
 74
     0
 95
      203
 96
      199
 40
0.0
 40
0.0
 40
0.0
 40
0.0
 40
1.0
 40
1.0
 40
1.0
 40
2.0
 40
2.0
 40
2.0
 40
3.0
 40
3.0
 40
3.0
 40
4.0
 40
4.0
 40
4.0
 40
5.0
 40
5.0
 40
5.0
 40
6.0
 40
6.0
 40
6.0
 40
7.0
 40
7.0
 40
7.0
 40
8.0
 40
8.0
 40
8.0
 40
9.0
 40
9.0
 40
9.0
 40
10.0
 40
10.0
 40
10.0
 40
11.0
 40
11.0
 40
11.0
 40
12.0
 40
12.0
 40
12.0
 40
13.0
 40
13.0
 40
13.0
 40
14.0
 40
14.0
 40
14.0
 40
15.0
 40
15.0
 40
15.0
 40
16.0
 40
16.0
 40
16.0
 40
17.0
 40
17.0
 40
17.0
 40
18.0
 40
18.0
 40
18.0
 40
19.0
 40
19.0
 40
19.0
 40
20.0
 40
20.0
 40
20.0
 40
21.0
 40
21.0
 40
21.0
 40
22.0
 40
22.0
 40
22.0
 40
23.0
 40
23.0
 40
23.0
 40
24.0
 40
24.0
 40
24.0
 40
25.0
 40
25.0
 40
25.0
 40
26.0
 40
26.0
 40
26.0
 40
27.0
 40
27.0
 40
27.0
 40
28.0
 40
28.0
 40
28.0
 40
29.0
 40
29.0
 40
29.0
 40
30.0
 40
30.0
 40
30.0
 40
31.0
 40
31.0
 40
31.0
 40
32.0
 40
32.0
 40
32.0
 40
33.0
 40
33.0
 40
33.0
 40
34.0
 40
34.0
 40
34.0
 40
35.0
 40
35.0
 40
35.0
 40
36.0
 40
36.0
 40
36.0
 40
37.0
 40
37.0
 40
37.0
 40
38.0
 40
38.0
 40
38.0
 40
39.0
 40
39.0
 40
39.0
 40
40.0
 40
40.0
 40
40.0
 40
41.0
 40
41.0
 40
41.0
 40
42.0
 40
42.0
 40
42.0
 40
43.0
 40
43.0
 40
43.0
 40
44.0
 40
44.0
 40
44.0
 40
45.0
 40
45.0
 40
45.0
 40
46.0
 40
46.0
 40
46.0
 40
47.0
 40
47.0
 40
47.0
 40
48.0
 40
48.0
 40
48.0
 40
49.0
 40
49.0
 40
49.0
 40
50.0
 40
50.0
 40
50.0
 40
51.0
 40
51.0
 40
51.0
 40
52.0
 40
52.0
 40
52.0
 40
53.0
 40
53.0
 40
53.0
 40
54.0
 40
54.0
 40
54.0
 40
55.0
 40
55.0
 40
55.0
 40
56.0
 40
56.0
 40
56.0
 40
57.0
 40
57.0
 40
57.0
 40
58.0
 40
58.0
 40
58.0
 40
59.0
 40
59.0
 40
59.0
 40
60.0
 40
60.0
 40
60.0
 40
61.0
 40
61.0
 40
61.0
 40
62.0
 40
62.0
 40
62.0
 40
63.0
 40
63.0
 40
63.0
 40
64.0
 40
64.0
 40
64.0
 40
65.0
 40
65.0
 40
65.0
 40
66.0
 40
66.0
 40
66.0
 40
66.0
 10
130.2566487304567
 20
-150.5854681698189
 10
130.2566487304567
 20
-150.5854681698189
 10
129.6981987522977
 20
-150.5854681698189
 10
129.6981987522977
 20
-150.5854681698189
 10
129.6878634658419
 20
-150.6299099015786
 10
129.6792507271288
 20
-150.6616047800429
 10
129.6665038738334
 20
-150.6995008303807
 10
129.6919975804242
 20
-150.6995008303807
 10
129.7068114910108
 20
-150.7019123972203
 10
129.7130126628842
 20
-150.7019123972203
 10
129.7130126628842
 20
-150.7019123972203
 10
129.9014593859274
 20
-150.7019123972203
 10
129.9014593859274
 20
-150.7019123972203
 10
129.9014593859274
 20
-150.7019123972203
 10
130.2759412651741
 20
-150.7019123972203
 10
130.2759412651741
 20
-150.7019123972203
 10
130.3265841688072
 20
-150.7019123972203
 10
130.6101155272433
 20
-150.6891655439249
 10
130.6418104057076
 20
-150.6891655439249
 10
130.6397433484164
 20
-150.7167263078069
 10
130.6376762911253
 20
-150.7356743329758
 10
130.6376762911253
 20
-150.765302154149
 10
130.6356092338341
 20
-150.7969970326132
 10
130.6356092338341
 20
-150.9323892851836
 10
130.6356092338341
 20
-150.9599500490656
 10
130.6356092338341
 20
-150.9599500490656
 10
130.6356092338341
 20
-151.2052408476153
 10
130.6356092338341
 20
-151.2052408476153
 10
130.6356092338341
 20
-151.2496825793751
 10
130.6397433484164
 20
-151.4463975315828
 10
130.6438774629987
 20
-151.5986707520309
 10
130.6438774629987
 20
-151.5986707520309
 10
130.4175346896178
 20
-151.5986707520309
 10
130.4175346896178
 20
-151.5986707520309
 10
130.4175346896178
 20
-151.5986707520309
 10
130.419601746909
 20
-151.5649088162754
 10
130.419601746909
 20
-151.5649088162754
 10
130.419601746909
 20
-151.5649088162754
 10
129.717491287015
 20
-151.5649088162754
 10
129.717491287015
 20
-151.5649088162754
 10
129.717491287015
 20
-151.5649088162754
 10
129.7195583443062
 20
-151.5986707520309
 10
129.7195583443062
 20
-151.5986707520309
 10
129.7195583443062
 20
-151.5986707520309
 10
129.5014838000899
 20
-151.5986707520309
 10
129.5014838000899
 20
-151.5986707520309
 10
129.5059624242207
 20
-151.5435492242669
 10
129.5059624242207
 20
-151.53114688052
 10
129.5121635960942
 20
-151.4167697104097
 10
129.5142306533853
 20
-151.3892089465277
 10
129.5162977106765
 20
-151.2558837512485
 10
129.5162977106765
 20
-151.2369357260796
 10
129.5162977106765
 20
-151.2369357260796
 10
129.5162977106765
 20
-151.0340196019984
 10
129.5162977106765
 20
-151.0340196019984
 10
129.3767713435238
 20
-151.2834445151305
 10
129.2076171551981
 20
-151.4147026531185
 10
129.1018527238009
 20
-151.4801594673383
 10
129.1018527238009
 20
-151.4801594673383
 10
128.9282199113443
 20
-151.3406331001857
 10
128.9282199113443
 20
-151.3406331001857
 10
129.0171033748638
 20
-151.2899901965525
 10
129.1611083661472
 20
-151.2031737903242
 10
129.2985676760087
 20
-151.0085258954076
 10
129.3895181968193
 20
-150.8814018720018
 10
129.454975011039
 20
-150.7377413902669
 10
129.4887369467945
 20
-150.5854681698189
 10
129.2603271161224
 20
-150.58753522711
 10
129.0804931317924
 20
-150.5937363989835
 10
128.9854084963995
 20
-150.5958034562747
 10
128.9854084963995
 20
-150.5958034562747
 10
128.9854084963995
 20
-150.4183810387843
 10
128.9854084963995
 20
-150.4183810387843
 10
129.1821234486072
 20
-150.4245822106577
 10
129.4656548070433
 20
-150.42871632524
 10
129.6158609702002
 20
-150.42871632524
 10
129.6158609702002
 20
-150.42871632524
 10
129.8294568902857
 20
-150.42871632524
 10
129.8294568902857
 20
-150.42871632524
 10
129.8294568902857
 20
-150.42871632524
 10
129.8294568902857
 20
-150.3208848365517
 10
129.8294568902857
 20
-150.3208848365517
 10
129.8294568902857
 20
-150.3208848365517
 10
129.6833848417111
 20
-150.3208848365517
 10
129.6833848417111
 20
-150.3208848365517
 10
129.5142306533853
 20
-150.3208848365517
 10
129.3450764650595
 20
-150.325018951134
 10
129.1779893340249
 20
-150.331564632556
 10
129.1779893340249
 20
-150.331564632556
 10
129.1779893340249
 20
-150.1603433869391
 10
129.1779893340249
 20
-150.1603433869391
 10
129.3323296117641
 20
-150.1706786733948
 10
129.5183647679676
 20
-150.1706786733948
 10
129.6833848417111
 20
-150.1706786733948
 10
129.6833848417111
 20
-150.1706786733948
 10
129.8294568902857
 20
-150.1706786733948
 10
129.8294568902857
 20
-150.1706786733948
 10
129.8294568902857
 20
-150.1706786733948
 10
129.8294568902857
 20
-150.0521673887022
 10
129.8294568902857
 20
-150.0521673887022
 10
129.8294568902857
 20
-150.0521673887022
 10
129.6981987522977
 20
-150.0521673887022
 10
129.6981987522977
 20
-150.0521673887022
 10
129.6516899632468
 20
-150.0521673887022
 10
129.4487738391656
 20
-150.0607801274153
 10
129.406399164697
 20
-150.0607801274153
 10
129.2031385310673
 20
-150.0649142419976
 10
129.1270019208432
 20
-150.0669812992888
 10
129.048798253328
 20
-150.0690483565799
 10
129.048798253328
 20
-150.0690483565799
 10
129.048798253328
 20
-149.8850802576676
 10
129.048798253328
 20
-149.8850802576676
 10
129.1631754234384
 20
-149.8936929963807
 10
129.2076171551981
 20
-149.8936929963807
 10
129.5903672636093
 20
-149.9019612255453
 10
129.5269775066807
 20
-149.8068765901524
 10
129.4994167427987
 20
-149.7793158262704
 10
129.4635877497521
 20
-149.7434868332238
 10
129.4635877497521
 20
-149.7434868332238
 10
129.6389431099514
 20
-149.6608045415779
 10
129.6389431099514
 20
-149.6608045415779
 10
129.6792507271288
 20
-149.696978044173
 10
129.7236924588885
 20
-149.7393527186415
 10
129.7977620118214
 20
-149.849251264621
 10
129.7977620118214
 20
-149.849251264621
 10
129.6833848417111
 20
-149.904372792385
 10
129.6833848417111
 20
-149.904372792385
 10
129.6833848417111
 20
-149.904372792385
 10
129.6940646377153
 20
-149.904372792385
 10
129.6940646377153
 20
-149.904372792385
 10
129.6940646377153
 20
-149.904372792385
 10
130.2166856228277
 20
-149.904372792385
 10
130.2166856228277
 20
-149.904372792385
 10
130.2166856228277
 20
-149.904372792385
 10
130.1212564778863
 20
-149.8599310606253
 10
130.1212564778863
 20
-149.8599310606253
 10
130.1488172417683
 20
-149.821690500739
 10
130.2060058268235
 20
-149.7414197759327
 10
130.22081973741
 20
-149.6673502229998
 10
130.22081973741
 20
-149.6673502229998
 10
130.4344156574956
 20
-149.7307399799284
 10
130.4344156574956
 20
-149.7307399799284
 10
130.4430283962087
 20
-149.7328070372196
 10
130.4640434786687
 20
-149.7434868332238
 10
130.4640434786687
 20
-149.7645019156839
 10
130.4640434786687
 20
-149.8027424755701
 10
130.3985866644489
 20
-149.8027424755701
 10
130.3796386392801
 20
-149.8027424755701
 10
130.3689588432758
 20
-149.821690500739
 10
130.3455321939761
 20
-149.8619981179164
 10
130.315904372803
 20
-149.9019612255453
 10
130.7158799586404
 20
-149.8957600536719
 10
130.7455077798136
 20
-149.8936929963807
 10
130.8216443900376
 20
-149.8871473149588
 10
130.8216443900376
 20
-149.8871473149588
 10
130.8216443900376
 20
-150.0690483565799
 10
130.8216443900376
 20
-150.0690483565799
 10
130.8026963648688
 20
-150.0690483565799
 10
130.7772026582779
 20
-150.0669812992888
 10
130.5570610567704
 20
-150.0587130701242
 10
130.5064181531373
 20
-150.056646012833
 10
130.2862765516298
 20
-150.0521673887022
 10
130.2418348198701
 20
-150.0521673887022
 10
130.2418348198701
 20
-150.0521673887022
 10
130.0261718424934
 20
-150.0521673887022
 10
130.0261718424934
 20
-150.0521673887022
 10
130.0261718424934
 20
-150.0521673887022
 10
130.0261718424934
 20
-150.1706786733948
 10
130.0261718424934
 20
-150.1706786733948
 10
130.0261718424934
 20
-150.1706786733948
 10
130.19980465495
 20
-150.1706786733948
 10
130.19980465495
 20
-150.1706786733948
 10
130.3624131618538
 20
-150.1706786733948
 10
130.5529269421881
 20
-150.1706786733948
 10
130.709678786767
 20
-150.1603433869391
 10
130.709678786767
 20
-150.1603433869391
 10
130.709678786767
 20
-150.331564632556
 10
130.709678786767
 20
-150.331564632556
 10
130.5002169812638
 20
-150.3229518938429
 10
130.303502029056
 20
-150.3208848365517
 10
130.19980465495
 20
-150.3208848365517
 10
130.19980465495
 20
-150.3208848365517
 10
130.0261718424934
 20
-150.3208848365517
 10
130.0261718424934
 20
-150.3208848365517
 10
130.0261718424934
 20
-150.3208848365517
 10
130.0261718424934
 20
-150.42871632524
 10
130.0261718424934
 20
-150.42871632524
 10
130.0261718424934
 20
-150.42871632524
 10
130.2566487304567
 20
-150.42871632524
 10
130.2566487304567
 20
-150.42871632524
 10
130.3899739257358
 20
-150.42871632524
 10
130.6776393987542
 20
-150.4245822106577
 10
130.8871012042574
 20
-150.4183810387843
 10
130.8871012042574
 20
-150.4183810387843
 10
130.8871012042574
 20
-150.5958034562747
 10
130.8871012042574
 20
-150.5958034562747
 10
130.6948648761804
 20
-150.5896022844012
 10
130.3817056965712
 20
-150.5854681698189
 10
130.2566487304567
 20
-150.5854681698189
 97
        0
 97
        1
330
15B
 75
     2
 76
     1
 98
        1
 10
0.0
 20
0.0
450
        0
451
        0
460
0.0
461
0.0
452
        0
462
0.0
453
        0
470

  0
SPLINE
  5
15D
330
150
100
AcDbEntity
  8
レイヤー 1
100
AcDbSpline
210
0.0
220
0.0
230
1.0
 70
     9
 71
     3
 72
    29
 73
    25
 74
     0
 42
0.0000000001
 43
0.0000000001
 40
0.0
 40
0.0
 40
0.0
 40
0.0
 40
1.0
 40
1.0
 40
1.0
 40
2.0
 40
2.0
 40
2.0
 40
3.0
 40
3.0
 40
3.0
 40
4.0
 40
4.0
 40
4.0
 40
5.0
 40
5.0
 40
5.0
 40
6.0
 40
6.0
 40
6.0
 40
7.0
 40
7.0
 40
7.0
 40
8.0
 40
8.0
 40
8.0
 40
8.0
 10
132.1321587126266
 20
-150.0332193635333
 30
0.0
 10
132.1321587126266
 20
-150.0332193635333
 30
0.0
 10
131.7790364253885
 20
-150.0332193635333
 30
0.0
 10
131.7790364253885
 20
-150.0332193635333
 30
0.0
 10
131.6667263125694
 20
-150.0332193635333
 30
0.0
 10
131.5271999454168
 20
-150.0394205354068
 30
0.0
 10
131.4193684567285
 20
-150.0521673887022
 30
0.0
 10
131.4193684567285
 20
-150.0521673887022
 30
0.0
 10
131.4193684567285
 20
-149.8175563861567
 30
0.0
 10
131.4193684567285
 20
-149.8175563861567
 30
0.0
 10
131.5378797414211
 20
-149.8323702967433
 30
0.0
 10
131.7218478403334
 20
-149.8365044113256
 30
0.0
 10
131.7790364253885
 20
-149.8365044113256
 30
0.0
 10
131.7790364253885
 20
-149.8365044113256
 30
0.0
 10
132.1321587126266
 20
-149.8365044113256
 30
0.0
 10
132.1321587126266
 20
-149.8365044113256
 30
0.0
 10
132.1514512473441
 20
-149.8365044113256
 30
0.0
 10
132.3543673714253
 20
-149.8365044113256
 30
0.0
 10
132.4959607958691
 20
-149.8175563861567
 30
0.0
 10
132.4959607958691
 20
-149.8175563861567
 30
0.0
 10
132.4959607958691
 20
-150.0521673887022
 30
0.0
 10
132.4959607958691
 20
-150.0521673887022
 30
0.0
 10
132.3395534608387
 20
-150.0332193635333
 30
0.0
 10
132.1490396805044
 20
-150.0332193635333
 30
0.0
 10
132.1321587126266
 20
-150.0332193635333
 30
0.0
  0
SPLINE
  5
15E
330
150
100
AcDbEntity
  8
レイヤー 1
100
AcDbSpline
210
0.0
220
0.0
230
1.0
 70
     9
 71
     3
 72
    47
 73
    43
 74
     0
 42
0.0000000001
 43
0.0000000001
 40
0.0
 40
0.0
 40
0.0
 40
0.0
 40
1.0
 40
1.0
 40
1.0
 40
2.0
 40
2.0
 40
2.0
 40
3.0
 40
3.0
 40
3.0
 40
4.0
 40
4.0
 40
4.0
 40
5.0
 40
5.0
 40
5.0
 40
6.0
 40
6.0
 40
6.0
 40
7.0
 40
7.0
 40
7.0
 40
8.0
 40
8.0
 40
8.0
 40
9.0
 40
9.0
 40
9.0
 40
10.0
 40
10.0
 40
10.0
 40
11.0
 40
11.0
 40
11.0
 40
12.0
 40
12.0
 40
12.0
 40
13.0
 40
13.0
 40
13.0
 40
14.0
 40
14.0
 40
14.0
 40
14.0
 10
132.2337890294415
 20
-150.5620415205192
 30
0.0
 10
132.2337890294415
 20
-150.5620415205192
 30
0.0
 10
132.1321587126266
 20
-150.5620415205192
 30
0.0
 10
132.1321587126266
 20
-150.5620415205192
 30
0.0
 10
132.1321587126266
 20
-150.6488579267475
 30
0.0
 10
132.1111436301666
 20
-151.0381537165807
 30
0.0
 10
131.9144286779589
 20
-151.2582953180882
 30
0.0
 10
131.7621554575108
 20
-151.427449506414
 30
0.0
 10
131.5547607092988
 20
-151.497040435216
 30
0.0
 10
131.4700113603616
 20
-151.524601199098
 30
0.0
 10
131.4700113603616
 20
-151.524601199098
 30
0.0
 10
131.275363465445
 20
-151.3575140680634
 30
0.0
 10
131.275363465445
 20
-151.3575140680634
 30
0.0
 10
131.3728596676776
 20
-151.344767214768
 30
0.0
 10
131.5482150278768
 20
-151.3216850750168
 30
0.0
 10
131.73666175092
 20
-151.1332383519736
 30
0.0
 10
131.8107313038529
 20
-151.0612358563319
 30
0.0
 10
131.9144286779589
 20
-150.9217094891793
 30
0.0
 10
131.9144286779589
 20
-150.5620415205192
 30
0.0
 10
131.9144286779589
 20
-150.5620415205192
 30
0.0
 10
131.6836072804471
 20
-150.5620415205192
 30
0.0
 10
131.6836072804471
 20
-150.5620415205192
 30
0.0
 10
131.4975721242436
 20
-150.5620415205192
 30
0.0
 10
131.3115369680401
 20
-150.56652014465
 30
0.0
 10
131.1251573022881
 20
-150.5809895456881
 30
0.0
 10
131.1251573022881
 20
-150.5809895456881
 30
0.0
 10
131.1251573022881
 20
-150.3611924537291
 30
0.0
 10
131.1251573022881
 20
-150.3611924537291
 30
0.0
 10
131.3136040253313
 20
-150.3760063643157
 30
0.0
 10
131.5992024410585
 20
-150.380140478898
 30
0.0
 10
131.6836072804471
 20
-150.380140478898
 30
0.0
 10
131.6836072804471
 20
-150.380140478898
 30
0.0
 10
132.2337890294415
 20
-150.380140478898
 30
0.0
 10
132.2337890294415
 20
-150.380140478898
 30
0.0
 10
132.2527370546104
 20
-150.380140478898
 30
0.0
 10
132.5700303488019
 20
-150.380140478898
 30
0.0
 10
132.7987846890225
 20
-150.3611924537291
 30
0.0
 10
132.7987846890225
 20
-150.3611924537291
 30
0.0
 10
132.7987846890225
 20
-150.5809895456881
 30
0.0
 10
132.7987846890225
 20
-150.5809895456881
 30
0.0
 10
132.6103379659793
 20
-150.56652014465
 30
0.0
 10
132.4222357524847
 20
-150.5620415205192
 30
0.0
 10
132.2337890294415
 20
-150.5620415205192
 30
0.0
  0
HATCH
  5
15F
330
150
100
AcDbEntity
  8
レイヤー 1
 62
    18
420
        0
440
 33554687
100
AcDbHatch
 10
0.0
 20
0.0
 30
0.0
210
0.0
220
0.0
230
1.0
  2
SOLID
 70
     1
 71
     1
 91
        2
 92
        1
 93
        1
 72
     4
 94
        3
 73
     0
 74
     0
 95
       29
 96
       25
 40
0.0
 40
0.0
 40
0.0
 40
0.0
 40
1.0
 40
1.0
 40
1.0
 40
2.0
 40
2.0
 40
2.0
 40
3.0
 40
3.0
 40
3.0
 40
4.0
 40
4.0
 40
4.0
 40
5.0
 40
5.0
 40
5.0
 40
6.0
 40
6.0
 40
6.0
 40
7.0
 40
7.0
 40
7.0
 40
8.0
 40
8.0
 40
8.0
 40
8.0
 10
132.1321587126266
 20
-150.0332193635333
 10
132.1321587126266
 20
-150.0332193635333
 10
131.7790364253885
 20
-150.0332193635333
 10
131.7790364253885
 20
-150.0332193635333
 10
131.6667263125694
 20
-150.0332193635333
 10
131.5271999454168
 20
-150.0394205354068
 10
131.4193684567285
 20
-150.0521673887022
 10
131.4193684567285
 20
-150.0521673887022
 10
131.4193684567285
 20
-149.8175563861567
 10
131.4193684567285
 20
-149.8175563861567
 10
131.5378797414211
 20
-149.8323702967433
 10
131.7218478403334
 20
-149.8365044113256
 10
131.7790364253885
 20
-149.8365044113256
 10
131.7790364253885
 20
-149.8365044113256
 10
132.1321587126266
 20
-149.8365044113256
 10
132.1321587126266
 20
-149.8365044113256
 10
132.1514512473441
 20
-149.8365044113256
 10
132.3543673714253
 20
-149.8365044113256
 10
132.4959607958691
 20
-149.8175563861567
 10
132.4959607958691
 20
-149.8175563861567
 10
132.4959607958691
 20
-150.0521673887022
 10
132.4959607958691
 20
-150.0521673887022
 10
132.3395534608387
 20
-150.0332193635333
 10
132.1490396805044
 20
-150.0332193635333
 10
132.1321587126266
 20
-150.0332193635333
 97
        0
 97
        1
330
15D
 92
        1
 93
        1
 72
     4
 94
        3
 73
     0
 74
     0
 95
       47
 96
       43
 40
0.0
 40
0.0
 40
0.0
 40
0.0
 40
1.0
 40
1.0
 40
1.0
 40
2.0
 40
2.0
 40
2.0
 40
3.0
 40
3.0
 40
3.0
 40
4.0
 40
4.0
 40
4.0
 40
5.0
 40
5.0
 40
5.0
 40
6.0
 40
6.0
 40
6.0
 40
7.0
 40
7.0
 40
7.0
 40
8.0
 40
8.0
 40
8.0
 40
9.0
 40
9.0
 40
9.0
 40
10.0
 40
10.0
 40
10.0
 40
11.0
 40
11.0
 40
11.0
 40
12.0
 40
12.0
 40
12.0
 40
13.0
 40
13.0
 40
13.0
 40
14.0
 40
14.0
 40
14.0
 40
14.0
 10
132.2337890294415
 20
-150.5620415205192
 10
132.2337890294415
 20
-150.5620415205192
 10
132.1321587126266
 20
-150.5620415205192
 10
132.1321587126266
 20
-150.5620415205192
 10
132.1321587126266
 20
-150.6488579267475
 10
132.1111436301666
 20
-151.0381537165807
 10
131.9144286779589
 20
-151.2582953180882
 10
131.7621554575108
 20
-151.427449506414
 10
131.5547607092988
 20
-151.497040435216
 10
131.4700113603616
 20
-151.524601199098
 10
131.4700113603616
 20
-151.524601199098
 10
131.275363465445
 20
-151.3575140680634
 10
131.275363465445
 20
-151.3575140680634
 10
131.3728596676776
 20
-151.344767214768
 10
131.5482150278768
 20
-151.3216850750168
 10
131.73666175092
 20
-151.1332383519736
 10
131.8107313038529
 20
-151.0612358563319
 10
131.9144286779589
 20
-150.9217094891793
 10
131.9144286779589
 20
-150.5620415205192
 10
131.9144286779589
 20
-150.5620415205192
 10
131.6836072804471
 20
-150.5620415205192
 10
131.6836072804471
 20
-150.5620415205192
 10
131.4975721242436
 20
-150.5620415205192
 10
131.3115369680401
 20
-150.56652014465
 10
131.1251573022881
 20
-150.5809895456881
 10
131.1251573022881
 20
-150.5809895456881
 10
131.1251573022881
 20
-150.3611924537291
 10
131.1251573022881
 20
-150.3611924537291
 10
131.3136040253313
 20
-150.3760063643157
 10
131.5992024410585
 20
-150.380140478898
 10
131.6836072804471
 20
-150.380140478898
 10
131.6836072804471
 20
-150.380140478898
 10
132.2337890294415
 20
-150.380140478898
 10
132.2337890294415
 20
-150.380140478898
 10
132.2527370546104
 20
-150.380140478898
 10
132.5700303488019
 20
-150.380140478898
 10
132.7987846890225
 20
-150.3611924537291
 10
132.7987846890225
 20
-150.3611924537291
 10
132.7987846890225
 20
-150.5809895456881
 10
132.7987846890225
 20
-150.5809895456881
 10
132.6103379659793
 20
-150.56652014465
 10
132.4222357524847
 20
-150.5620415205192
 10
132.2337890294415
 20
-150.5620415205192
 97
        0
 97
        1
330
15E
 75
     2
 76
     1
 98
        1
 10
0.0
 20
0.0
450
        0
451
        0
460
0.0
461
0.0
452
        0
462
0.0
453
        0
470

  0
SPLINE
  5
160
330
150
100
AcDbEntity
  8
レイヤー 1
100
AcDbSpline
210
0.0
220
0.0
230
1.0
 70
     9
 71
     3
 72
    29
 73
    25
 74
     0
 42
0.0000000001
 43
0.0000000001
 40
0.0
 40
0.0
 40
0.0
 40
0.0
 40
1.0
 40
1.0
 40
1.0
 40
2.0
 40
2.0
 40
2.0
 40
3.0
 40
3.0
 40
3.0
 40
4.0
 40
4.0
 40
4.0
 40
5.0
 40
5.0
 40
5.0
 40
6.0
 40
6.0
 40
6.0
 40
7.0
 40
7.0
 40
7.0
 40
8.0
 40
8.0
 40
8.0
 40
8.0
 10
134.0796711904384
 20
-150.7249945369715
 30
0.0
 10
134.0796711904384
 20
-150.7249945369715
 30
0.0
 10
133.5952907652123
 20
-150.7249945369715
 30
0.0
 10
133.5952907652123
 20
-150.7249945369715
 30
0.0
 10
133.5677300013303
 20
-150.7249945369715
 30
0.0
 10
133.2504367071388
 20
-150.7249945369715
 30
0.0
 10
133.0389078443444
 20
-150.7504882435624
 30
0.0
 10
133.0389078443444
 20
-150.7504882435624
 30
0.0
 10
133.0389078443444
 20
-150.5196668460506
 30
0.0
 10
133.0389078443444
 20
-150.5196668460506
 30
0.0
 10
133.1973822366659
 20
-150.5430934953503
 30
0.0
 10
133.3878960170002
 20
-150.5451605526415
 30
0.0
 10
133.5952907652123
 20
-150.5451605526415
 30
0.0
 10
133.5952907652123
 20
-150.5451605526415
 30
0.0
 10
134.0796711904384
 20
-150.5451605526415
 30
0.0
 10
134.0796711904384
 20
-150.5451605526415
 30
0.0
 10
134.2657063466419
 20
-150.5451605526415
 30
0.0
 10
134.4517415028454
 20
-150.5430934953503
 30
0.0
 10
134.6360541113062
 20
-150.5196668460506
 30
0.0
 10
134.6360541113062
 20
-150.5196668460506
 30
0.0
 10
134.6360541113062
 20
-150.7504882435624
 30
0.0
 10
134.6360541113062
 20
-150.7504882435624
 30
0.0
 10
134.4517415028454
 20
-150.7270615942627
 30
0.0
 10
134.2043836470045
 20
-150.7249945369715
 30
0.0
 10
134.0796711904384
 20
-150.7249945369715
 30
0.0
  0
HATCH
  5
161
330
150
100
AcDbEntity
  8
レイヤー 1
 62
    18
420
        0
440
 33554687
100
AcDbHatch
 10
0.0
 20
0.0
 30
0.0
210
0.0
220
0.0
230
1.0
  2
SOLID
 70
     1
 71
     1
 91
        1
 92
        1
 93
        1
 72
     4
 94
        3
 73
     0
 74
     0
 95
       29
 96
       25
 40
0.0
 40
0.0
 40
0.0
 40
0.0
 40
1.0
 40
1.0
 40
1.0
 40
2.0
 40
2.0
 40
2.0
 40
3.0
 40
3.0
 40
3.0
 40
4.0
 40
4.0
 40
4.0
 40
5.0
 40
5.0
 40
5.0
 40
6.0
 40
6.0
 40
6.0
 40
7.0
 40
7.0
 40
7.0
 40
8.0
 40
8.0
 40
8.0
 40
8.0
 10
134.0796711904384
 20
-150.7249945369715
 10
134.0796711904384
 20
-150.7249945369715
 10
133.5952907652123
 20
-150.7249945369715
 10
133.5952907652123
 20
-150.7249945369715
 10
133.5677300013303
 20
-150.7249945369715
 10
133.2504367071388
 20
-150.7249945369715
 10
133.0389078443444
 20
-150.7504882435624
 10
133.0389078443444
 20
-150.7504882435624
 10
133.0389078443444
 20
-150.5196668460506
 10
133.0389078443444
 20
-150.5196668460506
 10
133.1973822366659
 20
-150.5430934953503
 10
133.3878960170002
 20
-150.5451605526415
 10
133.5952907652123
 20
-150.5451605526415
 10
133.5952907652123
 20
-150.5451605526415
 10
134.0796711904384
 20
-150.5451605526415
 10
134.0796711904384
 20
-150.5451605526415
 10
134.2657063466419
 20
-150.5451605526415
 10
134.4517415028454
 20
-150.5430934953503
 10
134.6360541113062
 20
-150.5196668460506
 10
134.6360541113062
 20
-150.5196668460506
 10
134.6360541113062
 20
-150.7504882435624
 10
134.6360541113062
 20
-150.7504882435624
 10
134.4517415028454
 20
-150.7270615942627
 10
134.2043836470045
 20
-150.7249945369715
 10
134.0796711904384
 20
-150.7249945369715
 97
        0
 97
        1
330
160
 75
     2
 76
     1
 98
        1
 10
0.0
 20
0.0
450
        0
451
        0
460
0.0
461
0.0
452
        0
462
0.0
453
        0
470

  0
SPLINE
  5
162
330
150
100
AcDbEntity
  8
レイヤー 1
100
AcDbSpline
210
0.0
220
0.0
230
1.0
 70
     9
 71
     3
 72
    47
 73
    43
 74
     0
 42
0.0000000001
 43
0.0000000001
 40
0.0
 40
0.0
 40
0.0
 40
0.0
 40
1.0
 40
1.0
 40
1.0
 40
2.0
 40
2.0
 40
2.0
 40
3.0
 40
3.0
 40
3.0
 40
4.0
 40
4.0
 40
4.0
 40
5.0
 40
5.0
 40
5.0
 40
6.0
 40
6.0
 40
6.0
 40
7.0
 40
7.0
 40
7.0
 40
8.0
 40
8.0
 40
8.0
 40
9.0
 40
9.0
 40
9.0
 40
10.0
 40
10.0
 40
10.0
 40
11.0
 40
11.0
 40
11.0
 40
12.0
 40
12.0
 40
12.0
 40
13.0
 40
13.0
 40
13.0
 40
14.0
 40
14.0
 40
14.0
 40
14.0
 10
136.2996907211334
 20
-150.1307155657659
 30
0.0
 10
136.2300997923314
 20
-150.4097683000711
 30
0.0
 10
136.1536186725588
 20
-150.7143147409673
 30
0.0
 10
135.8408040024981
 20
-151.0464219457453
 30
0.0
 10
135.6037814331129
 20
-151.2961913684259
 30
0.0
 10
135.3584906345631
 20
-151.3957546279497
 30
0.0
 10
135.252726203166
 20
-151.4377847928697
 30
0.0
 10
135.252726203166
 20
-151.4377847928697
 30
0.0
 10
135.0580783082494
 20
-151.2558837512485
 30
0.0
 10
135.0580783082494
 20
-151.2558837512485
 30
0.0
 10
135.2441134644529
 20
-151.2093749621977
 30
0.0
 10
135.6058484904041
 20
-151.1163573840959
 30
0.0
 10
135.9021267021355
 20
-150.6212971628655
 30
0.0
 10
136.0626681517482
 20
-150.3546467723072
 30
0.0
 10
136.0754150050436
 20
-150.1813584693991
 30
0.0
 10
136.0840277437567
 20
-150.0904079485885
 30
0.0
 10
136.0840277437567
 20
-150.0904079485885
 30
0.0
 10
135.5782877265221
 20
-150.0904079485885
 30
0.0
 10
135.5782877265221
 20
-150.0904079485885
 30
0.0
 10
135.4597764418295
 20
-150.0904079485885
 30
0.0
 10
135.0387857735319
 20
-150.1093559737574
 30
0.0
 10
134.8865125530839
 20
-150.1200357697616
 30
0.0
 10
134.8865125530839
 20
-150.1200357697616
 30
0.0
 10
134.8865125530839
 20
-149.9105739642585
 30
0.0
 10
134.8865125530839
 20
-149.9105739642585
 30
0.0
 10
135.0284504870762
 20
-149.9233208175539
 30
0.0
 10
135.3054361640903
 20
-149.9274549321362
 30
0.0
 10
135.4218803914917
 20
-149.9274549321362
 30
0.0
 10
135.4218803914917
 20
-149.9274549321362
 30
0.0
 10
135.777069736021
 20
-149.9274549321362
 30
0.0
 10
135.777069736021
 20
-149.9274549321362
 30
0.0
 10
135.804630499903
 20
-149.9274549321362
 30
0.0
 10
135.9655164590642
 20
-149.925387874845
 30
0.0
 10
136.0754150050436
 20
-149.9105739642585
 30
0.0
 10
136.1326035900988
 20
-149.904372792385
 30
0.0
 10
136.1494845579765
 20
-149.8850802576676
 30
0.0
 10
136.1729112072762
 20
-149.8619981179164
 30
0.0
 10
136.1729112072762
 20
-149.8619981179164
 30
0.0
 10
136.3610134207708
 20
-150.0122042810733
 30
0.0
 10
136.3610134207708
 20
-150.0122042810733
 30
0.0
 10
136.3461995101842
 20
-150.0418321022465
 30
0.0
 10
136.3358642237285
 20
-150.0607801274153
 30
0.0
 10
136.2996907211334
 20
-150.1307155657659
 30
0.0
  0
HATCH
  5
163
330
150
100
AcDbEntity
  8
レイヤー 1
 62
    18
420
        0
440
 33554687
100
AcDbHatch
 10
0.0
 20
0.0
 30
0.0
210
0.0
220
0.0
230
1.0
  2
SOLID
 70
     1
 71
     1
 91
        1
 92
        1
 93
        1
 72
     4
 94
        3
 73
     0
 74
     0
 95
       47
 96
       43
 40
0.0
 40
0.0
 40
0.0
 40
0.0
 40
1.0
 40
1.0
 40
1.0
 40
2.0
 40
2.0
 40
2.0
 40
3.0
 40
3.0
 40
3.0
 40
4.0
 40
4.0
 40
4.0
 40
5.0
 40
5.0
 40
5.0
 40
6.0
 40
6.0
 40
6.0
 40
7.0
 40
7.0
 40
7.0
 40
8.0
 40
8.0
 40
8.0
 40
9.0
 40
9.0
 40
9.0
 40
10.0
 40
10.0
 40
10.0
 40
11.0
 40
11.0
 40
11.0
 40
12.0
 40
12.0
 40
12.0
 40
13.0
 40
13.0
 40
13.0
 40
14.0
 40
14.0
 40
14.0
 40
14.0
 10
136.2996907211334
 20
-150.1307155657659
 10
136.2300997923314
 20
-150.4097683000711
 10
136.1536186725588
 20
-150.7143147409673
 10
135.8408040024981
 20
-151.0464219457453
 10
135.6037814331129
 20
-151.2961913684259
 10
135.3584906345631
 20
-151.3957546279497
 10
135.252726203166
 20
-151.4377847928697
 10
135.252726203166
 20
-151.4377847928697
 10
135.0580783082494
 20
-151.2558837512485
 10
135.0580783082494
 20
-151.2558837512485
 10
135.2441134644529
 20
-151.2093749621977
 10
135.6058484904041
 20
-151.1163573840959
 10
135.9021267021355
 20
-150.6212971628655
 10
136.0626681517482
 20
-150.3546467723072
 10
136.0754150050436
 20
-150.1813584693991
 10
136.0840277437567
 20
-150.0904079485885
 10
136.0840277437567
 20
-150.0904079485885
 10
135.5782877265221
 20
-150.0904079485885
 10
135.5782877265221
 20
-150.0904079485885
 10
135.4597764418295
 20
-150.0904079485885
 10
135.0387857735319
 20
-150.1093559737574
 10
134.8865125530839
 20
-150.1200357697616
 10
134.8865125530839
 20
-150.1200357697616
 10
134.8865125530839
 20
-149.9105739642585
 10
134.8865125530839
 20
-149.9105739642585
 10
135.0284504870762
 20
-149.9233208175539
 10
135.3054361640903
 20
-149.9274549321362
 10
135.4218803914917
 20
-149.9274549321362
 10
135.4218803914917
 20
-149.9274549321362
 10
135.777069736021
 20
-149.9274549321362
 10
135.777069736021
 20
-149.9274549321362
 10
135.804630499903
 20
-149.9274549321362
 10
135.9655164590642
 20
-149.925387874845
 10
136.0754150050436
 20
-149.9105739642585
 10
136.1326035900988
 20
-149.904372792385
 10
136.1494845579765
 20
-149.8850802576676
 10
136.1729112072762
 20
-149.8619981179164
 10
136.1729112072762
 20
-149.8619981179164
 10
136.3610134207708
 20
-150.0122042810733
 10
136.3610134207708
 20
-150.0122042810733
 10
136.3461995101842
 20
-150.0418321022465
 10
136.3358642237285
 20
-150.0607801274153
 10
136.2996907211334
 20
-150.1307155657659
 97
        0
 97
        1
330
162
 75
     2
 76
     1
 98
        1
 10
0.0
 20
0.0
450
        0
451
        0
460
0.0
461
0.0
452
        0
462
0.0
453
        0
470

  0
SPLINE
  5
164
330
150
100
AcDbEntity
  8
レイヤー 1
100
AcDbSpline
210
0.0
220
0.0
230
1.0
 70
    11
 71
     3
 72
    17
 73
    13
 74
     0
 42
0.0000000001
 43
0.0000000001
 40
0.0
 40
0.0
 40
0.0
 40
0.0
 40
1.0
 40
1.0
 40
1.0
 40
2.0
 40
2.0
 40
2.0
 40
3.0
 40
3.0
 40
3.0
 40
4.0
 40
4.0
 40
4.0
 40
4.0
 10
136.6900200396122
 20
-149.9126410215496
 30
0.0
 10
136.6900200396122
 20
-149.9718966638959
 30
0.0
 10
136.7365288286631
 20
-150.0184054529468
 30
0.0
 10
136.7957844710094
 20
-150.0184054529468
 30
0.0
 10
136.8550401133557
 20
-150.0184054529468
 30
0.0
 10
136.9036159596977
 20
-149.9718966638959
 30
0.0
 10
136.9036159596977
 20
-149.9126410215496
 30
0.0
 10
136.9036159596977
 20
-149.8533853792033
 30
0.0
 10
136.8550401133557
 20
-149.8048095328613
 30
0.0
 10
136.7957844710094
 20
-149.8048095328613
 30
0.0
 10
136.7365288286631
 20
-149.8048095328613
 30
0.0
 10
136.6900200396122
 20
-149.8533853792033
 30
0.0
 10
136.6900200396122
 20
-149.9126410215496
 30
0.0
  0
SPLINE
  5
165
330
150
100
AcDbEntity
  8
レイヤー 1
100
AcDbSpline
210
0.0
220
0.0
230
1.0
 70
     9
 71
     3
 72
    17
 73
    13
 74
     0
 42
0.0000000001
 43
0.0000000001
 40
0.0
 40
0.0
 40
0.0
 40
0.0
 40
1.0
 40
1.0
 40
1.0
 40
2.0
 40
2.0
 40
2.0
 40
3.0
 40
3.0
 40
3.0
 40
4.0
 40
4.0
 40
4.0
 40
4.0
 10
137.0052462765126
 20
-149.9126410215496
 30
0.0
 10
137.0052462765126
 20
-150.0270181916599
 30
0.0
 10
136.9122286984108
 20
-150.1221028270528
 30
0.0
 10
136.7957844710094
 20
-150.1221028270528
 30
0.0
 10
136.6814073008991
 20
-150.1221028270528
 30
0.0
 10
136.5863226655062
 20
-150.0270181916599
 30
0.0
 10
136.5863226655062
 20
-149.9126410215496
 30
0.0
 10
136.5863226655062
 20
-149.7961967941482
 30
0.0
 10
136.6814073008991
 20
-149.7031792160464
 30
0.0
 10
136.7957844710094
 20
-149.7031792160464
 30
0.0
 10
136.9101616411197
 20
-149.7031792160464
 30
0.0
 10
137.0052462765126
 20
-149.7961967941482
 30
0.0
 10
137.0052462765126
 20
-149.9126410215496
 30
0.0
  0
HATCH
  5
166
330
150
100
AcDbEntity
  8
レイヤー 1
 62
    18
420
        0
440
 33554687
100
AcDbHatch
 10
0.0
 20
0.0
 30
0.0
210
0.0
220
0.0
230
1.0
  2
SOLID
 70
     1
 71
     1
 91
        2
 92
        1
 93
        1
 72
     4
 94
        3
 73
     0
 74
     0
 95
       17
 96
       13
 40
0.0
 40
0.0
 40
0.0
 40
0.0
 40
1.0
 40
1.0
 40
1.0
 40
2.0
 40
2.0
 40
2.0
 40
3.0
 40
3.0
 40
3.0
 40
4.0
 40
4.0
 40
4.0
 40
4.0
 10
136.6900200396122
 20
-149.9126410215496
 10
136.6900200396122
 20
-149.9718966638959
 10
136.7365288286631
 20
-150.0184054529468
 10
136.7957844710094
 20
-150.0184054529468
 10
136.8550401133557
 20
-150.0184054529468
 10
136.9036159596977
 20
-149.9718966638959
 10
136.9036159596977
 20
-149.9126410215496
 10
136.9036159596977
 20
-149.8533853792033
 10
136.8550401133557
 20
-149.8048095328613
 10
136.7957844710094
 20
-149.8048095328613
 10
136.7365288286631
 20
-149.8048095328613
 10
136.6900200396122
 20
-149.8533853792033
 10
136.6900200396122
 20
-149.9126410215496
 97
        0
 97
        1
330
164
 92
        1
 93
        1
 72
     4
 94
        3
 73
     0
 74
     0
 95
       17
 96
       13
 40
0.0
 40
0.0
 40
0.0
 40
0.0
 40
1.0
 40
1.0
 40
1.0
 40
2.0
 40
2.0
 40
2.0
 40
3.0
 40
3.0
 40
3.0
 40
4.0
 40
4.0
 40
4.0
 40
4.0
 10
137.0052462765126
 20
-149.9126410215496
 10
137.0052462765126
 20
-150.0270181916599
 10
136.9122286984108
 20
-150.1221028270528
 10
136.7957844710094
 20
-150.1221028270528
 10
136.6814073008991
 20
-150.1221028270528
 10
136.5863226655062
 20
-150.0270181916599
 10
136.5863226655062
 20
-149.9126410215496
 10
136.5863226655062
 20
-149.7961967941482
 10
136.6814073008991
 20
-149.7031792160464
 10
136.7957844710094
 20
-149.7031792160464
 10
136.9101616411197
 20
-149.7031792160464
 10
137.0052462765126
 20
-149.7961967941482
 10
137.0052462765126
 20
-149.9126410215496
 97
        0
 97
        1
330
165
 75
     2
 76
     1
 98
        1
 10
0.0
 20
0.0
450
        0
451
        0
460
0.0
461
0.0
452
        0
462
0.0
453
        0
470

  0
ENDBLK
  5
153
330
150
100
AcDbEntity
  8
0
100
AcDbBlockEnd
  0
ENDSEC
  0
SECTION
  2
ENTITIES
  0
LINE
  5
79
330
70
100
AcDbEntity
  8
レイヤー 1
 62
   250
420
  2299925
370
    25
100
AcDbLine
 10
109.2656197199228
 20
-154.1574851058963
 30
0.0
 11
97.26566900696312
 21
-154.1574851058963
 31
0.0
  0
LINE
  5
7A
330
70
100
AcDbEntity
  8
レイヤー 1
 62
   250
420
  2299925
370
    25
100
AcDbLine
 10
77.26482757278265
 20
-145.657375108021
 30
0.0
 11
77.26482757278265
 21
-146.1576139967847
 31
0.0
  0
LINE
  5
7B
330
70
100
AcDbEntity
  8
レイヤー 1
 62
   250
420
  2299925
370
    25
100
AcDbLine
 10
97.26566900696312
 20
-146.1576139967847
 30
0.0
 11
77.26482757278265
 21
-146.1576139967847
 31
0.0
  0
LINE
  5
7C
330
70
100
AcDbEntity
  8
レイヤー 1
 62
   250
420
  2299925
370
    25
100
AcDbLine
 10
77.26482757278265
 20
-145.657375108021
 30
0.0
 11
77.77847200412293
 21
-146.0394687190365
 31
0.0
  0
LINE
  5
7D
330
70
100
AcDbEntity
  8
レイヤー 1
 62
   250
420
  2299925
370
    25
100
AcDbLine
 10
77.77847200412293
 20
-146.0394687190365
 30
0.0
 11
78.263894213961
 21
-145.6219209413634
 31
0.0
  0
LINE
  5
7E
330
70
100
AcDbEntity
  8
レイヤー 1
 62
   250
420
  2299925
370
    25
100
AcDbLine
 10
78.77792670084693
 20
-146.0039792746011
 30
0.0
 11
79.26331363290845
 21
-145.5860787191501
 31
0.0
  0
LINE
  5
7F
330
70
100
AcDbEntity
  8
レイヤー 1
 62
   250
420
  2299925
370
    25
100
AcDbLine
 10
78.263894213961
 20
-145.6219209413634
 30
0.0
 11
78.77792670084693
 21
-146.0039792746011
 31
0.0
  0
LINE
  5
80
330
70
100
AcDbEntity
  8
レイヤー 1
 62
   250
420
  2299925
370
    25
100
AcDbLine
 10
79.26331363290845
 20
-145.5860787191501
 30
0.0
 11
79.77734611979439
 21
-145.9681370523878
 31
0.0
  0
LINE
  5
81
330
70
100
AcDbEntity
  8
レイヤー 1
 62
   250
420
  2299925
370
    25
100
AcDbLine
 10
79.77734611979439
 20
-145.9681370523878
 30
0.0
 11
80.26273305185526
 21
-145.5505892747143
 31
0.0
  0
LINE
  5
82
330
70
100
AcDbEntity
  8
レイヤー 1
 62
   250
420
  2299925
370
    25
100
AcDbLine
 10
80.26273305185526
 20
-145.5505892747143
 30
0.0
 11
80.7767655387412
 21
-145.9322948301745
 31
0.0
  0
LINE
  5
83
330
70
100
AcDbEntity
  8
レイヤー 1
 62
   250
420
  2299925
370
    25
100
AcDbLine
 10
80.7767655387412
 20
-145.9322948301745
 30
0.0
 11
81.26183497081081
 21
-145.5147823302789
 31
0.0
  0
LINE
  5
84
330
70
100
AcDbEntity
  8
レイヤー 1
 62
   250
420
  2299925
370
    25
100
AcDbLine
 10
81.26183497081081
 20
-145.5147823302789
 30
0.0
 11
81.77583217991955
 21
-145.8964878857391
 31
0.0
  0
LINE
  5
85
330
70
100
AcDbEntity
  8
レイヤー 1
 62
   250
420
  2299925
370
    25
100
AcDbLine
 10
81.77583217991955
 20
-145.8964878857391
 30
0.0
 11
82.26160716752639
 21
-145.4789401080657
 31
0.0
  0
LINE
  5
86
330
70
100
AcDbEntity
  8
レイヤー 1
 62
   250
420
  2299925
370
    25
100
AcDbLine
 10
82.26160716752639
 20
-145.4789401080657
 30
0.0
 11
82.77560437663545
 21
-145.8609984413033
 31
0.0
  0
LINE
  5
87
330
70
100
AcDbEntity
  8
レイヤー 1
 62
   250
420
  2299925
370
    25
100
AcDbLine
 10
82.77560437663545
 20
-145.8609984413033
 30
0.0
 11
83.26067380870474
 21
-145.4434506636301
 31
0.0
  0
LINE
  5
88
330
70
100
AcDbEntity
  8
レイヤー 1
 62
   250
420
  2299925
370
    25
100
AcDbLine
 10
83.26067380870474
 20
-145.4434506636301
 30
0.0
 11
83.77467101781382
 21
-145.8255089968679
 31
0.0
  0
LINE
  5
89
330
70
100
AcDbEntity
  8
レイヤー 1
 62
   250
420
  2299925
370
    25
100
AcDbLine
 10
83.77467101781382
 20
-145.8255089968679
 30
0.0
 11
84.26009322765187
 21
-145.4076084414169
 31
0.0
  0
LINE
  5
8A
330
70
100
AcDbEntity
  8
レイヤー 1
 62
   250
420
  2299925
370
    25
100
AcDbLine
 10
84.77409043676095
 20
-145.7896667746546
 30
0.0
 11
85.25951264659902
 21
-145.3721542747593
 31
0.0
  0
LINE
  5
8B
330
70
100
AcDbEntity
  8
レイヤー 1
 62
   250
420
  2299925
370
    25
100
AcDbLine
 10
84.26009322765187
 20
-145.4076084414169
 30
0.0
 11
84.77409043676095
 21
-145.7896667746546
 31
0.0
  0
LINE
  5
8C
330
70
100
AcDbEntity
  8
レイヤー 1
 62
   250
420
  2299925
370
    25
100
AcDbLine
 10
85.25951264659902
 20
-145.3721542747593
 30
0.0
 11
85.77350985570808
 21
-145.7538598302192
 31
0.0
  0
LINE
  5
8D
330
70
100
AcDbEntity
  8
レイヤー 1
 62
   250
420
  2299925
370
    25
100
AcDbLine
 10
85.77350985570808
 20
-145.7538598302192
 30
0.0
 11
86.25893206554646
 21
-145.336312052546
 31
0.0
  0
LINE
  5
8E
330
70
100
AcDbEntity
  8
レイヤー 1
 62
   250
420
  2299925
370
    25
100
AcDbLine
 10
86.77261177466331
 20
-145.718017608006
 30
0.0
 11
87.25835148449327
 21
-145.3004698303328
 31
0.0
  0
LINE
  5
8F
330
70
100
AcDbEntity
  8
レイヤー 1
 62
   250
420
  2299925
370
    25
100
AcDbLine
 10
86.25893206554646
 20
-145.336312052546
 30
0.0
 11
86.77261177466331
 21
-145.718017608006
 31
0.0
  0
LINE
  5
90
330
70
100
AcDbEntity
  8
レイヤー 1
 62
   250
420
  2299925
370
    25
100
AcDbLine
 10
87.77238397137891
 20
-145.6825281635701
 30
0.0
 11
88.2574534034485
 21
-145.264980385897
 31
0.0
  0
LINE
  5
91
330
70
100
AcDbEntity
  8
レイヤー 1
 62
   250
420
  2299925
370
    25
100
AcDbLine
 10
87.25835148449327
 20
-145.3004698303328
 30
0.0
 11
87.77238397137891
 21
-145.6825281635701
 31
0.0
  0
LINE
  5
92
330
70
100
AcDbEntity
  8
レイヤー 1
 62
   250
420
  2299925
370
    25
100
AcDbLine
 10
88.2574534034485
 20
-145.264980385897
 30
0.0
 11
88.77145061255758
 21
-145.6470739969125
 31
0.0
  0
LINE
  5
93
330
70
100
AcDbEntity
  8
レイヤー 1
 62
   250
420
  2299925
370
    25
100
AcDbLine
 10
88.77145061255758
 20
-145.6470739969125
 30
0.0
 11
89.25719032238754
 21
-145.2291734414616
 31
0.0
  0
LINE
  5
94
330
70
100
AcDbEntity
  8
レイヤー 1
 62
   250
420
  2299925
370
    25
100
AcDbLine
 10
89.25719032238754
 20
-145.2291734414616
 30
0.0
 11
89.77087003150501
 21
-145.6112317746992
 31
0.0
  0
LINE
  5
95
330
70
100
AcDbEntity
  8
レイヤー 1
 62
   250
420
  2299925
370
    25
100
AcDbLine
 10
89.77087003150501
 20
-145.6112317746992
 30
0.0
 11
90.25629224134275
 21
-145.1936839970257
 31
0.0
  0
LINE
  5
96
330
70
100
AcDbEntity
  8
レイヤー 1
 62
   250
420
  2299925
370
    25
100
AcDbLine
 10
90.25629224134275
 20
-145.1936839970257
 30
0.0
 11
90.77028945045183
 21
-145.575389552486
 31
0.0
  0
LINE
  5
97
330
70
100
AcDbEntity
  8
レイヤー 1
 62
   250
420
  2299925
370
    25
100
AcDbLine
 10
90.77028945045183
 20
-145.575389552486
 30
0.0
 11
91.2557116602899
 21
-145.1578417748125
 31
0.0
  0
LINE
  5
98
330
70
100
AcDbEntity
  8
レイヤー 1
 62
   250
420
  2299925
370
    25
100
AcDbLine
 10
91.2557116602899
 20
-145.1578417748125
 30
0.0
 11
91.76970886939896
 21
-145.5395826080506
 31
0.0
  0
LINE
  5
99
330
70
100
AcDbEntity
  8
レイヤー 1
 62
   250
420
  2299925
370
    25
100
AcDbLine
 10
91.76970886939896
 20
-145.5395826080506
 30
0.0
 11
92.25513107923703
 21
-145.1220348303771
 31
0.0
  0
LINE
  5
9A
330
70
100
AcDbEntity
  8
レイヤー 1
 62
   250
420
  2299925
370
    25
100
AcDbLine
 10
92.25513107923703
 20
-145.1220348303771
 30
0.0
 11
92.76912828834609
 21
-145.5040931636148
 31
0.0
  0
LINE
  5
9B
330
70
100
AcDbEntity
  8
レイヤー 1
 62
   250
420
  2299925
370
    25
100
AcDbLine
 10
92.76912828834609
 20
-145.5040931636148
 30
0.0
 11
93.25419772041538
 21
-145.0865453859416
 31
0.0
  0
LINE
  5
9C
330
70
100
AcDbEntity
  8
レイヤー 1
 62
   250
420
  2299925
370
    25
100
AcDbLine
 10
93.25419772041538
 20
-145.0865453859416
 30
0.0
 11
93.76819492952444
 21
-145.4686037191796
 31
0.0
  0
LINE
  5
9D
330
70
100
AcDbEntity
  8
レイヤー 1
 62
   250
420
  2299925
370
    25
100
AcDbLine
 10
93.76819492952444
 20
-145.4686037191796
 30
0.0
 11
94.25396991713098
 21
-145.0507031637283
 31
0.0
  0
LINE
  5
9E
330
70
100
AcDbEntity
  8
レイヤー 1
 62
   250
420
  2299925
370
    25
100
AcDbLine
 10
94.25396991713098
 20
-145.0507031637283
 30
0.0
 11
94.76796712624068
 21
-145.4327614969663
 31
0.0
  0
LINE
  5
9F
330
70
100
AcDbEntity
  8
レイヤー 1
 62
   250
420
  2299925
370
    25
100
AcDbLine
 10
94.76796712624068
 20
-145.4327614969663
 30
0.0
 11
95.25303655830965
 21
-145.0152137192926
 31
0.0
  0
LINE
  5
A0
330
70
100
AcDbEntity
  8
レイヤー 1
 62
   250
420
  2299925
370
    25
100
AcDbLine
 10
95.25303655830965
 20
-145.0152137192926
 30
0.0
 11
95.76706904519559
 21
-145.3969545525306
 31
0.0
  0
LINE
  5
A1
330
70
100
AcDbEntity
  8
レイヤー 1
 62
   250
420
  2299925
370
    25
100
AcDbLine
 10
95.76706904519559
 20
-145.3969545525306
 30
0.0
 11
96.25213847726488
 21
-144.9794067748575
 31
0.0
  0
LINE
  5
A2
330
70
100
AcDbEntity
  8
レイヤー 1
 62
   250
420
  2299925
370
    25
100
AcDbLine
 10
96.25213847726488
 20
-144.9794067748575
 30
0.0
 11
96.76613568637394
 21
-145.3611123303174
 31
0.0
  0
LINE
  5
A3
330
70
100
AcDbEntity
  8
レイヤー 1
 62
   250
420
  2299925
370
    25
100
AcDbLine
 10
96.76613568637394
 20
-145.3611123303174
 30
0.0
 11
97.25187539620391
 21
-144.9435645526439
 31
0.0
  0
LINE
  5
A4
330
70
100
AcDbEntity
  8
レイヤー 1
 62
   250
420
  2299925
370
    25
100
AcDbLine
 10
97.31628054563513
 20
-144.8953398304341
 30
0.0
 11
98.26611148143969
 21
-144.8953398304341
 31
0.0
  0
LINE
  5
A5
330
70
100
AcDbEntity
  8
レイヤー 1
 62
   250
420
  2299925
370
    25
100
AcDbLine
 10
98.26611148143969
 20
-144.8953398304341
 30
0.0
 11
98.26611148143969
 21
-153.157360106146
 31
0.0
  0
LINE
  5
A6
330
70
100
AcDbEntity
  8
レイヤー 1
 62
   250
420
  2299925
370
    25
100
AcDbLine
 10
97.26566900696312
 20
-146.1576139967847
 30
0.0
 11
97.26566900696312
 21
-154.1574851058963
 31
0.0
  0
LINE
  5
A7
330
70
100
AcDbEntity
  8
レイヤー 1
 62
   250
420
  2299925
370
    25
100
AcDbLine
 10
108.2658474979509
 20
-153.157360106146
 30
0.0
 11
98.26611148143969
 21
-153.157360106146
 31
0.0
  0
LINE
  5
A8
330
70
100
AcDbEntity
  8
レイヤー 1
 62
   250
420
  2299925
370
    25
100
AcDbLine
 10
119.2736395566044
 20
-145.3004698303328
 30
0.0
 11
118.7596070697185
 21
-145.6825281635701
 31
0.0
  0
LINE
  5
A9
330
70
100
AcDbEntity
  8
レイヤー 1
 62
   250
420
  2299925
370
    25
100
AcDbLine
 10
124.2703838735713
 20
-145.4789401080657
 30
0.0
 11
123.7563866644622
 21
-145.8609984413033
 31
0.0
  0
LINE
  5
AA
330
70
100
AcDbEntity
  8
レイヤー 1
 62
   250
420
  2299925
370
    25
100
AcDbLine
 10
119.7587089886737
 20
-145.718017608006
 30
0.0
 11
119.2736395566044
 21
-145.3004698303328
 31
0.0
  0
LINE
  5
AB
330
70
100
AcDbEntity
  8
レイヤー 1
 62
   250
420
  2299925
370
    25
100
AcDbLine
 10
120.7584811853896
 20
-145.7538598302192
 30
0.0
 11
120.2727061977828
 21
-145.336312052546
 31
0.0
  0
LINE
  5
AC
330
70
100
AcDbEntity
  8
レイヤー 1
 62
   250
420
  2299925
370
    25
100
AcDbLine
 10
118.7596070697185
 20
-145.6825281635701
 30
0.0
 11
118.2738673598885
 21
-145.264980385897
 31
0.0
  0
LINE
  5
AD
330
70
100
AcDbEntity
  8
レイヤー 1
 62
   250
420
  2299925
370
    25
100
AcDbLine
 10
120.2727061977828
 20
-145.336312052546
 30
0.0
 11
119.7587089886737
 21
-145.718017608006
 31
0.0
  0
LINE
  5
AE
330
70
100
AcDbEntity
  8
レイヤー 1
 62
   250
420
  2299925
370
    25
100
AcDbLine
 10
128.2680968271367
 20
-145.6219209413634
 30
0.0
 11
127.7540643402508
 21
-146.0039792746011
 31
0.0
  0
LINE
  5
AF
330
70
100
AcDbEntity
  8
レイヤー 1
 62
   250
420
  2299925
370
    25
100
AcDbLine
 10
121.2724783944987
 20
-145.3721542747593
 30
0.0
 11
120.7584811853896
 21
-145.7538598302192
 31
0.0
  0
LINE
  5
B0
330
70
100
AcDbEntity
  8
レイヤー 1
 62
   250
420
  2299925
370
    25
100
AcDbLine
 10
122.271545035677
 20
-145.4076084414169
 30
0.0
 11
121.757547826568
 21
-145.7896667746546
 31
0.0
  0
LINE
  5
B1
330
70
100
AcDbEntity
  8
レイヤー 1
 62
   250
420
  2299925
370
    25
100
AcDbLine
 10
108.2658474979509
 20
-144.8953398304341
 30
0.0
 11
108.2658474979509
 21
-153.157360106146
 31
0.0
  0
LINE
  5
B2
330
70
100
AcDbEntity
  8
レイヤー 1
 62
   250
420
  2299925
370
    25
100
AcDbLine
 10
121.757547826568
 20
-145.7896667746546
 30
0.0
 11
121.2724783944987
 21
-145.3721542747593
 31
0.0
  0
LINE
  5
B3
330
70
100
AcDbEntity
  8
レイヤー 1
 62
   250
420
  2299925
370
    25
100
AcDbLine
 10
122.7573200232839
 20
-145.8255089968679
 30
0.0
 11
122.271545035677
 21
-145.4076084414169
 31
0.0
  0
LINE
  5
B4
330
70
100
AcDbEntity
  8
レイヤー 1
 62
   250
420
  2299925
370
    25
100
AcDbLine
 10
127.7540643402508
 20
-146.0039792746011
 30
0.0
 11
127.2683246304208
 21
-145.5860787191501
 31
0.0
  0
LINE
  5
B5
330
70
100
AcDbEntity
  8
レイヤー 1
 62
   250
420
  2299925
370
    25
100
AcDbLine
 10
123.2706469546323
 20
-145.4434506636301
 30
0.0
 11
122.7573200232839
 21
-145.8255089968679
 31
0.0
  0
LINE
  5
B6
330
70
100
AcDbEntity
  8
レイヤー 1
 62
   250
420
  2299925
370
    25
100
AcDbLine
 10
123.7563866644622
 20
-145.8609984413033
 30
0.0
 11
123.2706469546323
 21
-145.4434506636301
 31
0.0
  0
LINE
  5
B7
330
70
100
AcDbEntity
  8
レイヤー 1
 62
   250
420
  2299925
370
    25
100
AcDbLine
 10
128.753166259206
 20
-146.0394687190365
 30
0.0
 11
128.2680968271367
 21
-145.6219209413634
 31
0.0
  0
LINE
  5
B8
330
70
100
AcDbEntity
  8
レイヤー 1
 62
   250
420
  2299925
370
    25
100
AcDbLine
 10
125.2694857925265
 20
-145.5147823302789
 30
0.0
 11
124.7554533056406
 21
-145.8964878857391
 31
0.0
  0
LINE
  5
B9
330
70
100
AcDbEntity
  8
レイヤー 1
 62
   250
420
  2299925
370
    25
100
AcDbLine
 10
126.2692579892424
 20
-145.5505892747143
 30
0.0
 11
125.7552255023565
 21
-145.9322948301745
 31
0.0
  0
LINE
  5
BA
330
70
100
AcDbEntity
  8
レイヤー 1
 62
   250
420
  2299925
370
    25
100
AcDbLine
 10
125.7552255023565
 20
-145.9322948301745
 30
0.0
 11
125.2694857925265
 21
-145.5147823302789
 31
0.0
  0
LINE
  5
BB
330
70
100
AcDbEntity
  8
レイヤー 1
 62
   250
420
  2299925
370
    25
100
AcDbLine
 10
129.267163468315
 20
-145.657375108021
 30
0.0
 11
128.753166259206
 21
-146.0394687190365
 31
0.0
  0
LINE
  5
BC
330
70
100
AcDbEntity
  8
レイヤー 1
 62
   250
420
  2299925
370
    25
100
AcDbLine
 10
124.7554533056406
 20
-145.8964878857391
 30
0.0
 11
124.2703838735713
 21
-145.4789401080657
 31
0.0
  0
LINE
  5
BD
330
70
100
AcDbEntity
  8
レイヤー 1
 62
   250
420
  2299925
370
    25
100
AcDbLine
 10
127.2683246304208
 20
-145.5860787191501
 30
0.0
 11
126.7543274213117
 21
-145.9681370523878
 31
0.0
  0
LINE
  5
BE
330
70
100
AcDbEntity
  8
レイヤー 1
 62
   250
420
  2299925
370
    25
100
AcDbLine
 10
126.7543274213117
 20
-145.9681370523878
 30
0.0
 11
126.2692579892424
 21
-145.5505892747143
 31
0.0
  0
LINE
  5
BF
330
70
100
AcDbEntity
  8
レイヤー 1
 62
   250
420
  2299925
370
    25
100
AcDbLine
 10
129.267163468315
 20
-145.657375108021
 30
0.0
 11
129.267163468315
 21
-146.1576139967847
 31
0.0
  0
LINE
  5
C0
330
70
100
AcDbEntity
  8
レイヤー 1
 62
   250
420
  2299925
370
    25
100
AcDbLine
 10
109.2656197199228
 20
-146.1576139967847
 30
0.0
 11
129.267163468315
 21
-146.1576139967847
 31
0.0
  0
LINE
  5
C1
330
70
100
AcDbEntity
  8
レイヤー 1
 62
   250
420
  2299925
370
    25
100
AcDbLine
 10
118.2738673598885
 20
-145.264980385897
 30
0.0
 11
117.7598701507795
 21
-145.6470739969125
 31
0.0
  0
LINE
  5
C2
330
70
100
AcDbEntity
  8
レイヤー 1
 62
   250
420
  2299925
370
    25
100
AcDbLine
 10
117.7598701507795
 20
-145.6470739969125
 30
0.0
 11
117.2748007187102
 21
-145.2291734414616
 31
0.0
  0
LINE
  5
C3
330
70
100
AcDbEntity
  8
レイヤー 1
 62
   250
420
  2299925
370
    25
100
AcDbLine
 10
117.2748007187102
 20
-145.2291734414616
 30
0.0
 11
116.7607682318242
 21
-145.6112317746992
 31
0.0
  0
LINE
  5
C4
330
70
100
AcDbEntity
  8
レイヤー 1
 62
   250
420
  2299925
370
    25
100
AcDbLine
 10
116.7607682318242
 20
-145.6112317746992
 30
0.0
 11
116.2756987997549
 21
-145.1936839970257
 31
0.0
  0
LINE
  5
C5
330
70
100
AcDbEntity
  8
レイヤー 1
 62
   250
420
  2299925
370
    25
100
AcDbLine
 10
116.2756987997549
 20
-145.1936839970257
 30
0.0
 11
115.7617015906459
 21
-145.575389552486
 31
0.0
  0
LINE
  5
C6
330
70
100
AcDbEntity
  8
レイヤー 1
 62
   250
420
  2299925
370
    25
100
AcDbLine
 10
115.7617015906459
 20
-145.575389552486
 30
0.0
 11
115.275926603039
 21
-145.1578417748125
 31
0.0
  0
LINE
  5
C7
330
70
100
AcDbEntity
  8
レイヤー 1
 62
   250
420
  2299925
370
    25
100
AcDbLine
 10
115.275926603039
 20
-145.1578417748125
 30
0.0
 11
114.7619293939299
 21
-145.5395826080506
 31
0.0
  0
LINE
  5
C8
330
70
100
AcDbEntity
  8
レイヤー 1
 62
   250
420
  2299925
370
    25
100
AcDbLine
 10
114.7619293939299
 20
-145.5395826080506
 30
0.0
 11
114.2768599618606
 21
-145.1220348303771
 31
0.0
  0
LINE
  5
C9
330
70
100
AcDbEntity
  8
レイヤー 1
 62
   250
420
  2299925
370
    25
100
AcDbLine
 10
114.2768599618606
 20
-145.1220348303771
 30
0.0
 11
113.7628627527516
 21
-145.5040931636148
 31
0.0
  0
LINE
  5
CA
330
70
100
AcDbEntity
  8
レイヤー 1
 62
   250
420
  2299925
370
    25
100
AcDbLine
 10
113.7628627527516
 20
-145.5040931636148
 30
0.0
 11
113.2770877651448
 21
-145.0865453859416
 31
0.0
  0
LINE
  5
CB
330
70
100
AcDbEntity
  8
レイヤー 1
 62
   250
420
  2299925
370
    25
100
AcDbLine
 10
113.2770877651448
 20
-145.0865453859416
 30
0.0
 11
112.7630905560357
 21
-145.4686037191796
 31
0.0
  0
LINE
  5
CC
330
70
100
AcDbEntity
  8
レイヤー 1
 62
   250
420
  2299925
370
    25
100
AcDbLine
 10
112.7630905560357
 20
-145.4686037191796
 30
0.0
 11
112.2780211239664
 21
-145.0507031637283
 31
0.0
  0
LINE
  5
CD
330
70
100
AcDbEntity
  8
レイヤー 1
 62
   250
420
  2299925
370
    25
100
AcDbLine
 10
112.2780211239664
 20
-145.0507031637283
 30
0.0
 11
111.7640239148573
 21
-145.4327614969663
 31
0.0
  0
LINE
  5
CE
330
70
100
AcDbEntity
  8
レイヤー 1
 62
   250
420
  2299925
370
    25
100
AcDbLine
 10
111.7640239148573
 20
-145.4327614969663
 30
0.0
 11
111.278954482788
 21
-145.0152137192926
 31
0.0
  0
LINE
  5
CF
330
70
100
AcDbEntity
  8
レイヤー 1
 62
   250
420
  2299925
370
    25
100
AcDbLine
 10
111.278954482788
 20
-145.0152137192926
 30
0.0
 11
110.7649252751035
 21
-145.3969545525306
 31
0.0
  0
LINE
  5
D0
330
70
100
AcDbEntity
  8
レイヤー 1
 62
   250
420
  2299925
370
    25
100
AcDbLine
 10
110.7649252751035
 20
-145.3969545525306
 30
0.0
 11
110.2791822860721
 21
-144.9794067748575
 31
0.0
  0
LINE
  5
D1
330
70
100
AcDbEntity
  8
レイヤー 1
 62
   250
420
  2299925
370
    25
100
AcDbLine
 10
110.2791822860721
 20
-144.9794067748575
 30
0.0
 11
109.7651530531317
 21
-145.3611123303174
 31
0.0
  0
LINE
  5
D2
330
70
100
AcDbEntity
  8
レイヤー 1
 62
   250
420
  2299925
370
    25
100
AcDbLine
 10
109.7651530531317
 20
-145.3611123303174
 30
0.0
 11
109.2800836088085
 21
-144.9435645526439
 31
0.0
  0
LINE
  5
D3
330
70
100
AcDbEntity
  8
レイヤー 1
 62
   250
420
  2299925
370
    25
100
AcDbLine
 10
109.2036190254944
 20
-144.8953398304341
 30
0.0
 11
108.2658474979509
 21
-144.8953398304341
 31
0.0
  0
LINE
  5
D4
330
70
100
AcDbEntity
  8
レイヤー 1
 62
   250
420
  2299925
370
    25
100
AcDbLine
 10
109.2656197199228
 20
-146.1576139967847
 30
0.0
 11
109.2656197199228
 21
-154.1574851058963
 31
0.0
  0
SPLINE
  5
D5
330
70
100
AcDbEntity
  8
レイヤー 1
 62
   250
420
  2299925
370
     9
100
AcDbSpline
210
0.0
220
0.0
230
1.0
 70
     9
 71
     3
 72
    17
 73
    13
 74
     0
 42
0.0000000001
 43
0.0000000001
 40
0.0
 40
0.0
 40
0.0
 40
0.0
 40
1.0
 40
1.0
 40
1.0
 40
2.0
 40
2.0
 40
2.0
 40
3.0
 40
3.0
 40
3.0
 40
4.0
 40
4.0
 40
4.0
 40
4.0
 10
77.36473423690047
 20
-140.8955806647671
 30
0.0
 10
77.36473423690047
 20
-140.8401239981138
 30
0.0
 10
77.31993146026603
 20
-140.7953212203477
 30
0.0
 10
77.26482757278265
 20
-140.7953212203477
 30
0.0
 10
77.20937090753079
 20
-140.7953212203477
 30
0.0
 10
77.16456813089603
 20
-140.8401239981138
 30
0.0
 10
77.16456813089603
 20
-140.8955806647671
 30
0.0
 10
77.16456813089603
 20
-140.9507198314199
 30
0.0
 10
77.20937090753079
 20
-140.9954873314088
 30
0.0
 10
77.26482757278265
 20
-140.9954873314088
 30
0.0
 10
77.31993146026603
 20
-140.9954873314088
 30
0.0
 10
77.36473423690047
 20
-140.9507198314199
 30
0.0
 10
77.36473423690047
 20
-140.8955806647671
 30
0.0
  0
SPLINE
  5
D6
330
70
100
AcDbEntity
  8
レイヤー 1
 62
   250
420
  2299925
370
     9
100
AcDbSpline
210
0.0
220
0.0
230
1.0
 70
     9
 71
     3
 72
    17
 73
    13
 74
     0
 42
0.0000000001
 43
0.0000000001
 40
0.0
 40
0.0
 40
0.0
 40
0.0
 40
1.0
 40
1.0
 40
1.0
 40
2.0
 40
2.0
 40
2.0
 40
3.0
 40
3.0
 40
3.0
 40
4.0
 40
4.0
 40
4.0
 40
4.0
 10
73.36462239450739
 20
-145.657375108021
 30
0.0
 10
73.36462239450739
 20
-145.6022712191458
 30
0.0
 10
73.31985489564949
 20
-145.5574684413794
 30
0.0
 10
73.26439823039766
 20
-145.5574684413794
 30
0.0
 10
73.20926139560349
 20
-145.5574684413794
 30
0.0
 10
73.16445861783709
 20
-145.6022712191458
 30
0.0
 10
73.16445861783709
 20
-145.657375108021
 30
0.0
 10
73.16445861783709
 20
-145.7125142746738
 30
0.0
 10
73.20926139560349
 20
-145.7573170524405
 30
0.0
 10
73.26439823039766
 20
-145.7573170524405
 30
0.0
 10
73.31985489564949
 20
-145.7573170524405
 30
0.0
 10
73.36462239450739
 20
-145.7125142746738
 30
0.0
 10
73.36462239450739
 20
-145.657375108021
 30
0.0
  0
SPLINE
  5
D7
330
70
100
AcDbEntity
  8
レイヤー 1
 62
   250
420
  2299925
370
     9
100
AcDbSpline
210
0.0
220
0.0
230
1.0
 70
     9
 71
     3
 72
    17
 73
    13
 74
     0
 42
0.0000000001
 43
0.0000000001
 40
0.0
 40
0.0
 40
0.0
 40
0.0
 40
1.0
 40
1.0
 40
1.0
 40
2.0
 40
2.0
 40
2.0
 40
3.0
 40
3.0
 40
3.0
 40
4.0
 40
4.0
 40
4.0
 40
4.0
 10
73.36462239450739
 20
-146.1576139967847
 30
0.0
 10
73.36462239450739
 20
-146.1025101079098
 30
0.0
 10
73.31985489564949
 20
-146.0577073301431
 30
0.0
 10
73.26439823039766
 20
-146.0577073301431
 30
0.0
 10
73.20926139560349
 20
-146.0577073301431
 30
0.0
 10
73.16445861783709
 20
-146.1025101079098
 30
0.0
 10
73.16445861783709
 20
-146.1576139967847
 30
0.0
 10
73.16445861783709
 20
-146.2127531634378
 30
0.0
 10
73.20926139560349
 20
-146.2575206634267
 30
0.0
 10
73.26439823039766
 20
-146.2575206634267
 30
0.0
 10
73.31985489564949
 20
-146.2575206634267
 30
0.0
 10
73.36462239450739
 20
-146.2127531634378
 30
0.0
 10
73.36462239450739
 20
-146.1576139967847
 30
0.0
  0
SPLINE
  5
D8
330
70
100
AcDbEntity
  8
レイヤー 1
 62
   250
420
  2299925
370
     9
100
AcDbSpline
210
0.0
220
0.0
230
1.0
 70
     9
 71
     3
 72
    17
 73
    13
 74
     0
 42
0.0000000001
 43
0.0000000001
 40
0.0
 40
0.0
 40
0.0
 40
0.0
 40
1.0
 40
1.0
 40
1.0
 40
2.0
 40
2.0
 40
2.0
 40
3.0
 40
3.0
 40
3.0
 40
4.0
 40
4.0
 40
4.0
 40
4.0
 10
73.36462239450739
 20
-154.1574851058963
 30
0.0
 10
73.36462239450739
 20
-154.1023459392432
 30
0.0
 10
73.31985489564949
 20
-154.057578439254
 30
0.0
 10
73.26439823039766
 20
-154.057578439254
 30
0.0
 10
73.20926139560349
 20
-154.057578439254
 30
0.0
 10
73.16445861783709
 20
-154.1023459392432
 30
0.0
 10
73.16445861783709
 20
-154.1574851058963
 30
0.0
 10
73.16445861783709
 20
-154.2125889947712
 30
0.0
 10
73.20926139560349
 20
-154.2573917725372
 30
0.0
 10
73.26439823039766
 20
-154.2573917725372
 30
0.0
 10
73.31985489564949
 20
-154.2573917725372
 30
0.0
 10
73.36462239450739
 20
-154.2125889947712
 30
0.0
 10
73.36462239450739
 20
-154.1574851058963
 30
0.0
  0
SPLINE
  5
D9
330
70
100
AcDbEntity
  8
レイヤー 1
 62
   250
420
  2299925
370
     9
100
AcDbSpline
210
0.0
220
0.0
230
1.0
 70
     9
 71
     3
 72
    17
 73
    13
 74
     0
 42
0.0000000001
 43
0.0000000001
 40
0.0
 40
0.0
 40
0.0
 40
0.0
 40
1.0
 40
1.0
 40
1.0
 40
2.0
 40
2.0
 40
2.0
 40
3.0
 40
3.0
 40
3.0
 40
4.0
 40
4.0
 40
4.0
 40
4.0
 10
98.36601814555754
 20
-140.8955806647671
 30
0.0
 10
98.36601814555754
 20
-140.8401239981138
 30
0.0
 10
98.32125064669966
 20
-140.7953212203477
 30
0.0
 10
98.26611148143969
 20
-140.7953212203477
 30
0.0
 10
98.21030203841907
 20
-140.7953212203477
 30
0.0
 10
98.16553453956151
 20
-140.8401239981138
 30
0.0
 10
98.16553453956151
 20
-140.8955806647671
 30
0.0
 10
98.16553453956151
 20
-140.9507198314199
 30
0.0
 10
98.21030203841907
 20
-140.9954873314088
 30
0.0
 10
98.26611148143969
 20
-140.9954873314088
 30
0.0
 10
98.32125064669966
 20
-140.9954873314088
 30
0.0
 10
98.36601814555754
 20
-140.9507198314199
 30
0.0
 10
98.36601814555754
 20
-140.8955806647671
 30
0.0
  0
SPLINE
  5
DA
330
70
100
AcDbEntity
  8
レイヤー 1
 62
   250
420
  2299925
370
     9
100
AcDbSpline
210
0.0
220
0.0
230
1.0
 70
     9
 71
     3
 72
    17
 73
    13
 74
     0
 42
0.0000000001
 43
0.0000000001
 40
0.0
 40
0.0
 40
0.0
 40
0.0
 40
1.0
 40
1.0
 40
1.0
 40
2.0
 40
2.0
 40
2.0
 40
3.0
 40
3.0
 40
3.0
 40
4.0
 40
4.0
 40
4.0
 40
4.0
 10
129.3670701324329
 20
-140.8955806647671
 30
0.0
 10
129.3670701324329
 20
-140.8401239981138
 30
0.0
 10
129.3222673557981
 20
-140.7953212203477
 30
0.0
 10
129.267163468315
 20
-140.7953212203477
 30
0.0
 10
129.2120280482699
 20
-140.7953212203477
 30
0.0
 10
129.1672568041972
 20
-140.8401239981138
 30
0.0
 10
129.1672568041972
 20
-140.8955806647671
 30
0.0
 10
129.1672568041972
 20
-140.9507198314199
 30
0.0
 10
129.2120280482699
 20
-140.9954873314088
 30
0.0
 10
129.267163468315
 20
-140.9954873314088
 30
0.0
 10
129.3222673557981
 20
-140.9954873314088
 30
0.0
 10
129.3670701324329
 20
-140.9507198314199
 30
0.0
 10
129.3670701324329
 20
-140.8955806647671
 30
0.0
  0
SPLINE
  5
DB
330
70
100
AcDbEntity
  8
レイヤー 1
 62
   250
420
  2299925
370
     9
100
AcDbSpline
210
0.0
220
0.0
230
1.0
 70
     9
 71
     3
 72
    17
 73
    13
 74
     0
 42
0.0000000001
 43
0.0000000001
 40
0.0
 40
0.0
 40
0.0
 40
0.0
 40
1.0
 40
1.0
 40
1.0
 40
2.0
 40
2.0
 40
2.0
 40
3.0
 40
3.0
 40
3.0
 40
4.0
 40
4.0
 40
4.0
 40
4.0
 10
108.3657862237758
 20
-140.8955806647671
 30
0.0
 10
108.3657862237758
 20
-140.8401239981138
 30
0.0
 10
108.3209834471411
 20
-140.7953212203477
 30
0.0
 10
108.2658474979509
 20
-140.7953212203477
 30
0.0
 10
108.2107403943981
 20
-140.7953212203477
 30
0.0
 10
108.1659376177633
 20
-140.8401239981138
 30
0.0
 10
108.1659376177633
 20
-140.8955806647671
 30
0.0
 10
108.1659376177633
 20
-140.9507198314199
 30
0.0
 10
108.2107403943981
 20
-140.9954873314088
 30
0.0
 10
108.2658474979509
 20
-140.9954873314088
 30
0.0
 10
108.3209834471411
 20
-140.9954873314088
 30
0.0
 10
108.3657862237758
 20
-140.9507198314199
 30
0.0
 10
108.3657862237758
 20
-140.8955806647671
 30
0.0
  0
LINE
  5
DC
330
70
100
AcDbEntity
  8
レイヤー 1
 62
   250
420
  2299925
370
     9
100
AcDbLine
 10
73.26439823039766
 20
-145.657375108021
 30
0.0
 11
73.26439823039766
 21
-140.3998220537799
 31
0.0
  0
LINE
  5
DD
330
70
100
AcDbEntity
  8
レイヤー 1
 62
   250
420
  2299925
370
     9
100
AcDbLine
 10
73.26439823039766
 20
-145.657375108021
 30
0.0
 11
73.26439823039766
 21
-146.1576139967847
 31
0.0
  0
LINE
  5
DE
330
70
100
AcDbEntity
  8
レイヤー 1
 62
   250
420
  2299925
370
     9
100
AcDbLine
 10
74.72440430426122
 20
-145.657375108021
 30
0.0
 11
72.26462603368175
 21
-145.657375108021
 31
0.0
  0
LINE
  5
DF
330
70
100
AcDbEntity
  8
レイヤー 1
 62
   250
420
  2299925
370
     9
100
AcDbLine
 10
74.72440430426122
 20
-146.1576139967847
 30
0.0
 11
72.26462603368175
 21
-146.1576139967847
 31
0.0
  0
INSERT
  5
E1
330
70
100
AcDbEntity
  8
レイヤー 1
100
AcDbBlockReference
  2
Block_0
 10
0.0
 20
0.0
 30
0.0
  0
LINE
  5
EF
330
70
100
AcDbEntity
  8
レイヤー 1
 62
   250
420
  2299925
370
     9
100
AcDbLine
 10
77.26482757278265
 20
-140.8955806647671
 30
0.0
 11
98.26611148143969
 21
-140.8955806647671
 31
0.0
  0
LINE
  5
F0
330
70
100
AcDbEntity
  8
レイヤー 1
 62
   250
420
  2299925
370
     9
100
AcDbLine
 10
77.26482757278265
 20
-143.1176573308785
 30
0.0
 11
77.26482757278265
 21
-139.8954556650172
 31
0.0
  0
INSERT
  5
F2
330
70
100
AcDbEntity
  8
レイヤー 1
100
AcDbBlockReference
  2
Block_2
 10
0.0
 20
0.0
 30
0.0
  0
LINE
  5
FD
330
70
100
AcDbEntity
  8
レイヤー 1
 62
   250
420
  2299925
370
     9
100
AcDbLine
 10
73.26439823039766
 20
-146.1576139967847
 30
0.0
 11
73.26439823039766
 21
-154.1574851058963
 31
0.0
  0
LINE
  5
FE
330
70
100
AcDbEntity
  8
レイヤー 1
 62
   250
420
  2299925
370
     9
100
AcDbLine
 10
94.72595129397893
 20
-154.1574851058963
 30
0.0
 11
72.26462603368175
 21
-154.1574851058963
 31
0.0
  0
INSERT
  5
100
330
70
100
AcDbEntity
  8
レイヤー 1
100
AcDbBlockReference
  2
Block_4
 10
0.0
 20
0.0
 30
0.0
  0
LINE
  5
107
330
70
100
AcDbEntity
  8
レイヤー 1
 62
   250
420
  2299925
370
     9
100
AcDbLine
 10
129.267163468315
 20
-140.8955806647671
 30
0.0
 11
108.2658474979509
 21
-140.8955806647671
 31
0.0
  0
LINE
  5
108
330
70
100
AcDbEntity
  8
レイヤー 1
 62
   250
420
  2299925
370
     9
100
AcDbLine
 10
129.267163468315
 20
-143.1176573308785
 30
0.0
 11
129.267163468315
 21
-139.8954556650172
 31
0.0
  0
INSERT
  5
10A
330
70
100
AcDbEntity
  8
レイヤー 1
100
AcDbBlockReference
  2
Block_5
 10
0.0
 20
0.0
 30
0.0
  0
LINE
  5
115
330
70
100
AcDbEntity
  8
レイヤー 1
 62
   250
420
  2299925
370
     9
100
AcDbLine
 10
98.26611148143969
 20
-140.8955806647671
 30
0.0
 11
108.2658474979509
 21
-140.8955806647671
 31
0.0
  0
LINE
  5
116
330
70
100
AcDbEntity
  8
レイヤー 1
 62
   250
420
  2299925
370
     9
100
AcDbLine
 10
98.26611148143969
 20
-142.3556220532912
 30
0.0
 11
98.26611148143969
 21
-139.8954556650172
 31
0.0
  0
LINE
  5
117
330
70
100
AcDbEntity
  8
レイヤー 1
 62
   250
420
  2299925
370
     9
100
AcDbLine
 10
108.2658474979509
 20
-142.3556220532912
 30
0.0
 11
108.2658474979509
 21
-139.8954556650172
 31
0.0
  0
INSERT
  5
119
330
70
100
AcDbEntity
  8
レイヤー 1
100
AcDbBlockReference
  2
Block_7
 10
0.0
 20
0.0
 30
0.0
  0
SPLINE
  5
125
330
70
100
AcDbEntity
  8
レイヤー 1
 62
   250
420
  2299925
370
     9
100
AcDbSpline
210
0.0
220
0.0
230
1.0
 70
     9
 71
     3
 72
    17
 73
    13
 74
     0
 42
0.0000000001
 43
0.0000000001
 40
0.0
 40
0.0
 40
0.0
 40
0.0
 40
1.0
 40
1.0
 40
1.0
 40
2.0
 40
2.0
 40
2.0
 40
3.0
 40
3.0
 40
3.0
 40
4.0
 40
4.0
 40
4.0
 40
4.0
 10
97.57918261007583
 20
-158.2709092715343
 30
0.0
 10
97.57918261007583
 20
-158.2158053826594
 30
0.0
 10
97.49582122331368
 20
-158.1710026048926
 30
0.0
 10
97.39312761482249
 20
-158.1710026048926
 30
0.0
 10
97.29149233963765
 20
-158.1710026048926
 30
0.0
 10
97.20848373064425
 20
-158.2158053826594
 30
0.0
 10
97.20848373064425
 20
-158.2709092715343
 30
0.0
 10
97.20848373064425
 20
-158.3260484381874
 30
0.0
 10
97.29149233963765
 20
-158.3708159381759
 30
0.0
 10
97.39312761482249
 20
-158.3708159381759
 30
0.0
 10
97.49582122331368
 20
-158.3708159381759
 30
0.0
 10
97.57918261007583
 20
-158.3260484381874
 30
0.0
 10
97.57918261007583
 20
-158.2709092715343
 30
0.0
  0
SPLINE
  5
126
330
70
100
AcDbEntity
  8
レイヤー 1
 62
   250
420
  2299925
370
     9
100
AcDbSpline
210
0.0
220
0.0
230
1.0
 70
     9
 71
     3
 72
    17
 73
    13
 74
     0
 42
0.0000000001
 43
0.0000000001
 40
0.0
 40
0.0
 40
0.0
 40
0.0
 40
1.0
 40
1.0
 40
1.0
 40
2.0
 40
2.0
 40
2.0
 40
3.0
 40
3.0
 40
3.0
 40
4.0
 40
4.0
 40
4.0
 40
4.0
 10
109.6218514695087
 20
-158.2709092715343
 30
0.0
 10
109.6218514695087
 20
-158.2158053826594
 30
0.0
 10
109.5388075827385
 20
-158.1710026048926
 30
0.0
 10
109.4372075853305
 20
-158.1710026048926
 30
0.0
 10
109.3334909213099
 20
-158.1710026048926
 30
0.0
 10
109.2511558310372
 20
-158.2158053826594
 30
0.0
 10
109.2511558310372
 20
-158.2709092715343
 30
0.0
 10
109.2511558310372
 20
-158.3260484381874
 30
0.0
 10
109.3334909213099
 20
-158.3708159381759
 30
0.0
 10
109.4372075853305
 20
-158.3708159381759
 30
0.0
 10
109.5388075827385
 20
-158.3708159381759
 30
0.0
 10
109.6218514695087
 20
-158.3260484381874
 30
0.0
 10
109.6218514695087
 20
-158.2709092715343
 30
0.0
  0
LINE
  5
127
330
70
100
AcDbEntity
  8
レイヤー 1
 62
   250
420
  2299925
370
     9
100
AcDbLine
 10
109.4372075853305
 20
-158.2709092715343
 30
0.0
 11
97.39312761482249
 21
-158.2709092715343
 31
0.0
  0
LINE
  5
128
330
70
100
AcDbEntity
  8
レイヤー 1
 62
   250
420
  2299925
370
     9
100
AcDbLine
 10
109.4372075853305
 20
-156.8109031607881
 30
0.0
 11
109.4372075853305
 21
-159.2710342712845
 31
0.0
  0
LINE
  5
129
330
70
100
AcDbEntity
  8
レイヤー 1
 62
   250
420
  2299925
370
     9
100
AcDbLine
 10
97.39312761482249
 20
-156.8109031607881
 30
0.0
 11
97.39312761482249
 21
-159.2710342712845
 31
0.0
  0
INSERT
  5
12B
330
70
100
AcDbEntity
  8
レイヤー 1
100
AcDbBlockReference
  2
Block_9
 10
0.0
 20
0.0
 30
0.0
  0
LINE
  5
136
330
70
100
AcDbEntity
  8
レイヤー 1
 62
   250
420
  2299925
370
     9
100
AcDbLine
 10
106.241852389073
 20
-150.3027528846373
 30
0.0
 11
114.2420760738592
 21
-150.3027528846373
 31
0.0
  0
INSERT
  5
138
330
70
100
AcDbEntity
  8
レイヤー 1
100
AcDbBlockReference
  2
Block_11
 10
0.0
 20
0.0
 30
0.0
  0
LINE
  5
13D
330
70
100
AcDbEntity
  8
レイヤー 1
  6
AI-Linetype-0
 62
   154
420
    23468
370
    25
100
AcDbLine
 10
77.24415479553226
 20
-146.881796218826
 30
0.0
 11
87.24424037374218
 21
-146.881796218826
 31
0.0
  0
LINE
  5
13F
330
70
100
AcDbEntity
  8
レイヤー 1
  6
AI-Linetype-1
 62
   154
420
    23468
370
    25
100
AcDbLine
 10
118.7954492910263
 20
-146.8383692743925
 30
0.0
 11
129.2954209675941
 21
-146.8383692743925
 31
0.0
  0
INSERT
  5
142
330
70
100
AcDbEntity
  8
レイヤー 1
100
AcDbBlockReference
  2
Block_12
 10
0.0
 20
0.0
 30
0.0
  0
ENDSEC
  0
SECTION
  2
OBJECTS
  0
DICTIONARY
  5
C
330
0
100
AcDbDictionary
281
     1
  3
ACAD_COLOR
350
63
  3
ACAD_DETAILVIEWSTYLE
350
6A
  3
ACAD_GROUP
350
D
  3
ACAD_LAYOUT
350
62
  3
ACAD_MATERIAL
350
10
  3
ACAD_MLEADERSTYLE
350
66
  3
ACAD_MLINESTYLE
350
5F
  3
ACAD_PLOTSETTINGS
350
61
  3
ACAD_PLOTSTYLENAME
350
E
  3
ACAD_SCALELIST
350
42
  3
ACAD_SECTIONVIEWSTYLE
350
68
  3
ACAD_TABLESTYLE
350
64
  3
ACAD_VISUALSTYLE
350
29
  3
ACDB_RECOMPOSE_DATA
350
16F
  3
AcDbVariableDictionary
350
167
  0
DICTIONARY
  5
63
102
{ACAD_REACTORS
330
C
102
}
330
C
100
AcDbDictionary
281
     1
  0
DICTIONARY
  5
6A
102
{ACAD_REACTORS
330
C
102
}
330
C
100
AcDbDictionary
281
     1
  3
Imperial24
350
6B
  0
DICTIONARY
  5
D
102
{ACAD_REACTORS
330
C
102
}
330
C
100
AcDbDictionary
281
     1
  0
DICTIONARY
  5
62
102
{ACAD_REACTORS
330
C
102
}
330
C
100
AcDbDictionary
281
     1
  3
Layout1
350
6F
  3
Layout2
350
77
  3
Model
350
73
  0
DICTIONARY
  5
10
102
{ACAD_REACTORS
330
C
102
}
330
C
100
AcDbDictionary
281
     1
  3
ByBlock
350
19
  3
ByLayer
350
11
  3
Global
350
21
  0
DICTIONARY
  5
66
102
{ACAD_REACTORS
330
C
102
}
330
C
100
AcDbDictionary
281
     1
  3
Standard
350
67
  0
DICTIONARY
  5
5F
102
{ACAD_REACTORS
330
C
102
}
330
C
100
AcDbDictionary
281
     1
  3
Standard
350
60
  0
DICTIONARY
  5
61
102
{ACAD_REACTORS
330
C
102
}
330
C
100
AcDbDictionary
281
     1
  0
ACDBDICTIONARYWDFLT
  5
E
102
{ACAD_REACTORS
330
C
102
}
330
C
100
AcDbDictionary
281
     1
  3
Normal
350
F
100
AcDbDictionaryWithDefault
340
F
  0
DICTIONARY
  5
42
102
{ACAD_REACTORS
330
C
102
}
330
C
100
AcDbDictionary
281
     1
  3
A0
350
43
  3
A1
350
44
  3
A2
350
45
  3
A3
350
46
  3
A4
350
47
  3
A5
350
48
  3
A6
350
49
  3
A7
350
4A
  3
A8
350
4B
  3
A9
350
4C
  3
B0
350
4D
  3
B1
350
4E
  3
B2
350
4F
  3
B3
350
50
  3
B4
350
51
  3
B5
350
52
  3
B6
350
53
  0
DICTIONARY
  5
68
102
{ACAD_REACTORS
330
C
102
}
330
C
100
AcDbDictionary
281
     1
  3
Imperial24
350
69
  0
DICTIONARY
  5
64
102
{ACAD_REACTORS
330
C
102
}
330
C
100
AcDbDictionary
281
     1
  3
Standard
350
65
  0
DICTIONARY
  5
29
102
{ACAD_REACTORS
330
C
102
}
330
C
100
AcDbDictionary
281
     1
  3
2dWireframe
350
2F
  3
Basic
350
2E
  3
Brighten
350
35
  3
ColorChange
350
39
  3
Conceptual
350
32
  3
Dim
350
34
  3
EdgeColorOff
350
41
  3
Facepattern
350
38
  3
Flat
350
2A
  3
FlatWithEdges
350
2B
  3
Gouraud
350
2C
  3
GouraudWithEdges
350
2D
  3
Hidden
350
31
  3
JitterOff
350
3F
  3
Linepattern
350
37
  3
OverhangOff
350
40
  3
Realistic
350
33
  3
Shaded
350
3E
  3
Shaded with edges
350
3D
  3
Shades of Gray
350
3A
  3
Sketchy
350
3B
  3
Thicken
350
36
  3
Wireframe
350
30
  3
X-Ray
350
3C
  0
XRECORD
  5
16F
102
{ACAD_REACTORS
330
C
102
}
330
C
100
AcDbXrecord
280
     1
 90
        1
330
65
  0
DICTIONARY
  5
167
102
{ACAD_REACTORS
330
C
102
}
330
C
100
AcDbDictionary
281
     1
  3
CANNOSCALE
350
16C
  3
CMLEADERSTYLE
350
169
  3
CTABLESTYLE
350
168
  3
CVIEWDETAILSTYLE
350
16A
  3
CVIEWSECTIONSTYLE
350
16B
  0
ACDBDETAILVIEWSTYLE
  5
6B
102
{ACAD_XDICTIONARY
360
1A4
102
}
102
{ACAD_REACTORS
330
6A
102
}
330
6A
100
AcDbModelDocViewStyle
 70
     0
  3
Imperial24
290
     0
100
AcDbDetailViewStyle
 70
     0
 71
     0
 90
        3
 71
     1
340
55
 62
   256
 40
0.24
340
0
 62
   256
 40
0.24
300

 40
0.36
280
     3
 71
     2
340
5D
 90
       25
 62
   256
 71
     3
340
55
 62
   256
 40
0.24
 90
        1
 40
0.75
 90
        1
300
%<\AcVar ViewType \f "%tc1">% %<\AcVar ViewDetailId>%\PSCALE %<\AcVar ViewScale \f "%sn">%
 71
     4
340
5D
 90
       25
 62
   256
340
5D
 90
       25
 62
   256
280
     0
  0
LAYOUT
  5
6F
102
{ACAD_REACTORS
330
62
102
}
330
62
100
AcDbPlotSettings
  1

  2

  4

  6

 40
0.0
 41
0.0
 42
0.0
 43
0.0
 44
0.0
 45
0.0
 46
0.0
 47
0.0
 48
0.0
 49
0.0
140
0.0
141
0.0
142
1.0
143
1.0
 70
   688
 72
     0
 73
     0
 74
     5
  7

 75
    16
147
1.0
 76
     0
 77
     2
 78
   300
148
0.0
149
0.0
100
AcDbLayout
  1
Layout1
 70
     1
 71
     1
 10
0.0
 20
0.0
 11
12.0
 21
9.0
 12
0.0
 22
0.0
 32
0.0
 14
0.0
 24
0.0
 34
0.0
 15
0.0
 25
0.0
 35
0.0
146
0.0
 13
0.0
 23
0.0
 33
0.0
 16
1.0
 26
0.0
 36
0.0
 17
0.0
 27
1.0
 37
0.0
 76
     0
330
6C
  0
LAYOUT
  5
77
102
{ACAD_REACTORS
330
62
102
}
330
62
100
AcDbPlotSettings
  1

  2

  4

  6

 40
0.0
 41
0.0
 42
0.0
 43
0.0
 44
0.0
 45
0.0
 46
0.0
 47
0.0
 48
0.0
 49
0.0
140
0.0
141
0.0
142
1.0
143
1.0
 70
   688
 72
     0
 73
     0
 74
     5
  7

 75
    16
147
1.0
 76
     0
 77
     2
 78
   300
148
0.0
149
0.0
100
AcDbLayout
  1
Layout2
 70
     1
 71
     2
 10
0.0
 20
0.0
 11
12.0
 21
9.0
 12
0.0
 22
0.0
 32
0.0
 14
0.0
 24
0.0
 34
0.0
 15
0.0
 25
0.0
 35
0.0
146
0.0
 13
0.0
 23
0.0
 33
0.0
 16
1.0
 26
0.0
 36
0.0
 17
0.0
 27
1.0
 37
0.0
 76
     0
330
74
  0
LAYOUT
  5
73
102
{ACAD_REACTORS
330
62
102
}
330
62
100
AcDbPlotSettings
  1

  2

  4

  6

 40
0.0
 41
0.0
 42
0.0
 43
0.0
 44
0.0
 45
0.0
 46
0.0
 47
0.0
 48
0.0
 49
0.0
140
0.0
141
0.0
142
1.0
143
1.0
 70
  1712
 72
     0
 73
     0
 74
     0
  7

 75
     0
147
1.0
 76
     0
 77
     2
 78
   300
148
0.0
149
0.0
100
AcDbLayout
  1
Model
 70
     1
 71
     0
 10
0.0
 20
0.0
 11
12.0
 21
9.0
 12
0.0
 22
0.0
 32
0.0
 14
0.0
 24
0.0
 34
0.0
 15
0.0
 25
0.0
 35
0.0
146
0.0
 13
0.0
 23
0.0
 33
0.0
 16
1.0
 26
0.0
 36
0.0
 17
0.0
 27
1.0
 37
0.0
 76
     0
330
70
  0
MATERIAL
  5
19
102
{ACAD_XDICTIONARY
360
1A
102
}
102
{ACAD_REACTORS
330
10
102
}
330
10
100
AcDbMaterial
  1
ByBlock
 72
     0
 43
0.0208333333333333
 43
0.0
 43
0.0
 43
0.0
 43
0.0
 43
0.0208333333333333
 43
0.0
 43
0.0
 43
0.0
 43
0.0
 43
1.0
 43
0.0
 43
0.0
 43
0.0
 43
0.0
 43
1.0
 77
     0
 47
0.0208333333333333
 47
0.0
 47
0.0
 47
0.0
 47
0.0
 47
0.0208333333333333
 47
0.0
 47
0.0
 47
0.0
 47
0.0
 47
1.0
 47
0.0
 47
0.0
 47
0.0
 47
0.0
 47
1.0
171
     0
 49
0.0208333333333333
 49
0.0
 49
0.0
 49
0.0
 49
0.0
 49
0.0208333333333333
 49
0.0
 49
0.0
 49
0.0
 49
0.0
 49
1.0
 49
0.0
 49
0.0
 49
0.0
 49
0.0
 49
1.0
175
     0
142
0.0208333333333333
142
0.0
142
0.0
142
0.0
142
0.0
142
0.0208333333333333
142
0.0
142
0.0
142
0.0
142
0.0
142
1.0
142
0.0
142
0.0
142
0.0
142
0.0
142
1.0
179
     0
144
0.0208333333333333
144
0.0
144
0.0
144
0.0
144
0.0
144
0.0208333333333333
144
0.0
144
0.0
144
0.0
144
0.0
144
1.0
144
0.0
144
0.0
144
0.0
144
0.0
144
1.0
147
0.0208333333333333
147
0.0
147
0.0
147
0.0
147
0.0
147
0.0208333333333333
147
0.0
147
0.0
147
0.0
147
0.0
147
1.0
147
0.0
147
0.0
147
0.0
147
0.0
147
1.0
  0
MATERIAL
  5
11
102
{ACAD_XDICTIONARY
360
12
102
}
102
{ACAD_REACTORS
330
10
102
}
330
10
100
AcDbMaterial
  1
ByLayer
 72
     0
 43
0.0208333333333333
 43
0.0
 43
0.0
 43
0.0
 43
0.0
 43
0.0208333333333333
 43
0.0
 43
0.0
 43
0.0
 43
0.0
 43
1.0
 43
0.0
 43
0.0
 43
0.0
 43
0.0
 43
1.0
 77
     0
 47
0.0208333333333333
 47
0.0
 47
0.0
 47
0.0
 47
0.0
 47
0.0208333333333333
 47
0.0
 47
0.0
 47
0.0
 47
0.0
 47
1.0
 47
0.0
 47
0.0
 47
0.0
 47
0.0
 47
1.0
171
     0
 49
0.0208333333333333
 49
0.0
 49
0.0
 49
0.0
 49
0.0
 49
0.0208333333333333
 49
0.0
 49
0.0
 49
0.0
 49
0.0
 49
1.0
 49
0.0
 49
0.0
 49
0.0
 49
0.0
 49
1.0
175
     0
142
0.0208333333333333
142
0.0
142
0.0
142
0.0
142
0.0
142
0.0208333333333333
142
0.0
142
0.0
142
0.0
142
0.0
142
1.0
142
0.0
142
0.0
142
0.0
142
0.0
142
1.0
179
     0
144
0.0208333333333333
144
0.0
144
0.0
144
0.0
144
0.0
144
0.0208333333333333
144
0.0
144
0.0
144
0.0
144
0.0
144
1.0
144
0.0
144
0.0
144
0.0
144
0.0
144
1.0
147
0.0208333333333333
147
0.0
147
0.0
147
0.0
147
0.0
147
0.0208333333333333
147
0.0
147
0.0
147
0.0
147
0.0
147
1.0
147
0.0
147
0.0
147
0.0
147
0.0
147
1.0
  0
MATERIAL
  5
21
102
{ACAD_XDICTIONARY
360
22
102
}
102
{ACAD_REACTORS
330
10
102
}
330
10
100
AcDbMaterial
  1
Global
 72
     0
 43
0.0208333333333333
 43
0.0
 43
0.0
 43
0.0
 43
0.0
 43
0.0208333333333333
 43
0.0
 43
0.0
 43
0.0
 43
0.0
 43
1.0
 43
0.0
 43
0.0
 43
0.0
 43
0.0
 43
1.0
 77
     0
 47
0.0208333333333333
 47
0.0
 47
0.0
 47
0.0
 47
0.0
 47
0.0208333333333333
 47
0.0
 47
0.0
 47
0.0
 47
0.0
 47
1.0
 47
0.0
 47
0.0
 47
0.0
 47
0.0
 47
1.0
171
     0
 49
0.0208333333333333
 49
0.0
 49
0.0
 49
0.0
 49
0.0
 49
0.0208333333333333
 49
0.0
 49
0.0
 49
0.0
 49
0.0
 49
1.0
 49
0.0
 49
0.0
 49
0.0
 49
0.0
 49
1.0
175
     0
142
0.0208333333333333
142
0.0
142
0.0
142
0.0
142
0.0
142
0.0208333333333333
142
0.0
142
0.0
142
0.0
142
0.0
142
1.0
142
0.0
142
0.0
142
0.0
142
0.0
142
1.0
179
     0
144
0.0208333333333333
144
0.0
144
0.0
144
0.0
144
0.0
144
0.0208333333333333
144
0.0
144
0.0
144
0.0
144
0.0
144
1.0
144
0.0
144
0.0
144
0.0
144
0.0
144
1.0
147
0.0208333333333333
147
0.0
147
0.0
147
0.0
147
0.0
147
0.0208333333333333
147
0.0
147
0.0
147
0.0
147
0.0
147
1.0
147
0.0
147
0.0
147
0.0
147
0.0
147
1.0
  0
MLEADERSTYLE
  5
67
102
{ACAD_XDICTIONARY
360
1A0
102
}
102
{ACAD_REACTORS
330
66
102
}
330
66
100
AcDbMLeaderStyle
179
     2
170
     2
171
     1
172
     0
 90
        2
 40
0.0
 41
0.0
173
     1
 91
-1056964608
340
5B
 92
       -2
290
     1
 42
0.09
291
     1
 43
0.36
  3
Standard
 44
0.18
300

342
55
174
     1
178
     6
175
     1
176
     0
 93
-1056964608
 45
0.18
292
     0
297
     0
 46
0.18
 94
-1056964608
 47
1.0
 49
1.0
140
1.0
293
     1
141
0.0
294
     1
177
     0
142
1.0
295
     0
296
     0
143
0.125
271
     0
272
     9
273
     9
  0
MLINESTYLE
  5
60
102
{ACAD_REACTORS
330
5F
102
}
330
5F
100
AcDbMlineStyle
  2
STANDARD
 70
     0
  3

 62
   256
 51
90.0
 52
90.0
 71
     2
 49
0.5
 62
   256
  6
BYLAYER
 49
-0.5
 62
   256
  6
BYLAYER
  0
ACDBPLACEHOLDER
  5
F
102
{ACAD_REACTORS
330
E
102
}
330
E
  0
SCALE
  5
43
102
{ACAD_REACTORS
330
42
102
}
330
42
100
AcDbScale
 70
     0
300
1:1
140
1.0
141
1.0
290
     1
  0
SCALE
  5
44
102
{ACAD_REACTORS
330
42
102
}
330
42
100
AcDbScale
 70
     0
300
1/128" = 1'-0"
140
0.0078125
141
12.0
290
     0
  0
SCALE
  5
45
102
{ACAD_REACTORS
330
42
102
}
330
42
100
AcDbScale
 70
     0
300
1/64" = 1'-0"
140
0.015625
141
12.0
290
     0
  0
SCALE
  5
46
102
{ACAD_REACTORS
330
42
102
}
330
42
100
AcDbScale
 70
     0
300
1/32" = 1'-0"
140
0.03125
141
12.0
290
     0
  0
SCALE
  5
47
102
{ACAD_REACTORS
330
42
102
}
330
42
100
AcDbScale
 70
     0
300
1/16" = 1'-0"
140
0.0625
141
12.0
290
     0
  0
SCALE
  5
48
102
{ACAD_REACTORS
330
42
102
}
330
42
100
AcDbScale
 70
     0
300
3/32" = 1'-0"
140
0.09375
141
12.0
290
     0
  0
SCALE
  5
49
102
{ACAD_REACTORS
330
42
102
}
330
42
100
AcDbScale
 70
     0
300
1/8" = 1'-0"
140
0.125
141
12.0
290
     0
  0
SCALE
  5
4A
102
{ACAD_REACTORS
330
42
102
}
330
42
100
AcDbScale
 70
     0
300
3/16" = 1'-0"
140
0.1875
141
12.0
290
     0
  0
SCALE
  5
4B
102
{ACAD_REACTORS
330
42
102
}
330
42
100
AcDbScale
 70
     0
300
1/4" = 1'-0"
140
0.25
141
12.0
290
     0
  0
SCALE
  5
4C
102
{ACAD_REACTORS
330
42
102
}
330
42
100
AcDbScale
 70
     0
300
3/8" = 1'-0"
140
0.375
141
12.0
290
     0
  0
SCALE
  5
4D
102
{ACAD_REACTORS
330
42
102
}
330
42
100
AcDbScale
 70
     0
300
1/2" = 1'-0"
140
0.5
141
12.0
290
     0
  0
SCALE
  5
4E
102
{ACAD_REACTORS
330
42
102
}
330
42
100
AcDbScale
 70
     0
300
3/4" = 1'-0"
140
0.75
141
12.0
290
     0
  0
SCALE
  5
4F
102
{ACAD_REACTORS
330
42
102
}
330
42
100
AcDbScale
 70
     0
300
1" = 1'-0"
140
1.0
141
12.0
290
     0
  0
SCALE
  5
50
102
{ACAD_REACTORS
330
42
102
}
330
42
100
AcDbScale
 70
     0
300
1-1/2" = 1'-0"
140
1.5
141
12.0
290
     0
  0
SCALE
  5
51
102
{ACAD_REACTORS
330
42
102
}
330
42
100
AcDbScale
 70
     0
300
3" = 1'-0"
140
3.0
141
12.0
290
     0
  0
SCALE
  5
52
102
{ACAD_REACTORS
330
42
102
}
330
42
100
AcDbScale
 70
     0
300
6" = 1'-0"
140
6.0
141
12.0
290
     0
  0
SCALE
  5
53
102
{ACAD_REACTORS
330
42
102
}
330
42
100
AcDbScale
 70
     0
300
1'-0" = 1'-0"
140
12.0
141
12.0
290
     0
  0
ACDBSECTIONVIEWSTYLE
  5
69
102
{ACAD_XDICTIONARY
360
1A2
102
}
102
{ACAD_REACTORS
330
68
102
}
330
68
100
AcDbModelDocViewStyle
 70
     0
  3
Imperial24
290
     0
100
AcDbSectionViewStyle
 70
     0
 71
     0
 90
       78
 71
     1
340
55
 62
   256
 40
0.24
340
0
340
0
 62
   256
 40
0.24
300
I, O, Q, S, X, Z
 40
0.48
 90
        3
 40
0.18
 90
        1
 71
     2
340
5D
 90
       25
 62
   256
340
5D
 90
       50
 62
   256
 40
0.24
 40
0.0
 40
0.24
 71
     3
340
55
 62
   256
 40
0.24
 90
        1
 40
0.75
 90
        1
300
%<\AcVar ViewType \f "%tc1">% %<\AcVar ViewSectionStartId>%-%<\AcVar ViewSectionEndId>%\PSCALE %<\AcVar ViewScale \f "%sn">%
 71
     4
 62
   256
 62
   257
300
ANSI31
 40
1.0
 90
        0
290
     0
290
     0
 90
        6
 40
0.0
 40
1.570796326794896
 40
0.2617993877991494
 40
1.308996938995747
 40
-0.2617993877991494
 40
1.832595714594046
  0
TABLESTYLE
  5
65
102
{ACAD_XDICTIONARY
360
16D
102
}
102
{ACAD_REACTORS
330
64
102
}
330
64
100
AcDbTableStyle
280
     0
  3
Standard
 70
     0
 71
     0
 40
0.06
 41
0.06
280
     0
281
     0
  7
Standard
140
0.18
170
     2
 62
     0
 63
     7
283
     0
 90
      512
 91
        0
  1

274
    -2
284
     1
 64
     0
275
    -2
285
     1
 65
     0
276
    -2
286
     1
 66
     0
277
    -2
287
     1
 67
     0
278
    -2
288
     1
 68
     0
279
    -2
289
     1
 69
     0
  7
Standard
140
0.25
170
     5
 62
     0
 63
     7
283
     0
 90
      512
 91
        0
  1

274
    -2
284
     1
 64
     0
275
    -2
285
     1
 65
     0
276
    -2
286
     1
 66
     0
277
    -2
287
     1
 67
     0
278
    -2
288
     1
 68
     0
279
    -2
289
     1
 69
     0
  7
Standard
140
0.18
170
     5
 62
     0
 63
     7
283
     0
 90
      512
 91
        0
  1

274
    -2
284
     1
 64
     0
275
    -2
285
     1
 65
     0
276
    -2
286
     1
 66
     0
277
    -2
287
     1
 67
     0
278
    -2
288
     1
 68
     0
279
    -2
289
     1
 69
     0
  0
VISUALSTYLE
  5
2F
102
{ACAD_XDICTIONARY
360
17A
102
}
102
{ACAD_REACTORS
330
29
102
}
330
29
100
AcDbVisualStyle
  2
2dWireframe
 70
     4
177
     2
291
     0
 71
     0
176
     1
 72
     2
176
     1
 73
     0
176
     1
 90
        0
176
     1
 40
0.6
176
     1
 41
30.0
176
     1
 63
     7
421
 16777215
176
     1
 74
     1
176
     1
 91
        4
176
     1
 64
     7
176
     1
 65
   257
176
     1
 75
     1
176
     1
175
     1
176
     1
 42
1.0
176
     1
 92
        0
176
     1
 66
   257
176
     1
 43
1.0
176
     1
 76
     1
176
     1
 77
     6
176
     1
 78
     2
176
     1
 67
     7
176
     1
 79
     5
176
     1
170
     0
176
     1
171
     0
176
     1
290
     0
176
     1
 93
        1
176
     1
 44
0.0
176
     1
173
     0
176
     1
1001
ACAD
1000
AcDbSavedByObjectVersion
1070
     0
  0
VISUALSTYLE
  5
2E
102
{ACAD_XDICTIONARY
360
178
102
}
102
{ACAD_REACTORS
330
29
102
}
330
29
100
AcDbVisualStyle
  2
Basic
 70
     7
177
     2
291
     1
 71
     1
176
     1
 72
     0
176
     1
 73
     1
176
     1
 90
        0
176
     1
 40
0.6
176
     1
 41
30.0
176
     1
 63
     7
421
 16777215
176
     1
 74
     0
176
     1
 91
        4
176
     1
 64
     7
176
     1
 65
   257
176
     1
 75
     1
176
     1
175
     1
176
     1
 42
1.0
176
     1
 92
        8
176
     1
 66
     7
176
     1
 43
1.0
176
     1
 76
     1
176
     1
 77
     6
176
     1
 78
     2
176
     1
 67
     7
176
     1
 79
     5
176
     1
170
     0
176
     1
171
     0
176
     1
290
     0
176
     1
 93
        1
176
     1
 44
0.0
176
     1
173
     0
176
     1
1001
ACAD
1000
AcDbSavedByObjectVersion
1070
     0
  0
VISUALSTYLE
  5
35
102
{ACAD_XDICTIONARY
360
186
102
}
102
{ACAD_REACTORS
330
29
102
}
330
29
100
AcDbVisualStyle
  2
Brighten
 70
    12
177
     2
291
     1
 71
     2
176
     1
 72
     2
176
     1
 73
     0
176
     1
 90
        0
176
     1
 40
0.6
176
     1
 41
30.0
176
     1
 63
     7
421
 16777215
176
     1
 74
     1
176
     1
 91
        4
176
     1
 64
     7
176
     1
 65
   257
176
     1
 75
     1
176
     1
175
     1
176
     1
 42
1.0
176
     1
 92
        8
176
     1
 66
     7
176
     1
 43
1.0
176
     1
 76
     1
176
     1
 77
     6
176
     1
 78
     2
176
     1
 67
     7
176
     1
 79
     5
176
     1
170
     0
176
     1
171
     0
176
     1
290
     0
176
     1
 93
        1
176
     1
 44
50.0
176
     1
173
     0
176
     1
1001
ACAD
1000
AcDbSavedByObjectVersion
1070
     0
  0
VISUALSTYLE
  5
39
102
{ACAD_XDICTIONARY
360
18E
102
}
102
{ACAD_REACTORS
330
29
102
}
330
29
100
AcDbVisualStyle
  2
ColorChange
 70
    16
177
     2
291
     1
 71
     2
176
     1
 72
     2
176
     1
 73
     3
176
     1
 90
        0
176
     1
 40
0.6
176
     1
 41
30.0
176
     1
 63
     8
421
  8421504
176
     1
 74
     1
176
     1
 91
        4
176
     1
 64
     7
176
     1
 65
   257
176
     1
 75
     1
176
     1
175
     1
176
     1
 42
1.0
176
     1
 92
        8
176
     1
 66
     8
424
  8421504
176
     1
 43
1.0
176
     1
 76
     1
176
     1
 77
     6
176
     1
 78
     2
176
     1
 67
     7
176
     1
 79
     5
176
     1
170
     0
176
     1
171
     0
176
     1
290
     0
176
     1
 93
        1
176
     1
 44
0.0
176
     1
173
     0
176
     1
1001
ACAD
1000
AcDbSavedByObjectVersion
1070
     0
  0
VISUALSTYLE
  5
32
102
{ACAD_XDICTIONARY
360
180
102
}
102
{ACAD_REACTORS
330
29
102
}
330
29
100
AcDbVisualStyle
  2
Conceptual
 70
     9
177
     2
291
     0
 71
     3
176
     1
 72
     2
176
     1
 73
     0
176
     1
 90
        0
176
     1
 40
0.6
176
     1
 41
30.0
176
     1
 63
     7
421
 16777215
176
     1
 74
     2
176
     1
 91
        2
176
     1
 64
     7
176
     1
 65
   257
176
     1
 75
     1
176
     1
175
     1
176
     1
 42
179.0
176
     1
 92
        8
176
     1
 66
     7
176
     1
 43
1.0
176
     1
 76
     1
176
     1
 77
     6
176
     1
 78
     2
176
     1
 67
     7
176
     1
 79
     3
176
     1
170
     0
176
     1
171
     0
176
     1
290
     0
176
     1
 93
        1
176
     1
 44
0.0
176
     1
173
     0
176
     1
1001
ACAD
1000
AcDbSavedByObjectVersion
1070
     0
  0
VISUALSTYLE
  5
34
102
{ACAD_XDICTIONARY
360
184
102
}
102
{ACAD_REACTORS
330
29
102
}
330
29
100
AcDbVisualStyle
  2
Dim
 70
    11
177
     2
291
     1
 71
     2
176
     1
 72
     2
176
     1
 73
     0
176
     1
 90
        0
176
     1
 40
0.6
176
     1
 41
30.0
176
     1
 63
     7
421
 16777215
176
     1
 74
     1
176
     1
 91
        4
176
     1
 64
     7
176
     1
 65
   257
176
     1
 75
     1
176
     1
175
     1
176
     1
 42
1.0
176
     1
 92
        8
176
     1
 66
     7
176
     1
 43
1.0
176
     1
 76
     1
176
     1
 77
     6
176
     1
 78
     2
176
     1
 67
     7
176
     1
 79
     5
176
     1
170
     0
176
     1
171
     0
176
     1
290
     0
176
     1
 93
        1
176
     1
 44
-50.0
176
     1
173
     0
176
     1
1001
ACAD
1000
AcDbSavedByObjectVersion
1070
     0
  0
VISUALSTYLE
  5
41
102
{ACAD_XDICTIONARY
360
19E
102
}
102
{ACAD_REACTORS
330
29
102
}
330
29
100
AcDbVisualStyle
  2
EdgeColorOff
 70
    22
177
     2
291
     1
 71
     2
176
     0
 72
     2
176
     0
 73
     0
176
     0
 90
        0
176
     0
 40
0.6
176
     0
 41
30.0
176
     0
 63
     7
421
 16777215
176
     0
 74
     1
176
     0
 91
        4
176
     0
 64
     7
176
     0
 65
   257
176
     0
 75
     1
176
     0
175
     1
176
     0
 42
1.0
176
     0
 92
        8
176
     2
 66
     7
176
     0
 43
1.0
176
     0
 76
     1
176
     0
 77
     6
176
     0
 78
     2
176
     0
 67
     7
176
     0
 79
     5
176
     0
170
     0
176
     0
171
     0
176
     0
290
     0
176
     0
 93
        1
176
     0
 44
0.0
176
     0
173
     0
176
     0
1001
ACAD
1000
AcDbSavedByObjectVersion
1070
     0
  0
VISUALSTYLE
  5
38
102
{ACAD_XDICTIONARY
360
18C
102
}
102
{ACAD_REACTORS
330
29
102
}
330
29
100
AcDbVisualStyle
  2
Facepattern
 70
    15
177
     2
291
     1
 71
     2
176
     1
 72
     2
176
     1
 73
     0
176
     1
 90
        0
176
     1
 40
0.6
176
     1
 41
30.0
176
     1
 63
     7
421
 16777215
176
     1
 74
     1
176
     1
 91
        4
176
     1
 64
     7
176
     1
 65
   257
176
     1
 75
     1
176
     1
175
     1
176
     1
 42
1.0
176
     1
 92
        8
176
     1
 66
     7
176
     1
 43
1.0
176
     1
 76
     1
176
     1
 77
     6
176
     1
 78
     2
176
     1
 67
     7
176
     1
 79
     5
176
     1
170
     0
176
     1
171
     0
176
     1
290
     0
176
     1
 93
        1
176
     1
 44
0.0
176
     1
173
     0
176
     1
1001
ACAD
1000
AcDbSavedByObjectVersion
1070
     0
  0
VISUALSTYLE
  5
2A
102
{ACAD_XDICTIONARY
360
170
102
}
102
{ACAD_REACTORS
330
29
102
}
330
29
100
AcDbVisualStyle
  2
Flat
 70
     0
177
     2
291
     1
 71
     2
176
     1
 72
     1
176
     1
 73
     1
176
     1
 90
        2
176
     1
 40
0.6
176
     1
 41
30.0
176
     1
 63
     7
421
 16777215
176
     1
 74
     0
176
     1
 91
        0
176
     1
 64
     7
176
     1
 65
   257
176
     1
 75
     1
176
     1
175
     1
176
     1
 42
1.0
176
     1
 92
        8
176
     1
 66
     7
176
     1
 43
1.0
176
     1
 76
     1
176
     1
 77
     6
176
     1
 78
     2
176
     1
 67
     7
176
     1
 79
     5
176
     1
170
     0
176
     1
171
     0
176
     1
290
     0
176
     1
 93
       13
176
     1
 44
0.0
176
     1
173
     0
176
     1
1001
ACAD
1000
AcDbSavedByObjectVersion
1070
     0
  0
VISUALSTYLE
  5
2B
102
{ACAD_XDICTIONARY
360
172
102
}
102
{ACAD_REACTORS
330
29
102
}
330
29
100
AcDbVisualStyle
  2
FlatWithEdges
 70
     1
177
     2
291
     1
 71
     2
176
     1
 72
     1
176
     1
 73
     1
176
     1
 90
        2
176
     1
 40
0.6
176
     1
 41
30.0
176
     1
 63
     7
421
 16777215
176
     1
 74
     1
176
     1
 91
        0
176
     1
 64
     7
176
     1
 65
   257
176
     1
 75
     1
176
     1
175
     1
176
     1
 42
1.0
176
     1
 92
        0
176
     1
 66
   257
176
     1
 43
1.0
176
     1
 76
     1
176
     1
 77
     6
176
     1
 78
     2
176
     1
 67
     7
176
     1
 79
     5
176
     1
170
     0
176
     1
171
     0
176
     1
290
     0
176
     1
 93
       13
176
     1
 44
0.0
176
     1
173
     0
176
     1
1001
ACAD
1000
AcDbSavedByObjectVersion
1070
     0
  0
VISUALSTYLE
  5
2C
102
{ACAD_XDICTIONARY
360
174
102
}
102
{ACAD_REACTORS
330
29
102
}
330
29
100
AcDbVisualStyle
  2
Gouraud
 70
     2
177
     2
291
     1
 71
     2
176
     1
 72
     2
176
     1
 73
     1
176
     1
 90
        2
176
     1
 40
0.6
176
     1
 41
30.0
176
     1
 63
     7
421
 16777215
176
     1
 74
     0
176
     1
 91
        0
176
     1
 64
     7
176
     1
 65
   257
176
     1
 75
     1
176
     1
175
     1
176
     1
 42
1.0
176
     1
 92
        0
176
     1
 66
     7
176
     1
 43
1.0
176
     1
 76
     1
176
     1
 77
     6
176
     1
 78
     2
176
     1
 67
     7
176
     1
 79
     5
176
     1
170
     0
176
     1
171
     0
176
     1
290
     0
176
     1
 93
       13
176
     1
 44
0.0
176
     1
173
     0
176
     1
1001
ACAD
1000
AcDbSavedByObjectVersion
1070
     0
  0
VISUALSTYLE
  5
2D
102
{ACAD_XDICTIONARY
360
176
102
}
102
{ACAD_REACTORS
330
29
102
}
330
29
100
AcDbVisualStyle
  2
GouraudWithEdges
 70
     3
177
     2
291
     1
 71
     2
176
     1
 72
     2
176
     1
 73
     1
176
     1
 90
        2
176
     1
 40
0.6
176
     1
 41
30.0
176
     1
 63
     7
421
 16777215
176
     1
 74
     1
176
     1
 91
        0
176
     1
 64
     7
176
     1
 65
   257
176
     1
 75
     1
176
     1
175
     1
176
     1
 42
1.0
176
     1
 92
        0
176
     1
 66
   257
176
     1
 43
1.0
176
     1
 76
     1
176
     1
 77
     6
176
     1
 78
     2
176
     1
 67
     7
176
     1
 79
     5
176
     1
170
     0
176
     1
171
     0
176
     1
290
     0
176
     1
 93
       13
176
     1
 44
0.0
176
     1
173
     0
176
     1
1001
ACAD
1000
AcDbSavedByObjectVersion
1070
     0
  0
VISUALSTYLE
  5
31
102
{ACAD_XDICTIONARY
360
17E
102
}
102
{ACAD_REACTORS
330
29
102
}
330
29
100
AcDbVisualStyle
  2
Hidden
 70
     6
177
     2
291
     0
 71
     1
176
     1
 72
     2
176
     1
 73
     2
176
     1
 90
        0
176
     1
 40
0.6
176
     1
 41
30.0
176
     1
 63
     7
421
 16777215
176
     1
 74
     2
176
     1
 91
        2
176
     1
 64
     7
176
     1
 65
   257
176
     1
 75
     2
176
     1
175
     1
176
     1
 42
40.0
176
     1
 92
        0
176
     1
 66
   257
176
     1
 43
1.0
176
     1
 76
     1
176
     1
 77
     6
176
     1
 78
     2
176
     1
 67
     7
176
     1
 79
     3
176
     1
170
     0
176
     1
171
     0
176
     1
290
     0
176
     1
 93
        1
176
     1
 44
0.0
176
     1
173
     0
176
     1
1001
ACAD
1000
AcDbSavedByObjectVersion
1070
     0
  0
VISUALSTYLE
  5
3F
102
{ACAD_XDICTIONARY
360
19A
102
}
102
{ACAD_REACTORS
330
29
102
}
330
29
100
AcDbVisualStyle
  2
JitterOff
 70
    20
177
     2
291
     1
 71
     2
176
     0
 72
     2
176
     0
 73
     0
176
     0
 90
        0
176
     0
 40
0.6
176
     0
 41
30.0
176
     0
 63
     7
421
 16777215
176
     0
 74
     1
176
     0
 91
        4
176
     0
 64
     7
176
     0
 65
   257
176
     0
 75
     1
176
     0
175
     1
176
     0
 42
1.0
176
     0
 92
       10
176
     2
 66
     7
176
     0
 43
1.0
176
     0
 76
     1
176
     0
 77
     6
176
     0
 78
     2
176
     0
 67
     7
176
     0
 79
     5
176
     0
170
     0
176
     0
171
     0
176
     0
290
     0
176
     0
 93
        1
176
     0
 44
0.0
176
     0
173
     0
176
     0
1001
ACAD
1000
AcDbSavedByObjectVersion
1070
     0
  0
VISUALSTYLE
  5
37
102
{ACAD_XDICTIONARY
360
18A
102
}
102
{ACAD_REACTORS
330
29
102
}
330
29
100
AcDbVisualStyle
  2
Linepattern
 70
    14
177
     2
291
     1
 71
     2
176
     1
 72
     2
176
     1
 73
     0
176
     1
 90
        0
176
     1
 40
0.6
176
     1
 41
30.0
176
     1
 63
     7
421
 16777215
176
     1
 74
     1
176
     1
 91
        4
176
     1
 64
     7
176
     1
 65
   257
176
     1
 75
     7
176
     1
175
     7
176
     1
 42
1.0
176
     1
 92
        8
176
     1
 66
     7
176
     1
 43
1.0
176
     1
 76
     1
176
     1
 77
     6
176
     1
 78
     2
176
     1
 67
     7
176
     1
 79
     5
176
     1
170
     0
176
     1
171
     0
176
     1
290
     0
176
     1
 93
        1
176
     1
 44
0.0
176
     1
173
     0
176
     1
1001
ACAD
1000
AcDbSavedByObjectVersion
1070
     0
  0
VISUALSTYLE
  5
40
102
{ACAD_XDICTIONARY
360
19C
102
}
102
{ACAD_REACTORS
330
29
102
}
330
29
100
AcDbVisualStyle
  2
OverhangOff
 70
    21
177
     2
291
     1
 71
     2
176
     0
 72
     2
176
     0
 73
     0
176
     0
 90
        0
176
     0
 40
0.6
176
     0
 41
30.0
176
     0
 63
     7
421
 16777215
176
     0
 74
     1
176
     0
 91
        4
176
     0
 64
     7
176
     0
 65
   257
176
     0
 75
     1
176
     0
175
     1
176
     0
 42
1.0
176
     0
 92
        9
176
     2
 66
     7
176
     0
 43
1.0
176
     0
 76
     1
176
     0
 77
     6
176
     0
 78
     2
176
     0
 67
     7
176
     0
 79
     5
176
     0
170
     0
176
     0
171
     0
176
     0
290
     0
176
     0
 93
        1
176
     0
 44
0.0
176
     0
173
     0
176
     0
1001
ACAD
1000
AcDbSavedByObjectVersion
1070
     0
  0
VISUALSTYLE
  5
33
102
{ACAD_XDICTIONARY
360
182
102
}
102
{ACAD_REACTORS
330
29
102
}
330
29
100
AcDbVisualStyle
  2
Realistic
 70
     8
177
     2
291
     0
 71
     2
176
     1
 72
     3
176
     1
 73
     0
176
     1
 90
        2
176
     1
 40
0.6
176
     1
 41
30.0
176
     1
 63
     7
421
 16777215
176
     1
 74
     0
176
     1
 91
        0
176
     1
 64
     7
176
     1
 65
   257
176
     1
 75
     1
176
     1
175
     1
176
     1
 42
1.0
176
     1
 92
        8
176
     1
 66
   257
176
     1
 43
1.0
176
     1
 76
     1
176
     1
 77
     6
176
     1
 78
     2
176
     1
 67
     7
176
     1
 79
     3
176
     1
170
     0
176
     1
171
     0
176
     1
290
     0
176
     1
 93
       13
176
     1
 44
0.0
176
     1
173
     0
176
     1
1001
ACAD
1000
AcDbSavedByObjectVersion
1070
     0
  0
VISUALSTYLE
  5
3E
102
{ACAD_XDICTIONARY
360
198
102
}
102
{ACAD_REACTORS
330
29
102
}
330
29
100
AcDbVisualStyle
  2
Shaded
 70
    27
177
     2
291
     0
 71
     2
176
     1
 72
     2
176
     1
 73
     1
176
     1
 90
        2
176
     1
 40
0.6
176
     1
 41
30.0
176
     1
 63
     7
421
 16777215
176
     1
 74
     0
176
     1
 91
        4
176
     1
 64
     7
176
     1
 65
   257
176
     1
 75
     1
176
     1
175
     1
176
     1
 42
1.0
176
     1
 92
        8
176
     1
 66
   257
176
     1
 43
1.0
176
     1
 76
     1
176
     1
 77
     6
176
     1
 78
     2
176
     1
 67
     8
425
  7895160
176
     1
 79
     3
176
     1
170
     0
176
     1
171
     0
176
     1
290
     0
176
     1
 93
        5
176
     1
 44
0.0
176
     1
173
     0
176
     1
1001
ACAD
1000
AcDbSavedByObjectVersion
1070
     0
  0
VISUALSTYLE
  5
3D
102
{ACAD_XDICTIONARY
360
196
102
}
102
{ACAD_REACTORS
330
29
102
}
330
29
100
AcDbVisualStyle
  2
Shaded with edges
 70
    26
177
     2
291
     0
 71
     2
176
     1
 72
     2
176
     1
 73
     1
176
     1
 90
        2
176
     1
 40
0.6
176
     1
 41
30.0
176
     1
 63
     7
421
 16777215
176
     1
 74
     1
176
     1
 91
        2
176
     1
 64
     7
176
     1
 65
   257
176
     1
 75
     2
176
     1
175
     1
176
     1
 42
1.0
176
     1
 92
        8
176
     1
 66
   257
176
     1
 43
1.0
176
     1
 76
     1
176
     1
 77
     6
176
     1
 78
     2
176
     1
 67
     7
176
     1
 79
     3
176
     1
170
     0
176
     1
171
     0
176
     1
290
     0
176
     1
 93
        5
176
     1
 44
0.0
176
     1
173
     0
176
     1
1001
ACAD
1000
AcDbSavedByObjectVersion
1070
     0
  0
VISUALSTYLE
  5
3A
102
{ACAD_XDICTIONARY
360
190
102
}
102
{ACAD_REACTORS
330
29
102
}
330
29
100
AcDbVisualStyle
  2
Shades of Gray
 70
    23
177
     2
291
     0
 71
     2
176
     1
 72
     2
176
     1
 73
     3
176
     1
 90
        0
176
     1
 40
0.6
176
     1
 41
30.0
176
     1
 63
     7
421
 16777215
176
     1
 74
     2
176
     1
 91
        2
176
     1
 64
     7
176
     1
 65
     7
176
     1
 75
     1
176
     1
175
     1
176
     1
 42
40.0
176
     1
 92
        8
176
     1
 66
     7
176
     1
 43
1.0
176
     1
 76
     1
176
     1
 77
     6
176
     1
 78
     2
176
     1
 67
     7
176
     1
 79
     3
176
     1
170
     0
176
     1
171
     0
176
     1
290
     0
176
     1
 93
        1
176
     1
 44
0.0
176
     1
173
     0
176
     1
1001
ACAD
1000
AcDbSavedByObjectVersion
1070
     0
  0
VISUALSTYLE
  5
3B
102
{ACAD_XDICTIONARY
360
192
102
}
102
{ACAD_REACTORS
330
29
102
}
330
29
100
AcDbVisualStyle
  2
Sketchy
 70
    24
177
     2
291
     0
 71
     1
176
     1
 72
     2
176
     1
 73
     2
176
     1
 90
        0
176
     1
 40
0.6
176
     1
 41
30.0
176
     1
 63
     7
421
 16777215
176
     1
 74
     2
176
     1
 91
        2
176
     1
 64
     7
176
     1
 65
     7
176
     1
 75
     1
176
     1
175
     1
176
     1
 42
40.0
176
     1
 92
       11
176
     1
 66
     7
176
     1
 43
1.0
176
     1
 76
     1
176
     1
 77
     6
176
     1
 78
     2
176
     1
 67
     7
176
     1
 79
     6
176
     1
170
     0
176
     1
171
     0
176
     1
290
     0
176
     1
 93
        1
176
     1
 44
0.0
176
     1
173
     0
176
     1
1001
ACAD
1000
AcDbSavedByObjectVersion
1070
     0
  0
VISUALSTYLE
  5
36
102
{ACAD_XDICTIONARY
360
188
102
}
102
{ACAD_REACTORS
330
29
102
}
330
29
100
AcDbVisualStyle
  2
Thicken
 70
    13
177
     2
291
     1
 71
     2
176
     1
 72
     2
176
     1
 73
     0
176
     1
 90
        0
176
     1
 40
0.6
176
     1
 41
30.0
176
     1
 63
     7
421
 16777215
176
     1
 74
     1
176
     1
 91
        4
176
     1
 64
     7
176
     1
 65
   257
176
     1
 75
     1
176
     1
175
     1
176
     1
 42
1.0
176
     1
 92
       12
176
     1
 66
     7
176
     1
 43
1.0
176
     1
 76
     1
176
     1
 77
     6
176
     1
 78
     2
176
     1
 67
     7
176
     1
 79
     5
176
     1
170
     0
176
     1
171
     0
176
     1
290
     0
176
     1
 93
        1
176
     1
 44
0.0
176
     1
173
     0
176
     1
1001
ACAD
1000
AcDbSavedByObjectVersion
1070
     0
  0
VISUALSTYLE
  5
30
102
{ACAD_XDICTIONARY
360
17C
102
}
102
{ACAD_REACTORS
330
29
102
}
330
29
100
AcDbVisualStyle
  2
Wireframe
 70
     5
177
     2
291
     0
 71
     0
176
     1
 72
     2
176
     1
 73
     0
176
     1
 90
        0
176
     1
 40
0.6
176
     1
 41
30.0
176
     1
 63
     7
421
 16777215
176
     1
 74
     1
176
     1
 91
        4
176
     1
 64
     7
176
     1
 65
   257
176
     1
 75
     1
176
     1
175
     1
176
     1
 42
1.0
176
     1
 92
        0
176
     1
 66
   257
176
     1
 43
1.0
176
     1
 76
     1
176
     1
 77
     6
176
     1
 78
     2
176
     1
 67
     7
176
     1
 79
     3
176
     1
170
     0
176
     1
171
     0
176
     1
290
     0
176
     1
 93
        1
176
     1
 44
0.0
176
     1
173
     0
176
     1
1001
ACAD
1000
AcDbSavedByObjectVersion
1070
     0
  0
VISUALSTYLE
  5
3C
102
{ACAD_XDICTIONARY
360
194
102
}
102
{ACAD_REACTORS
330
29
102
}
330
29
100
AcDbVisualStyle
  2
X-Ray
 70
    25
177
     2
291
     0
 71
     2
176
     1
 72
     2
176
     1
 73
     1
176
     1
 90
        1
176
     1
 40
0.5
176
     1
 41
30.0
176
     1
 63
     7
421
 16777215
176
     1
 74
     1
176
     1
 91
        0
176
     1
 64
     7
176
     1
 65
   257
176
     1
 75
     1
176
     1
175
     1
176
     1
 42
1.0
176
     1
 92
        8
176
     1
 66
     7
176
     1
 43
1.0
176
     1
 76
     1
176
     1
 77
     6
176
     1
 78
     2
176
     1
 67
     7
176
     1
 79
     3
176
     1
170
     0
176
     1
171
     0
176
     1
290
     0
176
     1
 93
       13
176
     1
 44
0.0
176
     1
173
     0
176
     1
1001
ACAD
1000
AcDbSavedByObjectVersion
1070
     0
  0
DICTIONARYVAR
  5
16C
102
{ACAD_REACTORS
330
167
102
}
330
167
100
DictionaryVariables
280
     0
  1
1:1
  0
DICTIONARYVAR
  5
169
102
{ACAD_REACTORS
330
167
102
}
330
167
100
DictionaryVariables
280
     0
  1
STANDARD
  0
DICTIONARYVAR
  5
168
102
{ACAD_REACTORS
330
167
102
}
330
167
100
DictionaryVariables
280
     0
  1
STANDARD
  0
DICTIONARYVAR
  5
16A
102
{ACAD_REACTORS
330
167
102
}
330
167
100
DictionaryVariables
280
     0
  1
Imperial24
  0
DICTIONARYVAR
  5
16B
102
{ACAD_REACTORS
330
167
102
}
330
167
100
DictionaryVariables
280
     0
  1
Imperial24
  0
DICTIONARY
  5
1A4
330
6B
100
AcDbDictionary
280
     1
281
     1
  3
ACAD_XREC_ROUNDTRIP
360
1A5
  0
DICTIONARY
  5
1A
330
19
100
AcDbDictionary
280
     1
281
     1
  3
BUMPTILE
360
1C
  3
DIFFUSETILE
360
1B
  3
OPACITYTILE
360
1F
  3
REFLECTIONTILE
360
1E
  3
REFRACTIONTILE
360
20
  3
SPECULARTILE
360
1D
  0
DICTIONARY
  5
12
330
11
100
AcDbDictionary
280
     1
281
     1
  3
BUMPTILE
360
14
  3
DIFFUSETILE
360
13
  3
OPACITYTILE
360
17
  3
REFLECTIONTILE
360
16
  3
REFRACTIONTILE
360
18
  3
SPECULARTILE
360
15
  0
DICTIONARY
  5
22
330
21
100
AcDbDictionary
280
     1
281
     1
  3
BUMPTILE
360
24
  3
DIFFUSETILE
360
23
  3
OPACITYTILE
360
27
  3
REFLECTIONTILE
360
26
  3
REFRACTIONTILE
360
28
  3
SPECULARTILE
360
25
  0
DICTIONARY
  5
1A0
330
67
100
AcDbDictionary
280
     1
281
     1
  3
ACAD_XREC_ROUNDTRIP
360
1A1
  0
DICTIONARY
  5
1A2
330
69
100
AcDbDictionary
280
     1
281
     1
  3
ACAD_XREC_ROUNDTRIP
360
1A3
  0
DICTIONARY
  5
16D
330
65
100
AcDbDictionary
280
     1
281
     1
  3
ACAD_ROUNDTRIP_2008_TABLESTYLE_CELLSTYLEMAP
360
16E
  0
DICTIONARY
  5
17A
330
2F
100
AcDbDictionary
280
     1
281
     1
  3
ACAD_XREC_ROUNDTRIP
360
17B
  0
DICTIONARY
  5
178
330
2E
100
AcDbDictionary
280
     1
281
     1
  3
ACAD_XREC_ROUNDTRIP
360
179
  0
DICTIONARY
  5
186
330
35
100
AcDbDictionary
280
     1
281
     1
  3
ACAD_XREC_ROUNDTRIP
360
187
  0
DICTIONARY
  5
18E
330
39
100
AcDbDictionary
280
     1
281
     1
  3
ACAD_XREC_ROUNDTRIP
360
18F
  0
DICTIONARY
  5
180
330
32
100
AcDbDictionary
280
     1
281
     1
  3
ACAD_XREC_ROUNDTRIP
360
181
  0
DICTIONARY
  5
184
330
34
100
AcDbDictionary
280
     1
281
     1
  3
ACAD_XREC_ROUNDTRIP
360
185
  0
DICTIONARY
  5
19E
330
41
100
AcDbDictionary
280
     1
281
     1
  3
ACAD_XREC_ROUNDTRIP
360
19F
  0
DICTIONARY
  5
18C
330
38
100
AcDbDictionary
280
     1
281
     1
  3
ACAD_XREC_ROUNDTRIP
360
18D
  0
DICTIONARY
  5
170
330
2A
100
AcDbDictionary
280
     1
281
     1
  3
ACAD_XREC_ROUNDTRIP
360
171
  0
DICTIONARY
  5
172
330
2B
100
AcDbDictionary
280
     1
281
     1
  3
ACAD_XREC_ROUNDTRIP
360
173
  0
DICTIONARY
  5
174
330
2C
100
AcDbDictionary
280
     1
281
     1
  3
ACAD_XREC_ROUNDTRIP
360
175
  0
DICTIONARY
  5
176
330
2D
100
AcDbDictionary
280
     1
281
     1
  3
ACAD_XREC_ROUNDTRIP
360
177
  0
DICTIONARY
  5
17E
330
31
100
AcDbDictionary
280
     1
281
     1
  3
ACAD_XREC_ROUNDTRIP
360
17F
  0
DICTIONARY
  5
19A
330
3F
100
AcDbDictionary
280
     1
281
     1
  3
ACAD_XREC_ROUNDTRIP
360
19B
  0
DICTIONARY
  5
18A
330
37
100
AcDbDictionary
280
     1
281
     1
  3
ACAD_XREC_ROUNDTRIP
360
18B
  0
DICTIONARY
  5
19C
330
40
100
AcDbDictionary
280
     1
281
     1
  3
ACAD_XREC_ROUNDTRIP
360
19D
  0
DICTIONARY
  5
182
330
33
100
AcDbDictionary
280
     1
281
     1
  3
ACAD_XREC_ROUNDTRIP
360
183
  0
DICTIONARY
  5
198
330
3E
100
AcDbDictionary
280
     1
281
     1
  3
ACAD_XREC_ROUNDTRIP
360
199
  0
DICTIONARY
  5
196
330
3D
100
AcDbDictionary
280
     1
281
     1
  3
ACAD_XREC_ROUNDTRIP
360
197
  0
DICTIONARY
  5
190
330
3A
100
AcDbDictionary
280
     1
281
     1
  3
ACAD_XREC_ROUNDTRIP
360
191
  0
DICTIONARY
  5
192
330
3B
100
AcDbDictionary
280
     1
281
     1
  3
ACAD_XREC_ROUNDTRIP
360
193
  0
DICTIONARY
  5
188
330
36
100
AcDbDictionary
280
     1
281
     1
  3
ACAD_XREC_ROUNDTRIP
360
189
  0
DICTIONARY
  5
17C
330
30
100
AcDbDictionary
280
     1
281
     1
  3
ACAD_XREC_ROUNDTRIP
360
17D
  0
DICTIONARY
  5
194
330
3C
100
AcDbDictionary
280
     1
281
     1
  3
ACAD_XREC_ROUNDTRIP
360
195
  0
XRECORD
  5
1A5
102
{ACAD_REACTORS
330
1A4
102
}
330
1A4
100
AcDbXrecord
280
     1
102
DISPLAYNAME
  1
Imperial24
102
FLAGS
 90
        0
  0
XRECORD
  5
1C
102
{ACAD_REACTORS
330
1A
102
}
330
1A
100
AcDbXrecord
280
     1
270
     1
271
     1
  0
XRECORD
  5
1B
102
{ACAD_REACTORS
330
1A
102
}
330
1A
100
AcDbXrecord
280
     1
270
     1
271
     1
  0
XRECORD
  5
1F
102
{ACAD_REACTORS
330
1A
102
}
330
1A
100
AcDbXrecord
280
     1
270
     1
271
     1
  0
XRECORD
  5
1E
102
{ACAD_REACTORS
330
1A
102
}
330
1A
100
AcDbXrecord
280
     1
270
     1
271
     1
  0
XRECORD
  5
20
102
{ACAD_REACTORS
330
1A
102
}
330
1A
100
AcDbXrecord
280
     1
270
     1
271
     1
  0
XRECORD
  5
1D
102
{ACAD_REACTORS
330
1A
102
}
330
1A
100
AcDbXrecord
280
     1
270
     1
271
     1
  0
XRECORD
  5
14
102
{ACAD_REACTORS
330
12
102
}
330
12
100
AcDbXrecord
280
     1
270
     1
271
     1
  0
XRECORD
  5
13
102
{ACAD_REACTORS
330
12
102
}
330
12
100
AcDbXrecord
280
     1
270
     1
271
     1
  0
XRECORD
  5
17
102
{ACAD_REACTORS
330
12
102
}
330
12
100
AcDbXrecord
280
     1
270
     1
271
     1
  0
XRECORD
  5
16
102
{ACAD_REACTORS
330
12
102
}
330
12
100
AcDbXrecord
280
     1
270
     1
271
     1
  0
XRECORD
  5
18
102
{ACAD_REACTORS
330
12
102
}
330
12
100
AcDbXrecord
280
     1
270
     1
271
     1
  0
XRECORD
  5
15
102
{ACAD_REACTORS
330
12
102
}
330
12
100
AcDbXrecord
280
     1
270
     1
271
     1
  0
XRECORD
  5
24
102
{ACAD_REACTORS
330
22
102
}
330
22
100
AcDbXrecord
280
     1
270
     1
271
     1
  0
XRECORD
  5
23
102
{ACAD_REACTORS
330
22
102
}
330
22
100
AcDbXrecord
280
     1
270
     1
271
     1
  0
XRECORD
  5
27
102
{ACAD_REACTORS
330
22
102
}
330
22
100
AcDbXrecord
280
     1
270
     1
271
     1
  0
XRECORD
  5
26
102
{ACAD_REACTORS
330
22
102
}
330
22
100
AcDbXrecord
280
     1
270
     1
271
     1
  0
XRECORD
  5
28
102
{ACAD_REACTORS
330
22
102
}
330
22
100
AcDbXrecord
280
     1
270
     1
271
     1
  0
XRECORD
  5
25
102
{ACAD_REACTORS
330
22
102
}
330
22
100
AcDbXrecord
280
     1
270
     1
271
     1
  0
XRECORD
  5
1A1
102
{ACAD_REACTORS
330
1A0
102
}
330
1A0
100
AcDbXrecord
280
     1
102
ACAD_ROUNDTRIP_2012_MLEADER_STYLE
298
     1
  0
XRECORD
  5
1A3
102
{ACAD_REACTORS
330
1A2
102
}
330
1A2
100
AcDbXrecord
280
     1
102
DISPLAYNAME
  1
Imperial24
102
FLAGS
 90
        0
  0
CELLSTYLEMAP
  5
16E
102
{ACAD_REACTORS
330
16D
102
}
330
16D
100
AcDbCellStyleMap
 90
        3
300
CELLSTYLE
  1
TABLEFORMAT_BEGIN
 90
        5
170
     1
 91
        0
 92
    32768
 62
   257
 93
        1
300
CONTENTFORMAT
  1
CONTENTFORMAT_BEGIN
 90
        0
 91
        0
 92
      512
 93
        0
300

 40
0.0
140
1.0
 94
        5
 62
     0
340
55
144
0.25
309
CONTENTFORMAT_END
171
     0
 94
        0
309
TABLEFORMAT_END
  1
CELLSTYLE_BEGIN
 90
        1
 91
        1
300
_TITLE
309
CELLSTYLE_END
300
CELLSTYLE
  1
TABLEFORMAT_BEGIN
 90
        5
170
     1
 91
        0
 92
        0
 62
   257
 93
        1
300
CONTENTFORMAT
  1
CONTENTFORMAT_BEGIN
 90
        0
 91
        0
 92
      512
 93
        0
300

 40
0.0
140
1.0
 94
        5
 62
     0
340
55
144
0.18
309
CONTENTFORMAT_END
171
     0
 94
        0
309
TABLEFORMAT_END
  1
CELLSTYLE_BEGIN
 90
        2
 91
        1
300
_HEADER
309
CELLSTYLE_END
300
CELLSTYLE
  1
TABLEFORMAT_BEGIN
 90
        5
170
     1
 91
        0
 92
        0
 62
   257
 93
        1
300
CONTENTFORMAT
  1
CONTENTFORMAT_BEGIN
 90
        0
 91
        0
 92
      512
 93
        0
300

 40
0.0
140
1.0
 94
        2
 62
     0
340
55
144
0.18
309
CONTENTFORMAT_END
171
     0
 94
        0
309
TABLEFORMAT_END
  1
CELLSTYLE_BEGIN
 90
        3
 91
        2
300
_DATA
309
CELLSTYLE_END
  0
XRECORD
  5
17B
102
{ACAD_REACTORS
330
17A
102
}
330
17A
100
AcDbXrecord
280
     1
102
RTVSPost2010Prop28
280
     1
102
RTVSPost2010PropOp28
 70
     1
102
RTVSPost2010Prop29
280
     1
102
RTVSPost2010PropOp29
 70
     1
102
RTVSPost2010Prop30
280
     0
102
RTVSPost2010PropOp30
 70
     1
102
RTVSPost2010Prop31
280
     0
102
RTVSPost2010PropOp31
 70
     1
102
RTVSPost2010Prop32
280
     0
102
RTVSPost2010PropOp32
 70
     1
102
RTVSPost2010Prop33
280
     0
102
RTVSPost2010PropOp33
 70
     1
102
RTVSPost2010Prop34
280
     0
102
RTVSPost2010PropOp34
 70
     1
102
RTVSPost2010Prop35
280
     0
102
RTVSPost2010PropOp35
 70
     1
102
RTVSPost2010Prop36
280
     0
102
RTVSPost2010PropOp36
 70
     1
102
RTVSPost2010Prop37
 90
       50
102
RTVSPost2010PropOp37
 70
     1
102
RTVSPost2010Prop38
140
0.0
102
RTVSPost2010PropOp38
 70
     1
102
RTVSPost2010Prop39
140
1.0
102
RTVSPost2010PropOp39
 70
     1
102
RTVSPost2010Prop40
 90
        0
102
RTVSPost2010PropOp40
 70
     1
102
RTVSPost2010Prop41ColorIndex
 90
       18
102
RTVSPost2010Prop41ColorRGB
 90
        0
102
RTVSPost2010PropOp41
 70
     1
102
RTVSPost2010Prop42
 90
       50
102
RTVSPost2010PropOp42
 70
     1
102
RTVSPost2010Prop43
 90
        3
102
RTVSPost2010PropOp43
 70
     1
102
RTVSPost2010Prop44ColorIndex
 90
        5
102
RTVSPost2010Prop44ColorRGB
 90
      255
102
RTVSPost2010PropOp44
 70
     1
102
RTVSPost2010Prop45
280
     0
102
RTVSPost2010PropOp45
 70
     1
102
RTVSPost2010Prop46
 90
       50
102
RTVSPost2010PropOp46
 70
     1
102
RTVSPost2010Prop47
 90
       50
102
RTVSPost2010PropOp47
 70
     1
102
RTVSPost2010Prop48
 90
       50
102
RTVSPost2010PropOp48
 70
     1
102
RTVSPost2010Prop49
280
     0
102
RTVSPost2010PropOp49
 70
     1
102
RTVSPost2010Prop50
 90
       50
102
RTVSPost2010PropOp50
 70
     1
102
RTVSPost2010Prop51ColorIndex
 90
      256
102
RTVSPost2010Prop51ColorRGB
 90
-16777216
102
RTVSPost2010PropOp51
 70
     0
102
RTVSPost2010Prop52
140
1.0
102
RTVSPost2010PropOp52
 70
     0
102
RTVSPost2010Prop53
 90
        2
102
RTVSPost2010PropOp53
 70
     1
102
RTVSPost2010Prop54
  1
strokes_ogs.tif
102
RTVSPost2010PropOp54
 70
     1
102
RTVSPost2010Prop55
280
     0
102
RTVSPost2010PropOp55
 70
     1
102
RTVSPost2010Prop56
140
1.0
102
RTVSPost2010PropOp56
 70
     1
102
RTVSPost2010Prop57
140
1.0
102
RTVSPost2010PropOp57
 70
     1
  0
XRECORD
  5
179
102
{ACAD_REACTORS
330
178
102
}
330
178
100
AcDbXrecord
280
     1
102
RTVSPost2010Prop28
280
     0
102
RTVSPost2010PropOp28
 70
     1
102
RTVSPost2010Prop29
280
     1
102
RTVSPost2010PropOp29
 70
     1
102
RTVSPost2010Prop30
280
     1
102
RTVSPost2010PropOp30
 70
     1
102
RTVSPost2010Prop31
280
     0
102
RTVSPost2010PropOp31
 70
     1
102
RTVSPost2010Prop32
280
     0
102
RTVSPost2010PropOp32
 70
     1
102
RTVSPost2010Prop33
280
     0
102
RTVSPost2010PropOp33
 70
     1
102
RTVSPost2010Prop34
280
     0
102
RTVSPost2010PropOp34
 70
     1
102
RTVSPost2010Prop35
280
     0
102
RTVSPost2010PropOp35
 70
     1
102
RTVSPost2010Prop36
280
     0
102
RTVSPost2010PropOp36
 70
     1
102
RTVSPost2010Prop37
 90
       50
102
RTVSPost2010PropOp37
 70
     1
102
RTVSPost2010Prop38
140
0.0
102
RTVSPost2010PropOp38
 70
     1
102
RTVSPost2010Prop39
140
1.0
102
RTVSPost2010PropOp39
 70
     1
102
RTVSPost2010Prop40
 90
        0
102
RTVSPost2010PropOp40
 70
     1
102
RTVSPost2010Prop41ColorIndex
 90
       18
102
RTVSPost2010Prop41ColorRGB
 90
        0
102
RTVSPost2010PropOp41
 70
     1
102
RTVSPost2010Prop42
 90
       50
102
RTVSPost2010PropOp42
 70
     1
102
RTVSPost2010Prop43
 90
        3
102
RTVSPost2010PropOp43
 70
     1
102
RTVSPost2010Prop44ColorIndex
 90
        5
102
RTVSPost2010Prop44ColorRGB
 90
      255
102
RTVSPost2010PropOp44
 70
     1
102
RTVSPost2010Prop45
280
     0
102
RTVSPost2010PropOp45
 70
     1
102
RTVSPost2010Prop46
 90
       50
102
RTVSPost2010PropOp46
 70
     1
102
RTVSPost2010Prop47
 90
       50
102
RTVSPost2010PropOp47
 70
     1
102
RTVSPost2010Prop48
 90
       50
102
RTVSPost2010PropOp48
 70
     1
102
RTVSPost2010Prop49
280
     0
102
RTVSPost2010PropOp49
 70
     1
102
RTVSPost2010Prop50
 90
       50
102
RTVSPost2010PropOp50
 70
     1
102
RTVSPost2010Prop51ColorIndex
 90
      256
102
RTVSPost2010Prop51ColorRGB
 90
-16777216
102
RTVSPost2010PropOp51
 70
     0
102
RTVSPost2010Prop52
140
1.0
102
RTVSPost2010PropOp52
 70
     0
102
RTVSPost2010Prop53
 90
        2
102
RTVSPost2010PropOp53
 70
     1
102
RTVSPost2010Prop54
  1
strokes_ogs.tif
102
RTVSPost2010PropOp54
 70
     1
102
RTVSPost2010Prop55
280
     0
102
RTVSPost2010PropOp55
 70
     1
102
RTVSPost2010Prop56
140
1.0
102
RTVSPost2010PropOp56
 70
     1
102
RTVSPost2010Prop57
140
1.0
102
RTVSPost2010PropOp57
 70
     1
  0
XRECORD
  5
187
102
{ACAD_REACTORS
330
186
102
}
330
186
100
AcDbXrecord
280
     1
102
RTVSPost2010Prop28
280
     0
102
RTVSPost2010PropOp28
 70
     1
102
RTVSPost2010Prop29
280
     1
102
RTVSPost2010PropOp29
 70
     1
102
RTVSPost2010Prop30
280
     1
102
RTVSPost2010PropOp30
 70
     1
102
RTVSPost2010Prop31
280
     0
102
RTVSPost2010PropOp31
 70
     1
102
RTVSPost2010Prop32
280
     0
102
RTVSPost2010PropOp32
 70
     1
102
RTVSPost2010Prop33
280
     0
102
RTVSPost2010PropOp33
 70
     1
102
RTVSPost2010Prop34
280
     0
102
RTVSPost2010PropOp34
 70
     1
102
RTVSPost2010Prop35
280
     0
102
RTVSPost2010PropOp35
 70
     1
102
RTVSPost2010Prop36
280
     0
102
RTVSPost2010PropOp36
 70
     1
102
RTVSPost2010Prop37
 90
       50
102
RTVSPost2010PropOp37
 70
     1
102
RTVSPost2010Prop38
140
0.0
102
RTVSPost2010PropOp38
 70
     1
102
RTVSPost2010Prop39
140
1.0
102
RTVSPost2010PropOp39
 70
     1
102
RTVSPost2010Prop40
 90
        0
102
RTVSPost2010PropOp40
 70
     1
102
RTVSPost2010Prop41ColorIndex
 90
       18
102
RTVSPost2010Prop41ColorRGB
 90
        0
102
RTVSPost2010PropOp41
 70
     1
102
RTVSPost2010Prop42
 90
       50
102
RTVSPost2010PropOp42
 70
     1
102
RTVSPost2010Prop43
 90
        3
102
RTVSPost2010PropOp43
 70
     1
102
RTVSPost2010Prop44ColorIndex
 90
        5
102
RTVSPost2010Prop44ColorRGB
 90
      255
102
RTVSPost2010PropOp44
 70
     1
102
RTVSPost2010Prop45
280
     0
102
RTVSPost2010PropOp45
 70
     1
102
RTVSPost2010Prop46
 90
       50
102
RTVSPost2010PropOp46
 70
     1
102
RTVSPost2010Prop47
 90
       50
102
RTVSPost2010PropOp47
 70
     1
102
RTVSPost2010Prop48
 90
       50
102
RTVSPost2010PropOp48
 70
     1
102
RTVSPost2010Prop49
280
     0
102
RTVSPost2010PropOp49
 70
     1
102
RTVSPost2010Prop50
 90
       50
102
RTVSPost2010PropOp50
 70
     1
102
RTVSPost2010Prop51ColorIndex
 90
      256
102
RTVSPost2010Prop51ColorRGB
 90
-16777216
102
RTVSPost2010PropOp51
 70
     0
102
RTVSPost2010Prop52
140
1.0
102
RTVSPost2010PropOp52
 70
     0
102
RTVSPost2010Prop53
 90
        2
102
RTVSPost2010PropOp53
 70
     1
102
RTVSPost2010Prop54
  1
strokes_ogs.tif
102
RTVSPost2010PropOp54
 70
     1
102
RTVSPost2010Prop55
280
     0
102
RTVSPost2010PropOp55
 70
     1
102
RTVSPost2010Prop56
140
1.0
102
RTVSPost2010PropOp56
 70
     1
102
RTVSPost2010Prop57
140
1.0
102
RTVSPost2010PropOp57
 70
     1
  0
XRECORD
  5
18F
102
{ACAD_REACTORS
330
18E
102
}
330
18E
100
AcDbXrecord
280
     1
102
RTVSPost2010Prop28
280
     0
102
RTVSPost2010PropOp28
 70
     1
102
RTVSPost2010Prop29
280
     1
102
RTVSPost2010PropOp29
 70
     1
102
RTVSPost2010Prop30
280
     1
102
RTVSPost2010PropOp30
 70
     1
102
RTVSPost2010Prop31
280
     0
102
RTVSPost2010PropOp31
 70
     1
102
RTVSPost2010Prop32
280
     0
102
RTVSPost2010PropOp32
 70
     1
102
RTVSPost2010Prop33
280
     0
102
RTVSPost2010PropOp33
 70
     1
102
RTVSPost2010Prop34
280
     0
102
RTVSPost2010PropOp34
 70
     1
102
RTVSPost2010Prop35
280
     0
102
RTVSPost2010PropOp35
 70
     1
102
RTVSPost2010Prop36
280
     0
102
RTVSPost2010PropOp36
 70
     1
102
RTVSPost2010Prop37
 90
       50
102
RTVSPost2010PropOp37
 70
     1
102
RTVSPost2010Prop38
140
0.0
102
RTVSPost2010PropOp38
 70
     1
102
RTVSPost2010Prop39
140
1.0
102
RTVSPost2010PropOp39
 70
     1
102
RTVSPost2010Prop40
 90
        0
102
RTVSPost2010PropOp40
 70
     1
102
RTVSPost2010Prop41ColorIndex
 90
       18
102
RTVSPost2010Prop41ColorRGB
 90
        0
102
RTVSPost2010PropOp41
 70
     1
102
RTVSPost2010Prop42
 90
       50
102
RTVSPost2010PropOp42
 70
     1
102
RTVSPost2010Prop43
 90
        3
102
RTVSPost2010PropOp43
 70
     1
102
RTVSPost2010Prop44ColorIndex
 90
        5
102
RTVSPost2010Prop44ColorRGB
 90
      255
102
RTVSPost2010PropOp44
 70
     1
102
RTVSPost2010Prop45
280
     0
102
RTVSPost2010PropOp45
 70
     1
102
RTVSPost2010Prop46
 90
       50
102
RTVSPost2010PropOp46
 70
     1
102
RTVSPost2010Prop47
 90
       50
102
RTVSPost2010PropOp47
 70
     1
102
RTVSPost2010Prop48
 90
       50
102
RTVSPost2010PropOp48
 70
     1
102
RTVSPost2010Prop49
280
     0
102
RTVSPost2010PropOp49
 70
     1
102
RTVSPost2010Prop50
 90
       50
102
RTVSPost2010PropOp50
 70
     1
102
RTVSPost2010Prop51ColorIndex
 90
      256
102
RTVSPost2010Prop51ColorRGB
 90
-16777216
102
RTVSPost2010PropOp51
 70
     0
102
RTVSPost2010Prop52
140
1.0
102
RTVSPost2010PropOp52
 70
     0
102
RTVSPost2010Prop53
 90
        2
102
RTVSPost2010PropOp53
 70
     1
102
RTVSPost2010Prop54
  1
strokes_ogs.tif
102
RTVSPost2010PropOp54
 70
     1
102
RTVSPost2010Prop55
280
     0
102
RTVSPost2010PropOp55
 70
     1
102
RTVSPost2010Prop56
140
1.0
102
RTVSPost2010PropOp56
 70
     1
102
RTVSPost2010Prop57
140
1.0
102
RTVSPost2010PropOp57
 70
     1
  0
XRECORD
  5
181
102
{ACAD_REACTORS
330
180
102
}
330
180
100
AcDbXrecord
280
     1
102
RTVSPost2010Prop28
280
     0
102
RTVSPost2010PropOp28
 70
     1
102
RTVSPost2010Prop29
280
     1
102
RTVSPost2010PropOp29
 70
     1
102
RTVSPost2010Prop30
280
     1
102
RTVSPost2010PropOp30
 70
     1
102
RTVSPost2010Prop31
280
     0
102
RTVSPost2010PropOp31
 70
     1
102
RTVSPost2010Prop32
280
     0
102
RTVSPost2010PropOp32
 70
     1
102
RTVSPost2010Prop33
280
     0
102
RTVSPost2010PropOp33
 70
     1
102
RTVSPost2010Prop34
280
     0
102
RTVSPost2010PropOp34
 70
     1
102
RTVSPost2010Prop35
280
     0
102
RTVSPost2010PropOp35
 70
     1
102
RTVSPost2010Prop36
280
     0
102
RTVSPost2010PropOp36
 70
     1
102
RTVSPost2010Prop37
 90
       50
102
RTVSPost2010PropOp37
 70
     1
102
RTVSPost2010Prop38
140
0.0
102
RTVSPost2010PropOp38
 70
     1
102
RTVSPost2010Prop39
140
1.0
102
RTVSPost2010PropOp39
 70
     1
102
RTVSPost2010Prop40
 90
        0
102
RTVSPost2010PropOp40
 70
     1
102
RTVSPost2010Prop41ColorIndex
 90
       18
102
RTVSPost2010Prop41ColorRGB
 90
        0
102
RTVSPost2010PropOp41
 70
     1
102
RTVSPost2010Prop42
 90
       50
102
RTVSPost2010PropOp42
 70
     1
102
RTVSPost2010Prop43
 90
        3
102
RTVSPost2010PropOp43
 70
     1
102
RTVSPost2010Prop44ColorIndex
 90
        5
102
RTVSPost2010Prop44ColorRGB
 90
      255
102
RTVSPost2010PropOp44
 70
     1
102
RTVSPost2010Prop45
280
     0
102
RTVSPost2010PropOp45
 70
     1
102
RTVSPost2010Prop46
 90
       50
102
RTVSPost2010PropOp46
 70
     1
102
RTVSPost2010Prop47
 90
       50
102
RTVSPost2010PropOp47
 70
     1
102
RTVSPost2010Prop48
 90
       50
102
RTVSPost2010PropOp48
 70
     1
102
RTVSPost2010Prop49
280
     0
102
RTVSPost2010PropOp49
 70
     1
102
RTVSPost2010Prop50
 90
       50
102
RTVSPost2010PropOp50
 70
     1
102
RTVSPost2010Prop51ColorIndex
 90
      256
102
RTVSPost2010Prop51ColorRGB
 90
-16777216
102
RTVSPost2010PropOp51
 70
     0
102
RTVSPost2010Prop52
140
1.0
102
RTVSPost2010PropOp52
 70
     0
102
RTVSPost2010Prop53
 90
        2
102
RTVSPost2010PropOp53
 70
     1
102
RTVSPost2010Prop54
  1
strokes_ogs.tif
102
RTVSPost2010PropOp54
 70
     1
102
RTVSPost2010Prop55
280
     0
102
RTVSPost2010PropOp55
 70
     1
102
RTVSPost2010Prop56
140
1.0
102
RTVSPost2010PropOp56
 70
     1
102
RTVSPost2010Prop57
140
1.0
102
RTVSPost2010PropOp57
 70
     1
  0
XRECORD
  5
185
102
{ACAD_REACTORS
330
184
102
}
330
184
100
AcDbXrecord
280
     1
102
RTVSPost2010Prop28
280
     0
102
RTVSPost2010PropOp28
 70
     1
102
RTVSPost2010Prop29
280
     1
102
RTVSPost2010PropOp29
 70
     1
102
RTVSPost2010Prop30
280
     1
102
RTVSPost2010PropOp30
 70
     1
102
RTVSPost2010Prop31
280
     0
102
RTVSPost2010PropOp31
 70
     1
102
RTVSPost2010Prop32
280
     0
102
RTVSPost2010PropOp32
 70
     1
102
RTVSPost2010Prop33
280
     0
102
RTVSPost2010PropOp33
 70
     1
102
RTVSPost2010Prop34
280
     0
102
RTVSPost2010PropOp34
 70
     1
102
RTVSPost2010Prop35
280
     0
102
RTVSPost2010PropOp35
 70
     1
102
RTVSPost2010Prop36
280
     0
102
RTVSPost2010PropOp36
 70
     1
102
RTVSPost2010Prop37
 90
       50
102
RTVSPost2010PropOp37
 70
     1
102
RTVSPost2010Prop38
140
0.0
102
RTVSPost2010PropOp38
 70
     1
102
RTVSPost2010Prop39
140
1.0
102
RTVSPost2010PropOp39
 70
     1
102
RTVSPost2010Prop40
 90
        0
102
RTVSPost2010PropOp40
 70
     1
102
RTVSPost2010Prop41ColorIndex
 90
       18
102
RTVSPost2010Prop41ColorRGB
 90
        0
102
RTVSPost2010PropOp41
 70
     1
102
RTVSPost2010Prop42
 90
       50
102
RTVSPost2010PropOp42
 70
     1
102
RTVSPost2010Prop43
 90
        3
102
RTVSPost2010PropOp43
 70
     1
102
RTVSPost2010Prop44ColorIndex
 90
        5
102
RTVSPost2010Prop44ColorRGB
 90
      255
102
RTVSPost2010PropOp44
 70
     1
102
RTVSPost2010Prop45
280
     0
102
RTVSPost2010PropOp45
 70
     1
102
RTVSPost2010Prop46
 90
       50
102
RTVSPost2010PropOp46
 70
     1
102
RTVSPost2010Prop47
 90
       50
102
RTVSPost2010PropOp47
 70
     1
102
RTVSPost2010Prop48
 90
       50
102
RTVSPost2010PropOp48
 70
     1
102
RTVSPost2010Prop49
280
     0
102
RTVSPost2010PropOp49
 70
     1
102
RTVSPost2010Prop50
 90
       50
102
RTVSPost2010PropOp50
 70
     1
102
RTVSPost2010Prop51ColorIndex
 90
      256
102
RTVSPost2010Prop51ColorRGB
 90
-16777216
102
RTVSPost2010PropOp51
 70
     0
102
RTVSPost2010Prop52
140
1.0
102
RTVSPost2010PropOp52
 70
     0
102
RTVSPost2010Prop53
 90
        2
102
RTVSPost2010PropOp53
 70
     1
102
RTVSPost2010Prop54
  1
strokes_ogs.tif
102
RTVSPost2010PropOp54
 70
     1
102
RTVSPost2010Prop55
280
     0
102
RTVSPost2010PropOp55
 70
     1
102
RTVSPost2010Prop56
140
1.0
102
RTVSPost2010PropOp56
 70
     1
102
RTVSPost2010Prop57
140
1.0
102
RTVSPost2010PropOp57
 70
     1
  0
XRECORD
  5
19F
102
{ACAD_REACTORS
330
19E
102
}
330
19E
100
AcDbXrecord
280
     1
102
RTVSPost2010Prop28
280
     0
102
RTVSPost2010PropOp28
 70
     0
102
RTVSPost2010Prop29
280
     1
102
RTVSPost2010PropOp29
 70
     0
102
RTVSPost2010Prop30
280
     1
102
RTVSPost2010PropOp30
 70
     0
102
RTVSPost2010Prop31
280
     0
102
RTVSPost2010PropOp31
 70
     0
102
RTVSPost2010Prop32
280
     0
102
RTVSPost2010PropOp32
 70
     0
102
RTVSPost2010Prop33
280
     0
102
RTVSPost2010PropOp33
 70
     0
102
RTVSPost2010Prop34
280
     0
102
RTVSPost2010PropOp34
 70
     0
102
RTVSPost2010Prop35
280
     0
102
RTVSPost2010PropOp35
 70
     0
102
RTVSPost2010Prop36
280
     0
102
RTVSPost2010PropOp36
 70
     0
102
RTVSPost2010Prop37
 90
       50
102
RTVSPost2010PropOp37
 70
     0
102
RTVSPost2010Prop38
140
0.0
102
RTVSPost2010PropOp38
 70
     0
102
RTVSPost2010Prop39
140
1.0
102
RTVSPost2010PropOp39
 70
     0
102
RTVSPost2010Prop40
 90
        0
102
RTVSPost2010PropOp40
 70
     0
102
RTVSPost2010Prop41ColorIndex
 90
       18
102
RTVSPost2010Prop41ColorRGB
 90
        0
102
RTVSPost2010PropOp41
 70
     0
102
RTVSPost2010Prop42
 90
       50
102
RTVSPost2010PropOp42
 70
     0
102
RTVSPost2010Prop43
 90
        3
102
RTVSPost2010PropOp43
 70
     0
102
RTVSPost2010Prop44ColorIndex
 90
        5
102
RTVSPost2010Prop44ColorRGB
 90
      255
102
RTVSPost2010PropOp44
 70
     0
102
RTVSPost2010Prop45
280
     0
102
RTVSPost2010PropOp45
 70
     0
102
RTVSPost2010Prop46
 90
       50
102
RTVSPost2010PropOp46
 70
     0
102
RTVSPost2010Prop47
 90
       50
102
RTVSPost2010PropOp47
 70
     0
102
RTVSPost2010Prop48
 90
       50
102
RTVSPost2010PropOp48
 70
     0
102
RTVSPost2010Prop49
280
     0
102
RTVSPost2010PropOp49
 70
     0
102
RTVSPost2010Prop50
 90
       50
102
RTVSPost2010PropOp50
 70
     0
102
RTVSPost2010Prop51ColorIndex
 90
      256
102
RTVSPost2010Prop51ColorRGB
 90
-16777216
102
RTVSPost2010PropOp51
 70
     0
102
RTVSPost2010Prop52
140
1.0
102
RTVSPost2010PropOp52
 70
     0
102
RTVSPost2010Prop53
 90
        2
102
RTVSPost2010PropOp53
 70
     0
102
RTVSPost2010Prop54
  1
strokes_ogs.tif
102
RTVSPost2010PropOp54
 70
     0
102
RTVSPost2010Prop55
280
     0
102
RTVSPost2010PropOp55
 70
     0
102
RTVSPost2010Prop56
140
1.0
102
RTVSPost2010PropOp56
 70
     0
102
RTVSPost2010Prop57
140
1.0
102
RTVSPost2010PropOp57
 70
     0
  0
XRECORD
  5
18D
102
{ACAD_REACTORS
330
18C
102
}
330
18C
100
AcDbXrecord
280
     1
102
RTVSPost2010Prop28
280
     0
102
RTVSPost2010PropOp28
 70
     1
102
RTVSPost2010Prop29
280
     1
102
RTVSPost2010PropOp29
 70
     1
102
RTVSPost2010Prop30
280
     1
102
RTVSPost2010PropOp30
 70
     1
102
RTVSPost2010Prop31
280
     0
102
RTVSPost2010PropOp31
 70
     1
102
RTVSPost2010Prop32
280
     0
102
RTVSPost2010PropOp32
 70
     1
102
RTVSPost2010Prop33
280
     0
102
RTVSPost2010PropOp33
 70
     1
102
RTVSPost2010Prop34
280
     0
102
RTVSPost2010PropOp34
 70
     1
102
RTVSPost2010Prop35
280
     0
102
RTVSPost2010PropOp35
 70
     1
102
RTVSPost2010Prop36
280
     0
102
RTVSPost2010PropOp36
 70
     1
102
RTVSPost2010Prop37
 90
       50
102
RTVSPost2010PropOp37
 70
     1
102
RTVSPost2010Prop38
140
0.0
102
RTVSPost2010PropOp38
 70
     1
102
RTVSPost2010Prop39
140
1.0
102
RTVSPost2010PropOp39
 70
     1
102
RTVSPost2010Prop40
 90
        0
102
RTVSPost2010PropOp40
 70
     1
102
RTVSPost2010Prop41ColorIndex
 90
       18
102
RTVSPost2010Prop41ColorRGB
 90
        0
102
RTVSPost2010PropOp41
 70
     1
102
RTVSPost2010Prop42
 90
       50
102
RTVSPost2010PropOp42
 70
     1
102
RTVSPost2010Prop43
 90
        3
102
RTVSPost2010PropOp43
 70
     1
102
RTVSPost2010Prop44ColorIndex
 90
        5
102
RTVSPost2010Prop44ColorRGB
 90
      255
102
RTVSPost2010PropOp44
 70
     1
102
RTVSPost2010Prop45
280
     0
102
RTVSPost2010PropOp45
 70
     1
102
RTVSPost2010Prop46
 90
       50
102
RTVSPost2010PropOp46
 70
     1
102
RTVSPost2010Prop47
 90
       50
102
RTVSPost2010PropOp47
 70
     1
102
RTVSPost2010Prop48
 90
       50
102
RTVSPost2010PropOp48
 70
     1
102
RTVSPost2010Prop49
280
     0
102
RTVSPost2010PropOp49
 70
     1
102
RTVSPost2010Prop50
 90
       50
102
RTVSPost2010PropOp50
 70
     1
102
RTVSPost2010Prop51ColorIndex
 90
      256
102
RTVSPost2010Prop51ColorRGB
 90
-16777216
102
RTVSPost2010PropOp51
 70
     0
102
RTVSPost2010Prop52
140
1.0
102
RTVSPost2010PropOp52
 70
     0
102
RTVSPost2010Prop53
 90
        2
102
RTVSPost2010PropOp53
 70
     1
102
RTVSPost2010Prop54
  1
strokes_ogs.tif
102
RTVSPost2010PropOp54
 70
     1
102
RTVSPost2010Prop55
280
     0
102
RTVSPost2010PropOp55
 70
     1
102
RTVSPost2010Prop56
140
1.0
102
RTVSPost2010PropOp56
 70
     1
102
RTVSPost2010Prop57
140
1.0
102
RTVSPost2010PropOp57
 70
     1
  0
XRECORD
  5
171
102
{ACAD_REACTORS
330
170
102
}
330
170
100
AcDbXrecord
280
     1
102
RTVSPost2010Prop28
280
     0
102
RTVSPost2010PropOp28
 70
     1
102
RTVSPost2010Prop29
280
     1
102
RTVSPost2010PropOp29
 70
     1
102
RTVSPost2010Prop30
280
     1
102
RTVSPost2010PropOp30
 70
     1
102
RTVSPost2010Prop31
280
     0
102
RTVSPost2010PropOp31
 70
     1
102
RTVSPost2010Prop32
280
     0
102
RTVSPost2010PropOp32
 70
     1
102
RTVSPost2010Prop33
280
     0
102
RTVSPost2010PropOp33
 70
     1
102
RTVSPost2010Prop34
280
     0
102
RTVSPost2010PropOp34
 70
     1
102
RTVSPost2010Prop35
280
     0
102
RTVSPost2010PropOp35
 70
     1
102
RTVSPost2010Prop36
280
     0
102
RTVSPost2010PropOp36
 70
     1
102
RTVSPost2010Prop37
 90
       50
102
RTVSPost2010PropOp37
 70
     1
102
RTVSPost2010Prop38
140
0.0
102
RTVSPost2010PropOp38
 70
     1
102
RTVSPost2010Prop39
140
1.0
102
RTVSPost2010PropOp39
 70
     1
102
RTVSPost2010Prop40
 90
        0
102
RTVSPost2010PropOp40
 70
     1
102
RTVSPost2010Prop41ColorIndex
 90
       18
102
RTVSPost2010Prop41ColorRGB
 90
        0
102
RTVSPost2010PropOp41
 70
     1
102
RTVSPost2010Prop42
 90
       50
102
RTVSPost2010PropOp42
 70
     1
102
RTVSPost2010Prop43
 90
        3
102
RTVSPost2010PropOp43
 70
     1
102
RTVSPost2010Prop44ColorIndex
 90
        5
102
RTVSPost2010Prop44ColorRGB
 90
      255
102
RTVSPost2010PropOp44
 70
     1
102
RTVSPost2010Prop45
280
     0
102
RTVSPost2010PropOp45
 70
     1
102
RTVSPost2010Prop46
 90
       50
102
RTVSPost2010PropOp46
 70
     1
102
RTVSPost2010Prop47
 90
       50
102
RTVSPost2010PropOp47
 70
     1
102
RTVSPost2010Prop48
 90
       50
102
RTVSPost2010PropOp48
 70
     1
102
RTVSPost2010Prop49
280
     0
102
RTVSPost2010PropOp49
 70
     1
102
RTVSPost2010Prop50
 90
       50
102
RTVSPost2010PropOp50
 70
     1
102
RTVSPost2010Prop51ColorIndex
 90
      256
102
RTVSPost2010Prop51ColorRGB
 90
-16777216
102
RTVSPost2010PropOp51
 70
     0
102
RTVSPost2010Prop52
140
1.0
102
RTVSPost2010PropOp52
 70
     0
102
RTVSPost2010Prop53
 90
        2
102
RTVSPost2010PropOp53
 70
     1
102
RTVSPost2010Prop54
  1
strokes_ogs.tif
102
RTVSPost2010PropOp54
 70
     1
102
RTVSPost2010Prop55
280
     0
102
RTVSPost2010PropOp55
 70
     1
102
RTVSPost2010Prop56
140
1.0
102
RTVSPost2010PropOp56
 70
     1
102
RTVSPost2010Prop57
140
1.0
102
RTVSPost2010PropOp57
 70
     1
  0
XRECORD
  5
173
102
{ACAD_REACTORS
330
172
102
}
330
172
100
AcDbXrecord
280
     1
102
RTVSPost2010Prop28
280
     0
102
RTVSPost2010PropOp28
 70
     1
102
RTVSPost2010Prop29
280
     1
102
RTVSPost2010PropOp29
 70
     1
102
RTVSPost2010Prop30
280
     1
102
RTVSPost2010PropOp30
 70
     1
102
RTVSPost2010Prop31
280
     0
102
RTVSPost2010PropOp31
 70
     1
102
RTVSPost2010Prop32
280
     0
102
RTVSPost2010PropOp32
 70
     1
102
RTVSPost2010Prop33
280
     0
102
RTVSPost2010PropOp33
 70
     1
102
RTVSPost2010Prop34
280
     0
102
RTVSPost2010PropOp34
 70
     1
102
RTVSPost2010Prop35
280
     0
102
RTVSPost2010PropOp35
 70
     1
102
RTVSPost2010Prop36
280
     0
102
RTVSPost2010PropOp36
 70
     1
102
RTVSPost2010Prop37
 90
       50
102
RTVSPost2010PropOp37
 70
     1
102
RTVSPost2010Prop38
140
0.0
102
RTVSPost2010PropOp38
 70
     1
102
RTVSPost2010Prop39
140
1.0
102
RTVSPost2010PropOp39
 70
     1
102
RTVSPost2010Prop40
 90
        0
102
RTVSPost2010PropOp40
 70
     1
102
RTVSPost2010Prop41ColorIndex
 90
       18
102
RTVSPost2010Prop41ColorRGB
 90
        0
102
RTVSPost2010PropOp41
 70
     1
102
RTVSPost2010Prop42
 90
       50
102
RTVSPost2010PropOp42
 70
     1
102
RTVSPost2010Prop43
 90
        3
102
RTVSPost2010PropOp43
 70
     1
102
RTVSPost2010Prop44ColorIndex
 90
        5
102
RTVSPost2010Prop44ColorRGB
 90
      255
102
RTVSPost2010PropOp44
 70
     1
102
RTVSPost2010Prop45
280
     0
102
RTVSPost2010PropOp45
 70
     1
102
RTVSPost2010Prop46
 90
       50
102
RTVSPost2010PropOp46
 70
     1
102
RTVSPost2010Prop47
 90
       50
102
RTVSPost2010PropOp47
 70
     1
102
RTVSPost2010Prop48
 90
       50
102
RTVSPost2010PropOp48
 70
     1
102
RTVSPost2010Prop49
280
     0
102
RTVSPost2010PropOp49
 70
     1
102
RTVSPost2010Prop50
 90
       50
102
RTVSPost2010PropOp50
 70
     1
102
RTVSPost2010Prop51ColorIndex
 90
      256
102
RTVSPost2010Prop51ColorRGB
 90
-16777216
102
RTVSPost2010PropOp51
 70
     0
102
RTVSPost2010Prop52
140
1.0
102
RTVSPost2010PropOp52
 70
     0
102
RTVSPost2010Prop53
 90
        2
102
RTVSPost2010PropOp53
 70
     1
102
RTVSPost2010Prop54
  1
strokes_ogs.tif
102
RTVSPost2010PropOp54
 70
     1
102
RTVSPost2010Prop55
280
     0
102
RTVSPost2010PropOp55
 70
     1
102
RTVSPost2010Prop56
140
1.0
102
RTVSPost2010PropOp56
 70
     1
102
RTVSPost2010Prop57
140
1.0
102
RTVSPost2010PropOp57
 70
     1
  0
XRECORD
  5
175
102
{ACAD_REACTORS
330
174
102
}
330
174
100
AcDbXrecord
280
     1
102
RTVSPost2010Prop28
280
     0
102
RTVSPost2010PropOp28
 70
     1
102
RTVSPost2010Prop29
280
     1
102
RTVSPost2010PropOp29
 70
     1
102
RTVSPost2010Prop30
280
     1
102
RTVSPost2010PropOp30
 70
     1
102
RTVSPost2010Prop31
280
     0
102
RTVSPost2010PropOp31
 70
     1
102
RTVSPost2010Prop32
280
     0
102
RTVSPost2010PropOp32
 70
     1
102
RTVSPost2010Prop33
280
     0
102
RTVSPost2010PropOp33
 70
     1
102
RTVSPost2010Prop34
280
     0
102
RTVSPost2010PropOp34
 70
     1
102
RTVSPost2010Prop35
280
     0
102
RTVSPost2010PropOp35
 70
     1
102
RTVSPost2010Prop36
280
     0
102
RTVSPost2010PropOp36
 70
     1
102
RTVSPost2010Prop37
 90
       50
102
RTVSPost2010PropOp37
 70
     1
102
RTVSPost2010Prop38
140
0.0
102
RTVSPost2010PropOp38
 70
     1
102
RTVSPost2010Prop39
140
1.0
102
RTVSPost2010PropOp39
 70
     1
102
RTVSPost2010Prop40
 90
        0
102
RTVSPost2010PropOp40
 70
     1
102
RTVSPost2010Prop41ColorIndex
 90
       18
102
RTVSPost2010Prop41ColorRGB
 90
        0
102
RTVSPost2010PropOp41
 70
     1
102
RTVSPost2010Prop42
 90
       50
102
RTVSPost2010PropOp42
 70
     1
102
RTVSPost2010Prop43
 90
        3
102
RTVSPost2010PropOp43
 70
     1
102
RTVSPost2010Prop44ColorIndex
 90
        5
102
RTVSPost2010Prop44ColorRGB
 90
      255
102
RTVSPost2010PropOp44
 70
     1
102
RTVSPost2010Prop45
280
     0
102
RTVSPost2010PropOp45
 70
     1
102
RTVSPost2010Prop46
 90
       50
102
RTVSPost2010PropOp46
 70
     1
102
RTVSPost2010Prop47
 90
       50
102
RTVSPost2010PropOp47
 70
     1
102
RTVSPost2010Prop48
 90
       50
102
RTVSPost2010PropOp48
 70
     1
102
RTVSPost2010Prop49
280
     0
102
RTVSPost2010PropOp49
 70
     1
102
RTVSPost2010Prop50
 90
       50
102
RTVSPost2010PropOp50
 70
     1
102
RTVSPost2010Prop51ColorIndex
 90
      256
102
RTVSPost2010Prop51ColorRGB
 90
-16777216
102
RTVSPost2010PropOp51
 70
     0
102
RTVSPost2010Prop52
140
1.0
102
RTVSPost2010PropOp52
 70
     0
102
RTVSPost2010Prop53
 90
        2
102
RTVSPost2010PropOp53
 70
     1
102
RTVSPost2010Prop54
  1
strokes_ogs.tif
102
RTVSPost2010PropOp54
 70
     1
102
RTVSPost2010Prop55
280
     0
102
RTVSPost2010PropOp55
 70
     1
102
RTVSPost2010Prop56
140
1.0
102
RTVSPost2010PropOp56
 70
     1
102
RTVSPost2010Prop57
140
1.0
102
RTVSPost2010PropOp57
 70
     1
  0
XRECORD
  5
177
102
{ACAD_REACTORS
330
176
102
}
330
176
100
AcDbXrecord
280
     1
102
RTVSPost2010Prop28
280
     0
102
RTVSPost2010PropOp28
 70
     1
102
RTVSPost2010Prop29
280
     1
102
RTVSPost2010PropOp29
 70
     1
102
RTVSPost2010Prop30
280
     1
102
RTVSPost2010PropOp30
 70
     1
102
RTVSPost2010Prop31
280
     0
102
RTVSPost2010PropOp31
 70
     1
102
RTVSPost2010Prop32
280
     0
102
RTVSPost2010PropOp32
 70
     1
102
RTVSPost2010Prop33
280
     0
102
RTVSPost2010PropOp33
 70
     1
102
RTVSPost2010Prop34
280
     0
102
RTVSPost2010PropOp34
 70
     1
102
RTVSPost2010Prop35
280
     0
102
RTVSPost2010PropOp35
 70
     1
102
RTVSPost2010Prop36
280
     0
102
RTVSPost2010PropOp36
 70
     1
102
RTVSPost2010Prop37
 90
       50
102
RTVSPost2010PropOp37
 70
     1
102
RTVSPost2010Prop38
140
0.0
102
RTVSPost2010PropOp38
 70
     1
102
RTVSPost2010Prop39
140
1.0
102
RTVSPost2010PropOp39
 70
     1
102
RTVSPost2010Prop40
 90
        0
102
RTVSPost2010PropOp40
 70
     1
102
RTVSPost2010Prop41ColorIndex
 90
       18
102
RTVSPost2010Prop41ColorRGB
 90
        0
102
RTVSPost2010PropOp41
 70
     1
102
RTVSPost2010Prop42
 90
       50
102
RTVSPost2010PropOp42
 70
     1
102
RTVSPost2010Prop43
 90
        3
102
RTVSPost2010PropOp43
 70
     1
102
RTVSPost2010Prop44ColorIndex
 90
        5
102
RTVSPost2010Prop44ColorRGB
 90
      255
102
RTVSPost2010PropOp44
 70
     1
102
RTVSPost2010Prop45
280
     0
102
RTVSPost2010PropOp45
 70
     1
102
RTVSPost2010Prop46
 90
       50
102
RTVSPost2010PropOp46
 70
     1
102
RTVSPost2010Prop47
 90
       50
102
RTVSPost2010PropOp47
 70
     1
102
RTVSPost2010Prop48
 90
       50
102
RTVSPost2010PropOp48
 70
     1
102
RTVSPost2010Prop49
280
     0
102
RTVSPost2010PropOp49
 70
     1
102
RTVSPost2010Prop50
 90
       50
102
RTVSPost2010PropOp50
 70
     1
102
RTVSPost2010Prop51ColorIndex
 90
      256
102
RTVSPost2010Prop51ColorRGB
 90
-16777216
102
RTVSPost2010PropOp51
 70
     0
102
RTVSPost2010Prop52
140
1.0
102
RTVSPost2010PropOp52
 70
     0
102
RTVSPost2010Prop53
 90
        2
102
RTVSPost2010PropOp53
 70
     1
102
RTVSPost2010Prop54
  1
strokes_ogs.tif
102
RTVSPost2010PropOp54
 70
     1
102
RTVSPost2010Prop55
280
     0
102
RTVSPost2010PropOp55
 70
     1
102
RTVSPost2010Prop56
140
1.0
102
RTVSPost2010PropOp56
 70
     1
102
RTVSPost2010Prop57
140
1.0
102
RTVSPost2010PropOp57
 70
     1
  0
XRECORD
  5
17F
102
{ACAD_REACTORS
330
17E
102
}
330
17E
100
AcDbXrecord
280
     1
102
RTVSPost2010Prop28
280
     0
102
RTVSPost2010PropOp28
 70
     1
102
RTVSPost2010Prop29
280
     1
102
RTVSPost2010PropOp29
 70
     1
102
RTVSPost2010Prop30
280
     1
102
RTVSPost2010PropOp30
 70
     1
102
RTVSPost2010Prop31
280
     0
102
RTVSPost2010PropOp31
 70
     1
102
RTVSPost2010Prop32
280
     0
102
RTVSPost2010PropOp32
 70
     1
102
RTVSPost2010Prop33
280
     0
102
RTVSPost2010PropOp33
 70
     1
102
RTVSPost2010Prop34
280
     0
102
RTVSPost2010PropOp34
 70
     1
102
RTVSPost2010Prop35
280
     0
102
RTVSPost2010PropOp35
 70
     1
102
RTVSPost2010Prop36
280
     0
102
RTVSPost2010PropOp36
 70
     1
102
RTVSPost2010Prop37
 90
       50
102
RTVSPost2010PropOp37
 70
     1
102
RTVSPost2010Prop38
140
0.0
102
RTVSPost2010PropOp38
 70
     1
102
RTVSPost2010Prop39
140
1.0
102
RTVSPost2010PropOp39
 70
     1
102
RTVSPost2010Prop40
 90
        0
102
RTVSPost2010PropOp40
 70
     1
102
RTVSPost2010Prop41ColorIndex
 90
       18
102
RTVSPost2010Prop41ColorRGB
 90
        0
102
RTVSPost2010PropOp41
 70
     1
102
RTVSPost2010Prop42
 90
       50
102
RTVSPost2010PropOp42
 70
     1
102
RTVSPost2010Prop43
 90
        3
102
RTVSPost2010PropOp43
 70
     1
102
RTVSPost2010Prop44ColorIndex
 90
        5
102
RTVSPost2010Prop44ColorRGB
 90
      255
102
RTVSPost2010PropOp44
 70
     1
102
RTVSPost2010Prop45
280
     0
102
RTVSPost2010PropOp45
 70
     1
102
RTVSPost2010Prop46
 90
       50
102
RTVSPost2010PropOp46
 70
     1
102
RTVSPost2010Prop47
 90
       50
102
RTVSPost2010PropOp47
 70
     1
102
RTVSPost2010Prop48
 90
       50
102
RTVSPost2010PropOp48
 70
     1
102
RTVSPost2010Prop49
280
     0
102
RTVSPost2010PropOp49
 70
     1
102
RTVSPost2010Prop50
 90
       50
102
RTVSPost2010PropOp50
 70
     1
102
RTVSPost2010Prop51ColorIndex
 90
      256
102
RTVSPost2010Prop51ColorRGB
 90
-16777216
102
RTVSPost2010PropOp51
 70
     0
102
RTVSPost2010Prop52
140
1.0
102
RTVSPost2010PropOp52
 70
     0
102
RTVSPost2010Prop53
 90
        2
102
RTVSPost2010PropOp53
 70
     1
102
RTVSPost2010Prop54
  1
strokes_ogs.tif
102
RTVSPost2010PropOp54
 70
     1
102
RTVSPost2010Prop55
280
     0
102
RTVSPost2010PropOp55
 70
     1
102
RTVSPost2010Prop56
140
1.0
102
RTVSPost2010PropOp56
 70
     1
102
RTVSPost2010Prop57
140
1.0
102
RTVSPost2010PropOp57
 70
     1
  0
XRECORD
  5
19B
102
{ACAD_REACTORS
330
19A
102
}
330
19A
100
AcDbXrecord
280
     1
102
RTVSPost2010Prop28
280
     0
102
RTVSPost2010PropOp28
 70
     0
102
RTVSPost2010Prop29
280
     1
102
RTVSPost2010PropOp29
 70
     0
102
RTVSPost2010Prop30
280
     1
102
RTVSPost2010PropOp30
 70
     0
102
RTVSPost2010Prop31
280
     0
102
RTVSPost2010PropOp31
 70
     0
102
RTVSPost2010Prop32
280
     0
102
RTVSPost2010PropOp32
 70
     0
102
RTVSPost2010Prop33
280
     0
102
RTVSPost2010PropOp33
 70
     0
102
RTVSPost2010Prop34
280
     0
102
RTVSPost2010PropOp34
 70
     0
102
RTVSPost2010Prop35
280
     0
102
RTVSPost2010PropOp35
 70
     0
102
RTVSPost2010Prop36
280
     0
102
RTVSPost2010PropOp36
 70
     0
102
RTVSPost2010Prop37
 90
       50
102
RTVSPost2010PropOp37
 70
     0
102
RTVSPost2010Prop38
140
0.0
102
RTVSPost2010PropOp38
 70
     0
102
RTVSPost2010Prop39
140
1.0
102
RTVSPost2010PropOp39
 70
     0
102
RTVSPost2010Prop40
 90
        0
102
RTVSPost2010PropOp40
 70
     0
102
RTVSPost2010Prop41ColorIndex
 90
       18
102
RTVSPost2010Prop41ColorRGB
 90
        0
102
RTVSPost2010PropOp41
 70
     0
102
RTVSPost2010Prop42
 90
       50
102
RTVSPost2010PropOp42
 70
     0
102
RTVSPost2010Prop43
 90
        3
102
RTVSPost2010PropOp43
 70
     0
102
RTVSPost2010Prop44ColorIndex
 90
        5
102
RTVSPost2010Prop44ColorRGB
 90
      255
102
RTVSPost2010PropOp44
 70
     0
102
RTVSPost2010Prop45
280
     0
102
RTVSPost2010PropOp45
 70
     0
102
RTVSPost2010Prop46
 90
       50
102
RTVSPost2010PropOp46
 70
     0
102
RTVSPost2010Prop47
 90
       50
102
RTVSPost2010PropOp47
 70
     0
102
RTVSPost2010Prop48
 90
       50
102
RTVSPost2010PropOp48
 70
     0
102
RTVSPost2010Prop49
280
     0
102
RTVSPost2010PropOp49
 70
     0
102
RTVSPost2010Prop50
 90
       50
102
RTVSPost2010PropOp50
 70
     0
102
RTVSPost2010Prop51ColorIndex
 90
      256
102
RTVSPost2010Prop51ColorRGB
 90
-16777216
102
RTVSPost2010PropOp51
 70
     0
102
RTVSPost2010Prop52
140
1.0
102
RTVSPost2010PropOp52
 70
     0
102
RTVSPost2010Prop53
 90
        2
102
RTVSPost2010PropOp53
 70
     0
102
RTVSPost2010Prop54
  1
strokes_ogs.tif
102
RTVSPost2010PropOp54
 70
     0
102
RTVSPost2010Prop55
280
     0
102
RTVSPost2010PropOp55
 70
     0
102
RTVSPost2010Prop56
140
1.0
102
RTVSPost2010PropOp56
 70
     0
102
RTVSPost2010Prop57
140
1.0
102
RTVSPost2010PropOp57
 70
     0
  0
XRECORD
  5
18B
102
{ACAD_REACTORS
330
18A
102
}
330
18A
100
AcDbXrecord
280
     1
102
RTVSPost2010Prop28
280
     0
102
RTVSPost2010PropOp28
 70
     1
102
RTVSPost2010Prop29
280
     1
102
RTVSPost2010PropOp29
 70
     1
102
RTVSPost2010Prop30
280
     1
102
RTVSPost2010PropOp30
 70
     1
102
RTVSPost2010Prop31
280
     0
102
RTVSPost2010PropOp31
 70
     1
102
RTVSPost2010Prop32
280
     0
102
RTVSPost2010PropOp32
 70
     1
102
RTVSPost2010Prop33
280
     0
102
RTVSPost2010PropOp33
 70
     1
102
RTVSPost2010Prop34
280
     0
102
RTVSPost2010PropOp34
 70
     1
102
RTVSPost2010Prop35
280
     0
102
RTVSPost2010PropOp35
 70
     1
102
RTVSPost2010Prop36
280
     0
102
RTVSPost2010PropOp36
 70
     1
102
RTVSPost2010Prop37
 90
       50
102
RTVSPost2010PropOp37
 70
     1
102
RTVSPost2010Prop38
140
0.0
102
RTVSPost2010PropOp38
 70
     1
102
RTVSPost2010Prop39
140
1.0
102
RTVSPost2010PropOp39
 70
     1
102
RTVSPost2010Prop40
 90
        0
102
RTVSPost2010PropOp40
 70
     1
102
RTVSPost2010Prop41ColorIndex
 90
       18
102
RTVSPost2010Prop41ColorRGB
 90
        0
102
RTVSPost2010PropOp41
 70
     1
102
RTVSPost2010Prop42
 90
       50
102
RTVSPost2010PropOp42
 70
     1
102
RTVSPost2010Prop43
 90
        3
102
RTVSPost2010PropOp43
 70
     1
102
RTVSPost2010Prop44ColorIndex
 90
        5
102
RTVSPost2010Prop44ColorRGB
 90
      255
102
RTVSPost2010PropOp44
 70
     1
102
RTVSPost2010Prop45
280
     0
102
RTVSPost2010PropOp45
 70
     1
102
RTVSPost2010Prop46
 90
       50
102
RTVSPost2010PropOp46
 70
     1
102
RTVSPost2010Prop47
 90
       50
102
RTVSPost2010PropOp47
 70
     1
102
RTVSPost2010Prop48
 90
       50
102
RTVSPost2010PropOp48
 70
     1
102
RTVSPost2010Prop49
280
     0
102
RTVSPost2010PropOp49
 70
     1
102
RTVSPost2010Prop50
 90
       50
102
RTVSPost2010PropOp50
 70
     1
102
RTVSPost2010Prop51ColorIndex
 90
      256
102
RTVSPost2010Prop51ColorRGB
 90
-16777216
102
RTVSPost2010PropOp51
 70
     0
102
RTVSPost2010Prop52
140
1.0
102
RTVSPost2010PropOp52
 70
     0
102
RTVSPost2010Prop53
 90
        2
102
RTVSPost2010PropOp53
 70
     1
102
RTVSPost2010Prop54
  1
strokes_ogs.tif
102
RTVSPost2010PropOp54
 70
     1
102
RTVSPost2010Prop55
280
     0
102
RTVSPost2010PropOp55
 70
     1
102
RTVSPost2010Prop56
140
1.0
102
RTVSPost2010PropOp56
 70
     1
102
RTVSPost2010Prop57
140
1.0
102
RTVSPost2010PropOp57
 70
     1
  0
XRECORD
  5
19D
102
{ACAD_REACTORS
330
19C
102
}
330
19C
100
AcDbXrecord
280
     1
102
RTVSPost2010Prop28
280
     0
102
RTVSPost2010PropOp28
 70
     0
102
RTVSPost2010Prop29
280
     1
102
RTVSPost2010PropOp29
 70
     0
102
RTVSPost2010Prop30
280
     1
102
RTVSPost2010PropOp30
 70
     0
102
RTVSPost2010Prop31
280
     0
102
RTVSPost2010PropOp31
 70
     0
102
RTVSPost2010Prop32
280
     0
102
RTVSPost2010PropOp32
 70
     0
102
RTVSPost2010Prop33
280
     0
102
RTVSPost2010PropOp33
 70
     0
102
RTVSPost2010Prop34
280
     0
102
RTVSPost2010PropOp34
 70
     0
102
RTVSPost2010Prop35
280
     0
102
RTVSPost2010PropOp35
 70
     0
102
RTVSPost2010Prop36
280
     0
102
RTVSPost2010PropOp36
 70
     0
102
RTVSPost2010Prop37
 90
       50
102
RTVSPost2010PropOp37
 70
     0
102
RTVSPost2010Prop38
140
0.0
102
RTVSPost2010PropOp38
 70
     0
102
RTVSPost2010Prop39
140
1.0
102
RTVSPost2010PropOp39
 70
     0
102
RTVSPost2010Prop40
 90
        0
102
RTVSPost2010PropOp40
 70
     0
102
RTVSPost2010Prop41ColorIndex
 90
       18
102
RTVSPost2010Prop41ColorRGB
 90
        0
102
RTVSPost2010PropOp41
 70
     0
102
RTVSPost2010Prop42
 90
       50
102
RTVSPost2010PropOp42
 70
     0
102
RTVSPost2010Prop43
 90
        3
102
RTVSPost2010PropOp43
 70
     0
102
RTVSPost2010Prop44ColorIndex
 90
        5
102
RTVSPost2010Prop44ColorRGB
 90
      255
102
RTVSPost2010PropOp44
 70
     0
102
RTVSPost2010Prop45
280
     0
102
RTVSPost2010PropOp45
 70
     0
102
RTVSPost2010Prop46
 90
       50
102
RTVSPost2010PropOp46
 70
     0
102
RTVSPost2010Prop47
 90
       50
102
RTVSPost2010PropOp47
 70
     0
102
RTVSPost2010Prop48
 90
       50
102
RTVSPost2010PropOp48
 70
     0
102
RTVSPost2010Prop49
280
     0
102
RTVSPost2010PropOp49
 70
     0
102
RTVSPost2010Prop50
 90
       50
102
RTVSPost2010PropOp50
 70
     0
102
RTVSPost2010Prop51ColorIndex
 90
      256
102
RTVSPost2010Prop51ColorRGB
 90
-16777216
102
RTVSPost2010PropOp51
 70
     0
102
RTVSPost2010Prop52
140
1.0
102
RTVSPost2010PropOp52
 70
     0
102
RTVSPost2010Prop53
 90
        2
102
RTVSPost2010PropOp53
 70
     0
102
RTVSPost2010Prop54
  1
strokes_ogs.tif
102
RTVSPost2010PropOp54
 70
     0
102
RTVSPost2010Prop55
280
     0
102
RTVSPost2010PropOp55
 70
     0
102
RTVSPost2010Prop56
140
1.0
102
RTVSPost2010PropOp56
 70
     0
102
RTVSPost2010Prop57
140
1.0
102
RTVSPost2010PropOp57
 70
     0
  0
XRECORD
  5
183
102
{ACAD_REACTORS
330
182
102
}
330
182
100
AcDbXrecord
280
     1
102
RTVSPost2010Prop28
280
     0
102
RTVSPost2010PropOp28
 70
     1
102
RTVSPost2010Prop29
280
     1
102
RTVSPost2010PropOp29
 70
     1
102
RTVSPost2010Prop30
280
     1
102
RTVSPost2010PropOp30
 70
     1
102
RTVSPost2010Prop31
280
     0
102
RTVSPost2010PropOp31
 70
     1
102
RTVSPost2010Prop32
280
     0
102
RTVSPost2010PropOp32
 70
     1
102
RTVSPost2010Prop33
280
     0
102
RTVSPost2010PropOp33
 70
     1
102
RTVSPost2010Prop34
280
     0
102
RTVSPost2010PropOp34
 70
     1
102
RTVSPost2010Prop35
280
     0
102
RTVSPost2010PropOp35
 70
     1
102
RTVSPost2010Prop36
280
     0
102
RTVSPost2010PropOp36
 70
     1
102
RTVSPost2010Prop37
 90
       50
102
RTVSPost2010PropOp37
 70
     1
102
RTVSPost2010Prop38
140
0.0
102
RTVSPost2010PropOp38
 70
     1
102
RTVSPost2010Prop39
140
1.0
102
RTVSPost2010PropOp39
 70
     1
102
RTVSPost2010Prop40
 90
        0
102
RTVSPost2010PropOp40
 70
     1
102
RTVSPost2010Prop41ColorIndex
 90
       18
102
RTVSPost2010Prop41ColorRGB
 90
        0
102
RTVSPost2010PropOp41
 70
     1
102
RTVSPost2010Prop42
 90
       50
102
RTVSPost2010PropOp42
 70
     1
102
RTVSPost2010Prop43
 90
        3
102
RTVSPost2010PropOp43
 70
     1
102
RTVSPost2010Prop44ColorIndex
 90
        5
102
RTVSPost2010Prop44ColorRGB
 90
      255
102
RTVSPost2010PropOp44
 70
     1
102
RTVSPost2010Prop45
280
     0
102
RTVSPost2010PropOp45
 70
     1
102
RTVSPost2010Prop46
 90
       50
102
RTVSPost2010PropOp46
 70
     1
102
RTVSPost2010Prop47
 90
       50
102
RTVSPost2010PropOp47
 70
     1
102
RTVSPost2010Prop48
 90
       50
102
RTVSPost2010PropOp48
 70
     1
102
RTVSPost2010Prop49
280
     0
102
RTVSPost2010PropOp49
 70
     1
102
RTVSPost2010Prop50
 90
       50
102
RTVSPost2010PropOp50
 70
     1
102
RTVSPost2010Prop51ColorIndex
 90
      256
102
RTVSPost2010Prop51ColorRGB
 90
-16777216
102
RTVSPost2010PropOp51
 70
     0
102
RTVSPost2010Prop52
140
1.0
102
RTVSPost2010PropOp52
 70
     0
102
RTVSPost2010Prop53
 90
        2
102
RTVSPost2010PropOp53
 70
     1
102
RTVSPost2010Prop54
  1
strokes_ogs.tif
102
RTVSPost2010PropOp54
 70
     1
102
RTVSPost2010Prop55
280
     0
102
RTVSPost2010PropOp55
 70
     1
102
RTVSPost2010Prop56
140
1.0
102
RTVSPost2010PropOp56
 70
     1
102
RTVSPost2010Prop57
140
1.0
102
RTVSPost2010PropOp57
 70
     1
  0
XRECORD
  5
199
102
{ACAD_REACTORS
330
198
102
}
330
198
100
AcDbXrecord
280
     1
102
RTVSPost2010Prop28
280
     0
102
RTVSPost2010PropOp28
 70
     1
102
RTVSPost2010Prop29
280
     1
102
RTVSPost2010PropOp29
 70
     1
102
RTVSPost2010Prop30
280
     1
102
RTVSPost2010PropOp30
 70
     1
102
RTVSPost2010Prop31
280
     0
102
RTVSPost2010PropOp31
 70
     1
102
RTVSPost2010Prop32
280
     0
102
RTVSPost2010PropOp32
 70
     1
102
RTVSPost2010Prop33
280
     0
102
RTVSPost2010PropOp33
 70
     1
102
RTVSPost2010Prop34
280
     0
102
RTVSPost2010PropOp34
 70
     1
102
RTVSPost2010Prop35
280
     0
102
RTVSPost2010PropOp35
 70
     1
102
RTVSPost2010Prop36
280
     0
102
RTVSPost2010PropOp36
 70
     1
102
RTVSPost2010Prop37
 90
       50
102
RTVSPost2010PropOp37
 70
     1
102
RTVSPost2010Prop38
140
0.0
102
RTVSPost2010PropOp38
 70
     1
102
RTVSPost2010Prop39
140
1.0
102
RTVSPost2010PropOp39
 70
     1
102
RTVSPost2010Prop40
 90
        0
102
RTVSPost2010PropOp40
 70
     1
102
RTVSPost2010Prop41ColorIndex
 90
       18
102
RTVSPost2010Prop41ColorRGB
 90
        0
102
RTVSPost2010PropOp41
 70
     1
102
RTVSPost2010Prop42
 90
       50
102
RTVSPost2010PropOp42
 70
     1
102
RTVSPost2010Prop43
 90
        3
102
RTVSPost2010PropOp43
 70
     1
102
RTVSPost2010Prop44ColorIndex
 90
        5
102
RTVSPost2010Prop44ColorRGB
 90
      255
102
RTVSPost2010PropOp44
 70
     1
102
RTVSPost2010Prop45
280
     0
102
RTVSPost2010PropOp45
 70
     1
102
RTVSPost2010Prop46
 90
       50
102
RTVSPost2010PropOp46
 70
     1
102
RTVSPost2010Prop47
 90
       50
102
RTVSPost2010PropOp47
 70
     1
102
RTVSPost2010Prop48
 90
       50
102
RTVSPost2010PropOp48
 70
     1
102
RTVSPost2010Prop49
280
     0
102
RTVSPost2010PropOp49
 70
     1
102
RTVSPost2010Prop50
 90
       50
102
RTVSPost2010PropOp50
 70
     1
102
RTVSPost2010Prop51ColorIndex
 90
      256
102
RTVSPost2010Prop51ColorRGB
 90
-16777216
102
RTVSPost2010PropOp51
 70
     0
102
RTVSPost2010Prop52
140
1.0
102
RTVSPost2010PropOp52
 70
     0
102
RTVSPost2010Prop53
 90
        2
102
RTVSPost2010PropOp53
 70
     1
102
RTVSPost2010Prop54
  1
strokes_ogs.tif
102
RTVSPost2010PropOp54
 70
     1
102
RTVSPost2010Prop55
280
     0
102
RTVSPost2010PropOp55
 70
     1
102
RTVSPost2010Prop56
140
1.0
102
RTVSPost2010PropOp56
 70
     1
102
RTVSPost2010Prop57
140
1.0
102
RTVSPost2010PropOp57
 70
     1
  0
XRECORD
  5
197
102
{ACAD_REACTORS
330
196
102
}
330
196
100
AcDbXrecord
280
     1
102
RTVSPost2010Prop28
280
     0
102
RTVSPost2010PropOp28
 70
     1
102
RTVSPost2010Prop29
280
     1
102
RTVSPost2010PropOp29
 70
     1
102
RTVSPost2010Prop30
280
     1
102
RTVSPost2010PropOp30
 70
     1
102
RTVSPost2010Prop31
280
     0
102
RTVSPost2010PropOp31
 70
     1
102
RTVSPost2010Prop32
280
     0
102
RTVSPost2010PropOp32
 70
     1
102
RTVSPost2010Prop33
280
     0
102
RTVSPost2010PropOp33
 70
     1
102
RTVSPost2010Prop34
280
     0
102
RTVSPost2010PropOp34
 70
     1
102
RTVSPost2010Prop35
280
     0
102
RTVSPost2010PropOp35
 70
     1
102
RTVSPost2010Prop36
280
     0
102
RTVSPost2010PropOp36
 70
     1
102
RTVSPost2010Prop37
 90
       50
102
RTVSPost2010PropOp37
 70
     1
102
RTVSPost2010Prop38
140
0.0
102
RTVSPost2010PropOp38
 70
     1
102
RTVSPost2010Prop39
140
1.0
102
RTVSPost2010PropOp39
 70
     1
102
RTVSPost2010Prop40
 90
        0
102
RTVSPost2010PropOp40
 70
     1
102
RTVSPost2010Prop41ColorIndex
 90
       18
102
RTVSPost2010Prop41ColorRGB
 90
        0
102
RTVSPost2010PropOp41
 70
     1
102
RTVSPost2010Prop42
 90
       50
102
RTVSPost2010PropOp42
 70
     1
102
RTVSPost2010Prop43
 90
        3
102
RTVSPost2010PropOp43
 70
     1
102
RTVSPost2010Prop44ColorIndex
 90
        5
102
RTVSPost2010Prop44ColorRGB
 90
      255
102
RTVSPost2010PropOp44
 70
     1
102
RTVSPost2010Prop45
280
     0
102
RTVSPost2010PropOp45
 70
     1
102
RTVSPost2010Prop46
 90
       50
102
RTVSPost2010PropOp46
 70
     1
102
RTVSPost2010Prop47
 90
       50
102
RTVSPost2010PropOp47
 70
     1
102
RTVSPost2010Prop48
 90
       50
102
RTVSPost2010PropOp48
 70
     1
102
RTVSPost2010Prop49
280
     0
102
RTVSPost2010PropOp49
 70
     1
102
RTVSPost2010Prop50
 90
       50
102
RTVSPost2010PropOp50
 70
     1
102
RTVSPost2010Prop51ColorIndex
 90
      256
102
RTVSPost2010Prop51ColorRGB
 90
-16777216
102
RTVSPost2010PropOp51
 70
     0
102
RTVSPost2010Prop52
140
1.0
102
RTVSPost2010PropOp52
 70
     0
102
RTVSPost2010Prop53
 90
        2
102
RTVSPost2010PropOp53
 70
     1
102
RTVSPost2010Prop54
  1
strokes_ogs.tif
102
RTVSPost2010PropOp54
 70
     1
102
RTVSPost2010Prop55
280
     0
102
RTVSPost2010PropOp55
 70
     1
102
RTVSPost2010Prop56
140
1.0
102
RTVSPost2010PropOp56
 70
     1
102
RTVSPost2010Prop57
140
1.0
102
RTVSPost2010PropOp57
 70
     1
  0
XRECORD
  5
191
102
{ACAD_REACTORS
330
190
102
}
330
190
100
AcDbXrecord
280
     1
102
RTVSPost2010Prop28
280
     0
102
RTVSPost2010PropOp28
 70
     1
102
RTVSPost2010Prop29
280
     1
102
RTVSPost2010PropOp29
 70
     1
102
RTVSPost2010Prop30
280
     1
102
RTVSPost2010PropOp30
 70
     1
102
RTVSPost2010Prop31
280
     0
102
RTVSPost2010PropOp31
 70
     1
102
RTVSPost2010Prop32
280
     0
102
RTVSPost2010PropOp32
 70
     1
102
RTVSPost2010Prop33
280
     0
102
RTVSPost2010PropOp33
 70
     1
102
RTVSPost2010Prop34
280
     0
102
RTVSPost2010PropOp34
 70
     1
102
RTVSPost2010Prop35
280
     0
102
RTVSPost2010PropOp35
 70
     1
102
RTVSPost2010Prop36
280
     0
102
RTVSPost2010PropOp36
 70
     1
102
RTVSPost2010Prop37
 90
       50
102
RTVSPost2010PropOp37
 70
     1
102
RTVSPost2010Prop38
140
0.0
102
RTVSPost2010PropOp38
 70
     1
102
RTVSPost2010Prop39
140
1.0
102
RTVSPost2010PropOp39
 70
     1
102
RTVSPost2010Prop40
 90
        0
102
RTVSPost2010PropOp40
 70
     1
102
RTVSPost2010Prop41ColorIndex
 90
       18
102
RTVSPost2010Prop41ColorRGB
 90
        0
102
RTVSPost2010PropOp41
 70
     1
102
RTVSPost2010Prop42
 90
       50
102
RTVSPost2010PropOp42
 70
     1
102
RTVSPost2010Prop43
 90
        3
102
RTVSPost2010PropOp43
 70
     1
102
RTVSPost2010Prop44ColorIndex
 90
        5
102
RTVSPost2010Prop44ColorRGB
 90
      255
102
RTVSPost2010PropOp44
 70
     1
102
RTVSPost2010Prop45
280
     0
102
RTVSPost2010PropOp45
 70
     1
102
RTVSPost2010Prop46
 90
       50
102
RTVSPost2010PropOp46
 70
     1
102
RTVSPost2010Prop47
 90
       50
102
RTVSPost2010PropOp47
 70
     1
102
RTVSPost2010Prop48
 90
       50
102
RTVSPost2010PropOp48
 70
     1
102
RTVSPost2010Prop49
280
     0
102
RTVSPost2010PropOp49
 70
     1
102
RTVSPost2010Prop50
 90
       50
102
RTVSPost2010PropOp50
 70
     1
102
RTVSPost2010Prop51ColorIndex
 90
      256
102
RTVSPost2010Prop51ColorRGB
 90
-16777216
102
RTVSPost2010PropOp51
 70
     0
102
RTVSPost2010Prop52
140
1.0
102
RTVSPost2010PropOp52
 70
     0
102
RTVSPost2010Prop53
 90
        2
102
RTVSPost2010PropOp53
 70
     1
102
RTVSPost2010Prop54
  1
strokes_ogs.tif
102
RTVSPost2010PropOp54
 70
     1
102
RTVSPost2010Prop55
280
     0
102
RTVSPost2010PropOp55
 70
     1
102
RTVSPost2010Prop56
140
1.0
102
RTVSPost2010PropOp56
 70
     1
102
RTVSPost2010Prop57
140
1.0
102
RTVSPost2010PropOp57
 70
     1
  0
XRECORD
  5
193
102
{ACAD_REACTORS
330
192
102
}
330
192
100
AcDbXrecord
280
     1
102
RTVSPost2010Prop28
280
     0
102
RTVSPost2010PropOp28
 70
     1
102
RTVSPost2010Prop29
280
     1
102
RTVSPost2010PropOp29
 70
     1
102
RTVSPost2010Prop30
280
     1
102
RTVSPost2010PropOp30
 70
     1
102
RTVSPost2010Prop31
280
     0
102
RTVSPost2010PropOp31
 70
     1
102
RTVSPost2010Prop32
280
     0
102
RTVSPost2010PropOp32
 70
     1
102
RTVSPost2010Prop33
280
     0
102
RTVSPost2010PropOp33
 70
     1
102
RTVSPost2010Prop34
280
     0
102
RTVSPost2010PropOp34
 70
     1
102
RTVSPost2010Prop35
280
     0
102
RTVSPost2010PropOp35
 70
     1
102
RTVSPost2010Prop36
280
     0
102
RTVSPost2010PropOp36
 70
     1
102
RTVSPost2010Prop37
 90
       50
102
RTVSPost2010PropOp37
 70
     1
102
RTVSPost2010Prop38
140
0.0
102
RTVSPost2010PropOp38
 70
     1
102
RTVSPost2010Prop39
140
1.0
102
RTVSPost2010PropOp39
 70
     1
102
RTVSPost2010Prop40
 90
        0
102
RTVSPost2010PropOp40
 70
     1
102
RTVSPost2010Prop41ColorIndex
 90
       18
102
RTVSPost2010Prop41ColorRGB
 90
        0
102
RTVSPost2010PropOp41
 70
     1
102
RTVSPost2010Prop42
 90
       50
102
RTVSPost2010PropOp42
 70
     1
102
RTVSPost2010Prop43
 90
        3
102
RTVSPost2010PropOp43
 70
     1
102
RTVSPost2010Prop44ColorIndex
 90
        5
102
RTVSPost2010Prop44ColorRGB
 90
      255
102
RTVSPost2010PropOp44
 70
     1
102
RTVSPost2010Prop45
280
     0
102
RTVSPost2010PropOp45
 70
     1
102
RTVSPost2010Prop46
 90
       50
102
RTVSPost2010PropOp46
 70
     1
102
RTVSPost2010Prop47
 90
       50
102
RTVSPost2010PropOp47
 70
     1
102
RTVSPost2010Prop48
 90
       50
102
RTVSPost2010PropOp48
 70
     1
102
RTVSPost2010Prop49
280
     0
102
RTVSPost2010PropOp49
 70
     1
102
RTVSPost2010Prop50
 90
       50
102
RTVSPost2010PropOp50
 70
     1
102
RTVSPost2010Prop51ColorIndex
 90
      256
102
RTVSPost2010Prop51ColorRGB
 90
-16777216
102
RTVSPost2010PropOp51
 70
     0
102
RTVSPost2010Prop52
140
1.0
102
RTVSPost2010PropOp52
 70
     0
102
RTVSPost2010Prop53
 90
        2
102
RTVSPost2010PropOp53
 70
     1
102
RTVSPost2010Prop54
  1
strokes_ogs.tif
102
RTVSPost2010PropOp54
 70
     1
102
RTVSPost2010Prop55
280
     0
102
RTVSPost2010PropOp55
 70
     1
102
RTVSPost2010Prop56
140
1.0
102
RTVSPost2010PropOp56
 70
     1
102
RTVSPost2010Prop57
140
1.0
102
RTVSPost2010PropOp57
 70
     1
  0
XRECORD
  5
189
102
{ACAD_REACTORS
330
188
102
}
330
188
100
AcDbXrecord
280
     1
102
RTVSPost2010Prop28
280
     0
102
RTVSPost2010PropOp28
 70
     1
102
RTVSPost2010Prop29
280
     1
102
RTVSPost2010PropOp29
 70
     1
102
RTVSPost2010Prop30
280
     1
102
RTVSPost2010PropOp30
 70
     1
102
RTVSPost2010Prop31
280
     0
102
RTVSPost2010PropOp31
 70
     1
102
RTVSPost2010Prop32
280
     0
102
RTVSPost2010PropOp32
 70
     1
102
RTVSPost2010Prop33
280
     0
102
RTVSPost2010PropOp33
 70
     1
102
RTVSPost2010Prop34
280
     0
102
RTVSPost2010PropOp34
 70
     1
102
RTVSPost2010Prop35
280
     0
102
RTVSPost2010PropOp35
 70
     1
102
RTVSPost2010Prop36
280
     0
102
RTVSPost2010PropOp36
 70
     1
102
RTVSPost2010Prop37
 90
       50
102
RTVSPost2010PropOp37
 70
     1
102
RTVSPost2010Prop38
140
0.0
102
RTVSPost2010PropOp38
 70
     1
102
RTVSPost2010Prop39
140
1.0
102
RTVSPost2010PropOp39
 70
     1
102
RTVSPost2010Prop40
 90
        0
102
RTVSPost2010PropOp40
 70
     1
102
RTVSPost2010Prop41ColorIndex
 90
       18
102
RTVSPost2010Prop41ColorRGB
 90
        0
102
RTVSPost2010PropOp41
 70
     1
102
RTVSPost2010Prop42
 90
       50
102
RTVSPost2010PropOp42
 70
     1
102
RTVSPost2010Prop43
 90
        3
102
RTVSPost2010PropOp43
 70
     1
102
RTVSPost2010Prop44ColorIndex
 90
        5
102
RTVSPost2010Prop44ColorRGB
 90
      255
102
RTVSPost2010PropOp44
 70
     1
102
RTVSPost2010Prop45
280
     0
102
RTVSPost2010PropOp45
 70
     1
102
RTVSPost2010Prop46
 90
       50
102
RTVSPost2010PropOp46
 70
     1
102
RTVSPost2010Prop47
 90
       50
102
RTVSPost2010PropOp47
 70
     1
102
RTVSPost2010Prop48
 90
       50
102
RTVSPost2010PropOp48
 70
     1
102
RTVSPost2010Prop49
280
     0
102
RTVSPost2010PropOp49
 70
     1
102
RTVSPost2010Prop50
 90
       50
102
RTVSPost2010PropOp50
 70
     1
102
RTVSPost2010Prop51ColorIndex
 90
      256
102
RTVSPost2010Prop51ColorRGB
 90
-16777216
102
RTVSPost2010PropOp51
 70
     0
102
RTVSPost2010Prop52
140
1.0
102
RTVSPost2010PropOp52
 70
     0
102
RTVSPost2010Prop53
 90
        2
102
RTVSPost2010PropOp53
 70
     1
102
RTVSPost2010Prop54
  1
strokes_ogs.tif
102
RTVSPost2010PropOp54
 70
     1
102
RTVSPost2010Prop55
280
     0
102
RTVSPost2010PropOp55
 70
     1
102
RTVSPost2010Prop56
140
1.0
102
RTVSPost2010PropOp56
 70
     1
102
RTVSPost2010Prop57
140
1.0
102
RTVSPost2010PropOp57
 70
     1
  0
XRECORD
  5
17D
102
{ACAD_REACTORS
330
17C
102
}
330
17C
100
AcDbXrecord
280
     1
102
RTVSPost2010Prop28
280
     0
102
RTVSPost2010PropOp28
 70
     1
102
RTVSPost2010Prop29
280
     1
102
RTVSPost2010PropOp29
 70
     1
102
RTVSPost2010Prop30
280
     1
102
RTVSPost2010PropOp30
 70
     1
102
RTVSPost2010Prop31
280
     0
102
RTVSPost2010PropOp31
 70
     1
102
RTVSPost2010Prop32
280
     0
102
RTVSPost2010PropOp32
 70
     1
102
RTVSPost2010Prop33
280
     0
102
RTVSPost2010PropOp33
 70
     1
102
RTVSPost2010Prop34
280
     0
102
RTVSPost2010PropOp34
 70
     1
102
RTVSPost2010Prop35
280
     0
102
RTVSPost2010PropOp35
 70
     1
102
RTVSPost2010Prop36
280
     0
102
RTVSPost2010PropOp36
 70
     1
102
RTVSPost2010Prop37
 90
       50
102
RTVSPost2010PropOp37
 70
     1
102
RTVSPost2010Prop38
140
0.0
102
RTVSPost2010PropOp38
 70
     1
102
RTVSPost2010Prop39
140
1.0
102
RTVSPost2010PropOp39
 70
     1
102
RTVSPost2010Prop40
 90
        0
102
RTVSPost2010PropOp40
 70
     1
102
RTVSPost2010Prop41ColorIndex
 90
       18
102
RTVSPost2010Prop41ColorRGB
 90
        0
102
RTVSPost2010PropOp41
 70
     1
102
RTVSPost2010Prop42
 90
       50
102
RTVSPost2010PropOp42
 70
     1
102
RTVSPost2010Prop43
 90
        3
102
RTVSPost2010PropOp43
 70
     1
102
RTVSPost2010Prop44ColorIndex
 90
        5
102
RTVSPost2010Prop44ColorRGB
 90
      255
102
RTVSPost2010PropOp44
 70
     1
102
RTVSPost2010Prop45
280
     0
102
RTVSPost2010PropOp45
 70
     1
102
RTVSPost2010Prop46
 90
       50
102
RTVSPost2010PropOp46
 70
     1
102
RTVSPost2010Prop47
 90
       50
102
RTVSPost2010PropOp47
 70
     1
102
RTVSPost2010Prop48
 90
       50
102
RTVSPost2010PropOp48
 70
     1
102
RTVSPost2010Prop49
280
     0
102
RTVSPost2010PropOp49
 70
     1
102
RTVSPost2010Prop50
 90
       50
102
RTVSPost2010PropOp50
 70
     1
102
RTVSPost2010Prop51ColorIndex
 90
      256
102
RTVSPost2010Prop51ColorRGB
 90
-16777216
102
RTVSPost2010PropOp51
 70
     0
102
RTVSPost2010Prop52
140
1.0
102
RTVSPost2010PropOp52
 70
     0
102
RTVSPost2010Prop53
 90
        2
102
RTVSPost2010PropOp53
 70
     1
102
RTVSPost2010Prop54
  1
strokes_ogs.tif
102
RTVSPost2010PropOp54
 70
     1
102
RTVSPost2010Prop55
280
     0
102
RTVSPost2010PropOp55
 70
     1
102
RTVSPost2010Prop56
140
1.0
102
RTVSPost2010PropOp56
 70
     1
102
RTVSPost2010Prop57
140
1.0
102
RTVSPost2010PropOp57
 70
     1
  0
XRECORD
  5
195
102
{ACAD_REACTORS
330
194
102
}
330
194
100
AcDbXrecord
280
     1
102
RTVSPost2010Prop28
280
     0
102
RTVSPost2010PropOp28
 70
     1
102
RTVSPost2010Prop29
280
     1
102
RTVSPost2010PropOp29
 70
     1
102
RTVSPost2010Prop30
280
     1
102
RTVSPost2010PropOp30
 70
     1
102
RTVSPost2010Prop31
280
     0
102
RTVSPost2010PropOp31
 70
     1
102
RTVSPost2010Prop32
280
     0
102
RTVSPost2010PropOp32
 70
     1
102
RTVSPost2010Prop33
280
     0
102
RTVSPost2010PropOp33
 70
     1
102
RTVSPost2010Prop34
280
     0
102
RTVSPost2010PropOp34
 70
     1
102
RTVSPost2010Prop35
280
     0
102
RTVSPost2010PropOp35
 70
     1
102
RTVSPost2010Prop36
280
     0
102
RTVSPost2010PropOp36
 70
     1
102
RTVSPost2010Prop37
 90
       50
102
RTVSPost2010PropOp37
 70
     1
102
RTVSPost2010Prop38
140
0.0
102
RTVSPost2010PropOp38
 70
     1
102
RTVSPost2010Prop39
140
1.0
102
RTVSPost2010PropOp39
 70
     1
102
RTVSPost2010Prop40
 90
        0
102
RTVSPost2010PropOp40
 70
     1
102
RTVSPost2010Prop41ColorIndex
 90
       18
102
RTVSPost2010Prop41ColorRGB
 90
        0
102
RTVSPost2010PropOp41
 70
     1
102
RTVSPost2010Prop42
 90
       50
102
RTVSPost2010PropOp42
 70
     1
102
RTVSPost2010Prop43
 90
        3
102
RTVSPost2010PropOp43
 70
     1
102
RTVSPost2010Prop44ColorIndex
 90
        5
102
RTVSPost2010Prop44ColorRGB
 90
      255
102
RTVSPost2010PropOp44
 70
     1
102
RTVSPost2010Prop45
280
     0
102
RTVSPost2010PropOp45
 70
     1
102
RTVSPost2010Prop46
 90
       50
102
RTVSPost2010PropOp46
 70
     1
102
RTVSPost2010Prop47
 90
       50
102
RTVSPost2010PropOp47
 70
     1
102
RTVSPost2010Prop48
 90
       50
102
RTVSPost2010PropOp48
 70
     1
102
RTVSPost2010Prop49
280
     0
102
RTVSPost2010PropOp49
 70
     1
102
RTVSPost2010Prop50
 90
       50
102
RTVSPost2010PropOp50
 70
     1
102
RTVSPost2010Prop51ColorIndex
 90
      256
102
RTVSPost2010Prop51ColorRGB
 90
-16777216
102
RTVSPost2010PropOp51
 70
     0
102
RTVSPost2010Prop52
140
1.0
102
RTVSPost2010PropOp52
 70
     0
102
RTVSPost2010Prop53
 90
        2
102
RTVSPost2010PropOp53
 70
     1
102
RTVSPost2010Prop54
  1
strokes_ogs.tif
102
RTVSPost2010PropOp54
 70
     1
102
RTVSPost2010Prop55
280
     0
102
RTVSPost2010PropOp55
 70
     1
102
RTVSPost2010Prop56
140
1.0
102
RTVSPost2010PropOp56
 70
     1
102
RTVSPost2010Prop57
140
1.0
102
RTVSPost2010PropOp57
 70
     1
  0
ENDSEC
  0
EOF
