  0
SECTION
  2
HEADER
  9
$ACADVER
  1
AC1024
  9
$ACADMAINTVER
 70
   226
  9
$DWGCODEPAGE
  3
ANSI_932
  9
$INSBASE
 10
0.0
 20
0.0
 30
0.0
  9
$EXTMIN
 10
1.000000000000000E+20
 20
1.000000000000000E+20
 30
1.000000000000000E+20
  9
$EXTMAX
 10
-1.000000000000000E+20
 20
-1.000000000000000E+20
 30
-1.000000000000000E+20
  9
$LIMMIN
 10
0.0
 20
0.0
  9
$LIMMAX
 10
12.0
 20
9.0
  9
$ORTHOMODE
 70
     0
  9
$REGENMODE
 70
     1
  9
$FILLMODE
 70
     1
  9
$QTEXTMODE
 70
     0
  9
$MIRRTEXT
 70
     0
  9
$LTSCALE
 40
1.0
  9
$ATTMODE
 70
     1
  9
$TEXTSIZE
 40
0.2
  9
$TRACEWID
 40
0.05
  9
$TEXTSTYLE
  7
Standard
  9
$CLAYER
  8
0
  9
$CELTYPE
  6
ByLayer
  9
$CECOLOR
 62
   256
  9
$CELTSCALE
 40
1.0
  9
$DISPSILH
 70
     0
  9
$DIMSCALE
 40
1.0
  9
$DIMASZ
 40
0.18
  9
$DIMEXO
 40
0.0625
  9
$DIMDLI
 40
0.38
  9
$DIMRND
 40
0.0
  9
$DIMDLE
 40
0.0
  9
$DIMEXE
 40
0.18
  9
$DIMTP
 40
0.0
  9
$DIMTM
 40
0.0
  9
$DIMTXT
 40
0.18
  9
$DIMCEN
 40
0.09
  9
$DIMTSZ
 40
0.0
  9
$DIMTOL
 70
     0
  9
$DIMLIM
 70
     0
  9
$DIMTIH
 70
     1
  9
$DIMTOH
 70
     1
  9
$DIMSE1
 70
     0
  9
$DIMSE2
 70
     0
  9
$DIMTAD
 70
     0
  9
$DIMZIN
 70
     0
  9
$DIMBLK
  1

  9
$DIMASO
 70
     1
  9
$DIMSHO
 70
     1
  9
$DIMPOST
  1

  9
$DIMAPOST
  1

  9
$DIMALT
 70
     0
  9
$DIMALTD
 70
     2
  9
$DIMALTF
 40
25.4
  9
$DIMLFAC
 40
1.0
  9
$DIMTOFL
 70
     0
  9
$DIMTVP
 40
0.0
  9
$DIMTIX
 70
     0
  9
$DIMSOXD
 70
     0
  9
$DIMSAH
 70
     0
  9
$DIMBLK1
  1

  9
$DIMBLK2
  1

  9
$DIMSTYLE
  2
Standard
  9
$DIMCLRD
 70
     0
  9
$DIMCLRE
 70
     0
  9
$DIMCLRT
 70
     0
  9
$DIMTFAC
 40
1.0
  9
$DIMGAP
 40
0.09
  9
$DIMJUST
 70
     0
  9
$DIMSD1
 70
     0
  9
$DIMSD2
 70
     0
  9
$DIMTOLJ
 70
     1
  9
$DIMTZIN
 70
     0
  9
$DIMALTZ
 70
     0
  9
$DIMALTTZ
 70
     0
  9
$DIMUPT
 70
     0
  9
$DIMDEC
 70
     4
  9
$DIMTDEC
 70
     4
  9
$DIMALTU
 70
     2
  9
$DIMALTTD
 70
     2
  9
$DIMTXSTY
  7
Standard
  9
$DIMAUNIT
 70
     0
  9
$DIMADEC
 70
     0
  9
$DIMALTRND
 40
0.0
  9
$DIMAZIN
 70
     0
  9
$DIMDSEP
 70
    46
  9
$DIMATFIT
 70
     3
  9
$DIMFRAC
 70
     0
  9
$DIMLDRBLK
  1

  9
$DIMLUNIT
 70
     2
  9
$DIMLWD
 70
    -2
  9
$DIMLWE
 70
    -2
  9
$DIMTMOVE
 70
     0
  9
$DIMFXL
 40
1.0
  9
$DIMFXLON
 70
     0
  9
$DIMJOGANG
 40
0.7853981633974483
  9
$DIMTFILL
 70
     0
  9
$DIMTFILLCLR
 70
     0
  9
$DIMARCSYM
 70
     0
  9
$DIMLTYPE
  6

  9
$DIMLTEX1
  6

  9
$DIMLTEX2
  6

  9
$DIMTXTDIRECTION
 70
     0
  9
$LUNITS
 70
     2
  9
$LUPREC
 70
     4
  9
$SKETCHINC
 40
0.1
  9
$FILLETRAD
 40
0.0
  9
$AUNITS
 70
     0
  9
$AUPREC
 70
     0
  9
$MENU
  1
.
  9
$ELEVATION
 40
0.0
  9
$PELEVATION
 40
0.0
  9
$THICKNESS
 40
0.0
  9
$LIMCHECK
 70
     0
  9
$CHAMFERA
 40
0.0
  9
$CHAMFERB
 40
0.0
  9
$CHAMFERC
 40
0.0
  9
$CHAMFERD
 40
0.0
  9
$SKPOLY
 70
     0
  9
$TDCREATE
 40
2459569.503391204
  9
$TDUCREATE
 40
2459569.128391204
  9
$TDUPDATE
 40
2459569.503391204
  9
$TDUUPDATE
 40
2459569.128391204
  9
$TDINDWG
 40
0.0000000000
  9
$TDUSRTIMER
 40
0.0000000000
  9
$USRTIMER
 70
     1
  9
$ANGBASE
 50
0.0
  9
$ANGDIR
 70
     0
  9
$PDMODE
 70
     0
  9
$PDSIZE
 40
0.0
  9
$PLINEWID
 40
0.0
  9
$SPLFRAME
 70
     0
  9
$SPLINETYPE
 70
     6
  9
$SPLINESEGS
 70
     8
  9
$HANDSEED
  5
1AB
  9
$SURFTAB1
 70
     6
  9
$SURFTAB2
 70
     6
  9
$SURFTYPE
 70
     6
  9
$SURFU
 70
     6
  9
$SURFV
 70
     6
  9
$UCSBASE
  2

  9
$UCSNAME
  2

  9
$UCSORG
 10
0.0
 20
0.0
 30
0.0
  9
$UCSXDIR
 10
1.0
 20
0.0
 30
0.0
  9
$UCSYDIR
 10
0.0
 20
1.0
 30
0.0
  9
$UCSORTHOREF
  2

  9
$UCSORTHOVIEW
 70
     0
  9
$UCSORGTOP
 10
0.0
 20
0.0
 30
0.0
  9
$UCSORGBOTTOM
 10
0.0
 20
0.0
 30
0.0
  9
$UCSORGLEFT
 10
0.0
 20
0.0
 30
0.0
  9
$UCSORGRIGHT
 10
0.0
 20
0.0
 30
0.0
  9
$UCSORGFRONT
 10
0.0
 20
0.0
 30
0.0
  9
$UCSORGBACK
 10
0.0
 20
0.0
 30
0.0
  9
$PUCSBASE
  2

  9
$PUCSNAME
  2

  9
$PUCSORG
 10
0.0
 20
0.0
 30
0.0
  9
$PUCSXDIR
 10
1.0
 20
0.0
 30
0.0
  9
$PUCSYDIR
 10
0.0
 20
1.0
 30
0.0
  9
$PUCSORTHOREF
  2

  9
$PUCSORTHOVIEW
 70
     0
  9
$PUCSORGTOP
 10
0.0
 20
0.0
 30
0.0
  9
$PUCSORGBOTTOM
 10
0.0
 20
0.0
 30
0.0
  9
$PUCSORGLEFT
 10
0.0
 20
0.0
 30
0.0
  9
$PUCSORGRIGHT
 10
0.0
 20
0.0
 30
0.0
  9
$PUCSORGFRONT
 10
0.0
 20
0.0
 30
0.0
  9
$PUCSORGBACK
 10
0.0
 20
0.0
 30
0.0
  9
$USERI1
 70
     0
  9
$USERI2
 70
     0
  9
$USERI3
 70
     0
  9
$USERI4
 70
     0
  9
$USERI5
 70
     0
  9
$USERR1
 40
0.0
  9
$USERR2
 40
0.0
  9
$USERR3
 40
0.0
  9
$USERR4
 40
0.0
  9
$USERR5
 40
0.0
  9
$WORLDVIEW
 70
     1
  9
$SHADEDGE
 70
     3
  9
$SHADEDIF
 70
    70
  9
$TILEMODE
 70
     1
  9
$MAXACTVP
 70
    64
  9
$PINSBASE
 10
0.0
 20
0.0
 30
0.0
  9
$PLIMCHECK
 70
     0
  9
$PEXTMIN
 10
1.000000000000000E+20
 20
1.000000000000000E+20
 30
1.000000000000000E+20
  9
$PEXTMAX
 10
-1.000000000000000E+20
 20
-1.000000000000000E+20
 30
-1.000000000000000E+20
  9
$PLIMMIN
 10
0.0
 20
0.0
  9
$PLIMMAX
 10
12.0
 20
9.0
  9
$UNITMODE
 70
     0
  9
$VISRETAIN
 70
     1
  9
$PLINEGEN
 70
     0
  9
$PSLTSCALE
 70
     1
  9
$TREEDEPTH
 70
  3020
  9
$CMLSTYLE
  2
Standard
  9
$CMLJUST
 70
     0
  9
$CMLSCALE
 40
1.0
  9
$PROXYGRAPHICS
 70
     1
  9
$MEASUREMENT
 70
     0
  9
$CELWEIGHT
370
    -1
  9
$ENDCAPS
280
     0
  9
$JOINSTYLE
280
     0
  9
$LWDISPLAY
290
     1
  9
$INSUNITS
 70
     4
  9
$HYPERLINKBASE
  1

  9
$STYLESHEET
  1

  9
$XEDIT
290
     1
  9
$CEPSNTYPE
380
     0
  9
$PSTYLEMODE
290
     1
  9
$FINGERPRINTGUID
  2
{E7675CC7-A56C-434D-9296-301D72A828E8}
  9
$VERSIONGUID
  2
{C8832AC0-7E4D-B54A-A80F-FFAB30A049DA}
  9
$EXTNAMES
290
     1
  9
$PSVPSCALE
 40
0.0
  9
$OLESTARTUP
290
     0
  9
$SORTENTS
280
   127
  9
$INDEXCTL
280
     0
  9
$HIDETEXT
280
     1
  9
$XCLIPFRAME
280
     2
  9
$HALOGAP
280
     0
  9
$OBSCOLOR
 70
   257
  9
$OBSLTYPE
280
     0
  9
$INTERSECTIONDISPLAY
280
     0
  9
$INTERSECTIONCOLOR
 70
   257
  9
$DIMASSOC
280
     2
  9
$PROJECTNAME
  1

  9
$CAMERADISPLAY
290
     0
  9
$LENSLENGTH
 40
50.0
  9
$CAMERAHEIGHT
 40
0.0
  9
$STEPSPERSEC
 40
2.0
  9
$STEPSIZE
 40
6.0
  9
$3DDWFPREC
 40
2.0
  9
$PSOLWIDTH
 40
0.25
  9
$PSOLHEIGHT
 40
4.0
  9
$LOFTANG1
 40
1.570796326794896
  9
$LOFTANG2
 40
1.570796326794896
  9
$LOFTMAG1
 40
0.0
  9
$LOFTMAG2
 40
0.0
  9
$LOFTPARAM
 70
     7
  9
$LOFTNORMALS
280
     1
  9
$LATITUDE
 40
37.795
  9
$LONGITUDE
 40
-122.394
  9
$NORTHDIRECTION
 40
0.0
  9
$TIMEZONE
 70
 -8000
  9
$LIGHTGLYPHDISPLAY
280
     1
  9
$TILEMODELIGHTSYNCH
280
     1
  9
$CMATERIAL
347
11
  9
$SOLIDHIST
280
     0
  9
$SHOWHIST
280
     1
  9
$DWFFRAME
280
     2
  9
$DGNFRAME
280
     0
  9
$REALWORLDSCALE
290
     1
  9
$INTERFERECOLOR
 62
     1
  9
$INTERFEREOBJVS
345
33
  9
$INTERFEREVPVS
346
30
  9
$CSHADOW
280
     0
  9
$SHADOWPLANELOCATION
 40
0.0
  0
ENDSEC
  0
SECTION
  2
CLASSES
  0
CLASS
  1
ACDBDICTIONARYWDFLT
  2
AcDbDictionaryWithDefault
  3
ObjectDBX Classes
 90
        0
 91
        1
280
     0
281
     0
  0
CLASS
  1
MATERIAL
  2
AcDbMaterial
  3
ObjectDBX Classes
 90
     1153
 91
        3
280
     0
281
     0
  0
CLASS
  1
VISUALSTYLE
  2
AcDbVisualStyle
  3
ObjectDBX Classes
 90
     4095
 91
       24
280
     0
281
     0
  0
CLASS
  1
SCALE
  2
AcDbScale
  3
ObjectDBX Classes
 90
     1153
 91
       17
280
     0
281
     0
  0
CLASS
  1
TABLESTYLE
  2
AcDbTableStyle
  3
ObjectDBX Classes
 90
     4095
 91
        1
280
     0
281
     0
  0
CLASS
  1
MLEADERSTYLE
  2
AcDbMLeaderStyle
  3
ACDB_MLEADERSTYLE_CLASS
 90
     4095
 91
        1
280
     0
281
     0
  0
CLASS
  1
ACDBSECTIONVIEWSTYLE
  2
AcDbSectionViewStyle
  3
ObjectDBX Classes
 90
     1025
 91
        1
280
     0
281
     0
  0
CLASS
  1
ACDBDETAILVIEWSTYLE
  2
AcDbDetailViewStyle
  3
ObjectDBX Classes
 90
     1025
 91
        1
280
     0
281
     0
  0
CLASS
  1
DICTIONARYVAR
  2
AcDbDictionaryVar
  3
ObjectDBX Classes
 90
        0
 91
        5
280
     0
281
     0
  0
CLASS
  1
CELLSTYLEMAP
  2
AcDbCellStyleMap
  3
ObjectDBX Classes
 90
     1152
 91
        1
280
     0
281
     0
  0
ENDSEC
  0
SECTION
  2
TABLES
  0
TABLE
  2
VPORT
  5
8
330
0
100
AcDbSymbolTable
 70
     1
  0
VPORT
  5
57
330
8
100
AcDbSymbolTableRecord
100
AcDbViewportTableRecord
  2
*Active
 70
     0
 10
0.0
 20
0.0
 11
1.0
 21
1.0
 12
0.0
 22
0.0
 13
0.0
 23
0.0
 14
1.0
 24
1.0
 15
0.0
 25
0.0
 16
0.0
 26
0.0
 36
1.0
 17
104.9999999737534
 27
-148.4999999628701
 37
0.0
 40
302.939999924255
 41
0.7070707070707534
 42
50.0
 43
0.0
 44
0.0
 50
0.0
 51
0.0
 71
     0
 72
   100
 73
     1
 74
     0
 75
     1
 76
     0
 77
     0
 78
     0
281
     0
 65
     1
110
0.0
120
0.0
130
0.0
111
1.0
121
0.0
131
0.0
112
0.0
122
1.0
132
0.0
 79
     0
146
0.0
 60
     3
 61
     5
292
     1
282
     1
141
0.0
142
0.0
 63
   250
421
  3355443
  0
ENDTAB
  0
TABLE
  2
LTYPE
  5
5
330
0
100
AcDbSymbolTable
 70
     2
  0
LTYPE
  5
5B
330
5
100
AcDbSymbolTableRecord
100
AcDbLinetypeTableRecord
  2
ByBlock
 70
     0
  3

 72
    65
 73
     0
 40
0.0
  0
LTYPE
  5
5C
330
5
100
AcDbSymbolTableRecord
100
AcDbLinetypeTableRecord
  2
ByLayer
 70
     0
  3

 72
    65
 73
     0
 40
0.0
  0
LTYPE
  5
5D
330
5
100
AcDbSymbolTableRecord
100
AcDbLinetypeTableRecord
  2
Continuous
 70
     0
  3
Solid line
 72
    65
 73
     0
 40
0.0
  0
LTYPE
  5
16B
330
5
100
AcDbSymbolTableRecord
100
AcDbLinetypeTableRecord
  2
AI-Linetype-0
 70
     0
  3
Adobe Illustrator Linetype No. 0
 72
    65
 73
     2
 40
1.411111110758333
 49
0.7055555553791667
 74
     0
 49
-0.7055555553791667
 74
     0
  0
ENDTAB
  0
TABLE
  2
LAYER
  5
2
330
0
100
AcDbSymbolTable
 70
     2
  0
LAYER
  5
54
330
2
100
AcDbSymbolTableRecord
100
AcDbLayerTableRecord
  2
0
 70
     0
 62
     7
  6
Continuous
370
    -3
390
F
347
21
  0
LAYER
  5
78
330
2
100
AcDbSymbolTableRecord
100
AcDbLayerTableRecord
  2
レイヤー 1
 70
     0
 62
     7
  6
Continuous
370
     0
390
F
347
21
  0
ENDTAB
  0
TABLE
  2
STYLE
  5
3
330
0
100
AcDbSymbolTable
 70
     2
  0
STYLE
  5
55
330
3
100
AcDbSymbolTableRecord
100
AcDbTextStyleTableRecord
  2
Standard
 70
     0
 40
0.0
 41
1.0
 50
0.0
 71
     0
 42
0.2
  3
txt
  4

  0
STYLE
  5
5A
330
3
100
AcDbSymbolTableRecord
100
AcDbTextStyleTableRecord
  2
Annotative
 70
     0
 40
0.0
 41
1.0
 50
0.0
 71
     0
 42
0.2
  3
txt
  4

1001
AcadAnnotative
1000
AnnotativeData
1002
{
1070
     1
1070
     1
1002
}
  0
ENDTAB
  0
TABLE
  2
VIEW
  5
6
330
0
100
AcDbSymbolTable
 70
     0
  0
ENDTAB
  0
TABLE
  2
UCS
  5
7
330
0
100
AcDbSymbolTable
 70
     0
  0
ENDTAB
  0
TABLE
  2
APPID
  5
9
330
0
100
AcDbSymbolTable
 70
     2
  0
APPID
  5
56
330
9
100
AcDbSymbolTableRecord
100
AcDbRegAppTableRecord
  2
ACAD
 70
     0
  0
APPID
  5
5E
330
9
100
AcDbSymbolTableRecord
100
AcDbRegAppTableRecord
  2
AcadAnnotative
 70
     0
  0
ENDTAB
  0
TABLE
  2
DIMSTYLE
  5
A
330
0
100
AcDbSymbolTable
 70
     2
100
AcDbDimStyleTable
 71
     0
  0
DIMSTYLE
105
58
330
A
100
AcDbSymbolTableRecord
100
AcDbDimStyleTableRecord
  2
Standard
 70
     0
340
55
  0
DIMSTYLE
105
59
330
A
100
AcDbSymbolTableRecord
100
AcDbDimStyleTableRecord
  2
Annotative
 70
     0
340
55
1001
AcadAnnotative
1000
AnnotativeData
1002
{
1070
     1
1070
     1
1002
}
  0
ENDTAB
  0
TABLE
  2
BLOCK_RECORD
  5
1
330
0
100
AcDbSymbolTable
 70
    15
  0
BLOCK_RECORD
  5
70
330
1
100
AcDbSymbolTableRecord
100
AcDbBlockTableRecord
  2
*Model_Space
340
73
 70
     0
280
     1
281
     0
  0
BLOCK_RECORD
  5
6C
330
1
100
AcDbSymbolTableRecord
100
AcDbBlockTableRecord
  2
*Paper_Space
340
6F
 70
     0
280
     1
281
     0
  0
BLOCK_RECORD
  5
74
330
1
100
AcDbSymbolTableRecord
100
AcDbBlockTableRecord
  2
*Paper_Space0
340
77
 70
     0
280
     1
281
     0
  0
BLOCK_RECORD
  5
79
330
1
100
AcDbSymbolTableRecord
100
AcDbBlockTableRecord
  2
Block_0
340
0
102
{BLKREFS
331
7A
102
}
 70
     0
280
     1
281
     0
  0
BLOCK_RECORD
  5
7D
330
1
100
AcDbSymbolTableRecord
100
AcDbBlockTableRecord
  2
Block_1
340
0
102
{BLKREFS
331
7E
102
}
 70
     0
280
     1
281
     0
  0
BLOCK_RECORD
  5
E8
330
1
100
AcDbSymbolTableRecord
100
AcDbBlockTableRecord
  2
Block_2
340
0
102
{BLKREFS
331
E9
102
}
 70
     0
280
     1
281
     0
  0
BLOCK_RECORD
  5
EC
330
1
100
AcDbSymbolTableRecord
100
AcDbBlockTableRecord
  2
Block_3
340
0
102
{BLKREFS
331
ED
102
}
 70
     0
280
     1
281
     0
  0
BLOCK_RECORD
  5
F9
330
1
100
AcDbSymbolTableRecord
100
AcDbBlockTableRecord
  2
Block_4
340
0
102
{BLKREFS
331
FA
102
}
 70
     0
280
     1
281
     0
  0
BLOCK_RECORD
  5
FD
330
1
100
AcDbSymbolTableRecord
100
AcDbBlockTableRecord
  2
Block_5
340
0
102
{BLKREFS
331
FE
102
}
 70
     0
280
     1
281
     0
  0
BLOCK_RECORD
  5
107
330
1
100
AcDbSymbolTableRecord
100
AcDbBlockTableRecord
  2
Block_6
340
0
102
{BLKREFS
331
108
102
}
 70
     0
280
     1
281
     0
  0
BLOCK_RECORD
  5
111
330
1
100
AcDbSymbolTableRecord
100
AcDbBlockTableRecord
  2
Block_7
340
0
102
{BLKREFS
331
112
102
}
 70
     0
280
     1
281
     0
  0
BLOCK_RECORD
  5
115
330
1
100
AcDbSymbolTableRecord
100
AcDbBlockTableRecord
  2
Block_8
340
0
102
{BLKREFS
331
116
102
}
 70
     0
280
     1
281
     0
  0
BLOCK_RECORD
  5
120
330
1
100
AcDbSymbolTableRecord
100
AcDbBlockTableRecord
  2
Block_9
340
0
102
{BLKREFS
331
121
102
}
 70
     0
280
     1
281
     0
  0
BLOCK_RECORD
  5
12C
330
1
100
AcDbSymbolTableRecord
100
AcDbBlockTableRecord
  2
Block_10
340
0
102
{BLKREFS
331
12D
102
}
 70
     0
280
     1
281
     0
  0
BLOCK_RECORD
  5
135
330
1
100
AcDbSymbolTableRecord
100
AcDbBlockTableRecord
  2
Block_11
340
0
102
{BLKREFS
331
136
102
}
 70
     0
280
     1
281
     0
  0
BLOCK_RECORD
  5
13B
330
1
100
AcDbSymbolTableRecord
100
AcDbBlockTableRecord
  2
Block_12
340
0
102
{BLKREFS
331
13C
102
}
 70
     0
280
     1
281
     0
  0
BLOCK_RECORD
  5
13F
330
1
100
AcDbSymbolTableRecord
100
AcDbBlockTableRecord
  2
Block_13
340
0
102
{BLKREFS
331
140
102
}
 70
     0
280
     1
281
     0
  0
ENDTAB
  0
ENDSEC
  0
SECTION
  2
BLOCKS
  0
BLOCK
  5
71
330
70
100
AcDbEntity
  8
0
100
AcDbBlockBegin
  2
*Model_Space
 70
     0
 10
0.0
 20
0.0
 30
0.0
  3
*Model_Space
  1

  0
ENDBLK
  5
72
330
70
100
AcDbEntity
  8
0
100
AcDbBlockEnd
  0
BLOCK
  5
6D
330
6C
100
AcDbEntity
 67
     1
  8
0
100
AcDbBlockBegin
  2
*Paper_Space
 70
     0
 10
0.0
 20
0.0
 30
0.0
  3
*Paper_Space
  1

  0
ENDBLK
  5
6E
330
6C
100
AcDbEntity
 67
     1
  8
0
100
AcDbBlockEnd
  0
BLOCK
  5
75
330
74
100
AcDbEntity
 67
     1
  8
0
100
AcDbBlockBegin
  2
*Paper_Space0
 70
     0
 10
0.0
 20
0.0
 30
0.0
  3
*Paper_Space0
  1

  0
ENDBLK
  5
76
330
74
100
AcDbEntity
 67
     1
  8
0
100
AcDbBlockEnd
  0
BLOCK
  5
7B
330
79
100
AcDbEntity
  8
0
100
AcDbBlockBegin
  2
Block_0
 70
     0
 10
0.0
 20
0.0
 30
0.0
  3
Block_0
  1

  0
INSERT
  5
7E
330
79
100
AcDbEntity
  8
レイヤー 1
100
AcDbBlockReference
  2
Block_1
 10
0.0
 20
0.0
 30
0.0
  0
LINE
  5
134
330
79
100
AcDbEntity
  8
レイヤー 1
 62
   250
420
  2299925
370
     9
100
AcDbLine
 10
105.7748176874581
 20
-150.3036222889343
 30
0.0
 11
113.7750060944674
 21
-150.3036222889343
 31
0.0
  0
INSERT
  5
136
330
79
100
AcDbEntity
  8
レイヤー 1
100
AcDbBlockReference
  2
Block_11
 10
0.0
 20
0.0
 30
0.0
  0
INSERT
  5
13C
330
79
100
AcDbEntity
  8
レイヤー 1
100
AcDbBlockReference
  2
Block_12
 10
0.0
 20
0.0
 30
0.0
  0
LWPOLYLINE
  5
169
330
79
100
AcDbEntity
  8
レイヤー 1
 62
   250
420
  2299925
370
     9
100
AcDbPolyline
 90
        3
 70
     0
 43
0.0
 10
118.9381925268028
 20
-144.6750175681192
 10
125.1118036363705
 20
-152.7889064549799
 10
135.7540135892917
 20
-152.7889064549799
  0
LWPOLYLINE
  5
16A
330
79
100
AcDbEntity
  8
レイヤー 1
  6
AI-Linetype-0
 62
   154
420
    23468
370
    25
100
AcDbPolyline
 90
        6
 70
     0
 43
0.0
 10
80.6910842030315
 20
-145.2338175679794
 10
102.3869175309408
 20
-144.2340453460072
 10
102.3869175309408
 20
-152.6421508994607
 10
107.384720307469
 20
-152.6421508994607
 10
107.384720307469
 20
-144.2933120126589
 10
128.9630415403216
 20
-145.1159897902311
  0
ENDBLK
  5
7C
330
79
100
AcDbEntity
  8
0
100
AcDbBlockEnd
  0
BLOCK
  5
7F
330
7D
100
AcDbEntity
  8
0
100
AcDbBlockBegin
  2
Block_1
 70
     0
 10
0.0
 20
0.0
 30
0.0
  3
Block_1
  1

  0
LINE
  5
81
330
7D
100
AcDbEntity
  8
レイヤー 1
 62
   250
420
  2299925
370
    25
100
AcDbLine
 10
108.8333656649836
 20
-154.1578253435259
 30
0.0
 11
100.8331772579746
 21
-154.1578253435259
 31
0.0
  0
LINE
  5
82
330
7D
100
AcDbEntity
  8
レイヤー 1
 62
   250
420
  2299925
370
    25
100
AcDbLine
 10
80.83180725855191
 20
-145.658244512318
 30
0.0
 11
80.83180725855191
 21
-146.1584834010817
 31
0.0
  0
LINE
  5
83
330
7D
100
AcDbEntity
  8
レイヤー 1
 62
   250
420
  2299925
370
    25
100
AcDbLine
 10
100.8331772579746
 20
-146.1584834010817
 30
0.0
 11
80.83180725855191
 21
-146.1584834010817
 31
0.0
  0
LINE
  5
84
330
7D
100
AcDbEntity
  8
レイヤー 1
 62
   250
420
  2299925
370
    25
100
AcDbLine
 10
80.83180725855191
 20
-145.658244512318
 30
0.0
 11
81.34562809175688
 21
-146.0399853455557
 31
0.0
  0
LINE
  5
85
330
7D
100
AcDbEntity
  8
レイヤー 1
 62
   250
420
  2299925
370
    25
100
AcDbLine
 10
81.34562809175688
 20
-146.0399853455557
 30
0.0
 11
81.83105031385748
 21
-145.6224375678822
 31
0.0
  0
LINE
  5
86
330
7D
100
AcDbEntity
  8
レイヤー 1
 62
   250
420
  2299925
370
    25
100
AcDbLine
 10
82.34504753595134
 20
-146.0048486788977
 30
0.0
 11
82.83046975805227
 21
-145.586595345669
 31
0.0
  0
LINE
  5
87
330
7D
100
AcDbEntity
  8
レイヤー 1
 62
   250
420
  2299925
370
    25
100
AcDbLine
 10
81.83105031385748
 20
-145.6224375678822
 30
0.0
 11
82.34504753595134
 21
-146.0048486788977
 31
0.0
  0
LINE
  5
88
330
7D
100
AcDbEntity
  8
レイヤー 1
 62
   250
420
  2299925
370
    25
100
AcDbLine
 10
82.83046975805227
 20
-145.586595345669
 30
0.0
 11
83.34446698014579
 21
-145.9690064566844
 31
0.0
  0
LINE
  5
89
330
7D
100
AcDbEntity
  8
レイヤー 1
 62
   250
420
  2299925
370
    25
100
AcDbLine
 10
83.34446698014579
 20
-145.9690064566844
 30
0.0
 11
83.82988920224674
 21
-145.5514586790113
 31
0.0
  0
LINE
  5
8A
330
7D
100
AcDbEntity
  8
レイヤー 1
 62
   250
420
  2299925
370
    25
100
AcDbLine
 10
83.82988920224674
 20
-145.5514586790113
 30
0.0
 11
84.34374531322953
 21
-145.9331642344712
 31
0.0
  0
LINE
  5
8B
330
7D
100
AcDbEntity
  8
レイヤー 1
 62
   250
420
  2299925
370
    25
100
AcDbLine
 10
84.34374531322953
 20
-145.9331642344712
 30
0.0
 11
84.82913225755263
 21
-145.515616456798
 31
0.0
  0
LINE
  5
8C
330
7D
100
AcDbEntity
  8
レイヤー 1
 62
   250
420
  2299925
370
    25
100
AcDbLine
 10
84.82913225755263
 20
-145.515616456798
 30
0.0
 11
85.34316475742432
 21
-145.8973572900358
 31
0.0
  0
LINE
  5
8D
330
7D
100
AcDbEntity
  8
レイヤー 1
 62
   250
420
  2299925
370
    25
100
AcDbLine
 10
85.34316475742432
 20
-145.8973572900358
 30
0.0
 11
85.82855170174742
 21
-145.4798095123623
 31
0.0
  0
LINE
  5
8E
330
7D
100
AcDbEntity
  8
レイヤー 1
 62
   250
420
  2299925
370
    25
100
AcDbLine
 10
85.82855170174742
 20
-145.4798095123623
 30
0.0
 11
86.34258420161845
 21
-145.8615150678225
 31
0.0
  0
LINE
  5
8F
330
7D
100
AcDbEntity
  8
レイヤー 1
 62
   250
420
  2299925
370
    25
100
AcDbLine
 10
86.34258420161845
 20
-145.8615150678225
 30
0.0
 11
86.82800642371939
 21
-145.443967290149
 31
0.0
  0
LINE
  5
90
330
7D
100
AcDbEntity
  8
レイヤー 1
 62
   250
420
  2299925
370
    25
100
AcDbLine
 10
86.82800642371939
 20
-145.443967290149
 30
0.0
 11
87.34182725692434
 21
-145.8263784011648
 31
0.0
  0
LINE
  5
91
330
7D
100
AcDbEntity
  8
レイヤー 1
 62
   250
420
  2299925
370
    25
100
AcDbLine
 10
87.34182725692434
 20
-145.8263784011648
 30
0.0
 11
87.82724947902528
 21
-145.4081603457136
 31
0.0
  0
LINE
  5
92
330
7D
100
AcDbEntity
  8
レイヤー 1
 62
   250
420
  2299925
370
    25
100
AcDbLine
 10
88.34124670111881
 20
-145.7905361789516
 30
0.0
 11
88.82666892321974
 21
-145.3729884012781
 31
0.0
  0
LINE
  5
93
330
7D
100
AcDbEntity
  8
レイヤー 1
 62
   250
420
  2299925
370
    25
100
AcDbLine
 10
87.82724947902528
 20
-145.4081603457136
 30
0.0
 11
88.34124670111881
 21
-145.7905361789516
 31
0.0
  0
LINE
  5
94
330
7D
100
AcDbEntity
  8
レイヤー 1
 62
   250
420
  2299925
370
    25
100
AcDbLine
 10
88.82666892321974
 20
-145.3729884012781
 30
0.0
 11
89.34066614531358
 21
-145.7547292345158
 31
0.0
  0
LINE
  5
95
330
7D
100
AcDbEntity
  8
レイヤー 1
 62
   250
420
  2299925
370
    25
100
AcDbLine
 10
89.34066614531358
 20
-145.7547292345158
 30
0.0
 11
89.82608836741453
 21
-145.3371814568427
 31
0.0
  0
LINE
  5
96
330
7D
100
AcDbEntity
  8
レイヤー 1
 62
   250
420
  2299925
370
    25
100
AcDbLine
 10
90.34008558950805
 20
-145.7188870123026
 30
0.0
 11
90.82515503383122
 21
-145.3013392346291
 31
0.0
  0
LINE
  5
97
330
7D
100
AcDbEntity
  8
レイヤー 1
 62
   250
420
  2299925
370
    25
100
AcDbLine
 10
89.82608836741453
 20
-145.3371814568427
 30
0.0
 11
90.34008558950805
 21
-145.7188870123026
 31
0.0
  0
LINE
  5
98
330
7D
100
AcDbEntity
  8
レイヤー 1
 62
   250
420
  2299925
370
    25
100
AcDbLine
 10
91.3391875337029
 20
-145.6830800678672
 30
0.0
 11
91.82492725580344
 21
-145.2655322901937
 31
0.0
  0
LINE
  5
99
330
7D
100
AcDbEntity
  8
レイヤー 1
 62
   250
420
  2299925
370
    25
100
AcDbLine
 10
90.82515503383122
 20
-145.3013392346291
 30
0.0
 11
91.3391875337029
 21
-145.6830800678672
 31
0.0
  0
LINE
  5
9A
330
7D
100
AcDbEntity
  8
レイヤー 1
 62
   250
420
  2299925
370
    25
100
AcDbLine
 10
91.82492725580344
 20
-145.2655322901937
 30
0.0
 11
92.3389235857922
 21
-145.6479081234316
 31
0.0
  0
LINE
  5
9B
330
7D
100
AcDbEntity
  8
レイヤー 1
 62
   250
420
  2299925
370
    25
100
AcDbLine
 10
92.3389235857922
 20
-145.6479081234316
 30
0.0
 11
92.82399301786149
 21
-145.2296900679804
 31
0.0
  0
LINE
  5
9C
330
7D
100
AcDbEntity
  8
レイヤー 1
 62
   250
420
  2299925
370
    25
100
AcDbLine
 10
92.82399301786149
 20
-145.2296900679804
 30
0.0
 11
93.33802550474743
 21
-145.6121011789959
 31
0.0
  0
LINE
  5
9D
330
7D
100
AcDbEntity
  8
レイヤー 1
 62
   250
420
  2299925
370
    25
100
AcDbLine
 10
93.33802550474743
 20
-145.6121011789959
 30
0.0
 11
93.82341243680862
 21
-145.1945534013227
 31
0.0
  0
LINE
  5
9E
330
7D
100
AcDbEntity
  8
レイヤー 1
 62
   250
420
  2299925
370
    25
100
AcDbLine
 10
93.82341243680862
 20
-145.1945534013227
 30
0.0
 11
94.33744492369456
 21
-145.5762589567826
 31
0.0
  0
LINE
  5
9F
330
7D
100
AcDbEntity
  8
レイヤー 1
 62
   250
420
  2299925
370
    25
100
AcDbLine
 10
94.33744492369456
 20
-145.5762589567826
 30
0.0
 11
94.82286713353262
 21
-145.1587111791095
 31
0.0
  0
LINE
  5
A0
330
7D
100
AcDbEntity
  8
レイヤー 1
 62
   250
420
  2299925
370
    25
100
AcDbLine
 10
94.82286713353262
 20
-145.1587111791095
 30
0.0
 11
95.33686434264168
 21
-145.5404520123472
 31
0.0
  0
LINE
  5
A1
330
7D
100
AcDbEntity
  8
レイヤー 1
 62
   250
420
  2299925
370
    25
100
AcDbLine
 10
95.33686434264168
 20
-145.5404520123472
 30
0.0
 11
95.82228655247977
 21
-145.1229042346738
 31
0.0
  0
LINE
  5
A2
330
7D
100
AcDbEntity
  8
レイヤー 1
 62
   250
420
  2299925
370
    25
100
AcDbLine
 10
95.82228655247977
 20
-145.1229042346738
 30
0.0
 11
96.33593098382005
 21
-145.504609790134
 31
0.0
  0
LINE
  5
A3
330
7D
100
AcDbEntity
  8
レイヤー 1
 62
   250
420
  2299925
370
    25
100
AcDbLine
 10
96.33593098382005
 20
-145.504609790134
 30
0.0
 11
96.8217059714269
 21
-145.0870620124605
 31
0.0
  0
LINE
  5
A4
330
7D
100
AcDbEntity
  8
レイヤー 1
 62
   250
420
  2299925
370
    25
100
AcDbLine
 10
96.8217059714269
 20
-145.0870620124605
 30
0.0
 11
97.33570318053564
 21
-145.4694731234763
 31
0.0
  0
LINE
  5
A5
330
7D
100
AcDbEntity
  8
レイヤー 1
 62
   250
420
  2299925
370
    25
100
AcDbLine
 10
97.33570318053564
 20
-145.4694731234763
 30
0.0
 11
97.82077261260493
 21
-145.0512197902472
 31
0.0
  0
LINE
  5
A6
330
7D
100
AcDbEntity
  8
レイヤー 1
 62
   250
420
  2299925
370
    25
100
AcDbLine
 10
97.82077261260493
 20
-145.0512197902472
 30
0.0
 11
98.33476982171431
 21
-145.4336309012627
 31
0.0
  0
LINE
  5
A7
330
7D
100
AcDbEntity
  8
レイヤー 1
 62
   250
420
  2299925
370
    25
100
AcDbLine
 10
98.33476982171431
 20
-145.4336309012627
 30
0.0
 11
98.82054480932115
 21
-145.0160831235895
 31
0.0
  0
LINE
  5
A8
330
7D
100
AcDbEntity
  8
レイヤー 1
 62
   250
420
  2299925
370
    25
100
AcDbLine
 10
98.82054480932115
 20
-145.0160831235895
 30
0.0
 11
99.33454201843021
 21
-145.3978239568273
 31
0.0
  0
LINE
  5
A9
330
7D
100
AcDbEntity
  8
レイヤー 1
 62
   250
420
  2299925
370
    25
100
AcDbLine
 10
99.33454201843021
 20
-145.3978239568273
 30
0.0
 11
99.8196114504995
 21
-144.9802761791541
 31
0.0
  0
LINE
  5
AA
330
7D
100
AcDbEntity
  8
レイヤー 1
 62
   250
420
  2299925
370
    25
100
AcDbLine
 10
99.8196114504995
 20
-144.9802761791541
 30
0.0
 11
100.3336086596085
 21
-145.361981734614
 31
0.0
  0
LINE
  5
AB
330
7D
100
AcDbEntity
  8
レイヤー 1
 62
   250
420
  2299925
370
    25
100
AcDbLine
 10
100.3336086596085
 20
-145.361981734614
 30
0.0
 11
100.8193836472154
 21
-144.9444339569408
 31
0.0
  0
LINE
  5
AC
330
7D
100
AcDbEntity
  8
レイヤー 1
 62
   250
420
  2299925
370
    25
100
AcDbLine
 10
100.8848016854337
 20
-144.8962092347307
 30
0.0
 11
101.8329141769136
 21
-144.8962092347307
 31
0.0
  0
LINE
  5
AD
330
7D
100
AcDbEntity
  8
レイヤー 1
 62
   250
420
  2299925
370
    25
100
AcDbLine
 10
101.8329141769136
 20
-144.8962092347307
 30
0.0
 11
101.8329141769136
 21
-153.1582295104429
 31
0.0
  0
LINE
  5
AE
330
7D
100
AcDbEntity
  8
レイヤー 1
 62
   250
420
  2299925
370
    25
100
AcDbLine
 10
100.8331772579746
 20
-146.1584834010817
 30
0.0
 11
100.8331772579746
 21
-154.1578253435259
 31
0.0
  0
LINE
  5
AF
330
7D
100
AcDbEntity
  8
レイヤー 1
 62
   250
420
  2299925
370
    25
100
AcDbLine
 10
107.832923190507
 20
-153.1582295104429
 30
0.0
 11
101.8329141769136
 21
-153.1582295104429
 31
0.0
  0
LINE
  5
B0
330
7D
100
AcDbEntity
  8
レイヤー 1
 62
   250
420
  2299925
370
    25
100
AcDbLine
 10
118.8406831874534
 20
-145.3013392346291
 30
0.0
 11
118.3266859783444
 21
-145.6830800678672
 31
0.0
  0
LINE
  5
B1
330
7D
100
AcDbEntity
  8
レイヤー 1
 62
   250
420
  2299925
370
    25
100
AcDbLine
 10
123.8374275044203
 20
-145.4798095123623
 30
0.0
 11
123.3234302953112
 21
-145.8615150678225
 31
0.0
  0
LINE
  5
B2
330
7D
100
AcDbEntity
  8
レイヤー 1
 62
   250
420
  2299925
370
    25
100
AcDbLine
 10
119.3257526195227
 20
-145.7188870123026
 30
0.0
 11
118.8406831874534
 21
-145.3013392346291
 31
0.0
  0
LINE
  5
B3
330
7D
100
AcDbEntity
  8
レイヤー 1
 62
   250
420
  2299925
370
    25
100
AcDbLine
 10
120.3255248162386
 20
-145.7547292345158
 30
0.0
 11
119.8397498286318
 21
-145.3371814568427
 31
0.0
  0
LINE
  5
B4
330
7D
100
AcDbEntity
  8
レイヤー 1
 62
   250
420
  2299925
370
    25
100
AcDbLine
 10
118.3266859783444
 20
-145.6830800678672
 30
0.0
 11
117.8416165462751
 21
-145.2655322901937
 31
0.0
  0
LINE
  5
B5
330
7D
100
AcDbEntity
  8
レイヤー 1
 62
   250
420
  2299925
370
    25
100
AcDbLine
 10
119.8397498286318
 20
-145.3371814568427
 30
0.0
 11
119.3257526195227
 21
-145.7188870123026
 31
0.0
  0
LINE
  5
B6
330
7D
100
AcDbEntity
  8
レイヤー 1
 62
   250
420
  2299925
370
    25
100
AcDbLine
 10
127.8351404579857
 20
-145.6224375678822
 30
0.0
 11
127.3211079710998
 21
-146.0048486788977
 31
0.0
  0
LINE
  5
B7
330
7D
100
AcDbEntity
  8
レイヤー 1
 62
   250
420
  2299925
370
    25
100
AcDbLine
 10
120.8395220253477
 20
-145.3729884012781
 30
0.0
 11
120.3255248162386
 21
-145.7547292345158
 31
0.0
  0
LINE
  5
B8
330
7D
100
AcDbEntity
  8
レイヤー 1
 62
   250
420
  2299925
370
    25
100
AcDbLine
 10
121.838588666526
 20
-145.4081603457136
 30
0.0
 11
121.324591457417
 21
-145.7905361789516
 31
0.0
  0
LINE
  5
B9
330
7D
100
AcDbEntity
  8
レイヤー 1
 62
   250
420
  2299925
370
    25
100
AcDbLine
 10
107.832923190507
 20
-144.8962092347307
 30
0.0
 11
107.832923190507
 21
-153.1582295104429
 31
0.0
  0
LINE
  5
BA
330
7D
100
AcDbEntity
  8
レイヤー 1
 62
   250
420
  2299925
370
    25
100
AcDbLine
 10
121.324591457417
 20
-145.7905361789516
 30
0.0
 11
120.8395220253477
 21
-145.3729884012781
 31
0.0
  0
LINE
  5
BB
330
7D
100
AcDbEntity
  8
レイヤー 1
 62
   250
420
  2299925
370
    25
100
AcDbLine
 10
122.3243636541329
 20
-145.8263784011648
 30
0.0
 11
121.838588666526
 21
-145.4081603457136
 31
0.0
  0
LINE
  5
BC
330
7D
100
AcDbEntity
  8
レイヤー 1
 62
   250
420
  2299925
370
    25
100
AcDbLine
 10
127.3211079710998
 20
-146.0048486788977
 30
0.0
 11
126.8353682612698
 21
-145.586595345669
 31
0.0
  0
LINE
  5
BD
330
7D
100
AcDbEntity
  8
レイヤー 1
 62
   250
420
  2299925
370
    25
100
AcDbLine
 10
122.8383608632419
 20
-145.443967290149
 30
0.0
 11
122.3243636541329
 21
-145.8263784011648
 31
0.0
  0
LINE
  5
BE
330
7D
100
AcDbEntity
  8
レイヤー 1
 62
   250
420
  2299925
370
    25
100
AcDbLine
 10
123.3234302953112
 20
-145.8615150678225
 30
0.0
 11
122.8383608632419
 21
-145.443967290149
 31
0.0
  0
LINE
  5
BF
330
7D
100
AcDbEntity
  8
レイヤー 1
 62
   250
420
  2299925
370
    25
100
AcDbLine
 10
128.320209890055
 20
-146.0399853455557
 30
0.0
 11
127.8351404579857
 21
-145.6224375678822
 31
0.0
  0
LINE
  5
C0
330
7D
100
AcDbEntity
  8
レイヤー 1
 62
   250
420
  2299925
370
    25
100
AcDbLine
 10
124.8365294233755
 20
-145.515616456798
 30
0.0
 11
124.3232024920271
 21
-145.8973572900358
 31
0.0
  0
LINE
  5
C1
330
7D
100
AcDbEntity
  8
レイヤー 1
 62
   250
420
  2299925
370
    25
100
AcDbLine
 10
125.8363016200914
 20
-145.5514586790113
 30
0.0
 11
125.3222691332055
 21
-145.9331642344712
 31
0.0
  0
LINE
  5
C2
330
7D
100
AcDbEntity
  8
レイヤー 1
 62
   250
420
  2299925
370
    25
100
AcDbLine
 10
125.3222691332055
 20
-145.9331642344712
 30
0.0
 11
124.8365294233755
 21
-145.515616456798
 31
0.0
  0
LINE
  5
C3
330
7D
100
AcDbEntity
  8
レイヤー 1
 62
   250
420
  2299925
370
    25
100
AcDbLine
 10
128.8342070991641
 20
-145.658244512318
 30
0.0
 11
128.320209890055
 21
-146.0399853455557
 31
0.0
  0
LINE
  5
C4
330
7D
100
AcDbEntity
  8
レイヤー 1
 62
   250
420
  2299925
370
    25
100
AcDbLine
 10
124.3232024920271
 20
-145.8973572900358
 30
0.0
 11
123.8374275044203
 21
-145.4798095123623
 31
0.0
  0
LINE
  5
C5
330
7D
100
AcDbEntity
  8
レイヤー 1
 62
   250
420
  2299925
370
    25
100
AcDbLine
 10
126.8353682612698
 20
-145.586595345669
 30
0.0
 11
126.3213710521607
 21
-145.9690064566844
 31
0.0
  0
LINE
  5
C6
330
7D
100
AcDbEntity
  8
レイヤー 1
 62
   250
420
  2299925
370
    25
100
AcDbLine
 10
126.3213710521607
 20
-145.9690064566844
 30
0.0
 11
125.8363016200914
 21
-145.5514586790113
 31
0.0
  0
LINE
  5
C7
330
7D
100
AcDbEntity
  8
レイヤー 1
 62
   250
420
  2299925
370
    25
100
AcDbLine
 10
128.8342070991641
 20
-145.658244512318
 30
0.0
 11
128.8342070991641
 21
-146.1584834010817
 31
0.0
  0
LINE
  5
C8
330
7D
100
AcDbEntity
  8
レイヤー 1
 62
   250
420
  2299925
370
    25
100
AcDbLine
 10
108.8333656649836
 20
-146.1584834010817
 30
0.0
 11
128.8342070991641
 21
-146.1584834010817
 31
0.0
  0
LINE
  5
C9
330
7D
100
AcDbEntity
  8
レイヤー 1
 62
   250
420
  2299925
370
    25
100
AcDbLine
 10
117.8416165462751
 20
-145.2655322901937
 30
0.0
 11
117.3275840593891
 21
-145.6479081234316
 31
0.0
  0
LINE
  5
CA
330
7D
100
AcDbEntity
  8
レイヤー 1
 62
   250
420
  2299925
370
    25
100
AcDbLine
 10
117.3275840593891
 20
-145.6479081234316
 30
0.0
 11
116.8418443495591
 21
-145.2296900679804
 31
0.0
  0
LINE
  5
CB
330
7D
100
AcDbEntity
  8
レイヤー 1
 62
   250
420
  2299925
370
    25
100
AcDbLine
 10
116.8418443495591
 20
-145.2296900679804
 30
0.0
 11
116.3278118626732
 21
-145.6121011789959
 31
0.0
  0
LINE
  5
CC
330
7D
100
AcDbEntity
  8
レイヤー 1
 62
   250
420
  2299925
370
    25
100
AcDbLine
 10
116.3278118626732
 20
-145.6121011789959
 30
0.0
 11
115.8427424306039
 21
-145.1945534013227
 31
0.0
  0
LINE
  5
CD
330
7D
100
AcDbEntity
  8
レイヤー 1
 62
   250
420
  2299925
370
    25
100
AcDbLine
 10
115.8427424306039
 20
-145.1945534013227
 30
0.0
 11
115.3287452214948
 21
-145.5762589567826
 31
0.0
  0
LINE
  5
CE
330
7D
100
AcDbEntity
  8
レイヤー 1
 62
   250
420
  2299925
370
    25
100
AcDbLine
 10
115.3287452214948
 20
-145.5762589567826
 30
0.0
 11
114.8430055116649
 21
-145.1587111791095
 31
0.0
  0
LINE
  5
CF
330
7D
100
AcDbEntity
  8
レイヤー 1
 62
   250
420
  2299925
370
    25
100
AcDbLine
 10
114.8430055116649
 20
-145.1587111791095
 30
0.0
 11
114.328973024779
 21
-145.5404520123472
 31
0.0
  0
LINE
  5
D0
330
7D
100
AcDbEntity
  8
レイヤー 1
 62
   250
420
  2299925
370
    25
100
AcDbLine
 10
114.328973024779
 20
-145.5404520123472
 30
0.0
 11
113.8439035927097
 21
-145.1229042346738
 31
0.0
  0
LINE
  5
D1
330
7D
100
AcDbEntity
  8
レイヤー 1
 62
   250
420
  2299925
370
    25
100
AcDbLine
 10
113.8439035927097
 20
-145.1229042346738
 30
0.0
 11
113.3299063836006
 21
-145.504609790134
 31
0.0
  0
LINE
  5
D2
330
7D
100
AcDbEntity
  8
レイヤー 1
 62
   250
420
  2299925
370
    25
100
AcDbLine
 10
113.3299063836006
 20
-145.504609790134
 30
0.0
 11
112.8448369515313
 21
-145.0870620124605
 31
0.0
  0
LINE
  5
D3
330
7D
100
AcDbEntity
  8
レイヤー 1
 62
   250
420
  2299925
370
    25
100
AcDbLine
 10
112.8448369515313
 20
-145.0870620124605
 30
0.0
 11
112.3308397424223
 21
-145.4694731234763
 31
0.0
  0
LINE
  5
D4
330
7D
100
AcDbEntity
  8
レイヤー 1
 62
   250
420
  2299925
370
    25
100
AcDbLine
 10
112.3308397424223
 20
-145.4694731234763
 30
0.0
 11
111.8450647548154
 21
-145.0512197902472
 31
0.0
  0
LINE
  5
D5
330
7D
100
AcDbEntity
  8
レイヤー 1
 62
   250
420
  2299925
370
    25
100
AcDbLine
 10
111.8450647548154
 20
-145.0512197902472
 30
0.0
 11
111.3310675457063
 21
-145.4336309012627
 31
0.0
  0
LINE
  5
D6
330
7D
100
AcDbEntity
  8
レイヤー 1
 62
   250
420
  2299925
370
    25
100
AcDbLine
 10
111.3310675457063
 20
-145.4336309012627
 30
0.0
 11
110.845998113637
 21
-145.0160831235895
 31
0.0
  0
LINE
  5
D7
330
7D
100
AcDbEntity
  8
レイヤー 1
 62
   250
420
  2299925
370
    25
100
AcDbLine
 10
110.845998113637
 20
-145.0160831235895
 30
0.0
 11
110.3319656267511
 21
-145.3978239568273
 31
0.0
  0
LINE
  5
D8
330
7D
100
AcDbEntity
  8
レイヤー 1
 62
   250
420
  2299925
370
    25
100
AcDbLine
 10
110.3319656267511
 20
-145.3978239568273
 30
0.0
 11
109.8462259169211
 21
-144.9802761791541
 31
0.0
  0
LINE
  5
D9
330
7D
100
AcDbEntity
  8
レイヤー 1
 62
   250
420
  2299925
370
    25
100
AcDbLine
 10
109.8462259169211
 20
-144.9802761791541
 30
0.0
 11
109.3322287078121
 21
-145.361981734614
 31
0.0
  0
LINE
  5
DA
330
7D
100
AcDbEntity
  8
レイヤー 1
 62
   250
420
  2299925
370
    25
100
AcDbLine
 10
109.3322287078121
 20
-145.361981734614
 30
0.0
 11
108.8471592757428
 21
-144.9444339569408
 31
0.0
  0
LINE
  5
DB
330
7D
100
AcDbEntity
  8
レイヤー 1
 62
   250
420
  2299925
370
    25
100
AcDbLine
 10
108.7803826758809
 20
-144.8962092347307
 30
0.0
 11
107.832923190507
 21
-144.8962092347307
 31
0.0
  0
LINE
  5
DC
330
7D
100
AcDbEntity
  8
レイヤー 1
 62
   250
420
  2299925
370
    25
100
AcDbLine
 10
108.8333656649836
 20
-146.1584834010817
 30
0.0
 11
108.8333656649836
 21
-154.1578253435259
 31
0.0
  0
SPLINE
  5
DD
330
7D
100
AcDbEntity
  8
レイヤー 1
 62
   250
420
  2299925
370
     9
100
AcDbSpline
210
0.0
220
0.0
230
1.0
 70
     9
 71
     3
 72
    17
 73
    13
 74
     0
 42
0.0000000001
 43
0.0000000001
 40
0.0
 40
0.0
 40
0.0
 40
0.0
 40
1.0
 40
1.0
 40
1.0
 40
2.0
 40
2.0
 40
2.0
 40
3.0
 40
3.0
 40
3.0
 40
4.0
 40
4.0
 40
4.0
 40
4.0
 10
80.93171392519355
 20
-140.8964500690638
 30
0.0
 10
80.93171392519355
 20
-140.8406406246333
 30
0.0
 10
80.88691114742683
 20
-140.7958378468666
 30
0.0
 10
80.83180725855191
 20
-140.7958378468666
 30
0.0
 10
80.77649170301027
 20
-140.7958378468666
 30
0.0
 10
80.73172420302141
 20
-140.8406406246333
 30
0.0
 10
80.73172420302141
 20
-140.8964500690638
 30
0.0
 10
80.73172420302141
 20
-140.951553957939
 30
0.0
 10
80.77649170301027
 20
-140.9963567357054
 30
0.0
 10
80.83180725855191
 20
-140.9963567357054
 30
0.0
 10
80.88691114742683
 20
-140.9963567357054
 30
0.0
 10
80.93171392519355
 20
-140.951553957939
 30
0.0
 10
80.93171392519355
 20
-140.8964500690638
 30
0.0
  0
SPLINE
  5
DE
330
7D
100
AcDbEntity
  8
レイヤー 1
 62
   250
420
  2299925
370
     9
100
AcDbSpline
210
0.0
220
0.0
230
1.0
 70
     9
 71
     3
 72
    17
 73
    13
 74
     0
 42
0.0000000001
 43
0.0000000001
 40
0.0
 40
0.0
 40
0.0
 40
0.0
 40
1.0
 40
1.0
 40
1.0
 40
2.0
 40
2.0
 40
2.0
 40
3.0
 40
3.0
 40
3.0
 40
4.0
 40
4.0
 40
4.0
 40
4.0
 10
76.93177837063811
 20
-145.658244512318
 30
0.0
 10
76.93177837063811
 20
-145.6031406234427
 30
0.0
 10
76.88701087064924
 20
-145.558337845676
 30
0.0
 10
76.8316953151076
 20
-145.558337845676
 30
0.0
 10
76.77659142623236
 20
-145.558337845676
 30
0.0
 10
76.73178864846564
 20
-145.6031406234427
 30
0.0
 10
76.73178864846564
 20
-145.658244512318
 30
0.0
 10
76.73178864846564
 20
-145.7133836789707
 30
0.0
 10
76.77659142623236
 20
-145.7581511789596
 30
0.0
 10
76.8316953151076
 20
-145.7581511789596
 30
0.0
 10
76.88701087064924
 20
-145.7581511789596
 30
0.0
 10
76.93177837063811
 20
-145.7133836789707
 30
0.0
 10
76.93177837063811
 20
-145.658244512318
 30
0.0
  0
SPLINE
  5
DF
330
7D
100
AcDbEntity
  8
レイヤー 1
 62
   250
420
  2299925
370
     9
100
AcDbSpline
210
0.0
220
0.0
230
1.0
 70
     9
 71
     3
 72
    17
 73
    13
 74
     0
 42
0.0000000001
 43
0.0000000001
 40
0.0
 40
0.0
 40
0.0
 40
0.0
 40
1.0
 40
1.0
 40
1.0
 40
2.0
 40
2.0
 40
2.0
 40
3.0
 40
3.0
 40
3.0
 40
4.0
 40
4.0
 40
4.0
 40
4.0
 10
76.93177837063811
 20
-146.1584834010817
 30
0.0
 10
76.93177837063811
 20
-146.1033795122064
 30
0.0
 10
76.88701087064924
 20
-146.05857673444
 30
0.0
 10
76.8316953151076
 20
-146.05857673444
 30
0.0
 10
76.77659142623236
 20
-146.05857673444
 30
0.0
 10
76.73178864846564
 20
-146.1033795122064
 30
0.0
 10
76.73178864846564
 20
-146.1584834010817
 30
0.0
 10
76.73178864846564
 20
-146.2136225677344
 30
0.0
 10
76.77659142623236
 20
-146.2583900677233
 30
0.0
 10
76.8316953151076
 20
-146.2583900677233
 30
0.0
 10
76.88701087064924
 20
-146.2583900677233
 30
0.0
 10
76.93177837063811
 20
-146.2136225677344
 30
0.0
 10
76.93177837063811
 20
-146.1584834010817
 30
0.0
  0
SPLINE
  5
E0
330
7D
100
AcDbEntity
  8
レイヤー 1
 62
   250
420
  2299925
370
     9
100
AcDbSpline
210
0.0
220
0.0
230
1.0
 70
     9
 71
     3
 72
    17
 73
    13
 74
     0
 42
0.0000000001
 43
0.0000000001
 40
0.0
 40
0.0
 40
0.0
 40
0.0
 40
1.0
 40
1.0
 40
1.0
 40
2.0
 40
2.0
 40
2.0
 40
3.0
 40
3.0
 40
3.0
 40
4.0
 40
4.0
 40
4.0
 40
4.0
 10
76.93177837063811
 20
-154.1578253435259
 30
0.0
 10
76.93177837063811
 20
-154.102721454651
 30
0.0
 10
76.88701087064924
 20
-154.0579186768849
 30
0.0
 10
76.8316953151076
 20
-154.0579186768849
 30
0.0
 10
76.77659142623236
 20
-154.0579186768849
 30
0.0
 10
76.73178864846564
 20
-154.102721454651
 30
0.0
 10
76.73178864846564
 20
-154.1578253435259
 30
0.0
 10
76.73178864846564
 20
-154.212964510179
 30
0.0
 10
76.77659142623236
 20
-154.2577320101682
 30
0.0
 10
76.8316953151076
 20
-154.2577320101682
 30
0.0
 10
76.88701087064924
 20
-154.2577320101682
 30
0.0
 10
76.93177837063811
 20
-154.212964510179
 30
0.0
 10
76.93177837063811
 20
-154.1578253435259
 30
0.0
  0
SPLINE
  5
E1
330
7D
100
AcDbEntity
  8
レイヤー 1
 62
   250
420
  2299925
370
     9
100
AcDbSpline
210
0.0
220
0.0
230
1.0
 70
     9
 71
     3
 72
    17
 73
    13
 74
     0
 42
0.0000000001
 43
0.0000000001
 40
0.0
 40
0.0
 40
0.0
 40
0.0
 40
1.0
 40
1.0
 40
1.0
 40
2.0
 40
2.0
 40
2.0
 40
3.0
 40
3.0
 40
3.0
 40
4.0
 40
4.0
 40
4.0
 40
4.0
 10
101.9328561188084
 20
-140.8964500690638
 30
0.0
 10
101.9328561188084
 20
-140.8406406246333
 30
0.0
 10
101.8880533421736
 20
-140.7958378468666
 30
0.0
 10
101.8329141769136
 20
-140.7958378468666
 30
0.0
 10
101.7778102894306
 20
-140.7958378468666
 30
0.0
 10
101.7330075127958
 20
-140.8406406246333
 30
0.0
 10
101.7330075127958
 20
-140.8964500690638
 30
0.0
 10
101.7330075127958
 20
-140.951553957939
 30
0.0
 10
101.7778102894306
 20
-140.9963567357054
 30
0.0
 10
101.8329141769136
 20
-140.9963567357054
 30
0.0
 10
101.8880533421736
 20
-140.9963567357054
 30
0.0
 10
101.9328561188084
 20
-140.951553957939
 30
0.0
 10
101.9328561188084
 20
-140.8964500690638
 30
0.0
  0
SPLINE
  5
E2
330
7D
100
AcDbEntity
  8
レイヤー 1
 62
   250
420
  2299925
370
     9
100
AcDbSpline
210
0.0
220
0.0
230
1.0
 70
     9
 71
     3
 72
    17
 73
    13
 74
     0
 42
0.0000000001
 43
0.0000000001
 40
0.0
 40
0.0
 40
0.0
 40
0.0
 40
1.0
 40
1.0
 40
1.0
 40
2.0
 40
2.0
 40
2.0
 40
3.0
 40
3.0
 40
3.0
 40
4.0
 40
4.0
 40
4.0
 40
4.0
 10
128.9341137632819
 20
-140.8964500690638
 30
0.0
 10
128.9341137632819
 20
-140.8406406246333
 30
0.0
 10
128.8893480798708
 20
-140.7958378468666
 30
0.0
 10
128.8342070991641
 20
-140.7958378468666
 30
0.0
 10
128.779103211681
 20
-140.7958378468666
 30
0.0
 10
128.7343004350462
 20
-140.8406406246333
 30
0.0
 10
128.7343004350462
 20
-140.8964500690638
 30
0.0
 10
128.7343004350462
 20
-140.951553957939
 30
0.0
 10
128.779103211681
 20
-140.9963567357054
 30
0.0
 10
128.8342070991641
 20
-140.9963567357054
 30
0.0
 10
128.8893480798708
 20
-140.9963567357054
 30
0.0
 10
128.9341137632819
 20
-140.951553957939
 30
0.0
 10
128.9341137632819
 20
-140.8964500690638
 30
0.0
  0
SPLINE
  5
E3
330
7D
100
AcDbEntity
  8
レイヤー 1
 62
   250
420
  2299925
370
     9
100
AcDbSpline
210
0.0
220
0.0
230
1.0
 70
     9
 71
     3
 72
    17
 73
    13
 74
     0
 42
0.0000000001
 43
0.0000000001
 40
0.0
 40
0.0
 40
0.0
 40
0.0
 40
1.0
 40
1.0
 40
1.0
 40
2.0
 40
2.0
 40
2.0
 40
3.0
 40
3.0
 40
3.0
 40
4.0
 40
4.0
 40
4.0
 40
4.0
 10
107.9328298546248
 20
-140.8964500690638
 30
0.0
 10
107.9328298546248
 20
-140.8406406246333
 30
0.0
 10
107.8880270779901
 20
-140.7958378468666
 30
0.0
 10
107.832923190507
 20
-140.7958378468666
 30
0.0
 10
107.777784025247
 20
-140.7958378468666
 30
0.0
 10
107.7330165263892
 20
-140.8406406246333
 30
0.0
 10
107.7330165263892
 20
-140.8964500690638
 30
0.0
 10
107.7330165263892
 20
-140.951553957939
 30
0.0
 10
107.777784025247
 20
-140.9963567357054
 30
0.0
 10
107.832923190507
 20
-140.9963567357054
 30
0.0
 10
107.8880270779901
 20
-140.9963567357054
 30
0.0
 10
107.9328298546248
 20
-140.951553957939
 30
0.0
 10
107.9328298546248
 20
-140.8964500690638
 30
0.0
  0
LINE
  5
E4
330
7D
100
AcDbEntity
  8
レイヤー 1
 62
   250
420
  2299925
370
     9
100
AcDbLine
 10
76.8316953151076
 20
-145.658244512318
 30
0.0
 11
76.8316953151076
 21
-140.4003386802991
 31
0.0
  0
LINE
  5
E5
330
7D
100
AcDbEntity
  8
レイヤー 1
 62
   250
420
  2299925
370
     9
100
AcDbLine
 10
76.8316953151076
 20
-145.658244512318
 30
0.0
 11
76.8316953151076
 21
-146.1584834010817
 31
0.0
  0
LINE
  5
E6
330
7D
100
AcDbEntity
  8
レイヤー 1
 62
   250
420
  2299925
370
     9
100
AcDbLine
 10
78.29173670363161
 20
-145.658244512318
 30
0.0
 11
75.83174670424617
 21
-145.658244512318
 31
0.0
  0
LINE
  5
E7
330
7D
100
AcDbEntity
  8
レイヤー 1
 62
   250
420
  2299925
370
     9
100
AcDbLine
 10
78.29173670363161
 20
-146.1584834010817
 30
0.0
 11
75.83174670424617
 21
-146.1584834010817
 31
0.0
  0
INSERT
  5
E9
330
7D
100
AcDbEntity
  8
レイヤー 1
100
AcDbBlockReference
  2
Block_2
 10
0.0
 20
0.0
 30
0.0
  0
LINE
  5
F7
330
7D
100
AcDbEntity
  8
レイヤー 1
 62
   250
420
  2299925
370
     9
100
AcDbLine
 10
80.83180725855191
 20
-140.8964500690638
 30
0.0
 11
101.8329141769136
 21
-140.8964500690638
 31
0.0
  0
LINE
  5
F8
330
7D
100
AcDbEntity
  8
レイヤー 1
 62
   250
420
  2299925
370
     9
100
AcDbLine
 10
80.83180725855191
 20
-143.1185267351748
 30
0.0
 11
80.83180725855191
 21
-139.8960075693139
 31
0.0
  0
INSERT
  5
FA
330
7D
100
AcDbEntity
  8
レイヤー 1
100
AcDbBlockReference
  2
Block_4
 10
0.0
 20
0.0
 30
0.0
  0
LINE
  5
105
330
7D
100
AcDbEntity
  8
レイヤー 1
 62
   250
420
  2299925
370
     9
100
AcDbLine
 10
76.8316953151076
 20
-146.1584834010817
 30
0.0
 11
76.8316953151076
 21
-154.1578253435259
 31
0.0
  0
LINE
  5
106
330
7D
100
AcDbEntity
  8
レイヤー 1
 62
   250
420
  2299925
370
     9
100
AcDbLine
 10
98.29342426721357
 20
-154.1578253435259
 30
0.0
 11
75.83174670424617
 21
-154.1578253435259
 31
0.0
  0
INSERT
  5
108
330
7D
100
AcDbEntity
  8
レイヤー 1
100
AcDbBlockReference
  2
Block_6
 10
0.0
 20
0.0
 30
0.0
  0
LINE
  5
10F
330
7D
100
AcDbEntity
  8
レイヤー 1
 62
   250
420
  2299925
370
     9
100
AcDbLine
 10
128.8342070991641
 20
-140.8964500690638
 30
0.0
 11
107.832923190507
 21
-140.8964500690638
 31
0.0
  0
LINE
  5
110
330
7D
100
AcDbEntity
  8
レイヤー 1
 62
   250
420
  2299925
370
     9
100
AcDbLine
 10
128.8342070991641
 20
-143.1185267351748
 30
0.0
 11
128.8342070991641
 21
-139.8960075693139
 31
0.0
  0
INSERT
  5
112
330
7D
100
AcDbEntity
  8
レイヤー 1
100
AcDbBlockReference
  2
Block_7
 10
0.0
 20
0.0
 30
0.0
  0
LINE
  5
11D
330
7D
100
AcDbEntity
  8
レイヤー 1
 62
   250
420
  2299925
370
     9
100
AcDbLine
 10
101.8329141769136
 20
-140.8964500690638
 30
0.0
 11
107.832923190507
 21
-140.8964500690638
 31
0.0
  0
LINE
  5
11E
330
7D
100
AcDbEntity
  8
レイヤー 1
 62
   250
420
  2299925
370
     9
100
AcDbLine
 10
101.8329141769136
 20
-142.3564914575878
 30
0.0
 11
101.8329141769136
 21
-139.8960075693139
 31
0.0
  0
LINE
  5
11F
330
7D
100
AcDbEntity
  8
レイヤー 1
 62
   250
420
  2299925
370
     9
100
AcDbLine
 10
107.832923190507
 20
-142.3564914575878
 30
0.0
 11
107.832923190507
 21
-139.8960075693139
 31
0.0
  0
INSERT
  5
121
330
7D
100
AcDbEntity
  8
レイヤー 1
100
AcDbBlockReference
  2
Block_9
 10
0.0
 20
0.0
 30
0.0
  0
SPLINE
  5
127
330
7D
100
AcDbEntity
  8
レイヤー 1
 62
   250
420
  2299925
370
     9
100
AcDbSpline
210
0.0
220
0.0
230
1.0
 70
     9
 71
     3
 72
    17
 73
    13
 74
     0
 42
0.0000000001
 43
0.0000000001
 40
0.0
 40
0.0
 40
0.0
 40
0.0
 40
1.0
 40
1.0
 40
1.0
 40
2.0
 40
2.0
 40
2.0
 40
3.0
 40
3.0
 40
3.0
 40
4.0
 40
4.0
 40
4.0
 40
4.0
 10
101.1173750285016
 20
-158.2712847869427
 30
0.0
 10
101.1173750285016
 20
-158.216145620289
 30
0.0
 10
101.0615655854816
 20
-158.1713781203005
 30
0.0
 10
100.9930208650078
 20
-158.1713781203005
 30
0.0
 10
100.9244761445343
 20
-158.1713781203005
 30
0.0
 10
100.8689842015055
 20
-158.216145620289
 30
0.0
 10
100.8689842015055
 20
-158.2712847869427
 30
0.0
 10
100.8689842015055
 20
-158.326388675817
 30
0.0
 10
100.9244761445343
 20
-158.3711914535838
 30
0.0
 10
100.9930208650078
 20
-158.3711914535838
 30
0.0
 10
101.0615655854816
 20
-158.3711914535838
 30
0.0
 10
101.1173750285016
 20
-158.326388675817
 30
0.0
 10
101.1173750285016
 20
-158.2712847869427
 30
0.0
  0
SPLINE
  5
128
330
7D
100
AcDbEntity
  8
レイヤー 1
 62
   250
420
  2299925
370
     9
100
AcDbSpline
210
0.0
220
0.0
230
1.0
 70
     9
 71
     3
 72
    17
 73
    13
 74
     0
 42
0.0000000001
 43
0.0000000001
 40
0.0
 40
0.0
 40
0.0
 40
0.0
 40
1.0
 40
1.0
 40
1.0
 40
2.0
 40
2.0
 40
2.0
 40
3.0
 40
3.0
 40
3.0
 40
4.0
 40
4.0
 40
4.0
 40
4.0
 10
109.2013128778187
 20
-158.2712847869427
 30
0.0
 10
109.2013128778187
 20
-158.216145620289
 30
0.0
 10
109.1455034347981
 20
-158.1713781203005
 30
0.0
 10
109.0769234365477
 20
-158.1713781203005
 30
0.0
 10
109.0076731605366
 20
-158.1713781203005
 30
0.0
 10
108.9525692730536
 20
-158.216145620289
 30
0.0
 10
108.9525692730536
 20
-158.2712847869427
 30
0.0
 10
108.9525692730536
 20
-158.326388675817
 30
0.0
 10
109.0076731605366
 20
-158.3711914535838
 30
0.0
 10
109.0769234365477
 20
-158.3711914535838
 30
0.0
 10
109.1455034347981
 20
-158.3711914535838
 30
0.0
 10
109.2013128778187
 20
-158.326388675817
 30
0.0
 10
109.2013128778187
 20
-158.2712847869427
 30
0.0
  0
LINE
  5
129
330
7D
100
AcDbEntity
  8
レイヤー 1
 62
   250
420
  2299925
370
     9
100
AcDbLine
 10
109.0769234365477
 20
-158.2712847869427
 30
0.0
 11
100.9930208650078
 21
-158.2712847869427
 31
0.0
  0
LINE
  5
12A
330
7D
100
AcDbEntity
  8
レイヤー 1
 62
   250
420
  2299925
370
     9
100
AcDbLine
 10
109.0769234365477
 20
-156.8112433984184
 30
0.0
 11
109.0769234365477
 21
-159.2713745089143
 31
0.0
  0
LINE
  5
12B
330
7D
100
AcDbEntity
  8
レイヤー 1
 62
   250
420
  2299925
370
     9
100
AcDbLine
 10
100.9930208650078
 20
-156.8112433984184
 30
0.0
 11
100.9930208650078
 21
-159.2713745089143
 31
0.0
  0
INSERT
  5
12D
330
7D
100
AcDbEntity
  8
レイヤー 1
100
AcDbBlockReference
  2
Block_10
 10
0.0
 20
0.0
 30
0.0
  0
ENDBLK
  5
80
330
7D
100
AcDbEntity
  8
0
100
AcDbBlockEnd
  0
BLOCK
  5
EA
330
E8
100
AcDbEntity
  8
0
100
AcDbBlockBegin
  2
Block_2
 70
     0
 10
0.0
 20
0.0
 30
0.0
  3
Block_2
  1

  0
INSERT
  5
ED
330
E8
100
AcDbEntity
  8
レイヤー 1
100
AcDbBlockReference
  2
Block_3
 10
0.0
 20
0.0
 30
0.0
  0
ENDBLK
  5
EB
330
E8
100
AcDbEntity
  8
0
100
AcDbBlockEnd
  0
BLOCK
  5
EE
330
EC
100
AcDbEntity
  8
0
100
AcDbBlockBegin
  2
Block_3
 70
     0
 10
0.0
 20
0.0
 30
0.0
  3
Block_3
  1

  0
SPLINE
  5
F0
330
EC
100
AcDbEntity
  8
レイヤー 1
100
AcDbSpline
210
0.0
220
0.0
230
1.0
 70
     9
 71
     3
 72
    17
 73
    13
 74
     0
 42
0.0000000001
 43
0.0000000001
 40
0.0
 40
0.0
 40
0.0
 40
0.0
 40
1.0
 40
1.0
 40
1.0
 40
2.0
 40
2.0
 40
2.0
 40
3.0
 40
3.0
 40
3.0
 40
4.0
 40
4.0
 40
4.0
 40
4.0
 10
73.98721515077403
 20
-146.8125718491475
 30
0.0
 10
73.98721515077403
 20
-147.0623412718281
 30
0.0
 10
74.27057425443583
 20
-147.108850060879
 30
0.0
 10
74.61542831250934
 20
-147.108850060879
 30
0.0
 10
74.93496091876626
 20
-147.108850060879
 30
0.0
 10
75.24381372901891
 20
-147.0726765582839
 30
0.0
 10
75.24381372901891
 20
-146.8125718491475
 30
0.0
 10
75.24381372901891
 20
-146.5648694837581
 30
0.0
 10
74.962349427874
 20
-146.5162936374161
 30
0.0
 10
74.61542831250934
 20
-146.5162936374161
 30
0.0
 10
74.29606796102667
 20
-146.5162936374161
 30
0.0
 10
73.98721515077403
 20
-146.5545341973023
 30
0.0
 10
73.98721515077403
 20
-146.8125718491475
 30
0.0
  0
SPLINE
  5
F1
330
EC
100
AcDbEntity
  8
レイヤー 1
100
AcDbSpline
210
0.0
220
0.0
230
1.0
 70
     9
 71
     3
 72
    29
 73
    25
 74
     0
 42
0.0000000001
 43
0.0000000001
 40
0.0
 40
0.0
 40
0.0
 40
0.0
 40
1.0
 40
1.0
 40
1.0
 40
2.0
 40
2.0
 40
2.0
 40
3.0
 40
3.0
 40
3.0
 40
4.0
 40
4.0
 40
4.0
 40
5.0
 40
5.0
 40
5.0
 40
6.0
 40
6.0
 40
6.0
 40
7.0
 40
7.0
 40
7.0
 40
8.0
 40
8.0
 40
8.0
 40
8.0
 10
75.2098795384892
 20
-146.4146633206012
 30
0.0
 10
75.41934134399238
 20
-146.522839318838
 30
0.0
 10
75.43846162393553
 20
-146.6961276217461
 30
0.0
 10
75.43846162393553
 20
-146.8125718491475
 30
0.0
 10
75.43846162393553
 20
-146.9734578083087
 30
0.0
 10
75.39195283488465
 20
-147.1150512327525
 30
0.0
 10
75.2098795384892
 20
-147.2101358681454
 30
0.0
 10
75.01540389834684
 20
-147.3138332422514
 30
0.0
 10
74.77838132896166
 20
-147.3331257769688
 30
0.0
 10
74.61542831250934
 20
-147.3331257769688
 30
0.0
 10
74.47159557600016
 20
-147.3331257769688
 30
0.0
 10
74.21993135080265
 20
-147.3159002995425
 30
0.0
 10
74.02097708652949
 20
-147.2101358681454
 30
0.0
 10
73.817888707674
 20
-147.1023043794571
 30
0.0
 10
73.79463431314857
 20
-146.9414184202959
 30
0.0
 10
73.79463431314857
 20
-146.8125718491475
 30
0.0
 10
73.79463431314857
 20
-146.6537529472775
 30
0.0
 10
73.83907604490829
 20
-146.5100924655426
 30
0.0
 10
74.02097708652949
 20
-146.4146633206012
 30
0.0
 10
74.21355792415494
 20
-146.315444570626
 30
0.0
 10
74.441967754827
 20
-146.2920179213263
 30
0.0
 10
74.61542831250934
 20
-146.2920179213263
 30
0.0
 10
74.78682181290053
 20
-146.2920179213263
 30
0.0
 10
75.017470955638
 20
-146.3133775133348
 30
0.0
 10
75.2098795384892
 20
-146.4146633206012
 30
0.0
  0
HATCH
  5
F2
330
EC
100
AcDbEntity
  8
レイヤー 1
 62
   250
420
  2299925
440
 33554687
100
AcDbHatch
 10
0.0
 20
0.0
 30
0.0
210
0.0
220
0.0
230
1.0
  2
SOLID
 70
     1
 71
     1
 91
        2
 92
        1
 93
        1
 72
     4
 94
        3
 73
     0
 74
     0
 95
       17
 96
       13
 40
0.0
 40
0.0
 40
0.0
 40
0.0
 40
1.0
 40
1.0
 40
1.0
 40
2.0
 40
2.0
 40
2.0
 40
3.0
 40
3.0
 40
3.0
 40
4.0
 40
4.0
 40
4.0
 40
4.0
 10
73.98721515077403
 20
-146.8125718491475
 10
73.98721515077403
 20
-147.0623412718281
 10
74.27057425443583
 20
-147.108850060879
 10
74.61542831250934
 20
-147.108850060879
 10
74.93496091876626
 20
-147.108850060879
 10
75.24381372901891
 20
-147.0726765582839
 10
75.24381372901891
 20
-146.8125718491475
 10
75.24381372901891
 20
-146.5648694837581
 10
74.962349427874
 20
-146.5162936374161
 10
74.61542831250934
 20
-146.5162936374161
 10
74.29606796102667
 20
-146.5162936374161
 10
73.98721515077403
 20
-146.5545341973023
 10
73.98721515077403
 20
-146.8125718491475
 97
        0
 97
        1
330
F0
 92
        1
 93
        1
 72
     4
 94
        3
 73
     0
 74
     0
 95
       29
 96
       25
 40
0.0
 40
0.0
 40
0.0
 40
0.0
 40
1.0
 40
1.0
 40
1.0
 40
2.0
 40
2.0
 40
2.0
 40
3.0
 40
3.0
 40
3.0
 40
4.0
 40
4.0
 40
4.0
 40
5.0
 40
5.0
 40
5.0
 40
6.0
 40
6.0
 40
6.0
 40
7.0
 40
7.0
 40
7.0
 40
8.0
 40
8.0
 40
8.0
 40
8.0
 10
75.2098795384892
 20
-146.4146633206012
 10
75.41934134399238
 20
-146.522839318838
 10
75.43846162393553
 20
-146.6961276217461
 10
75.43846162393553
 20
-146.8125718491475
 10
75.43846162393553
 20
-146.9734578083087
 10
75.39195283488465
 20
-147.1150512327525
 10
75.2098795384892
 20
-147.2101358681454
 10
75.01540389834684
 20
-147.3138332422514
 10
74.77838132896166
 20
-147.3331257769688
 10
74.61542831250934
 20
-147.3331257769688
 10
74.47159557600016
 20
-147.3331257769688
 10
74.21993135080265
 20
-147.3159002995425
 10
74.02097708652949
 20
-147.2101358681454
 10
73.817888707674
 20
-147.1023043794571
 10
73.79463431314857
 20
-146.9414184202959
 10
73.79463431314857
 20
-146.8125718491475
 10
73.79463431314857
 20
-146.6537529472775
 10
73.83907604490829
 20
-146.5100924655426
 10
74.02097708652949
 20
-146.4146633206012
 10
74.21355792415494
 20
-146.315444570626
 10
74.441967754827
 20
-146.2920179213263
 10
74.61542831250934
 20
-146.2920179213263
 10
74.78682181290053
 20
-146.2920179213263
 10
75.017470955638
 20
-146.3133775133348
 10
75.2098795384892
 20
-146.4146633206012
 97
        0
 97
        1
330
F1
 75
     2
 76
     1
 98
        1
 10
0.0
 20
0.0
450
        0
451
        0
460
0.0
461
0.0
452
        0
462
0.0
453
        0
470

  0
SPLINE
  5
F3
330
EC
100
AcDbEntity
  8
レイヤー 1
100
AcDbSpline
210
0.0
220
0.0
230
1.0
 70
    11
 71
     3
 72
    17
 73
    13
 74
     0
 42
0.0000000001
 43
0.0000000001
 40
0.0
 40
0.0
 40
0.0
 40
0.0
 40
1.0
 40
1.0
 40
1.0
 40
2.0
 40
2.0
 40
2.0
 40
3.0
 40
3.0
 40
3.0
 40
4.0
 40
4.0
 40
4.0
 40
4.0
 10
75.38764646552809
 20
-146.0756659248526
 30
0.0
 10
75.38764646552809
 20
-146.0756659248526
 30
0.0
 10
75.13598224033059
 20
-146.0756659248526
 30
0.0
 10
75.13598224033059
 20
-146.0756659248526
 30
0.0
 10
75.13598224033059
 20
-146.0756659248526
 30
0.0
 10
75.13598224033059
 20
-145.8238294448808
 30
0.0
 10
75.13598224033059
 20
-145.8238294448808
 30
0.0
 10
75.13598224033059
 20
-145.8238294448808
 30
0.0
 10
75.38764646552809
 20
-145.8238294448808
 30
0.0
 10
75.38764646552809
 20
-145.8238294448808
 30
0.0
 10
75.38764646552809
 20
-145.8238294448808
 30
0.0
 10
75.38764646552809
 20
-146.0756659248526
 30
0.0
 10
75.38764646552809
 20
-146.0756659248526
 30
0.0
  0
HATCH
  5
F4
330
EC
100
AcDbEntity
  8
レイヤー 1
 62
   250
420
  2299925
440
 33554687
100
AcDbHatch
 10
0.0
 20
0.0
 30
0.0
210
0.0
220
0.0
230
1.0
  2
SOLID
 70
     1
 71
     1
 91
        1
 92
        1
 93
        1
 72
     4
 94
        3
 73
     0
 74
     0
 95
       17
 96
       13
 40
0.0
 40
0.0
 40
0.0
 40
0.0
 40
1.0
 40
1.0
 40
1.0
 40
2.0
 40
2.0
 40
2.0
 40
3.0
 40
3.0
 40
3.0
 40
4.0
 40
4.0
 40
4.0
 40
4.0
 10
75.38764646552809
 20
-146.0756659248526
 10
75.38764646552809
 20
-146.0756659248526
 10
75.13598224033059
 20
-146.0756659248526
 10
75.13598224033059
 20
-146.0756659248526
 10
75.13598224033059
 20
-146.0756659248526
 10
75.13598224033059
 20
-145.8238294448808
 10
75.13598224033059
 20
-145.8238294448808
 10
75.13598224033059
 20
-145.8238294448808
 10
75.38764646552809
 20
-145.8238294448808
 10
75.38764646552809
 20
-145.8238294448808
 10
75.38764646552809
 20
-145.8238294448808
 10
75.38764646552809
 20
-146.0756659248526
 10
75.38764646552809
 20
-146.0756659248526
 97
        0
 97
        1
330
F3
 75
     2
 76
     1
 98
        1
 10
0.0
 20
0.0
450
        0
451
        0
460
0.0
461
0.0
452
        0
462
0.0
453
        0
470

  0
SPLINE
  5
F5
330
EC
100
AcDbEntity
  8
レイヤー 1
100
AcDbSpline
210
0.0
220
0.0
230
1.0
 70
     9
 71
     3
 72
    53
 73
    49
 74
     0
 42
0.0000000001
 43
0.0000000001
 40
0.0
 40
0.0
 40
0.0
 40
0.0
 40
1.0
 40
1.0
 40
1.0
 40
2.0
 40
2.0
 40
2.0
 40
3.0
 40
3.0
 40
3.0
 40
4.0
 40
4.0
 40
4.0
 40
5.0
 40
5.0
 40
5.0
 40
6.0
 40
6.0
 40
6.0
 40
7.0
 40
7.0
 40
7.0
 40
8.0
 40
8.0
 40
8.0
 40
9.0
 40
9.0
 40
9.0
 40
10.0
 40
10.0
 40
10.0
 40
11.0
 40
11.0
 40
11.0
 40
12.0
 40
12.0
 40
12.0
 40
13.0
 40
13.0
 40
13.0
 40
14.0
 40
14.0
 40
14.0
 40
15.0
 40
15.0
 40
15.0
 40
16.0
 40
16.0
 40
16.0
 40
16.0
 10
75.43846162393553
 20
-145.1065605648518
 30
0.0
 10
75.43846162393553
 20
-145.184764232367
 30
0.0
 10
75.4215806560578
 20
-145.2863945491819
 30
0.0
 10
75.35801864435494
 20
-145.3880248659967
 30
0.0
 10
75.24794784360121
 20
-145.5613131689048
 30
0.0
 10
75.11686196038745
 20
-145.5826727609133
 30
0.0
 10
75.00903047169913
 20
-145.6016207860822
 30
0.0
 10
75.00903047169913
 20
-145.6016207860822
 30
0.0
 10
75.00903047169913
 20
-145.3794121272836
 30
0.0
 10
75.00903047169913
 20
-145.3794121272836
 30
0.0
 10
75.20781248119805
 20
-145.3246351090681
 30
0.0
 10
75.2374403023712
 20
-145.1975110856624
 30
0.0
 10
75.2374403023712
 20
-145.1044935075606
 30
0.0
 10
75.2374403023712
 20
-144.964967140408
 30
0.0
 10
75.13804929762173
 20
-144.81269391996
 30
0.0
 10
74.90533309759311
 20
-144.81269391996
 30
0.0
 10
74.64936250303906
 20
-144.81269391996
 30
0.0
 10
74.57959931946274
 20
-144.99252790429
 30
0.0
 10
74.57959931946274
 20
-145.1131062462738
 30
0.0
 10
74.57959931946274
 20
-145.1448011247381
 30
0.0
 10
74.57959931946274
 20
-145.2863945491819
 30
0.0
 10
74.70861814538534
 20
-145.3752780127013
 30
0.0
 10
74.70861814538534
 20
-145.3752780127013
 30
0.0
 10
74.68949786544221
 20
-145.5509778824491
 30
0.0
 10
74.68949786544221
 20
-145.5509778824491
 30
0.0
 10
74.68949786544221
 20
-145.5509778824491
 30
0.0
 10
73.84338241426485
 20
-145.4303995404653
 30
0.0
 10
73.84338241426485
 20
-145.4303995404653
 30
0.0
 10
73.84338241426485
 20
-145.4303995404653
 30
0.0
 10
73.84338241426485
 20
-144.6518079607988
 30
0.0
 10
73.84338241426485
 20
-144.6518079607988
 30
0.0
 10
73.84338241426485
 20
-144.6518079607988
 30
0.0
 10
74.03803030918147
 20
-144.6518079607988
 30
0.0
 10
74.03803030918147
 20
-144.6518079607988
 30
0.0
 10
74.03803030918147
 20
-144.6518079607988
 30
0.0
 10
74.03803030918147
 20
-145.267446524013
 30
0.0
 10
74.03803030918147
 20
-145.267446524013
 30
0.0
 10
74.03803030918147
 20
-145.267446524013
 30
0.0
 10
74.46108803477014
 20
-145.3329033382327
 30
0.0
 10
74.46108803477014
 20
-145.3329033382327
 30
0.0
 10
74.42715384424044
 20
-145.2715806385953
 30
0.0
 10
74.38701848183727
 20
-145.1892428564978
 30
0.0
 10
74.38701848183727
 20
-145.0707315718052
 30
0.0
 10
74.38701848183727
 20
-144.8168280345423
 30
0.0
 10
74.57322589281503
 20
-144.5798054651571
 30
0.0
 10
74.88621281764998
 20
-144.5798054651571
 30
0.0
 10
75.20367836661574
 20
-144.5798054651571
 30
0.0
 10
75.43846162393553
 20
-144.8040811812469
 30
0.0
 10
75.43846162393553
 20
-145.1065605648518
 30
0.0
  0
HATCH
  5
F6
330
EC
100
AcDbEntity
  8
レイヤー 1
 62
   250
420
  2299925
440
 33554687
100
AcDbHatch
 10
0.0
 20
0.0
 30
0.0
210
0.0
220
0.0
230
1.0
  2
SOLID
 70
     1
 71
     1
 91
        1
 92
        1
 93
        1
 72
     4
 94
        3
 73
     0
 74
     0
 95
       53
 96
       49
 40
0.0
 40
0.0
 40
0.0
 40
0.0
 40
1.0
 40
1.0
 40
1.0
 40
2.0
 40
2.0
 40
2.0
 40
3.0
 40
3.0
 40
3.0
 40
4.0
 40
4.0
 40
4.0
 40
5.0
 40
5.0
 40
5.0
 40
6.0
 40
6.0
 40
6.0
 40
7.0
 40
7.0
 40
7.0
 40
8.0
 40
8.0
 40
8.0
 40
9.0
 40
9.0
 40
9.0
 40
10.0
 40
10.0
 40
10.0
 40
11.0
 40
11.0
 40
11.0
 40
12.0
 40
12.0
 40
12.0
 40
13.0
 40
13.0
 40
13.0
 40
14.0
 40
14.0
 40
14.0
 40
15.0
 40
15.0
 40
15.0
 40
16.0
 40
16.0
 40
16.0
 40
16.0
 10
75.43846162393553
 20
-145.1065605648518
 10
75.43846162393553
 20
-145.184764232367
 10
75.4215806560578
 20
-145.2863945491819
 10
75.35801864435494
 20
-145.3880248659967
 10
75.24794784360121
 20
-145.5613131689048
 10
75.11686196038745
 20
-145.5826727609133
 10
75.00903047169913
 20
-145.6016207860822
 10
75.00903047169913
 20
-145.6016207860822
 10
75.00903047169913
 20
-145.3794121272836
 10
75.00903047169913
 20
-145.3794121272836
 10
75.20781248119805
 20
-145.3246351090681
 10
75.2374403023712
 20
-145.1975110856624
 10
75.2374403023712
 20
-145.1044935075606
 10
75.2374403023712
 20
-144.964967140408
 10
75.13804929762173
 20
-144.81269391996
 10
74.90533309759311
 20
-144.81269391996
 10
74.64936250303906
 20
-144.81269391996
 10
74.57959931946274
 20
-144.99252790429
 10
74.57959931946274
 20
-145.1131062462738
 10
74.57959931946274
 20
-145.1448011247381
 10
74.57959931946274
 20
-145.2863945491819
 10
74.70861814538534
 20
-145.3752780127013
 10
74.70861814538534
 20
-145.3752780127013
 10
74.68949786544221
 20
-145.5509778824491
 10
74.68949786544221
 20
-145.5509778824491
 10
74.68949786544221
 20
-145.5509778824491
 10
73.84338241426485
 20
-145.4303995404653
 10
73.84338241426485
 20
-145.4303995404653
 10
73.84338241426485
 20
-145.4303995404653
 10
73.84338241426485
 20
-144.6518079607988
 10
73.84338241426485
 20
-144.6518079607988
 10
73.84338241426485
 20
-144.6518079607988
 10
74.03803030918147
 20
-144.6518079607988
 10
74.03803030918147
 20
-144.6518079607988
 10
74.03803030918147
 20
-144.6518079607988
 10
74.03803030918147
 20
-145.267446524013
 10
74.03803030918147
 20
-145.267446524013
 10
74.03803030918147
 20
-145.267446524013
 10
74.46108803477014
 20
-145.3329033382327
 10
74.46108803477014
 20
-145.3329033382327
 10
74.42715384424044
 20
-145.2715806385953
 10
74.38701848183727
 20
-145.1892428564978
 10
74.38701848183727
 20
-145.0707315718052
 10
74.38701848183727
 20
-144.8168280345423
 10
74.57322589281503
 20
-144.5798054651571
 10
74.88621281764998
 20
-144.5798054651571
 10
75.20367836661574
 20
-144.5798054651571
 10
75.43846162393553
 20
-144.8040811812469
 10
75.43846162393553
 20
-145.1065605648518
 97
        0
 97
        1
330
F5
 75
     2
 76
     1
 98
        1
 10
0.0
 20
0.0
450
        0
451
        0
460
0.0
461
0.0
452
        0
462
0.0
453
        0
470

  0
ENDBLK
  5
EF
330
EC
100
AcDbEntity
  8
0
100
AcDbBlockEnd
  0
BLOCK
  5
FB
330
F9
100
AcDbEntity
  8
0
100
AcDbBlockBegin
  2
Block_4
 70
     0
 10
0.0
 20
0.0
 30
0.0
  3
Block_4
  1

  0
INSERT
  5
FE
330
F9
100
AcDbEntity
  8
レイヤー 1
100
AcDbBlockReference
  2
Block_5
 10
0.0
 20
0.0
 30
0.0
  0
ENDBLK
  5
FC
330
F9
100
AcDbEntity
  8
0
100
AcDbBlockEnd
  0
BLOCK
  5
FF
330
FD
100
AcDbEntity
  8
0
100
AcDbBlockBegin
  2
Block_5
 70
     0
 10
0.0
 20
0.0
 30
0.0
  3
Block_5
  1

  0
SPLINE
  5
101
330
FD
100
AcDbEntity
  8
レイヤー 1
100
AcDbSpline
210
0.0
220
0.0
230
1.0
 70
     9
 71
     3
 72
    44
 73
    40
 74
     0
 42
0.0000000001
 43
0.0000000001
 40
0.0
 40
0.0
 40
0.0
 40
0.0
 40
1.0
 40
1.0
 40
1.0
 40
2.0
 40
2.0
 40
2.0
 40
3.0
 40
3.0
 40
3.0
 40
4.0
 40
4.0
 40
4.0
 40
5.0
 40
5.0
 40
5.0
 40
6.0
 40
6.0
 40
6.0
 40
7.0
 40
7.0
 40
7.0
 40
8.0
 40
8.0
 40
8.0
 40
9.0
 40
9.0
 40
9.0
 40
10.0
 40
10.0
 40
10.0
 40
11.0
 40
11.0
 40
11.0
 40
12.0
 40
12.0
 40
12.0
 40
13.0
 40
13.0
 40
13.0
 40
13.0
 10
90.7608683041327
 20
-139.600264450777
 30
0.0
 10
90.54296601469065
 20
-139.7589110978728
 30
0.0
 10
90.44977618181464
 20
-139.8329806508056
 30
0.0
 10
90.40120033547262
 20
-139.9768133873148
 30
0.0
 10
90.40120033547262
 20
-139.9768133873148
 30
0.0
 10
91.17961966036482
 20
-139.9768133873148
 30
0.0
 10
91.17961966036482
 20
-139.9768133873148
 30
0.0
 10
91.17961966036482
 20
-139.9768133873148
 30
0.0
 10
91.17961966036482
 20
-140.1819688234614
 30
0.0
 10
91.17961966036482
 20
-140.1819688234614
 30
0.0
 10
91.17961966036482
 20
-140.1819688234614
 30
0.0
 10
90.15160316756626
 20
-140.1819688234614
 30
0.0
 10
90.15160316756626
 20
-140.1819688234614
 30
0.0
 10
90.18329804603057
 20
-139.8243679120925
 30
0.0
 10
90.24875486025031
 20
-139.7461642445773
 30
0.0
 10
90.63391653550125
 20
-139.4478189755547
 30
0.0
 10
90.88988713005532
 20
-139.2490369660558
 30
0.0
 10
90.95534394427506
 20
-139.1813408397706
 30
0.0
 10
90.95534394427506
 20
-139.0438815299092
 30
0.0
 10
90.95534394427506
 20
-138.9253702452166
 30
0.0
 10
90.8835137034076
 20
-138.7941121072285
 30
0.0
 10
90.68679875119983
 20
-138.7941121072285
 30
0.0
 10
90.4265217872892
 20
-138.7941121072285
 30
0.0
 10
90.41808130335034
 20
-139.024761249966
 30
0.0
 10
90.41377493399378
 20
-139.1412054773675
 30
0.0
 10
90.41377493399378
 20
-139.1412054773675
 30
0.0
 10
90.18967147267828
 20
-139.1412054773675
 30
0.0
 10
90.18967147267828
 20
-139.1412054773675
 30
0.0
 10
90.19811195661715
 20
-139.014253708736
 30
0.0
 10
90.20861949784714
 20
-138.9021158506911
 30
0.0
 10
90.28906247742773
 20
-138.7836045659985
 30
0.0
 10
90.39896102340721
 20
-138.6228908616116
 30
0.0
 10
90.58516843438496
 20
-138.5889566710819
 30
0.0
 10
90.70161266178642
 20
-138.5889566710819
 30
0.0
 10
90.97877059357475
 20
-138.5889566710819
 30
0.0
 10
91.18599308701254
 20
-138.7730970247685
 30
0.0
 10
91.18599308701254
 20
-139.0459485872003
 30
0.0
 10
91.18599308701254
 20
-139.2743584178724
 30
0.0
 10
91.06972111438535
 20
-139.3739216773961
 30
0.0
 10
90.7608683041327
 20
-139.600264450777
 30
0.0
  0
HATCH
  5
102
330
FD
100
AcDbEntity
  8
レイヤー 1
 62
   250
420
  2299925
440
 33554687
100
AcDbHatch
 10
0.0
 20
0.0
 30
0.0
210
0.0
220
0.0
230
1.0
  2
SOLID
 70
     1
 71
     1
 91
        1
 92
        1
 93
        1
 72
     4
 94
        3
 73
     0
 74
     0
 95
       44
 96
       40
 40
0.0
 40
0.0
 40
0.0
 40
0.0
 40
1.0
 40
1.0
 40
1.0
 40
2.0
 40
2.0
 40
2.0
 40
3.0
 40
3.0
 40
3.0
 40
4.0
 40
4.0
 40
4.0
 40
5.0
 40
5.0
 40
5.0
 40
6.0
 40
6.0
 40
6.0
 40
7.0
 40
7.0
 40
7.0
 40
8.0
 40
8.0
 40
8.0
 40
9.0
 40
9.0
 40
9.0
 40
10.0
 40
10.0
 40
10.0
 40
11.0
 40
11.0
 40
11.0
 40
12.0
 40
12.0
 40
12.0
 40
13.0
 40
13.0
 40
13.0
 40
13.0
 10
90.7608683041327
 20
-139.600264450777
 10
90.54296601469065
 20
-139.7589110978728
 10
90.44977618181464
 20
-139.8329806508056
 10
90.40120033547262
 20
-139.9768133873148
 10
90.40120033547262
 20
-139.9768133873148
 10
91.17961966036482
 20
-139.9768133873148
 10
91.17961966036482
 20
-139.9768133873148
 10
91.17961966036482
 20
-139.9768133873148
 10
91.17961966036482
 20
-140.1819688234614
 10
91.17961966036482
 20
-140.1819688234614
 10
91.17961966036482
 20
-140.1819688234614
 10
90.15160316756626
 20
-140.1819688234614
 10
90.15160316756626
 20
-140.1819688234614
 10
90.18329804603057
 20
-139.8243679120925
 10
90.24875486025031
 20
-139.7461642445773
 10
90.63391653550125
 20
-139.4478189755547
 10
90.88988713005532
 20
-139.2490369660558
 10
90.95534394427506
 20
-139.1813408397706
 10
90.95534394427506
 20
-139.0438815299092
 10
90.95534394427506
 20
-138.9253702452166
 10
90.8835137034076
 20
-138.7941121072285
 10
90.68679875119983
 20
-138.7941121072285
 10
90.4265217872892
 20
-138.7941121072285
 10
90.41808130335034
 20
-139.024761249966
 10
90.41377493399378
 20
-139.1412054773675
 10
90.41377493399378
 20
-139.1412054773675
 10
90.18967147267828
 20
-139.1412054773675
 10
90.18967147267828
 20
-139.1412054773675
 10
90.19811195661715
 20
-139.014253708736
 10
90.20861949784714
 20
-138.9021158506911
 10
90.28906247742773
 20
-138.7836045659985
 10
90.39896102340721
 20
-138.6228908616116
 10
90.58516843438496
 20
-138.5889566710819
 10
90.70161266178642
 20
-138.5889566710819
 10
90.97877059357475
 20
-138.5889566710819
 10
91.18599308701254
 20
-138.7730970247685
 10
91.18599308701254
 20
-139.0459485872003
 10
91.18599308701254
 20
-139.2743584178724
 10
91.06972111438535
 20
-139.3739216773961
 10
90.7608683041327
 20
-139.600264450777
 97
        0
 97
        1
330
101
 75
     2
 76
     1
 98
        1
 10
0.0
 20
0.0
450
        0
451
        0
460
0.0
461
0.0
452
        0
462
0.0
453
        0
470

  0
SPLINE
  5
103
330
FD
100
AcDbEntity
  8
レイヤー 1
100
AcDbSpline
210
0.0
220
0.0
230
1.0
 70
    11
 71
     3
 72
    26
 73
    22
 74
     0
 42
0.0000000001
 43
0.0000000001
 40
0.0
 40
0.0
 40
0.0
 40
0.0
 40
1.0
 40
1.0
 40
1.0
 40
2.0
 40
2.0
 40
2.0
 40
3.0
 40
3.0
 40
3.0
 40
4.0
 40
4.0
 40
4.0
 40
5.0
 40
5.0
 40
5.0
 40
6.0
 40
6.0
 40
6.0
 40
7.0
 40
7.0
 40
7.0
 40
7.0
 10
91.79594724267602
 20
-140.1819688234614
 30
0.0
 10
91.79594724267602
 20
-140.1819688234614
 30
0.0
 10
91.79594724267602
 20
-139.0776434656646
 30
0.0
 10
91.79594724267602
 20
-139.0776434656646
 30
0.0
 10
91.79594724267602
 20
-139.0776434656646
 30
0.0
 10
91.46590709518909
 20
-139.0776434656646
 30
0.0
 10
91.46590709518909
 20
-139.0776434656646
 30
0.0
 10
91.46590709518909
 20
-139.0776434656646
 30
0.0
 10
91.46590709518909
 20
-138.9295043597988
 30
0.0
 10
91.46590709518909
 20
-138.9295043597988
 30
0.0
 10
91.79801429996716
 20
-138.9148627039865
 30
0.0
 10
91.84452308901803
 20
-138.7519096875342
 30
0.0
 10
91.87415091019119
 20
-138.6377047721982
 30
0.0
 10
91.87415091019119
 20
-138.6377047721982
 30
0.0
 10
92.02022295876579
 20
-138.6377047721982
 30
0.0
 10
92.02022295876579
 20
-138.6377047721982
 30
0.0
 10
92.02022295876579
 20
-138.6377047721982
 30
0.0
 10
92.02022295876579
 20
-140.1819688234614
 30
0.0
 10
92.02022295876579
 20
-140.1819688234614
 30
0.0
 10
92.02022295876579
 20
-140.1819688234614
 30
0.0
 10
91.79594724267602
 20
-140.1819688234614
 30
0.0
 10
91.79594724267602
 20
-140.1819688234614
 30
0.0
  0
HATCH
  5
104
330
FD
100
AcDbEntity
  8
レイヤー 1
 62
   250
420
  2299925
440
 33554687
100
AcDbHatch
 10
0.0
 20
0.0
 30
0.0
210
0.0
220
0.0
230
1.0
  2
SOLID
 70
     1
 71
     1
 91
        1
 92
        1
 93
        1
 72
     4
 94
        3
 73
     0
 74
     0
 95
       26
 96
       22
 40
0.0
 40
0.0
 40
0.0
 40
0.0
 40
1.0
 40
1.0
 40
1.0
 40
2.0
 40
2.0
 40
2.0
 40
3.0
 40
3.0
 40
3.0
 40
4.0
 40
4.0
 40
4.0
 40
5.0
 40
5.0
 40
5.0
 40
6.0
 40
6.0
 40
6.0
 40
7.0
 40
7.0
 40
7.0
 40
7.0
 10
91.79594724267602
 20
-140.1819688234614
 10
91.79594724267602
 20
-140.1819688234614
 10
91.79594724267602
 20
-139.0776434656646
 10
91.79594724267602
 20
-139.0776434656646
 10
91.79594724267602
 20
-139.0776434656646
 10
91.46590709518909
 20
-139.0776434656646
 10
91.46590709518909
 20
-139.0776434656646
 10
91.46590709518909
 20
-139.0776434656646
 10
91.46590709518909
 20
-138.9295043597988
 10
91.46590709518909
 20
-138.9295043597988
 10
91.79801429996716
 20
-138.9148627039865
 10
91.84452308901803
 20
-138.7519096875342
 10
91.87415091019119
 20
-138.6377047721982
 10
91.87415091019119
 20
-138.6377047721982
 10
92.02022295876579
 20
-138.6377047721982
 10
92.02022295876579
 20
-138.6377047721982
 10
92.02022295876579
 20
-138.6377047721982
 10
92.02022295876579
 20
-140.1819688234614
 10
92.02022295876579
 20
-140.1819688234614
 10
92.02022295876579
 20
-140.1819688234614
 10
91.79594724267602
 20
-140.1819688234614
 10
91.79594724267602
 20
-140.1819688234614
 97
        0
 97
        1
330
103
 75
     2
 76
     1
 98
        1
 10
0.0
 20
0.0
450
        0
451
        0
460
0.0
461
0.0
452
        0
462
0.0
453
        0
470

  0
ENDBLK
  5
100
330
FD
100
AcDbEntity
  8
0
100
AcDbBlockEnd
  0
BLOCK
  5
109
330
107
100
AcDbEntity
  8
0
100
AcDbBlockBegin
  2
Block_6
 70
     0
 10
0.0
 20
0.0
 30
0.0
  3
Block_6
  1

  0
SPLINE
  5
10B
330
107
100
AcDbEntity
  8
レイヤー 1
100
AcDbSpline
210
0.0
220
0.0
230
1.0
 70
     9
 71
     3
 72
    17
 73
    13
 74
     0
 42
0.0000000001
 43
0.0000000001
 40
0.0
 40
0.0
 40
0.0
 40
0.0
 40
1.0
 40
1.0
 40
1.0
 40
2.0
 40
2.0
 40
2.0
 40
3.0
 40
3.0
 40
3.0
 40
4.0
 40
4.0
 40
4.0
 40
4.0
 10
75.37782794339513
 20
-150.1555202532597
 30
0.0
 10
75.37782794339513
 20
-150.2991807349946
 30
0.0
 10
75.46447209484916
 20
-150.4517984649912
 30
0.0
 10
75.66756047370464
 20
-150.4517984649912
 30
0.0
 10
75.87271590985126
 20
-150.4517984649912
 30
0.0
 10
75.97434622666614
 20
-150.3246744415855
 30
0.0
 10
75.97434622666614
 20
-150.1555202532597
 30
0.0
 10
75.97434622666614
 20
-149.9694850970562
 30
0.0
 10
75.85170082739124
 20
-149.8592420415282
 30
0.0
 10
75.67393390035235
 20
-149.8592420415282
 30
0.0
 10
75.45172524155375
 20
-149.8592420415282
 30
0.0
 10
75.37782794339513
 20
-150.0221950579805
 30
0.0
 10
75.37782794339513
 20
-150.1555202532597
 30
0.0
  0
SPLINE
  5
10C
330
107
100
AcDbEntity
  8
レイヤー 1
100
AcDbSpline
210
0.0
220
0.0
230
1.0
 70
     9
 71
     3
 72
    17
 73
    13
 74
     0
 42
0.0000000001
 43
0.0000000001
 40
0.0
 40
0.0
 40
0.0
 40
0.0
 40
1.0
 40
1.0
 40
1.0
 40
2.0
 40
2.0
 40
2.0
 40
3.0
 40
3.0
 40
3.0
 40
4.0
 40
4.0
 40
4.0
 40
4.0
 10
74.71774764842127
 20
-150.1555202532597
 30
0.0
 10
74.71774764842127
 20
-150.3205403270032
 30
0.0
 10
74.81283228381416
 20
-150.4052896759403
 30
0.0
 10
74.94822453638447
 20
-150.4052896759403
 30
0.0
 10
75.07104219043363
 20
-150.4052896759403
 30
0.0
 10
75.18955347512623
 20
-150.3332871802986
 30
0.0
 10
75.18955347512623
 20
-150.1555202532597
 30
0.0
 10
75.18955347512623
 20
-149.9777533262208
 30
0.0
 10
75.07104219043363
 20
-149.9057508305791
 30
0.0
 10
74.94822453638447
 20
-149.9057508305791
 30
0.0
 10
74.81283228381416
 20
-149.9057508305791
 30
0.0
 10
74.71774764842127
 20
-149.9925672368074
 30
0.0
 10
74.71774764842127
 20
-150.1555202532597
 30
0.0
  0
SPLINE
  5
10D
330
107
100
AcDbEntity
  8
レイヤー 1
100
AcDbSpline
210
0.0
220
0.0
230
1.0
 70
     9
 71
     3
 72
    29
 73
    25
 74
     0
 42
0.0000000001
 43
0.0000000001
 40
0.0
 40
0.0
 40
0.0
 40
0.0
 40
1.0
 40
1.0
 40
1.0
 40
2.0
 40
2.0
 40
2.0
 40
3.0
 40
3.0
 40
3.0
 40
4.0
 40
4.0
 40
4.0
 40
5.0
 40
5.0
 40
5.0
 40
6.0
 40
6.0
 40
6.0
 40
7.0
 40
7.0
 40
7.0
 40
8.0
 40
8.0
 40
8.0
 40
8.0
 10
76.16899412158275
 20
-150.1555202532597
 30
0.0
 10
76.16899412158275
 20
-150.4221706438181
 30
0.0
 10
76.03136255694703
 20
-150.676074181081
 30
0.0
 10
75.68237438429122
 20
-150.676074181081
 30
0.0
 10
75.42640378973715
 20
-150.676074181081
 30
0.0
 10
75.33114689957
 20
-150.5341362470887
 30
0.0
 10
75.26982419993254
 20
-150.4283718156915
 30
0.0
 10
75.21056855758626
 20
-150.5530842722575
 30
0.0
 10
75.09636364225023
 20
-150.6292208824816
 30
0.0
 10
74.93564993786332
 20
-150.6292208824816
 30
0.0
 10
74.6605590633661
 20
-150.6292208824816
 30
0.0
 10
74.52516681079579
 20
-150.4304388729827
 30
0.0
 10
74.52516681079579
 20
-150.1555202532597
 30
0.0
 10
74.52516681079579
 20
-149.8719888948237
 30
0.0
 10
74.66899954730497
 20
-149.6814751144893
 30
0.0
 10
74.93564993786332
 20
-149.6814751144893
 30
0.0
 10
75.09636364225023
 20
-149.6814751144893
 30
0.0
 10
75.21056855758626
 20
-149.760023291553
 30
0.0
 10
75.26982419993254
 20
-149.8847357481191
 30
0.0
 10
75.32063935833999
 20
-149.7958522845996
 30
0.0
 10
75.41589624850714
 20
-149.6370333827296
 30
0.0
 10
75.67806801493465
 20
-149.6370333827296
 30
0.0
 10
76.05254989418131
 20
-149.6370333827296
 30
0.0
 10
76.16899412158275
 20
-149.9164306265834
 30
0.0
 10
76.16899412158275
 20
-150.1555202532597
 30
0.0
  0
HATCH
  5
10E
330
107
100
AcDbEntity
  8
レイヤー 1
 62
   250
420
  2299925
440
 33554687
100
AcDbHatch
 10
0.0
 20
0.0
 30
0.0
210
0.0
220
0.0
230
1.0
  2
SOLID
 70
     1
 71
     1
 91
        3
 92
        1
 93
        1
 72
     4
 94
        3
 73
     0
 74
     0
 95
       17
 96
       13
 40
0.0
 40
0.0
 40
0.0
 40
0.0
 40
1.0
 40
1.0
 40
1.0
 40
2.0
 40
2.0
 40
2.0
 40
3.0
 40
3.0
 40
3.0
 40
4.0
 40
4.0
 40
4.0
 40
4.0
 10
75.37782794339513
 20
-150.1555202532597
 10
75.37782794339513
 20
-150.2991807349946
 10
75.46447209484916
 20
-150.4517984649912
 10
75.66756047370464
 20
-150.4517984649912
 10
75.87271590985126
 20
-150.4517984649912
 10
75.97434622666614
 20
-150.3246744415855
 10
75.97434622666614
 20
-150.1555202532597
 10
75.97434622666614
 20
-149.9694850970562
 10
75.85170082739124
 20
-149.8592420415282
 10
75.67393390035235
 20
-149.8592420415282
 10
75.45172524155375
 20
-149.8592420415282
 10
75.37782794339513
 20
-150.0221950579805
 10
75.37782794339513
 20
-150.1555202532597
 97
        0
 97
        1
330
10B
 92
        1
 93
        1
 72
     4
 94
        3
 73
     0
 74
     0
 95
       17
 96
       13
 40
0.0
 40
0.0
 40
0.0
 40
0.0
 40
1.0
 40
1.0
 40
1.0
 40
2.0
 40
2.0
 40
2.0
 40
3.0
 40
3.0
 40
3.0
 40
4.0
 40
4.0
 40
4.0
 40
4.0
 10
74.71774764842127
 20
-150.1555202532597
 10
74.71774764842127
 20
-150.3205403270032
 10
74.81283228381416
 20
-150.4052896759403
 10
74.94822453638447
 20
-150.4052896759403
 10
75.07104219043363
 20
-150.4052896759403
 10
75.18955347512623
 20
-150.3332871802986
 10
75.18955347512623
 20
-150.1555202532597
 10
75.18955347512623
 20
-149.9777533262208
 10
75.07104219043363
 20
-149.9057508305791
 10
74.94822453638447
 20
-149.9057508305791
 10
74.81283228381416
 20
-149.9057508305791
 10
74.71774764842127
 20
-149.9925672368074
 10
74.71774764842127
 20
-150.1555202532597
 97
        0
 97
        1
330
10C
 92
        1
 93
        1
 72
     4
 94
        3
 73
     0
 74
     0
 95
       29
 96
       25
 40
0.0
 40
0.0
 40
0.0
 40
0.0
 40
1.0
 40
1.0
 40
1.0
 40
2.0
 40
2.0
 40
2.0
 40
3.0
 40
3.0
 40
3.0
 40
4.0
 40
4.0
 40
4.0
 40
5.0
 40
5.0
 40
5.0
 40
6.0
 40
6.0
 40
6.0
 40
7.0
 40
7.0
 40
7.0
 40
8.0
 40
8.0
 40
8.0
 40
8.0
 10
76.16899412158275
 20
-150.1555202532597
 10
76.16899412158275
 20
-150.4221706438181
 10
76.03136255694703
 20
-150.676074181081
 10
75.68237438429122
 20
-150.676074181081
 10
75.42640378973715
 20
-150.676074181081
 10
75.33114689957
 20
-150.5341362470887
 10
75.26982419993254
 20
-150.4283718156915
 10
75.21056855758626
 20
-150.5530842722575
 10
75.09636364225023
 20
-150.6292208824816
 10
74.93564993786332
 20
-150.6292208824816
 10
74.6605590633661
 20
-150.6292208824816
 10
74.52516681079579
 20
-150.4304388729827
 10
74.52516681079579
 20
-150.1555202532597
 10
74.52516681079579
 20
-149.8719888948237
 10
74.66899954730497
 20
-149.6814751144893
 10
74.93564993786332
 20
-149.6814751144893
 10
75.09636364225023
 20
-149.6814751144893
 10
75.21056855758626
 20
-149.760023291553
 10
75.26982419993254
 20
-149.8847357481191
 10
75.32063935833999
 20
-149.7958522845996
 10
75.41589624850714
 20
-149.6370333827296
 10
75.67806801493465
 20
-149.6370333827296
 10
76.05254989418131
 20
-149.6370333827296
 10
76.16899412158275
 20
-149.9164306265834
 10
76.16899412158275
 20
-150.1555202532597
 97
        0
 97
        1
330
10D
 75
     2
 76
     1
 98
        1
 10
0.0
 20
0.0
450
        0
451
        0
460
0.0
461
0.0
452
        0
462
0.0
453
        0
470

  0
ENDBLK
  5
10A
330
107
100
AcDbEntity
  8
0
100
AcDbBlockEnd
  0
BLOCK
  5
113
330
111
100
AcDbEntity
  8
0
100
AcDbBlockBegin
  2
Block_7
 70
     0
 10
0.0
 20
0.0
 30
0.0
  3
Block_7
  1

  0
INSERT
  5
116
330
111
100
AcDbEntity
  8
レイヤー 1
100
AcDbBlockReference
  2
Block_8
 10
0.0
 20
0.0
 30
0.0
  0
ENDBLK
  5
114
330
111
100
AcDbEntity
  8
0
100
AcDbBlockEnd
  0
BLOCK
  5
117
330
115
100
AcDbEntity
  8
0
100
AcDbBlockBegin
  2
Block_8
 70
     0
 10
0.0
 20
0.0
 30
0.0
  3
Block_8
  1

  0
SPLINE
  5
119
330
115
100
AcDbEntity
  8
レイヤー 1
100
AcDbSpline
210
0.0
220
0.0
230
1.0
 70
     9
 71
     3
 72
    44
 73
    40
 74
     0
 42
0.0000000001
 43
0.0000000001
 40
0.0
 40
0.0
 40
0.0
 40
0.0
 40
1.0
 40
1.0
 40
1.0
 40
2.0
 40
2.0
 40
2.0
 40
3.0
 40
3.0
 40
3.0
 40
4.0
 40
4.0
 40
4.0
 40
5.0
 40
5.0
 40
5.0
 40
6.0
 40
6.0
 40
6.0
 40
7.0
 40
7.0
 40
7.0
 40
8.0
 40
8.0
 40
8.0
 40
9.0
 40
9.0
 40
9.0
 40
10.0
 40
10.0
 40
10.0
 40
11.0
 40
11.0
 40
11.0
 40
12.0
 40
12.0
 40
12.0
 40
13.0
 40
13.0
 40
13.0
 40
13.0
 10
117.7623209341011
 20
-139.600264450777
 30
0.0
 10
117.5445908994333
 20
-139.7589110978728
 30
0.0
 10
117.4515733213315
 20
-139.8329806508056
 30
0.0
 10
117.402652965441
 20
-139.9768133873148
 30
0.0
 10
117.402652965441
 20
-139.9768133873148
 30
0.0
 10
118.1812445451074
 20
-139.9768133873148
 30
0.0
 10
118.1812445451074
 20
-139.9768133873148
 30
0.0
 10
118.1812445451074
 20
-139.9768133873148
 30
0.0
 10
118.1812445451074
 20
-140.1819688234614
 30
0.0
 10
118.1812445451074
 20
-140.1819688234614
 30
0.0
 10
118.1812445451074
 20
-140.1819688234614
 30
0.0
 10
117.1532280523089
 20
-140.1819688234614
 30
0.0
 10
117.1532280523089
 20
-140.1819688234614
 30
0.0
 10
117.1849229307732
 20
-139.8243679120925
 30
0.0
 10
117.2503797449929
 20
-139.7461642445773
 30
0.0
 10
117.6355414202439
 20
-139.4478189755547
 30
0.0
 10
117.8915120147979
 20
-139.2490369660558
 30
0.0
 10
117.9569688290177
 20
-139.1813408397706
 30
0.0
 10
117.9569688290177
 20
-139.0438815299092
 30
0.0
 10
117.9569688290177
 20
-138.9253702452166
 30
0.0
 10
117.884966333376
 20
-138.7941121072285
 30
0.0
 10
117.6882513811682
 20
-138.7941121072285
 30
0.0
 10
117.4281466720318
 20
-138.7941121072285
 30
0.0
 10
117.4198784428672
 20
-139.024761249966
 30
0.0
 10
117.4153998187364
 20
-139.1412054773675
 30
0.0
 10
117.4153998187364
 20
-139.1412054773675
 30
0.0
 10
117.1911241026466
 20
-139.1412054773675
 30
0.0
 10
117.1911241026466
 20
-139.1412054773675
 30
0.0
 10
117.1997368413598
 20
-139.014253708736
 30
0.0
 10
117.210416637364
 20
-138.9021158506911
 30
0.0
 10
117.2906873621704
 20
-138.7836045659985
 30
0.0
 10
117.4005859081498
 20
-138.6228908616116
 30
0.0
 10
117.5869655739019
 20
-138.5889566710819
 30
0.0
 10
117.7030652917548
 20
-138.5889566710819
 30
0.0
 10
117.9803954783174
 20
-138.5889566710819
 30
0.0
 10
118.1877902265294
 20
-138.7730970247685
 30
0.0
 10
118.1877902265294
 20
-139.0459485872003
 30
0.0
 10
118.1877902265294
 20
-139.2743584178724
 30
0.0
 10
118.071345999128
 20
-139.3739216773961
 30
0.0
 10
117.7623209341011
 20
-139.600264450777
 30
0.0
  0
HATCH
  5
11A
330
115
100
AcDbEntity
  8
レイヤー 1
 62
   250
420
  2299925
440
 33554687
100
AcDbHatch
 10
0.0
 20
0.0
 30
0.0
210
0.0
220
0.0
230
1.0
  2
SOLID
 70
     1
 71
     1
 91
        1
 92
        1
 93
        1
 72
     4
 94
        3
 73
     0
 74
     0
 95
       44
 96
       40
 40
0.0
 40
0.0
 40
0.0
 40
0.0
 40
1.0
 40
1.0
 40
1.0
 40
2.0
 40
2.0
 40
2.0
 40
3.0
 40
3.0
 40
3.0
 40
4.0
 40
4.0
 40
4.0
 40
5.0
 40
5.0
 40
5.0
 40
6.0
 40
6.0
 40
6.0
 40
7.0
 40
7.0
 40
7.0
 40
8.0
 40
8.0
 40
8.0
 40
9.0
 40
9.0
 40
9.0
 40
10.0
 40
10.0
 40
10.0
 40
11.0
 40
11.0
 40
11.0
 40
12.0
 40
12.0
 40
12.0
 40
13.0
 40
13.0
 40
13.0
 40
13.0
 10
117.7623209341011
 20
-139.600264450777
 10
117.5445908994333
 20
-139.7589110978728
 10
117.4515733213315
 20
-139.8329806508056
 10
117.402652965441
 20
-139.9768133873148
 10
117.402652965441
 20
-139.9768133873148
 10
118.1812445451074
 20
-139.9768133873148
 10
118.1812445451074
 20
-139.9768133873148
 10
118.1812445451074
 20
-139.9768133873148
 10
118.1812445451074
 20
-140.1819688234614
 10
118.1812445451074
 20
-140.1819688234614
 10
118.1812445451074
 20
-140.1819688234614
 10
117.1532280523089
 20
-140.1819688234614
 10
117.1532280523089
 20
-140.1819688234614
 10
117.1849229307732
 20
-139.8243679120925
 10
117.2503797449929
 20
-139.7461642445773
 10
117.6355414202439
 20
-139.4478189755547
 10
117.8915120147979
 20
-139.2490369660558
 10
117.9569688290177
 20
-139.1813408397706
 10
117.9569688290177
 20
-139.0438815299092
 10
117.9569688290177
 20
-138.9253702452166
 10
117.884966333376
 20
-138.7941121072285
 10
117.6882513811682
 20
-138.7941121072285
 10
117.4281466720318
 20
-138.7941121072285
 10
117.4198784428672
 20
-139.024761249966
 10
117.4153998187364
 20
-139.1412054773675
 10
117.4153998187364
 20
-139.1412054773675
 10
117.1911241026466
 20
-139.1412054773675
 10
117.1911241026466
 20
-139.1412054773675
 10
117.1997368413598
 20
-139.014253708736
 10
117.210416637364
 20
-138.9021158506911
 10
117.2906873621704
 20
-138.7836045659985
 10
117.4005859081498
 20
-138.6228908616116
 10
117.5869655739019
 20
-138.5889566710819
 10
117.7030652917548
 20
-138.5889566710819
 10
117.9803954783174
 20
-138.5889566710819
 10
118.1877902265294
 20
-138.7730970247685
 10
118.1877902265294
 20
-139.0459485872003
 10
118.1877902265294
 20
-139.2743584178724
 10
118.071345999128
 20
-139.3739216773961
 10
117.7623209341011
 20
-139.600264450777
 97
        0
 97
        1
330
119
 75
     2
 76
     1
 98
        1
 10
0.0
 20
0.0
450
        0
451
        0
460
0.0
461
0.0
452
        0
462
0.0
453
        0
470

  0
SPLINE
  5
11B
330
115
100
AcDbEntity
  8
レイヤー 1
100
AcDbSpline
210
0.0
220
0.0
230
1.0
 70
    11
 71
     3
 72
    26
 73
    22
 74
     0
 42
0.0000000001
 43
0.0000000001
 40
0.0
 40
0.0
 40
0.0
 40
0.0
 40
1.0
 40
1.0
 40
1.0
 40
2.0
 40
2.0
 40
2.0
 40
3.0
 40
3.0
 40
3.0
 40
4.0
 40
4.0
 40
4.0
 40
5.0
 40
5.0
 40
5.0
 40
6.0
 40
6.0
 40
6.0
 40
7.0
 40
7.0
 40
7.0
 40
7.0
 10
118.7975721274186
 20
-140.1819688234614
 30
0.0
 10
118.7975721274186
 20
-140.1819688234614
 30
0.0
 10
118.7975721274186
 20
-139.0776434656646
 30
0.0
 10
118.7975721274186
 20
-139.0776434656646
 30
0.0
 10
118.7975721274186
 20
-139.0776434656646
 30
0.0
 10
118.4675319799317
 20
-139.0776434656646
 30
0.0
 10
118.4675319799317
 20
-139.0776434656646
 30
0.0
 10
118.4675319799317
 20
-139.0776434656646
 30
0.0
 10
118.4675319799317
 20
-138.9295043597988
 30
0.0
 10
118.4675319799317
 20
-138.9295043597988
 30
0.0
 10
118.7996391847098
 20
-138.9148627039865
 30
0.0
 10
118.8461479737607
 20
-138.7519096875342
 30
0.0
 10
118.8757757949338
 20
-138.6377047721982
 30
0.0
 10
118.8757757949338
 20
-138.6377047721982
 30
0.0
 10
119.0218478435084
 20
-138.6377047721982
 30
0.0
 10
119.0218478435084
 20
-138.6377047721982
 30
0.0
 10
119.0218478435084
 20
-138.6377047721982
 30
0.0
 10
119.0218478435084
 20
-140.1819688234614
 30
0.0
 10
119.0218478435084
 20
-140.1819688234614
 30
0.0
 10
119.0218478435084
 20
-140.1819688234614
 30
0.0
 10
118.7975721274186
 20
-140.1819688234614
 30
0.0
 10
118.7975721274186
 20
-140.1819688234614
 30
0.0
  0
HATCH
  5
11C
330
115
100
AcDbEntity
  8
レイヤー 1
 62
   250
420
  2299925
440
 33554687
100
AcDbHatch
 10
0.0
 20
0.0
 30
0.0
210
0.0
220
0.0
230
1.0
  2
SOLID
 70
     1
 71
     1
 91
        1
 92
        1
 93
        1
 72
     4
 94
        3
 73
     0
 74
     0
 95
       26
 96
       22
 40
0.0
 40
0.0
 40
0.0
 40
0.0
 40
1.0
 40
1.0
 40
1.0
 40
2.0
 40
2.0
 40
2.0
 40
3.0
 40
3.0
 40
3.0
 40
4.0
 40
4.0
 40
4.0
 40
5.0
 40
5.0
 40
5.0
 40
6.0
 40
6.0
 40
6.0
 40
7.0
 40
7.0
 40
7.0
 40
7.0
 10
118.7975721274186
 20
-140.1819688234614
 10
118.7975721274186
 20
-140.1819688234614
 10
118.7975721274186
 20
-139.0776434656646
 10
118.7975721274186
 20
-139.0776434656646
 10
118.7975721274186
 20
-139.0776434656646
 10
118.4675319799317
 20
-139.0776434656646
 10
118.4675319799317
 20
-139.0776434656646
 10
118.4675319799317
 20
-139.0776434656646
 10
118.4675319799317
 20
-138.9295043597988
 10
118.4675319799317
 20
-138.9295043597988
 10
118.7996391847098
 20
-138.9148627039865
 10
118.8461479737607
 20
-138.7519096875342
 10
118.8757757949338
 20
-138.6377047721982
 10
118.8757757949338
 20
-138.6377047721982
 10
119.0218478435084
 20
-138.6377047721982
 10
119.0218478435084
 20
-138.6377047721982
 10
119.0218478435084
 20
-138.6377047721982
 10
119.0218478435084
 20
-140.1819688234614
 10
119.0218478435084
 20
-140.1819688234614
 10
119.0218478435084
 20
-140.1819688234614
 10
118.7975721274186
 20
-140.1819688234614
 10
118.7975721274186
 20
-140.1819688234614
 97
        0
 97
        1
330
11B
 75
     2
 76
     1
 98
        1
 10
0.0
 20
0.0
450
        0
451
        0
460
0.0
461
0.0
452
        0
462
0.0
453
        0
470

  0
ENDBLK
  5
118
330
115
100
AcDbEntity
  8
0
100
AcDbBlockEnd
  0
BLOCK
  5
122
330
120
100
AcDbEntity
  8
0
100
AcDbBlockBegin
  2
Block_9
 70
     0
 10
0.0
 20
0.0
 30
0.0
  3
Block_9
  1

  0
SPLINE
  5
124
330
120
100
AcDbEntity
  8
レイヤー 1
100
AcDbSpline
210
0.0
220
0.0
230
1.0
 70
     9
 71
     3
 72
    17
 73
    13
 74
     0
 42
0.0000000001
 43
0.0000000001
 40
0.0
 40
0.0
 40
0.0
 40
0.0
 40
1.0
 40
1.0
 40
1.0
 40
2.0
 40
2.0
 40
2.0
 40
3.0
 40
3.0
 40
3.0
 40
4.0
 40
4.0
 40
4.0
 40
4.0
 10
104.8564764820324
 20
-139.3737494226218
 30
0.0
 10
104.5941324608306
 20
-139.3737494226218
 30
0.0
 10
104.5560641557186
 20
-139.5852782854162
 30
0.0
 10
104.5560641557186
 20
-139.7015502580433
 30
0.0
 10
104.5560641557186
 20
-139.8770778730168
 30
0.0
 10
104.6513210458858
 20
-140.0400308894691
 30
0.0
 10
104.8352891447981
 20
-140.0400308894691
 30
0.0
 10
104.9558674867818
 20
-140.0400308894691
 30
0.0
 10
105.1315673565296
 20
-139.9807752471228
 30
0.0
 10
105.1315673565296
 20
-139.6951768313956
 30
0.0
 10
105.1315673565296
 20
-139.4709011153059
 30
0.0
 10
104.9918687346027
 20
-139.3737494226218
 30
0.0
 10
104.8564764820324
 20
-139.3737494226218
 30
0.0
  0
SPLINE
  5
125
330
120
100
AcDbEntity
  8
レイヤー 1
100
AcDbSpline
210
0.0
220
0.0
230
1.0
 70
     9
 71
     3
 72
    32
 73
    28
 74
     0
 42
0.0000000001
 43
0.0000000001
 40
0.0
 40
0.0
 40
0.0
 40
0.0
 40
1.0
 40
1.0
 40
1.0
 40
2.0
 40
2.0
 40
2.0
 40
3.0
 40
3.0
 40
3.0
 40
4.0
 40
4.0
 40
4.0
 40
5.0
 40
5.0
 40
5.0
 40
6.0
 40
6.0
 40
6.0
 40
7.0
 40
7.0
 40
7.0
 40
8.0
 40
8.0
 40
8.0
 40
9.0
 40
9.0
 40
9.0
 40
9.0
 10
104.8395955141547
 20
-140.2326117270946
 30
0.0
 10
104.32334795569
 20
-140.2326117270946
 30
0.0
 10
104.3149074717511
 20
-139.6782958635179
 30
0.0
 10
104.3149074717511
 20
-139.4646999434324
 30
0.0
 10
104.3149074717511
 20
-139.2340508006949
 30
0.0
 10
104.3340277516943
 20
-138.5867173590165
 30
0.0
 10
104.8776638192667
 20
-138.5867173590165
 30
0.0
 10
105.051124376949
 20
-138.5867173590165
 30
0.0
 10
105.2965874302731
 20
-138.6564805425928
 30
0.0
 10
105.3346557353851
 20
-138.9885877473709
 30
0.0
 10
105.3346557353851
 20
-138.9885877473709
 30
0.0
 10
105.1208875605253
 20
-138.9885877473709
 30
0.0
 10
105.1208875605253
 20
-138.9885877473709
 30
0.0
 10
105.1103800192953
 20
-138.93157141709
 30
0.0
 10
105.078685140831
 20
-138.7834323112243
 30
0.0
 10
104.8755967619755
 20
-138.7834323112243
 30
0.0
 10
104.5836249196006
 20
-138.7834323112243
 30
0.0
 10
104.5433173024232
 20
-139.11140540142
 30
0.0
 10
104.530742703902
 20
-139.3165608375667
 30
0.0
 10
104.6237602820038
 20
-139.2383571700515
 30
0.0
 10
104.6914564082889
 20
-139.1791015277052
 30
0.0
 10
104.8733574499101
 20
-139.1791015277052
 30
0.0
 10
105.0531914342401
 20
-139.1791015277052
 30
0.0
 10
105.3556708178451
 20
-139.2869330163935
 30
0.0
 10
105.3556708178451
 20
-139.6931097741045
 30
0.0
 10
105.3556708178451
 20
-140.0124701255871
 30
0.0
 10
105.1568888083462
 20
-140.2326117270946
 30
0.0
 10
104.8395955141547
 20
-140.2326117270946
 30
0.0
  0
HATCH
  5
126
330
120
100
AcDbEntity
  8
レイヤー 1
 62
   250
420
  2299925
440
 33554687
100
AcDbHatch
 10
0.0
 20
0.0
 30
0.0
210
0.0
220
0.0
230
1.0
  2
SOLID
 70
     1
 71
     1
 91
        2
 92
        1
 93
        1
 72
     4
 94
        3
 73
     0
 74
     0
 95
       17
 96
       13
 40
0.0
 40
0.0
 40
0.0
 40
0.0
 40
1.0
 40
1.0
 40
1.0
 40
2.0
 40
2.0
 40
2.0
 40
3.0
 40
3.0
 40
3.0
 40
4.0
 40
4.0
 40
4.0
 40
4.0
 10
104.8564764820324
 20
-139.3737494226218
 10
104.5941324608306
 20
-139.3737494226218
 10
104.5560641557186
 20
-139.5852782854162
 10
104.5560641557186
 20
-139.7015502580433
 10
104.5560641557186
 20
-139.8770778730168
 10
104.6513210458858
 20
-140.0400308894691
 10
104.8352891447981
 20
-140.0400308894691
 10
104.9558674867818
 20
-140.0400308894691
 10
105.1315673565296
 20
-139.9807752471228
 10
105.1315673565296
 20
-139.6951768313956
 10
105.1315673565296
 20
-139.4709011153059
 10
104.9918687346027
 20
-139.3737494226218
 10
104.8564764820324
 20
-139.3737494226218
 97
        0
 97
        1
330
124
 92
        1
 93
        1
 72
     4
 94
        3
 73
     0
 74
     0
 95
       32
 96
       28
 40
0.0
 40
0.0
 40
0.0
 40
0.0
 40
1.0
 40
1.0
 40
1.0
 40
2.0
 40
2.0
 40
2.0
 40
3.0
 40
3.0
 40
3.0
 40
4.0
 40
4.0
 40
4.0
 40
5.0
 40
5.0
 40
5.0
 40
6.0
 40
6.0
 40
6.0
 40
7.0
 40
7.0
 40
7.0
 40
8.0
 40
8.0
 40
8.0
 40
9.0
 40
9.0
 40
9.0
 40
9.0
 10
104.8395955141547
 20
-140.2326117270946
 10
104.32334795569
 20
-140.2326117270946
 10
104.3149074717511
 20
-139.6782958635179
 10
104.3149074717511
 20
-139.4646999434324
 10
104.3149074717511
 20
-139.2340508006949
 10
104.3340277516943
 20
-138.5867173590165
 10
104.8776638192667
 20
-138.5867173590165
 10
105.051124376949
 20
-138.5867173590165
 10
105.2965874302731
 20
-138.6564805425928
 10
105.3346557353851
 20
-138.9885877473709
 10
105.3346557353851
 20
-138.9885877473709
 10
105.1208875605253
 20
-138.9885877473709
 10
105.1208875605253
 20
-138.9885877473709
 10
105.1103800192953
 20
-138.93157141709
 10
105.078685140831
 20
-138.7834323112243
 10
104.8755967619755
 20
-138.7834323112243
 10
104.5836249196006
 20
-138.7834323112243
 10
104.5433173024232
 20
-139.11140540142
 10
104.530742703902
 20
-139.3165608375667
 10
104.6237602820038
 20
-139.2383571700515
 10
104.6914564082889
 20
-139.1791015277052
 10
104.8733574499101
 20
-139.1791015277052
 10
105.0531914342401
 20
-139.1791015277052
 10
105.3556708178451
 20
-139.2869330163935
 10
105.3556708178451
 20
-139.6931097741045
 10
105.3556708178451
 20
-140.0124701255871
 10
105.1568888083462
 20
-140.2326117270946
 10
104.8395955141547
 20
-140.2326117270946
 97
        0
 97
        1
330
125
 75
     2
 76
     1
 98
        1
 10
0.0
 20
0.0
450
        0
451
        0
460
0.0
461
0.0
452
        0
462
0.0
453
        0
470

  0
ENDBLK
  5
123
330
120
100
AcDbEntity
  8
0
100
AcDbBlockEnd
  0
BLOCK
  5
12E
330
12C
100
AcDbEntity
  8
0
100
AcDbBlockBegin
  2
Block_10
 70
     0
 10
0.0
 20
0.0
 30
0.0
  3
Block_10
  1

  0
SPLINE
  5
130
330
12C
100
AcDbEntity
  8
レイヤー 1
100
AcDbSpline
210
0.0
220
0.0
230
1.0
 70
     9
 71
     3
 72
    17
 73
    13
 74
     0
 42
0.0000000001
 43
0.0000000001
 40
0.0
 40
0.0
 40
0.0
 40
0.0
 40
1.0
 40
1.0
 40
1.0
 40
2.0
 40
2.0
 40
2.0
 40
3.0
 40
3.0
 40
3.0
 40
4.0
 40
4.0
 40
4.0
 40
4.0
 10
104.6382296830418
 20
-156.1572210981134
 30
0.0
 10
104.4732096092983
 20
-156.1572210981134
 30
0.0
 10
104.3884602603612
 20
-156.2523057335063
 30
0.0
 10
104.3884602603612
 20
-156.3876979860767
 30
0.0
 10
104.3884602603612
 20
-156.5103433853515
 30
0.0
 10
104.4604627560029
 20
-156.6288546700441
 30
0.0
 10
104.6382296830418
 20
-156.6288546700441
 30
0.0
 10
104.8159966100807
 20
-156.6288546700441
 30
0.0
 10
104.8879991057224
 20
-156.5103433853515
 30
0.0
 10
104.8879991057224
 20
-156.3876979860767
 30
0.0
 10
104.8879991057224
 20
-156.2523057335063
 30
0.0
 10
104.8011826994941
 20
-156.1572210981134
 30
0.0
 10
104.6382296830418
 20
-156.1572210981134
 30
0.0
  0
SPLINE
  5
131
330
12C
100
AcDbEntity
  8
レイヤー 1
100
AcDbSpline
210
0.0
220
0.0
230
1.0
 70
     9
 71
     3
 72
    17
 73
    13
 74
     0
 42
0.0000000001
 43
0.0000000001
 40
0.0
 40
0.0
 40
0.0
 40
0.0
 40
1.0
 40
1.0
 40
1.0
 40
2.0
 40
2.0
 40
2.0
 40
3.0
 40
3.0
 40
3.0
 40
4.0
 40
4.0
 40
4.0
 40
4.0
 10
104.6382296830418
 20
-156.8173013930873
 30
0.0
 10
104.4945692013069
 20
-156.8173013930873
 30
0.0
 10
104.3419514713103
 20
-156.9041177993156
 30
0.0
 10
104.3419514713103
 20
-157.1070339233968
 30
0.0
 10
104.3419514713103
 20
-157.3123616143177
 30
0.0
 10
104.469075494716
 20
-157.4136474215841
 30
0.0
 10
104.6382296830418
 20
-157.4136474215841
 30
0.0
 10
104.8242648392453
 20
-157.4136474215841
 30
0.0
 10
104.9345078947733
 20
-157.2910020223092
 30
0.0
 10
104.9345078947733
 20
-157.1132350952703
 30
0.0
 10
104.9345078947733
 20
-156.8913709460202
 30
0.0
 10
104.771554878321
 20
-156.8173013930873
 30
0.0
 10
104.6382296830418
 20
-156.8173013930873
 30
0.0
  0
SPLINE
  5
132
330
12C
100
AcDbEntity
  8
レイヤー 1
100
AcDbSpline
210
0.0
220
0.0
230
1.0
 70
     9
 71
     3
 72
    29
 73
    25
 74
     0
 42
0.0000000001
 43
0.0000000001
 40
0.0
 40
0.0
 40
0.0
 40
0.0
 40
1.0
 40
1.0
 40
1.0
 40
2.0
 40
2.0
 40
2.0
 40
3.0
 40
3.0
 40
3.0
 40
4.0
 40
4.0
 40
4.0
 40
5.0
 40
5.0
 40
5.0
 40
6.0
 40
6.0
 40
6.0
 40
7.0
 40
7.0
 40
7.0
 40
8.0
 40
8.0
 40
8.0
 40
8.0
 10
104.6382296830418
 20
-157.6082953165007
 30
0.0
 10
104.3715792924835
 20
-157.6082953165007
 30
0.0
 10
104.1176757552206
 20
-157.4708360066392
 30
0.0
 10
104.1176757552206
 20
-157.1218478339834
 30
0.0
 10
104.1176757552206
 20
-156.8658772394293
 30
0.0
 10
104.2596136892129
 20
-156.7707926040364
 30
0.0
 10
104.36537812061
 20
-156.709469904399
 30
0.0
 10
104.240665664044
 20
-156.6502142620527
 30
0.0
 10
104.16452905382
 20
-156.5358370919424
 30
0.0
 10
104.16452905382
 20
-156.3749511327812
 30
0.0
 10
104.16452905382
 20
-156.1000325130583
 30
0.0
 10
104.3633110633189
 20
-155.964640260488
 30
0.0
 10
104.6382296830418
 20
-155.964640260488
 30
0.0
 10
104.9217610414779
 20
-155.964640260488
 30
0.0
 10
105.1122748218122
 20
-156.1086452517714
 30
0.0
 10
105.1122748218122
 20
-156.3749511327812
 30
0.0
 10
105.1122748218122
 20
-156.5358370919424
 30
0.0
 10
105.0337266447485
 20
-156.6502142620527
 30
0.0
 10
104.9090141881824
 20
-156.709469904399
 30
0.0
 10
104.9978976517019
 20
-156.7601128080322
 30
0.0
 10
105.1567165535719
 20
-156.8551974434251
 30
0.0
 10
105.1567165535719
 20
-157.1177137194011
 30
0.0
 10
105.1567165535719
 20
-157.4921955986478
 30
0.0
 10
104.8773193097181
 20
-157.6082953165007
 30
0.0
 10
104.6382296830418
 20
-157.6082953165007
 30
0.0
  0
HATCH
  5
133
330
12C
100
AcDbEntity
  8
レイヤー 1
 62
   250
420
  2299925
440
 33554687
100
AcDbHatch
 10
0.0
 20
0.0
 30
0.0
210
0.0
220
0.0
230
1.0
  2
SOLID
 70
     1
 71
     1
 91
        3
 92
        1
 93
        1
 72
     4
 94
        3
 73
     0
 74
     0
 95
       17
 96
       13
 40
0.0
 40
0.0
 40
0.0
 40
0.0
 40
1.0
 40
1.0
 40
1.0
 40
2.0
 40
2.0
 40
2.0
 40
3.0
 40
3.0
 40
3.0
 40
4.0
 40
4.0
 40
4.0
 40
4.0
 10
104.6382296830418
 20
-156.1572210981134
 10
104.4732096092983
 20
-156.1572210981134
 10
104.3884602603612
 20
-156.2523057335063
 10
104.3884602603612
 20
-156.3876979860767
 10
104.3884602603612
 20
-156.5103433853515
 10
104.4604627560029
 20
-156.6288546700441
 10
104.6382296830418
 20
-156.6288546700441
 10
104.8159966100807
 20
-156.6288546700441
 10
104.8879991057224
 20
-156.5103433853515
 10
104.8879991057224
 20
-156.3876979860767
 10
104.8879991057224
 20
-156.2523057335063
 10
104.8011826994941
 20
-156.1572210981134
 10
104.6382296830418
 20
-156.1572210981134
 97
        0
 97
        1
330
130
 92
        1
 93
        1
 72
     4
 94
        3
 73
     0
 74
     0
 95
       17
 96
       13
 40
0.0
 40
0.0
 40
0.0
 40
0.0
 40
1.0
 40
1.0
 40
1.0
 40
2.0
 40
2.0
 40
2.0
 40
3.0
 40
3.0
 40
3.0
 40
4.0
 40
4.0
 40
4.0
 40
4.0
 10
104.6382296830418
 20
-156.8173013930873
 10
104.4945692013069
 20
-156.8173013930873
 10
104.3419514713103
 20
-156.9041177993156
 10
104.3419514713103
 20
-157.1070339233968
 10
104.3419514713103
 20
-157.3123616143177
 10
104.469075494716
 20
-157.4136474215841
 10
104.6382296830418
 20
-157.4136474215841
 10
104.8242648392453
 20
-157.4136474215841
 10
104.9345078947733
 20
-157.2910020223092
 10
104.9345078947733
 20
-157.1132350952703
 10
104.9345078947733
 20
-156.8913709460202
 10
104.771554878321
 20
-156.8173013930873
 10
104.6382296830418
 20
-156.8173013930873
 97
        0
 97
        1
330
131
 92
        1
 93
        1
 72
     4
 94
        3
 73
     0
 74
     0
 95
       29
 96
       25
 40
0.0
 40
0.0
 40
0.0
 40
0.0
 40
1.0
 40
1.0
 40
1.0
 40
2.0
 40
2.0
 40
2.0
 40
3.0
 40
3.0
 40
3.0
 40
4.0
 40
4.0
 40
4.0
 40
5.0
 40
5.0
 40
5.0
 40
6.0
 40
6.0
 40
6.0
 40
7.0
 40
7.0
 40
7.0
 40
8.0
 40
8.0
 40
8.0
 40
8.0
 10
104.6382296830418
 20
-157.6082953165007
 10
104.3715792924835
 20
-157.6082953165007
 10
104.1176757552206
 20
-157.4708360066392
 10
104.1176757552206
 20
-157.1218478339834
 10
104.1176757552206
 20
-156.8658772394293
 10
104.2596136892129
 20
-156.7707926040364
 10
104.36537812061
 20
-156.709469904399
 10
104.240665664044
 20
-156.6502142620527
 10
104.16452905382
 20
-156.5358370919424
 10
104.16452905382
 20
-156.3749511327812
 10
104.16452905382
 20
-156.1000325130583
 10
104.3633110633189
 20
-155.964640260488
 10
104.6382296830418
 20
-155.964640260488
 10
104.9217610414779
 20
-155.964640260488
 10
105.1122748218122
 20
-156.1086452517714
 10
105.1122748218122
 20
-156.3749511327812
 10
105.1122748218122
 20
-156.5358370919424
 10
105.0337266447485
 20
-156.6502142620527
 10
104.9090141881824
 20
-156.709469904399
 10
104.9978976517019
 20
-156.7601128080322
 10
105.1567165535719
 20
-156.8551974434251
 10
105.1567165535719
 20
-157.1177137194011
 10
105.1567165535719
 20
-157.4921955986478
 10
104.8773193097181
 20
-157.6082953165007
 10
104.6382296830418
 20
-157.6082953165007
 97
        0
 97
        1
330
132
 75
     2
 76
     1
 98
        1
 10
0.0
 20
0.0
450
        0
451
        0
460
0.0
461
0.0
452
        0
462
0.0
453
        0
470

  0
ENDBLK
  5
12F
330
12C
100
AcDbEntity
  8
0
100
AcDbBlockEnd
  0
BLOCK
  5
137
330
135
100
AcDbEntity
  8
0
100
AcDbBlockBegin
  2
Block_11
 70
     0
 10
0.0
 20
0.0
 30
0.0
  3
Block_11
  1

  0
SPLINE
  5
139
330
135
100
AcDbEntity
  8
レイヤー 1
100
AcDbSpline
210
0.0
220
0.0
230
1.0
 70
    11
 71
     3
 72
    26
 73
    22
 74
     0
 42
0.0000000001
 43
0.0000000001
 40
0.0
 40
0.0
 40
0.0
 40
0.0
 40
1.0
 40
1.0
 40
1.0
 40
2.0
 40
2.0
 40
2.0
 40
3.0
 40
3.0
 40
3.0
 40
4.0
 40
4.0
 40
4.0
 40
5.0
 40
5.0
 40
5.0
 40
6.0
 40
6.0
 40
6.0
 40
7.0
 40
7.0
 40
7.0
 40
7.0
 10
110.7346706537399
 20
-149.5347140468177
 30
0.0
 10
110.7346706537399
 20
-149.5347140468177
 30
0.0
 10
110.7346706537399
 20
-148.4303886890208
 30
0.0
 10
110.7346706537399
 20
-148.4303886890208
 30
0.0
 10
110.7346706537399
 20
-148.4303886890208
 30
0.0
 10
110.404630506253
 20
-148.4303886890208
 30
0.0
 10
110.404630506253
 20
-148.4303886890208
 30
0.0
 10
110.404630506253
 20
-148.4303886890208
 30
0.0
 10
110.404630506253
 20
-148.2822495831551
 30
0.0
 10
110.404630506253
 20
-148.2822495831551
 30
0.0
 10
110.7367377110311
 20
-148.2676079273428
 30
0.0
 10
110.7832465000819
 20
-148.1046549108905
 30
0.0
 10
110.8128743212551
 20
-147.9904499955545
 30
0.0
 10
110.8128743212551
 20
-147.9904499955545
 30
0.0
 10
110.9589463698297
 20
-147.9904499955545
 30
0.0
 10
110.9589463698297
 20
-147.9904499955545
 30
0.0
 10
110.9589463698297
 20
-147.9904499955545
 30
0.0
 10
110.9589463698297
 20
-149.5347140468177
 30
0.0
 10
110.9589463698297
 20
-149.5347140468177
 30
0.0
 10
110.9589463698297
 20
-149.5347140468177
 30
0.0
 10
110.7346706537399
 20
-149.5347140468177
 30
0.0
 10
110.7346706537399
 20
-149.5347140468177
 30
0.0
  0
HATCH
  5
13A
330
135
100
AcDbEntity
  8
レイヤー 1
 62
   250
420
  2299925
440
 33554687
100
AcDbHatch
 10
0.0
 20
0.0
 30
0.0
210
0.0
220
0.0
230
1.0
  2
SOLID
 70
     1
 71
     1
 91
        1
 92
        1
 93
        1
 72
     4
 94
        3
 73
     0
 74
     0
 95
       26
 96
       22
 40
0.0
 40
0.0
 40
0.0
 40
0.0
 40
1.0
 40
1.0
 40
1.0
 40
2.0
 40
2.0
 40
2.0
 40
3.0
 40
3.0
 40
3.0
 40
4.0
 40
4.0
 40
4.0
 40
5.0
 40
5.0
 40
5.0
 40
6.0
 40
6.0
 40
6.0
 40
7.0
 40
7.0
 40
7.0
 40
7.0
 10
110.7346706537399
 20
-149.5347140468177
 10
110.7346706537399
 20
-149.5347140468177
 10
110.7346706537399
 20
-148.4303886890208
 10
110.7346706537399
 20
-148.4303886890208
 10
110.7346706537399
 20
-148.4303886890208
 10
110.404630506253
 20
-148.4303886890208
 10
110.404630506253
 20
-148.4303886890208
 10
110.404630506253
 20
-148.4303886890208
 10
110.404630506253
 20
-148.2822495831551
 10
110.404630506253
 20
-148.2822495831551
 10
110.7367377110311
 20
-148.2676079273428
 10
110.7832465000819
 20
-148.1046549108905
 10
110.8128743212551
 20
-147.9904499955545
 10
110.8128743212551
 20
-147.9904499955545
 10
110.9589463698297
 20
-147.9904499955545
 10
110.9589463698297
 20
-147.9904499955545
 10
110.9589463698297
 20
-147.9904499955545
 10
110.9589463698297
 20
-149.5347140468177
 10
110.9589463698297
 20
-149.5347140468177
 10
110.9589463698297
 20
-149.5347140468177
 10
110.7346706537399
 20
-149.5347140468177
 10
110.7346706537399
 20
-149.5347140468177
 97
        0
 97
        1
330
139
 75
     2
 76
     1
 98
        1
 10
0.0
 20
0.0
450
        0
451
        0
460
0.0
461
0.0
452
        0
462
0.0
453
        0
470

  0
ENDBLK
  5
138
330
135
100
AcDbEntity
  8
0
100
AcDbBlockEnd
  0
BLOCK
  5
13D
330
13B
100
AcDbEntity
  8
0
100
AcDbBlockBegin
  2
Block_12
 70
     0
 10
0.0
 20
0.0
 30
0.0
  3
Block_12
  1

  0
INSERT
  5
140
330
13B
100
AcDbEntity
  8
レイヤー 1
100
AcDbBlockReference
  2
Block_13
 10
0.0
 20
0.0
 30
0.0
  0
ENDBLK
  5
13E
330
13B
100
AcDbEntity
  8
0
100
AcDbBlockEnd
  0
BLOCK
  5
141
330
13F
100
AcDbEntity
  8
0
100
AcDbBlockBegin
  2
Block_13
 70
     0
 10
0.0
 20
0.0
 30
0.0
  3
Block_13
  1

  0
SPLINE
  5
143
330
13F
100
AcDbEntity
  8
レイヤー 1
100
AcDbSpline
210
0.0
220
0.0
230
1.0
 70
     9
 71
     3
 72
    17
 73
    13
 74
     0
 42
0.0000000001
 43
0.0000000001
 40
0.0
 40
0.0
 40
0.0
 40
0.0
 40
1.0
 40
1.0
 40
1.0
 40
2.0
 40
2.0
 40
2.0
 40
3.0
 40
3.0
 40
3.0
 40
4.0
 40
4.0
 40
4.0
 40
4.0
 10
126.7102674379405
 20
-149.1161349453598
 30
0.0
 10
126.5917561532479
 20
-149.0041693420892
 30
0.0
 10
126.4994275942432
 20
-148.9407795851606
 30
0.0
 10
126.3957302201372
 20
-148.877389828232
 30
0.0
 10
126.3957302201372
 20
-148.877389828232
 30
0.0
 10
126.5066622947622
 20
-148.7652519701871
 30
0.0
 10
126.5066622947622
 20
-148.7652519701871
 30
0.0
 10
126.621383974421
 20
-148.811760759238
 30
0.0
 10
126.717846648008
 20
-148.8689493442931
 30
0.0
 10
126.8270561748904
 20
-148.9704074063338
 30
0.0
 10
126.8270561748904
 20
-148.9704074063338
 30
0.0
 10
126.7102674379405
 20
-149.1161349453598
 30
0.0
 10
126.7102674379405
 20
-149.1161349453598
 30
0.0
  0
SPLINE
  5
144
330
13F
100
AcDbEntity
  8
レイヤー 1
100
AcDbSpline
210
0.0
220
0.0
230
1.0
 70
     9
 71
     3
 72
    20
 73
    16
 74
     0
 42
0.0000000001
 43
0.0000000001
 40
0.0
 40
0.0
 40
0.0
 40
0.0
 40
1.0
 40
1.0
 40
1.0
 40
2.0
 40
2.0
 40
2.0
 40
3.0
 40
3.0
 40
3.0
 40
4.0
 40
4.0
 40
4.0
 40
5.0
 40
5.0
 40
5.0
 40
5.0
 10
126.2196858408409
 20
-148.0607299434535
 30
0.0
 10
126.186268414634
 20
-148.1094780445698
 30
0.0
 10
126.1328694346126
 20
-148.187681712085
 30
0.0
 10
126.0105685448862
 20
-148.2977525128387
 30
0.0
 10
126.0808484927853
 20
-148.301886627421
 30
0.0
 10
126.1066867089247
 20
-148.301886627421
 30
0.0
 10
126.1270127722877
 20
-148.301886627421
 30
0.0
 10
126.1270127722877
 20
-148.301886627421
 30
0.0
 10
126.3271728199807
 20
-148.301886627421
 30
0.0
 10
126.3271728199807
 20
-148.301886627421
 30
0.0
 10
126.3547335838627
 20
-148.301886627421
 30
0.0
 10
126.3974527678798
 20
-148.2998195701299
 30
0.0
 10
126.4622205630025
 20
-148.2977525128387
 30
0.0
 10
126.3640353416729
 20
-148.2236829599059
 30
0.0
 10
126.3216606672043
 20
-148.177174170855
 30
0.0
 10
126.2196858408409
 20
-148.0607299434535
 30
0.0
  0
SPLINE
  5
145
330
13F
100
AcDbEntity
  8
レイヤー 1
100
AcDbSpline
210
0.0
220
0.0
230
1.0
 70
     9
 71
     3
 72
    23
 73
    19
 74
     0
 42
0.0000000001
 43
0.0000000001
 40
0.0
 40
0.0
 40
0.0
 40
0.0
 40
1.0
 40
1.0
 40
1.0
 40
2.0
 40
2.0
 40
2.0
 40
3.0
 40
3.0
 40
3.0
 40
4.0
 40
4.0
 40
4.0
 40
5.0
 40
5.0
 40
5.0
 40
6.0
 40
6.0
 40
6.0
 40
6.0
 10
125.958547603059
 20
-148.9025390252743
 30
0.0
 10
125.9399440874386
 20
-148.925965674574
 30
0.0
 10
125.8548502289529
 20
-149.0379312778447
 30
0.0
 10
125.7325493392266
 20
-149.1185465121995
 30
0.0
 10
125.7325493392266
 20
-149.1185465121995
 30
0.0
 10
125.586477290652
 20
-148.9979681702157
 30
0.0
 10
125.586477290652
 20
-148.9979681702157
 30
0.0
 10
125.7180799381885
 20
-148.9218315599917
 30
0.0
 10
125.8048963444168
 20
-148.8265746698246
 30
0.0
 10
125.8476155284339
 20
-148.773692454126
 30
0.0
 10
125.8476155284339
 20
-148.773692454126
 30
0.0
 10
125.9991997297849
 20
-148.8562024909977
 30
0.0
 10
125.9991997297849
 20
-148.8562024909977
 30
0.0
 10
126.0067789398525
 20
-148.86033660558
 30
0.0
 10
126.01435814992
 20
-148.8667100322278
 30
0.0
 10
126.01435814992
 20
-148.877389828232
 30
0.0
 10
126.01435814992
 20
-148.9025390252743
 30
0.0
 10
125.9826632714557
 20
-148.9025390252743
 30
0.0
 10
125.958547603059
 20
-148.9025390252743
 30
0.0
  0
SPLINE
  5
146
330
13F
100
AcDbEntity
  8
レイヤー 1
100
AcDbSpline
210
0.0
220
0.0
230
1.0
 70
     9
 71
     3
 72
    17
 73
    13
 74
     0
 42
0.0000000001
 43
0.0000000001
 40
0.0
 40
0.0
 40
0.0
 40
0.0
 40
1.0
 40
1.0
 40
1.0
 40
2.0
 40
2.0
 40
2.0
 40
3.0
 40
3.0
 40
3.0
 40
4.0
 40
4.0
 40
4.0
 40
4.0
 10
125.5623616222552
 20
-148.198189253315
 30
0.0
 10
125.5086181326853
 20
-148.122052643091
 30
0.0
 10
125.3956190007691
 20
-148.045916032867
 30
0.0
 10
125.3050129895071
 20
-148.0162882116938
 30
0.0
 10
125.3050129895071
 20
-148.0162882116938
 30
0.0
 10
125.3883843002501
 20
-147.8512681379504
 30
0.0
 10
125.3883843002501
 20
-147.8512681379504
 30
0.0
 10
125.4772677637695
 20
-147.8872693857712
 30
0.0
 10
125.5699408323228
 20
-147.9444579708264
 30
0.0
 10
125.6474554807409
 20
-148.0247286956327
 30
0.0
 10
125.6474554807409
 20
-148.0247286956327
 30
0.0
 10
125.5623616222552
 20
-148.198189253315
 30
0.0
 10
125.5623616222552
 20
-148.198189253315
 30
0.0
  0
SPLINE
  5
147
330
13F
100
AcDbEntity
  8
レイヤー 1
100
AcDbSpline
210
0.0
220
0.0
230
1.0
 70
     9
 71
     3
 72
    23
 73
    19
 74
     0
 42
0.0000000001
 43
0.0000000001
 40
0.0
 40
0.0
 40
0.0
 40
0.0
 40
1.0
 40
1.0
 40
1.0
 40
2.0
 40
2.0
 40
2.0
 40
3.0
 40
3.0
 40
3.0
 40
4.0
 40
4.0
 40
4.0
 40
5.0
 40
5.0
 40
5.0
 40
6.0
 40
6.0
 40
6.0
 40
6.0
 10
125.3401529634566
 20
-149.0930528056087
 30
0.0
 10
125.3401529634566
 20
-149.1140678880687
 30
0.0
 10
125.3418755111992
 20
-149.152308447955
 30
0.0
 10
125.3198269000936
 20
-149.152308447955
 30
0.0
 10
125.3105251422835
 20
-149.152308447955
 30
0.0
 10
125.3032904417644
 20
-149.145762766533
 30
0.0
 10
125.2939886839543
 20
-149.1288817986553
 30
0.0
 10
125.2939886839543
 20
-149.1288817986553
 30
0.0
 10
125.2030381631437
 20
-148.946980757034
 30
0.0
 10
125.2030381631437
 20
-148.946980757034
 30
0.0
 10
125.3921739052839
 20
-148.8181341858857
 30
0.0
 10
125.5640841699978
 20
-148.5409762540974
 30
0.0
 10
125.6050808062723
 20
-148.4689737584557
 30
0.0
 10
125.6050808062723
 20
-148.4689737584557
 30
0.0
 10
125.6677815441039
 20
-148.6488077427857
 30
0.0
 10
125.6677815441039
 20
-148.6488077427857
 30
0.0
 10
125.5513373167024
 20
-148.8455226949935
 30
0.0
 10
125.3976860580603
 20
-149.0296630486801
 30
0.0
 10
125.3401529634566
 20
-149.0930528056087
 30
0.0
  0
SPLINE
  5
148
330
13F
100
AcDbEntity
  8
レイヤー 1
100
AcDbSpline
210
0.0
220
0.0
230
1.0
 70
     9
 71
     3
 72
   182
 73
   178
 74
     0
 42
0.0000000001
 43
0.0000000001
 40
0.0
 40
0.0
 40
0.0
 40
0.0
 40
1.0
 40
1.0
 40
1.0
 40
2.0
 40
2.0
 40
2.0
 40
3.0
 40
3.0
 40
3.0
 40
4.0
 40
4.0
 40
4.0
 40
5.0
 40
5.0
 40
5.0
 40
6.0
 40
6.0
 40
6.0
 40
7.0
 40
7.0
 40
7.0
 40
8.0
 40
8.0
 40
8.0
 40
9.0
 40
9.0
 40
9.0
 40
10.0
 40
10.0
 40
10.0
 40
11.0
 40
11.0
 40
11.0
 40
12.0
 40
12.0
 40
12.0
 40
13.0
 40
13.0
 40
13.0
 40
14.0
 40
14.0
 40
14.0
 40
15.0
 40
15.0
 40
15.0
 40
16.0
 40
16.0
 40
16.0
 40
17.0
 40
17.0
 40
17.0
 40
18.0
 40
18.0
 40
18.0
 40
19.0
 40
19.0
 40
19.0
 40
20.0
 40
20.0
 40
20.0
 40
21.0
 40
21.0
 40
21.0
 40
22.0
 40
22.0
 40
22.0
 40
23.0
 40
23.0
 40
23.0
 40
24.0
 40
24.0
 40
24.0
 40
25.0
 40
25.0
 40
25.0
 40
26.0
 40
26.0
 40
26.0
 40
27.0
 40
27.0
 40
27.0
 40
28.0
 40
28.0
 40
28.0
 40
29.0
 40
29.0
 40
29.0
 40
30.0
 40
30.0
 40
30.0
 40
31.0
 40
31.0
 40
31.0
 40
32.0
 40
32.0
 40
32.0
 40
33.0
 40
33.0
 40
33.0
 40
34.0
 40
34.0
 40
34.0
 40
35.0
 40
35.0
 40
35.0
 40
36.0
 40
36.0
 40
36.0
 40
37.0
 40
37.0
 40
37.0
 40
38.0
 40
38.0
 40
38.0
 40
39.0
 40
39.0
 40
39.0
 40
40.0
 40
40.0
 40
40.0
 40
41.0
 40
41.0
 40
41.0
 40
42.0
 40
42.0
 40
42.0
 40
43.0
 40
43.0
 40
43.0
 40
44.0
 40
44.0
 40
44.0
 40
45.0
 40
45.0
 40
45.0
 40
46.0
 40
46.0
 40
46.0
 40
47.0
 40
47.0
 40
47.0
 40
48.0
 40
48.0
 40
48.0
 40
49.0
 40
49.0
 40
49.0
 40
50.0
 40
50.0
 40
50.0
 40
51.0
 40
51.0
 40
51.0
 40
52.0
 40
52.0
 40
52.0
 40
53.0
 40
53.0
 40
53.0
 40
54.0
 40
54.0
 40
54.0
 40
55.0
 40
55.0
 40
55.0
 40
56.0
 40
56.0
 40
56.0
 40
57.0
 40
57.0
 40
57.0
 40
58.0
 40
58.0
 40
58.0
 40
59.0
 40
59.0
 40
59.0
 40
59.0
 10
126.3195936099132
 20
-149.7214382221182
 30
0.0
 10
126.3195936099132
 20
-149.7214382221182
 30
0.0
 10
125.7621771603997
 20
-149.7214382221182
 30
0.0
 10
125.7621771603997
 20
-149.7214382221182
 30
0.0
 10
125.5754529850992
 20
-149.7214382221182
 30
0.0
 10
125.386317242959
 20
-149.7255723367005
 30
0.0
 10
125.1992485581099
 20
-149.738319189996
 30
0.0
 10
125.1992485581099
 20
-149.738319189996
 30
0.0
 10
125.1992485581099
 20
-149.5309244417839
 30
0.0
 10
125.1992485581099
 20
-149.5309244417839
 30
0.0
 10
125.3938964530265
 20
-149.5436712950793
 30
0.0
 10
125.677083301914
 20
-149.5478054096616
 30
0.0
 10
125.7621771603997
 20
-149.5478054096616
 30
0.0
 10
125.7621771603997
 20
-149.5478054096616
 30
0.0
 10
125.9551025075737
 20
-149.5478054096616
 30
0.0
 10
125.9551025075737
 20
-149.5478054096616
 30
0.0
 10
125.9551025075737
 20
-149.5478054096616
 30
0.0
 10
125.9551025075737
 20
-149.4062119852179
 30
0.0
 10
125.9551025075737
 20
-149.4062119852179
 30
0.0
 10
125.9551025075737
 20
-149.4062119852179
 30
0.0
 10
125.814198102227
 20
-149.4062119852179
 30
0.0
 10
125.814198102227
 20
-149.4062119852179
 30
0.0
 10
125.669848601395
 20
-149.4062119852179
 30
0.0
 10
125.5251545910145
 20
-149.4103460998002
 30
0.0
 10
125.3808050901826
 20
-149.4251600103867
 30
0.0
 10
125.3808050901826
 20
-149.4251600103867
 30
0.0
 10
125.3808050901826
 20
-149.2156982048836
 30
0.0
 10
125.3808050901826
 20
-149.2156982048836
 30
0.0
 10
125.5310112533394
 20
-149.2305121154701
 30
0.0
 10
125.7477077593617
 20
-149.2346462300524
 30
0.0
 10
125.814198102227
 20
-149.2346462300524
 30
0.0
 10
125.814198102227
 20
-149.2346462300524
 30
0.0
 10
125.9551025075737
 20
-149.2346462300524
 30
0.0
 10
125.9551025075737
 20
-149.2346462300524
 30
0.0
 10
125.9513129025399
 20
-149.1629882439592
 30
0.0
 10
125.9513129025399
 20
-149.1564425625373
 30
0.0
 10
125.9458007497635
 20
-149.1037326016129
 30
0.0
 10
125.9458007497635
 20
-149.1037326016129
 30
0.0
 10
126.0677571299414
 20
-149.1185465121995
 30
0.0
 10
126.0677571299414
 20
-149.1185465121995
 30
0.0
 10
126.0677571299414
 20
-149.1185465121995
 30
0.0
 10
125.9809407237131
 20
-148.946980757034
 30
0.0
 10
125.9809407237131
 20
-148.946980757034
 30
0.0
 10
126.021592850439
 20
-148.953526438456
 30
0.0
 10
126.0863606455617
 20
-148.9617946676206
 30
0.0
 10
126.1011745561483
 20
-148.9617946676206
 30
0.0
 10
126.145616287908
 20
-148.9617946676206
 30
0.0
 10
126.1604301984946
 20
-148.9407795851606
 30
0.0
 10
126.1604301984946
 20
-148.8835910001055
 30
0.0
 10
126.1604301984946
 20
-148.8835910001055
 30
0.0
 10
126.1604301984946
 20
-148.746131690244
 30
0.0
 10
126.1604301984946
 20
-148.746131690244
 30
0.0
 10
126.1604301984946
 20
-148.746131690244
 30
0.0
 10
126.0677571299414
 20
-148.746131690244
 30
0.0
 10
126.0677571299414
 20
-148.746131690244
 30
0.0
 10
125.9513129025399
 20
-148.746131690244
 30
0.0
 10
125.814198102227
 20
-148.746131690244
 30
0.0
 10
125.7067111230872
 20
-148.7588785435394
 30
0.0
 10
125.7067111230872
 20
-148.7588785435394
 30
0.0
 10
125.7067111230872
 20
-148.5685370179794
 30
0.0
 10
125.7067111230872
 20
-148.5685370179794
 30
0.0
 10
125.8531276812103
 20
-148.5854179858571
 30
0.0
 10
126.055010276646
 20
-148.5874850431482
 30
0.0
 10
126.0677571299414
 20
-148.5874850431482
 30
0.0
 10
126.0677571299414
 20
-148.5874850431482
 30
0.0
 10
126.1604301984946
 20
-148.5874850431482
 30
0.0
 10
126.1604301984946
 20
-148.5874850431482
 30
0.0
 10
126.1604301984946
 20
-148.5874850431482
 30
0.0
 10
126.1604301984946
 20
-148.4563991599345
 30
0.0
 10
126.1604301984946
 20
-148.4563991599345
 30
0.0
 10
126.1604301984946
 20
-148.4563991599345
 30
0.0
 10
126.1270127722877
 20
-148.4563991599345
 30
0.0
 10
126.1270127722877
 20
-148.4563991599345
 30
0.0
 10
126.0880831933044
 20
-148.4563991599345
 30
0.0
 10
125.9788736664219
 20
-148.4605332745168
 30
0.0
 10
125.9013590180038
 20
-148.4689737584557
 30
0.0
 10
125.9013590180038
 20
-148.4689737584557
 30
0.0
 10
125.9013590180038
 20
-148.3887030336493
 30
0.0
 10
125.9013590180038
 20
-148.3887030336493
 30
0.0
 10
125.8548502289529
 20
-148.4267713387613
 30
0.0
 10
125.8328016178474
 20
-148.4415852493479
 30
0.0
 10
125.7955945866066
 20
-148.4648396438734
 30
0.0
 10
125.7955945866066
 20
-148.4648396438734
 30
0.0
 10
125.6309190224117
 20
-148.3358208179508
 30
0.0
 10
125.6309190224117
 20
-148.3358208179508
 30
0.0
 10
125.6994764225682
 20
-148.301886627421
 30
0.0
 10
125.8365912228811
 20
-148.2384968704924
 30
0.0
 10
125.9733615136455
 20
-148.0946641339833
 30
0.0
 10
126.0457085188358
 20
-148.0162882116938
 30
0.0
 10
126.1142659189923
 20
-147.9317111175309
 30
0.0
 10
126.1604301984946
 20
-147.8302530554904
 30
0.0
 10
126.1604301984946
 20
-147.8302530554904
 30
0.0
 10
126.345776335601
 20
-147.8915757551278
 30
0.0
 10
126.345776335601
 20
-147.8915757551278
 30
0.0
 10
126.3623127939302
 20
-147.8977769270012
 30
0.0
 10
126.3716145517404
 20
-147.9063896657144
 30
0.0
 10
126.3716145517404
 20
-147.9189642642355
 30
0.0
 10
126.3716145517404
 20
-147.9360174868875
 30
0.0
 10
126.3605902461876
 20
-147.942218658761
 30
0.0
 10
126.3381971255335
 20
-147.9549655120564
 30
0.0
 10
126.4084770734326
 20
-148.0522894595147
 30
0.0
 10
126.5511040265219
 20
-148.149613406973
 30
0.0
 10
126.5807318476951
 20
-148.1685614321419
 30
0.0
 10
126.7123344952316
 20
-148.2574448956613
 30
0.0
 10
126.8122422643039
 20
-148.2850056595433
 30
0.0
 10
126.8807996644603
 20
-148.3039536847122
 30
0.0
 10
126.8807996644603
 20
-148.3039536847122
 30
0.0
 10
126.7771022903543
 20
-148.4732801278122
 30
0.0
 10
126.7771022903543
 20
-148.4732801278122
 30
0.0
 10
126.7030327374214
 20
-148.443652306639
 30
0.0
 10
126.6585910056617
 20
-148.4247042814702
 30
0.0
 10
126.5548936315557
 20
-148.3590752124762
 30
0.0
 10
126.5548936315557
 20
-148.3590752124762
 30
0.0
 10
126.5548936315557
 20
-148.4689737584557
 30
0.0
 10
126.5548936315557
 20
-148.4689737584557
 30
0.0
 10
126.4825466263655
 20
-148.4605332745168
 30
0.0
 10
126.3716145517404
 20
-148.4563991599345
 30
0.0
 10
126.3251057626895
 20
-148.4563991599345
 30
0.0
 10
126.3251057626895
 20
-148.4563991599345
 30
0.0
 10
126.3251057626895
 20
-148.5874850431482
 30
0.0
 10
126.3251057626895
 20
-148.5874850431482
 30
0.0
 10
126.3251057626895
 20
-148.5874850431482
 30
0.0
 10
126.4308701940867
 20
-148.5874850431482
 30
0.0
 10
126.4308701940867
 20
-148.5874850431482
 30
0.0
 10
126.4325927418293
 20
-148.5874850431482
 30
0.0
 10
126.6365423945561
 20
-148.5854179858571
 30
0.0
 10
126.7919162009409
 20
-148.5685370179794
 30
0.0
 10
126.7919162009409
 20
-148.5685370179794
 30
0.0
 10
126.7919162009409
 20
-148.7588785435394
 30
0.0
 10
126.7919162009409
 20
-148.7588785435394
 30
0.0
 10
126.6789170690247
 20
-148.746131690244
 30
0.0
 10
126.5418022687118
 20
-148.746131690244
 30
0.0
 10
126.4308701940867
 20
-148.746131690244
 30
0.0
 10
126.4308701940867
 20
-148.746131690244
 30
0.0
 10
126.3251057626895
 20
-148.746131690244
 30
0.0
 10
126.3251057626895
 20
-148.746131690244
 30
0.0
 10
126.3251057626895
 20
-148.746131690244
 30
0.0
 10
126.3251057626895
 20
-148.9724744636249
 30
0.0
 10
126.3251057626895
 20
-148.9724744636249
 30
0.0
 10
126.3251057626895
 20
-149.0909857483175
 30
0.0
 10
126.3030571515839
 20
-149.1268147413641
 30
0.0
 10
126.1624972557857
 20
-149.1416286519507
 30
0.0
 10
126.165942351271
 20
-149.1605766771196
 30
0.0
 10
126.1604301984946
 20
-149.1712564731238
 30
0.0
 10
126.1270127722877
 20
-149.1946831224235
 30
0.0
 10
126.125290224545
 20
-149.2136311475924
 30
0.0
 10
126.125290224545
 20
-149.2198323194659
 30
0.0
 10
126.1235676768024
 20
-149.2346462300524
 30
0.0
 10
126.1235676768024
 20
-149.2346462300524
 30
0.0
 10
126.2438015092376
 20
-149.2346462300524
 30
0.0
 10
126.2438015092376
 20
-149.2346462300524
 30
0.0
 10
126.3881510100696
 20
-149.2346462300524
 30
0.0
 10
126.5345675681927
 20
-149.2305121154701
 30
0.0
 10
126.6806396167673
 20
-149.2156982048836
 30
0.0
 10
126.6806396167673
 20
-149.2156982048836
 30
0.0
 10
126.6806396167673
 20
-149.4230929530956
 30
0.0
 10
126.6806396167673
 20
-149.4230929530956
 30
0.0
 10
126.4918483841756
 20
-149.4062119852179
 30
0.0
 10
126.2603379675669
 20
-149.4062119852179
 30
0.0
 10
126.2438015092376
 20
-149.4062119852179
 30
0.0
 10
126.2438015092376
 20
-149.4062119852179
 30
0.0
 10
126.1215006195113
 20
-149.4062119852179
 30
0.0
 10
126.1215006195113
 20
-149.4062119852179
 30
0.0
 10
126.1215006195113
 20
-149.4062119852179
 30
0.0
 10
126.1215006195113
 20
-149.5478054096616
 30
0.0
 10
126.1215006195113
 20
-149.5478054096616
 30
0.0
 10
126.1215006195113
 20
-149.5478054096616
 30
0.0
 10
126.3195936099132
 20
-149.5478054096616
 30
0.0
 10
126.3195936099132
 20
-149.5478054096616
 30
0.0
 10
126.5087293520533
 20
-149.5478054096616
 30
0.0
 10
126.6992431323877
 20
-149.5436712950793
 30
0.0
 10
126.8880343649794
 20
-149.5309244417839
 30
0.0
 10
126.8880343649794
 20
-149.5309244417839
 30
0.0
 10
126.8880343649794
 20
-149.738319189996
 30
0.0
 10
126.8880343649794
 20
-149.738319189996
 30
0.0
 10
126.6420545473325
 20
-149.7214382221182
 30
0.0
 10
126.3402641828246
 20
-149.7214382221182
 30
0.0
 10
126.3195936099132
 20
-149.7214382221182
 30
0.0
  0
SPLINE
  5
149
330
13F
100
AcDbEntity
  8
レイヤー 1
100
AcDbSpline
210
0.0
220
0.0
230
1.0
 70
     9
 71
     3
 72
    17
 73
    13
 74
     0
 42
0.0000000001
 43
0.0000000001
 40
0.0
 40
0.0
 40
0.0
 40
0.0
 40
1.0
 40
1.0
 40
1.0
 40
2.0
 40
2.0
 40
2.0
 40
3.0
 40
3.0
 40
3.0
 40
4.0
 40
4.0
 40
4.0
 40
4.0
 10
125.4049207585793
 20
-148.5430433113885
 30
0.0
 10
125.3122476900261
 20
-148.4372788799913
 30
0.0
 10
125.241967742127
 20
-148.3992105748793
 30
0.0
 10
125.1606634886751
 20
-148.367515696415
 30
0.0
 10
125.1606634886751
 20
-148.367515696415
 30
0.0
 10
125.2567816527136
 20
-148.2024956226716
 30
0.0
 10
125.2567816527136
 20
-148.2024956226716
 30
0.0
 10
125.3418755111992
 20
-148.2448702971401
 30
0.0
 10
125.4476399425964
 20
-148.3230739646553
 30
0.0
 10
125.4938042220987
 20
-148.3780232376451
 30
0.0
 10
125.4938042220987
 20
-148.3780232376451
 30
0.0
 10
125.4049207585793
 20
-148.5430433113885
 30
0.0
 10
125.4049207585793
 20
-148.5430433113885
 30
0.0
  0
HATCH
  5
14A
330
13F
100
AcDbEntity
  8
レイヤー 1
 62
   250
420
  2299925
440
 33554687
100
AcDbHatch
 10
0.0
 20
0.0
 30
0.0
210
0.0
220
0.0
230
1.0
  2
SOLID
 70
     1
 71
     1
 91
        7
 92
        1
 93
        1
 72
     4
 94
        3
 73
     0
 74
     0
 95
       17
 96
       13
 40
0.0
 40
0.0
 40
0.0
 40
0.0
 40
1.0
 40
1.0
 40
1.0
 40
2.0
 40
2.0
 40
2.0
 40
3.0
 40
3.0
 40
3.0
 40
4.0
 40
4.0
 40
4.0
 40
4.0
 10
126.7102674379405
 20
-149.1161349453598
 10
126.5917561532479
 20
-149.0041693420892
 10
126.4994275942432
 20
-148.9407795851606
 10
126.3957302201372
 20
-148.877389828232
 10
126.3957302201372
 20
-148.877389828232
 10
126.5066622947622
 20
-148.7652519701871
 10
126.5066622947622
 20
-148.7652519701871
 10
126.621383974421
 20
-148.811760759238
 10
126.717846648008
 20
-148.8689493442931
 10
126.8270561748904
 20
-148.9704074063338
 10
126.8270561748904
 20
-148.9704074063338
 10
126.7102674379405
 20
-149.1161349453598
 10
126.7102674379405
 20
-149.1161349453598
 97
        0
 97
        1
330
143
 92
        1
 93
        1
 72
     4
 94
        3
 73
     0
 74
     0
 95
       20
 96
       16
 40
0.0
 40
0.0
 40
0.0
 40
0.0
 40
1.0
 40
1.0
 40
1.0
 40
2.0
 40
2.0
 40
2.0
 40
3.0
 40
3.0
 40
3.0
 40
4.0
 40
4.0
 40
4.0
 40
5.0
 40
5.0
 40
5.0
 40
5.0
 10
126.2196858408409
 20
-148.0607299434535
 10
126.186268414634
 20
-148.1094780445698
 10
126.1328694346126
 20
-148.187681712085
 10
126.0105685448862
 20
-148.2977525128387
 10
126.0808484927853
 20
-148.301886627421
 10
126.1066867089247
 20
-148.301886627421
 10
126.1270127722877
 20
-148.301886627421
 10
126.1270127722877
 20
-148.301886627421
 10
126.3271728199807
 20
-148.301886627421
 10
126.3271728199807
 20
-148.301886627421
 10
126.3547335838627
 20
-148.301886627421
 10
126.3974527678798
 20
-148.2998195701299
 10
126.4622205630025
 20
-148.2977525128387
 10
126.3640353416729
 20
-148.2236829599059
 10
126.3216606672043
 20
-148.177174170855
 10
126.2196858408409
 20
-148.0607299434535
 97
        0
 97
        1
330
144
 92
        1
 93
        1
 72
     4
 94
        3
 73
     0
 74
     0
 95
       23
 96
       19
 40
0.0
 40
0.0
 40
0.0
 40
0.0
 40
1.0
 40
1.0
 40
1.0
 40
2.0
 40
2.0
 40
2.0
 40
3.0
 40
3.0
 40
3.0
 40
4.0
 40
4.0
 40
4.0
 40
5.0
 40
5.0
 40
5.0
 40
6.0
 40
6.0
 40
6.0
 40
6.0
 10
125.958547603059
 20
-148.9025390252743
 10
125.9399440874386
 20
-148.925965674574
 10
125.8548502289529
 20
-149.0379312778447
 10
125.7325493392266
 20
-149.1185465121995
 10
125.7325493392266
 20
-149.1185465121995
 10
125.586477290652
 20
-148.9979681702157
 10
125.586477290652
 20
-148.9979681702157
 10
125.7180799381885
 20
-148.9218315599917
 10
125.8048963444168
 20
-148.8265746698246
 10
125.8476155284339
 20
-148.773692454126
 10
125.8476155284339
 20
-148.773692454126
 10
125.9991997297849
 20
-148.8562024909977
 10
125.9991997297849
 20
-148.8562024909977
 10
126.0067789398525
 20
-148.86033660558
 10
126.01435814992
 20
-148.8667100322278
 10
126.01435814992
 20
-148.877389828232
 10
126.01435814992
 20
-148.9025390252743
 10
125.9826632714557
 20
-148.9025390252743
 10
125.958547603059
 20
-148.9025390252743
 97
        0
 97
        1
330
145
 92
        1
 93
        1
 72
     4
 94
        3
 73
     0
 74
     0
 95
       17
 96
       13
 40
0.0
 40
0.0
 40
0.0
 40
0.0
 40
1.0
 40
1.0
 40
1.0
 40
2.0
 40
2.0
 40
2.0
 40
3.0
 40
3.0
 40
3.0
 40
4.0
 40
4.0
 40
4.0
 40
4.0
 10
125.5623616222552
 20
-148.198189253315
 10
125.5086181326853
 20
-148.122052643091
 10
125.3956190007691
 20
-148.045916032867
 10
125.3050129895071
 20
-148.0162882116938
 10
125.3050129895071
 20
-148.0162882116938
 10
125.3883843002501
 20
-147.8512681379504
 10
125.3883843002501
 20
-147.8512681379504
 10
125.4772677637695
 20
-147.8872693857712
 10
125.5699408323228
 20
-147.9444579708264
 10
125.6474554807409
 20
-148.0247286956327
 10
125.6474554807409
 20
-148.0247286956327
 10
125.5623616222552
 20
-148.198189253315
 10
125.5623616222552
 20
-148.198189253315
 97
        0
 97
        1
330
146
 92
        1
 93
        1
 72
     4
 94
        3
 73
     0
 74
     0
 95
       23
 96
       19
 40
0.0
 40
0.0
 40
0.0
 40
0.0
 40
1.0
 40
1.0
 40
1.0
 40
2.0
 40
2.0
 40
2.0
 40
3.0
 40
3.0
 40
3.0
 40
4.0
 40
4.0
 40
4.0
 40
5.0
 40
5.0
 40
5.0
 40
6.0
 40
6.0
 40
6.0
 40
6.0
 10
125.3401529634566
 20
-149.0930528056087
 10
125.3401529634566
 20
-149.1140678880687
 10
125.3418755111992
 20
-149.152308447955
 10
125.3198269000936
 20
-149.152308447955
 10
125.3105251422835
 20
-149.152308447955
 10
125.3032904417644
 20
-149.145762766533
 10
125.2939886839543
 20
-149.1288817986553
 10
125.2939886839543
 20
-149.1288817986553
 10
125.2030381631437
 20
-148.946980757034
 10
125.2030381631437
 20
-148.946980757034
 10
125.3921739052839
 20
-148.8181341858857
 10
125.5640841699978
 20
-148.5409762540974
 10
125.6050808062723
 20
-148.4689737584557
 10
125.6050808062723
 20
-148.4689737584557
 10
125.6677815441039
 20
-148.6488077427857
 10
125.6677815441039
 20
-148.6488077427857
 10
125.5513373167024
 20
-148.8455226949935
 10
125.3976860580603
 20
-149.0296630486801
 10
125.3401529634566
 20
-149.0930528056087
 97
        0
 97
        1
330
147
 92
        1
 93
        1
 72
     4
 94
        3
 73
     0
 74
     0
 95
      182
 96
      178
 40
0.0
 40
0.0
 40
0.0
 40
0.0
 40
1.0
 40
1.0
 40
1.0
 40
2.0
 40
2.0
 40
2.0
 40
3.0
 40
3.0
 40
3.0
 40
4.0
 40
4.0
 40
4.0
 40
5.0
 40
5.0
 40
5.0
 40
6.0
 40
6.0
 40
6.0
 40
7.0
 40
7.0
 40
7.0
 40
8.0
 40
8.0
 40
8.0
 40
9.0
 40
9.0
 40
9.0
 40
10.0
 40
10.0
 40
10.0
 40
11.0
 40
11.0
 40
11.0
 40
12.0
 40
12.0
 40
12.0
 40
13.0
 40
13.0
 40
13.0
 40
14.0
 40
14.0
 40
14.0
 40
15.0
 40
15.0
 40
15.0
 40
16.0
 40
16.0
 40
16.0
 40
17.0
 40
17.0
 40
17.0
 40
18.0
 40
18.0
 40
18.0
 40
19.0
 40
19.0
 40
19.0
 40
20.0
 40
20.0
 40
20.0
 40
21.0
 40
21.0
 40
21.0
 40
22.0
 40
22.0
 40
22.0
 40
23.0
 40
23.0
 40
23.0
 40
24.0
 40
24.0
 40
24.0
 40
25.0
 40
25.0
 40
25.0
 40
26.0
 40
26.0
 40
26.0
 40
27.0
 40
27.0
 40
27.0
 40
28.0
 40
28.0
 40
28.0
 40
29.0
 40
29.0
 40
29.0
 40
30.0
 40
30.0
 40
30.0
 40
31.0
 40
31.0
 40
31.0
 40
32.0
 40
32.0
 40
32.0
 40
33.0
 40
33.0
 40
33.0
 40
34.0
 40
34.0
 40
34.0
 40
35.0
 40
35.0
 40
35.0
 40
36.0
 40
36.0
 40
36.0
 40
37.0
 40
37.0
 40
37.0
 40
38.0
 40
38.0
 40
38.0
 40
39.0
 40
39.0
 40
39.0
 40
40.0
 40
40.0
 40
40.0
 40
41.0
 40
41.0
 40
41.0
 40
42.0
 40
42.0
 40
42.0
 40
43.0
 40
43.0
 40
43.0
 40
44.0
 40
44.0
 40
44.0
 40
45.0
 40
45.0
 40
45.0
 40
46.0
 40
46.0
 40
46.0
 40
47.0
 40
47.0
 40
47.0
 40
48.0
 40
48.0
 40
48.0
 40
49.0
 40
49.0
 40
49.0
 40
50.0
 40
50.0
 40
50.0
 40
51.0
 40
51.0
 40
51.0
 40
52.0
 40
52.0
 40
52.0
 40
53.0
 40
53.0
 40
53.0
 40
54.0
 40
54.0
 40
54.0
 40
55.0
 40
55.0
 40
55.0
 40
56.0
 40
56.0
 40
56.0
 40
57.0
 40
57.0
 40
57.0
 40
58.0
 40
58.0
 40
58.0
 40
59.0
 40
59.0
 40
59.0
 40
59.0
 10
126.3195936099132
 20
-149.7214382221182
 10
126.3195936099132
 20
-149.7214382221182
 10
125.7621771603997
 20
-149.7214382221182
 10
125.7621771603997
 20
-149.7214382221182
 10
125.5754529850992
 20
-149.7214382221182
 10
125.386317242959
 20
-149.7255723367005
 10
125.1992485581099
 20
-149.738319189996
 10
125.1992485581099
 20
-149.738319189996
 10
125.1992485581099
 20
-149.5309244417839
 10
125.1992485581099
 20
-149.5309244417839
 10
125.3938964530265
 20
-149.5436712950793
 10
125.677083301914
 20
-149.5478054096616
 10
125.7621771603997
 20
-149.5478054096616
 10
125.7621771603997
 20
-149.5478054096616
 10
125.9551025075737
 20
-149.5478054096616
 10
125.9551025075737
 20
-149.5478054096616
 10
125.9551025075737
 20
-149.5478054096616
 10
125.9551025075737
 20
-149.4062119852179
 10
125.9551025075737
 20
-149.4062119852179
 10
125.9551025075737
 20
-149.4062119852179
 10
125.814198102227
 20
-149.4062119852179
 10
125.814198102227
 20
-149.4062119852179
 10
125.669848601395
 20
-149.4062119852179
 10
125.5251545910145
 20
-149.4103460998002
 10
125.3808050901826
 20
-149.4251600103867
 10
125.3808050901826
 20
-149.4251600103867
 10
125.3808050901826
 20
-149.2156982048836
 10
125.3808050901826
 20
-149.2156982048836
 10
125.5310112533394
 20
-149.2305121154701
 10
125.7477077593617
 20
-149.2346462300524
 10
125.814198102227
 20
-149.2346462300524
 10
125.814198102227
 20
-149.2346462300524
 10
125.9551025075737
 20
-149.2346462300524
 10
125.9551025075737
 20
-149.2346462300524
 10
125.9513129025399
 20
-149.1629882439592
 10
125.9513129025399
 20
-149.1564425625373
 10
125.9458007497635
 20
-149.1037326016129
 10
125.9458007497635
 20
-149.1037326016129
 10
126.0677571299414
 20
-149.1185465121995
 10
126.0677571299414
 20
-149.1185465121995
 10
126.0677571299414
 20
-149.1185465121995
 10
125.9809407237131
 20
-148.946980757034
 10
125.9809407237131
 20
-148.946980757034
 10
126.021592850439
 20
-148.953526438456
 10
126.0863606455617
 20
-148.9617946676206
 10
126.1011745561483
 20
-148.9617946676206
 10
126.145616287908
 20
-148.9617946676206
 10
126.1604301984946
 20
-148.9407795851606
 10
126.1604301984946
 20
-148.8835910001055
 10
126.1604301984946
 20
-148.8835910001055
 10
126.1604301984946
 20
-148.746131690244
 10
126.1604301984946
 20
-148.746131690244
 10
126.1604301984946
 20
-148.746131690244
 10
126.0677571299414
 20
-148.746131690244
 10
126.0677571299414
 20
-148.746131690244
 10
125.9513129025399
 20
-148.746131690244
 10
125.814198102227
 20
-148.746131690244
 10
125.7067111230872
 20
-148.7588785435394
 10
125.7067111230872
 20
-148.7588785435394
 10
125.7067111230872
 20
-148.5685370179794
 10
125.7067111230872
 20
-148.5685370179794
 10
125.8531276812103
 20
-148.5854179858571
 10
126.055010276646
 20
-148.5874850431482
 10
126.0677571299414
 20
-148.5874850431482
 10
126.0677571299414
 20
-148.5874850431482
 10
126.1604301984946
 20
-148.5874850431482
 10
126.1604301984946
 20
-148.5874850431482
 10
126.1604301984946
 20
-148.5874850431482
 10
126.1604301984946
 20
-148.4563991599345
 10
126.1604301984946
 20
-148.4563991599345
 10
126.1604301984946
 20
-148.4563991599345
 10
126.1270127722877
 20
-148.4563991599345
 10
126.1270127722877
 20
-148.4563991599345
 10
126.0880831933044
 20
-148.4563991599345
 10
125.9788736664219
 20
-148.4605332745168
 10
125.9013590180038
 20
-148.4689737584557
 10
125.9013590180038
 20
-148.4689737584557
 10
125.9013590180038
 20
-148.3887030336493
 10
125.9013590180038
 20
-148.3887030336493
 10
125.8548502289529
 20
-148.4267713387613
 10
125.8328016178474
 20
-148.4415852493479
 10
125.7955945866066
 20
-148.4648396438734
 10
125.7955945866066
 20
-148.4648396438734
 10
125.6309190224117
 20
-148.3358208179508
 10
125.6309190224117
 20
-148.3358208179508
 10
125.6994764225682
 20
-148.301886627421
 10
125.8365912228811
 20
-148.2384968704924
 10
125.9733615136455
 20
-148.0946641339833
 10
126.0457085188358
 20
-148.0162882116938
 10
126.1142659189923
 20
-147.9317111175309
 10
126.1604301984946
 20
-147.8302530554904
 10
126.1604301984946
 20
-147.8302530554904
 10
126.345776335601
 20
-147.8915757551278
 10
126.345776335601
 20
-147.8915757551278
 10
126.3623127939302
 20
-147.8977769270012
 10
126.3716145517404
 20
-147.9063896657144
 10
126.3716145517404
 20
-147.9189642642355
 10
126.3716145517404
 20
-147.9360174868875
 10
126.3605902461876
 20
-147.942218658761
 10
126.3381971255335
 20
-147.9549655120564
 10
126.4084770734326
 20
-148.0522894595147
 10
126.5511040265219
 20
-148.149613406973
 10
126.5807318476951
 20
-148.1685614321419
 10
126.7123344952316
 20
-148.2574448956613
 10
126.8122422643039
 20
-148.2850056595433
 10
126.8807996644603
 20
-148.3039536847122
 10
126.8807996644603
 20
-148.3039536847122
 10
126.7771022903543
 20
-148.4732801278122
 10
126.7771022903543
 20
-148.4732801278122
 10
126.7030327374214
 20
-148.443652306639
 10
126.6585910056617
 20
-148.4247042814702
 10
126.5548936315557
 20
-148.3590752124762
 10
126.5548936315557
 20
-148.3590752124762
 10
126.5548936315557
 20
-148.4689737584557
 10
126.5548936315557
 20
-148.4689737584557
 10
126.4825466263655
 20
-148.4605332745168
 10
126.3716145517404
 20
-148.4563991599345
 10
126.3251057626895
 20
-148.4563991599345
 10
126.3251057626895
 20
-148.4563991599345
 10
126.3251057626895
 20
-148.5874850431482
 10
126.3251057626895
 20
-148.5874850431482
 10
126.3251057626895
 20
-148.5874850431482
 10
126.4308701940867
 20
-148.5874850431482
 10
126.4308701940867
 20
-148.5874850431482
 10
126.4325927418293
 20
-148.5874850431482
 10
126.6365423945561
 20
-148.5854179858571
 10
126.7919162009409
 20
-148.5685370179794
 10
126.7919162009409
 20
-148.5685370179794
 10
126.7919162009409
 20
-148.7588785435394
 10
126.7919162009409
 20
-148.7588785435394
 10
126.6789170690247
 20
-148.746131690244
 10
126.5418022687118
 20
-148.746131690244
 10
126.4308701940867
 20
-148.746131690244
 10
126.4308701940867
 20
-148.746131690244
 10
126.3251057626895
 20
-148.746131690244
 10
126.3251057626895
 20
-148.746131690244
 10
126.3251057626895
 20
-148.746131690244
 10
126.3251057626895
 20
-148.9724744636249
 10
126.3251057626895
 20
-148.9724744636249
 10
126.3251057626895
 20
-149.0909857483175
 10
126.3030571515839
 20
-149.1268147413641
 10
126.1624972557857
 20
-149.1416286519507
 10
126.165942351271
 20
-149.1605766771196
 10
126.1604301984946
 20
-149.1712564731238
 10
126.1270127722877
 20
-149.1946831224235
 10
126.125290224545
 20
-149.2136311475924
 10
126.125290224545
 20
-149.2198323194659
 10
126.1235676768024
 20
-149.2346462300524
 10
126.1235676768024
 20
-149.2346462300524
 10
126.2438015092376
 20
-149.2346462300524
 10
126.2438015092376
 20
-149.2346462300524
 10
126.3881510100696
 20
-149.2346462300524
 10
126.5345675681927
 20
-149.2305121154701
 10
126.6806396167673
 20
-149.2156982048836
 10
126.6806396167673
 20
-149.2156982048836
 10
126.6806396167673
 20
-149.4230929530956
 10
126.6806396167673
 20
-149.4230929530956
 10
126.4918483841756
 20
-149.4062119852179
 10
126.2603379675669
 20
-149.4062119852179
 10
126.2438015092376
 20
-149.4062119852179
 10
126.2438015092376
 20
-149.4062119852179
 10
126.1215006195113
 20
-149.4062119852179
 10
126.1215006195113
 20
-149.4062119852179
 10
126.1215006195113
 20
-149.4062119852179
 10
126.1215006195113
 20
-149.5478054096616
 10
126.1215006195113
 20
-149.5478054096616
 10
126.1215006195113
 20
-149.5478054096616
 10
126.3195936099132
 20
-149.5478054096616
 10
126.3195936099132
 20
-149.5478054096616
 10
126.5087293520533
 20
-149.5478054096616
 10
126.6992431323877
 20
-149.5436712950793
 10
126.8880343649794
 20
-149.5309244417839
 10
126.8880343649794
 20
-149.5309244417839
 10
126.8880343649794
 20
-149.738319189996
 10
126.8880343649794
 20
-149.738319189996
 10
126.6420545473325
 20
-149.7214382221182
 10
126.3402641828246
 20
-149.7214382221182
 10
126.3195936099132
 20
-149.7214382221182
 97
        0
 97
        1
330
148
 92
        1
 93
        1
 72
     4
 94
        3
 73
     0
 74
     0
 95
       17
 96
       13
 40
0.0
 40
0.0
 40
0.0
 40
0.0
 40
1.0
 40
1.0
 40
1.0
 40
2.0
 40
2.0
 40
2.0
 40
3.0
 40
3.0
 40
3.0
 40
4.0
 40
4.0
 40
4.0
 40
4.0
 10
125.4049207585793
 20
-148.5430433113885
 10
125.3122476900261
 20
-148.4372788799913
 10
125.241967742127
 20
-148.3992105748793
 10
125.1606634886751
 20
-148.367515696415
 10
125.1606634886751
 20
-148.367515696415
 10
125.2567816527136
 20
-148.2024956226716
 10
125.2567816527136
 20
-148.2024956226716
 10
125.3418755111992
 20
-148.2448702971401
 10
125.4476399425964
 20
-148.3230739646553
 10
125.4938042220987
 20
-148.3780232376451
 10
125.4938042220987
 20
-148.3780232376451
 10
125.4049207585793
 20
-148.5430433113885
 10
125.4049207585793
 20
-148.5430433113885
 97
        0
 97
        1
330
149
 75
     2
 76
     1
 98
        1
 10
0.0
 20
0.0
450
        0
451
        0
460
0.0
461
0.0
452
        0
462
0.0
453
        0
470

  0
SPLINE
  5
14B
330
13F
100
AcDbEntity
  8
レイヤー 1
100
AcDbSpline
210
0.0
220
0.0
230
1.0
 70
    11
 71
     3
 72
    17
 73
    13
 74
     0
 42
0.0000000001
 43
0.0000000001
 40
0.0
 40
0.0
 40
0.0
 40
0.0
 40
1.0
 40
1.0
 40
1.0
 40
2.0
 40
2.0
 40
2.0
 40
3.0
 40
3.0
 40
3.0
 40
4.0
 40
4.0
 40
4.0
 40
4.0
 10
128.1758110573657
 20
-149.0909857483175
 30
0.0
 10
128.1758110573657
 20
-149.0909857483175
 30
0.0
 10
127.9980441303269
 20
-149.0909857483175
 30
0.0
 10
127.9980441303269
 20
-149.0909857483175
 30
0.0
 10
128.0221597987236
 20
-149.1502413906638
 30
0.0
 10
128.0700466259686
 20
-149.2222438863055
 30
0.0
 10
128.0941622943653
 20
-149.2515271979302
 30
0.0
 10
128.1182779627621
 20
-149.2370577968921
 30
0.0
 10
128.2181857318343
 20
-149.173323530415
 30
0.0
 10
128.2977674375436
 20
-149.0909857483175
 30
0.0
 10
128.2977674375436
 20
-149.0909857483175
 30
0.0
 10
128.1758110573657
 20
-149.0909857483175
 30
0.0
 10
128.1758110573657
 20
-149.0909857483175
 30
0.0
  0
SPLINE
  5
14C
330
13F
100
AcDbEntity
  8
レイヤー 1
100
AcDbSpline
210
0.0
220
0.0
230
1.0
 70
     9
 71
     3
 72
    83
 73
    79
 74
     0
 42
0.0000000001
 43
0.0000000001
 40
0.0
 40
0.0
 40
0.0
 40
0.0
 40
1.0
 40
1.0
 40
1.0
 40
2.0
 40
2.0
 40
2.0
 40
3.0
 40
3.0
 40
3.0
 40
4.0
 40
4.0
 40
4.0
 40
5.0
 40
5.0
 40
5.0
 40
6.0
 40
6.0
 40
6.0
 40
7.0
 40
7.0
 40
7.0
 40
8.0
 40
8.0
 40
8.0
 40
9.0
 40
9.0
 40
9.0
 40
10.0
 40
10.0
 40
10.0
 40
11.0
 40
11.0
 40
11.0
 40
12.0
 40
12.0
 40
12.0
 40
13.0
 40
13.0
 40
13.0
 40
14.0
 40
14.0
 40
14.0
 40
15.0
 40
15.0
 40
15.0
 40
16.0
 40
16.0
 40
16.0
 40
17.0
 40
17.0
 40
17.0
 40
18.0
 40
18.0
 40
18.0
 40
19.0
 40
19.0
 40
19.0
 40
20.0
 40
20.0
 40
20.0
 40
21.0
 40
21.0
 40
21.0
 40
22.0
 40
22.0
 40
22.0
 40
23.0
 40
23.0
 40
23.0
 40
24.0
 40
24.0
 40
24.0
 40
25.0
 40
25.0
 40
25.0
 40
26.0
 40
26.0
 40
26.0
 40
26.0
 10
128.3904405060968
 20
-148.2934461434822
 30
0.0
 10
128.3904405060968
 20
-148.2934461434822
 30
0.0
 10
128.3053466476111
 20
-148.2934461434822
 30
0.0
 10
128.3053466476111
 20
-148.2934461434822
 30
0.0
 10
128.3053466476111
 20
-148.2934461434822
 30
0.0
 10
128.3053466476111
 20
-148.5409762540974
 30
0.0
 10
128.3053466476111
 20
-148.5409762540974
 30
0.0
 10
128.3053466476111
 20
-148.5409762540974
 30
0.0
 10
128.3776936528014
 20
-148.5409762540974
 30
0.0
 10
128.3776936528014
 20
-148.5409762540974
 30
0.0
 10
128.4348822378565
 20
-148.5409762540974
 30
0.0
 10
128.5571831275829
 20
-148.5366698847408
 30
0.0
 10
128.6443440433597
 20
-148.528229400802
 30
0.0
 10
128.6443440433597
 20
-148.528229400802
 30
0.0
 10
128.6443440433597
 20
-148.708063385132
 30
0.0
 10
128.6443440433597
 20
-148.708063385132
 30
0.0
 10
128.5626952803593
 20
-148.6996229011931
 30
0.0
 10
128.4314371423713
 20
-148.6954887866108
 30
0.0
 10
128.3776936528014
 20
-148.6954887866108
 30
0.0
 10
128.3776936528014
 20
-148.6954887866108
 30
0.0
 10
128.111043262243
 20
-148.6954887866108
 30
0.0
 10
128.111043262243
 20
-148.6954887866108
 30
0.0
 10
128.0645344731922
 20
-148.6954887866108
 30
0.0
 10
127.9367214306894
 20
-148.6996229011931
 30
0.0
 10
127.8443928716847
 20
-148.708063385132
 30
0.0
 10
127.8443928716847
 20
-148.708063385132
 30
0.0
 10
127.8443928716847
 20
-148.528229400802
 30
0.0
 10
127.8443928716847
 20
-148.528229400802
 30
0.0
 10
127.931209277913
 20
-148.5366698847408
 30
0.0
 10
128.0535101676394
 20
-148.5409762540974
 30
0.0
 10
128.111043262243
 20
-148.5409762540974
 30
0.0
 10
128.111043262243
 20
-148.5409762540974
 30
0.0
 10
128.1496283316779
 20
-148.5409762540974
 30
0.0
 10
128.1496283316779
 20
-148.5409762540974
 30
0.0
 10
128.1496283316779
 20
-148.5409762540974
 30
0.0
 10
128.1496283316779
 20
-148.2934461434822
 30
0.0
 10
128.1496283316779
 20
-148.2934461434822
 30
0.0
 10
128.1496283316779
 20
-148.2934461434822
 30
0.0
 10
128.0848605365551
 20
-148.2934461434822
 30
0.0
 10
128.0848605365551
 20
-148.2934461434822
 30
0.0
 10
128.0311170469853
 20
-148.2934461434822
 30
0.0
 10
127.8850449984107
 20
-148.2977525128387
 30
0.0
 10
127.779625076562
 20
-148.3061929967776
 30
0.0
 10
127.779625076562
 20
-148.3061929967776
 30
0.0
 10
127.779625076562
 20
-148.1284260697387
 30
0.0
 10
127.779625076562
 20
-148.1284260697387
 30
0.0
 10
127.8795328456343
 20
-148.1347994963864
 30
0.0
 10
128.0183701936898
 20
-148.139105865743
 30
0.0
 10
128.0848605365551
 20
-148.139105865743
 30
0.0
 10
128.0848605365551
 20
-148.139105865743
 30
0.0
 10
128.1479057839352
 20
-148.139105865743
 30
0.0
 10
128.1479057839352
 20
-148.139105865743
 30
0.0
 10
128.1441161789014
 20
-147.9866603905207
 30
0.0
 10
128.1423936311588
 20
-147.9528984547652
 30
0.0
 10
128.1368814783824
 20
-147.8597086218892
 30
0.0
 10
128.1368814783824
 20
-147.8597086218892
 30
0.0
 10
128.3218831059403
 20
-147.8831352711889
 30
0.0
 10
128.3218831059403
 20
-147.8831352711889
 30
0.0
 10
128.3442762265945
 20
-147.8852023284801
 30
0.0
 10
128.3646022899574
 20
-147.8893364430624
 30
0.0
 10
128.3646022899574
 20
-147.9125908375878
 30
0.0
 10
128.3646022899574
 20
-147.9444579708264
 30
0.0
 10
128.3256727109741
 20
-147.9613389387041
 30
0.0
 10
128.3053466476111
 20
-147.969779422643
 30
0.0
 10
128.3053466476111
 20
-147.969779422643
 30
0.0
 10
128.3053466476111
 20
-148.139105865743
 30
0.0
 10
128.3053466476111
 20
-148.139105865743
 30
0.0
 10
128.3053466476111
 20
-148.139105865743
 30
0.0
 10
128.3904405060968
 20
-148.139105865743
 30
0.0
 10
128.3904405060968
 20
-148.139105865743
 30
0.0
 10
128.4572753585107
 20
-148.139105865743
 30
0.0
 10
128.5961127065662
 20
-148.1347994963864
 30
0.0
 10
128.6980875329296
 20
-148.1284260697387
 30
0.0
 10
128.6980875329296
 20
-148.1284260697387
 30
0.0
 10
128.6980875329296
 20
-148.3061929967776
 30
0.0
 10
128.6980875329296
 20
-148.3061929967776
 30
0.0
 10
128.6033474070852
 20
-148.2998195701299
 30
0.0
 10
128.4517632057343
 20
-148.2934461434822
 30
0.0
 10
128.3904405060968
 20
-148.2934461434822
 30
0.0
  0
SPLINE
  5
14D
330
13F
100
AcDbEntity
  8
レイヤー 1
100
AcDbSpline
210
0.0
220
0.0
230
1.0
 70
     9
 71
     3
 72
    38
 73
    34
 74
     0
 42
0.0000000001
 43
0.0000000001
 40
0.0
 40
0.0
 40
0.0
 40
0.0
 40
1.0
 40
1.0
 40
1.0
 40
2.0
 40
2.0
 40
2.0
 40
3.0
 40
3.0
 40
3.0
 40
4.0
 40
4.0
 40
4.0
 40
5.0
 40
5.0
 40
5.0
 40
6.0
 40
6.0
 40
6.0
 40
7.0
 40
7.0
 40
7.0
 40
8.0
 40
8.0
 40
8.0
 40
9.0
 40
9.0
 40
9.0
 40
10.0
 40
10.0
 40
10.0
 40
11.0
 40
11.0
 40
11.0
 40
11.0
 10
127.6886745557514
 20
-147.9718464799341
 30
0.0
 10
127.6869520080088
 20
-148.0185275237593
 30
0.0
 10
127.6848849507177
 20
-148.1347994963864
 30
0.0
 10
127.6848849507177
 20
-148.1792412281461
 30
0.0
 10
127.6848849507177
 20
-148.1792412281461
 30
0.0
 10
127.6848849507177
 20
-148.5261623435108
 30
0.0
 10
127.6848849507177
 20
-148.5261623435108
 30
0.0
 10
127.6848849507177
 20
-148.6129787497391
 30
0.0
 10
127.6869520080088
 20
-148.7545721741829
 30
0.0
 10
127.696253765819
 20
-148.8749782613924
 30
0.0
 10
127.696253765819
 20
-148.8749782613924
 30
0.0
 10
127.5295111443329
 20
-148.8749782613924
 30
0.0
 10
127.5295111443329
 20
-148.8749782613924
 30
0.0
 10
127.5333007493667
 20
-148.811760759238
 30
0.0
 10
127.5367458448519
 20
-148.7588785435394
 30
0.0
 10
127.5388129021431
 20
-148.7039292705497
 30
0.0
 10
127.5405354498857
 20
-148.5811116165005
 30
0.0
 10
127.5426025071768
 20
-148.566297705914
 30
0.0
 10
127.5426025071768
 20
-148.5218559741543
 30
0.0
 10
127.5426025071768
 20
-148.5218559741543
 30
0.0
 10
127.5426025071768
 20
-148.2004285653804
 30
0.0
 10
127.5426025071768
 20
-148.2004285653804
 30
0.0
 10
127.5426025071768
 20
-148.1453070376164
 30
0.0
 10
127.5312336920755
 20
-147.9063896657144
 30
0.0
 10
127.5295111443329
 20
-147.8555745073069
 30
0.0
 10
127.5295111443329
 20
-147.8555745073069
 30
0.0
 10
127.7052110140806
 20
-147.8831352711889
 30
0.0
 10
127.7052110140806
 20
-147.8831352711889
 30
0.0
 10
127.723814529701
 20
-147.8852023284801
 30
0.0
 10
127.7517198031315
 20
-147.8893364430624
 30
0.0
 10
127.7517198031315
 20
-147.9148301496532
 30
0.0
 10
127.7517198031315
 20
-147.942218658761
 30
0.0
 10
127.7072780713718
 20
-147.9634059959952
 30
0.0
 10
127.6886745557514
 20
-147.9718464799341
 30
0.0
  0
SPLINE
  5
14E
330
13F
100
AcDbEntity
  8
レイヤー 1
100
AcDbSpline
210
0.0
220
0.0
230
1.0
 70
     9
 71
     3
 72
    17
 73
    13
 74
     0
 42
0.0000000001
 43
0.0000000001
 40
0.0
 40
0.0
 40
0.0
 40
0.0
 40
1.0
 40
1.0
 40
1.0
 40
2.0
 40
2.0
 40
2.0
 40
3.0
 40
3.0
 40
3.0
 40
4.0
 40
4.0
 40
4.0
 40
4.0
 10
127.3665581278806
 20
-148.2765651756045
 30
0.0
 10
127.3407199117412
 20
-148.2364298132013
 30
0.0
 10
127.2814642693949
 20
-148.139105865743
 30
0.0
 10
127.1219563484278
 20
-148.0290350649893
 30
0.0
 10
127.1219563484278
 20
-148.0290350649893
 30
0.0
 10
127.2332329326014
 20
-147.8957098697101
 30
0.0
 10
127.2332329326014
 20
-147.8957098697101
 30
0.0
 10
127.3961859490537
 20
-147.9973401865249
 30
0.0
 10
127.4461398335898
 20
-148.0862236500444
 30
0.0
 10
127.4702555019866
 20
-148.1284260697387
 30
0.0
 10
127.4702555019866
 20
-148.1284260697387
 30
0.0
 10
127.3665581278806
 20
-148.2765651756045
 30
0.0
 10
127.3665581278806
 20
-148.2765651756045
 30
0.0
  0
SPLINE
  5
14F
330
13F
100
AcDbEntity
  8
レイヤー 1
100
AcDbSpline
210
0.0
220
0.0
230
1.0
 70
     9
 71
     3
 72
    23
 73
    19
 74
     0
 42
0.0000000001
 43
0.0000000001
 40
0.0
 40
0.0
 40
0.0
 40
0.0
 40
1.0
 40
1.0
 40
1.0
 40
2.0
 40
2.0
 40
2.0
 40
3.0
 40
3.0
 40
3.0
 40
4.0
 40
4.0
 40
4.0
 40
5.0
 40
5.0
 40
5.0
 40
6.0
 40
6.0
 40
6.0
 40
6.0
 10
127.2332329326014
 20
-148.7419975756617
 30
0.0
 10
127.2184190220148
 20
-148.7821329380649
 30
0.0
 10
127.2129068692384
 20
-148.7990139059426
 30
0.0
 10
127.1943033536181
 20
-148.7990139059426
 30
0.0
 10
127.1812119907741
 20
-148.7990139059426
 30
0.0
 10
127.1719102329639
 20
-148.7821329380649
 30
0.0
 10
127.1663980801875
 20
-148.7693860847695
 30
0.0
 10
127.1663980801875
 20
-148.7693860847695
 30
0.0
 10
127.0795816739592
 20
-148.604366011026
 30
0.0
 10
127.0795816739592
 20
-148.604366011026
 30
0.0
 10
127.1684651374787
 20
-148.5726711325617
 30
0.0
 10
127.2997232754667
 20
-148.5177218595719
 30
0.0
 10
127.4740451070204
 20
-148.3547688431196
 30
0.0
 10
127.4740451070204
 20
-148.3547688431196
 30
0.0
 10
127.5239989915565
 20
-148.528229400802
 30
0.0
 10
127.5239989915565
 20
-148.528229400802
 30
0.0
 10
127.4423502285561
 20
-148.6107394376737
 30
0.0
 10
127.3648355801379
 20
-148.6679280227288
 30
0.0
 10
127.2332329326014
 20
-148.7419975756617
 30
0.0
  0
SPLINE
  5
150
330
13F
100
AcDbEntity
  8
レイヤー 1
100
AcDbSpline
210
0.0
220
0.0
230
1.0
 70
     9
 71
     3
 72
   113
 73
   109
 74
     0
 42
0.0000000001
 43
0.0000000001
 40
0.0
 40
0.0
 40
0.0
 40
0.0
 40
1.0
 40
1.0
 40
1.0
 40
2.0
 40
2.0
 40
2.0
 40
3.0
 40
3.0
 40
3.0
 40
4.0
 40
4.0
 40
4.0
 40
5.0
 40
5.0
 40
5.0
 40
6.0
 40
6.0
 40
6.0
 40
7.0
 40
7.0
 40
7.0
 40
8.0
 40
8.0
 40
8.0
 40
9.0
 40
9.0
 40
9.0
 40
10.0
 40
10.0
 40
10.0
 40
11.0
 40
11.0
 40
11.0
 40
12.0
 40
12.0
 40
12.0
 40
13.0
 40
13.0
 40
13.0
 40
14.0
 40
14.0
 40
14.0
 40
15.0
 40
15.0
 40
15.0
 40
16.0
 40
16.0
 40
16.0
 40
17.0
 40
17.0
 40
17.0
 40
18.0
 40
18.0
 40
18.0
 40
19.0
 40
19.0
 40
19.0
 40
20.0
 40
20.0
 40
20.0
 40
21.0
 40
21.0
 40
21.0
 40
22.0
 40
22.0
 40
22.0
 40
23.0
 40
23.0
 40
23.0
 40
24.0
 40
24.0
 40
24.0
 40
25.0
 40
25.0
 40
25.0
 40
26.0
 40
26.0
 40
26.0
 40
27.0
 40
27.0
 40
27.0
 40
28.0
 40
28.0
 40
28.0
 40
29.0
 40
29.0
 40
29.0
 40
30.0
 40
30.0
 40
30.0
 40
31.0
 40
31.0
 40
31.0
 40
32.0
 40
32.0
 40
32.0
 40
33.0
 40
33.0
 40
33.0
 40
34.0
 40
34.0
 40
34.0
 40
35.0
 40
35.0
 40
35.0
 40
36.0
 40
36.0
 40
36.0
 40
36.0
 10
128.3570230798899
 20
-149.0930528056087
 30
0.0
 10
128.3570230798899
 20
-149.0930528056087
 30
0.0
 10
128.4441839956667
 20
-149.1926160651324
 30
0.0
 10
128.4441839956667
 20
-149.1926160651324
 30
0.0
 10
128.4534857534769
 20
-149.2029513515881
 30
0.0
 10
128.4627875112871
 20
-149.2156982048836
 30
0.0
 10
128.4627875112871
 20
-149.2305121154701
 30
0.0
 10
128.4627875112871
 20
-149.2325791727613
 30
0.0
 10
128.4627875112871
 20
-149.2622069939344
 30
0.0
 10
128.4293700850801
 20
-149.2622069939344
 30
0.0
 10
128.4221353845611
 20
-149.2622069939344
 30
0.0
 10
128.386650901063
 20
-149.2580728793521
 30
0.0
 10
128.3811387482866
 20
-149.2580728793521
 30
0.0
 10
128.3459987743371
 20
-149.2897677578164
 30
0.0
 10
128.3053466476111
 20
-149.3235296935719
 30
0.0
 10
128.2181857318343
 20
-149.380718278627
 30
0.0
 10
128.3459987743371
 20
-149.4885497673153
 30
0.0
 10
128.4848361223927
 20
-149.5457383523705
 30
0.0
 10
128.723925749069
 20
-149.5839789122568
 30
0.0
 10
128.723925749069
 20
-149.5839789122568
 30
0.0
 10
128.5923231015325
 20
-149.759334272456
 30
0.0
 10
128.5923231015325
 20
-149.759334272456
 30
0.0
 10
128.3628797422148
 20
-149.6873317768143
 30
0.0
 10
128.2257649419019
 20
-149.5987928228433
 30
0.0
 10
128.158930089488
 20
-149.5457383523705
 30
0.0
 10
128.0276719515
 20
-149.4441080355556
 30
0.0
 10
127.9015814567399
 20
-149.2811550191033
 30
0.0
 10
127.8350911138745
 20
-149.1161349453598
 30
0.0
 10
127.7758354715282
 20
-149.1819362691281
 30
0.0
 10
127.7110676764056
 20
-149.2346462300524
 30
0.0
 10
127.6425102762491
 20
-149.283566585943
 30
0.0
 10
127.6425102762491
 20
-149.283566585943
 30
0.0
 10
127.6425102762491
 20
-149.5350585563662
 30
0.0
 10
127.6425102762491
 20
-149.5350585563662
 30
0.0
 10
127.7851372293384
 20
-149.5099093593239
 30
0.0
 10
127.9480902457907
 20
-149.4654676275642
 30
0.0
 10
128.0035562831033
 20
-149.4506537169776
 30
0.0
 10
128.0035562831033
 20
-149.4506537169776
 30
0.0
 10
127.9777180669639
 20
-149.6198079053034
 30
0.0
 10
127.9777180669639
 20
-149.6198079053034
 30
0.0
 10
127.9756510096727
 20
-149.6198079053034
 30
0.0
 10
127.9591145513435
 20
-149.6260090771768
 30
0.0
 10
127.9573920036009
 20
-149.6260090771768
 30
0.0
 10
127.7830701720473
 20
-149.6642496370631
 30
0.0
 10
127.5053954759361
 20
-149.7297064512828
 30
0.0
 10
127.3331407016736
 20
-149.765879953878
 30
0.0
 10
127.3238389438635
 20
-149.7827609217557
 30
0.0
 10
127.3035128805005
 20
-149.81445580022
 30
0.0
 10
127.2831868171375
 20
-149.81445580022
 30
0.0
 10
127.2590711487408
 20
-149.81445580022
 30
0.0
 10
127.255281543707
 20
-149.7955077750511
 30
0.0
 10
127.2535589959644
 20
-149.7762152403337
 30
0.0
 10
127.2535589959644
 20
-149.7762152403337
 30
0.0
 10
127.2311658753102
 20
-149.6029269374256
 30
0.0
 10
127.2311658753102
 20
-149.6029269374256
 30
0.0
 10
127.2962781799815
 20
-149.5943141987125
 30
0.0
 10
127.3906737962773
 20
-149.5815673454171
 30
0.0
 10
127.4850694125732
 20
-149.5605522629571
 30
0.0
 10
127.4850694125732
 20
-149.5605522629571
 30
0.0
 10
127.4850694125732
 20
-149.3827853359182
 30
0.0
 10
127.4850694125732
 20
-149.3827853359182
 30
0.0
 10
127.358978917813
 20
-149.4547878315599
 30
0.0
 10
127.2759521166185
 20
-149.484415652733
 30
0.0
 10
127.131258106238
 20
-149.5140434739062
 30
0.0
 10
127.131258106238
 20
-149.5140434739062
 30
0.0
 10
127.0258381843894
 20
-149.3448892855804
 30
0.0
 10
127.0258381843894
 20
-149.3448892855804
 30
0.0
 10
127.3035128805005
 20
-149.3173285216984
 30
0.0
 10
127.4719780497292
 20
-149.2243109435967
 30
0.0
 10
127.6276963656625
 20
-149.0909857483175
 30
0.0
 10
127.4998833231597
 20
-149.0909857483175
 30
0.0
 10
127.2370225376352
 20
-149.0951198628998
 30
0.0
 10
127.0647677633727
 20
-149.1016655443218
 30
0.0
 10
127.0647677633727
 20
-149.1016655443218
 30
0.0
 10
127.0647677633727
 20
-148.9238986172829
 30
0.0
 10
127.0647677633727
 20
-148.9238986172829
 30
0.0
 10
127.1998155063945
 20
-148.9300997891563
 30
0.0
 10
127.4592311964338
 20
-148.9366454705783
 30
0.0
 10
127.620117155595
 20
-148.9366454705783
 30
0.0
 10
127.620117155595
 20
-148.9366454705783
 30
0.0
 10
127.8054632927014
 20
-148.9366454705783
 30
0.0
 10
127.8054632927014
 20
-148.9366454705783
 30
0.0
 10
127.8054632927014
 20
-148.8413885804112
 30
0.0
 10
127.8033962354102
 20
-148.7905734220037
 30
0.0
 10
127.7978840826339
 20
-148.7440646329528
 30
0.0
 10
127.7978840826339
 20
-148.7440646329528
 30
0.0
 10
127.987019824774
 20
-148.7609456008306
 30
0.0
 10
127.987019824774
 20
-148.7609456008306
 30
0.0
 10
128.0293944992426
 20
-148.7652519701871
 30
0.0
 10
128.0369737093102
 20
-148.7800658807737
 30
0.0
 10
128.0369737093102
 20
-148.7948797913603
 30
0.0
 10
128.0369737093102
 20
-148.8202012431769
 30
0.0
 10
128.0221597987236
 20
-148.8286417271157
 30
0.0
 10
127.9777180669639
 20
-148.8541354337066
 30
0.0
 10
127.9756510096727
 20
-148.8794568855232
 30
0.0
 10
127.9756510096727
 20
-148.8856580573966
 30
0.0
 10
127.9739284619301
 20
-148.9366454705783
 30
0.0
 10
127.9739284619301
 20
-148.9366454705783
 30
0.0
 10
128.1758110573657
 20
-148.9366454705783
 30
0.0
 10
128.1758110573657
 20
-148.9366454705783
 30
0.0
 10
128.3201605581977
 20
-148.9366454705783
 30
0.0
 10
128.5757866432033
 20
-148.9300997891563
 30
0.0
 10
128.7332275068792
 20
-148.9238986172829
 30
0.0
 10
128.7332275068792
 20
-148.9238986172829
 30
0.0
 10
128.7332275068792
 20
-149.1016655443218
 30
0.0
 10
128.7332275068792
 20
-149.1016655443218
 30
0.0
 10
128.620228374963
 20
-149.097186920191
 30
0.0
 10
128.5999023116
 20
-149.097186920191
 30
0.0
 10
128.3570230798899
 20
-149.0930528056087
 30
0.0
  0
HATCH
  5
151
330
13F
100
AcDbEntity
  8
レイヤー 1
 62
   250
420
  2299925
440
 33554687
100
AcDbHatch
 10
0.0
 20
0.0
 30
0.0
210
0.0
220
0.0
230
1.0
  2
SOLID
 70
     1
 71
     1
 91
        6
 92
        1
 93
        1
 72
     4
 94
        3
 73
     0
 74
     0
 95
       17
 96
       13
 40
0.0
 40
0.0
 40
0.0
 40
0.0
 40
1.0
 40
1.0
 40
1.0
 40
2.0
 40
2.0
 40
2.0
 40
3.0
 40
3.0
 40
3.0
 40
4.0
 40
4.0
 40
4.0
 40
4.0
 10
128.1758110573657
 20
-149.0909857483175
 10
128.1758110573657
 20
-149.0909857483175
 10
127.9980441303269
 20
-149.0909857483175
 10
127.9980441303269
 20
-149.0909857483175
 10
128.0221597987236
 20
-149.1502413906638
 10
128.0700466259686
 20
-149.2222438863055
 10
128.0941622943653
 20
-149.2515271979302
 10
128.1182779627621
 20
-149.2370577968921
 10
128.2181857318343
 20
-149.173323530415
 10
128.2977674375436
 20
-149.0909857483175
 10
128.2977674375436
 20
-149.0909857483175
 10
128.1758110573657
 20
-149.0909857483175
 10
128.1758110573657
 20
-149.0909857483175
 97
        0
 97
        1
330
14B
 92
        1
 93
        1
 72
     4
 94
        3
 73
     0
 74
     0
 95
       83
 96
       79
 40
0.0
 40
0.0
 40
0.0
 40
0.0
 40
1.0
 40
1.0
 40
1.0
 40
2.0
 40
2.0
 40
2.0
 40
3.0
 40
3.0
 40
3.0
 40
4.0
 40
4.0
 40
4.0
 40
5.0
 40
5.0
 40
5.0
 40
6.0
 40
6.0
 40
6.0
 40
7.0
 40
7.0
 40
7.0
 40
8.0
 40
8.0
 40
8.0
 40
9.0
 40
9.0
 40
9.0
 40
10.0
 40
10.0
 40
10.0
 40
11.0
 40
11.0
 40
11.0
 40
12.0
 40
12.0
 40
12.0
 40
13.0
 40
13.0
 40
13.0
 40
14.0
 40
14.0
 40
14.0
 40
15.0
 40
15.0
 40
15.0
 40
16.0
 40
16.0
 40
16.0
 40
17.0
 40
17.0
 40
17.0
 40
18.0
 40
18.0
 40
18.0
 40
19.0
 40
19.0
 40
19.0
 40
20.0
 40
20.0
 40
20.0
 40
21.0
 40
21.0
 40
21.0
 40
22.0
 40
22.0
 40
22.0
 40
23.0
 40
23.0
 40
23.0
 40
24.0
 40
24.0
 40
24.0
 40
25.0
 40
25.0
 40
25.0
 40
26.0
 40
26.0
 40
26.0
 40
26.0
 10
128.3904405060968
 20
-148.2934461434822
 10
128.3904405060968
 20
-148.2934461434822
 10
128.3053466476111
 20
-148.2934461434822
 10
128.3053466476111
 20
-148.2934461434822
 10
128.3053466476111
 20
-148.2934461434822
 10
128.3053466476111
 20
-148.5409762540974
 10
128.3053466476111
 20
-148.5409762540974
 10
128.3053466476111
 20
-148.5409762540974
 10
128.3776936528014
 20
-148.5409762540974
 10
128.3776936528014
 20
-148.5409762540974
 10
128.4348822378565
 20
-148.5409762540974
 10
128.5571831275829
 20
-148.5366698847408
 10
128.6443440433597
 20
-148.528229400802
 10
128.6443440433597
 20
-148.528229400802
 10
128.6443440433597
 20
-148.708063385132
 10
128.6443440433597
 20
-148.708063385132
 10
128.5626952803593
 20
-148.6996229011931
 10
128.4314371423713
 20
-148.6954887866108
 10
128.3776936528014
 20
-148.6954887866108
 10
128.3776936528014
 20
-148.6954887866108
 10
128.111043262243
 20
-148.6954887866108
 10
128.111043262243
 20
-148.6954887866108
 10
128.0645344731922
 20
-148.6954887866108
 10
127.9367214306894
 20
-148.6996229011931
 10
127.8443928716847
 20
-148.708063385132
 10
127.8443928716847
 20
-148.708063385132
 10
127.8443928716847
 20
-148.528229400802
 10
127.8443928716847
 20
-148.528229400802
 10
127.931209277913
 20
-148.5366698847408
 10
128.0535101676394
 20
-148.5409762540974
 10
128.111043262243
 20
-148.5409762540974
 10
128.111043262243
 20
-148.5409762540974
 10
128.1496283316779
 20
-148.5409762540974
 10
128.1496283316779
 20
-148.5409762540974
 10
128.1496283316779
 20
-148.5409762540974
 10
128.1496283316779
 20
-148.2934461434822
 10
128.1496283316779
 20
-148.2934461434822
 10
128.1496283316779
 20
-148.2934461434822
 10
128.0848605365551
 20
-148.2934461434822
 10
128.0848605365551
 20
-148.2934461434822
 10
128.0311170469853
 20
-148.2934461434822
 10
127.8850449984107
 20
-148.2977525128387
 10
127.779625076562
 20
-148.3061929967776
 10
127.779625076562
 20
-148.3061929967776
 10
127.779625076562
 20
-148.1284260697387
 10
127.779625076562
 20
-148.1284260697387
 10
127.8795328456343
 20
-148.1347994963864
 10
128.0183701936898
 20
-148.139105865743
 10
128.0848605365551
 20
-148.139105865743
 10
128.0848605365551
 20
-148.139105865743
 10
128.1479057839352
 20
-148.139105865743
 10
128.1479057839352
 20
-148.139105865743
 10
128.1441161789014
 20
-147.9866603905207
 10
128.1423936311588
 20
-147.9528984547652
 10
128.1368814783824
 20
-147.8597086218892
 10
128.1368814783824
 20
-147.8597086218892
 10
128.3218831059403
 20
-147.8831352711889
 10
128.3218831059403
 20
-147.8831352711889
 10
128.3442762265945
 20
-147.8852023284801
 10
128.3646022899574
 20
-147.8893364430624
 10
128.3646022899574
 20
-147.9125908375878
 10
128.3646022899574
 20
-147.9444579708264
 10
128.3256727109741
 20
-147.9613389387041
 10
128.3053466476111
 20
-147.969779422643
 10
128.3053466476111
 20
-147.969779422643
 10
128.3053466476111
 20
-148.139105865743
 10
128.3053466476111
 20
-148.139105865743
 10
128.3053466476111
 20
-148.139105865743
 10
128.3904405060968
 20
-148.139105865743
 10
128.3904405060968
 20
-148.139105865743
 10
128.4572753585107
 20
-148.139105865743
 10
128.5961127065662
 20
-148.1347994963864
 10
128.6980875329296
 20
-148.1284260697387
 10
128.6980875329296
 20
-148.1284260697387
 10
128.6980875329296
 20
-148.3061929967776
 10
128.6980875329296
 20
-148.3061929967776
 10
128.6033474070852
 20
-148.2998195701299
 10
128.4517632057343
 20
-148.2934461434822
 10
128.3904405060968
 20
-148.2934461434822
 97
        0
 97
        1
330
14C
 92
        1
 93
        1
 72
     4
 94
        3
 73
     0
 74
     0
 95
       38
 96
       34
 40
0.0
 40
0.0
 40
0.0
 40
0.0
 40
1.0
 40
1.0
 40
1.0
 40
2.0
 40
2.0
 40
2.0
 40
3.0
 40
3.0
 40
3.0
 40
4.0
 40
4.0
 40
4.0
 40
5.0
 40
5.0
 40
5.0
 40
6.0
 40
6.0
 40
6.0
 40
7.0
 40
7.0
 40
7.0
 40
8.0
 40
8.0
 40
8.0
 40
9.0
 40
9.0
 40
9.0
 40
10.0
 40
10.0
 40
10.0
 40
11.0
 40
11.0
 40
11.0
 40
11.0
 10
127.6886745557514
 20
-147.9718464799341
 10
127.6869520080088
 20
-148.0185275237593
 10
127.6848849507177
 20
-148.1347994963864
 10
127.6848849507177
 20
-148.1792412281461
 10
127.6848849507177
 20
-148.1792412281461
 10
127.6848849507177
 20
-148.5261623435108
 10
127.6848849507177
 20
-148.5261623435108
 10
127.6848849507177
 20
-148.6129787497391
 10
127.6869520080088
 20
-148.7545721741829
 10
127.696253765819
 20
-148.8749782613924
 10
127.696253765819
 20
-148.8749782613924
 10
127.5295111443329
 20
-148.8749782613924
 10
127.5295111443329
 20
-148.8749782613924
 10
127.5333007493667
 20
-148.811760759238
 10
127.5367458448519
 20
-148.7588785435394
 10
127.5388129021431
 20
-148.7039292705497
 10
127.5405354498857
 20
-148.5811116165005
 10
127.5426025071768
 20
-148.566297705914
 10
127.5426025071768
 20
-148.5218559741543
 10
127.5426025071768
 20
-148.5218559741543
 10
127.5426025071768
 20
-148.2004285653804
 10
127.5426025071768
 20
-148.2004285653804
 10
127.5426025071768
 20
-148.1453070376164
 10
127.5312336920755
 20
-147.9063896657144
 10
127.5295111443329
 20
-147.8555745073069
 10
127.5295111443329
 20
-147.8555745073069
 10
127.7052110140806
 20
-147.8831352711889
 10
127.7052110140806
 20
-147.8831352711889
 10
127.723814529701
 20
-147.8852023284801
 10
127.7517198031315
 20
-147.8893364430624
 10
127.7517198031315
 20
-147.9148301496532
 10
127.7517198031315
 20
-147.942218658761
 10
127.7072780713718
 20
-147.9634059959952
 10
127.6886745557514
 20
-147.9718464799341
 97
        0
 97
        1
330
14D
 92
        1
 93
        1
 72
     4
 94
        3
 73
     0
 74
     0
 95
       17
 96
       13
 40
0.0
 40
0.0
 40
0.0
 40
0.0
 40
1.0
 40
1.0
 40
1.0
 40
2.0
 40
2.0
 40
2.0
 40
3.0
 40
3.0
 40
3.0
 40
4.0
 40
4.0
 40
4.0
 40
4.0
 10
127.3665581278806
 20
-148.2765651756045
 10
127.3407199117412
 20
-148.2364298132013
 10
127.2814642693949
 20
-148.139105865743
 10
127.1219563484278
 20
-148.0290350649893
 10
127.1219563484278
 20
-148.0290350649893
 10
127.2332329326014
 20
-147.8957098697101
 10
127.2332329326014
 20
-147.8957098697101
 10
127.3961859490537
 20
-147.9973401865249
 10
127.4461398335898
 20
-148.0862236500444
 10
127.4702555019866
 20
-148.1284260697387
 10
127.4702555019866
 20
-148.1284260697387
 10
127.3665581278806
 20
-148.2765651756045
 10
127.3665581278806
 20
-148.2765651756045
 97
        0
 97
        1
330
14E
 92
        1
 93
        1
 72
     4
 94
        3
 73
     0
 74
     0
 95
       23
 96
       19
 40
0.0
 40
0.0
 40
0.0
 40
0.0
 40
1.0
 40
1.0
 40
1.0
 40
2.0
 40
2.0
 40
2.0
 40
3.0
 40
3.0
 40
3.0
 40
4.0
 40
4.0
 40
4.0
 40
5.0
 40
5.0
 40
5.0
 40
6.0
 40
6.0
 40
6.0
 40
6.0
 10
127.2332329326014
 20
-148.7419975756617
 10
127.2184190220148
 20
-148.7821329380649
 10
127.2129068692384
 20
-148.7990139059426
 10
127.1943033536181
 20
-148.7990139059426
 10
127.1812119907741
 20
-148.7990139059426
 10
127.1719102329639
 20
-148.7821329380649
 10
127.1663980801875
 20
-148.7693860847695
 10
127.1663980801875
 20
-148.7693860847695
 10
127.0795816739592
 20
-148.604366011026
 10
127.0795816739592
 20
-148.604366011026
 10
127.1684651374787
 20
-148.5726711325617
 10
127.2997232754667
 20
-148.5177218595719
 10
127.4740451070204
 20
-148.3547688431196
 10
127.4740451070204
 20
-148.3547688431196
 10
127.5239989915565
 20
-148.528229400802
 10
127.5239989915565
 20
-148.528229400802
 10
127.4423502285561
 20
-148.6107394376737
 10
127.3648355801379
 20
-148.6679280227288
 10
127.2332329326014
 20
-148.7419975756617
 97
        0
 97
        1
330
14F
 92
        1
 93
        1
 72
     4
 94
        3
 73
     0
 74
     0
 95
      113
 96
      109
 40
0.0
 40
0.0
 40
0.0
 40
0.0
 40
1.0
 40
1.0
 40
1.0
 40
2.0
 40
2.0
 40
2.0
 40
3.0
 40
3.0
 40
3.0
 40
4.0
 40
4.0
 40
4.0
 40
5.0
 40
5.0
 40
5.0
 40
6.0
 40
6.0
 40
6.0
 40
7.0
 40
7.0
 40
7.0
 40
8.0
 40
8.0
 40
8.0
 40
9.0
 40
9.0
 40
9.0
 40
10.0
 40
10.0
 40
10.0
 40
11.0
 40
11.0
 40
11.0
 40
12.0
 40
12.0
 40
12.0
 40
13.0
 40
13.0
 40
13.0
 40
14.0
 40
14.0
 40
14.0
 40
15.0
 40
15.0
 40
15.0
 40
16.0
 40
16.0
 40
16.0
 40
17.0
 40
17.0
 40
17.0
 40
18.0
 40
18.0
 40
18.0
 40
19.0
 40
19.0
 40
19.0
 40
20.0
 40
20.0
 40
20.0
 40
21.0
 40
21.0
 40
21.0
 40
22.0
 40
22.0
 40
22.0
 40
23.0
 40
23.0
 40
23.0
 40
24.0
 40
24.0
 40
24.0
 40
25.0
 40
25.0
 40
25.0
 40
26.0
 40
26.0
 40
26.0
 40
27.0
 40
27.0
 40
27.0
 40
28.0
 40
28.0
 40
28.0
 40
29.0
 40
29.0
 40
29.0
 40
30.0
 40
30.0
 40
30.0
 40
31.0
 40
31.0
 40
31.0
 40
32.0
 40
32.0
 40
32.0
 40
33.0
 40
33.0
 40
33.0
 40
34.0
 40
34.0
 40
34.0
 40
35.0
 40
35.0
 40
35.0
 40
36.0
 40
36.0
 40
36.0
 40
36.0
 10
128.3570230798899
 20
-149.0930528056087
 10
128.3570230798899
 20
-149.0930528056087
 10
128.4441839956667
 20
-149.1926160651324
 10
128.4441839956667
 20
-149.1926160651324
 10
128.4534857534769
 20
-149.2029513515881
 10
128.4627875112871
 20
-149.2156982048836
 10
128.4627875112871
 20
-149.2305121154701
 10
128.4627875112871
 20
-149.2325791727613
 10
128.4627875112871
 20
-149.2622069939344
 10
128.4293700850801
 20
-149.2622069939344
 10
128.4221353845611
 20
-149.2622069939344
 10
128.386650901063
 20
-149.2580728793521
 10
128.3811387482866
 20
-149.2580728793521
 10
128.3459987743371
 20
-149.2897677578164
 10
128.3053466476111
 20
-149.3235296935719
 10
128.2181857318343
 20
-149.380718278627
 10
128.3459987743371
 20
-149.4885497673153
 10
128.4848361223927
 20
-149.5457383523705
 10
128.723925749069
 20
-149.5839789122568
 10
128.723925749069
 20
-149.5839789122568
 10
128.5923231015325
 20
-149.759334272456
 10
128.5923231015325
 20
-149.759334272456
 10
128.3628797422148
 20
-149.6873317768143
 10
128.2257649419019
 20
-149.5987928228433
 10
128.158930089488
 20
-149.5457383523705
 10
128.0276719515
 20
-149.4441080355556
 10
127.9015814567399
 20
-149.2811550191033
 10
127.8350911138745
 20
-149.1161349453598
 10
127.7758354715282
 20
-149.1819362691281
 10
127.7110676764056
 20
-149.2346462300524
 10
127.6425102762491
 20
-149.283566585943
 10
127.6425102762491
 20
-149.283566585943
 10
127.6425102762491
 20
-149.5350585563662
 10
127.6425102762491
 20
-149.5350585563662
 10
127.7851372293384
 20
-149.5099093593239
 10
127.9480902457907
 20
-149.4654676275642
 10
128.0035562831033
 20
-149.4506537169776
 10
128.0035562831033
 20
-149.4506537169776
 10
127.9777180669639
 20
-149.6198079053034
 10
127.9777180669639
 20
-149.6198079053034
 10
127.9756510096727
 20
-149.6198079053034
 10
127.9591145513435
 20
-149.6260090771768
 10
127.9573920036009
 20
-149.6260090771768
 10
127.7830701720473
 20
-149.6642496370631
 10
127.5053954759361
 20
-149.7297064512828
 10
127.3331407016736
 20
-149.765879953878
 10
127.3238389438635
 20
-149.7827609217557
 10
127.3035128805005
 20
-149.81445580022
 10
127.2831868171375
 20
-149.81445580022
 10
127.2590711487408
 20
-149.81445580022
 10
127.255281543707
 20
-149.7955077750511
 10
127.2535589959644
 20
-149.7762152403337
 10
127.2535589959644
 20
-149.7762152403337
 10
127.2311658753102
 20
-149.6029269374256
 10
127.2311658753102
 20
-149.6029269374256
 10
127.2962781799815
 20
-149.5943141987125
 10
127.3906737962773
 20
-149.5815673454171
 10
127.4850694125732
 20
-149.5605522629571
 10
127.4850694125732
 20
-149.5605522629571
 10
127.4850694125732
 20
-149.3827853359182
 10
127.4850694125732
 20
-149.3827853359182
 10
127.358978917813
 20
-149.4547878315599
 10
127.2759521166185
 20
-149.484415652733
 10
127.131258106238
 20
-149.5140434739062
 10
127.131258106238
 20
-149.5140434739062
 10
127.0258381843894
 20
-149.3448892855804
 10
127.0258381843894
 20
-149.3448892855804
 10
127.3035128805005
 20
-149.3173285216984
 10
127.4719780497292
 20
-149.2243109435967
 10
127.6276963656625
 20
-149.0909857483175
 10
127.4998833231597
 20
-149.0909857483175
 10
127.2370225376352
 20
-149.0951198628998
 10
127.0647677633727
 20
-149.1016655443218
 10
127.0647677633727
 20
-149.1016655443218
 10
127.0647677633727
 20
-148.9238986172829
 10
127.0647677633727
 20
-148.9238986172829
 10
127.1998155063945
 20
-148.9300997891563
 10
127.4592311964338
 20
-148.9366454705783
 10
127.620117155595
 20
-148.9366454705783
 10
127.620117155595
 20
-148.9366454705783
 10
127.8054632927014
 20
-148.9366454705783
 10
127.8054632927014
 20
-148.9366454705783
 10
127.8054632927014
 20
-148.8413885804112
 10
127.8033962354102
 20
-148.7905734220037
 10
127.7978840826339
 20
-148.7440646329528
 10
127.7978840826339
 20
-148.7440646329528
 10
127.987019824774
 20
-148.7609456008306
 10
127.987019824774
 20
-148.7609456008306
 10
128.0293944992426
 20
-148.7652519701871
 10
128.0369737093102
 20
-148.7800658807737
 10
128.0369737093102
 20
-148.7948797913603
 10
128.0369737093102
 20
-148.8202012431769
 10
128.0221597987236
 20
-148.8286417271157
 10
127.9777180669639
 20
-148.8541354337066
 10
127.9756510096727
 20
-148.8794568855232
 10
127.9756510096727
 20
-148.8856580573966
 10
127.9739284619301
 20
-148.9366454705783
 10
127.9739284619301
 20
-148.9366454705783
 10
128.1758110573657
 20
-148.9366454705783
 10
128.1758110573657
 20
-148.9366454705783
 10
128.3201605581977
 20
-148.9366454705783
 10
128.5757866432033
 20
-148.9300997891563
 10
128.7332275068792
 20
-148.9238986172829
 10
128.7332275068792
 20
-148.9238986172829
 10
128.7332275068792
 20
-149.1016655443218
 10
128.7332275068792
 20
-149.1016655443218
 10
128.620228374963
 20
-149.097186920191
 10
128.5999023116
 20
-149.097186920191
 10
128.3570230798899
 20
-149.0930528056087
 97
        0
 97
        1
330
150
 75
     2
 76
     1
 98
        1
 10
0.0
 20
0.0
450
        0
451
        0
460
0.0
461
0.0
452
        0
462
0.0
453
        0
470

  0
SPLINE
  5
152
330
13F
100
AcDbEntity
  8
レイヤー 1
100
AcDbSpline
210
0.0
220
0.0
230
1.0
 70
    11
 71
     3
 72
    17
 73
    13
 74
     0
 42
0.0000000001
 43
0.0000000001
 40
0.0
 40
0.0
 40
0.0
 40
0.0
 40
1.0
 40
1.0
 40
1.0
 40
2.0
 40
2.0
 40
2.0
 40
3.0
 40
3.0
 40
3.0
 40
4.0
 40
4.0
 40
4.0
 40
4.0
 10
130.2387342339333
 20
-148.6066053230914
 30
0.0
 10
130.2387342339333
 20
-148.6066053230914
 30
0.0
 10
129.8370361003532
 20
-148.6066053230914
 30
0.0
 10
129.8370361003532
 20
-148.6066053230914
 30
0.0
 10
129.8370361003532
 20
-148.6066053230914
 30
0.0
 10
129.8370361003532
 20
-148.9152858785698
 30
0.0
 10
129.8370361003532
 20
-148.9152858785698
 30
0.0
 10
129.8370361003532
 20
-148.9152858785698
 30
0.0
 10
130.2387342339333
 20
-148.9152858785698
 30
0.0
 10
130.2387342339333
 20
-148.9152858785698
 30
0.0
 10
130.2387342339333
 20
-148.9152858785698
 30
0.0
 10
130.2387342339333
 20
-148.6066053230914
 30
0.0
 10
130.2387342339333
 20
-148.6066053230914
 30
0.0
  0
SPLINE
  5
153
330
13F
100
AcDbEntity
  8
レイヤー 1
100
AcDbSpline
210
0.0
220
0.0
230
1.0
 70
    11
 71
     3
 72
    17
 73
    13
 74
     0
 42
0.0000000001
 43
0.0000000001
 40
0.0
 40
0.0
 40
0.0
 40
0.0
 40
1.0
 40
1.0
 40
1.0
 40
2.0
 40
2.0
 40
2.0
 40
3.0
 40
3.0
 40
3.0
 40
4.0
 40
4.0
 40
4.0
 40
4.0
 10
130.2387342339333
 20
-148.1347994963864
 30
0.0
 10
130.2387342339333
 20
-148.1347994963864
 30
0.0
 10
129.8370361003532
 20
-148.1347994963864
 30
0.0
 10
129.8370361003532
 20
-148.1347994963864
 30
0.0
 10
129.8370361003532
 20
-148.1347994963864
 30
0.0
 10
129.8370361003532
 20
-148.4393459372825
 30
0.0
 10
129.8370361003532
 20
-148.4393459372825
 30
0.0
 10
129.8370361003532
 20
-148.4393459372825
 30
0.0
 10
130.2387342339333
 20
-148.4393459372825
 30
0.0
 10
130.2387342339333
 20
-148.4393459372825
 30
0.0
 10
130.2387342339333
 20
-148.4393459372825
 30
0.0
 10
130.2387342339333
 20
-148.1347994963864
 30
0.0
 10
130.2387342339333
 20
-148.1347994963864
 30
0.0
  0
SPLINE
  5
154
330
13F
100
AcDbEntity
  8
レイヤー 1
100
AcDbSpline
210
0.0
220
0.0
230
1.0
 70
    11
 71
     3
 72
    17
 73
    13
 74
     0
 42
0.0000000001
 43
0.0000000001
 40
0.0
 40
0.0
 40
0.0
 40
0.0
 40
1.0
 40
1.0
 40
1.0
 40
2.0
 40
2.0
 40
2.0
 40
3.0
 40
3.0
 40
3.0
 40
4.0
 40
4.0
 40
4.0
 40
4.0
 10
129.6702934788671
 20
-148.6066053230914
 30
0.0
 10
129.6702934788671
 20
-148.6066053230914
 30
0.0
 10
129.2868543513588
 20
-148.6066053230914
 30
0.0
 10
129.2868543513588
 20
-148.6066053230914
 30
0.0
 10
129.2868543513588
 20
-148.6066053230914
 30
0.0
 10
129.2868543513588
 20
-148.9152858785698
 30
0.0
 10
129.2868543513588
 20
-148.9152858785698
 30
0.0
 10
129.2868543513588
 20
-148.9152858785698
 30
0.0
 10
129.6702934788671
 20
-148.9152858785698
 30
0.0
 10
129.6702934788671
 20
-148.9152858785698
 30
0.0
 10
129.6702934788671
 20
-148.9152858785698
 30
0.0
 10
129.6702934788671
 20
-148.6066053230914
 30
0.0
 10
129.6702934788671
 20
-148.6066053230914
 30
0.0
  0
SPLINE
  5
155
330
13F
100
AcDbEntity
  8
レイヤー 1
100
AcDbSpline
210
0.0
220
0.0
230
1.0
 70
    11
 71
     3
 72
    17
 73
    13
 74
     0
 42
0.0000000001
 43
0.0000000001
 40
0.0
 40
0.0
 40
0.0
 40
0.0
 40
1.0
 40
1.0
 40
1.0
 40
2.0
 40
2.0
 40
2.0
 40
3.0
 40
3.0
 40
3.0
 40
4.0
 40
4.0
 40
4.0
 40
4.0
 10
129.6702934788671
 20
-148.1347994963864
 30
0.0
 10
129.6702934788671
 20
-148.1347994963864
 30
0.0
 10
129.2868543513588
 20
-148.1347994963864
 30
0.0
 10
129.2868543513588
 20
-148.1347994963864
 30
0.0
 10
129.2868543513588
 20
-148.1347994963864
 30
0.0
 10
129.2868543513588
 20
-148.4393459372825
 30
0.0
 10
129.2868543513588
 20
-148.4393459372825
 30
0.0
 10
129.2868543513588
 20
-148.4393459372825
 30
0.0
 10
129.6702934788671
 20
-148.4393459372825
 30
0.0
 10
129.6702934788671
 20
-148.4393459372825
 30
0.0
 10
129.6702934788671
 20
-148.4393459372825
 30
0.0
 10
129.6702934788671
 20
-148.1347994963864
 30
0.0
 10
129.6702934788671
 20
-148.1347994963864
 30
0.0
  0
SPLINE
  5
156
330
13F
100
AcDbEntity
  8
レイヤー 1
100
AcDbSpline
210
0.0
220
0.0
230
1.0
 70
     9
 71
     3
 72
    77
 73
    73
 74
     0
 42
0.0000000001
 43
0.0000000001
 40
0.0
 40
0.0
 40
0.0
 40
0.0
 40
1.0
 40
1.0
 40
1.0
 40
2.0
 40
2.0
 40
2.0
 40
3.0
 40
3.0
 40
3.0
 40
4.0
 40
4.0
 40
4.0
 40
5.0
 40
5.0
 40
5.0
 40
6.0
 40
6.0
 40
6.0
 40
7.0
 40
7.0
 40
7.0
 40
8.0
 40
8.0
 40
8.0
 40
9.0
 40
9.0
 40
9.0
 40
10.0
 40
10.0
 40
10.0
 40
11.0
 40
11.0
 40
11.0
 40
12.0
 40
12.0
 40
12.0
 40
13.0
 40
13.0
 40
13.0
 40
14.0
 40
14.0
 40
14.0
 40
15.0
 40
15.0
 40
15.0
 40
16.0
 40
16.0
 40
16.0
 40
17.0
 40
17.0
 40
17.0
 40
18.0
 40
18.0
 40
18.0
 40
19.0
 40
19.0
 40
19.0
 40
20.0
 40
20.0
 40
20.0
 40
21.0
 40
21.0
 40
21.0
 40
22.0
 40
22.0
 40
22.0
 40
23.0
 40
23.0
 40
23.0
 40
24.0
 40
24.0
 40
24.0
 40
24.0
 10
130.3572455186259
 20
-149.7214382221182
 30
0.0
 10
130.3165933919
 20
-149.7465874191606
 30
0.0
 10
130.2073838650176
 20
-149.759334272456
 30
0.0
 10
130.1388264648611
 20
-149.759334272456
 30
0.0
 10
130.1278021593083
 20
-149.759334272456
 30
0.0
 10
130.1054090386542
 20
-149.759334272456
 30
0.0
 10
130.075781217481
 20
-149.7552001578737
 30
0.0
 10
130.075781217481
 20
-149.7552001578737
 30
0.0
 10
129.9906873589954
 20
-149.5288573844928
 30
0.0
 10
129.9906873589954
 20
-149.5288573844928
 30
0.0
 10
130.0165255751347
 20
-149.5350585563662
 30
0.0
 10
130.0664794596709
 20
-149.5436712950793
 30
0.0
 10
130.1684542860343
 20
-149.5436712950793
 30
0.0
 10
130.2370116861907
 20
-149.5436712950793
 30
0.0
 10
130.2387342339333
 20
-149.5012966206108
 30
0.0
 10
130.2387342339333
 20
-149.4441080355556
 30
0.0
 10
130.2387342339333
 20
-149.4441080355556
 30
0.0
 10
130.2387342339333
 20
-149.0951198628998
 30
0.0
 10
130.2387342339333
 20
-149.0951198628998
 30
0.0
 10
130.2387342339333
 20
-149.0951198628998
 30
0.0
 10
129.8370361003532
 20
-149.0951198628998
 30
0.0
 10
129.8370361003532
 20
-149.0951198628998
 30
0.0
 10
129.8387586480959
 20
-149.2325791727613
 30
0.0
 10
129.8404811958385
 20
-149.4313611822602
 30
0.0
 10
129.8459933486149
 20
-149.5646863775394
 30
0.0
 10
129.848060405906
 20
-149.5922471414214
 30
0.0
 10
129.848060405906
 20
-149.6366888731811
 30
0.0
 10
129.8590847114588
 20
-149.6980115728185
 30
0.0
 10
129.8590847114588
 20
-149.6980115728185
 30
0.0
 10
129.647900358213
 20
-149.6980115728185
 30
0.0
 10
129.647900358213
 20
-149.6980115728185
 30
0.0
 10
129.6702934788671
 20
-149.5732991162525
 30
0.0
 10
129.6702934788671
 20
-149.2325791727613
 30
0.0
 10
129.6702934788671
 20
-149.0951198628998
 30
0.0
 10
129.6702934788671
 20
-149.0951198628998
 30
0.0
 10
129.283064746325
 20
-149.0951198628998
 30
0.0
 10
129.283064746325
 20
-149.0951198628998
 30
0.0
 10
129.2627386829621
 20
-149.3025146111119
 30
0.0
 10
129.2055500979069
 20
-149.5712320589613
 30
0.0
 10
129.0332953236444
 20
-149.7552001578737
 30
0.0
 10
129.0332953236444
 20
-149.7552001578737
 30
0.0
 10
128.868275249901
 20
-149.6325547585988
 30
0.0
 10
128.868275249901
 20
-149.6325547585988
 30
0.0
 10
129.0908284182481
 20
-149.4124131570913
 30
0.0
 10
129.1183891821301
 20
-149.0803059523132
 30
0.0
 10
129.1183891821301
 20
-148.7483710023094
 30
0.0
 10
129.1183891821301
 20
-148.7483710023094
 30
0.0
 10
129.1183891821301
 20
-148.3125664234253
 30
0.0
 10
129.1183891821301
 20
-148.3125664234253
 30
0.0
 10
129.1183891821301
 20
-148.2765651756045
 30
0.0
 10
129.1166666343875
 20
-148.0438489755758
 30
0.0
 10
129.1090874243199
 20
-147.942218658761
 30
0.0
 10
129.2313883140463
 20
-147.9528984547652
 30
0.0
 10
129.4425726672921
 20
-147.9528984547652
 30
0.0
 10
129.5683186525037
 20
-147.9528984547652
 30
0.0
 10
129.5683186525037
 20
-147.9528984547652
 30
0.0
 10
129.9703612956324
 20
-147.9528984547652
 30
0.0
 10
129.9703612956324
 20
-147.9528984547652
 30
0.0
 10
129.9831081489278
 20
-147.9528984547652
 30
0.0
 10
130.2886881184695
 20
-147.9528984547652
 30
0.0
 10
130.4275254665251
 20
-147.942218658761
 30
0.0
 10
130.4258029187824
 20
-147.9951008744595
 30
0.0
 10
130.420290766006
 20
-148.1559868336207
 30
0.0
 10
130.420290766006
 20
-148.2068019920282
 30
0.0
 10
130.420290766006
 20
-148.2068019920282
 30
0.0
 10
130.420290766006
 20
-148.8138278165292
 30
0.0
 10
130.420290766006
 20
-148.8138278165292
 30
0.0
 10
130.420290766006
 20
-148.8329480964723
 30
0.0
 10
130.4295925238162
 20
-149.4041449279267
 30
0.0
 10
130.4295925238162
 20
-149.5161105311973
 30
0.0
 10
130.4295925238162
 20
-149.5732991162525
 30
0.0
 10
130.4295925238162
 20
-149.6749294330673
 30
0.0
 10
130.3572455186259
 20
-149.7214382221182
 30
0.0
  0
HATCH
  5
157
330
13F
100
AcDbEntity
  8
レイヤー 1
 62
   250
420
  2299925
440
 33554687
100
AcDbHatch
 10
0.0
 20
0.0
 30
0.0
210
0.0
220
0.0
230
1.0
  2
SOLID
 70
     1
 71
     1
 91
        5
 92
        1
 93
        1
 72
     4
 94
        3
 73
     0
 74
     0
 95
       17
 96
       13
 40
0.0
 40
0.0
 40
0.0
 40
0.0
 40
1.0
 40
1.0
 40
1.0
 40
2.0
 40
2.0
 40
2.0
 40
3.0
 40
3.0
 40
3.0
 40
4.0
 40
4.0
 40
4.0
 40
4.0
 10
130.2387342339333
 20
-148.6066053230914
 10
130.2387342339333
 20
-148.6066053230914
 10
129.8370361003532
 20
-148.6066053230914
 10
129.8370361003532
 20
-148.6066053230914
 10
129.8370361003532
 20
-148.6066053230914
 10
129.8370361003532
 20
-148.9152858785698
 10
129.8370361003532
 20
-148.9152858785698
 10
129.8370361003532
 20
-148.9152858785698
 10
130.2387342339333
 20
-148.9152858785698
 10
130.2387342339333
 20
-148.9152858785698
 10
130.2387342339333
 20
-148.9152858785698
 10
130.2387342339333
 20
-148.6066053230914
 10
130.2387342339333
 20
-148.6066053230914
 97
        0
 97
        1
330
152
 92
        1
 93
        1
 72
     4
 94
        3
 73
     0
 74
     0
 95
       17
 96
       13
 40
0.0
 40
0.0
 40
0.0
 40
0.0
 40
1.0
 40
1.0
 40
1.0
 40
2.0
 40
2.0
 40
2.0
 40
3.0
 40
3.0
 40
3.0
 40
4.0
 40
4.0
 40
4.0
 40
4.0
 10
130.2387342339333
 20
-148.1347994963864
 10
130.2387342339333
 20
-148.1347994963864
 10
129.8370361003532
 20
-148.1347994963864
 10
129.8370361003532
 20
-148.1347994963864
 10
129.8370361003532
 20
-148.1347994963864
 10
129.8370361003532
 20
-148.4393459372825
 10
129.8370361003532
 20
-148.4393459372825
 10
129.8370361003532
 20
-148.4393459372825
 10
130.2387342339333
 20
-148.4393459372825
 10
130.2387342339333
 20
-148.4393459372825
 10
130.2387342339333
 20
-148.4393459372825
 10
130.2387342339333
 20
-148.1347994963864
 10
130.2387342339333
 20
-148.1347994963864
 97
        0
 97
        1
330
153
 92
        1
 93
        1
 72
     4
 94
        3
 73
     0
 74
     0
 95
       17
 96
       13
 40
0.0
 40
0.0
 40
0.0
 40
0.0
 40
1.0
 40
1.0
 40
1.0
 40
2.0
 40
2.0
 40
2.0
 40
3.0
 40
3.0
 40
3.0
 40
4.0
 40
4.0
 40
4.0
 40
4.0
 10
129.6702934788671
 20
-148.6066053230914
 10
129.6702934788671
 20
-148.6066053230914
 10
129.2868543513588
 20
-148.6066053230914
 10
129.2868543513588
 20
-148.6066053230914
 10
129.2868543513588
 20
-148.6066053230914
 10
129.2868543513588
 20
-148.9152858785698
 10
129.2868543513588
 20
-148.9152858785698
 10
129.2868543513588
 20
-148.9152858785698
 10
129.6702934788671
 20
-148.9152858785698
 10
129.6702934788671
 20
-148.9152858785698
 10
129.6702934788671
 20
-148.9152858785698
 10
129.6702934788671
 20
-148.6066053230914
 10
129.6702934788671
 20
-148.6066053230914
 97
        0
 97
        1
330
154
 92
        1
 93
        1
 72
     4
 94
        3
 73
     0
 74
     0
 95
       17
 96
       13
 40
0.0
 40
0.0
 40
0.0
 40
0.0
 40
1.0
 40
1.0
 40
1.0
 40
2.0
 40
2.0
 40
2.0
 40
3.0
 40
3.0
 40
3.0
 40
4.0
 40
4.0
 40
4.0
 40
4.0
 10
129.6702934788671
 20
-148.1347994963864
 10
129.6702934788671
 20
-148.1347994963864
 10
129.2868543513588
 20
-148.1347994963864
 10
129.2868543513588
 20
-148.1347994963864
 10
129.2868543513588
 20
-148.1347994963864
 10
129.2868543513588
 20
-148.4393459372825
 10
129.2868543513588
 20
-148.4393459372825
 10
129.2868543513588
 20
-148.4393459372825
 10
129.6702934788671
 20
-148.4393459372825
 10
129.6702934788671
 20
-148.4393459372825
 10
129.6702934788671
 20
-148.4393459372825
 10
129.6702934788671
 20
-148.1347994963864
 10
129.6702934788671
 20
-148.1347994963864
 97
        0
 97
        1
330
155
 92
        1
 93
        1
 72
     4
 94
        3
 73
     0
 74
     0
 95
       77
 96
       73
 40
0.0
 40
0.0
 40
0.0
 40
0.0
 40
1.0
 40
1.0
 40
1.0
 40
2.0
 40
2.0
 40
2.0
 40
3.0
 40
3.0
 40
3.0
 40
4.0
 40
4.0
 40
4.0
 40
5.0
 40
5.0
 40
5.0
 40
6.0
 40
6.0
 40
6.0
 40
7.0
 40
7.0
 40
7.0
 40
8.0
 40
8.0
 40
8.0
 40
9.0
 40
9.0
 40
9.0
 40
10.0
 40
10.0
 40
10.0
 40
11.0
 40
11.0
 40
11.0
 40
12.0
 40
12.0
 40
12.0
 40
13.0
 40
13.0
 40
13.0
 40
14.0
 40
14.0
 40
14.0
 40
15.0
 40
15.0
 40
15.0
 40
16.0
 40
16.0
 40
16.0
 40
17.0
 40
17.0
 40
17.0
 40
18.0
 40
18.0
 40
18.0
 40
19.0
 40
19.0
 40
19.0
 40
20.0
 40
20.0
 40
20.0
 40
21.0
 40
21.0
 40
21.0
 40
22.0
 40
22.0
 40
22.0
 40
23.0
 40
23.0
 40
23.0
 40
24.0
 40
24.0
 40
24.0
 40
24.0
 10
130.3572455186259
 20
-149.7214382221182
 10
130.3165933919
 20
-149.7465874191606
 10
130.2073838650176
 20
-149.759334272456
 10
130.1388264648611
 20
-149.759334272456
 10
130.1278021593083
 20
-149.759334272456
 10
130.1054090386542
 20
-149.759334272456
 10
130.075781217481
 20
-149.7552001578737
 10
130.075781217481
 20
-149.7552001578737
 10
129.9906873589954
 20
-149.5288573844928
 10
129.9906873589954
 20
-149.5288573844928
 10
130.0165255751347
 20
-149.5350585563662
 10
130.0664794596709
 20
-149.5436712950793
 10
130.1684542860343
 20
-149.5436712950793
 10
130.2370116861907
 20
-149.5436712950793
 10
130.2387342339333
 20
-149.5012966206108
 10
130.2387342339333
 20
-149.4441080355556
 10
130.2387342339333
 20
-149.4441080355556
 10
130.2387342339333
 20
-149.0951198628998
 10
130.2387342339333
 20
-149.0951198628998
 10
130.2387342339333
 20
-149.0951198628998
 10
129.8370361003532
 20
-149.0951198628998
 10
129.8370361003532
 20
-149.0951198628998
 10
129.8387586480959
 20
-149.2325791727613
 10
129.8404811958385
 20
-149.4313611822602
 10
129.8459933486149
 20
-149.5646863775394
 10
129.848060405906
 20
-149.5922471414214
 10
129.848060405906
 20
-149.6366888731811
 10
129.8590847114588
 20
-149.6980115728185
 10
129.8590847114588
 20
-149.6980115728185
 10
129.647900358213
 20
-149.6980115728185
 10
129.647900358213
 20
-149.6980115728185
 10
129.6702934788671
 20
-149.5732991162525
 10
129.6702934788671
 20
-149.2325791727613
 10
129.6702934788671
 20
-149.0951198628998
 10
129.6702934788671
 20
-149.0951198628998
 10
129.283064746325
 20
-149.0951198628998
 10
129.283064746325
 20
-149.0951198628998
 10
129.2627386829621
 20
-149.3025146111119
 10
129.2055500979069
 20
-149.5712320589613
 10
129.0332953236444
 20
-149.7552001578737
 10
129.0332953236444
 20
-149.7552001578737
 10
128.868275249901
 20
-149.6325547585988
 10
128.868275249901
 20
-149.6325547585988
 10
129.0908284182481
 20
-149.4124131570913
 10
129.1183891821301
 20
-149.0803059523132
 10
129.1183891821301
 20
-148.7483710023094
 10
129.1183891821301
 20
-148.7483710023094
 10
129.1183891821301
 20
-148.3125664234253
 10
129.1183891821301
 20
-148.3125664234253
 10
129.1183891821301
 20
-148.2765651756045
 10
129.1166666343875
 20
-148.0438489755758
 10
129.1090874243199
 20
-147.942218658761
 10
129.2313883140463
 20
-147.9528984547652
 10
129.4425726672921
 20
-147.9528984547652
 10
129.5683186525037
 20
-147.9528984547652
 10
129.5683186525037
 20
-147.9528984547652
 10
129.9703612956324
 20
-147.9528984547652
 10
129.9703612956324
 20
-147.9528984547652
 10
129.9831081489278
 20
-147.9528984547652
 10
130.2886881184695
 20
-147.9528984547652
 10
130.4275254665251
 20
-147.942218658761
 10
130.4258029187824
 20
-147.9951008744595
 10
130.420290766006
 20
-148.1559868336207
 10
130.420290766006
 20
-148.2068019920282
 10
130.420290766006
 20
-148.2068019920282
 10
130.420290766006
 20
-148.8138278165292
 10
130.420290766006
 20
-148.8138278165292
 10
130.420290766006
 20
-148.8329480964723
 10
130.4295925238162
 20
-149.4041449279267
 10
130.4295925238162
 20
-149.5161105311973
 10
130.4295925238162
 20
-149.5732991162525
 10
130.4295925238162
 20
-149.6749294330673
 10
130.3572455186259
 20
-149.7214382221182
 97
        0
 97
        1
330
156
 75
     2
 76
     1
 98
        1
 10
0.0
 20
0.0
450
        0
451
        0
460
0.0
461
0.0
452
        0
462
0.0
453
        0
470

  0
SPLINE
  5
158
330
13F
100
AcDbEntity
  8
レイヤー 1
100
AcDbSpline
210
0.0
220
0.0
230
1.0
 70
     9
 71
     3
 72
    17
 73
    13
 74
     0
 42
0.0000000001
 43
0.0000000001
 40
0.0
 40
0.0
 40
0.0
 40
0.0
 40
1.0
 40
1.0
 40
1.0
 40
2.0
 40
2.0
 40
2.0
 40
3.0
 40
3.0
 40
3.0
 40
4.0
 40
4.0
 40
4.0
 40
4.0
 10
126.6399874900414
 20
-150.4821153052614
 30
0.0
 10
126.5917561532479
 20
-150.4821153052614
 30
0.0
 10
126.5528265742645
 20
-150.5265570370211
 30
0.0
 10
126.5528265742645
 20
-150.5816785647851
 30
0.0
 10
126.5528265742645
 20
-150.6388671498403
 30
0.0
 10
126.5917561532479
 20
-150.6874429961823
 30
0.0
 10
126.6437770950751
 20
-150.6874429961823
 30
0.0
 10
126.6954535273539
 20
-150.6874429961823
 30
0.0
 10
126.7305935013034
 20
-150.6368000925491
 30
0.0
 10
126.7305935013034
 20
-150.5837456220763
 30
0.0
 10
126.7305935013034
 20
-150.5265570370211
 30
0.0
 10
126.6899413745775
 20
-150.4821153052614
 30
0.0
 10
126.6399874900414
 20
-150.4821153052614
 30
0.0
  0
SPLINE
  5
159
330
13F
100
AcDbEntity
  8
レイヤー 1
100
AcDbSpline
210
0.0
220
0.0
230
1.0
 70
     9
 71
     3
 72
    17
 73
    13
 74
     0
 42
0.0000000001
 43
0.0000000001
 40
0.0
 40
0.0
 40
0.0
 40
0.0
 40
1.0
 40
1.0
 40
1.0
 40
2.0
 40
2.0
 40
2.0
 40
3.0
 40
3.0
 40
3.0
 40
4.0
 40
4.0
 40
4.0
 40
4.0
 10
126.641710037784
 20
-150.8121554527483
 30
0.0
 10
126.530777963159
 20
-150.8121554527483
 30
0.0
 10
126.4418944996395
 20
-150.710869645482
 30
0.0
 10
126.4418944996395
 20
-150.5837456220763
 30
0.0
 10
126.4418944996395
 20
-150.4569661082191
 30
0.0
 10
126.530777963159
 20
-150.353268734113
 30
0.0
 10
126.641710037784
 20
-150.353268734113
 30
0.0
 10
126.7529866219576
 20
-150.353268734113
 30
0.0
 10
126.8435926332196
 20
-150.4569661082191
 30
0.0
 10
126.8435926332196
 20
-150.5837456220763
 30
0.0
 10
126.8435926332196
 20
-150.710869645482
 30
0.0
 10
126.7529866219576
 20
-150.8121554527483
 30
0.0
 10
126.641710037784
 20
-150.8121554527483
 30
0.0
  0
SPLINE
  5
15A
330
13F
100
AcDbEntity
  8
レイヤー 1
100
AcDbSpline
210
0.0
220
0.0
230
1.0
 70
     9
 71
     3
 72
    44
 73
    40
 74
     0
 42
0.0000000001
 43
0.0000000001
 40
0.0
 40
0.0
 40
0.0
 40
0.0
 40
1.0
 40
1.0
 40
1.0
 40
2.0
 40
2.0
 40
2.0
 40
3.0
 40
3.0
 40
3.0
 40
4.0
 40
4.0
 40
4.0
 40
5.0
 40
5.0
 40
5.0
 40
6.0
 40
6.0
 40
6.0
 40
7.0
 40
7.0
 40
7.0
 40
8.0
 40
8.0
 40
8.0
 40
9.0
 40
9.0
 40
9.0
 40
10.0
 40
10.0
 40
10.0
 40
11.0
 40
11.0
 40
11.0
 40
12.0
 40
12.0
 40
12.0
 40
13.0
 40
13.0
 40
13.0
 40
13.0
 10
126.4584309579687
 20
-151.0112819717958
 30
0.0
 10
126.3602457366391
 20
-151.3792181696205
 30
0.0
 10
126.3158040048794
 20
-151.5380370714905
 30
0.0
 10
126.1435492306169
 20
-151.7874619846226
 30
0.0
 10
125.9826632714557
 20
-152.0182833821343
 30
0.0
 10
125.7752685232436
 20
-152.2043185383378
 30
0.0
 10
125.5306667437909
 20
-152.2973361164395
 30
0.0
 10
125.5306667437909
 20
-152.2973361164395
 30
0.0
 10
125.3622015745622
 20
-152.1175021321095
 30
0.0
 10
125.3622015745622
 20
-152.1175021321095
 30
0.0
 10
125.9234076291094
 20
-151.9652289116615
 30
0.0
 10
126.2121066307733
 20
-151.4088459907936
 30
0.0
 10
126.2679171776344
 20
-150.9689072973272
 30
0.0
 10
126.2679171776344
 20
-150.9689072973272
 30
0.0
 10
125.5975015962048
 20
-150.9689072973272
 30
0.0
 10
125.5975015962048
 20
-150.9689072973272
 30
0.0
 10
125.5158528332044
 20
-150.9689072973272
 30
0.0
 10
125.3549668740432
 20
-150.9730414119095
 30
0.0
 10
125.2178520737302
 20
-150.9919894370784
 30
0.0
 10
125.2178520737302
 20
-150.9919894370784
 30
0.0
 10
125.2178520737302
 20
-150.7721923451194
 30
0.0
 10
125.2178520737302
 20
-150.7721923451194
 30
0.0
 10
125.2936441744057
 20
-150.7932074275795
 30
0.0
 10
125.5141302854617
 20
-150.7932074275795
 30
0.0
 10
125.60094669169
 20
-150.7932074275795
 30
0.0
 10
125.60094669169
 20
-150.7932074275795
 30
0.0
 10
125.9788736664219
 20
-150.7932074275795
 30
0.0
 10
125.9788736664219
 20
-150.7932074275795
 30
0.0
 10
126.0157361881141
 20
-150.7932074275795
 30
0.0
 10
126.2214083885835
 20
-150.7911403702883
 30
0.0
 10
126.2548258147904
 20
-150.7849391984149
 30
0.0
 10
126.2916883364826
 20
-150.7783935169929
 30
0.0
 10
126.2937553937738
 20
-150.7763264597017
 30
0.0
 10
126.3474988833437
 20
-150.7360188425243
 30
0.0
 10
126.3474988833437
 20
-150.7360188425243
 30
0.0
 10
126.5121744475386
 20
-150.890703629812
 30
0.0
 10
126.5121744475386
 20
-150.890703629812
 30
0.0
 10
126.4863362313992
 20
-150.9203314509852
 30
0.0
 10
126.4732448685553
 20
-150.9520263294495
 30
0.0
 10
126.4584309579687
 20
-151.0112819717958
 30
0.0
  0
HATCH
  5
15B
330
13F
100
AcDbEntity
  8
レイヤー 1
 62
   250
420
  2299925
440
 33554687
100
AcDbHatch
 10
0.0
 20
0.0
 30
0.0
210
0.0
220
0.0
230
1.0
  2
SOLID
 70
     1
 71
     1
 91
        3
 92
        1
 93
        1
 72
     4
 94
        3
 73
     0
 74
     0
 95
       17
 96
       13
 40
0.0
 40
0.0
 40
0.0
 40
0.0
 40
1.0
 40
1.0
 40
1.0
 40
2.0
 40
2.0
 40
2.0
 40
3.0
 40
3.0
 40
3.0
 40
4.0
 40
4.0
 40
4.0
 40
4.0
 10
126.6399874900414
 20
-150.4821153052614
 10
126.5917561532479
 20
-150.4821153052614
 10
126.5528265742645
 20
-150.5265570370211
 10
126.5528265742645
 20
-150.5816785647851
 10
126.5528265742645
 20
-150.6388671498403
 10
126.5917561532479
 20
-150.6874429961823
 10
126.6437770950751
 20
-150.6874429961823
 10
126.6954535273539
 20
-150.6874429961823
 10
126.7305935013034
 20
-150.6368000925491
 10
126.7305935013034
 20
-150.5837456220763
 10
126.7305935013034
 20
-150.5265570370211
 10
126.6899413745775
 20
-150.4821153052614
 10
126.6399874900414
 20
-150.4821153052614
 97
        0
 97
        1
330
158
 92
        1
 93
        1
 72
     4
 94
        3
 73
     0
 74
     0
 95
       17
 96
       13
 40
0.0
 40
0.0
 40
0.0
 40
0.0
 40
1.0
 40
1.0
 40
1.0
 40
2.0
 40
2.0
 40
2.0
 40
3.0
 40
3.0
 40
3.0
 40
4.0
 40
4.0
 40
4.0
 40
4.0
 10
126.641710037784
 20
-150.8121554527483
 10
126.530777963159
 20
-150.8121554527483
 10
126.4418944996395
 20
-150.710869645482
 10
126.4418944996395
 20
-150.5837456220763
 10
126.4418944996395
 20
-150.4569661082191
 10
126.530777963159
 20
-150.353268734113
 10
126.641710037784
 20
-150.353268734113
 10
126.7529866219576
 20
-150.353268734113
 10
126.8435926332196
 20
-150.4569661082191
 10
126.8435926332196
 20
-150.5837456220763
 10
126.8435926332196
 20
-150.710869645482
 10
126.7529866219576
 20
-150.8121554527483
 10
126.641710037784
 20
-150.8121554527483
 97
        0
 97
        1
330
159
 92
        1
 93
        1
 72
     4
 94
        3
 73
     0
 74
     0
 95
       44
 96
       40
 40
0.0
 40
0.0
 40
0.0
 40
0.0
 40
1.0
 40
1.0
 40
1.0
 40
2.0
 40
2.0
 40
2.0
 40
3.0
 40
3.0
 40
3.0
 40
4.0
 40
4.0
 40
4.0
 40
5.0
 40
5.0
 40
5.0
 40
6.0
 40
6.0
 40
6.0
 40
7.0
 40
7.0
 40
7.0
 40
8.0
 40
8.0
 40
8.0
 40
9.0
 40
9.0
 40
9.0
 40
10.0
 40
10.0
 40
10.0
 40
11.0
 40
11.0
 40
11.0
 40
12.0
 40
12.0
 40
12.0
 40
13.0
 40
13.0
 40
13.0
 40
13.0
 10
126.4584309579687
 20
-151.0112819717958
 10
126.3602457366391
 20
-151.3792181696205
 10
126.3158040048794
 20
-151.5380370714905
 10
126.1435492306169
 20
-151.7874619846226
 10
125.9826632714557
 20
-152.0182833821343
 10
125.7752685232436
 20
-152.2043185383378
 10
125.5306667437909
 20
-152.2973361164395
 10
125.5306667437909
 20
-152.2973361164395
 10
125.3622015745622
 20
-152.1175021321095
 10
125.3622015745622
 20
-152.1175021321095
 10
125.9234076291094
 20
-151.9652289116615
 10
126.2121066307733
 20
-151.4088459907936
 10
126.2679171776344
 20
-150.9689072973272
 10
126.2679171776344
 20
-150.9689072973272
 10
125.5975015962048
 20
-150.9689072973272
 10
125.5975015962048
 20
-150.9689072973272
 10
125.5158528332044
 20
-150.9689072973272
 10
125.3549668740432
 20
-150.9730414119095
 10
125.2178520737302
 20
-150.9919894370784
 10
125.2178520737302
 20
-150.9919894370784
 10
125.2178520737302
 20
-150.7721923451194
 10
125.2178520737302
 20
-150.7721923451194
 10
125.2936441744057
 20
-150.7932074275795
 10
125.5141302854617
 20
-150.7932074275795
 10
125.60094669169
 20
-150.7932074275795
 10
125.60094669169
 20
-150.7932074275795
 10
125.9788736664219
 20
-150.7932074275795
 10
125.9788736664219
 20
-150.7932074275795
 10
126.0157361881141
 20
-150.7932074275795
 10
126.2214083885835
 20
-150.7911403702883
 10
126.2548258147904
 20
-150.7849391984149
 10
126.2916883364826
 20
-150.7783935169929
 10
126.2937553937738
 20
-150.7763264597017
 10
126.3474988833437
 20
-150.7360188425243
 10
126.3474988833437
 20
-150.7360188425243
 10
126.5121744475386
 20
-150.890703629812
 10
126.5121744475386
 20
-150.890703629812
 10
126.4863362313992
 20
-150.9203314509852
 10
126.4732448685553
 20
-150.9520263294495
 10
126.4584309579687
 20
-151.0112819717958
 97
        0
 97
        1
330
15A
 75
     2
 76
     1
 98
        1
 10
0.0
 20
0.0
450
        0
451
        0
460
0.0
461
0.0
452
        0
462
0.0
453
        0
470

  0
SPLINE
  5
15C
330
13F
100
AcDbEntity
  8
レイヤー 1
100
AcDbSpline
210
0.0
220
0.0
230
1.0
 70
     9
 71
     3
 72
    29
 73
    25
 74
     0
 42
0.0000000001
 43
0.0000000001
 40
0.0
 40
0.0
 40
0.0
 40
0.0
 40
1.0
 40
1.0
 40
1.0
 40
2.0
 40
2.0
 40
2.0
 40
3.0
 40
3.0
 40
3.0
 40
4.0
 40
4.0
 40
4.0
 40
5.0
 40
5.0
 40
5.0
 40
6.0
 40
6.0
 40
6.0
 40
7.0
 40
7.0
 40
7.0
 40
8.0
 40
8.0
 40
8.0
 40
8.0
 10
127.7827256624987
 20
-150.6939886776043
 30
0.0
 10
127.7827256624987
 20
-150.6939886776043
 30
0.0
 10
127.4847249030246
 20
-150.6939886776043
 30
0.0
 10
127.4847249030246
 20
-150.6939886776043
 30
0.0
 10
127.3848171339524
 20
-150.6939886776043
 30
0.0
 10
127.282842307589
 20
-150.6981227921866
 30
0.0
 10
127.1829345385167
 20
-150.7129367027731
 30
0.0
 10
127.1829345385167
 20
-150.7129367027731
 30
0.0
 10
127.1829345385167
 20
-150.5034748972699
 30
0.0
 10
127.1829345385167
 20
-150.5034748972699
 30
0.0
 10
127.2866319126228
 20
-150.5182888078565
 30
0.0
 10
127.4385606235223
 20
-150.5224229224388
 30
0.0
 10
127.4847249030246
 20
-150.5224229224388
 30
0.0
 10
127.4847249030246
 20
-150.5224229224388
 30
0.0
 10
127.7827256624987
 20
-150.5224229224388
 30
0.0
 10
127.7827256624987
 20
-150.5224229224388
 30
0.0
 10
127.8847004888621
 20
-150.5224229224388
 30
0.0
 10
127.986330805677
 20
-150.5182888078565
 30
0.0
 10
128.0883056320404
 20
-150.5034748972699
 30
0.0
 10
128.0883056320404
 20
-150.5034748972699
 30
0.0
 10
128.0883056320404
 20
-150.7129367027731
 30
0.0
 10
128.0883056320404
 20
-150.7129367027731
 30
0.0
 10
127.9567029845039
 20
-150.6939886776043
 30
0.0
 10
127.7958170253427
 20
-150.6939886776043
 30
0.0
 10
127.7827256624987
 20
-150.6939886776043
 30
0.0
  0
SPLINE
  5
15D
330
13F
100
AcDbEntity
  8
レイヤー 1
100
AcDbSpline
210
0.0
220
0.0
230
1.0
 70
     9
 71
     3
 72
    50
 73
    46
 74
     0
 42
0.0000000001
 43
0.0000000001
 40
0.0
 40
0.0
 40
0.0
 40
0.0
 40
1.0
 40
1.0
 40
1.0
 40
2.0
 40
2.0
 40
2.0
 40
3.0
 40
3.0
 40
3.0
 40
4.0
 40
4.0
 40
4.0
 40
5.0
 40
5.0
 40
5.0
 40
6.0
 40
6.0
 40
6.0
 40
7.0
 40
7.0
 40
7.0
 40
8.0
 40
8.0
 40
8.0
 40
9.0
 40
9.0
 40
9.0
 40
10.0
 40
10.0
 40
10.0
 40
11.0
 40
11.0
 40
11.0
 40
12.0
 40
12.0
 40
12.0
 40
13.0
 40
13.0
 40
13.0
 40
14.0
 40
14.0
 40
14.0
 40
15.0
 40
15.0
 40
15.0
 40
15.0
 10
128.2143961268006
 20
-151.3199625272742
 30
0.0
 10
128.1458387266441
 20
-151.4977294543131
 30
0.0
 10
128.0273274419515
 20
-151.7051242025251
 30
0.0
 10
127.9067490999677
 20
-151.8446505696777
 30
0.0
 10
127.758609994102
 20
-152.0158718152946
 30
0.0
 10
127.6163275505612
 20
-152.1047552788141
 30
0.0
 10
127.3365857971589
 20
-152.2466932128063
 30
0.0
 10
127.3365857971589
 20
-152.2466932128063
 30
0.0
 10
127.1884466912931
 20
-152.0582464897632
 30
0.0
 10
127.1884466912931
 20
-152.0582464897632
 30
0.0
 10
127.3513997077455
 20
-152.035164350012
 30
0.0
 10
127.5012613613538
 20
-151.9483479437837
 30
0.0
 10
127.634586556633
 20
-151.8425835123866
 30
0.0
 10
127.8643744254992
 20
-151.6606824707654
 30
0.0
 10
128.0311170469853
 20
-151.3475232911562
 30
0.0
 10
128.0734917214538
 20
-151.165622249535
 30
0.0
 10
128.0734917214538
 20
-151.165622249535
 30
0.0
 10
127.4864474507673
 20
-151.165622249535
 30
0.0
 10
127.4864474507673
 20
-151.165622249535
 30
0.0
 10
127.3476101027117
 20
-151.165622249535
 30
0.0
 10
127.0919840177062
 20
-151.1738904786995
 30
0.0
 10
126.958658822427
 20
-151.1911159561258
 30
0.0
 10
126.958658822427
 20
-151.1911159561258
 30
0.0
 10
126.958658822427
 20
-150.9623616159052
 30
0.0
 10
126.958658822427
 20
-150.9623616159052
 30
0.0
 10
126.9882866436001
 20
-150.9689072973272
 30
0.0
 10
127.0106797642543
 20
-150.9751084692006
 30
0.0
 10
127.0568440437566
 20
-150.9792425837829
 30
0.0
 10
127.1457275072761
 20
-150.9857882652049
 30
0.0
 10
127.3179822815385
 20
-150.9878553224961
 30
0.0
 10
127.3920518344714
 20
-150.9878553224961
 30
0.0
 10
127.3920518344714
 20
-150.9878553224961
 30
0.0
 10
127.834746604326
 20
-150.9878553224961
 30
0.0
 10
127.834746604326
 20
-150.9878553224961
 30
0.0
 10
127.8940022466723
 20
-150.9878553224961
 30
0.0
 10
128.0218152891751
 20
-150.9837212079138
 30
0.0
 10
128.0752142691965
 20
-150.9771755264918
 30
0.0
 10
128.1382595165765
 20
-150.9689072973272
 30
0.0
 10
128.1623751849733
 20
-150.9540933867406
 30
0.0
 10
128.1920030061464
 20
-150.9306667374409
 30
0.0
 10
128.1920030061464
 20
-150.9306667374409
 30
0.0
 10
128.3363525069784
 20
-151.0977538684755
 30
0.0
 10
128.3363525069784
 20
-151.0977538684755
 30
0.0
 10
128.2753743168895
 20
-151.165622249535
 30
0.0
 10
128.2347221901635
 20
-151.269319623641
 30
0.0
 10
128.2143961268006
 20
-151.3199625272742
 30
0.0
  0
HATCH
  5
15E
330
13F
100
AcDbEntity
  8
レイヤー 1
 62
   250
420
  2299925
440
 33554687
100
AcDbHatch
 10
0.0
 20
0.0
 30
0.0
210
0.0
220
0.0
230
1.0
  2
SOLID
 70
     1
 71
     1
 91
        2
 92
        1
 93
        1
 72
     4
 94
        3
 73
     0
 74
     0
 95
       29
 96
       25
 40
0.0
 40
0.0
 40
0.0
 40
0.0
 40
1.0
 40
1.0
 40
1.0
 40
2.0
 40
2.0
 40
2.0
 40
3.0
 40
3.0
 40
3.0
 40
4.0
 40
4.0
 40
4.0
 40
5.0
 40
5.0
 40
5.0
 40
6.0
 40
6.0
 40
6.0
 40
7.0
 40
7.0
 40
7.0
 40
8.0
 40
8.0
 40
8.0
 40
8.0
 10
127.7827256624987
 20
-150.6939886776043
 10
127.7827256624987
 20
-150.6939886776043
 10
127.4847249030246
 20
-150.6939886776043
 10
127.4847249030246
 20
-150.6939886776043
 10
127.3848171339524
 20
-150.6939886776043
 10
127.282842307589
 20
-150.6981227921866
 10
127.1829345385167
 20
-150.7129367027731
 10
127.1829345385167
 20
-150.7129367027731
 10
127.1829345385167
 20
-150.5034748972699
 10
127.1829345385167
 20
-150.5034748972699
 10
127.2866319126228
 20
-150.5182888078565
 10
127.4385606235223
 20
-150.5224229224388
 10
127.4847249030246
 20
-150.5224229224388
 10
127.4847249030246
 20
-150.5224229224388
 10
127.7827256624987
 20
-150.5224229224388
 10
127.7827256624987
 20
-150.5224229224388
 10
127.8847004888621
 20
-150.5224229224388
 10
127.986330805677
 20
-150.5182888078565
 10
128.0883056320404
 20
-150.5034748972699
 10
128.0883056320404
 20
-150.5034748972699
 10
128.0883056320404
 20
-150.7129367027731
 10
128.0883056320404
 20
-150.7129367027731
 10
127.9567029845039
 20
-150.6939886776043
 10
127.7958170253427
 20
-150.6939886776043
 10
127.7827256624987
 20
-150.6939886776043
 97
        0
 97
        1
330
15C
 92
        1
 93
        1
 72
     4
 94
        3
 73
     0
 74
     0
 95
       50
 96
       46
 40
0.0
 40
0.0
 40
0.0
 40
0.0
 40
1.0
 40
1.0
 40
1.0
 40
2.0
 40
2.0
 40
2.0
 40
3.0
 40
3.0
 40
3.0
 40
4.0
 40
4.0
 40
4.0
 40
5.0
 40
5.0
 40
5.0
 40
6.0
 40
6.0
 40
6.0
 40
7.0
 40
7.0
 40
7.0
 40
8.0
 40
8.0
 40
8.0
 40
9.0
 40
9.0
 40
9.0
 40
10.0
 40
10.0
 40
10.0
 40
11.0
 40
11.0
 40
11.0
 40
12.0
 40
12.0
 40
12.0
 40
13.0
 40
13.0
 40
13.0
 40
14.0
 40
14.0
 40
14.0
 40
15.0
 40
15.0
 40
15.0
 40
15.0
 10
128.2143961268006
 20
-151.3199625272742
 10
128.1458387266441
 20
-151.4977294543131
 10
128.0273274419515
 20
-151.7051242025251
 10
127.9067490999677
 20
-151.8446505696777
 10
127.758609994102
 20
-152.0158718152946
 10
127.6163275505612
 20
-152.1047552788141
 10
127.3365857971589
 20
-152.2466932128063
 10
127.3365857971589
 20
-152.2466932128063
 10
127.1884466912931
 20
-152.0582464897632
 10
127.1884466912931
 20
-152.0582464897632
 10
127.3513997077455
 20
-152.035164350012
 10
127.5012613613538
 20
-151.9483479437837
 10
127.634586556633
 20
-151.8425835123866
 10
127.8643744254992
 20
-151.6606824707654
 10
128.0311170469853
 20
-151.3475232911562
 10
128.0734917214538
 20
-151.165622249535
 10
128.0734917214538
 20
-151.165622249535
 10
127.4864474507673
 20
-151.165622249535
 10
127.4864474507673
 20
-151.165622249535
 10
127.3476101027117
 20
-151.165622249535
 10
127.0919840177062
 20
-151.1738904786995
 10
126.958658822427
 20
-151.1911159561258
 10
126.958658822427
 20
-151.1911159561258
 10
126.958658822427
 20
-150.9623616159052
 10
126.958658822427
 20
-150.9623616159052
 10
126.9882866436001
 20
-150.9689072973272
 10
127.0106797642543
 20
-150.9751084692006
 10
127.0568440437566
 20
-150.9792425837829
 10
127.1457275072761
 20
-150.9857882652049
 10
127.3179822815385
 20
-150.9878553224961
 10
127.3920518344714
 20
-150.9878553224961
 10
127.3920518344714
 20
-150.9878553224961
 10
127.834746604326
 20
-150.9878553224961
 10
127.834746604326
 20
-150.9878553224961
 10
127.8940022466723
 20
-150.9878553224961
 10
128.0218152891751
 20
-150.9837212079138
 10
128.0752142691965
 20
-150.9771755264918
 10
128.1382595165765
 20
-150.9689072973272
 10
128.1623751849733
 20
-150.9540933867406
 10
128.1920030061464
 20
-150.9306667374409
 10
128.1920030061464
 20
-150.9306667374409
 10
128.3363525069784
 20
-151.0977538684755
 10
128.3363525069784
 20
-151.0977538684755
 10
128.2753743168895
 20
-151.165622249535
 10
128.2347221901635
 20
-151.269319623641
 10
128.2143961268006
 20
-151.3199625272742
 97
        0
 97
        1
330
15D
 75
     2
 76
     1
 98
        1
 10
0.0
 20
0.0
450
        0
451
        0
460
0.0
461
0.0
452
        0
462
0.0
453
        0
470

  0
SPLINE
  5
15F
330
13F
100
AcDbEntity
  8
レイヤー 1
100
AcDbSpline
210
0.0
220
0.0
230
1.0
 70
     9
 71
     3
 72
    50
 73
    46
 74
     0
 42
0.0000000001
 43
0.0000000001
 40
0.0
 40
0.0
 40
0.0
 40
0.0
 40
1.0
 40
1.0
 40
1.0
 40
2.0
 40
2.0
 40
2.0
 40
3.0
 40
3.0
 40
3.0
 40
4.0
 40
4.0
 40
4.0
 40
5.0
 40
5.0
 40
5.0
 40
6.0
 40
6.0
 40
6.0
 40
7.0
 40
7.0
 40
7.0
 40
8.0
 40
8.0
 40
8.0
 40
9.0
 40
9.0
 40
9.0
 40
10.0
 40
10.0
 40
10.0
 40
11.0
 40
11.0
 40
11.0
 40
12.0
 40
12.0
 40
12.0
 40
13.0
 40
13.0
 40
13.0
 40
14.0
 40
14.0
 40
14.0
 40
15.0
 40
15.0
 40
15.0
 40
15.0
 10
129.7123236437872
 20
-150.6791747670177
 30
0.0
 10
129.5290445639719
 20
-150.8927706871032
 30
0.0
 10
129.4663438261403
 20
-150.9647731827449
 30
0.0
 10
129.3419758791228
 20
-151.082939957889
 30
0.0
 10
129.3419758791228
 20
-151.082939957889
 30
0.0
 10
129.3419758791228
 20
-151.6500026747611
 30
0.0
 10
129.3419758791228
 20
-151.6500026747611
 30
0.0
 10
129.3419758791228
 20
-151.800208837918
 30
0.0
 10
129.3478325414477
 20
-151.8191568630868
 30
0.0
 10
129.351277636933
 20
-151.9969237901257
 30
0.0
 10
129.3533446942241
 20
-152.1281819281138
 30
0.0
 10
129.3588568470005
 20
-152.1767577744558
 30
0.0
 10
129.3643689997769
 20
-152.2360134168021
 30
0.0
 10
129.3643689997769
 20
-152.2360134168021
 30
0.0
 10
129.1662760093751
 20
-152.2360134168021
 30
0.0
 10
129.1662760093751
 20
-152.2360134168021
 30
0.0
 10
129.1700656144089
 20
-152.1915716850424
 30
0.0
 10
129.1735107098941
 20
-152.1450628959915
 30
0.0
 10
129.1735107098941
 20
-152.1364501572784
 30
0.0
 10
129.1735107098941
 20
-152.056179432472
 30
0.0
 10
129.1773003149279
 20
-151.7051242025251
 30
0.0
 10
129.1773003149279
 20
-151.6331217068834
 30
0.0
 10
129.1773003149279
 20
-151.6331217068834
 30
0.0
 10
129.1773003149279
 20
-151.2269449491724
 30
0.0
 10
129.1773003149279
 20
-151.2269449491724
 30
0.0
 10
129.0181369035094
 20
-151.3516574057385
 30
0.0
 10
128.8476046769895
 20
-151.4619004612665
 30
0.0
 10
128.6698377499506
 20
-151.5483723579462
 30
0.0
 10
128.6698377499506
 20
-151.5483723579462
 30
0.0
 10
128.4920708229117
 20
-151.3854193414939
 30
0.0
 10
128.4920708229117
 20
-151.3854193414939
 30
0.0
 10
128.5995578020515
 20
-151.3495903484473
 30
0.0
 10
128.8234890085927
 20
-151.2755207955144
 30
0.0
 10
129.1252793731006
 20
-151.0195502009604
 30
0.0
 10
129.3144151152408
 20
-150.8610758086389
 30
0.0
 10
129.4828802844695
 20
-150.6726290855957
 30
0.0
 10
129.6162054797487
 20
-150.4524874840882
 30
0.0
 10
129.6162054797487
 20
-150.4524874840882
 30
0.0
 10
129.7846706489774
 20
-150.5964924753717
 30
0.0
 10
129.7846706489774
 20
-150.5964924753717
 30
0.0
 10
129.7956949545302
 20
-150.607172271376
 30
0.0
 10
129.8032741645978
 20
-150.6219861819625
 30
0.0
 10
129.8032741645978
 20
-150.634733035258
 30
0.0
 10
129.8032741645978
 20
-150.6746961428869
 30
0.0
 10
129.7698567383908
 20
-150.6746961428869
 30
0.0
 10
129.7123236437872
 20
-150.6791747670177
 30
0.0
  0
HATCH
  5
160
330
13F
100
AcDbEntity
  8
レイヤー 1
 62
   250
420
  2299925
440
 33554687
100
AcDbHatch
 10
0.0
 20
0.0
 30
0.0
210
0.0
220
0.0
230
1.0
  2
SOLID
 70
     1
 71
     1
 91
        1
 92
        1
 93
        1
 72
     4
 94
        3
 73
     0
 74
     0
 95
       50
 96
       46
 40
0.0
 40
0.0
 40
0.0
 40
0.0
 40
1.0
 40
1.0
 40
1.0
 40
2.0
 40
2.0
 40
2.0
 40
3.0
 40
3.0
 40
3.0
 40
4.0
 40
4.0
 40
4.0
 40
5.0
 40
5.0
 40
5.0
 40
6.0
 40
6.0
 40
6.0
 40
7.0
 40
7.0
 40
7.0
 40
8.0
 40
8.0
 40
8.0
 40
9.0
 40
9.0
 40
9.0
 40
10.0
 40
10.0
 40
10.0
 40
11.0
 40
11.0
 40
11.0
 40
12.0
 40
12.0
 40
12.0
 40
13.0
 40
13.0
 40
13.0
 40
14.0
 40
14.0
 40
14.0
 40
15.0
 40
15.0
 40
15.0
 40
15.0
 10
129.7123236437872
 20
-150.6791747670177
 10
129.5290445639719
 20
-150.8927706871032
 10
129.4663438261403
 20
-150.9647731827449
 10
129.3419758791228
 20
-151.082939957889
 10
129.3419758791228
 20
-151.082939957889
 10
129.3419758791228
 20
-151.6500026747611
 10
129.3419758791228
 20
-151.6500026747611
 10
129.3419758791228
 20
-151.800208837918
 10
129.3478325414477
 20
-151.8191568630868
 10
129.351277636933
 20
-151.9969237901257
 10
129.3533446942241
 20
-152.1281819281138
 10
129.3588568470005
 20
-152.1767577744558
 10
129.3643689997769
 20
-152.2360134168021
 10
129.3643689997769
 20
-152.2360134168021
 10
129.1662760093751
 20
-152.2360134168021
 10
129.1662760093751
 20
-152.2360134168021
 10
129.1700656144089
 20
-152.1915716850424
 10
129.1735107098941
 20
-152.1450628959915
 10
129.1735107098941
 20
-152.1364501572784
 10
129.1735107098941
 20
-152.056179432472
 10
129.1773003149279
 20
-151.7051242025251
 10
129.1773003149279
 20
-151.6331217068834
 10
129.1773003149279
 20
-151.6331217068834
 10
129.1773003149279
 20
-151.2269449491724
 10
129.1773003149279
 20
-151.2269449491724
 10
129.0181369035094
 20
-151.3516574057385
 10
128.8476046769895
 20
-151.4619004612665
 10
128.6698377499506
 20
-151.5483723579462
 10
128.6698377499506
 20
-151.5483723579462
 10
128.4920708229117
 20
-151.3854193414939
 10
128.4920708229117
 20
-151.3854193414939
 10
128.5995578020515
 20
-151.3495903484473
 10
128.8234890085927
 20
-151.2755207955144
 10
129.1252793731006
 20
-151.0195502009604
 10
129.3144151152408
 20
-150.8610758086389
 10
129.4828802844695
 20
-150.6726290855957
 10
129.6162054797487
 20
-150.4524874840882
 10
129.6162054797487
 20
-150.4524874840882
 10
129.7846706489774
 20
-150.5964924753717
 10
129.7846706489774
 20
-150.5964924753717
 10
129.7956949545302
 20
-150.607172271376
 10
129.8032741645978
 20
-150.6219861819625
 10
129.8032741645978
 20
-150.634733035258
 10
129.8032741645978
 20
-150.6746961428869
 10
129.7698567383908
 20
-150.6746961428869
 10
129.7123236437872
 20
-150.6791747670177
 97
        0
 97
        1
330
15F
 75
     2
 76
     1
 98
        1
 10
0.0
 20
0.0
450
        0
451
        0
460
0.0
461
0.0
452
        0
462
0.0
453
        0
470

  0
SPLINE
  5
161
330
13F
100
AcDbEntity
  8
レイヤー 1
100
AcDbSpline
210
0.0
220
0.0
230
1.0
 70
     9
 71
     3
 72
    50
 73
    46
 74
     0
 42
0.0000000001
 43
0.0000000001
 40
0.0
 40
0.0
 40
0.0
 40
0.0
 40
1.0
 40
1.0
 40
1.0
 40
2.0
 40
2.0
 40
2.0
 40
3.0
 40
3.0
 40
3.0
 40
4.0
 40
4.0
 40
4.0
 40
5.0
 40
5.0
 40
5.0
 40
6.0
 40
6.0
 40
6.0
 40
7.0
 40
7.0
 40
7.0
 40
8.0
 40
8.0
 40
8.0
 40
9.0
 40
9.0
 40
9.0
 40
10.0
 40
10.0
 40
10.0
 40
11.0
 40
11.0
 40
11.0
 40
12.0
 40
12.0
 40
12.0
 40
13.0
 40
13.0
 40
13.0
 40
14.0
 40
14.0
 40
14.0
 40
15.0
 40
15.0
 40
15.0
 40
15.0
 10
131.2085286130312
 20
-151.2059298667124
 30
0.0
 10
131.1551296330098
 20
-151.2775878528056
 30
0.0
 10
130.9270643118862
 20
-151.5948811469971
 30
0.0
 10
130.8771104273501
 20
-151.6586154134742
 30
0.0
 10
130.951179980283
 20
-151.7557671061583
 30
0.0
 10
130.9956217120427
 20
-151.8191568630868
 30
0.0
 10
131.0531548066464
 20
-151.9101073838974
 30
0.0
 10
131.0531548066464
 20
-151.9101073838974
 30
0.0
 10
130.8919243379367
 20
-152.0479112033074
 30
0.0
 10
130.8919243379367
 20
-152.0479112033074
 30
0.0
 10
130.7734130532441
 20
-151.8360378309646
 30
0.0
 10
130.6235513996357
 20
-151.6121066244233
 30
0.0
 10
130.3662027668876
 20
-151.4129801053759
 30
0.0
 10
130.3662027668876
 20
-151.4129801053759
 30
0.0
 10
130.495738357133
 20
-151.2586398276367
 30
0.0
 10
130.495738357133
 20
-151.2586398276367
 30
0.0
 10
130.59220103072
 20
-151.338910552443
 30
0.0
 10
130.682807041982
 20
-151.4277940159625
 30
0.0
 10
130.7679009004677
 20
-151.5232231609039
 30
0.0
 10
130.827156542814
 20
-151.4470865506799
 30
0.0
 10
131.0049234698529
 20
-151.2035182998727
 30
0.0
 10
131.1217122068029
 20
-150.9751084692006
 30
0.0
 10
131.1217122068029
 20
-150.9751084692006
 30
0.0
 10
130.5329453883737
 20
-150.9751084692006
 30
0.0
 10
130.5329453883737
 20
-150.9751084692006
 30
0.0
 10
130.4233913519427
 20
-150.9751084692006
 30
0.0
 10
130.2032497504353
 20
-150.9837212079138
 30
0.0
 10
130.01997067062
 20
-150.9940564943695
 30
0.0
 10
130.01997067062
 20
-150.9940564943695
 30
0.0
 10
130.01997067062
 20
-150.7742594024106
 30
0.0
 10
130.01997067062
 20
-150.7742594024106
 30
0.0
 10
130.1808566297812
 20
-150.7932074275795
 30
0.0
 10
130.3606906141112
 20
-150.7973415421617
 30
0.0
 10
130.5253661783061
 20
-150.7973415421617
 30
0.0
 10
130.5253661783061
 20
-150.7973415421617
 30
0.0
 10
130.9659938908696
 20
-150.7973415421617
 30
0.0
 10
130.9659938908696
 20
-150.7973415421617
 30
0.0
 10
131.2622721026011
 20
-150.7973415421617
 30
0.0
 10
131.3012016815844
 20
-150.7825276315752
 30
0.0
 10
131.3735486867747
 20
-150.7425645239463
 30
0.0
 10
131.3735486867747
 20
-150.7425645239463
 30
0.0
 10
131.5196207353492
 20
-150.9010389162678
 30
0.0
 10
131.5196207353492
 20
-150.9010389162678
 30
0.0
 10
131.3862955400701
 20
-150.9730414119095
 30
0.0
 10
131.2605495548584
 20
-151.1359944283618
 30
0.0
 10
131.2085286130312
 20
-151.2059298667124
 30
0.0
  0
HATCH
  5
162
330
13F
100
AcDbEntity
  8
レイヤー 1
 62
   250
420
  2299925
440
 33554687
100
AcDbHatch
 10
0.0
 20
0.0
 30
0.0
210
0.0
220
0.0
230
1.0
  2
SOLID
 70
     1
 71
     1
 91
        1
 92
        1
 93
        1
 72
     4
 94
        3
 73
     0
 74
     0
 95
       50
 96
       46
 40
0.0
 40
0.0
 40
0.0
 40
0.0
 40
1.0
 40
1.0
 40
1.0
 40
2.0
 40
2.0
 40
2.0
 40
3.0
 40
3.0
 40
3.0
 40
4.0
 40
4.0
 40
4.0
 40
5.0
 40
5.0
 40
5.0
 40
6.0
 40
6.0
 40
6.0
 40
7.0
 40
7.0
 40
7.0
 40
8.0
 40
8.0
 40
8.0
 40
9.0
 40
9.0
 40
9.0
 40
10.0
 40
10.0
 40
10.0
 40
11.0
 40
11.0
 40
11.0
 40
12.0
 40
12.0
 40
12.0
 40
13.0
 40
13.0
 40
13.0
 40
14.0
 40
14.0
 40
14.0
 40
15.0
 40
15.0
 40
15.0
 40
15.0
 10
131.2085286130312
 20
-151.2059298667124
 10
131.1551296330098
 20
-151.2775878528056
 10
130.9270643118862
 20
-151.5948811469971
 10
130.8771104273501
 20
-151.6586154134742
 10
130.951179980283
 20
-151.7557671061583
 10
130.9956217120427
 20
-151.8191568630868
 10
131.0531548066464
 20
-151.9101073838974
 10
131.0531548066464
 20
-151.9101073838974
 10
130.8919243379367
 20
-152.0479112033074
 10
130.8919243379367
 20
-152.0479112033074
 10
130.7734130532441
 20
-151.8360378309646
 10
130.6235513996357
 20
-151.6121066244233
 10
130.3662027668876
 20
-151.4129801053759
 10
130.3662027668876
 20
-151.4129801053759
 10
130.495738357133
 20
-151.2586398276367
 10
130.495738357133
 20
-151.2586398276367
 10
130.59220103072
 20
-151.338910552443
 10
130.682807041982
 20
-151.4277940159625
 10
130.7679009004677
 20
-151.5232231609039
 10
130.827156542814
 20
-151.4470865506799
 10
131.0049234698529
 20
-151.2035182998727
 10
131.1217122068029
 20
-150.9751084692006
 10
131.1217122068029
 20
-150.9751084692006
 10
130.5329453883737
 20
-150.9751084692006
 10
130.5329453883737
 20
-150.9751084692006
 10
130.4233913519427
 20
-150.9751084692006
 10
130.2032497504353
 20
-150.9837212079138
 10
130.01997067062
 20
-150.9940564943695
 10
130.01997067062
 20
-150.9940564943695
 10
130.01997067062
 20
-150.7742594024106
 10
130.01997067062
 20
-150.7742594024106
 10
130.1808566297812
 20
-150.7932074275795
 10
130.3606906141112
 20
-150.7973415421617
 10
130.5253661783061
 20
-150.7973415421617
 10
130.5253661783061
 20
-150.7973415421617
 10
130.9659938908696
 20
-150.7973415421617
 10
130.9659938908696
 20
-150.7973415421617
 10
131.2622721026011
 20
-150.7973415421617
 10
131.3012016815844
 20
-150.7825276315752
 10
131.3735486867747
 20
-150.7425645239463
 10
131.3735486867747
 20
-150.7425645239463
 10
131.5196207353492
 20
-150.9010389162678
 10
131.5196207353492
 20
-150.9010389162678
 10
131.3862955400701
 20
-150.9730414119095
 10
131.2605495548584
 20
-151.1359944283618
 10
131.2085286130312
 20
-151.2059298667124
 97
        0
 97
        1
330
161
 75
     2
 76
     1
 98
        1
 10
0.0
 20
0.0
450
        0
451
        0
460
0.0
461
0.0
452
        0
462
0.0
453
        0
470

  0
SPLINE
  5
163
330
13F
100
AcDbEntity
  8
レイヤー 1
100
AcDbSpline
210
0.0
220
0.0
230
1.0
 70
     9
 71
     3
 72
    29
 73
    25
 74
     0
 42
0.0000000001
 43
0.0000000001
 40
0.0
 40
0.0
 40
0.0
 40
0.0
 40
1.0
 40
1.0
 40
1.0
 40
2.0
 40
2.0
 40
2.0
 40
3.0
 40
3.0
 40
3.0
 40
4.0
 40
4.0
 40
4.0
 40
5.0
 40
5.0
 40
5.0
 40
6.0
 40
6.0
 40
6.0
 40
7.0
 40
7.0
 40
7.0
 40
8.0
 40
8.0
 40
8.0
 40
8.0
 10
132.6310085388908
 20
-151.449153607971
 30
0.0
 10
132.6310085388908
 20
-151.449153607971
 30
0.0
 10
132.2069172846566
 20
-151.449153607971
 30
0.0
 10
132.2069172846566
 20
-151.449153607971
 30
0.0
 10
132.1828016162598
 20
-151.449153607971
 30
0.0
 10
131.9047824106002
 20
-151.449153607971
 30
0.0
 10
131.7197807830423
 20
-151.4743028050133
 30
0.0
 10
131.7197807830423
 20
-151.4743028050133
 30
0.0
 10
131.7197807830423
 20
-151.2438259170501
 30
0.0
 10
131.7197807830423
 20
-151.2438259170501
 30
0.0
 10
131.8586181310978
 20
-151.2672525663498
 30
0.0
 10
132.0253607525839
 20
-151.269319623641
 30
0.0
 10
132.2069172846566
 20
-151.269319623641
 30
0.0
 10
132.2069172846566
 20
-151.269319623641
 30
0.0
 10
132.6310085388908
 20
-151.269319623641
 30
0.0
 10
132.6310085388908
 20
-151.269319623641
 30
0.0
 10
132.7936170457946
 20
-151.269319623641
 30
0.0
 10
132.9569145717955
 20
-151.2672525663498
 30
0.0
 10
133.1178005309566
 20
-151.2438259170501
 30
0.0
 10
133.1178005309566
 20
-151.2438259170501
 30
0.0
 10
133.1178005309566
 20
-151.4743028050133
 30
0.0
 10
133.1178005309566
 20
-151.4743028050133
 30
0.0
 10
132.9569145717955
 20
-151.4512206652622
 30
0.0
 10
132.7402180657733
 20
-151.449153607971
 30
0.0
 10
132.6310085388908
 20
-151.449153607971
 30
0.0
  0
HATCH
  5
164
330
13F
100
AcDbEntity
  8
レイヤー 1
 62
   250
420
  2299925
440
 33554687
100
AcDbHatch
 10
0.0
 20
0.0
 30
0.0
210
0.0
220
0.0
230
1.0
  2
SOLID
 70
     1
 71
     1
 91
        1
 92
        1
 93
        1
 72
     4
 94
        3
 73
     0
 74
     0
 95
       29
 96
       25
 40
0.0
 40
0.0
 40
0.0
 40
0.0
 40
1.0
 40
1.0
 40
1.0
 40
2.0
 40
2.0
 40
2.0
 40
3.0
 40
3.0
 40
3.0
 40
4.0
 40
4.0
 40
4.0
 40
5.0
 40
5.0
 40
5.0
 40
6.0
 40
6.0
 40
6.0
 40
7.0
 40
7.0
 40
7.0
 40
8.0
 40
8.0
 40
8.0
 40
8.0
 10
132.6310085388908
 20
-151.449153607971
 10
132.6310085388908
 20
-151.449153607971
 10
132.2069172846566
 20
-151.449153607971
 10
132.2069172846566
 20
-151.449153607971
 10
132.1828016162598
 20
-151.449153607971
 10
131.9047824106002
 20
-151.449153607971
 10
131.7197807830423
 20
-151.4743028050133
 10
131.7197807830423
 20
-151.4743028050133
 10
131.7197807830423
 20
-151.2438259170501
 10
131.7197807830423
 20
-151.2438259170501
 10
131.8586181310978
 20
-151.2672525663498
 10
132.0253607525839
 20
-151.269319623641
 10
132.2069172846566
 20
-151.269319623641
 10
132.2069172846566
 20
-151.269319623641
 10
132.6310085388908
 20
-151.269319623641
 10
132.6310085388908
 20
-151.269319623641
 10
132.7936170457946
 20
-151.269319623641
 10
132.9569145717955
 20
-151.2672525663498
 10
133.1178005309566
 20
-151.2438259170501
 10
133.1178005309566
 20
-151.2438259170501
 10
133.1178005309566
 20
-151.4743028050133
 10
133.1178005309566
 20
-151.4743028050133
 10
132.9569145717955
 20
-151.4512206652622
 10
132.7402180657733
 20
-151.449153607971
 10
132.6310085388908
 20
-151.449153607971
 97
        0
 97
        1
330
163
 75
     2
 76
     1
 98
        1
 10
0.0
 20
0.0
450
        0
451
        0
460
0.0
461
0.0
452
        0
462
0.0
453
        0
470

  0
SPLINE
  5
165
330
13F
100
AcDbEntity
  8
レイヤー 1
100
AcDbSpline
210
0.0
220
0.0
230
1.0
 70
     9
 71
     3
 72
    20
 73
    16
 74
     0
 42
0.0000000001
 43
0.0000000001
 40
0.0
 40
0.0
 40
0.0
 40
0.0
 40
1.0
 40
1.0
 40
1.0
 40
2.0
 40
2.0
 40
2.0
 40
3.0
 40
3.0
 40
3.0
 40
4.0
 40
4.0
 40
4.0
 40
5.0
 40
5.0
 40
5.0
 40
5.0
 10
134.2067952138441
 20
-151.800208837918
 30
0.0
 10
134.1661430871182
 20
-151.6224419108791
 30
0.0
 10
134.0810492286325
 20
-151.4808484864353
 30
0.0
 10
133.9587483389061
 20
-151.3709499404559
 30
0.0
 10
133.9587483389061
 20
-151.3709499404559
 30
0.0
 10
134.0996527442528
 20
-151.2565727703456
 30
0.0
 10
134.0996527442528
 20
-151.2565727703456
 30
0.0
 10
134.1530517242742
 20
-151.2989474448141
 30
0.0
 10
134.1885362077723
 20
-151.3327093805696
 30
0.0
 10
134.2550265506376
 20
-151.4405408692579
 30
0.0
 10
134.3253064985367
 20
-151.5569850966593
 30
0.0
 10
134.3439100141571
 20
-151.6096950575837
 30
0.0
 10
134.3663031348112
 20
-151.6754963813519
 30
0.0
 10
134.3663031348112
 20
-151.6754963813519
 30
0.0
 10
134.2067952138441
 20
-151.800208837918
 30
0.0
 10
134.2067952138441
 20
-151.800208837918
 30
0.0
  0
SPLINE
  5
166
330
13F
100
AcDbEntity
  8
レイヤー 1
100
AcDbSpline
210
0.0
220
0.0
230
1.0
 70
     9
 71
     3
 72
    77
 73
    73
 74
     0
 42
0.0000000001
 43
0.0000000001
 40
0.0
 40
0.0
 40
0.0
 40
0.0
 40
1.0
 40
1.0
 40
1.0
 40
2.0
 40
2.0
 40
2.0
 40
3.0
 40
3.0
 40
3.0
 40
4.0
 40
4.0
 40
4.0
 40
5.0
 40
5.0
 40
5.0
 40
6.0
 40
6.0
 40
6.0
 40
7.0
 40
7.0
 40
7.0
 40
8.0
 40
8.0
 40
8.0
 40
9.0
 40
9.0
 40
9.0
 40
10.0
 40
10.0
 40
10.0
 40
11.0
 40
11.0
 40
11.0
 40
12.0
 40
12.0
 40
12.0
 40
13.0
 40
13.0
 40
13.0
 40
14.0
 40
14.0
 40
14.0
 40
15.0
 40
15.0
 40
15.0
 40
16.0
 40
16.0
 40
16.0
 40
17.0
 40
17.0
 40
17.0
 40
18.0
 40
18.0
 40
18.0
 40
19.0
 40
19.0
 40
19.0
 40
20.0
 40
20.0
 40
20.0
 40
21.0
 40
21.0
 40
21.0
 40
22.0
 40
22.0
 40
22.0
 40
23.0
 40
23.0
 40
23.0
 40
24.0
 40
24.0
 40
24.0
 40
24.0
 10
134.8810004003075
 20
-151.0746717287244
 30
0.0
 10
134.8200222102186
 20
-151.0705376141421
 30
0.0
 10
134.7607665678723
 20
-151.0705376141421
 30
0.0
 10
134.701510925526
 20
-151.0705376141421
 30
0.0
 10
134.701510925526
 20
-151.0705376141421
 30
0.0
 10
134.701510925526
 20
-151.8446505696777
 30
0.0
 10
134.701510925526
 20
-151.8446505696777
 30
0.0
 10
134.701510925526
 20
-152.1092339029449
 30
0.0
 10
134.6994438682349
 20
-152.138861724118
 30
0.0
 10
134.6939317154584
 20
-152.1684895452912
 30
0.0
 10
134.6643038942853
 20
-152.3014702310218
 30
0.0
 10
134.5754204307658
 20
-152.310082969735
 30
0.0
 10
134.4217691721237
 20
-152.310082969735
 30
0.0
 10
134.3866291981742
 20
-152.310082969735
 30
0.0
 10
134.3718152875876
 20
-152.310082969735
 30
0.0
 10
134.336675313638
 20
-152.3059488551526
 30
0.0
 10
134.336675313638
 20
-152.3059488551526
 30
0.0
 10
134.2274657867556
 20
-152.0647921711852
 30
0.0
 10
134.2274657867556
 20
-152.0647921711852
 30
0.0
 10
134.3290961035705
 20
-152.0964870496495
 30
0.0
 10
134.4014431087607
 20
-152.0964870496495
 30
0.0
 10
134.4217691721237
 20
-152.0964870496495
 30
0.0
 10
134.4827473622126
 20
-152.0964870496495
 30
0.0
 10
134.5123751833858
 20
-152.0796060817717
 30
0.0
 10
134.5161647884196
 20
-152.0224174967166
 30
0.0
 10
134.5161647884196
 20
-152.0096706434212
 30
0.0
 10
134.5178873361622
 20
-151.9125189507371
 30
0.0
 10
134.5178873361622
 20
-151.855330365682
 30
0.0
 10
134.5178873361622
 20
-151.855330365682
 30
0.0
 10
134.5178873361622
 20
-151.0681260473024
 30
0.0
 10
134.5178873361622
 20
-151.0681260473024
 30
0.0
 10
134.5178873361622
 20
-151.0681260473024
 30
0.0
 10
134.260538703414
 20
-151.0681260473024
 30
0.0
 10
134.260538703414
 20
-151.0681260473024
 30
0.0
 10
134.1327256609112
 20
-151.0681260473024
 30
0.0
 10
134.0049126184085
 20
-151.0746717287244
 30
0.0
 10
133.8791666331969
 20
-151.0874185820198
 30
0.0
 10
133.8791666331969
 20
-151.0874185820198
 30
0.0
 10
133.8791666331969
 20
-150.8800238338077
 30
0.0
 10
133.8791666331969
 20
-150.8800238338077
 30
0.0
 10
134.0107692807334
 20
-150.8927706871032
 30
0.0
 10
134.2012830610677
 20
-150.8969048016855
 30
0.0
 10
134.260538703414
 20
-150.8969048016855
 30
0.0
 10
134.260538703414
 20
-150.8969048016855
 30
0.0
 10
134.5178873361622
 20
-150.8969048016855
 30
0.0
 10
134.5178873361622
 20
-150.8969048016855
 30
0.0
 10
134.5161647884196
 20
-150.628187353836
 30
0.0
 10
134.5161647884196
 20
-150.552050743612
 30
0.0
 10
134.508585578352
 20
-150.4039116377462
 30
0.0
 10
134.508585578352
 20
-150.4039116377462
 30
0.0
 10
134.7345838421844
 20
-150.4421521976325
 30
0.0
 10
134.7345838421844
 20
-150.4421521976325
 30
0.0
 10
134.7476752050283
 20
-150.4442192549236
 30
0.0
 10
134.7607665678723
 20
-150.4504204267971
 30
0.0
 10
134.7607665678723
 20
-150.4717800188057
 30
0.0
 10
134.7607665678723
 20
-150.4907280439745
 30
0.0
 10
134.7549099055473
 20
-150.4927951012657
 30
0.0
 10
134.7049560210112
 20
-150.5265570370211
 30
0.0
 10
134.701510925526
 20
-150.6051052140848
 30
0.0
 10
134.701510925526
 20
-150.6199191246714
 30
0.0
 10
134.701510925526
 20
-150.8969048016855
 30
0.0
 10
134.8568847319107
 20
-150.8927706871032
 30
0.0
 10
134.8734211902399
 20
-150.8927706871032
 30
0.0
 10
134.9030490114131
 20
-150.8882920629723
 30
0.0
 10
134.9474907431728
 20
-150.8841579483901
 30
0.0
 10
134.9512803482066
 20
-150.8820908910989
 30
0.0
 10
134.9902099271899
 20
-150.8800238338077
 30
0.0
 10
134.9902099271899
 20
-150.8800238338077
 30
0.0
 10
134.9902099271899
 20
-151.0874185820198
 30
0.0
 10
134.9902099271899
 20
-151.0874185820198
 30
0.0
 10
134.9643717110506
 20
-151.0853515247287
 30
0.0
 10
134.916140374257
 20
-151.0767387860155
 30
0.0
 10
134.8810004003075
 20
-151.0746717287244
 30
0.0
  0
SPLINE
  5
167
330
13F
100
AcDbEntity
  8
レイヤー 1
100
AcDbSpline
210
0.0
220
0.0
230
1.0
 70
     9
 71
     3
 72
    53
 73
    49
 74
     0
 42
0.0000000001
 43
0.0000000001
 40
0.0
 40
0.0
 40
0.0
 40
0.0
 40
1.0
 40
1.0
 40
1.0
 40
2.0
 40
2.0
 40
2.0
 40
3.0
 40
3.0
 40
3.0
 40
4.0
 40
4.0
 40
4.0
 40
5.0
 40
5.0
 40
5.0
 40
6.0
 40
6.0
 40
6.0
 40
7.0
 40
7.0
 40
7.0
 40
8.0
 40
8.0
 40
8.0
 40
9.0
 40
9.0
 40
9.0
 40
10.0
 40
10.0
 40
10.0
 40
11.0
 40
11.0
 40
11.0
 40
12.0
 40
12.0
 40
12.0
 40
13.0
 40
13.0
 40
13.0
 40
14.0
 40
14.0
 40
14.0
 40
15.0
 40
15.0
 40
15.0
 40
16.0
 40
16.0
 40
16.0
 40
16.0
 10
133.8736544804205
 20
-150.5754773929117
 30
0.0
 10
133.8143988380742
 20
-150.7277506133597
 30
0.0
 10
133.7771918068335
 20
-150.8059542808749
 30
0.0
 10
133.7441188901751
 20
-150.8734781523858
 30
0.0
 10
133.7809814118672
 20
-150.8948377443943
 30
0.0
 10
133.784771016901
 20
-150.8969048016855
 30
0.0
 10
133.784771016901
 20
-150.9117187122721
 30
0.0
 10
133.784771016901
 20
-150.9244655655675
 30
0.0
 10
133.7551431957279
 20
-150.9582275013229
 30
0.0
 10
133.7458414379177
 20
-150.9668402400361
 30
0.0
 10
133.7441188901751
 20
-151.1635551922438
 30
0.0
 10
133.7441188901751
 20
-151.1845702747038
 30
0.0
 10
133.7441188901751
 20
-151.317895469983
 30
0.0
 10
133.7420518328839
 20
-151.3306423232784
 30
0.0
 10
133.7420518328839
 20
-151.345456233865
 30
0.0
 10
133.7420518328839
 20
-151.3602701444516
 30
0.0
 10
133.7420518328839
 20
-151.3602701444516
 30
0.0
 10
133.7420518328839
 20
-151.8952934733109
 30
0.0
 10
133.7420518328839
 20
-151.8952934733109
 30
0.0
 10
133.7420518328839
 20
-151.9672959689526
 30
0.0
 10
133.7458414379177
 20
-152.2022514810466
 30
0.0
 10
133.7534206479852
 20
-152.3121500270261
 30
0.0
 10
133.7534206479852
 20
-152.3121500270261
 30
0.0
 10
133.5401692374483
 20
-152.3121500270261
 30
0.0
 10
133.5401692374483
 20
-152.3121500270261
 30
0.0
 10
133.5604953008113
 20
-152.1536756347046
 30
0.0
 10
133.5663519631362
 20
-151.9125189507371
 30
0.0
 10
133.5663519631362
 20
-151.8911593587286
 30
0.0
 10
133.5663519631362
 20
-151.8911593587286
 30
0.0
 10
133.5663519631362
 20
-151.1738904786995
 30
0.0
 10
133.5663519631362
 20
-151.1738904786995
 30
0.0
 10
133.4867702574269
 20
-151.2882676488099
 30
0.0
 10
133.433026767857
 20
-151.3475232911562
 30
0.0
 10
133.3958197366163
 20
-151.3898979656247
 30
0.0
 10
133.3958197366163
 20
-151.3898979656247
 30
0.0
 10
133.2290771151302
 20
-151.2524386557633
 30
0.0
 10
133.2290771151302
 20
-151.2524386557633
 30
0.0
 10
133.4754014423256
 20
-151.0364311688381
 30
0.0
 10
133.6438666115543
 20
-150.7277506133597
 30
0.0
 10
133.7420518328839
 20
-150.3911647844508
 30
0.0
 10
133.7420518328839
 20
-150.3911647844508
 30
0.0
 10
133.9346326705094
 20
-150.5055419545611
 30
0.0
 10
133.9346326705094
 20
-150.5055419545611
 30
0.0
 10
133.9456569760622
 20
-150.5117431264345
 30
0.0
 10
133.9532361861297
 20
-150.5162217505654
 30
0.0
 10
133.9532361861297
 20
-150.531035661152
 30
0.0
 10
133.9532361861297
 20
-150.5561848581943
 30
0.0
 10
133.9384222755432
 20
-150.5606634823251
 30
0.0
 10
133.8736544804205
 20
-150.5754773929117
 30
0.0
  0
HATCH
  5
168
330
13F
100
AcDbEntity
  8
レイヤー 1
 62
   250
420
  2299925
440
 33554687
100
AcDbHatch
 10
0.0
 20
0.0
 30
0.0
210
0.0
220
0.0
230
1.0
  2
SOLID
 70
     1
 71
     1
 91
        3
 92
        1
 93
        1
 72
     4
 94
        3
 73
     0
 74
     0
 95
       20
 96
       16
 40
0.0
 40
0.0
 40
0.0
 40
0.0
 40
1.0
 40
1.0
 40
1.0
 40
2.0
 40
2.0
 40
2.0
 40
3.0
 40
3.0
 40
3.0
 40
4.0
 40
4.0
 40
4.0
 40
5.0
 40
5.0
 40
5.0
 40
5.0
 10
134.2067952138441
 20
-151.800208837918
 10
134.1661430871182
 20
-151.6224419108791
 10
134.0810492286325
 20
-151.4808484864353
 10
133.9587483389061
 20
-151.3709499404559
 10
133.9587483389061
 20
-151.3709499404559
 10
134.0996527442528
 20
-151.2565727703456
 10
134.0996527442528
 20
-151.2565727703456
 10
134.1530517242742
 20
-151.2989474448141
 10
134.1885362077723
 20
-151.3327093805696
 10
134.2550265506376
 20
-151.4405408692579
 10
134.3253064985367
 20
-151.5569850966593
 10
134.3439100141571
 20
-151.6096950575837
 10
134.3663031348112
 20
-151.6754963813519
 10
134.3663031348112
 20
-151.6754963813519
 10
134.2067952138441
 20
-151.800208837918
 10
134.2067952138441
 20
-151.800208837918
 97
        0
 97
        1
330
165
 92
        1
 93
        1
 72
     4
 94
        3
 73
     0
 74
     0
 95
       77
 96
       73
 40
0.0
 40
0.0
 40
0.0
 40
0.0
 40
1.0
 40
1.0
 40
1.0
 40
2.0
 40
2.0
 40
2.0
 40
3.0
 40
3.0
 40
3.0
 40
4.0
 40
4.0
 40
4.0
 40
5.0
 40
5.0
 40
5.0
 40
6.0
 40
6.0
 40
6.0
 40
7.0
 40
7.0
 40
7.0
 40
8.0
 40
8.0
 40
8.0
 40
9.0
 40
9.0
 40
9.0
 40
10.0
 40
10.0
 40
10.0
 40
11.0
 40
11.0
 40
11.0
 40
12.0
 40
12.0
 40
12.0
 40
13.0
 40
13.0
 40
13.0
 40
14.0
 40
14.0
 40
14.0
 40
15.0
 40
15.0
 40
15.0
 40
16.0
 40
16.0
 40
16.0
 40
17.0
 40
17.0
 40
17.0
 40
18.0
 40
18.0
 40
18.0
 40
19.0
 40
19.0
 40
19.0
 40
20.0
 40
20.0
 40
20.0
 40
21.0
 40
21.0
 40
21.0
 40
22.0
 40
22.0
 40
22.0
 40
23.0
 40
23.0
 40
23.0
 40
24.0
 40
24.0
 40
24.0
 40
24.0
 10
134.8810004003075
 20
-151.0746717287244
 10
134.8200222102186
 20
-151.0705376141421
 10
134.7607665678723
 20
-151.0705376141421
 10
134.701510925526
 20
-151.0705376141421
 10
134.701510925526
 20
-151.0705376141421
 10
134.701510925526
 20
-151.8446505696777
 10
134.701510925526
 20
-151.8446505696777
 10
134.701510925526
 20
-152.1092339029449
 10
134.6994438682349
 20
-152.138861724118
 10
134.6939317154584
 20
-152.1684895452912
 10
134.6643038942853
 20
-152.3014702310218
 10
134.5754204307658
 20
-152.310082969735
 10
134.4217691721237
 20
-152.310082969735
 10
134.3866291981742
 20
-152.310082969735
 10
134.3718152875876
 20
-152.310082969735
 10
134.336675313638
 20
-152.3059488551526
 10
134.336675313638
 20
-152.3059488551526
 10
134.2274657867556
 20
-152.0647921711852
 10
134.2274657867556
 20
-152.0647921711852
 10
134.3290961035705
 20
-152.0964870496495
 10
134.4014431087607
 20
-152.0964870496495
 10
134.4217691721237
 20
-152.0964870496495
 10
134.4827473622126
 20
-152.0964870496495
 10
134.5123751833858
 20
-152.0796060817717
 10
134.5161647884196
 20
-152.0224174967166
 10
134.5161647884196
 20
-152.0096706434212
 10
134.5178873361622
 20
-151.9125189507371
 10
134.5178873361622
 20
-151.855330365682
 10
134.5178873361622
 20
-151.855330365682
 10
134.5178873361622
 20
-151.0681260473024
 10
134.5178873361622
 20
-151.0681260473024
 10
134.5178873361622
 20
-151.0681260473024
 10
134.260538703414
 20
-151.0681260473024
 10
134.260538703414
 20
-151.0681260473024
 10
134.1327256609112
 20
-151.0681260473024
 10
134.0049126184085
 20
-151.0746717287244
 10
133.8791666331969
 20
-151.0874185820198
 10
133.8791666331969
 20
-151.0874185820198
 10
133.8791666331969
 20
-150.8800238338077
 10
133.8791666331969
 20
-150.8800238338077
 10
134.0107692807334
 20
-150.8927706871032
 10
134.2012830610677
 20
-150.8969048016855
 10
134.260538703414
 20
-150.8969048016855
 10
134.260538703414
 20
-150.8969048016855
 10
134.5178873361622
 20
-150.8969048016855
 10
134.5178873361622
 20
-150.8969048016855
 10
134.5161647884196
 20
-150.628187353836
 10
134.5161647884196
 20
-150.552050743612
 10
134.508585578352
 20
-150.4039116377462
 10
134.508585578352
 20
-150.4039116377462
 10
134.7345838421844
 20
-150.4421521976325
 10
134.7345838421844
 20
-150.4421521976325
 10
134.7476752050283
 20
-150.4442192549236
 10
134.7607665678723
 20
-150.4504204267971
 10
134.7607665678723
 20
-150.4717800188057
 10
134.7607665678723
 20
-150.4907280439745
 10
134.7549099055473
 20
-150.4927951012657
 10
134.7049560210112
 20
-150.5265570370211
 10
134.701510925526
 20
-150.6051052140848
 10
134.701510925526
 20
-150.6199191246714
 10
134.701510925526
 20
-150.8969048016855
 10
134.8568847319107
 20
-150.8927706871032
 10
134.8734211902399
 20
-150.8927706871032
 10
134.9030490114131
 20
-150.8882920629723
 10
134.9474907431728
 20
-150.8841579483901
 10
134.9512803482066
 20
-150.8820908910989
 10
134.9902099271899
 20
-150.8800238338077
 10
134.9902099271899
 20
-150.8800238338077
 10
134.9902099271899
 20
-151.0874185820198
 10
134.9902099271899
 20
-151.0874185820198
 10
134.9643717110506
 20
-151.0853515247287
 10
134.916140374257
 20
-151.0767387860155
 10
134.8810004003075
 20
-151.0746717287244
 97
        0
 97
        1
330
166
 92
        1
 93
        1
 72
     4
 94
        3
 73
     0
 74
     0
 95
       53
 96
       49
 40
0.0
 40
0.0
 40
0.0
 40
0.0
 40
1.0
 40
1.0
 40
1.0
 40
2.0
 40
2.0
 40
2.0
 40
3.0
 40
3.0
 40
3.0
 40
4.0
 40
4.0
 40
4.0
 40
5.0
 40
5.0
 40
5.0
 40
6.0
 40
6.0
 40
6.0
 40
7.0
 40
7.0
 40
7.0
 40
8.0
 40
8.0
 40
8.0
 40
9.0
 40
9.0
 40
9.0
 40
10.0
 40
10.0
 40
10.0
 40
11.0
 40
11.0
 40
11.0
 40
12.0
 40
12.0
 40
12.0
 40
13.0
 40
13.0
 40
13.0
 40
14.0
 40
14.0
 40
14.0
 40
15.0
 40
15.0
 40
15.0
 40
16.0
 40
16.0
 40
16.0
 40
16.0
 10
133.8736544804205
 20
-150.5754773929117
 10
133.8143988380742
 20
-150.7277506133597
 10
133.7771918068335
 20
-150.8059542808749
 10
133.7441188901751
 20
-150.8734781523858
 10
133.7809814118672
 20
-150.8948377443943
 10
133.784771016901
 20
-150.8969048016855
 10
133.784771016901
 20
-150.9117187122721
 10
133.784771016901
 20
-150.9244655655675
 10
133.7551431957279
 20
-150.9582275013229
 10
133.7458414379177
 20
-150.9668402400361
 10
133.7441188901751
 20
-151.1635551922438
 10
133.7441188901751
 20
-151.1845702747038
 10
133.7441188901751
 20
-151.317895469983
 10
133.7420518328839
 20
-151.3306423232784
 10
133.7420518328839
 20
-151.345456233865
 10
133.7420518328839
 20
-151.3602701444516
 10
133.7420518328839
 20
-151.3602701444516
 10
133.7420518328839
 20
-151.8952934733109
 10
133.7420518328839
 20
-151.8952934733109
 10
133.7420518328839
 20
-151.9672959689526
 10
133.7458414379177
 20
-152.2022514810466
 10
133.7534206479852
 20
-152.3121500270261
 10
133.7534206479852
 20
-152.3121500270261
 10
133.5401692374483
 20
-152.3121500270261
 10
133.5401692374483
 20
-152.3121500270261
 10
133.5604953008113
 20
-152.1536756347046
 10
133.5663519631362
 20
-151.9125189507371
 10
133.5663519631362
 20
-151.8911593587286
 10
133.5663519631362
 20
-151.8911593587286
 10
133.5663519631362
 20
-151.1738904786995
 10
133.5663519631362
 20
-151.1738904786995
 10
133.4867702574269
 20
-151.2882676488099
 10
133.433026767857
 20
-151.3475232911562
 10
133.3958197366163
 20
-151.3898979656247
 10
133.3958197366163
 20
-151.3898979656247
 10
133.2290771151302
 20
-151.2524386557633
 10
133.2290771151302
 20
-151.2524386557633
 10
133.4754014423256
 20
-151.0364311688381
 10
133.6438666115543
 20
-150.7277506133597
 10
133.7420518328839
 20
-150.3911647844508
 10
133.7420518328839
 20
-150.3911647844508
 10
133.9346326705094
 20
-150.5055419545611
 10
133.9346326705094
 20
-150.5055419545611
 10
133.9456569760622
 20
-150.5117431264345
 10
133.9532361861297
 20
-150.5162217505654
 10
133.9532361861297
 20
-150.531035661152
 10
133.9532361861297
 20
-150.5561848581943
 10
133.9384222755432
 20
-150.5606634823251
 10
133.8736544804205
 20
-150.5754773929117
 97
        0
 97
        1
330
167
 75
     2
 76
     1
 98
        1
 10
0.0
 20
0.0
450
        0
451
        0
460
0.0
461
0.0
452
        0
462
0.0
453
        0
470

  0
ENDBLK
  5
142
330
13F
100
AcDbEntity
  8
0
100
AcDbBlockEnd
  0
ENDSEC
  0
SECTION
  2
ENTITIES
  0
INSERT
  5
7A
330
70
100
AcDbEntity
  8
レイヤー 1
100
AcDbBlockReference
  2
Block_0
 10
0.0
 20
0.0
 30
0.0
  0
ENDSEC
  0
SECTION
  2
OBJECTS
  0
DICTIONARY
  5
C
330
0
100
AcDbDictionary
281
     1
  3
ACAD_COLOR
350
63
  3
ACAD_DETAILVIEWSTYLE
350
6A
  3
ACAD_GROUP
350
D
  3
ACAD_LAYOUT
350
62
  3
ACAD_MATERIAL
350
10
  3
ACAD_MLEADERSTYLE
350
66
  3
ACAD_MLINESTYLE
350
5F
  3
ACAD_PLOTSETTINGS
350
61
  3
ACAD_PLOTSTYLENAME
350
E
  3
ACAD_SCALELIST
350
42
  3
ACAD_SECTIONVIEWSTYLE
350
68
  3
ACAD_TABLESTYLE
350
64
  3
ACAD_VISUALSTYLE
350
29
  3
ACDB_RECOMPOSE_DATA
350
174
  3
AcDbVariableDictionary
350
16C
  0
DICTIONARY
  5
63
102
{ACAD_REACTORS
330
C
102
}
330
C
100
AcDbDictionary
281
     1
  0
DICTIONARY
  5
6A
102
{ACAD_REACTORS
330
C
102
}
330
C
100
AcDbDictionary
281
     1
  3
Imperial24
350
6B
  0
DICTIONARY
  5
D
102
{ACAD_REACTORS
330
C
102
}
330
C
100
AcDbDictionary
281
     1
  0
DICTIONARY
  5
62
102
{ACAD_REACTORS
330
C
102
}
330
C
100
AcDbDictionary
281
     1
  3
Layout1
350
6F
  3
Layout2
350
77
  3
Model
350
73
  0
DICTIONARY
  5
10
102
{ACAD_REACTORS
330
C
102
}
330
C
100
AcDbDictionary
281
     1
  3
ByBlock
350
19
  3
ByLayer
350
11
  3
Global
350
21
  0
DICTIONARY
  5
66
102
{ACAD_REACTORS
330
C
102
}
330
C
100
AcDbDictionary
281
     1
  3
Standard
350
67
  0
DICTIONARY
  5
5F
102
{ACAD_REACTORS
330
C
102
}
330
C
100
AcDbDictionary
281
     1
  3
Standard
350
60
  0
DICTIONARY
  5
61
102
{ACAD_REACTORS
330
C
102
}
330
C
100
AcDbDictionary
281
     1
  0
ACDBDICTIONARYWDFLT
  5
E
102
{ACAD_REACTORS
330
C
102
}
330
C
100
AcDbDictionary
281
     1
  3
Normal
350
F
100
AcDbDictionaryWithDefault
340
F
  0
DICTIONARY
  5
42
102
{ACAD_REACTORS
330
C
102
}
330
C
100
AcDbDictionary
281
     1
  3
A0
350
43
  3
A1
350
44
  3
A2
350
45
  3
A3
350
46
  3
A4
350
47
  3
A5
350
48
  3
A6
350
49
  3
A7
350
4A
  3
A8
350
4B
  3
A9
350
4C
  3
B0
350
4D
  3
B1
350
4E
  3
B2
350
4F
  3
B3
350
50
  3
B4
350
51
  3
B5
350
52
  3
B6
350
53
  0
DICTIONARY
  5
68
102
{ACAD_REACTORS
330
C
102
}
330
C
100
AcDbDictionary
281
     1
  3
Imperial24
350
69
  0
DICTIONARY
  5
64
102
{ACAD_REACTORS
330
C
102
}
330
C
100
AcDbDictionary
281
     1
  3
Standard
350
65
  0
DICTIONARY
  5
29
102
{ACAD_REACTORS
330
C
102
}
330
C
100
AcDbDictionary
281
     1
  3
2dWireframe
350
2F
  3
Basic
350
2E
  3
Brighten
350
35
  3
ColorChange
350
39
  3
Conceptual
350
32
  3
Dim
350
34
  3
EdgeColorOff
350
41
  3
Facepattern
350
38
  3
Flat
350
2A
  3
FlatWithEdges
350
2B
  3
Gouraud
350
2C
  3
GouraudWithEdges
350
2D
  3
Hidden
350
31
  3
JitterOff
350
3F
  3
Linepattern
350
37
  3
OverhangOff
350
40
  3
Realistic
350
33
  3
Shaded
350
3E
  3
Shaded with edges
350
3D
  3
Shades of Gray
350
3A
  3
Sketchy
350
3B
  3
Thicken
350
36
  3
Wireframe
350
30
  3
X-Ray
350
3C
  0
XRECORD
  5
174
102
{ACAD_REACTORS
330
C
102
}
330
C
100
AcDbXrecord
280
     1
 90
        1
330
65
  0
DICTIONARY
  5
16C
102
{ACAD_REACTORS
330
C
102
}
330
C
100
AcDbDictionary
281
     1
  3
CANNOSCALE
350
171
  3
CMLEADERSTYLE
350
16E
  3
CTABLESTYLE
350
16D
  3
CVIEWDETAILSTYLE
350
16F
  3
CVIEWSECTIONSTYLE
350
170
  0
ACDBDETAILVIEWSTYLE
  5
6B
102
{ACAD_XDICTIONARY
360
1A9
102
}
102
{ACAD_REACTORS
330
6A
102
}
330
6A
100
AcDbModelDocViewStyle
 70
     0
  3
Imperial24
290
     0
100
AcDbDetailViewStyle
 70
     0
 71
     0
 90
        3
 71
     1
340
55
 62
   256
 40
0.24
340
0
 62
   256
 40
0.24
300

 40
0.36
280
     3
 71
     2
340
5D
 90
       25
 62
   256
 71
     3
340
55
 62
   256
 40
0.24
 90
        1
 40
0.75
 90
        1
300
%<\AcVar ViewType \f "%tc1">% %<\AcVar ViewDetailId>%\PSCALE %<\AcVar ViewScale \f "%sn">%
 71
     4
340
5D
 90
       25
 62
   256
340
5D
 90
       25
 62
   256
280
     0
  0
LAYOUT
  5
6F
102
{ACAD_REACTORS
330
62
102
}
330
62
100
AcDbPlotSettings
  1

  2

  4

  6

 40
0.0
 41
0.0
 42
0.0
 43
0.0
 44
0.0
 45
0.0
 46
0.0
 47
0.0
 48
0.0
 49
0.0
140
0.0
141
0.0
142
1.0
143
1.0
 70
   688
 72
     0
 73
     0
 74
     5
  7

 75
    16
147
1.0
 76
     0
 77
     2
 78
   300
148
0.0
149
0.0
100
AcDbLayout
  1
Layout1
 70
     1
 71
     1
 10
0.0
 20
0.0
 11
12.0
 21
9.0
 12
0.0
 22
0.0
 32
0.0
 14
0.0
 24
0.0
 34
0.0
 15
0.0
 25
0.0
 35
0.0
146
0.0
 13
0.0
 23
0.0
 33
0.0
 16
1.0
 26
0.0
 36
0.0
 17
0.0
 27
1.0
 37
0.0
 76
     0
330
6C
  0
LAYOUT
  5
77
102
{ACAD_REACTORS
330
62
102
}
330
62
100
AcDbPlotSettings
  1

  2

  4

  6

 40
0.0
 41
0.0
 42
0.0
 43
0.0
 44
0.0
 45
0.0
 46
0.0
 47
0.0
 48
0.0
 49
0.0
140
0.0
141
0.0
142
1.0
143
1.0
 70
   688
 72
     0
 73
     0
 74
     5
  7

 75
    16
147
1.0
 76
     0
 77
     2
 78
   300
148
0.0
149
0.0
100
AcDbLayout
  1
Layout2
 70
     1
 71
     2
 10
0.0
 20
0.0
 11
12.0
 21
9.0
 12
0.0
 22
0.0
 32
0.0
 14
0.0
 24
0.0
 34
0.0
 15
0.0
 25
0.0
 35
0.0
146
0.0
 13
0.0
 23
0.0
 33
0.0
 16
1.0
 26
0.0
 36
0.0
 17
0.0
 27
1.0
 37
0.0
 76
     0
330
74
  0
LAYOUT
  5
73
102
{ACAD_REACTORS
330
62
102
}
330
62
100
AcDbPlotSettings
  1

  2

  4

  6

 40
0.0
 41
0.0
 42
0.0
 43
0.0
 44
0.0
 45
0.0
 46
0.0
 47
0.0
 48
0.0
 49
0.0
140
0.0
141
0.0
142
1.0
143
1.0
 70
  1712
 72
     0
 73
     0
 74
     0
  7

 75
     0
147
1.0
 76
     0
 77
     2
 78
   300
148
0.0
149
0.0
100
AcDbLayout
  1
Model
 70
     1
 71
     0
 10
0.0
 20
0.0
 11
12.0
 21
9.0
 12
0.0
 22
0.0
 32
0.0
 14
0.0
 24
0.0
 34
0.0
 15
0.0
 25
0.0
 35
0.0
146
0.0
 13
0.0
 23
0.0
 33
0.0
 16
1.0
 26
0.0
 36
0.0
 17
0.0
 27
1.0
 37
0.0
 76
     0
330
70
  0
MATERIAL
  5
19
102
{ACAD_XDICTIONARY
360
1A
102
}
102
{ACAD_REACTORS
330
10
102
}
330
10
100
AcDbMaterial
  1
ByBlock
 72
     0
 43
0.0208333333333333
 43
0.0
 43
0.0
 43
0.0
 43
0.0
 43
0.0208333333333333
 43
0.0
 43
0.0
 43
0.0
 43
0.0
 43
1.0
 43
0.0
 43
0.0
 43
0.0
 43
0.0
 43
1.0
 77
     0
 47
0.0208333333333333
 47
0.0
 47
0.0
 47
0.0
 47
0.0
 47
0.0208333333333333
 47
0.0
 47
0.0
 47
0.0
 47
0.0
 47
1.0
 47
0.0
 47
0.0
 47
0.0
 47
0.0
 47
1.0
171
     0
 49
0.0208333333333333
 49
0.0
 49
0.0
 49
0.0
 49
0.0
 49
0.0208333333333333
 49
0.0
 49
0.0
 49
0.0
 49
0.0
 49
1.0
 49
0.0
 49
0.0
 49
0.0
 49
0.0
 49
1.0
175
     0
142
0.0208333333333333
142
0.0
142
0.0
142
0.0
142
0.0
142
0.0208333333333333
142
0.0
142
0.0
142
0.0
142
0.0
142
1.0
142
0.0
142
0.0
142
0.0
142
0.0
142
1.0
179
     0
144
0.0208333333333333
144
0.0
144
0.0
144
0.0
144
0.0
144
0.0208333333333333
144
0.0
144
0.0
144
0.0
144
0.0
144
1.0
144
0.0
144
0.0
144
0.0
144
0.0
144
1.0
147
0.0208333333333333
147
0.0
147
0.0
147
0.0
147
0.0
147
0.0208333333333333
147
0.0
147
0.0
147
0.0
147
0.0
147
1.0
147
0.0
147
0.0
147
0.0
147
0.0
147
1.0
  0
MATERIAL
  5
11
102
{ACAD_XDICTIONARY
360
12
102
}
102
{ACAD_REACTORS
330
10
102
}
330
10
100
AcDbMaterial
  1
ByLayer
 72
     0
 43
0.0208333333333333
 43
0.0
 43
0.0
 43
0.0
 43
0.0
 43
0.0208333333333333
 43
0.0
 43
0.0
 43
0.0
 43
0.0
 43
1.0
 43
0.0
 43
0.0
 43
0.0
 43
0.0
 43
1.0
 77
     0
 47
0.0208333333333333
 47
0.0
 47
0.0
 47
0.0
 47
0.0
 47
0.0208333333333333
 47
0.0
 47
0.0
 47
0.0
 47
0.0
 47
1.0
 47
0.0
 47
0.0
 47
0.0
 47
0.0
 47
1.0
171
     0
 49
0.0208333333333333
 49
0.0
 49
0.0
 49
0.0
 49
0.0
 49
0.0208333333333333
 49
0.0
 49
0.0
 49
0.0
 49
0.0
 49
1.0
 49
0.0
 49
0.0
 49
0.0
 49
0.0
 49
1.0
175
     0
142
0.0208333333333333
142
0.0
142
0.0
142
0.0
142
0.0
142
0.0208333333333333
142
0.0
142
0.0
142
0.0
142
0.0
142
1.0
142
0.0
142
0.0
142
0.0
142
0.0
142
1.0
179
     0
144
0.0208333333333333
144
0.0
144
0.0
144
0.0
144
0.0
144
0.0208333333333333
144
0.0
144
0.0
144
0.0
144
0.0
144
1.0
144
0.0
144
0.0
144
0.0
144
0.0
144
1.0
147
0.0208333333333333
147
0.0
147
0.0
147
0.0
147
0.0
147
0.0208333333333333
147
0.0
147
0.0
147
0.0
147
0.0
147
1.0
147
0.0
147
0.0
147
0.0
147
0.0
147
1.0
  0
MATERIAL
  5
21
102
{ACAD_XDICTIONARY
360
22
102
}
102
{ACAD_REACTORS
330
10
102
}
330
10
100
AcDbMaterial
  1
Global
 72
     0
 43
0.0208333333333333
 43
0.0
 43
0.0
 43
0.0
 43
0.0
 43
0.0208333333333333
 43
0.0
 43
0.0
 43
0.0
 43
0.0
 43
1.0
 43
0.0
 43
0.0
 43
0.0
 43
0.0
 43
1.0
 77
     0
 47
0.0208333333333333
 47
0.0
 47
0.0
 47
0.0
 47
0.0
 47
0.0208333333333333
 47
0.0
 47
0.0
 47
0.0
 47
0.0
 47
1.0
 47
0.0
 47
0.0
 47
0.0
 47
0.0
 47
1.0
171
     0
 49
0.0208333333333333
 49
0.0
 49
0.0
 49
0.0
 49
0.0
 49
0.0208333333333333
 49
0.0
 49
0.0
 49
0.0
 49
0.0
 49
1.0
 49
0.0
 49
0.0
 49
0.0
 49
0.0
 49
1.0
175
     0
142
0.0208333333333333
142
0.0
142
0.0
142
0.0
142
0.0
142
0.0208333333333333
142
0.0
142
0.0
142
0.0
142
0.0
142
1.0
142
0.0
142
0.0
142
0.0
142
0.0
142
1.0
179
     0
144
0.0208333333333333
144
0.0
144
0.0
144
0.0
144
0.0
144
0.0208333333333333
144
0.0
144
0.0
144
0.0
144
0.0
144
1.0
144
0.0
144
0.0
144
0.0
144
0.0
144
1.0
147
0.0208333333333333
147
0.0
147
0.0
147
0.0
147
0.0
147
0.0208333333333333
147
0.0
147
0.0
147
0.0
147
0.0
147
1.0
147
0.0
147
0.0
147
0.0
147
0.0
147
1.0
  0
MLEADERSTYLE
  5
67
102
{ACAD_XDICTIONARY
360
1A5
102
}
102
{ACAD_REACTORS
330
66
102
}
330
66
100
AcDbMLeaderStyle
179
     2
170
     2
171
     1
172
     0
 90
        2
 40
0.0
 41
0.0
173
     1
 91
-1056964608
340
5B
 92
       -2
290
     1
 42
0.09
291
     1
 43
0.36
  3
Standard
 44
0.18
300

342
55
174
     1
178
     6
175
     1
176
     0
 93
-1056964608
 45
0.18
292
     0
297
     0
 46
0.18
 94
-1056964608
 47
1.0
 49
1.0
140
1.0
293
     1
141
0.0
294
     1
177
     0
142
1.0
295
     0
296
     0
143
0.125
271
     0
272
     9
273
     9
  0
MLINESTYLE
  5
60
102
{ACAD_REACTORS
330
5F
102
}
330
5F
100
AcDbMlineStyle
  2
STANDARD
 70
     0
  3

 62
   256
 51
90.0
 52
90.0
 71
     2
 49
0.5
 62
   256
  6
BYLAYER
 49
-0.5
 62
   256
  6
BYLAYER
  0
ACDBPLACEHOLDER
  5
F
102
{ACAD_REACTORS
330
E
102
}
330
E
  0
SCALE
  5
43
102
{ACAD_REACTORS
330
42
102
}
330
42
100
AcDbScale
 70
     0
300
1:1
140
1.0
141
1.0
290
     1
  0
SCALE
  5
44
102
{ACAD_REACTORS
330
42
102
}
330
42
100
AcDbScale
 70
     0
300
1/128" = 1'-0"
140
0.0078125
141
12.0
290
     0
  0
SCALE
  5
45
102
{ACAD_REACTORS
330
42
102
}
330
42
100
AcDbScale
 70
     0
300
1/64" = 1'-0"
140
0.015625
141
12.0
290
     0
  0
SCALE
  5
46
102
{ACAD_REACTORS
330
42
102
}
330
42
100
AcDbScale
 70
     0
300
1/32" = 1'-0"
140
0.03125
141
12.0
290
     0
  0
SCALE
  5
47
102
{ACAD_REACTORS
330
42
102
}
330
42
100
AcDbScale
 70
     0
300
1/16" = 1'-0"
140
0.0625
141
12.0
290
     0
  0
SCALE
  5
48
102
{ACAD_REACTORS
330
42
102
}
330
42
100
AcDbScale
 70
     0
300
3/32" = 1'-0"
140
0.09375
141
12.0
290
     0
  0
SCALE
  5
49
102
{ACAD_REACTORS
330
42
102
}
330
42
100
AcDbScale
 70
     0
300
1/8" = 1'-0"
140
0.125
141
12.0
290
     0
  0
SCALE
  5
4A
102
{ACAD_REACTORS
330
42
102
}
330
42
100
AcDbScale
 70
     0
300
3/16" = 1'-0"
140
0.1875
141
12.0
290
     0
  0
SCALE
  5
4B
102
{ACAD_REACTORS
330
42
102
}
330
42
100
AcDbScale
 70
     0
300
1/4" = 1'-0"
140
0.25
141
12.0
290
     0
  0
SCALE
  5
4C
102
{ACAD_REACTORS
330
42
102
}
330
42
100
AcDbScale
 70
     0
300
3/8" = 1'-0"
140
0.375
141
12.0
290
     0
  0
SCALE
  5
4D
102
{ACAD_REACTORS
330
42
102
}
330
42
100
AcDbScale
 70
     0
300
1/2" = 1'-0"
140
0.5
141
12.0
290
     0
  0
SCALE
  5
4E
102
{ACAD_REACTORS
330
42
102
}
330
42
100
AcDbScale
 70
     0
300
3/4" = 1'-0"
140
0.75
141
12.0
290
     0
  0
SCALE
  5
4F
102
{ACAD_REACTORS
330
42
102
}
330
42
100
AcDbScale
 70
     0
300
1" = 1'-0"
140
1.0
141
12.0
290
     0
  0
SCALE
  5
50
102
{ACAD_REACTORS
330
42
102
}
330
42
100
AcDbScale
 70
     0
300
1-1/2" = 1'-0"
140
1.5
141
12.0
290
     0
  0
SCALE
  5
51
102
{ACAD_REACTORS
330
42
102
}
330
42
100
AcDbScale
 70
     0
300
3" = 1'-0"
140
3.0
141
12.0
290
     0
  0
SCALE
  5
52
102
{ACAD_REACTORS
330
42
102
}
330
42
100
AcDbScale
 70
     0
300
6" = 1'-0"
140
6.0
141
12.0
290
     0
  0
SCALE
  5
53
102
{ACAD_REACTORS
330
42
102
}
330
42
100
AcDbScale
 70
     0
300
1'-0" = 1'-0"
140
12.0
141
12.0
290
     0
  0
ACDBSECTIONVIEWSTYLE
  5
69
102
{ACAD_XDICTIONARY
360
1A7
102
}
102
{ACAD_REACTORS
330
68
102
}
330
68
100
AcDbModelDocViewStyle
 70
     0
  3
Imperial24
290
     0
100
AcDbSectionViewStyle
 70
     0
 71
     0
 90
       78
 71
     1
340
55
 62
   256
 40
0.24
340
0
340
0
 62
   256
 40
0.24
300
I, O, Q, S, X, Z
 40
0.48
 90
        3
 40
0.18
 90
        1
 71
     2
340
5D
 90
       25
 62
   256
340
5D
 90
       50
 62
   256
 40
0.24
 40
0.0
 40
0.24
 71
     3
340
55
 62
   256
 40
0.24
 90
        1
 40
0.75
 90
        1
300
%<\AcVar ViewType \f "%tc1">% %<\AcVar ViewSectionStartId>%-%<\AcVar ViewSectionEndId>%\PSCALE %<\AcVar ViewScale \f "%sn">%
 71
     4
 62
   256
 62
   257
300
ANSI31
 40
1.0
 90
        0
290
     0
290
     0
 90
        6
 40
0.0
 40
1.570796326794896
 40
0.2617993877991494
 40
1.308996938995747
 40
-0.2617993877991494
 40
1.832595714594046
  0
TABLESTYLE
  5
65
102
{ACAD_XDICTIONARY
360
172
102
}
102
{ACAD_REACTORS
330
64
102
}
330
64
100
AcDbTableStyle
280
     0
  3
Standard
 70
     0
 71
     0
 40
0.06
 41
0.06
280
     0
281
     0
  7
Standard
140
0.18
170
     2
 62
     0
 63
     7
283
     0
 90
      512
 91
        0
  1

274
    -2
284
     1
 64
     0
275
    -2
285
     1
 65
     0
276
    -2
286
     1
 66
     0
277
    -2
287
     1
 67
     0
278
    -2
288
     1
 68
     0
279
    -2
289
     1
 69
     0
  7
Standard
140
0.25
170
     5
 62
     0
 63
     7
283
     0
 90
      512
 91
        0
  1

274
    -2
284
     1
 64
     0
275
    -2
285
     1
 65
     0
276
    -2
286
     1
 66
     0
277
    -2
287
     1
 67
     0
278
    -2
288
     1
 68
     0
279
    -2
289
     1
 69
     0
  7
Standard
140
0.18
170
     5
 62
     0
 63
     7
283
     0
 90
      512
 91
        0
  1

274
    -2
284
     1
 64
     0
275
    -2
285
     1
 65
     0
276
    -2
286
     1
 66
     0
277
    -2
287
     1
 67
     0
278
    -2
288
     1
 68
     0
279
    -2
289
     1
 69
     0
  0
VISUALSTYLE
  5
2F
102
{ACAD_XDICTIONARY
360
17F
102
}
102
{ACAD_REACTORS
330
29
102
}
330
29
100
AcDbVisualStyle
  2
2dWireframe
 70
     4
177
     2
291
     0
 71
     0
176
     1
 72
     2
176
     1
 73
     0
176
     1
 90
        0
176
     1
 40
0.6
176
     1
 41
30.0
176
     1
 63
     7
421
 16777215
176
     1
 74
     1
176
     1
 91
        4
176
     1
 64
     7
176
     1
 65
   257
176
     1
 75
     1
176
     1
175
     1
176
     1
 42
1.0
176
     1
 92
        0
176
     1
 66
   257
176
     1
 43
1.0
176
     1
 76
     1
176
     1
 77
     6
176
     1
 78
     2
176
     1
 67
     7
176
     1
 79
     5
176
     1
170
     0
176
     1
171
     0
176
     1
290
     0
176
     1
 93
        1
176
     1
 44
0.0
176
     1
173
     0
176
     1
1001
ACAD
1000
AcDbSavedByObjectVersion
1070
     0
  0
VISUALSTYLE
  5
2E
102
{ACAD_XDICTIONARY
360
17D
102
}
102
{ACAD_REACTORS
330
29
102
}
330
29
100
AcDbVisualStyle
  2
Basic
 70
     7
177
     2
291
     1
 71
     1
176
     1
 72
     0
176
     1
 73
     1
176
     1
 90
        0
176
     1
 40
0.6
176
     1
 41
30.0
176
     1
 63
     7
421
 16777215
176
     1
 74
     0
176
     1
 91
        4
176
     1
 64
     7
176
     1
 65
   257
176
     1
 75
     1
176
     1
175
     1
176
     1
 42
1.0
176
     1
 92
        8
176
     1
 66
     7
176
     1
 43
1.0
176
     1
 76
     1
176
     1
 77
     6
176
     1
 78
     2
176
     1
 67
     7
176
     1
 79
     5
176
     1
170
     0
176
     1
171
     0
176
     1
290
     0
176
     1
 93
        1
176
     1
 44
0.0
176
     1
173
     0
176
     1
1001
ACAD
1000
AcDbSavedByObjectVersion
1070
     0
  0
VISUALSTYLE
  5
35
102
{ACAD_XDICTIONARY
360
18B
102
}
102
{ACAD_REACTORS
330
29
102
}
330
29
100
AcDbVisualStyle
  2
Brighten
 70
    12
177
     2
291
     1
 71
     2
176
     1
 72
     2
176
     1
 73
     0
176
     1
 90
        0
176
     1
 40
0.6
176
     1
 41
30.0
176
     1
 63
     7
421
 16777215
176
     1
 74
     1
176
     1
 91
        4
176
     1
 64
     7
176
     1
 65
   257
176
     1
 75
     1
176
     1
175
     1
176
     1
 42
1.0
176
     1
 92
        8
176
     1
 66
     7
176
     1
 43
1.0
176
     1
 76
     1
176
     1
 77
     6
176
     1
 78
     2
176
     1
 67
     7
176
     1
 79
     5
176
     1
170
     0
176
     1
171
     0
176
     1
290
     0
176
     1
 93
        1
176
     1
 44
50.0
176
     1
173
     0
176
     1
1001
ACAD
1000
AcDbSavedByObjectVersion
1070
     0
  0
VISUALSTYLE
  5
39
102
{ACAD_XDICTIONARY
360
193
102
}
102
{ACAD_REACTORS
330
29
102
}
330
29
100
AcDbVisualStyle
  2
ColorChange
 70
    16
177
     2
291
     1
 71
     2
176
     1
 72
     2
176
     1
 73
     3
176
     1
 90
        0
176
     1
 40
0.6
176
     1
 41
30.0
176
     1
 63
     8
421
  8421504
176
     1
 74
     1
176
     1
 91
        4
176
     1
 64
     7
176
     1
 65
   257
176
     1
 75
     1
176
     1
175
     1
176
     1
 42
1.0
176
     1
 92
        8
176
     1
 66
     8
424
  8421504
176
     1
 43
1.0
176
     1
 76
     1
176
     1
 77
     6
176
     1
 78
     2
176
     1
 67
     7
176
     1
 79
     5
176
     1
170
     0
176
     1
171
     0
176
     1
290
     0
176
     1
 93
        1
176
     1
 44
0.0
176
     1
173
     0
176
     1
1001
ACAD
1000
AcDbSavedByObjectVersion
1070
     0
  0
VISUALSTYLE
  5
32
102
{ACAD_XDICTIONARY
360
185
102
}
102
{ACAD_REACTORS
330
29
102
}
330
29
100
AcDbVisualStyle
  2
Conceptual
 70
     9
177
     2
291
     0
 71
     3
176
     1
 72
     2
176
     1
 73
     0
176
     1
 90
        0
176
     1
 40
0.6
176
     1
 41
30.0
176
     1
 63
     7
421
 16777215
176
     1
 74
     2
176
     1
 91
        2
176
     1
 64
     7
176
     1
 65
   257
176
     1
 75
     1
176
     1
175
     1
176
     1
 42
179.0
176
     1
 92
        8
176
     1
 66
     7
176
     1
 43
1.0
176
     1
 76
     1
176
     1
 77
     6
176
     1
 78
     2
176
     1
 67
     7
176
     1
 79
     3
176
     1
170
     0
176
     1
171
     0
176
     1
290
     0
176
     1
 93
        1
176
     1
 44
0.0
176
     1
173
     0
176
     1
1001
ACAD
1000
AcDbSavedByObjectVersion
1070
     0
  0
VISUALSTYLE
  5
34
102
{ACAD_XDICTIONARY
360
189
102
}
102
{ACAD_REACTORS
330
29
102
}
330
29
100
AcDbVisualStyle
  2
Dim
 70
    11
177
     2
291
     1
 71
     2
176
     1
 72
     2
176
     1
 73
     0
176
     1
 90
        0
176
     1
 40
0.6
176
     1
 41
30.0
176
     1
 63
     7
421
 16777215
176
     1
 74
     1
176
     1
 91
        4
176
     1
 64
     7
176
     1
 65
   257
176
     1
 75
     1
176
     1
175
     1
176
     1
 42
1.0
176
     1
 92
        8
176
     1
 66
     7
176
     1
 43
1.0
176
     1
 76
     1
176
     1
 77
     6
176
     1
 78
     2
176
     1
 67
     7
176
     1
 79
     5
176
     1
170
     0
176
     1
171
     0
176
     1
290
     0
176
     1
 93
        1
176
     1
 44
-50.0
176
     1
173
     0
176
     1
1001
ACAD
1000
AcDbSavedByObjectVersion
1070
     0
  0
VISUALSTYLE
  5
41
102
{ACAD_XDICTIONARY
360
1A3
102
}
102
{ACAD_REACTORS
330
29
102
}
330
29
100
AcDbVisualStyle
  2
EdgeColorOff
 70
    22
177
     2
291
     1
 71
     2
176
     0
 72
     2
176
     0
 73
     0
176
     0
 90
        0
176
     0
 40
0.6
176
     0
 41
30.0
176
     0
 63
     7
421
 16777215
176
     0
 74
     1
176
     0
 91
        4
176
     0
 64
     7
176
     0
 65
   257
176
     0
 75
     1
176
     0
175
     1
176
     0
 42
1.0
176
     0
 92
        8
176
     2
 66
     7
176
     0
 43
1.0
176
     0
 76
     1
176
     0
 77
     6
176
     0
 78
     2
176
     0
 67
     7
176
     0
 79
     5
176
     0
170
     0
176
     0
171
     0
176
     0
290
     0
176
     0
 93
        1
176
     0
 44
0.0
176
     0
173
     0
176
     0
1001
ACAD
1000
AcDbSavedByObjectVersion
1070
     0
  0
VISUALSTYLE
  5
38
102
{ACAD_XDICTIONARY
360
191
102
}
102
{ACAD_REACTORS
330
29
102
}
330
29
100
AcDbVisualStyle
  2
Facepattern
 70
    15
177
     2
291
     1
 71
     2
176
     1
 72
     2
176
     1
 73
     0
176
     1
 90
        0
176
     1
 40
0.6
176
     1
 41
30.0
176
     1
 63
     7
421
 16777215
176
     1
 74
     1
176
     1
 91
        4
176
     1
 64
     7
176
     1
 65
   257
176
     1
 75
     1
176
     1
175
     1
176
     1
 42
1.0
176
     1
 92
        8
176
     1
 66
     7
176
     1
 43
1.0
176
     1
 76
     1
176
     1
 77
     6
176
     1
 78
     2
176
     1
 67
     7
176
     1
 79
     5
176
     1
170
     0
176
     1
171
     0
176
     1
290
     0
176
     1
 93
        1
176
     1
 44
0.0
176
     1
173
     0
176
     1
1001
ACAD
1000
AcDbSavedByObjectVersion
1070
     0
  0
VISUALSTYLE
  5
2A
102
{ACAD_XDICTIONARY
360
175
102
}
102
{ACAD_REACTORS
330
29
102
}
330
29
100
AcDbVisualStyle
  2
Flat
 70
     0
177
     2
291
     1
 71
     2
176
     1
 72
     1
176
     1
 73
     1
176
     1
 90
        2
176
     1
 40
0.6
176
     1
 41
30.0
176
     1
 63
     7
421
 16777215
176
     1
 74
     0
176
     1
 91
        0
176
     1
 64
     7
176
     1
 65
   257
176
     1
 75
     1
176
     1
175
     1
176
     1
 42
1.0
176
     1
 92
        8
176
     1
 66
     7
176
     1
 43
1.0
176
     1
 76
     1
176
     1
 77
     6
176
     1
 78
     2
176
     1
 67
     7
176
     1
 79
     5
176
     1
170
     0
176
     1
171
     0
176
     1
290
     0
176
     1
 93
       13
176
     1
 44
0.0
176
     1
173
     0
176
     1
1001
ACAD
1000
AcDbSavedByObjectVersion
1070
     0
  0
VISUALSTYLE
  5
2B
102
{ACAD_XDICTIONARY
360
177
102
}
102
{ACAD_REACTORS
330
29
102
}
330
29
100
AcDbVisualStyle
  2
FlatWithEdges
 70
     1
177
     2
291
     1
 71
     2
176
     1
 72
     1
176
     1
 73
     1
176
     1
 90
        2
176
     1
 40
0.6
176
     1
 41
30.0
176
     1
 63
     7
421
 16777215
176
     1
 74
     1
176
     1
 91
        0
176
     1
 64
     7
176
     1
 65
   257
176
     1
 75
     1
176
     1
175
     1
176
     1
 42
1.0
176
     1
 92
        0
176
     1
 66
   257
176
     1
 43
1.0
176
     1
 76
     1
176
     1
 77
     6
176
     1
 78
     2
176
     1
 67
     7
176
     1
 79
     5
176
     1
170
     0
176
     1
171
     0
176
     1
290
     0
176
     1
 93
       13
176
     1
 44
0.0
176
     1
173
     0
176
     1
1001
ACAD
1000
AcDbSavedByObjectVersion
1070
     0
  0
VISUALSTYLE
  5
2C
102
{ACAD_XDICTIONARY
360
179
102
}
102
{ACAD_REACTORS
330
29
102
}
330
29
100
AcDbVisualStyle
  2
Gouraud
 70
     2
177
     2
291
     1
 71
     2
176
     1
 72
     2
176
     1
 73
     1
176
     1
 90
        2
176
     1
 40
0.6
176
     1
 41
30.0
176
     1
 63
     7
421
 16777215
176
     1
 74
     0
176
     1
 91
        0
176
     1
 64
     7
176
     1
 65
   257
176
     1
 75
     1
176
     1
175
     1
176
     1
 42
1.0
176
     1
 92
        0
176
     1
 66
     7
176
     1
 43
1.0
176
     1
 76
     1
176
     1
 77
     6
176
     1
 78
     2
176
     1
 67
     7
176
     1
 79
     5
176
     1
170
     0
176
     1
171
     0
176
     1
290
     0
176
     1
 93
       13
176
     1
 44
0.0
176
     1
173
     0
176
     1
1001
ACAD
1000
AcDbSavedByObjectVersion
1070
     0
  0
VISUALSTYLE
  5
2D
102
{ACAD_XDICTIONARY
360
17B
102
}
102
{ACAD_REACTORS
330
29
102
}
330
29
100
AcDbVisualStyle
  2
GouraudWithEdges
 70
     3
177
     2
291
     1
 71
     2
176
     1
 72
     2
176
     1
 73
     1
176
     1
 90
        2
176
     1
 40
0.6
176
     1
 41
30.0
176
     1
 63
     7
421
 16777215
176
     1
 74
     1
176
     1
 91
        0
176
     1
 64
     7
176
     1
 65
   257
176
     1
 75
     1
176
     1
175
     1
176
     1
 42
1.0
176
     1
 92
        0
176
     1
 66
   257
176
     1
 43
1.0
176
     1
 76
     1
176
     1
 77
     6
176
     1
 78
     2
176
     1
 67
     7
176
     1
 79
     5
176
     1
170
     0
176
     1
171
     0
176
     1
290
     0
176
     1
 93
       13
176
     1
 44
0.0
176
     1
173
     0
176
     1
1001
ACAD
1000
AcDbSavedByObjectVersion
1070
     0
  0
VISUALSTYLE
  5
31
102
{ACAD_XDICTIONARY
360
183
102
}
102
{ACAD_REACTORS
330
29
102
}
330
29
100
AcDbVisualStyle
  2
Hidden
 70
     6
177
     2
291
     0
 71
     1
176
     1
 72
     2
176
     1
 73
     2
176
     1
 90
        0
176
     1
 40
0.6
176
     1
 41
30.0
176
     1
 63
     7
421
 16777215
176
     1
 74
     2
176
     1
 91
        2
176
     1
 64
     7
176
     1
 65
   257
176
     1
 75
     2
176
     1
175
     1
176
     1
 42
40.0
176
     1
 92
        0
176
     1
 66
   257
176
     1
 43
1.0
176
     1
 76
     1
176
     1
 77
     6
176
     1
 78
     2
176
     1
 67
     7
176
     1
 79
     3
176
     1
170
     0
176
     1
171
     0
176
     1
290
     0
176
     1
 93
        1
176
     1
 44
0.0
176
     1
173
     0
176
     1
1001
ACAD
1000
AcDbSavedByObjectVersion
1070
     0
  0
VISUALSTYLE
  5
3F
102
{ACAD_XDICTIONARY
360
19F
102
}
102
{ACAD_REACTORS
330
29
102
}
330
29
100
AcDbVisualStyle
  2
JitterOff
 70
    20
177
     2
291
     1
 71
     2
176
     0
 72
     2
176
     0
 73
     0
176
     0
 90
        0
176
     0
 40
0.6
176
     0
 41
30.0
176
     0
 63
     7
421
 16777215
176
     0
 74
     1
176
     0
 91
        4
176
     0
 64
     7
176
     0
 65
   257
176
     0
 75
     1
176
     0
175
     1
176
     0
 42
1.0
176
     0
 92
       10
176
     2
 66
     7
176
     0
 43
1.0
176
     0
 76
     1
176
     0
 77
     6
176
     0
 78
     2
176
     0
 67
     7
176
     0
 79
     5
176
     0
170
     0
176
     0
171
     0
176
     0
290
     0
176
     0
 93
        1
176
     0
 44
0.0
176
     0
173
     0
176
     0
1001
ACAD
1000
AcDbSavedByObjectVersion
1070
     0
  0
VISUALSTYLE
  5
37
102
{ACAD_XDICTIONARY
360
18F
102
}
102
{ACAD_REACTORS
330
29
102
}
330
29
100
AcDbVisualStyle
  2
Linepattern
 70
    14
177
     2
291
     1
 71
     2
176
     1
 72
     2
176
     1
 73
     0
176
     1
 90
        0
176
     1
 40
0.6
176
     1
 41
30.0
176
     1
 63
     7
421
 16777215
176
     1
 74
     1
176
     1
 91
        4
176
     1
 64
     7
176
     1
 65
   257
176
     1
 75
     7
176
     1
175
     7
176
     1
 42
1.0
176
     1
 92
        8
176
     1
 66
     7
176
     1
 43
1.0
176
     1
 76
     1
176
     1
 77
     6
176
     1
 78
     2
176
     1
 67
     7
176
     1
 79
     5
176
     1
170
     0
176
     1
171
     0
176
     1
290
     0
176
     1
 93
        1
176
     1
 44
0.0
176
     1
173
     0
176
     1
1001
ACAD
1000
AcDbSavedByObjectVersion
1070
     0
  0
VISUALSTYLE
  5
40
102
{ACAD_XDICTIONARY
360
1A1
102
}
102
{ACAD_REACTORS
330
29
102
}
330
29
100
AcDbVisualStyle
  2
OverhangOff
 70
    21
177
     2
291
     1
 71
     2
176
     0
 72
     2
176
     0
 73
     0
176
     0
 90
        0
176
     0
 40
0.6
176
     0
 41
30.0
176
     0
 63
     7
421
 16777215
176
     0
 74
     1
176
     0
 91
        4
176
     0
 64
     7
176
     0
 65
   257
176
     0
 75
     1
176
     0
175
     1
176
     0
 42
1.0
176
     0
 92
        9
176
     2
 66
     7
176
     0
 43
1.0
176
     0
 76
     1
176
     0
 77
     6
176
     0
 78
     2
176
     0
 67
     7
176
     0
 79
     5
176
     0
170
     0
176
     0
171
     0
176
     0
290
     0
176
     0
 93
        1
176
     0
 44
0.0
176
     0
173
     0
176
     0
1001
ACAD
1000
AcDbSavedByObjectVersion
1070
     0
  0
VISUALSTYLE
  5
33
102
{ACAD_XDICTIONARY
360
187
102
}
102
{ACAD_REACTORS
330
29
102
}
330
29
100
AcDbVisualStyle
  2
Realistic
 70
     8
177
     2
291
     0
 71
     2
176
     1
 72
     3
176
     1
 73
     0
176
     1
 90
        2
176
     1
 40
0.6
176
     1
 41
30.0
176
     1
 63
     7
421
 16777215
176
     1
 74
     0
176
     1
 91
        0
176
     1
 64
     7
176
     1
 65
   257
176
     1
 75
     1
176
     1
175
     1
176
     1
 42
1.0
176
     1
 92
        8
176
     1
 66
   257
176
     1
 43
1.0
176
     1
 76
     1
176
     1
 77
     6
176
     1
 78
     2
176
     1
 67
     7
176
     1
 79
     3
176
     1
170
     0
176
     1
171
     0
176
     1
290
     0
176
     1
 93
       13
176
     1
 44
0.0
176
     1
173
     0
176
     1
1001
ACAD
1000
AcDbSavedByObjectVersion
1070
     0
  0
VISUALSTYLE
  5
3E
102
{ACAD_XDICTIONARY
360
19D
102
}
102
{ACAD_REACTORS
330
29
102
}
330
29
100
AcDbVisualStyle
  2
Shaded
 70
    27
177
     2
291
     0
 71
     2
176
     1
 72
     2
176
     1
 73
     1
176
     1
 90
        2
176
     1
 40
0.6
176
     1
 41
30.0
176
     1
 63
     7
421
 16777215
176
     1
 74
     0
176
     1
 91
        4
176
     1
 64
     7
176
     1
 65
   257
176
     1
 75
     1
176
     1
175
     1
176
     1
 42
1.0
176
     1
 92
        8
176
     1
 66
   257
176
     1
 43
1.0
176
     1
 76
     1
176
     1
 77
     6
176
     1
 78
     2
176
     1
 67
     8
425
  7895160
176
     1
 79
     3
176
     1
170
     0
176
     1
171
     0
176
     1
290
     0
176
     1
 93
        5
176
     1
 44
0.0
176
     1
173
     0
176
     1
1001
ACAD
1000
AcDbSavedByObjectVersion
1070
     0
  0
VISUALSTYLE
  5
3D
102
{ACAD_XDICTIONARY
360
19B
102
}
102
{ACAD_REACTORS
330
29
102
}
330
29
100
AcDbVisualStyle
  2
Shaded with edges
 70
    26
177
     2
291
     0
 71
     2
176
     1
 72
     2
176
     1
 73
     1
176
     1
 90
        2
176
     1
 40
0.6
176
     1
 41
30.0
176
     1
 63
     7
421
 16777215
176
     1
 74
     1
176
     1
 91
        2
176
     1
 64
     7
176
     1
 65
   257
176
     1
 75
     2
176
     1
175
     1
176
     1
 42
1.0
176
     1
 92
        8
176
     1
 66
   257
176
     1
 43
1.0
176
     1
 76
     1
176
     1
 77
     6
176
     1
 78
     2
176
     1
 67
     7
176
     1
 79
     3
176
     1
170
     0
176
     1
171
     0
176
     1
290
     0
176
     1
 93
        5
176
     1
 44
0.0
176
     1
173
     0
176
     1
1001
ACAD
1000
AcDbSavedByObjectVersion
1070
     0
  0
VISUALSTYLE
  5
3A
102
{ACAD_XDICTIONARY
360
195
102
}
102
{ACAD_REACTORS
330
29
102
}
330
29
100
AcDbVisualStyle
  2
Shades of Gray
 70
    23
177
     2
291
     0
 71
     2
176
     1
 72
     2
176
     1
 73
     3
176
     1
 90
        0
176
     1
 40
0.6
176
     1
 41
30.0
176
     1
 63
     7
421
 16777215
176
     1
 74
     2
176
     1
 91
        2
176
     1
 64
     7
176
     1
 65
     7
176
     1
 75
     1
176
     1
175
     1
176
     1
 42
40.0
176
     1
 92
        8
176
     1
 66
     7
176
     1
 43
1.0
176
     1
 76
     1
176
     1
 77
     6
176
     1
 78
     2
176
     1
 67
     7
176
     1
 79
     3
176
     1
170
     0
176
     1
171
     0
176
     1
290
     0
176
     1
 93
        1
176
     1
 44
0.0
176
     1
173
     0
176
     1
1001
ACAD
1000
AcDbSavedByObjectVersion
1070
     0
  0
VISUALSTYLE
  5
3B
102
{ACAD_XDICTIONARY
360
197
102
}
102
{ACAD_REACTORS
330
29
102
}
330
29
100
AcDbVisualStyle
  2
Sketchy
 70
    24
177
     2
291
     0
 71
     1
176
     1
 72
     2
176
     1
 73
     2
176
     1
 90
        0
176
     1
 40
0.6
176
     1
 41
30.0
176
     1
 63
     7
421
 16777215
176
     1
 74
     2
176
     1
 91
        2
176
     1
 64
     7
176
     1
 65
     7
176
     1
 75
     1
176
     1
175
     1
176
     1
 42
40.0
176
     1
 92
       11
176
     1
 66
     7
176
     1
 43
1.0
176
     1
 76
     1
176
     1
 77
     6
176
     1
 78
     2
176
     1
 67
     7
176
     1
 79
     6
176
     1
170
     0
176
     1
171
     0
176
     1
290
     0
176
     1
 93
        1
176
     1
 44
0.0
176
     1
173
     0
176
     1
1001
ACAD
1000
AcDbSavedByObjectVersion
1070
     0
  0
VISUALSTYLE
  5
36
102
{ACAD_XDICTIONARY
360
18D
102
}
102
{ACAD_REACTORS
330
29
102
}
330
29
100
AcDbVisualStyle
  2
Thicken
 70
    13
177
     2
291
     1
 71
     2
176
     1
 72
     2
176
     1
 73
     0
176
     1
 90
        0
176
     1
 40
0.6
176
     1
 41
30.0
176
     1
 63
     7
421
 16777215
176
     1
 74
     1
176
     1
 91
        4
176
     1
 64
     7
176
     1
 65
   257
176
     1
 75
     1
176
     1
175
     1
176
     1
 42
1.0
176
     1
 92
       12
176
     1
 66
     7
176
     1
 43
1.0
176
     1
 76
     1
176
     1
 77
     6
176
     1
 78
     2
176
     1
 67
     7
176
     1
 79
     5
176
     1
170
     0
176
     1
171
     0
176
     1
290
     0
176
     1
 93
        1
176
     1
 44
0.0
176
     1
173
     0
176
     1
1001
ACAD
1000
AcDbSavedByObjectVersion
1070
     0
  0
VISUALSTYLE
  5
30
102
{ACAD_XDICTIONARY
360
181
102
}
102
{ACAD_REACTORS
330
29
102
}
330
29
100
AcDbVisualStyle
  2
Wireframe
 70
     5
177
     2
291
     0
 71
     0
176
     1
 72
     2
176
     1
 73
     0
176
     1
 90
        0
176
     1
 40
0.6
176
     1
 41
30.0
176
     1
 63
     7
421
 16777215
176
     1
 74
     1
176
     1
 91
        4
176
     1
 64
     7
176
     1
 65
   257
176
     1
 75
     1
176
     1
175
     1
176
     1
 42
1.0
176
     1
 92
        0
176
     1
 66
   257
176
     1
 43
1.0
176
     1
 76
     1
176
     1
 77
     6
176
     1
 78
     2
176
     1
 67
     7
176
     1
 79
     3
176
     1
170
     0
176
     1
171
     0
176
     1
290
     0
176
     1
 93
        1
176
     1
 44
0.0
176
     1
173
     0
176
     1
1001
ACAD
1000
AcDbSavedByObjectVersion
1070
     0
  0
VISUALSTYLE
  5
3C
102
{ACAD_XDICTIONARY
360
199
102
}
102
{ACAD_REACTORS
330
29
102
}
330
29
100
AcDbVisualStyle
  2
X-Ray
 70
    25
177
     2
291
     0
 71
     2
176
     1
 72
     2
176
     1
 73
     1
176
     1
 90
        1
176
     1
 40
0.5
176
     1
 41
30.0
176
     1
 63
     7
421
 16777215
176
     1
 74
     1
176
     1
 91
        0
176
     1
 64
     7
176
     1
 65
   257
176
     1
 75
     1
176
     1
175
     1
176
     1
 42
1.0
176
     1
 92
        8
176
     1
 66
     7
176
     1
 43
1.0
176
     1
 76
     1
176
     1
 77
     6
176
     1
 78
     2
176
     1
 67
     7
176
     1
 79
     3
176
     1
170
     0
176
     1
171
     0
176
     1
290
     0
176
     1
 93
       13
176
     1
 44
0.0
176
     1
173
     0
176
     1
1001
ACAD
1000
AcDbSavedByObjectVersion
1070
     0
  0
DICTIONARYVAR
  5
171
102
{ACAD_REACTORS
330
16C
102
}
330
16C
100
DictionaryVariables
280
     0
  1
1:1
  0
DICTIONARYVAR
  5
16E
102
{ACAD_REACTORS
330
16C
102
}
330
16C
100
DictionaryVariables
280
     0
  1
STANDARD
  0
DICTIONARYVAR
  5
16D
102
{ACAD_REACTORS
330
16C
102
}
330
16C
100
DictionaryVariables
280
     0
  1
STANDARD
  0
DICTIONARYVAR
  5
16F
102
{ACAD_REACTORS
330
16C
102
}
330
16C
100
DictionaryVariables
280
     0
  1
Imperial24
  0
DICTIONARYVAR
  5
170
102
{ACAD_REACTORS
330
16C
102
}
330
16C
100
DictionaryVariables
280
     0
  1
Imperial24
  0
DICTIONARY
  5
1A9
330
6B
100
AcDbDictionary
280
     1
281
     1
  3
ACAD_XREC_ROUNDTRIP
360
1AA
  0
DICTIONARY
  5
1A
330
19
100
AcDbDictionary
280
     1
281
     1
  3
BUMPTILE
360
1C
  3
DIFFUSETILE
360
1B
  3
OPACITYTILE
360
1F
  3
REFLECTIONTILE
360
1E
  3
REFRACTIONTILE
360
20
  3
SPECULARTILE
360
1D
  0
DICTIONARY
  5
12
330
11
100
AcDbDictionary
280
     1
281
     1
  3
BUMPTILE
360
14
  3
DIFFUSETILE
360
13
  3
OPACITYTILE
360
17
  3
REFLECTIONTILE
360
16
  3
REFRACTIONTILE
360
18
  3
SPECULARTILE
360
15
  0
DICTIONARY
  5
22
330
21
100
AcDbDictionary
280
     1
281
     1
  3
BUMPTILE
360
24
  3
DIFFUSETILE
360
23
  3
OPACITYTILE
360
27
  3
REFLECTIONTILE
360
26
  3
REFRACTIONTILE
360
28
  3
SPECULARTILE
360
25
  0
DICTIONARY
  5
1A5
330
67
100
AcDbDictionary
280
     1
281
     1
  3
ACAD_XREC_ROUNDTRIP
360
1A6
  0
DICTIONARY
  5
1A7
330
69
100
AcDbDictionary
280
     1
281
     1
  3
ACAD_XREC_ROUNDTRIP
360
1A8
  0
DICTIONARY
  5
172
330
65
100
AcDbDictionary
280
     1
281
     1
  3
ACAD_ROUNDTRIP_2008_TABLESTYLE_CELLSTYLEMAP
360
173
  0
DICTIONARY
  5
17F
330
2F
100
AcDbDictionary
280
     1
281
     1
  3
ACAD_XREC_ROUNDTRIP
360
180
  0
DICTIONARY
  5
17D
330
2E
100
AcDbDictionary
280
     1
281
     1
  3
ACAD_XREC_ROUNDTRIP
360
17E
  0
DICTIONARY
  5
18B
330
35
100
AcDbDictionary
280
     1
281
     1
  3
ACAD_XREC_ROUNDTRIP
360
18C
  0
DICTIONARY
  5
193
330
39
100
AcDbDictionary
280
     1
281
     1
  3
ACAD_XREC_ROUNDTRIP
360
194
  0
DICTIONARY
  5
185
330
32
100
AcDbDictionary
280
     1
281
     1
  3
ACAD_XREC_ROUNDTRIP
360
186
  0
DICTIONARY
  5
189
330
34
100
AcDbDictionary
280
     1
281
     1
  3
ACAD_XREC_ROUNDTRIP
360
18A
  0
DICTIONARY
  5
1A3
330
41
100
AcDbDictionary
280
     1
281
     1
  3
ACAD_XREC_ROUNDTRIP
360
1A4
  0
DICTIONARY
  5
191
330
38
100
AcDbDictionary
280
     1
281
     1
  3
ACAD_XREC_ROUNDTRIP
360
192
  0
DICTIONARY
  5
175
330
2A
100
AcDbDictionary
280
     1
281
     1
  3
ACAD_XREC_ROUNDTRIP
360
176
  0
DICTIONARY
  5
177
330
2B
100
AcDbDictionary
280
     1
281
     1
  3
ACAD_XREC_ROUNDTRIP
360
178
  0
DICTIONARY
  5
179
330
2C
100
AcDbDictionary
280
     1
281
     1
  3
ACAD_XREC_ROUNDTRIP
360
17A
  0
DICTIONARY
  5
17B
330
2D
100
AcDbDictionary
280
     1
281
     1
  3
ACAD_XREC_ROUNDTRIP
360
17C
  0
DICTIONARY
  5
183
330
31
100
AcDbDictionary
280
     1
281
     1
  3
ACAD_XREC_ROUNDTRIP
360
184
  0
DICTIONARY
  5
19F
330
3F
100
AcDbDictionary
280
     1
281
     1
  3
ACAD_XREC_ROUNDTRIP
360
1A0
  0
DICTIONARY
  5
18F
330
37
100
AcDbDictionary
280
     1
281
     1
  3
ACAD_XREC_ROUNDTRIP
360
190
  0
DICTIONARY
  5
1A1
330
40
100
AcDbDictionary
280
     1
281
     1
  3
ACAD_XREC_ROUNDTRIP
360
1A2
  0
DICTIONARY
  5
187
330
33
100
AcDbDictionary
280
     1
281
     1
  3
ACAD_XREC_ROUNDTRIP
360
188
  0
DICTIONARY
  5
19D
330
3E
100
AcDbDictionary
280
     1
281
     1
  3
ACAD_XREC_ROUNDTRIP
360
19E
  0
DICTIONARY
  5
19B
330
3D
100
AcDbDictionary
280
     1
281
     1
  3
ACAD_XREC_ROUNDTRIP
360
19C
  0
DICTIONARY
  5
195
330
3A
100
AcDbDictionary
280
     1
281
     1
  3
ACAD_XREC_ROUNDTRIP
360
196
  0
DICTIONARY
  5
197
330
3B
100
AcDbDictionary
280
     1
281
     1
  3
ACAD_XREC_ROUNDTRIP
360
198
  0
DICTIONARY
  5
18D
330
36
100
AcDbDictionary
280
     1
281
     1
  3
ACAD_XREC_ROUNDTRIP
360
18E
  0
DICTIONARY
  5
181
330
30
100
AcDbDictionary
280
     1
281
     1
  3
ACAD_XREC_ROUNDTRIP
360
182
  0
DICTIONARY
  5
199
330
3C
100
AcDbDictionary
280
     1
281
     1
  3
ACAD_XREC_ROUNDTRIP
360
19A
  0
XRECORD
  5
1AA
102
{ACAD_REACTORS
330
1A9
102
}
330
1A9
100
AcDbXrecord
280
     1
102
DISPLAYNAME
  1
Imperial24
102
FLAGS
 90
        0
  0
XRECORD
  5
1C
102
{ACAD_REACTORS
330
1A
102
}
330
1A
100
AcDbXrecord
280
     1
270
     1
271
     1
  0
XRECORD
  5
1B
102
{ACAD_REACTORS
330
1A
102
}
330
1A
100
AcDbXrecord
280
     1
270
     1
271
     1
  0
XRECORD
  5
1F
102
{ACAD_REACTORS
330
1A
102
}
330
1A
100
AcDbXrecord
280
     1
270
     1
271
     1
  0
XRECORD
  5
1E
102
{ACAD_REACTORS
330
1A
102
}
330
1A
100
AcDbXrecord
280
     1
270
     1
271
     1
  0
XRECORD
  5
20
102
{ACAD_REACTORS
330
1A
102
}
330
1A
100
AcDbXrecord
280
     1
270
     1
271
     1
  0
XRECORD
  5
1D
102
{ACAD_REACTORS
330
1A
102
}
330
1A
100
AcDbXrecord
280
     1
270
     1
271
     1
  0
XRECORD
  5
14
102
{ACAD_REACTORS
330
12
102
}
330
12
100
AcDbXrecord
280
     1
270
     1
271
     1
  0
XRECORD
  5
13
102
{ACAD_REACTORS
330
12
102
}
330
12
100
AcDbXrecord
280
     1
270
     1
271
     1
  0
XRECORD
  5
17
102
{ACAD_REACTORS
330
12
102
}
330
12
100
AcDbXrecord
280
     1
270
     1
271
     1
  0
XRECORD
  5
16
102
{ACAD_REACTORS
330
12
102
}
330
12
100
AcDbXrecord
280
     1
270
     1
271
     1
  0
XRECORD
  5
18
102
{ACAD_REACTORS
330
12
102
}
330
12
100
AcDbXrecord
280
     1
270
     1
271
     1
  0
XRECORD
  5
15
102
{ACAD_REACTORS
330
12
102
}
330
12
100
AcDbXrecord
280
     1
270
     1
271
     1
  0
XRECORD
  5
24
102
{ACAD_REACTORS
330
22
102
}
330
22
100
AcDbXrecord
280
     1
270
     1
271
     1
  0
XRECORD
  5
23
102
{ACAD_REACTORS
330
22
102
}
330
22
100
AcDbXrecord
280
     1
270
     1
271
     1
  0
XRECORD
  5
27
102
{ACAD_REACTORS
330
22
102
}
330
22
100
AcDbXrecord
280
     1
270
     1
271
     1
  0
XRECORD
  5
26
102
{ACAD_REACTORS
330
22
102
}
330
22
100
AcDbXrecord
280
     1
270
     1
271
     1
  0
XRECORD
  5
28
102
{ACAD_REACTORS
330
22
102
}
330
22
100
AcDbXrecord
280
     1
270
     1
271
     1
  0
XRECORD
  5
25
102
{ACAD_REACTORS
330
22
102
}
330
22
100
AcDbXrecord
280
     1
270
     1
271
     1
  0
XRECORD
  5
1A6
102
{ACAD_REACTORS
330
1A5
102
}
330
1A5
100
AcDbXrecord
280
     1
102
ACAD_ROUNDTRIP_2012_MLEADER_STYLE
298
     1
  0
XRECORD
  5
1A8
102
{ACAD_REACTORS
330
1A7
102
}
330
1A7
100
AcDbXrecord
280
     1
102
DISPLAYNAME
  1
Imperial24
102
FLAGS
 90
        0
  0
CELLSTYLEMAP
  5
173
102
{ACAD_REACTORS
330
172
102
}
330
172
100
AcDbCellStyleMap
 90
        3
300
CELLSTYLE
  1
TABLEFORMAT_BEGIN
 90
        5
170
     1
 91
        0
 92
    32768
 62
   257
 93
        1
300
CONTENTFORMAT
  1
CONTENTFORMAT_BEGIN
 90
        0
 91
        0
 92
      512
 93
        0
300

 40
0.0
140
1.0
 94
        5
 62
     0
340
55
144
0.25
309
CONTENTFORMAT_END
171
     0
 94
        0
309
TABLEFORMAT_END
  1
CELLSTYLE_BEGIN
 90
        1
 91
        1
300
_TITLE
309
CELLSTYLE_END
300
CELLSTYLE
  1
TABLEFORMAT_BEGIN
 90
        5
170
     1
 91
        0
 92
        0
 62
   257
 93
        1
300
CONTENTFORMAT
  1
CONTENTFORMAT_BEGIN
 90
        0
 91
        0
 92
      512
 93
        0
300

 40
0.0
140
1.0
 94
        5
 62
     0
340
55
144
0.18
309
CONTENTFORMAT_END
171
     0
 94
        0
309
TABLEFORMAT_END
  1
CELLSTYLE_BEGIN
 90
        2
 91
        1
300
_HEADER
309
CELLSTYLE_END
300
CELLSTYLE
  1
TABLEFORMAT_BEGIN
 90
        5
170
     1
 91
        0
 92
        0
 62
   257
 93
        1
300
CONTENTFORMAT
  1
CONTENTFORMAT_BEGIN
 90
        0
 91
        0
 92
      512
 93
        0
300

 40
0.0
140
1.0
 94
        2
 62
     0
340
55
144
0.18
309
CONTENTFORMAT_END
171
     0
 94
        0
309
TABLEFORMAT_END
  1
CELLSTYLE_BEGIN
 90
        3
 91
        2
300
_DATA
309
CELLSTYLE_END
  0
XRECORD
  5
180
102
{ACAD_REACTORS
330
17F
102
}
330
17F
100
AcDbXrecord
280
     1
102
RTVSPost2010Prop28
280
     1
102
RTVSPost2010PropOp28
 70
     1
102
RTVSPost2010Prop29
280
     1
102
RTVSPost2010PropOp29
 70
     1
102
RTVSPost2010Prop30
280
     0
102
RTVSPost2010PropOp30
 70
     1
102
RTVSPost2010Prop31
280
     0
102
RTVSPost2010PropOp31
 70
     1
102
RTVSPost2010Prop32
280
     0
102
RTVSPost2010PropOp32
 70
     1
102
RTVSPost2010Prop33
280
     0
102
RTVSPost2010PropOp33
 70
     1
102
RTVSPost2010Prop34
280
     0
102
RTVSPost2010PropOp34
 70
     1
102
RTVSPost2010Prop35
280
     0
102
RTVSPost2010PropOp35
 70
     1
102
RTVSPost2010Prop36
280
     0
102
RTVSPost2010PropOp36
 70
     1
102
RTVSPost2010Prop37
 90
       50
102
RTVSPost2010PropOp37
 70
     1
102
RTVSPost2010Prop38
140
0.0
102
RTVSPost2010PropOp38
 70
     1
102
RTVSPost2010Prop39
140
1.0
102
RTVSPost2010PropOp39
 70
     1
102
RTVSPost2010Prop40
 90
        0
102
RTVSPost2010PropOp40
 70
     1
102
RTVSPost2010Prop41ColorIndex
 90
       18
102
RTVSPost2010Prop41ColorRGB
 90
        0
102
RTVSPost2010PropOp41
 70
     1
102
RTVSPost2010Prop42
 90
       50
102
RTVSPost2010PropOp42
 70
     1
102
RTVSPost2010Prop43
 90
        3
102
RTVSPost2010PropOp43
 70
     1
102
RTVSPost2010Prop44ColorIndex
 90
        5
102
RTVSPost2010Prop44ColorRGB
 90
      255
102
RTVSPost2010PropOp44
 70
     1
102
RTVSPost2010Prop45
280
     0
102
RTVSPost2010PropOp45
 70
     1
102
RTVSPost2010Prop46
 90
       50
102
RTVSPost2010PropOp46
 70
     1
102
RTVSPost2010Prop47
 90
       50
102
RTVSPost2010PropOp47
 70
     1
102
RTVSPost2010Prop48
 90
       50
102
RTVSPost2010PropOp48
 70
     1
102
RTVSPost2010Prop49
280
     0
102
RTVSPost2010PropOp49
 70
     1
102
RTVSPost2010Prop50
 90
       50
102
RTVSPost2010PropOp50
 70
     1
102
RTVSPost2010Prop51ColorIndex
 90
      256
102
RTVSPost2010Prop51ColorRGB
 90
-16777216
102
RTVSPost2010PropOp51
 70
     0
102
RTVSPost2010Prop52
140
1.0
102
RTVSPost2010PropOp52
 70
     0
102
RTVSPost2010Prop53
 90
        2
102
RTVSPost2010PropOp53
 70
     1
102
RTVSPost2010Prop54
  1
strokes_ogs.tif
102
RTVSPost2010PropOp54
 70
     1
102
RTVSPost2010Prop55
280
     0
102
RTVSPost2010PropOp55
 70
     1
102
RTVSPost2010Prop56
140
1.0
102
RTVSPost2010PropOp56
 70
     1
102
RTVSPost2010Prop57
140
1.0
102
RTVSPost2010PropOp57
 70
     1
  0
XRECORD
  5
17E
102
{ACAD_REACTORS
330
17D
102
}
330
17D
100
AcDbXrecord
280
     1
102
RTVSPost2010Prop28
280
     0
102
RTVSPost2010PropOp28
 70
     1
102
RTVSPost2010Prop29
280
     1
102
RTVSPost2010PropOp29
 70
     1
102
RTVSPost2010Prop30
280
     1
102
RTVSPost2010PropOp30
 70
     1
102
RTVSPost2010Prop31
280
     0
102
RTVSPost2010PropOp31
 70
     1
102
RTVSPost2010Prop32
280
     0
102
RTVSPost2010PropOp32
 70
     1
102
RTVSPost2010Prop33
280
     0
102
RTVSPost2010PropOp33
 70
     1
102
RTVSPost2010Prop34
280
     0
102
RTVSPost2010PropOp34
 70
     1
102
RTVSPost2010Prop35
280
     0
102
RTVSPost2010PropOp35
 70
     1
102
RTVSPost2010Prop36
280
     0
102
RTVSPost2010PropOp36
 70
     1
102
RTVSPost2010Prop37
 90
       50
102
RTVSPost2010PropOp37
 70
     1
102
RTVSPost2010Prop38
140
0.0
102
RTVSPost2010PropOp38
 70
     1
102
RTVSPost2010Prop39
140
1.0
102
RTVSPost2010PropOp39
 70
     1
102
RTVSPost2010Prop40
 90
        0
102
RTVSPost2010PropOp40
 70
     1
102
RTVSPost2010Prop41ColorIndex
 90
       18
102
RTVSPost2010Prop41ColorRGB
 90
        0
102
RTVSPost2010PropOp41
 70
     1
102
RTVSPost2010Prop42
 90
       50
102
RTVSPost2010PropOp42
 70
     1
102
RTVSPost2010Prop43
 90
        3
102
RTVSPost2010PropOp43
 70
     1
102
RTVSPost2010Prop44ColorIndex
 90
        5
102
RTVSPost2010Prop44ColorRGB
 90
      255
102
RTVSPost2010PropOp44
 70
     1
102
RTVSPost2010Prop45
280
     0
102
RTVSPost2010PropOp45
 70
     1
102
RTVSPost2010Prop46
 90
       50
102
RTVSPost2010PropOp46
 70
     1
102
RTVSPost2010Prop47
 90
       50
102
RTVSPost2010PropOp47
 70
     1
102
RTVSPost2010Prop48
 90
       50
102
RTVSPost2010PropOp48
 70
     1
102
RTVSPost2010Prop49
280
     0
102
RTVSPost2010PropOp49
 70
     1
102
RTVSPost2010Prop50
 90
       50
102
RTVSPost2010PropOp50
 70
     1
102
RTVSPost2010Prop51ColorIndex
 90
      256
102
RTVSPost2010Prop51ColorRGB
 90
-16777216
102
RTVSPost2010PropOp51
 70
     0
102
RTVSPost2010Prop52
140
1.0
102
RTVSPost2010PropOp52
 70
     0
102
RTVSPost2010Prop53
 90
        2
102
RTVSPost2010PropOp53
 70
     1
102
RTVSPost2010Prop54
  1
strokes_ogs.tif
102
RTVSPost2010PropOp54
 70
     1
102
RTVSPost2010Prop55
280
     0
102
RTVSPost2010PropOp55
 70
     1
102
RTVSPost2010Prop56
140
1.0
102
RTVSPost2010PropOp56
 70
     1
102
RTVSPost2010Prop57
140
1.0
102
RTVSPost2010PropOp57
 70
     1
  0
XRECORD
  5
18C
102
{ACAD_REACTORS
330
18B
102
}
330
18B
100
AcDbXrecord
280
     1
102
RTVSPost2010Prop28
280
     0
102
RTVSPost2010PropOp28
 70
     1
102
RTVSPost2010Prop29
280
     1
102
RTVSPost2010PropOp29
 70
     1
102
RTVSPost2010Prop30
280
     1
102
RTVSPost2010PropOp30
 70
     1
102
RTVSPost2010Prop31
280
     0
102
RTVSPost2010PropOp31
 70
     1
102
RTVSPost2010Prop32
280
     0
102
RTVSPost2010PropOp32
 70
     1
102
RTVSPost2010Prop33
280
     0
102
RTVSPost2010PropOp33
 70
     1
102
RTVSPost2010Prop34
280
     0
102
RTVSPost2010PropOp34
 70
     1
102
RTVSPost2010Prop35
280
     0
102
RTVSPost2010PropOp35
 70
     1
102
RTVSPost2010Prop36
280
     0
102
RTVSPost2010PropOp36
 70
     1
102
RTVSPost2010Prop37
 90
       50
102
RTVSPost2010PropOp37
 70
     1
102
RTVSPost2010Prop38
140
0.0
102
RTVSPost2010PropOp38
 70
     1
102
RTVSPost2010Prop39
140
1.0
102
RTVSPost2010PropOp39
 70
     1
102
RTVSPost2010Prop40
 90
        0
102
RTVSPost2010PropOp40
 70
     1
102
RTVSPost2010Prop41ColorIndex
 90
       18
102
RTVSPost2010Prop41ColorRGB
 90
        0
102
RTVSPost2010PropOp41
 70
     1
102
RTVSPost2010Prop42
 90
       50
102
RTVSPost2010PropOp42
 70
     1
102
RTVSPost2010Prop43
 90
        3
102
RTVSPost2010PropOp43
 70
     1
102
RTVSPost2010Prop44ColorIndex
 90
        5
102
RTVSPost2010Prop44ColorRGB
 90
      255
102
RTVSPost2010PropOp44
 70
     1
102
RTVSPost2010Prop45
280
     0
102
RTVSPost2010PropOp45
 70
     1
102
RTVSPost2010Prop46
 90
       50
102
RTVSPost2010PropOp46
 70
     1
102
RTVSPost2010Prop47
 90
       50
102
RTVSPost2010PropOp47
 70
     1
102
RTVSPost2010Prop48
 90
       50
102
RTVSPost2010PropOp48
 70
     1
102
RTVSPost2010Prop49
280
     0
102
RTVSPost2010PropOp49
 70
     1
102
RTVSPost2010Prop50
 90
       50
102
RTVSPost2010PropOp50
 70
     1
102
RTVSPost2010Prop51ColorIndex
 90
      256
102
RTVSPost2010Prop51ColorRGB
 90
-16777216
102
RTVSPost2010PropOp51
 70
     0
102
RTVSPost2010Prop52
140
1.0
102
RTVSPost2010PropOp52
 70
     0
102
RTVSPost2010Prop53
 90
        2
102
RTVSPost2010PropOp53
 70
     1
102
RTVSPost2010Prop54
  1
strokes_ogs.tif
102
RTVSPost2010PropOp54
 70
     1
102
RTVSPost2010Prop55
280
     0
102
RTVSPost2010PropOp55
 70
     1
102
RTVSPost2010Prop56
140
1.0
102
RTVSPost2010PropOp56
 70
     1
102
RTVSPost2010Prop57
140
1.0
102
RTVSPost2010PropOp57
 70
     1
  0
XRECORD
  5
194
102
{ACAD_REACTORS
330
193
102
}
330
193
100
AcDbXrecord
280
     1
102
RTVSPost2010Prop28
280
     0
102
RTVSPost2010PropOp28
 70
     1
102
RTVSPost2010Prop29
280
     1
102
RTVSPost2010PropOp29
 70
     1
102
RTVSPost2010Prop30
280
     1
102
RTVSPost2010PropOp30
 70
     1
102
RTVSPost2010Prop31
280
     0
102
RTVSPost2010PropOp31
 70
     1
102
RTVSPost2010Prop32
280
     0
102
RTVSPost2010PropOp32
 70
     1
102
RTVSPost2010Prop33
280
     0
102
RTVSPost2010PropOp33
 70
     1
102
RTVSPost2010Prop34
280
     0
102
RTVSPost2010PropOp34
 70
     1
102
RTVSPost2010Prop35
280
     0
102
RTVSPost2010PropOp35
 70
     1
102
RTVSPost2010Prop36
280
     0
102
RTVSPost2010PropOp36
 70
     1
102
RTVSPost2010Prop37
 90
       50
102
RTVSPost2010PropOp37
 70
     1
102
RTVSPost2010Prop38
140
0.0
102
RTVSPost2010PropOp38
 70
     1
102
RTVSPost2010Prop39
140
1.0
102
RTVSPost2010PropOp39
 70
     1
102
RTVSPost2010Prop40
 90
        0
102
RTVSPost2010PropOp40
 70
     1
102
RTVSPost2010Prop41ColorIndex
 90
       18
102
RTVSPost2010Prop41ColorRGB
 90
        0
102
RTVSPost2010PropOp41
 70
     1
102
RTVSPost2010Prop42
 90
       50
102
RTVSPost2010PropOp42
 70
     1
102
RTVSPost2010Prop43
 90
        3
102
RTVSPost2010PropOp43
 70
     1
102
RTVSPost2010Prop44ColorIndex
 90
        5
102
RTVSPost2010Prop44ColorRGB
 90
      255
102
RTVSPost2010PropOp44
 70
     1
102
RTVSPost2010Prop45
280
     0
102
RTVSPost2010PropOp45
 70
     1
102
RTVSPost2010Prop46
 90
       50
102
RTVSPost2010PropOp46
 70
     1
102
RTVSPost2010Prop47
 90
       50
102
RTVSPost2010PropOp47
 70
     1
102
RTVSPost2010Prop48
 90
       50
102
RTVSPost2010PropOp48
 70
     1
102
RTVSPost2010Prop49
280
     0
102
RTVSPost2010PropOp49
 70
     1
102
RTVSPost2010Prop50
 90
       50
102
RTVSPost2010PropOp50
 70
     1
102
RTVSPost2010Prop51ColorIndex
 90
      256
102
RTVSPost2010Prop51ColorRGB
 90
-16777216
102
RTVSPost2010PropOp51
 70
     0
102
RTVSPost2010Prop52
140
1.0
102
RTVSPost2010PropOp52
 70
     0
102
RTVSPost2010Prop53
 90
        2
102
RTVSPost2010PropOp53
 70
     1
102
RTVSPost2010Prop54
  1
strokes_ogs.tif
102
RTVSPost2010PropOp54
 70
     1
102
RTVSPost2010Prop55
280
     0
102
RTVSPost2010PropOp55
 70
     1
102
RTVSPost2010Prop56
140
1.0
102
RTVSPost2010PropOp56
 70
     1
102
RTVSPost2010Prop57
140
1.0
102
RTVSPost2010PropOp57
 70
     1
  0
XRECORD
  5
186
102
{ACAD_REACTORS
330
185
102
}
330
185
100
AcDbXrecord
280
     1
102
RTVSPost2010Prop28
280
     0
102
RTVSPost2010PropOp28
 70
     1
102
RTVSPost2010Prop29
280
     1
102
RTVSPost2010PropOp29
 70
     1
102
RTVSPost2010Prop30
280
     1
102
RTVSPost2010PropOp30
 70
     1
102
RTVSPost2010Prop31
280
     0
102
RTVSPost2010PropOp31
 70
     1
102
RTVSPost2010Prop32
280
     0
102
RTVSPost2010PropOp32
 70
     1
102
RTVSPost2010Prop33
280
     0
102
RTVSPost2010PropOp33
 70
     1
102
RTVSPost2010Prop34
280
     0
102
RTVSPost2010PropOp34
 70
     1
102
RTVSPost2010Prop35
280
     0
102
RTVSPost2010PropOp35
 70
     1
102
RTVSPost2010Prop36
280
     0
102
RTVSPost2010PropOp36
 70
     1
102
RTVSPost2010Prop37
 90
       50
102
RTVSPost2010PropOp37
 70
     1
102
RTVSPost2010Prop38
140
0.0
102
RTVSPost2010PropOp38
 70
     1
102
RTVSPost2010Prop39
140
1.0
102
RTVSPost2010PropOp39
 70
     1
102
RTVSPost2010Prop40
 90
        0
102
RTVSPost2010PropOp40
 70
     1
102
RTVSPost2010Prop41ColorIndex
 90
       18
102
RTVSPost2010Prop41ColorRGB
 90
        0
102
RTVSPost2010PropOp41
 70
     1
102
RTVSPost2010Prop42
 90
       50
102
RTVSPost2010PropOp42
 70
     1
102
RTVSPost2010Prop43
 90
        3
102
RTVSPost2010PropOp43
 70
     1
102
RTVSPost2010Prop44ColorIndex
 90
        5
102
RTVSPost2010Prop44ColorRGB
 90
      255
102
RTVSPost2010PropOp44
 70
     1
102
RTVSPost2010Prop45
280
     0
102
RTVSPost2010PropOp45
 70
     1
102
RTVSPost2010Prop46
 90
       50
102
RTVSPost2010PropOp46
 70
     1
102
RTVSPost2010Prop47
 90
       50
102
RTVSPost2010PropOp47
 70
     1
102
RTVSPost2010Prop48
 90
       50
102
RTVSPost2010PropOp48
 70
     1
102
RTVSPost2010Prop49
280
     0
102
RTVSPost2010PropOp49
 70
     1
102
RTVSPost2010Prop50
 90
       50
102
RTVSPost2010PropOp50
 70
     1
102
RTVSPost2010Prop51ColorIndex
 90
      256
102
RTVSPost2010Prop51ColorRGB
 90
-16777216
102
RTVSPost2010PropOp51
 70
     0
102
RTVSPost2010Prop52
140
1.0
102
RTVSPost2010PropOp52
 70
     0
102
RTVSPost2010Prop53
 90
        2
102
RTVSPost2010PropOp53
 70
     1
102
RTVSPost2010Prop54
  1
strokes_ogs.tif
102
RTVSPost2010PropOp54
 70
     1
102
RTVSPost2010Prop55
280
     0
102
RTVSPost2010PropOp55
 70
     1
102
RTVSPost2010Prop56
140
1.0
102
RTVSPost2010PropOp56
 70
     1
102
RTVSPost2010Prop57
140
1.0
102
RTVSPost2010PropOp57
 70
     1
  0
XRECORD
  5
18A
102
{ACAD_REACTORS
330
189
102
}
330
189
100
AcDbXrecord
280
     1
102
RTVSPost2010Prop28
280
     0
102
RTVSPost2010PropOp28
 70
     1
102
RTVSPost2010Prop29
280
     1
102
RTVSPost2010PropOp29
 70
     1
102
RTVSPost2010Prop30
280
     1
102
RTVSPost2010PropOp30
 70
     1
102
RTVSPost2010Prop31
280
     0
102
RTVSPost2010PropOp31
 70
     1
102
RTVSPost2010Prop32
280
     0
102
RTVSPost2010PropOp32
 70
     1
102
RTVSPost2010Prop33
280
     0
102
RTVSPost2010PropOp33
 70
     1
102
RTVSPost2010Prop34
280
     0
102
RTVSPost2010PropOp34
 70
     1
102
RTVSPost2010Prop35
280
     0
102
RTVSPost2010PropOp35
 70
     1
102
RTVSPost2010Prop36
280
     0
102
RTVSPost2010PropOp36
 70
     1
102
RTVSPost2010Prop37
 90
       50
102
RTVSPost2010PropOp37
 70
     1
102
RTVSPost2010Prop38
140
0.0
102
RTVSPost2010PropOp38
 70
     1
102
RTVSPost2010Prop39
140
1.0
102
RTVSPost2010PropOp39
 70
     1
102
RTVSPost2010Prop40
 90
        0
102
RTVSPost2010PropOp40
 70
     1
102
RTVSPost2010Prop41ColorIndex
 90
       18
102
RTVSPost2010Prop41ColorRGB
 90
        0
102
RTVSPost2010PropOp41
 70
     1
102
RTVSPost2010Prop42
 90
       50
102
RTVSPost2010PropOp42
 70
     1
102
RTVSPost2010Prop43
 90
        3
102
RTVSPost2010PropOp43
 70
     1
102
RTVSPost2010Prop44ColorIndex
 90
        5
102
RTVSPost2010Prop44ColorRGB
 90
      255
102
RTVSPost2010PropOp44
 70
     1
102
RTVSPost2010Prop45
280
     0
102
RTVSPost2010PropOp45
 70
     1
102
RTVSPost2010Prop46
 90
       50
102
RTVSPost2010PropOp46
 70
     1
102
RTVSPost2010Prop47
 90
       50
102
RTVSPost2010PropOp47
 70
     1
102
RTVSPost2010Prop48
 90
       50
102
RTVSPost2010PropOp48
 70
     1
102
RTVSPost2010Prop49
280
     0
102
RTVSPost2010PropOp49
 70
     1
102
RTVSPost2010Prop50
 90
       50
102
RTVSPost2010PropOp50
 70
     1
102
RTVSPost2010Prop51ColorIndex
 90
      256
102
RTVSPost2010Prop51ColorRGB
 90
-16777216
102
RTVSPost2010PropOp51
 70
     0
102
RTVSPost2010Prop52
140
1.0
102
RTVSPost2010PropOp52
 70
     0
102
RTVSPost2010Prop53
 90
        2
102
RTVSPost2010PropOp53
 70
     1
102
RTVSPost2010Prop54
  1
strokes_ogs.tif
102
RTVSPost2010PropOp54
 70
     1
102
RTVSPost2010Prop55
280
     0
102
RTVSPost2010PropOp55
 70
     1
102
RTVSPost2010Prop56
140
1.0
102
RTVSPost2010PropOp56
 70
     1
102
RTVSPost2010Prop57
140
1.0
102
RTVSPost2010PropOp57
 70
     1
  0
XRECORD
  5
1A4
102
{ACAD_REACTORS
330
1A3
102
}
330
1A3
100
AcDbXrecord
280
     1
102
RTVSPost2010Prop28
280
     0
102
RTVSPost2010PropOp28
 70
     0
102
RTVSPost2010Prop29
280
     1
102
RTVSPost2010PropOp29
 70
     0
102
RTVSPost2010Prop30
280
     1
102
RTVSPost2010PropOp30
 70
     0
102
RTVSPost2010Prop31
280
     0
102
RTVSPost2010PropOp31
 70
     0
102
RTVSPost2010Prop32
280
     0
102
RTVSPost2010PropOp32
 70
     0
102
RTVSPost2010Prop33
280
     0
102
RTVSPost2010PropOp33
 70
     0
102
RTVSPost2010Prop34
280
     0
102
RTVSPost2010PropOp34
 70
     0
102
RTVSPost2010Prop35
280
     0
102
RTVSPost2010PropOp35
 70
     0
102
RTVSPost2010Prop36
280
     0
102
RTVSPost2010PropOp36
 70
     0
102
RTVSPost2010Prop37
 90
       50
102
RTVSPost2010PropOp37
 70
     0
102
RTVSPost2010Prop38
140
0.0
102
RTVSPost2010PropOp38
 70
     0
102
RTVSPost2010Prop39
140
1.0
102
RTVSPost2010PropOp39
 70
     0
102
RTVSPost2010Prop40
 90
        0
102
RTVSPost2010PropOp40
 70
     0
102
RTVSPost2010Prop41ColorIndex
 90
       18
102
RTVSPost2010Prop41ColorRGB
 90
        0
102
RTVSPost2010PropOp41
 70
     0
102
RTVSPost2010Prop42
 90
       50
102
RTVSPost2010PropOp42
 70
     0
102
RTVSPost2010Prop43
 90
        3
102
RTVSPost2010PropOp43
 70
     0
102
RTVSPost2010Prop44ColorIndex
 90
        5
102
RTVSPost2010Prop44ColorRGB
 90
      255
102
RTVSPost2010PropOp44
 70
     0
102
RTVSPost2010Prop45
280
     0
102
RTVSPost2010PropOp45
 70
     0
102
RTVSPost2010Prop46
 90
       50
102
RTVSPost2010PropOp46
 70
     0
102
RTVSPost2010Prop47
 90
       50
102
RTVSPost2010PropOp47
 70
     0
102
RTVSPost2010Prop48
 90
       50
102
RTVSPost2010PropOp48
 70
     0
102
RTVSPost2010Prop49
280
     0
102
RTVSPost2010PropOp49
 70
     0
102
RTVSPost2010Prop50
 90
       50
102
RTVSPost2010PropOp50
 70
     0
102
RTVSPost2010Prop51ColorIndex
 90
      256
102
RTVSPost2010Prop51ColorRGB
 90
-16777216
102
RTVSPost2010PropOp51
 70
     0
102
RTVSPost2010Prop52
140
1.0
102
RTVSPost2010PropOp52
 70
     0
102
RTVSPost2010Prop53
 90
        2
102
RTVSPost2010PropOp53
 70
     0
102
RTVSPost2010Prop54
  1
strokes_ogs.tif
102
RTVSPost2010PropOp54
 70
     0
102
RTVSPost2010Prop55
280
     0
102
RTVSPost2010PropOp55
 70
     0
102
RTVSPost2010Prop56
140
1.0
102
RTVSPost2010PropOp56
 70
     0
102
RTVSPost2010Prop57
140
1.0
102
RTVSPost2010PropOp57
 70
     0
  0
XRECORD
  5
192
102
{ACAD_REACTORS
330
191
102
}
330
191
100
AcDbXrecord
280
     1
102
RTVSPost2010Prop28
280
     0
102
RTVSPost2010PropOp28
 70
     1
102
RTVSPost2010Prop29
280
     1
102
RTVSPost2010PropOp29
 70
     1
102
RTVSPost2010Prop30
280
     1
102
RTVSPost2010PropOp30
 70
     1
102
RTVSPost2010Prop31
280
     0
102
RTVSPost2010PropOp31
 70
     1
102
RTVSPost2010Prop32
280
     0
102
RTVSPost2010PropOp32
 70
     1
102
RTVSPost2010Prop33
280
     0
102
RTVSPost2010PropOp33
 70
     1
102
RTVSPost2010Prop34
280
     0
102
RTVSPost2010PropOp34
 70
     1
102
RTVSPost2010Prop35
280
     0
102
RTVSPost2010PropOp35
 70
     1
102
RTVSPost2010Prop36
280
     0
102
RTVSPost2010PropOp36
 70
     1
102
RTVSPost2010Prop37
 90
       50
102
RTVSPost2010PropOp37
 70
     1
102
RTVSPost2010Prop38
140
0.0
102
RTVSPost2010PropOp38
 70
     1
102
RTVSPost2010Prop39
140
1.0
102
RTVSPost2010PropOp39
 70
     1
102
RTVSPost2010Prop40
 90
        0
102
RTVSPost2010PropOp40
 70
     1
102
RTVSPost2010Prop41ColorIndex
 90
       18
102
RTVSPost2010Prop41ColorRGB
 90
        0
102
RTVSPost2010PropOp41
 70
     1
102
RTVSPost2010Prop42
 90
       50
102
RTVSPost2010PropOp42
 70
     1
102
RTVSPost2010Prop43
 90
        3
102
RTVSPost2010PropOp43
 70
     1
102
RTVSPost2010Prop44ColorIndex
 90
        5
102
RTVSPost2010Prop44ColorRGB
 90
      255
102
RTVSPost2010PropOp44
 70
     1
102
RTVSPost2010Prop45
280
     0
102
RTVSPost2010PropOp45
 70
     1
102
RTVSPost2010Prop46
 90
       50
102
RTVSPost2010PropOp46
 70
     1
102
RTVSPost2010Prop47
 90
       50
102
RTVSPost2010PropOp47
 70
     1
102
RTVSPost2010Prop48
 90
       50
102
RTVSPost2010PropOp48
 70
     1
102
RTVSPost2010Prop49
280
     0
102
RTVSPost2010PropOp49
 70
     1
102
RTVSPost2010Prop50
 90
       50
102
RTVSPost2010PropOp50
 70
     1
102
RTVSPost2010Prop51ColorIndex
 90
      256
102
RTVSPost2010Prop51ColorRGB
 90
-16777216
102
RTVSPost2010PropOp51
 70
     0
102
RTVSPost2010Prop52
140
1.0
102
RTVSPost2010PropOp52
 70
     0
102
RTVSPost2010Prop53
 90
        2
102
RTVSPost2010PropOp53
 70
     1
102
RTVSPost2010Prop54
  1
strokes_ogs.tif
102
RTVSPost2010PropOp54
 70
     1
102
RTVSPost2010Prop55
280
     0
102
RTVSPost2010PropOp55
 70
     1
102
RTVSPost2010Prop56
140
1.0
102
RTVSPost2010PropOp56
 70
     1
102
RTVSPost2010Prop57
140
1.0
102
RTVSPost2010PropOp57
 70
     1
  0
XRECORD
  5
176
102
{ACAD_REACTORS
330
175
102
}
330
175
100
AcDbXrecord
280
     1
102
RTVSPost2010Prop28
280
     0
102
RTVSPost2010PropOp28
 70
     1
102
RTVSPost2010Prop29
280
     1
102
RTVSPost2010PropOp29
 70
     1
102
RTVSPost2010Prop30
280
     1
102
RTVSPost2010PropOp30
 70
     1
102
RTVSPost2010Prop31
280
     0
102
RTVSPost2010PropOp31
 70
     1
102
RTVSPost2010Prop32
280
     0
102
RTVSPost2010PropOp32
 70
     1
102
RTVSPost2010Prop33
280
     0
102
RTVSPost2010PropOp33
 70
     1
102
RTVSPost2010Prop34
280
     0
102
RTVSPost2010PropOp34
 70
     1
102
RTVSPost2010Prop35
280
     0
102
RTVSPost2010PropOp35
 70
     1
102
RTVSPost2010Prop36
280
     0
102
RTVSPost2010PropOp36
 70
     1
102
RTVSPost2010Prop37
 90
       50
102
RTVSPost2010PropOp37
 70
     1
102
RTVSPost2010Prop38
140
0.0
102
RTVSPost2010PropOp38
 70
     1
102
RTVSPost2010Prop39
140
1.0
102
RTVSPost2010PropOp39
 70
     1
102
RTVSPost2010Prop40
 90
        0
102
RTVSPost2010PropOp40
 70
     1
102
RTVSPost2010Prop41ColorIndex
 90
       18
102
RTVSPost2010Prop41ColorRGB
 90
        0
102
RTVSPost2010PropOp41
 70
     1
102
RTVSPost2010Prop42
 90
       50
102
RTVSPost2010PropOp42
 70
     1
102
RTVSPost2010Prop43
 90
        3
102
RTVSPost2010PropOp43
 70
     1
102
RTVSPost2010Prop44ColorIndex
 90
        5
102
RTVSPost2010Prop44ColorRGB
 90
      255
102
RTVSPost2010PropOp44
 70
     1
102
RTVSPost2010Prop45
280
     0
102
RTVSPost2010PropOp45
 70
     1
102
RTVSPost2010Prop46
 90
       50
102
RTVSPost2010PropOp46
 70
     1
102
RTVSPost2010Prop47
 90
       50
102
RTVSPost2010PropOp47
 70
     1
102
RTVSPost2010Prop48
 90
       50
102
RTVSPost2010PropOp48
 70
     1
102
RTVSPost2010Prop49
280
     0
102
RTVSPost2010PropOp49
 70
     1
102
RTVSPost2010Prop50
 90
       50
102
RTVSPost2010PropOp50
 70
     1
102
RTVSPost2010Prop51ColorIndex
 90
      256
102
RTVSPost2010Prop51ColorRGB
 90
-16777216
102
RTVSPost2010PropOp51
 70
     0
102
RTVSPost2010Prop52
140
1.0
102
RTVSPost2010PropOp52
 70
     0
102
RTVSPost2010Prop53
 90
        2
102
RTVSPost2010PropOp53
 70
     1
102
RTVSPost2010Prop54
  1
strokes_ogs.tif
102
RTVSPost2010PropOp54
 70
     1
102
RTVSPost2010Prop55
280
     0
102
RTVSPost2010PropOp55
 70
     1
102
RTVSPost2010Prop56
140
1.0
102
RTVSPost2010PropOp56
 70
     1
102
RTVSPost2010Prop57
140
1.0
102
RTVSPost2010PropOp57
 70
     1
  0
XRECORD
  5
178
102
{ACAD_REACTORS
330
177
102
}
330
177
100
AcDbXrecord
280
     1
102
RTVSPost2010Prop28
280
     0
102
RTVSPost2010PropOp28
 70
     1
102
RTVSPost2010Prop29
280
     1
102
RTVSPost2010PropOp29
 70
     1
102
RTVSPost2010Prop30
280
     1
102
RTVSPost2010PropOp30
 70
     1
102
RTVSPost2010Prop31
280
     0
102
RTVSPost2010PropOp31
 70
     1
102
RTVSPost2010Prop32
280
     0
102
RTVSPost2010PropOp32
 70
     1
102
RTVSPost2010Prop33
280
     0
102
RTVSPost2010PropOp33
 70
     1
102
RTVSPost2010Prop34
280
     0
102
RTVSPost2010PropOp34
 70
     1
102
RTVSPost2010Prop35
280
     0
102
RTVSPost2010PropOp35
 70
     1
102
RTVSPost2010Prop36
280
     0
102
RTVSPost2010PropOp36
 70
     1
102
RTVSPost2010Prop37
 90
       50
102
RTVSPost2010PropOp37
 70
     1
102
RTVSPost2010Prop38
140
0.0
102
RTVSPost2010PropOp38
 70
     1
102
RTVSPost2010Prop39
140
1.0
102
RTVSPost2010PropOp39
 70
     1
102
RTVSPost2010Prop40
 90
        0
102
RTVSPost2010PropOp40
 70
     1
102
RTVSPost2010Prop41ColorIndex
 90
       18
102
RTVSPost2010Prop41ColorRGB
 90
        0
102
RTVSPost2010PropOp41
 70
     1
102
RTVSPost2010Prop42
 90
       50
102
RTVSPost2010PropOp42
 70
     1
102
RTVSPost2010Prop43
 90
        3
102
RTVSPost2010PropOp43
 70
     1
102
RTVSPost2010Prop44ColorIndex
 90
        5
102
RTVSPost2010Prop44ColorRGB
 90
      255
102
RTVSPost2010PropOp44
 70
     1
102
RTVSPost2010Prop45
280
     0
102
RTVSPost2010PropOp45
 70
     1
102
RTVSPost2010Prop46
 90
       50
102
RTVSPost2010PropOp46
 70
     1
102
RTVSPost2010Prop47
 90
       50
102
RTVSPost2010PropOp47
 70
     1
102
RTVSPost2010Prop48
 90
       50
102
RTVSPost2010PropOp48
 70
     1
102
RTVSPost2010Prop49
280
     0
102
RTVSPost2010PropOp49
 70
     1
102
RTVSPost2010Prop50
 90
       50
102
RTVSPost2010PropOp50
 70
     1
102
RTVSPost2010Prop51ColorIndex
 90
      256
102
RTVSPost2010Prop51ColorRGB
 90
-16777216
102
RTVSPost2010PropOp51
 70
     0
102
RTVSPost2010Prop52
140
1.0
102
RTVSPost2010PropOp52
 70
     0
102
RTVSPost2010Prop53
 90
        2
102
RTVSPost2010PropOp53
 70
     1
102
RTVSPost2010Prop54
  1
strokes_ogs.tif
102
RTVSPost2010PropOp54
 70
     1
102
RTVSPost2010Prop55
280
     0
102
RTVSPost2010PropOp55
 70
     1
102
RTVSPost2010Prop56
140
1.0
102
RTVSPost2010PropOp56
 70
     1
102
RTVSPost2010Prop57
140
1.0
102
RTVSPost2010PropOp57
 70
     1
  0
XRECORD
  5
17A
102
{ACAD_REACTORS
330
179
102
}
330
179
100
AcDbXrecord
280
     1
102
RTVSPost2010Prop28
280
     0
102
RTVSPost2010PropOp28
 70
     1
102
RTVSPost2010Prop29
280
     1
102
RTVSPost2010PropOp29
 70
     1
102
RTVSPost2010Prop30
280
     1
102
RTVSPost2010PropOp30
 70
     1
102
RTVSPost2010Prop31
280
     0
102
RTVSPost2010PropOp31
 70
     1
102
RTVSPost2010Prop32
280
     0
102
RTVSPost2010PropOp32
 70
     1
102
RTVSPost2010Prop33
280
     0
102
RTVSPost2010PropOp33
 70
     1
102
RTVSPost2010Prop34
280
     0
102
RTVSPost2010PropOp34
 70
     1
102
RTVSPost2010Prop35
280
     0
102
RTVSPost2010PropOp35
 70
     1
102
RTVSPost2010Prop36
280
     0
102
RTVSPost2010PropOp36
 70
     1
102
RTVSPost2010Prop37
 90
       50
102
RTVSPost2010PropOp37
 70
     1
102
RTVSPost2010Prop38
140
0.0
102
RTVSPost2010PropOp38
 70
     1
102
RTVSPost2010Prop39
140
1.0
102
RTVSPost2010PropOp39
 70
     1
102
RTVSPost2010Prop40
 90
        0
102
RTVSPost2010PropOp40
 70
     1
102
RTVSPost2010Prop41ColorIndex
 90
       18
102
RTVSPost2010Prop41ColorRGB
 90
        0
102
RTVSPost2010PropOp41
 70
     1
102
RTVSPost2010Prop42
 90
       50
102
RTVSPost2010PropOp42
 70
     1
102
RTVSPost2010Prop43
 90
        3
102
RTVSPost2010PropOp43
 70
     1
102
RTVSPost2010Prop44ColorIndex
 90
        5
102
RTVSPost2010Prop44ColorRGB
 90
      255
102
RTVSPost2010PropOp44
 70
     1
102
RTVSPost2010Prop45
280
     0
102
RTVSPost2010PropOp45
 70
     1
102
RTVSPost2010Prop46
 90
       50
102
RTVSPost2010PropOp46
 70
     1
102
RTVSPost2010Prop47
 90
       50
102
RTVSPost2010PropOp47
 70
     1
102
RTVSPost2010Prop48
 90
       50
102
RTVSPost2010PropOp48
 70
     1
102
RTVSPost2010Prop49
280
     0
102
RTVSPost2010PropOp49
 70
     1
102
RTVSPost2010Prop50
 90
       50
102
RTVSPost2010PropOp50
 70
     1
102
RTVSPost2010Prop51ColorIndex
 90
      256
102
RTVSPost2010Prop51ColorRGB
 90
-16777216
102
RTVSPost2010PropOp51
 70
     0
102
RTVSPost2010Prop52
140
1.0
102
RTVSPost2010PropOp52
 70
     0
102
RTVSPost2010Prop53
 90
        2
102
RTVSPost2010PropOp53
 70
     1
102
RTVSPost2010Prop54
  1
strokes_ogs.tif
102
RTVSPost2010PropOp54
 70
     1
102
RTVSPost2010Prop55
280
     0
102
RTVSPost2010PropOp55
 70
     1
102
RTVSPost2010Prop56
140
1.0
102
RTVSPost2010PropOp56
 70
     1
102
RTVSPost2010Prop57
140
1.0
102
RTVSPost2010PropOp57
 70
     1
  0
XRECORD
  5
17C
102
{ACAD_REACTORS
330
17B
102
}
330
17B
100
AcDbXrecord
280
     1
102
RTVSPost2010Prop28
280
     0
102
RTVSPost2010PropOp28
 70
     1
102
RTVSPost2010Prop29
280
     1
102
RTVSPost2010PropOp29
 70
     1
102
RTVSPost2010Prop30
280
     1
102
RTVSPost2010PropOp30
 70
     1
102
RTVSPost2010Prop31
280
     0
102
RTVSPost2010PropOp31
 70
     1
102
RTVSPost2010Prop32
280
     0
102
RTVSPost2010PropOp32
 70
     1
102
RTVSPost2010Prop33
280
     0
102
RTVSPost2010PropOp33
 70
     1
102
RTVSPost2010Prop34
280
     0
102
RTVSPost2010PropOp34
 70
     1
102
RTVSPost2010Prop35
280
     0
102
RTVSPost2010PropOp35
 70
     1
102
RTVSPost2010Prop36
280
     0
102
RTVSPost2010PropOp36
 70
     1
102
RTVSPost2010Prop37
 90
       50
102
RTVSPost2010PropOp37
 70
     1
102
RTVSPost2010Prop38
140
0.0
102
RTVSPost2010PropOp38
 70
     1
102
RTVSPost2010Prop39
140
1.0
102
RTVSPost2010PropOp39
 70
     1
102
RTVSPost2010Prop40
 90
        0
102
RTVSPost2010PropOp40
 70
     1
102
RTVSPost2010Prop41ColorIndex
 90
       18
102
RTVSPost2010Prop41ColorRGB
 90
        0
102
RTVSPost2010PropOp41
 70
     1
102
RTVSPost2010Prop42
 90
       50
102
RTVSPost2010PropOp42
 70
     1
102
RTVSPost2010Prop43
 90
        3
102
RTVSPost2010PropOp43
 70
     1
102
RTVSPost2010Prop44ColorIndex
 90
        5
102
RTVSPost2010Prop44ColorRGB
 90
      255
102
RTVSPost2010PropOp44
 70
     1
102
RTVSPost2010Prop45
280
     0
102
RTVSPost2010PropOp45
 70
     1
102
RTVSPost2010Prop46
 90
       50
102
RTVSPost2010PropOp46
 70
     1
102
RTVSPost2010Prop47
 90
       50
102
RTVSPost2010PropOp47
 70
     1
102
RTVSPost2010Prop48
 90
       50
102
RTVSPost2010PropOp48
 70
     1
102
RTVSPost2010Prop49
280
     0
102
RTVSPost2010PropOp49
 70
     1
102
RTVSPost2010Prop50
 90
       50
102
RTVSPost2010PropOp50
 70
     1
102
RTVSPost2010Prop51ColorIndex
 90
      256
102
RTVSPost2010Prop51ColorRGB
 90
-16777216
102
RTVSPost2010PropOp51
 70
     0
102
RTVSPost2010Prop52
140
1.0
102
RTVSPost2010PropOp52
 70
     0
102
RTVSPost2010Prop53
 90
        2
102
RTVSPost2010PropOp53
 70
     1
102
RTVSPost2010Prop54
  1
strokes_ogs.tif
102
RTVSPost2010PropOp54
 70
     1
102
RTVSPost2010Prop55
280
     0
102
RTVSPost2010PropOp55
 70
     1
102
RTVSPost2010Prop56
140
1.0
102
RTVSPost2010PropOp56
 70
     1
102
RTVSPost2010Prop57
140
1.0
102
RTVSPost2010PropOp57
 70
     1
  0
XRECORD
  5
184
102
{ACAD_REACTORS
330
183
102
}
330
183
100
AcDbXrecord
280
     1
102
RTVSPost2010Prop28
280
     0
102
RTVSPost2010PropOp28
 70
     1
102
RTVSPost2010Prop29
280
     1
102
RTVSPost2010PropOp29
 70
     1
102
RTVSPost2010Prop30
280
     1
102
RTVSPost2010PropOp30
 70
     1
102
RTVSPost2010Prop31
280
     0
102
RTVSPost2010PropOp31
 70
     1
102
RTVSPost2010Prop32
280
     0
102
RTVSPost2010PropOp32
 70
     1
102
RTVSPost2010Prop33
280
     0
102
RTVSPost2010PropOp33
 70
     1
102
RTVSPost2010Prop34
280
     0
102
RTVSPost2010PropOp34
 70
     1
102
RTVSPost2010Prop35
280
     0
102
RTVSPost2010PropOp35
 70
     1
102
RTVSPost2010Prop36
280
     0
102
RTVSPost2010PropOp36
 70
     1
102
RTVSPost2010Prop37
 90
       50
102
RTVSPost2010PropOp37
 70
     1
102
RTVSPost2010Prop38
140
0.0
102
RTVSPost2010PropOp38
 70
     1
102
RTVSPost2010Prop39
140
1.0
102
RTVSPost2010PropOp39
 70
     1
102
RTVSPost2010Prop40
 90
        0
102
RTVSPost2010PropOp40
 70
     1
102
RTVSPost2010Prop41ColorIndex
 90
       18
102
RTVSPost2010Prop41ColorRGB
 90
        0
102
RTVSPost2010PropOp41
 70
     1
102
RTVSPost2010Prop42
 90
       50
102
RTVSPost2010PropOp42
 70
     1
102
RTVSPost2010Prop43
 90
        3
102
RTVSPost2010PropOp43
 70
     1
102
RTVSPost2010Prop44ColorIndex
 90
        5
102
RTVSPost2010Prop44ColorRGB
 90
      255
102
RTVSPost2010PropOp44
 70
     1
102
RTVSPost2010Prop45
280
     0
102
RTVSPost2010PropOp45
 70
     1
102
RTVSPost2010Prop46
 90
       50
102
RTVSPost2010PropOp46
 70
     1
102
RTVSPost2010Prop47
 90
       50
102
RTVSPost2010PropOp47
 70
     1
102
RTVSPost2010Prop48
 90
       50
102
RTVSPost2010PropOp48
 70
     1
102
RTVSPost2010Prop49
280
     0
102
RTVSPost2010PropOp49
 70
     1
102
RTVSPost2010Prop50
 90
       50
102
RTVSPost2010PropOp50
 70
     1
102
RTVSPost2010Prop51ColorIndex
 90
      256
102
RTVSPost2010Prop51ColorRGB
 90
-16777216
102
RTVSPost2010PropOp51
 70
     0
102
RTVSPost2010Prop52
140
1.0
102
RTVSPost2010PropOp52
 70
     0
102
RTVSPost2010Prop53
 90
        2
102
RTVSPost2010PropOp53
 70
     1
102
RTVSPost2010Prop54
  1
strokes_ogs.tif
102
RTVSPost2010PropOp54
 70
     1
102
RTVSPost2010Prop55
280
     0
102
RTVSPost2010PropOp55
 70
     1
102
RTVSPost2010Prop56
140
1.0
102
RTVSPost2010PropOp56
 70
     1
102
RTVSPost2010Prop57
140
1.0
102
RTVSPost2010PropOp57
 70
     1
  0
XRECORD
  5
1A0
102
{ACAD_REACTORS
330
19F
102
}
330
19F
100
AcDbXrecord
280
     1
102
RTVSPost2010Prop28
280
     0
102
RTVSPost2010PropOp28
 70
     0
102
RTVSPost2010Prop29
280
     1
102
RTVSPost2010PropOp29
 70
     0
102
RTVSPost2010Prop30
280
     1
102
RTVSPost2010PropOp30
 70
     0
102
RTVSPost2010Prop31
280
     0
102
RTVSPost2010PropOp31
 70
     0
102
RTVSPost2010Prop32
280
     0
102
RTVSPost2010PropOp32
 70
     0
102
RTVSPost2010Prop33
280
     0
102
RTVSPost2010PropOp33
 70
     0
102
RTVSPost2010Prop34
280
     0
102
RTVSPost2010PropOp34
 70
     0
102
RTVSPost2010Prop35
280
     0
102
RTVSPost2010PropOp35
 70
     0
102
RTVSPost2010Prop36
280
     0
102
RTVSPost2010PropOp36
 70
     0
102
RTVSPost2010Prop37
 90
       50
102
RTVSPost2010PropOp37
 70
     0
102
RTVSPost2010Prop38
140
0.0
102
RTVSPost2010PropOp38
 70
     0
102
RTVSPost2010Prop39
140
1.0
102
RTVSPost2010PropOp39
 70
     0
102
RTVSPost2010Prop40
 90
        0
102
RTVSPost2010PropOp40
 70
     0
102
RTVSPost2010Prop41ColorIndex
 90
       18
102
RTVSPost2010Prop41ColorRGB
 90
        0
102
RTVSPost2010PropOp41
 70
     0
102
RTVSPost2010Prop42
 90
       50
102
RTVSPost2010PropOp42
 70
     0
102
RTVSPost2010Prop43
 90
        3
102
RTVSPost2010PropOp43
 70
     0
102
RTVSPost2010Prop44ColorIndex
 90
        5
102
RTVSPost2010Prop44ColorRGB
 90
      255
102
RTVSPost2010PropOp44
 70
     0
102
RTVSPost2010Prop45
280
     0
102
RTVSPost2010PropOp45
 70
     0
102
RTVSPost2010Prop46
 90
       50
102
RTVSPost2010PropOp46
 70
     0
102
RTVSPost2010Prop47
 90
       50
102
RTVSPost2010PropOp47
 70
     0
102
RTVSPost2010Prop48
 90
       50
102
RTVSPost2010PropOp48
 70
     0
102
RTVSPost2010Prop49
280
     0
102
RTVSPost2010PropOp49
 70
     0
102
RTVSPost2010Prop50
 90
       50
102
RTVSPost2010PropOp50
 70
     0
102
RTVSPost2010Prop51ColorIndex
 90
      256
102
RTVSPost2010Prop51ColorRGB
 90
-16777216
102
RTVSPost2010PropOp51
 70
     0
102
RTVSPost2010Prop52
140
1.0
102
RTVSPost2010PropOp52
 70
     0
102
RTVSPost2010Prop53
 90
        2
102
RTVSPost2010PropOp53
 70
     0
102
RTVSPost2010Prop54
  1
strokes_ogs.tif
102
RTVSPost2010PropOp54
 70
     0
102
RTVSPost2010Prop55
280
     0
102
RTVSPost2010PropOp55
 70
     0
102
RTVSPost2010Prop56
140
1.0
102
RTVSPost2010PropOp56
 70
     0
102
RTVSPost2010Prop57
140
1.0
102
RTVSPost2010PropOp57
 70
     0
  0
XRECORD
  5
190
102
{ACAD_REACTORS
330
18F
102
}
330
18F
100
AcDbXrecord
280
     1
102
RTVSPost2010Prop28
280
     0
102
RTVSPost2010PropOp28
 70
     1
102
RTVSPost2010Prop29
280
     1
102
RTVSPost2010PropOp29
 70
     1
102
RTVSPost2010Prop30
280
     1
102
RTVSPost2010PropOp30
 70
     1
102
RTVSPost2010Prop31
280
     0
102
RTVSPost2010PropOp31
 70
     1
102
RTVSPost2010Prop32
280
     0
102
RTVSPost2010PropOp32
 70
     1
102
RTVSPost2010Prop33
280
     0
102
RTVSPost2010PropOp33
 70
     1
102
RTVSPost2010Prop34
280
     0
102
RTVSPost2010PropOp34
 70
     1
102
RTVSPost2010Prop35
280
     0
102
RTVSPost2010PropOp35
 70
     1
102
RTVSPost2010Prop36
280
     0
102
RTVSPost2010PropOp36
 70
     1
102
RTVSPost2010Prop37
 90
       50
102
RTVSPost2010PropOp37
 70
     1
102
RTVSPost2010Prop38
140
0.0
102
RTVSPost2010PropOp38
 70
     1
102
RTVSPost2010Prop39
140
1.0
102
RTVSPost2010PropOp39
 70
     1
102
RTVSPost2010Prop40
 90
        0
102
RTVSPost2010PropOp40
 70
     1
102
RTVSPost2010Prop41ColorIndex
 90
       18
102
RTVSPost2010Prop41ColorRGB
 90
        0
102
RTVSPost2010PropOp41
 70
     1
102
RTVSPost2010Prop42
 90
       50
102
RTVSPost2010PropOp42
 70
     1
102
RTVSPost2010Prop43
 90
        3
102
RTVSPost2010PropOp43
 70
     1
102
RTVSPost2010Prop44ColorIndex
 90
        5
102
RTVSPost2010Prop44ColorRGB
 90
      255
102
RTVSPost2010PropOp44
 70
     1
102
RTVSPost2010Prop45
280
     0
102
RTVSPost2010PropOp45
 70
     1
102
RTVSPost2010Prop46
 90
       50
102
RTVSPost2010PropOp46
 70
     1
102
RTVSPost2010Prop47
 90
       50
102
RTVSPost2010PropOp47
 70
     1
102
RTVSPost2010Prop48
 90
       50
102
RTVSPost2010PropOp48
 70
     1
102
RTVSPost2010Prop49
280
     0
102
RTVSPost2010PropOp49
 70
     1
102
RTVSPost2010Prop50
 90
       50
102
RTVSPost2010PropOp50
 70
     1
102
RTVSPost2010Prop51ColorIndex
 90
      256
102
RTVSPost2010Prop51ColorRGB
 90
-16777216
102
RTVSPost2010PropOp51
 70
     0
102
RTVSPost2010Prop52
140
1.0
102
RTVSPost2010PropOp52
 70
     0
102
RTVSPost2010Prop53
 90
        2
102
RTVSPost2010PropOp53
 70
     1
102
RTVSPost2010Prop54
  1
strokes_ogs.tif
102
RTVSPost2010PropOp54
 70
     1
102
RTVSPost2010Prop55
280
     0
102
RTVSPost2010PropOp55
 70
     1
102
RTVSPost2010Prop56
140
1.0
102
RTVSPost2010PropOp56
 70
     1
102
RTVSPost2010Prop57
140
1.0
102
RTVSPost2010PropOp57
 70
     1
  0
XRECORD
  5
1A2
102
{ACAD_REACTORS
330
1A1
102
}
330
1A1
100
AcDbXrecord
280
     1
102
RTVSPost2010Prop28
280
     0
102
RTVSPost2010PropOp28
 70
     0
102
RTVSPost2010Prop29
280
     1
102
RTVSPost2010PropOp29
 70
     0
102
RTVSPost2010Prop30
280
     1
102
RTVSPost2010PropOp30
 70
     0
102
RTVSPost2010Prop31
280
     0
102
RTVSPost2010PropOp31
 70
     0
102
RTVSPost2010Prop32
280
     0
102
RTVSPost2010PropOp32
 70
     0
102
RTVSPost2010Prop33
280
     0
102
RTVSPost2010PropOp33
 70
     0
102
RTVSPost2010Prop34
280
     0
102
RTVSPost2010PropOp34
 70
     0
102
RTVSPost2010Prop35
280
     0
102
RTVSPost2010PropOp35
 70
     0
102
RTVSPost2010Prop36
280
     0
102
RTVSPost2010PropOp36
 70
     0
102
RTVSPost2010Prop37
 90
       50
102
RTVSPost2010PropOp37
 70
     0
102
RTVSPost2010Prop38
140
0.0
102
RTVSPost2010PropOp38
 70
     0
102
RTVSPost2010Prop39
140
1.0
102
RTVSPost2010PropOp39
 70
     0
102
RTVSPost2010Prop40
 90
        0
102
RTVSPost2010PropOp40
 70
     0
102
RTVSPost2010Prop41ColorIndex
 90
       18
102
RTVSPost2010Prop41ColorRGB
 90
        0
102
RTVSPost2010PropOp41
 70
     0
102
RTVSPost2010Prop42
 90
       50
102
RTVSPost2010PropOp42
 70
     0
102
RTVSPost2010Prop43
 90
        3
102
RTVSPost2010PropOp43
 70
     0
102
RTVSPost2010Prop44ColorIndex
 90
        5
102
RTVSPost2010Prop44ColorRGB
 90
      255
102
RTVSPost2010PropOp44
 70
     0
102
RTVSPost2010Prop45
280
     0
102
RTVSPost2010PropOp45
 70
     0
102
RTVSPost2010Prop46
 90
       50
102
RTVSPost2010PropOp46
 70
     0
102
RTVSPost2010Prop47
 90
       50
102
RTVSPost2010PropOp47
 70
     0
102
RTVSPost2010Prop48
 90
       50
102
RTVSPost2010PropOp48
 70
     0
102
RTVSPost2010Prop49
280
     0
102
RTVSPost2010PropOp49
 70
     0
102
RTVSPost2010Prop50
 90
       50
102
RTVSPost2010PropOp50
 70
     0
102
RTVSPost2010Prop51ColorIndex
 90
      256
102
RTVSPost2010Prop51ColorRGB
 90
-16777216
102
RTVSPost2010PropOp51
 70
     0
102
RTVSPost2010Prop52
140
1.0
102
RTVSPost2010PropOp52
 70
     0
102
RTVSPost2010Prop53
 90
        2
102
RTVSPost2010PropOp53
 70
     0
102
RTVSPost2010Prop54
  1
strokes_ogs.tif
102
RTVSPost2010PropOp54
 70
     0
102
RTVSPost2010Prop55
280
     0
102
RTVSPost2010PropOp55
 70
     0
102
RTVSPost2010Prop56
140
1.0
102
RTVSPost2010PropOp56
 70
     0
102
RTVSPost2010Prop57
140
1.0
102
RTVSPost2010PropOp57
 70
     0
  0
XRECORD
  5
188
102
{ACAD_REACTORS
330
187
102
}
330
187
100
AcDbXrecord
280
     1
102
RTVSPost2010Prop28
280
     0
102
RTVSPost2010PropOp28
 70
     1
102
RTVSPost2010Prop29
280
     1
102
RTVSPost2010PropOp29
 70
     1
102
RTVSPost2010Prop30
280
     1
102
RTVSPost2010PropOp30
 70
     1
102
RTVSPost2010Prop31
280
     0
102
RTVSPost2010PropOp31
 70
     1
102
RTVSPost2010Prop32
280
     0
102
RTVSPost2010PropOp32
 70
     1
102
RTVSPost2010Prop33
280
     0
102
RTVSPost2010PropOp33
 70
     1
102
RTVSPost2010Prop34
280
     0
102
RTVSPost2010PropOp34
 70
     1
102
RTVSPost2010Prop35
280
     0
102
RTVSPost2010PropOp35
 70
     1
102
RTVSPost2010Prop36
280
     0
102
RTVSPost2010PropOp36
 70
     1
102
RTVSPost2010Prop37
 90
       50
102
RTVSPost2010PropOp37
 70
     1
102
RTVSPost2010Prop38
140
0.0
102
RTVSPost2010PropOp38
 70
     1
102
RTVSPost2010Prop39
140
1.0
102
RTVSPost2010PropOp39
 70
     1
102
RTVSPost2010Prop40
 90
        0
102
RTVSPost2010PropOp40
 70
     1
102
RTVSPost2010Prop41ColorIndex
 90
       18
102
RTVSPost2010Prop41ColorRGB
 90
        0
102
RTVSPost2010PropOp41
 70
     1
102
RTVSPost2010Prop42
 90
       50
102
RTVSPost2010PropOp42
 70
     1
102
RTVSPost2010Prop43
 90
        3
102
RTVSPost2010PropOp43
 70
     1
102
RTVSPost2010Prop44ColorIndex
 90
        5
102
RTVSPost2010Prop44ColorRGB
 90
      255
102
RTVSPost2010PropOp44
 70
     1
102
RTVSPost2010Prop45
280
     0
102
RTVSPost2010PropOp45
 70
     1
102
RTVSPost2010Prop46
 90
       50
102
RTVSPost2010PropOp46
 70
     1
102
RTVSPost2010Prop47
 90
       50
102
RTVSPost2010PropOp47
 70
     1
102
RTVSPost2010Prop48
 90
       50
102
RTVSPost2010PropOp48
 70
     1
102
RTVSPost2010Prop49
280
     0
102
RTVSPost2010PropOp49
 70
     1
102
RTVSPost2010Prop50
 90
       50
102
RTVSPost2010PropOp50
 70
     1
102
RTVSPost2010Prop51ColorIndex
 90
      256
102
RTVSPost2010Prop51ColorRGB
 90
-16777216
102
RTVSPost2010PropOp51
 70
     0
102
RTVSPost2010Prop52
140
1.0
102
RTVSPost2010PropOp52
 70
     0
102
RTVSPost2010Prop53
 90
        2
102
RTVSPost2010PropOp53
 70
     1
102
RTVSPost2010Prop54
  1
strokes_ogs.tif
102
RTVSPost2010PropOp54
 70
     1
102
RTVSPost2010Prop55
280
     0
102
RTVSPost2010PropOp55
 70
     1
102
RTVSPost2010Prop56
140
1.0
102
RTVSPost2010PropOp56
 70
     1
102
RTVSPost2010Prop57
140
1.0
102
RTVSPost2010PropOp57
 70
     1
  0
XRECORD
  5
19E
102
{ACAD_REACTORS
330
19D
102
}
330
19D
100
AcDbXrecord
280
     1
102
RTVSPost2010Prop28
280
     0
102
RTVSPost2010PropOp28
 70
     1
102
RTVSPost2010Prop29
280
     1
102
RTVSPost2010PropOp29
 70
     1
102
RTVSPost2010Prop30
280
     1
102
RTVSPost2010PropOp30
 70
     1
102
RTVSPost2010Prop31
280
     0
102
RTVSPost2010PropOp31
 70
     1
102
RTVSPost2010Prop32
280
     0
102
RTVSPost2010PropOp32
 70
     1
102
RTVSPost2010Prop33
280
     0
102
RTVSPost2010PropOp33
 70
     1
102
RTVSPost2010Prop34
280
     0
102
RTVSPost2010PropOp34
 70
     1
102
RTVSPost2010Prop35
280
     0
102
RTVSPost2010PropOp35
 70
     1
102
RTVSPost2010Prop36
280
     0
102
RTVSPost2010PropOp36
 70
     1
102
RTVSPost2010Prop37
 90
       50
102
RTVSPost2010PropOp37
 70
     1
102
RTVSPost2010Prop38
140
0.0
102
RTVSPost2010PropOp38
 70
     1
102
RTVSPost2010Prop39
140
1.0
102
RTVSPost2010PropOp39
 70
     1
102
RTVSPost2010Prop40
 90
        0
102
RTVSPost2010PropOp40
 70
     1
102
RTVSPost2010Prop41ColorIndex
 90
       18
102
RTVSPost2010Prop41ColorRGB
 90
        0
102
RTVSPost2010PropOp41
 70
     1
102
RTVSPost2010Prop42
 90
       50
102
RTVSPost2010PropOp42
 70
     1
102
RTVSPost2010Prop43
 90
        3
102
RTVSPost2010PropOp43
 70
     1
102
RTVSPost2010Prop44ColorIndex
 90
        5
102
RTVSPost2010Prop44ColorRGB
 90
      255
102
RTVSPost2010PropOp44
 70
     1
102
RTVSPost2010Prop45
280
     0
102
RTVSPost2010PropOp45
 70
     1
102
RTVSPost2010Prop46
 90
       50
102
RTVSPost2010PropOp46
 70
     1
102
RTVSPost2010Prop47
 90
       50
102
RTVSPost2010PropOp47
 70
     1
102
RTVSPost2010Prop48
 90
       50
102
RTVSPost2010PropOp48
 70
     1
102
RTVSPost2010Prop49
280
     0
102
RTVSPost2010PropOp49
 70
     1
102
RTVSPost2010Prop50
 90
       50
102
RTVSPost2010PropOp50
 70
     1
102
RTVSPost2010Prop51ColorIndex
 90
      256
102
RTVSPost2010Prop51ColorRGB
 90
-16777216
102
RTVSPost2010PropOp51
 70
     0
102
RTVSPost2010Prop52
140
1.0
102
RTVSPost2010PropOp52
 70
     0
102
RTVSPost2010Prop53
 90
        2
102
RTVSPost2010PropOp53
 70
     1
102
RTVSPost2010Prop54
  1
strokes_ogs.tif
102
RTVSPost2010PropOp54
 70
     1
102
RTVSPost2010Prop55
280
     0
102
RTVSPost2010PropOp55
 70
     1
102
RTVSPost2010Prop56
140
1.0
102
RTVSPost2010PropOp56
 70
     1
102
RTVSPost2010Prop57
140
1.0
102
RTVSPost2010PropOp57
 70
     1
  0
XRECORD
  5
19C
102
{ACAD_REACTORS
330
19B
102
}
330
19B
100
AcDbXrecord
280
     1
102
RTVSPost2010Prop28
280
     0
102
RTVSPost2010PropOp28
 70
     1
102
RTVSPost2010Prop29
280
     1
102
RTVSPost2010PropOp29
 70
     1
102
RTVSPost2010Prop30
280
     1
102
RTVSPost2010PropOp30
 70
     1
102
RTVSPost2010Prop31
280
     0
102
RTVSPost2010PropOp31
 70
     1
102
RTVSPost2010Prop32
280
     0
102
RTVSPost2010PropOp32
 70
     1
102
RTVSPost2010Prop33
280
     0
102
RTVSPost2010PropOp33
 70
     1
102
RTVSPost2010Prop34
280
     0
102
RTVSPost2010PropOp34
 70
     1
102
RTVSPost2010Prop35
280
     0
102
RTVSPost2010PropOp35
 70
     1
102
RTVSPost2010Prop36
280
     0
102
RTVSPost2010PropOp36
 70
     1
102
RTVSPost2010Prop37
 90
       50
102
RTVSPost2010PropOp37
 70
     1
102
RTVSPost2010Prop38
140
0.0
102
RTVSPost2010PropOp38
 70
     1
102
RTVSPost2010Prop39
140
1.0
102
RTVSPost2010PropOp39
 70
     1
102
RTVSPost2010Prop40
 90
        0
102
RTVSPost2010PropOp40
 70
     1
102
RTVSPost2010Prop41ColorIndex
 90
       18
102
RTVSPost2010Prop41ColorRGB
 90
        0
102
RTVSPost2010PropOp41
 70
     1
102
RTVSPost2010Prop42
 90
       50
102
RTVSPost2010PropOp42
 70
     1
102
RTVSPost2010Prop43
 90
        3
102
RTVSPost2010PropOp43
 70
     1
102
RTVSPost2010Prop44ColorIndex
 90
        5
102
RTVSPost2010Prop44ColorRGB
 90
      255
102
RTVSPost2010PropOp44
 70
     1
102
RTVSPost2010Prop45
280
     0
102
RTVSPost2010PropOp45
 70
     1
102
RTVSPost2010Prop46
 90
       50
102
RTVSPost2010PropOp46
 70
     1
102
RTVSPost2010Prop47
 90
       50
102
RTVSPost2010PropOp47
 70
     1
102
RTVSPost2010Prop48
 90
       50
102
RTVSPost2010PropOp48
 70
     1
102
RTVSPost2010Prop49
280
     0
102
RTVSPost2010PropOp49
 70
     1
102
RTVSPost2010Prop50
 90
       50
102
RTVSPost2010PropOp50
 70
     1
102
RTVSPost2010Prop51ColorIndex
 90
      256
102
RTVSPost2010Prop51ColorRGB
 90
-16777216
102
RTVSPost2010PropOp51
 70
     0
102
RTVSPost2010Prop52
140
1.0
102
RTVSPost2010PropOp52
 70
     0
102
RTVSPost2010Prop53
 90
        2
102
RTVSPost2010PropOp53
 70
     1
102
RTVSPost2010Prop54
  1
strokes_ogs.tif
102
RTVSPost2010PropOp54
 70
     1
102
RTVSPost2010Prop55
280
     0
102
RTVSPost2010PropOp55
 70
     1
102
RTVSPost2010Prop56
140
1.0
102
RTVSPost2010PropOp56
 70
     1
102
RTVSPost2010Prop57
140
1.0
102
RTVSPost2010PropOp57
 70
     1
  0
XRECORD
  5
196
102
{ACAD_REACTORS
330
195
102
}
330
195
100
AcDbXrecord
280
     1
102
RTVSPost2010Prop28
280
     0
102
RTVSPost2010PropOp28
 70
     1
102
RTVSPost2010Prop29
280
     1
102
RTVSPost2010PropOp29
 70
     1
102
RTVSPost2010Prop30
280
     1
102
RTVSPost2010PropOp30
 70
     1
102
RTVSPost2010Prop31
280
     0
102
RTVSPost2010PropOp31
 70
     1
102
RTVSPost2010Prop32
280
     0
102
RTVSPost2010PropOp32
 70
     1
102
RTVSPost2010Prop33
280
     0
102
RTVSPost2010PropOp33
 70
     1
102
RTVSPost2010Prop34
280
     0
102
RTVSPost2010PropOp34
 70
     1
102
RTVSPost2010Prop35
280
     0
102
RTVSPost2010PropOp35
 70
     1
102
RTVSPost2010Prop36
280
     0
102
RTVSPost2010PropOp36
 70
     1
102
RTVSPost2010Prop37
 90
       50
102
RTVSPost2010PropOp37
 70
     1
102
RTVSPost2010Prop38
140
0.0
102
RTVSPost2010PropOp38
 70
     1
102
RTVSPost2010Prop39
140
1.0
102
RTVSPost2010PropOp39
 70
     1
102
RTVSPost2010Prop40
 90
        0
102
RTVSPost2010PropOp40
 70
     1
102
RTVSPost2010Prop41ColorIndex
 90
       18
102
RTVSPost2010Prop41ColorRGB
 90
        0
102
RTVSPost2010PropOp41
 70
     1
102
RTVSPost2010Prop42
 90
       50
102
RTVSPost2010PropOp42
 70
     1
102
RTVSPost2010Prop43
 90
        3
102
RTVSPost2010PropOp43
 70
     1
102
RTVSPost2010Prop44ColorIndex
 90
        5
102
RTVSPost2010Prop44ColorRGB
 90
      255
102
RTVSPost2010PropOp44
 70
     1
102
RTVSPost2010Prop45
280
     0
102
RTVSPost2010PropOp45
 70
     1
102
RTVSPost2010Prop46
 90
       50
102
RTVSPost2010PropOp46
 70
     1
102
RTVSPost2010Prop47
 90
       50
102
RTVSPost2010PropOp47
 70
     1
102
RTVSPost2010Prop48
 90
       50
102
RTVSPost2010PropOp48
 70
     1
102
RTVSPost2010Prop49
280
     0
102
RTVSPost2010PropOp49
 70
     1
102
RTVSPost2010Prop50
 90
       50
102
RTVSPost2010PropOp50
 70
     1
102
RTVSPost2010Prop51ColorIndex
 90
      256
102
RTVSPost2010Prop51ColorRGB
 90
-16777216
102
RTVSPost2010PropOp51
 70
     0
102
RTVSPost2010Prop52
140
1.0
102
RTVSPost2010PropOp52
 70
     0
102
RTVSPost2010Prop53
 90
        2
102
RTVSPost2010PropOp53
 70
     1
102
RTVSPost2010Prop54
  1
strokes_ogs.tif
102
RTVSPost2010PropOp54
 70
     1
102
RTVSPost2010Prop55
280
     0
102
RTVSPost2010PropOp55
 70
     1
102
RTVSPost2010Prop56
140
1.0
102
RTVSPost2010PropOp56
 70
     1
102
RTVSPost2010Prop57
140
1.0
102
RTVSPost2010PropOp57
 70
     1
  0
XRECORD
  5
198
102
{ACAD_REACTORS
330
197
102
}
330
197
100
AcDbXrecord
280
     1
102
RTVSPost2010Prop28
280
     0
102
RTVSPost2010PropOp28
 70
     1
102
RTVSPost2010Prop29
280
     1
102
RTVSPost2010PropOp29
 70
     1
102
RTVSPost2010Prop30
280
     1
102
RTVSPost2010PropOp30
 70
     1
102
RTVSPost2010Prop31
280
     0
102
RTVSPost2010PropOp31
 70
     1
102
RTVSPost2010Prop32
280
     0
102
RTVSPost2010PropOp32
 70
     1
102
RTVSPost2010Prop33
280
     0
102
RTVSPost2010PropOp33
 70
     1
102
RTVSPost2010Prop34
280
     0
102
RTVSPost2010PropOp34
 70
     1
102
RTVSPost2010Prop35
280
     0
102
RTVSPost2010PropOp35
 70
     1
102
RTVSPost2010Prop36
280
     0
102
RTVSPost2010PropOp36
 70
     1
102
RTVSPost2010Prop37
 90
       50
102
RTVSPost2010PropOp37
 70
     1
102
RTVSPost2010Prop38
140
0.0
102
RTVSPost2010PropOp38
 70
     1
102
RTVSPost2010Prop39
140
1.0
102
RTVSPost2010PropOp39
 70
     1
102
RTVSPost2010Prop40
 90
        0
102
RTVSPost2010PropOp40
 70
     1
102
RTVSPost2010Prop41ColorIndex
 90
       18
102
RTVSPost2010Prop41ColorRGB
 90
        0
102
RTVSPost2010PropOp41
 70
     1
102
RTVSPost2010Prop42
 90
       50
102
RTVSPost2010PropOp42
 70
     1
102
RTVSPost2010Prop43
 90
        3
102
RTVSPost2010PropOp43
 70
     1
102
RTVSPost2010Prop44ColorIndex
 90
        5
102
RTVSPost2010Prop44ColorRGB
 90
      255
102
RTVSPost2010PropOp44
 70
     1
102
RTVSPost2010Prop45
280
     0
102
RTVSPost2010PropOp45
 70
     1
102
RTVSPost2010Prop46
 90
       50
102
RTVSPost2010PropOp46
 70
     1
102
RTVSPost2010Prop47
 90
       50
102
RTVSPost2010PropOp47
 70
     1
102
RTVSPost2010Prop48
 90
       50
102
RTVSPost2010PropOp48
 70
     1
102
RTVSPost2010Prop49
280
     0
102
RTVSPost2010PropOp49
 70
     1
102
RTVSPost2010Prop50
 90
       50
102
RTVSPost2010PropOp50
 70
     1
102
RTVSPost2010Prop51ColorIndex
 90
      256
102
RTVSPost2010Prop51ColorRGB
 90
-16777216
102
RTVSPost2010PropOp51
 70
     0
102
RTVSPost2010Prop52
140
1.0
102
RTVSPost2010PropOp52
 70
     0
102
RTVSPost2010Prop53
 90
        2
102
RTVSPost2010PropOp53
 70
     1
102
RTVSPost2010Prop54
  1
strokes_ogs.tif
102
RTVSPost2010PropOp54
 70
     1
102
RTVSPost2010Prop55
280
     0
102
RTVSPost2010PropOp55
 70
     1
102
RTVSPost2010Prop56
140
1.0
102
RTVSPost2010PropOp56
 70
     1
102
RTVSPost2010Prop57
140
1.0
102
RTVSPost2010PropOp57
 70
     1
  0
XRECORD
  5
18E
102
{ACAD_REACTORS
330
18D
102
}
330
18D
100
AcDbXrecord
280
     1
102
RTVSPost2010Prop28
280
     0
102
RTVSPost2010PropOp28
 70
     1
102
RTVSPost2010Prop29
280
     1
102
RTVSPost2010PropOp29
 70
     1
102
RTVSPost2010Prop30
280
     1
102
RTVSPost2010PropOp30
 70
     1
102
RTVSPost2010Prop31
280
     0
102
RTVSPost2010PropOp31
 70
     1
102
RTVSPost2010Prop32
280
     0
102
RTVSPost2010PropOp32
 70
     1
102
RTVSPost2010Prop33
280
     0
102
RTVSPost2010PropOp33
 70
     1
102
RTVSPost2010Prop34
280
     0
102
RTVSPost2010PropOp34
 70
     1
102
RTVSPost2010Prop35
280
     0
102
RTVSPost2010PropOp35
 70
     1
102
RTVSPost2010Prop36
280
     0
102
RTVSPost2010PropOp36
 70
     1
102
RTVSPost2010Prop37
 90
       50
102
RTVSPost2010PropOp37
 70
     1
102
RTVSPost2010Prop38
140
0.0
102
RTVSPost2010PropOp38
 70
     1
102
RTVSPost2010Prop39
140
1.0
102
RTVSPost2010PropOp39
 70
     1
102
RTVSPost2010Prop40
 90
        0
102
RTVSPost2010PropOp40
 70
     1
102
RTVSPost2010Prop41ColorIndex
 90
       18
102
RTVSPost2010Prop41ColorRGB
 90
        0
102
RTVSPost2010PropOp41
 70
     1
102
RTVSPost2010Prop42
 90
       50
102
RTVSPost2010PropOp42
 70
     1
102
RTVSPost2010Prop43
 90
        3
102
RTVSPost2010PropOp43
 70
     1
102
RTVSPost2010Prop44ColorIndex
 90
        5
102
RTVSPost2010Prop44ColorRGB
 90
      255
102
RTVSPost2010PropOp44
 70
     1
102
RTVSPost2010Prop45
280
     0
102
RTVSPost2010PropOp45
 70
     1
102
RTVSPost2010Prop46
 90
       50
102
RTVSPost2010PropOp46
 70
     1
102
RTVSPost2010Prop47
 90
       50
102
RTVSPost2010PropOp47
 70
     1
102
RTVSPost2010Prop48
 90
       50
102
RTVSPost2010PropOp48
 70
     1
102
RTVSPost2010Prop49
280
     0
102
RTVSPost2010PropOp49
 70
     1
102
RTVSPost2010Prop50
 90
       50
102
RTVSPost2010PropOp50
 70
     1
102
RTVSPost2010Prop51ColorIndex
 90
      256
102
RTVSPost2010Prop51ColorRGB
 90
-16777216
102
RTVSPost2010PropOp51
 70
     0
102
RTVSPost2010Prop52
140
1.0
102
RTVSPost2010PropOp52
 70
     0
102
RTVSPost2010Prop53
 90
        2
102
RTVSPost2010PropOp53
 70
     1
102
RTVSPost2010Prop54
  1
strokes_ogs.tif
102
RTVSPost2010PropOp54
 70
     1
102
RTVSPost2010Prop55
280
     0
102
RTVSPost2010PropOp55
 70
     1
102
RTVSPost2010Prop56
140
1.0
102
RTVSPost2010PropOp56
 70
     1
102
RTVSPost2010Prop57
140
1.0
102
RTVSPost2010PropOp57
 70
     1
  0
XRECORD
  5
182
102
{ACAD_REACTORS
330
181
102
}
330
181
100
AcDbXrecord
280
     1
102
RTVSPost2010Prop28
280
     0
102
RTVSPost2010PropOp28
 70
     1
102
RTVSPost2010Prop29
280
     1
102
RTVSPost2010PropOp29
 70
     1
102
RTVSPost2010Prop30
280
     1
102
RTVSPost2010PropOp30
 70
     1
102
RTVSPost2010Prop31
280
     0
102
RTVSPost2010PropOp31
 70
     1
102
RTVSPost2010Prop32
280
     0
102
RTVSPost2010PropOp32
 70
     1
102
RTVSPost2010Prop33
280
     0
102
RTVSPost2010PropOp33
 70
     1
102
RTVSPost2010Prop34
280
     0
102
RTVSPost2010PropOp34
 70
     1
102
RTVSPost2010Prop35
280
     0
102
RTVSPost2010PropOp35
 70
     1
102
RTVSPost2010Prop36
280
     0
102
RTVSPost2010PropOp36
 70
     1
102
RTVSPost2010Prop37
 90
       50
102
RTVSPost2010PropOp37
 70
     1
102
RTVSPost2010Prop38
140
0.0
102
RTVSPost2010PropOp38
 70
     1
102
RTVSPost2010Prop39
140
1.0
102
RTVSPost2010PropOp39
 70
     1
102
RTVSPost2010Prop40
 90
        0
102
RTVSPost2010PropOp40
 70
     1
102
RTVSPost2010Prop41ColorIndex
 90
       18
102
RTVSPost2010Prop41ColorRGB
 90
        0
102
RTVSPost2010PropOp41
 70
     1
102
RTVSPost2010Prop42
 90
       50
102
RTVSPost2010PropOp42
 70
     1
102
RTVSPost2010Prop43
 90
        3
102
RTVSPost2010PropOp43
 70
     1
102
RTVSPost2010Prop44ColorIndex
 90
        5
102
RTVSPost2010Prop44ColorRGB
 90
      255
102
RTVSPost2010PropOp44
 70
     1
102
RTVSPost2010Prop45
280
     0
102
RTVSPost2010PropOp45
 70
     1
102
RTVSPost2010Prop46
 90
       50
102
RTVSPost2010PropOp46
 70
     1
102
RTVSPost2010Prop47
 90
       50
102
RTVSPost2010PropOp47
 70
     1
102
RTVSPost2010Prop48
 90
       50
102
RTVSPost2010PropOp48
 70
     1
102
RTVSPost2010Prop49
280
     0
102
RTVSPost2010PropOp49
 70
     1
102
RTVSPost2010Prop50
 90
       50
102
RTVSPost2010PropOp50
 70
     1
102
RTVSPost2010Prop51ColorIndex
 90
      256
102
RTVSPost2010Prop51ColorRGB
 90
-16777216
102
RTVSPost2010PropOp51
 70
     0
102
RTVSPost2010Prop52
140
1.0
102
RTVSPost2010PropOp52
 70
     0
102
RTVSPost2010Prop53
 90
        2
102
RTVSPost2010PropOp53
 70
     1
102
RTVSPost2010Prop54
  1
strokes_ogs.tif
102
RTVSPost2010PropOp54
 70
     1
102
RTVSPost2010Prop55
280
     0
102
RTVSPost2010PropOp55
 70
     1
102
RTVSPost2010Prop56
140
1.0
102
RTVSPost2010PropOp56
 70
     1
102
RTVSPost2010Prop57
140
1.0
102
RTVSPost2010PropOp57
 70
     1
  0
XRECORD
  5
19A
102
{ACAD_REACTORS
330
199
102
}
330
199
100
AcDbXrecord
280
     1
102
RTVSPost2010Prop28
280
     0
102
RTVSPost2010PropOp28
 70
     1
102
RTVSPost2010Prop29
280
     1
102
RTVSPost2010PropOp29
 70
     1
102
RTVSPost2010Prop30
280
     1
102
RTVSPost2010PropOp30
 70
     1
102
RTVSPost2010Prop31
280
     0
102
RTVSPost2010PropOp31
 70
     1
102
RTVSPost2010Prop32
280
     0
102
RTVSPost2010PropOp32
 70
     1
102
RTVSPost2010Prop33
280
     0
102
RTVSPost2010PropOp33
 70
     1
102
RTVSPost2010Prop34
280
     0
102
RTVSPost2010PropOp34
 70
     1
102
RTVSPost2010Prop35
280
     0
102
RTVSPost2010PropOp35
 70
     1
102
RTVSPost2010Prop36
280
     0
102
RTVSPost2010PropOp36
 70
     1
102
RTVSPost2010Prop37
 90
       50
102
RTVSPost2010PropOp37
 70
     1
102
RTVSPost2010Prop38
140
0.0
102
RTVSPost2010PropOp38
 70
     1
102
RTVSPost2010Prop39
140
1.0
102
RTVSPost2010PropOp39
 70
     1
102
RTVSPost2010Prop40
 90
        0
102
RTVSPost2010PropOp40
 70
     1
102
RTVSPost2010Prop41ColorIndex
 90
       18
102
RTVSPost2010Prop41ColorRGB
 90
        0
102
RTVSPost2010PropOp41
 70
     1
102
RTVSPost2010Prop42
 90
       50
102
RTVSPost2010PropOp42
 70
     1
102
RTVSPost2010Prop43
 90
        3
102
RTVSPost2010PropOp43
 70
     1
102
RTVSPost2010Prop44ColorIndex
 90
        5
102
RTVSPost2010Prop44ColorRGB
 90
      255
102
RTVSPost2010PropOp44
 70
     1
102
RTVSPost2010Prop45
280
     0
102
RTVSPost2010PropOp45
 70
     1
102
RTVSPost2010Prop46
 90
       50
102
RTVSPost2010PropOp46
 70
     1
102
RTVSPost2010Prop47
 90
       50
102
RTVSPost2010PropOp47
 70
     1
102
RTVSPost2010Prop48
 90
       50
102
RTVSPost2010PropOp48
 70
     1
102
RTVSPost2010Prop49
280
     0
102
RTVSPost2010PropOp49
 70
     1
102
RTVSPost2010Prop50
 90
       50
102
RTVSPost2010PropOp50
 70
     1
102
RTVSPost2010Prop51ColorIndex
 90
      256
102
RTVSPost2010Prop51ColorRGB
 90
-16777216
102
RTVSPost2010PropOp51
 70
     0
102
RTVSPost2010Prop52
140
1.0
102
RTVSPost2010PropOp52
 70
     0
102
RTVSPost2010Prop53
 90
        2
102
RTVSPost2010PropOp53
 70
     1
102
RTVSPost2010Prop54
  1
strokes_ogs.tif
102
RTVSPost2010PropOp54
 70
     1
102
RTVSPost2010Prop55
280
     0
102
RTVSPost2010PropOp55
 70
     1
102
RTVSPost2010Prop56
140
1.0
102
RTVSPost2010PropOp56
 70
     1
102
RTVSPost2010Prop57
140
1.0
102
RTVSPost2010PropOp57
 70
     1
  0
ENDSEC
  0
EOF
