  0
SECTION
  2
HEADER
  9
$ACADVER
  1
AC1024
  9
$ACADMAINTVER
 70
   226
  9
$DWGCODEPAGE
  3
ANSI_932
  9
$INSBASE
 10
0.0
 20
0.0
 30
0.0
  9
$EXTMIN
 10
1.000000000000000E+20
 20
1.000000000000000E+20
 30
1.000000000000000E+20
  9
$EXTMAX
 10
-1.000000000000000E+20
 20
-1.000000000000000E+20
 30
-1.000000000000000E+20
  9
$LIMMIN
 10
0.0
 20
0.0
  9
$LIMMAX
 10
12.0
 20
9.0
  9
$ORTHOMODE
 70
     0
  9
$REGENMODE
 70
     1
  9
$FILLMODE
 70
     1
  9
$QTEXTMODE
 70
     0
  9
$MIRRTEXT
 70
     0
  9
$LTSCALE
 40
1.0
  9
$ATTMODE
 70
     1
  9
$TEXTSIZE
 40
0.2
  9
$TRACEWID
 40
0.05
  9
$TEXTSTYLE
  7
Standard
  9
$CLAYER
  8
0
  9
$CELTYPE
  6
ByLayer
  9
$CECOLOR
 62
   256
  9
$CELTSCALE
 40
1.0
  9
$DISPSILH
 70
     0
  9
$DIMSCALE
 40
1.0
  9
$DIMASZ
 40
0.18
  9
$DIMEXO
 40
0.0625
  9
$DIMDLI
 40
0.38
  9
$DIMRND
 40
0.0
  9
$DIMDLE
 40
0.0
  9
$DIMEXE
 40
0.18
  9
$DIMTP
 40
0.0
  9
$DIMTM
 40
0.0
  9
$DIMTXT
 40
0.18
  9
$DIMCEN
 40
0.09
  9
$DIMTSZ
 40
0.0
  9
$DIMTOL
 70
     0
  9
$DIMLIM
 70
     0
  9
$DIMTIH
 70
     1
  9
$DIMTOH
 70
     1
  9
$DIMSE1
 70
     0
  9
$DIMSE2
 70
     0
  9
$DIMTAD
 70
     0
  9
$DIMZIN
 70
     0
  9
$DIMBLK
  1

  9
$DIMASO
 70
     1
  9
$DIMSHO
 70
     1
  9
$DIMPOST
  1

  9
$DIMAPOST
  1

  9
$DIMALT
 70
     0
  9
$DIMALTD
 70
     2
  9
$DIMALTF
 40
25.4
  9
$DIMLFAC
 40
1.0
  9
$DIMTOFL
 70
     0
  9
$DIMTVP
 40
0.0
  9
$DIMTIX
 70
     0
  9
$DIMSOXD
 70
     0
  9
$DIMSAH
 70
     0
  9
$DIMBLK1
  1

  9
$DIMBLK2
  1

  9
$DIMSTYLE
  2
Standard
  9
$DIMCLRD
 70
     0
  9
$DIMCLRE
 70
     0
  9
$DIMCLRT
 70
     0
  9
$DIMTFAC
 40
1.0
  9
$DIMGAP
 40
0.09
  9
$DIMJUST
 70
     0
  9
$DIMSD1
 70
     0
  9
$DIMSD2
 70
     0
  9
$DIMTOLJ
 70
     1
  9
$DIMTZIN
 70
     0
  9
$DIMALTZ
 70
     0
  9
$DIMALTTZ
 70
     0
  9
$DIMUPT
 70
     0
  9
$DIMDEC
 70
     4
  9
$DIMTDEC
 70
     4
  9
$DIMALTU
 70
     2
  9
$DIMALTTD
 70
     2
  9
$DIMTXSTY
  7
Standard
  9
$DIMAUNIT
 70
     0
  9
$DIMADEC
 70
     0
  9
$DIMALTRND
 40
0.0
  9
$DIMAZIN
 70
     0
  9
$DIMDSEP
 70
    46
  9
$DIMATFIT
 70
     3
  9
$DIMFRAC
 70
     0
  9
$DIMLDRBLK
  1

  9
$DIMLUNIT
 70
     2
  9
$DIMLWD
 70
    -2
  9
$DIMLWE
 70
    -2
  9
$DIMTMOVE
 70
     0
  9
$DIMFXL
 40
1.0
  9
$DIMFXLON
 70
     0
  9
$DIMJOGANG
 40
0.7853981633974483
  9
$DIMTFILL
 70
     0
  9
$DIMTFILLCLR
 70
     0
  9
$DIMARCSYM
 70
     0
  9
$DIMLTYPE
  6

  9
$DIMLTEX1
  6

  9
$DIMLTEX2
  6

  9
$DIMTXTDIRECTION
 70
     0
  9
$LUNITS
 70
     2
  9
$LUPREC
 70
     4
  9
$SKETCHINC
 40
0.1
  9
$FILLETRAD
 40
0.0
  9
$AUNITS
 70
     0
  9
$AUPREC
 70
     0
  9
$MENU
  1
.
  9
$ELEVATION
 40
0.0
  9
$PELEVATION
 40
0.0
  9
$THICKNESS
 40
0.0
  9
$LIMCHECK
 70
     0
  9
$CHAMFERA
 40
0.0
  9
$CHAMFERB
 40
0.0
  9
$CHAMFERC
 40
0.0
  9
$CHAMFERD
 40
0.0
  9
$SKPOLY
 70
     0
  9
$TDCREATE
 40
2459569.503379630
  9
$TDUCREATE
 40
2459569.128379630
  9
$TDUPDATE
 40
2459569.503379630
  9
$TDUUPDATE
 40
2459569.128379630
  9
$TDINDWG
 40
0.0000000000
  9
$TDUSRTIMER
 40
0.0000000000
  9
$USRTIMER
 70
     1
  9
$ANGBASE
 50
0.0
  9
$ANGDIR
 70
     0
  9
$PDMODE
 70
     0
  9
$PDSIZE
 40
0.0
  9
$PLINEWID
 40
0.0
  9
$SPLFRAME
 70
     0
  9
$SPLINETYPE
 70
     6
  9
$SPLINESEGS
 70
     8
  9
$HANDSEED
  5
1D6
  9
$SURFTAB1
 70
     6
  9
$SURFTAB2
 70
     6
  9
$SURFTYPE
 70
     6
  9
$SURFU
 70
     6
  9
$SURFV
 70
     6
  9
$UCSBASE
  2

  9
$UCSNAME
  2

  9
$UCSORG
 10
0.0
 20
0.0
 30
0.0
  9
$UCSXDIR
 10
1.0
 20
0.0
 30
0.0
  9
$UCSYDIR
 10
0.0
 20
1.0
 30
0.0
  9
$UCSORTHOREF
  2

  9
$UCSORTHOVIEW
 70
     0
  9
$UCSORGTOP
 10
0.0
 20
0.0
 30
0.0
  9
$UCSORGBOTTOM
 10
0.0
 20
0.0
 30
0.0
  9
$UCSORGLEFT
 10
0.0
 20
0.0
 30
0.0
  9
$UCSORGRIGHT
 10
0.0
 20
0.0
 30
0.0
  9
$UCSORGFRONT
 10
0.0
 20
0.0
 30
0.0
  9
$UCSORGBACK
 10
0.0
 20
0.0
 30
0.0
  9
$PUCSBASE
  2

  9
$PUCSNAME
  2

  9
$PUCSORG
 10
0.0
 20
0.0
 30
0.0
  9
$PUCSXDIR
 10
1.0
 20
0.0
 30
0.0
  9
$PUCSYDIR
 10
0.0
 20
1.0
 30
0.0
  9
$PUCSORTHOREF
  2

  9
$PUCSORTHOVIEW
 70
     0
  9
$PUCSORGTOP
 10
0.0
 20
0.0
 30
0.0
  9
$PUCSORGBOTTOM
 10
0.0
 20
0.0
 30
0.0
  9
$PUCSORGLEFT
 10
0.0
 20
0.0
 30
0.0
  9
$PUCSORGRIGHT
 10
0.0
 20
0.0
 30
0.0
  9
$PUCSORGFRONT
 10
0.0
 20
0.0
 30
0.0
  9
$PUCSORGBACK
 10
0.0
 20
0.0
 30
0.0
  9
$USERI1
 70
     0
  9
$USERI2
 70
     0
  9
$USERI3
 70
     0
  9
$USERI4
 70
     0
  9
$USERI5
 70
     0
  9
$USERR1
 40
0.0
  9
$USERR2
 40
0.0
  9
$USERR3
 40
0.0
  9
$USERR4
 40
0.0
  9
$USERR5
 40
0.0
  9
$WORLDVIEW
 70
     1
  9
$SHADEDGE
 70
     3
  9
$SHADEDIF
 70
    70
  9
$TILEMODE
 70
     1
  9
$MAXACTVP
 70
    64
  9
$PINSBASE
 10
0.0
 20
0.0
 30
0.0
  9
$PLIMCHECK
 70
     0
  9
$PEXTMIN
 10
1.000000000000000E+20
 20
1.000000000000000E+20
 30
1.000000000000000E+20
  9
$PEXTMAX
 10
-1.000000000000000E+20
 20
-1.000000000000000E+20
 30
-1.000000000000000E+20
  9
$PLIMMIN
 10
0.0
 20
0.0
  9
$PLIMMAX
 10
12.0
 20
9.0
  9
$UNITMODE
 70
     0
  9
$VISRETAIN
 70
     1
  9
$PLINEGEN
 70
     0
  9
$PSLTSCALE
 70
     1
  9
$TREEDEPTH
 70
  3020
  9
$CMLSTYLE
  2
Standard
  9
$CMLJUST
 70
     0
  9
$CMLSCALE
 40
1.0
  9
$PROXYGRAPHICS
 70
     1
  9
$MEASUREMENT
 70
     0
  9
$CELWEIGHT
370
    -1
  9
$ENDCAPS
280
     0
  9
$JOINSTYLE
280
     0
  9
$LWDISPLAY
290
     1
  9
$INSUNITS
 70
     4
  9
$HYPERLINKBASE
  1

  9
$STYLESHEET
  1

  9
$XEDIT
290
     1
  9
$CEPSNTYPE
380
     0
  9
$PSTYLEMODE
290
     1
  9
$FINGERPRINTGUID
  2
{848E60A5-5E4F-5647-A676-70DCCF090EEF}
  9
$VERSIONGUID
  2
{3BB4DAF1-D063-9E43-96CD-56958C5DB71C}
  9
$EXTNAMES
290
     1
  9
$PSVPSCALE
 40
0.0
  9
$OLESTARTUP
290
     0
  9
$SORTENTS
280
   127
  9
$INDEXCTL
280
     0
  9
$HIDETEXT
280
     1
  9
$XCLIPFRAME
280
     2
  9
$HALOGAP
280
     0
  9
$OBSCOLOR
 70
   257
  9
$OBSLTYPE
280
     0
  9
$INTERSECTIONDISPLAY
280
     0
  9
$INTERSECTIONCOLOR
 70
   257
  9
$DIMASSOC
280
     2
  9
$PROJECTNAME
  1

  9
$CAMERADISPLAY
290
     0
  9
$LENSLENGTH
 40
50.0
  9
$CAMERAHEIGHT
 40
0.0
  9
$STEPSPERSEC
 40
2.0
  9
$STEPSIZE
 40
6.0
  9
$3DDWFPREC
 40
2.0
  9
$PSOLWIDTH
 40
0.25
  9
$PSOLHEIGHT
 40
4.0
  9
$LOFTANG1
 40
1.570796326794896
  9
$LOFTANG2
 40
1.570796326794896
  9
$LOFTMAG1
 40
0.0
  9
$LOFTMAG2
 40
0.0
  9
$LOFTPARAM
 70
     7
  9
$LOFTNORMALS
280
     1
  9
$LATITUDE
 40
37.795
  9
$LONGITUDE
 40
-122.394
  9
$NORTHDIRECTION
 40
0.0
  9
$TIMEZONE
 70
 -8000
  9
$LIGHTGLYPHDISPLAY
280
     1
  9
$TILEMODELIGHTSYNCH
280
     1
  9
$CMATERIAL
347
11
  9
$SOLIDHIST
280
     0
  9
$SHOWHIST
280
     1
  9
$DWFFRAME
280
     2
  9
$DGNFRAME
280
     0
  9
$REALWORLDSCALE
290
     1
  9
$INTERFERECOLOR
 62
     1
  9
$INTERFEREOBJVS
345
33
  9
$INTERFEREVPVS
346
30
  9
$CSHADOW
280
     0
  9
$SHADOWPLANELOCATION
 40
0.0
  0
ENDSEC
  0
SECTION
  2
CLASSES
  0
CLASS
  1
ACDBDICTIONARYWDFLT
  2
AcDbDictionaryWithDefault
  3
ObjectDBX Classes
 90
        0
 91
        1
280
     0
281
     0
  0
CLASS
  1
MATERIAL
  2
AcDbMaterial
  3
ObjectDBX Classes
 90
     1153
 91
        3
280
     0
281
     0
  0
CLASS
  1
VISUALSTYLE
  2
AcDbVisualStyle
  3
ObjectDBX Classes
 90
     4095
 91
       24
280
     0
281
     0
  0
CLASS
  1
SCALE
  2
AcDbScale
  3
ObjectDBX Classes
 90
     1153
 91
       17
280
     0
281
     0
  0
CLASS
  1
TABLESTYLE
  2
AcDbTableStyle
  3
ObjectDBX Classes
 90
     4095
 91
        1
280
     0
281
     0
  0
CLASS
  1
MLEADERSTYLE
  2
AcDbMLeaderStyle
  3
ACDB_MLEADERSTYLE_CLASS
 90
     4095
 91
        1
280
     0
281
     0
  0
CLASS
  1
ACDBSECTIONVIEWSTYLE
  2
AcDbSectionViewStyle
  3
ObjectDBX Classes
 90
     1025
 91
        1
280
     0
281
     0
  0
CLASS
  1
ACDBDETAILVIEWSTYLE
  2
AcDbDetailViewStyle
  3
ObjectDBX Classes
 90
     1025
 91
        1
280
     0
281
     0
  0
CLASS
  1
DICTIONARYVAR
  2
AcDbDictionaryVar
  3
ObjectDBX Classes
 90
        0
 91
        5
280
     0
281
     0
  0
CLASS
  1
CELLSTYLEMAP
  2
AcDbCellStyleMap
  3
ObjectDBX Classes
 90
     1152
 91
        1
280
     0
281
     0
  0
ENDSEC
  0
SECTION
  2
TABLES
  0
TABLE
  2
VPORT
  5
8
330
0
100
AcDbSymbolTable
 70
     1
  0
VPORT
  5
57
330
8
100
AcDbSymbolTableRecord
100
AcDbViewportTableRecord
  2
*Active
 70
     0
 10
0.0
 20
0.0
 11
1.0
 21
1.0
 12
0.0
 22
0.0
 13
0.0
 23
0.0
 14
1.0
 24
1.0
 15
0.0
 25
0.0
 16
0.0
 26
0.0
 36
1.0
 17
104.9999999737534
 27
-148.4999999628701
 37
0.0
 40
302.939999924255
 41
0.7070707070707534
 42
50.0
 43
0.0
 44
0.0
 50
0.0
 51
0.0
 71
     0
 72
   100
 73
     1
 74
     0
 75
     1
 76
     0
 77
     0
 78
     0
281
     0
 65
     1
110
0.0
120
0.0
130
0.0
111
1.0
121
0.0
131
0.0
112
0.0
122
1.0
132
0.0
 79
     0
146
0.0
 60
     3
 61
     5
292
     1
282
     1
141
0.0
142
0.0
 63
   250
421
  3355443
  0
ENDTAB
  0
TABLE
  2
LTYPE
  5
5
330
0
100
AcDbSymbolTable
 70
     3
  0
LTYPE
  5
5B
330
5
100
AcDbSymbolTableRecord
100
AcDbLinetypeTableRecord
  2
ByBlock
 70
     0
  3

 72
    65
 73
     0
 40
0.0
  0
LTYPE
  5
5C
330
5
100
AcDbSymbolTableRecord
100
AcDbLinetypeTableRecord
  2
ByLayer
 70
     0
  3

 72
    65
 73
     0
 40
0.0
  0
LTYPE
  5
5D
330
5
100
AcDbSymbolTableRecord
100
AcDbLinetypeTableRecord
  2
Continuous
 70
     0
  3
Solid line
 72
    65
 73
     0
 40
0.0
  0
LTYPE
  5
B4
330
5
100
AcDbSymbolTableRecord
100
AcDbLinetypeTableRecord
  2
AI-Linetype-0
 70
     0
  3
Adobe Illustrator Linetype No. 0
 72
    65
 73
     2
 40
1.411111110758333
 49
0.7055555553791667
 74
     0
 49
-0.7055555553791667
 74
     0
  0
LTYPE
  5
B6
330
5
100
AcDbSymbolTableRecord
100
AcDbLinetypeTableRecord
  2
AI-Linetype-1
 70
     0
  3
Adobe Illustrator Linetype No. 1
 72
    65
 73
     2
 40
1.411111110758333
 49
0.7055555553791667
 74
     0
 49
-0.7055555553791667
 74
     0
  0
ENDTAB
  0
TABLE
  2
LAYER
  5
2
330
0
100
AcDbSymbolTable
 70
     2
  0
LAYER
  5
54
330
2
100
AcDbSymbolTableRecord
100
AcDbLayerTableRecord
  2
0
 70
     0
 62
     7
  6
Continuous
370
    -3
390
F
347
21
  0
LAYER
  5
78
330
2
100
AcDbSymbolTableRecord
100
AcDbLayerTableRecord
  2
レイヤー 1
 70
     0
 62
     7
  6
Continuous
370
     0
390
F
347
21
  0
ENDTAB
  0
TABLE
  2
STYLE
  5
3
330
0
100
AcDbSymbolTable
 70
     2
  0
STYLE
  5
55
330
3
100
AcDbSymbolTableRecord
100
AcDbTextStyleTableRecord
  2
Standard
 70
     0
 40
0.0
 41
1.0
 50
0.0
 71
     0
 42
0.2
  3
txt
  4

  0
STYLE
  5
5A
330
3
100
AcDbSymbolTableRecord
100
AcDbTextStyleTableRecord
  2
Annotative
 70
     0
 40
0.0
 41
1.0
 50
0.0
 71
     0
 42
0.2
  3
txt
  4

1001
AcadAnnotative
1000
AnnotativeData
1002
{
1070
     1
1070
     1
1002
}
  0
ENDTAB
  0
TABLE
  2
VIEW
  5
6
330
0
100
AcDbSymbolTable
 70
     0
  0
ENDTAB
  0
TABLE
  2
UCS
  5
7
330
0
100
AcDbSymbolTable
 70
     0
  0
ENDTAB
  0
TABLE
  2
APPID
  5
9
330
0
100
AcDbSymbolTable
 70
     2
  0
APPID
  5
56
330
9
100
AcDbSymbolTableRecord
100
AcDbRegAppTableRecord
  2
ACAD
 70
     0
  0
APPID
  5
5E
330
9
100
AcDbSymbolTableRecord
100
AcDbRegAppTableRecord
  2
AcadAnnotative
 70
     0
  0
ENDTAB
  0
TABLE
  2
DIMSTYLE
  5
A
330
0
100
AcDbSymbolTable
 70
     2
100
AcDbDimStyleTable
 71
     0
  0
DIMSTYLE
105
58
330
A
100
AcDbSymbolTableRecord
100
AcDbDimStyleTableRecord
  2
Standard
 70
     0
340
55
  0
DIMSTYLE
105
59
330
A
100
AcDbSymbolTableRecord
100
AcDbDimStyleTableRecord
  2
Annotative
 70
     0
340
55
1001
AcadAnnotative
1000
AnnotativeData
1002
{
1070
     1
1070
     1
1002
}
  0
ENDTAB
  0
TABLE
  2
BLOCK_RECORD
  5
1
330
0
100
AcDbSymbolTable
 70
    16
  0
BLOCK_RECORD
  5
70
330
1
100
AcDbSymbolTableRecord
100
AcDbBlockTableRecord
  2
*Model_Space
340
73
 70
     0
280
     1
281
     0
  0
BLOCK_RECORD
  5
6C
330
1
100
AcDbSymbolTableRecord
100
AcDbBlockTableRecord
  2
*Paper_Space
340
6F
 70
     0
280
     1
281
     0
  0
BLOCK_RECORD
  5
74
330
1
100
AcDbSymbolTableRecord
100
AcDbBlockTableRecord
  2
*Paper_Space0
340
77
 70
     0
280
     1
281
     0
  0
BLOCK_RECORD
  5
79
330
1
100
AcDbSymbolTableRecord
100
AcDbBlockTableRecord
  2
Block_0
340
0
102
{BLKREFS
331
7A
102
}
 70
     0
280
     1
281
     0
  0
BLOCK_RECORD
  5
11E
330
1
100
AcDbSymbolTableRecord
100
AcDbBlockTableRecord
  2
Block_1
340
0
102
{BLKREFS
331
11F
102
}
 70
     0
280
     1
281
     0
  0
BLOCK_RECORD
  5
122
330
1
100
AcDbSymbolTableRecord
100
AcDbBlockTableRecord
  2
Block_2
340
0
102
{BLKREFS
331
123
102
}
 70
     0
280
     1
281
     0
  0
BLOCK_RECORD
  5
12F
330
1
100
AcDbSymbolTableRecord
100
AcDbBlockTableRecord
  2
Block_3
340
0
102
{BLKREFS
331
130
102
}
 70
     0
280
     1
281
     0
  0
BLOCK_RECORD
  5
133
330
1
100
AcDbSymbolTableRecord
100
AcDbBlockTableRecord
  2
Block_4
340
0
102
{BLKREFS
331
134
102
}
 70
     0
280
     1
281
     0
  0
BLOCK_RECORD
  5
13D
330
1
100
AcDbSymbolTableRecord
100
AcDbBlockTableRecord
  2
Block_5
340
0
102
{BLKREFS
331
13E
102
}
 70
     0
280
     1
281
     0
  0
BLOCK_RECORD
  5
147
330
1
100
AcDbSymbolTableRecord
100
AcDbBlockTableRecord
  2
Block_6
340
0
102
{BLKREFS
331
148
102
}
 70
     0
280
     1
281
     0
  0
BLOCK_RECORD
  5
14B
330
1
100
AcDbSymbolTableRecord
100
AcDbBlockTableRecord
  2
Block_7
340
0
102
{BLKREFS
331
14C
102
}
 70
     0
280
     1
281
     0
  0
BLOCK_RECORD
  5
156
330
1
100
AcDbSymbolTableRecord
100
AcDbBlockTableRecord
  2
Block_8
340
0
102
{BLKREFS
331
157
102
}
 70
     0
280
     1
281
     0
  0
BLOCK_RECORD
  5
162
330
1
100
AcDbSymbolTableRecord
100
AcDbBlockTableRecord
  2
Block_9
340
0
102
{BLKREFS
331
163
102
}
 70
     0
280
     1
281
     0
  0
BLOCK_RECORD
  5
16B
330
1
100
AcDbSymbolTableRecord
100
AcDbBlockTableRecord
  2
Block_10
340
0
102
{BLKREFS
331
16C
102
}
 70
     0
280
     1
281
     0
  0
BLOCK_RECORD
  5
171
330
1
100
AcDbSymbolTableRecord
100
AcDbBlockTableRecord
  2
Block_11
340
0
102
{BLKREFS
331
172
102
}
 70
     0
280
     1
281
     0
  0
BLOCK_RECORD
  5
175
330
1
100
AcDbSymbolTableRecord
100
AcDbBlockTableRecord
  2
Block_12
340
0
102
{BLKREFS
331
176
102
}
 70
     0
280
     1
281
     0
  0
BLOCK_RECORD
  5
17C
330
1
100
AcDbSymbolTableRecord
100
AcDbBlockTableRecord
  2
Block_13
340
0
102
{BLKREFS
331
17D
102
}
 70
     0
280
     1
281
     0
  0
BLOCK_RECORD
  5
180
330
1
100
AcDbSymbolTableRecord
100
AcDbBlockTableRecord
  2
Block_14
340
0
102
{BLKREFS
331
181
102
}
 70
     0
280
     1
281
     0
  0
ENDTAB
  0
ENDSEC
  0
SECTION
  2
BLOCKS
  0
BLOCK
  5
71
330
70
100
AcDbEntity
  8
0
100
AcDbBlockBegin
  2
*Model_Space
 70
     0
 10
0.0
 20
0.0
 30
0.0
  3
*Model_Space
  1

  0
ENDBLK
  5
72
330
70
100
AcDbEntity
  8
0
100
AcDbBlockEnd
  0
BLOCK
  5
6D
330
6C
100
AcDbEntity
 67
     1
  8
0
100
AcDbBlockBegin
  2
*Paper_Space
 70
     0
 10
0.0
 20
0.0
 30
0.0
  3
*Paper_Space
  1

  0
ENDBLK
  5
6E
330
6C
100
AcDbEntity
 67
     1
  8
0
100
AcDbBlockEnd
  0
BLOCK
  5
75
330
74
100
AcDbEntity
 67
     1
  8
0
100
AcDbBlockBegin
  2
*Paper_Space0
 70
     0
 10
0.0
 20
0.0
 30
0.0
  3
*Paper_Space0
  1

  0
ENDBLK
  5
76
330
74
100
AcDbEntity
 67
     1
  8
0
100
AcDbBlockEnd
  0
BLOCK
  5
7B
330
79
100
AcDbEntity
  8
0
100
AcDbBlockBegin
  2
Block_0
 70
     0
 10
0.0
 20
0.0
 30
0.0
  3
Block_0
  1

  0
SPLINE
  5
7D
330
79
100
AcDbEntity
  8
レイヤー 1
 62
   250
420
  2299925
370
     9
100
AcDbSpline
210
0.0
220
0.0
230
1.0
 70
     8
 71
     3
 72
     8
 73
     4
 74
     0
 42
0.0000000001
 43
0.0000000001
 40
0.0
 40
0.0
 40
0.0
 40
0.0
 40
1.0
 40
1.0
 40
1.0
 40
1.0
 10
133.8233953066872
 20
-154.7581395708072
 30
0.0
 10
133.8233953066872
 20
-154.7581395708072
 30
0.0
 10
133.1192156024301
 20
-154.283053737592
 30
0.0
 10
133.005515327553
 20
-154.7009542930432
 30
0.0
  0
SPLINE
  5
7E
330
79
100
AcDbEntity
  8
レイヤー 1
 62
   250
420
  2299925
370
     9
100
AcDbSpline
210
0.0
220
0.0
230
1.0
 70
     8
 71
     3
 72
    26
 73
    22
 74
     0
 42
0.0000000001
 43
0.0000000001
 40
0.0
 40
0.0
 40
0.0
 40
0.0
 40
1.0
 40
1.0
 40
1.0
 40
2.0
 40
2.0
 40
2.0
 40
3.0
 40
3.0
 40
3.0
 40
4.0
 40
4.0
 40
4.0
 40
5.0
 40
5.0
 40
5.0
 40
6.0
 40
6.0
 40
6.0
 40
7.0
 40
7.0
 40
7.0
 40
7.0
 10
134.3553136264502
 20
-147.7439295725603
 30
0.0
 10
134.3553136264502
 20
-147.7439295725603
 30
0.0
 10
125.7632346789857
 20
-150.7666354051383
 30
0.0
 10
125.7632346789857
 20
-150.7666354051383
 30
0.0
 10
125.7632346789857
 20
-150.7666354051383
 30
0.0
 10
124.394844991674
 20
-151.0322770717381
 30
0.0
 10
124.9081719230224
 20
-151.4887362382908
 30
0.0
 10
124.9081719230224
 20
-151.4887362382908
 30
0.0
 10
125.2120194152706
 20
-151.6785659604655
 30
0.0
 10
125.7446432905711
 20
-151.8880454048571
 30
0.0
 10
125.7446432905711
 20
-151.8880454048571
 30
0.0
 10
130.7813573287405
 20
-153.9220209599051
 30
0.0
 10
130.7813573287405
 20
-153.9220209599051
 30
0.0
 10
130.7813573287405
 20
-153.9220209599051
 30
0.0
 10
130.7434689963738
 20
-156.9815920702508
 30
0.0
 10
130.7434689963738
 20
-156.9815920702508
 30
0.0
 10
130.7434689963738
 20
-156.9815920702508
 30
0.0
 10
133.3858450400723
 20
-158.2556137365988
 30
0.0
 10
133.3858450400723
 20
-158.2556137365988
 30
0.0
 10
133.3858450400723
 20
-158.2556137365988
 30
0.0
 10
137.0920930010736
 20
-156.6777445703272
 30
0.0
 10
137.0920930010736
 20
-156.6777445703272
 30
0.0
  0
LINE
  5
7F
330
79
100
AcDbEntity
  8
レイヤー 1
 62
   250
420
  2299925
370
     9
100
AcDbLine
 10
133.0813272700634
 20
-154.5679570708541
 30
0.0
 11
142.3761748107098
 21
-150.5761354051856
 31
0.0
  0
SPLINE
  5
80
330
79
100
AcDbEntity
  8
レイヤー 1
 62
   250
420
  2299925
370
     9
100
AcDbSpline
210
0.0
220
0.0
230
1.0
 70
     8
 71
     3
 72
    26
 73
    22
 74
     0
 42
0.0000000001
 43
0.0000000001
 40
0.0
 40
0.0
 40
0.0
 40
0.0
 40
1.0
 40
1.0
 40
1.0
 40
2.0
 40
2.0
 40
2.0
 40
3.0
 40
3.0
 40
3.0
 40
4.0
 40
4.0
 40
4.0
 40
5.0
 40
5.0
 40
5.0
 40
6.0
 40
6.0
 40
6.0
 40
7.0
 40
7.0
 40
7.0
 40
7.0
 10
134.4497169573751
 20
-147.9148151280732
 30
0.0
 10
134.4497169573751
 20
-147.9148151280732
 30
0.0
 10
125.5544607954231
 20
-151.0322770717381
 30
0.0
 10
125.5544607954231
 20
-151.0322770717381
 30
0.0
 10
125.5544607954231
 20
-151.0322770717381
 30
0.0
 10
125.079727751979
 20
-151.1084065161635
 30
0.0
 10
125.1176199754931
 20
-151.2792920716767
 30
0.0
 10
125.1176199754931
 20
-151.2792920716767
 30
0.0
 10
125.0983544181704
 20
-151.3554215161015
 30
0.0
 10
125.4028721881793
 20
-151.4504951271896
 30
0.0
 10
125.4028721881793
 20
-151.4504951271896
 30
0.0
 10
131.0852400987656
 20
-153.693244571073
 30
0.0
 10
131.0852400987656
 20
-153.693244571073
 30
0.0
 10
131.0852400987656
 20
-153.693244571073
 30
0.0
 10
131.0852400987656
 20
-156.6591531814429
 30
0.0
 10
131.0852400987656
 20
-156.6591531814429
 30
0.0
 10
131.0852400987656
 20
-156.6591531814429
 30
0.0
 10
132.8918503304529
 20
-157.5142159590071
 30
0.0
 10
132.8918503304529
 20
-157.5142159590071
 30
0.0
 10
132.8918503304529
 20
-157.5142159590071
 30
0.0
 10
133.0241419937445
 20
-154.7009542930432
 30
0.0
 10
133.0241419937445
 20
-154.7009542930432
 30
0.0
  0
LINE
  5
81
330
79
100
AcDbEntity
  8
レイヤー 1
 62
   250
420
  2299925
370
     9
100
AcDbLine
 10
140.4000901389017
 20
-149.9677348497823
 30
0.0
 11
131.0852400987656
 21
-153.7507826266141
 31
0.0
  0
SPLINE
  5
82
330
79
100
AcDbEntity
  8
レイヤー 1
 62
   250
420
  2299925
370
     9
100
AcDbSpline
210
0.0
220
0.0
230
1.0
 70
     8
 71
     3
 72
    20
 73
    16
 74
     0
 42
0.0000000001
 43
0.0000000001
 40
0.0
 40
0.0
 40
0.0
 40
0.0
 40
1.0
 40
1.0
 40
1.0
 40
2.0
 40
2.0
 40
2.0
 40
3.0
 40
3.0
 40
3.0
 40
4.0
 40
4.0
 40
4.0
 40
5.0
 40
5.0
 40
5.0
 40
5.0
 10
133.3858450400723
 20
-158.2556137365988
 30
0.0
 10
133.3858450400723
 20
-158.2556137365988
 30
0.0
 10
133.3858450400723
 20
-155.3282990151086
 30
0.0
 10
133.3858450400723
 20
-155.3282990151086
 30
0.0
 10
133.3858450400723
 20
-155.3282990151086
 30
0.0
 10
133.3858450400723
 20
-154.9865631818609
 30
0.0
 10
133.61391997337
 20
-155.1195251262718
 30
0.0
 10
133.61391997337
 20
-155.1195251262718
 30
0.0
 10
138.8794062888087
 20
-157.419142347919
 30
0.0
 10
138.8794062888087
 20
-157.419142347919
 30
0.0
 10
138.8794062888087
 20
-157.419142347919
 30
0.0
 10
139.6200984921343
 20
-157.8756015144717
 30
0.0
 10
140.3229023630932
 20
-157.6661573478576
 30
0.0
 10
140.3229023630932
 20
-157.6661573478576
 30
0.0
 10
149.8664935085048
 20
-153.6174679044253
 30
0.0
 10
149.8664935085048
 20
-153.6174679044253
 30
0.0
  0
SPLINE
  5
83
330
79
100
AcDbEntity
  8
レイヤー 1
 62
   250
420
  2299925
370
     9
100
AcDbSpline
210
0.0
220
0.0
230
1.0
 70
     8
 71
     3
 72
    20
 73
    16
 74
     0
 42
0.0000000001
 43
0.0000000001
 40
0.0
 40
0.0
 40
0.0
 40
0.0
 40
1.0
 40
1.0
 40
1.0
 40
2.0
 40
2.0
 40
2.0
 40
3.0
 40
3.0
 40
3.0
 40
4.0
 40
4.0
 40
4.0
 40
5.0
 40
5.0
 40
5.0
 40
5.0
 10
133.5567305912682
 20
-154.6248248486178
 30
0.0
 10
133.5567305912682
 20
-154.6248248486178
 30
0.0
 10
137.073501612659
 20
-156.2405470704361
 30
0.0
 10
137.2450616391281
 20
-156.3359734593013
 30
0.0
 10
137.2450616391281
 20
-156.3359734593013
 30
0.0
 10
139.3920276646196
 20
-157.3433304034938
 30
0.0
 10
139.3920276646196
 20
-157.3433304034938
 30
0.0
 10
139.3920276646196
 20
-157.3433304034938
 30
0.0
 10
139.810951265043
 20
-157.685771792297
 30
0.0
 10
140.7232345751021
 20
-157.2293126257449
 30
0.0
 10
140.7232345751021
 20
-157.2293126257449
 30
0.0
 10
148.0227004999883
 20
-154.054982904316
 30
0.0
 10
148.0227004999883
 20
-154.054982904316
 30
0.0
 10
148.0227004999883
 20
-154.054982904316
 30
0.0
 10
149.6763462911336
 20
-153.3511559600475
 30
0.0
 10
149.6763462911336
 20
-153.3511559600475
 30
0.0
  0
LINE
  5
84
330
79
100
AcDbEntity
  8
レイヤー 1
 62
   250
420
  2299925
370
     9
100
AcDbLine
 10
131.0852400987656
 20
-156.6591531814429
 30
0.0
 11
132.9297386628196
 21
-155.9932145704979
 31
0.0
  0
SPLINE
  5
85
330
79
100
AcDbEntity
  8
レイヤー 1
 62
   250
420
  2299925
370
     9
100
AcDbSpline
210
0.0
220
0.0
230
1.0
 70
     9
 71
     3
 72
    17
 73
    13
 74
     0
 42
0.0000000001
 43
0.0000000001
 40
0.0
 40
0.0
 40
0.0
 40
0.0
 40
1.0
 40
1.0
 40
1.0
 40
2.0
 40
2.0
 40
2.0
 40
3.0
 40
3.0
 40
3.0
 40
4.0
 40
4.0
 40
4.0
 40
4.0
 10
137.6798207638572
 20
-149.7489773498369
 30
0.0
 10
137.6798207638572
 20
-149.9839273497779
 30
0.0
 10
137.3511729944639
 20
-150.1747801275084
 30
0.0
 10
136.9467132825603
 20
-150.1747801275084
 30
0.0
 10
136.5402116393045
 20
-150.1747801275084
 30
0.0
 10
136.2129002457258
 20
-149.9839273497779
 30
0.0
 10
136.2129002457258
 20
-149.7489773498369
 30
0.0
 10
136.2129002457258
 20
-149.5136745721182
 30
0.0
 10
136.5402116393045
 20
-149.3238448499428
 30
0.0
 10
136.9467132825603
 20
-149.3238448499428
 30
0.0
 10
137.3511729944639
 20
-149.3238448499428
 30
0.0
 10
137.6798207638572
 20
-149.5136745721182
 30
0.0
 10
137.6798207638572
 20
-149.7489773498369
 30
0.0
  0
SPLINE
  5
86
330
79
100
AcDbEntity
  8
レイヤー 1
 62
   250
420
  2299925
370
     9
100
AcDbSpline
210
0.0
220
0.0
230
1.0
 70
     8
 71
     3
 72
    11
 73
     7
 74
     0
 42
0.0000000001
 43
0.0000000001
 40
0.0
 40
0.0
 40
0.0
 40
0.0
 40
1.0
 40
1.0
 40
1.0
 40
2.0
 40
2.0
 40
2.0
 40
2.0
 10
136.3403588535852
 20
-149.9832217942224
 30
0.0
 10
136.3403588535852
 20
-149.9832217942224
 30
0.0
 10
136.3183144171374
 20
-149.471976238795
 30
0.0
 10
137.1479024440942
 20
-149.5154031832288
 30
0.0
 10
137.1479024440942
 20
-149.5154031832288
 30
0.0
 10
137.6370993760582
 20
-149.5787973498792
 30
0.0
 10
137.5523621559978
 20
-149.9618787386723
 30
0.0
  0
SPLINE
  5
87
330
79
100
AcDbEntity
  8
レイヤー 1
 62
   250
420
  2299925
370
     9
100
AcDbSpline
210
0.0
220
0.0
230
1.0
 70
     9
 71
     3
 72
    17
 73
    13
 74
     0
 42
0.0000000001
 43
0.0000000001
 40
0.0
 40
0.0
 40
0.0
 40
0.0
 40
1.0
 40
1.0
 40
1.0
 40
2.0
 40
2.0
 40
2.0
 40
3.0
 40
3.0
 40
3.0
 40
4.0
 40
4.0
 40
4.0
 40
4.0
 10
137.443494936553
 20
-148.6685954056626
 30
0.0
 10
137.443494936553
 20
-148.9035454056036
 30
0.0
 10
137.1148471671597
 20
-149.094398183334
 30
0.0
 10
136.7103874552561
 20
-149.094398183334
 30
0.0
 10
136.3045560838086
 20
-149.094398183334
 30
0.0
 10
135.9765744184217
 20
-148.9035454056036
 30
0.0
 10
135.9765744184217
 20
-148.6685954056626
 30
0.0
 10
135.9765744184217
 20
-148.4336454057213
 30
0.0
 10
136.3045560838086
 20
-148.2427573502133
 30
0.0
 10
136.7103874552561
 20
-148.2427573502133
 30
0.0
 10
137.1148471671597
 20
-148.2427573502133
 30
0.0
 10
137.443494936553
 20
-148.4336454057213
 30
0.0
 10
137.443494936553
 20
-148.6685954056626
 30
0.0
  0
SPLINE
  5
88
330
79
100
AcDbEntity
  8
レイヤー 1
 62
   250
420
  2299925
370
     9
100
AcDbSpline
210
0.0
220
0.0
230
1.0
 70
     8
 71
     3
 72
    11
 73
     7
 74
     0
 42
0.0000000001
 43
0.0000000001
 40
0.0
 40
0.0
 40
0.0
 40
0.0
 40
1.0
 40
1.0
 40
1.0
 40
2.0
 40
2.0
 40
2.0
 40
2.0
 10
136.1040330262811
 20
-148.9021695722707
 30
0.0
 10
136.1040330262811
 20
-148.9021695722707
 30
0.0
 10
136.08268997127
 20
-148.3912415168429
 30
0.0
 10
136.9122468945507
 20
-148.4346684612764
 30
0.0
 10
136.9122468945507
 20
-148.4346684612764
 30
0.0
 10
137.400773548754
 20
-148.4977098501496
 30
0.0
 10
137.3160363286936
 20
-148.881496794498
 30
0.0
  0
SPLINE
  5
89
330
79
100
AcDbEntity
  8
レイヤー 1
 62
   250
420
  2299925
370
     9
100
AcDbSpline
210
0.0
220
0.0
230
1.0
 70
    11
 71
     3
 72
    17
 73
    13
 74
     0
 42
0.0000000001
 43
0.0000000001
 40
0.0
 40
0.0
 40
0.0
 40
0.0
 40
1.0
 40
1.0
 40
1.0
 40
2.0
 40
2.0
 40
2.0
 40
3.0
 40
3.0
 40
3.0
 40
4.0
 40
4.0
 40
4.0
 40
4.0
 10
127.7869090718019
 20
-151.2682501272348
 30
0.0
 10
127.7869090718019
 20
-151.5032001271759
 30
0.0
 10
127.4582260246318
 20
-151.693735404906
 30
0.0
 10
127.0530960349675
 20
-151.693735404906
 30
0.0
 10
126.6479307675263
 20
-151.693735404906
 30
0.0
 10
126.3192829981331
 20
-151.5032001271759
 30
0.0
 10
126.3192829981331
 20
-151.2682501272348
 30
0.0
 10
126.3192829981331
 20
-151.0333001272939
 30
0.0
 10
126.6479307675263
 20
-150.8424473495634
 30
0.0
 10
127.0530960349675
 20
-150.8424473495634
 30
0.0
 10
127.4582260246318
 20
-150.8424473495634
 30
0.0
 10
127.7869090718019
 20
-151.0333001272939
 30
0.0
 10
127.7869090718019
 20
-151.2682501272348
 30
0.0
  0
SPLINE
  5
8A
330
79
100
AcDbEntity
  8
レイヤー 1
 62
   250
420
  2299925
370
     9
100
AcDbSpline
210
0.0
220
0.0
230
1.0
 70
     8
 71
     3
 72
    11
 73
     7
 74
     0
 42
0.0000000001
 43
0.0000000001
 40
0.0
 40
0.0
 40
0.0
 40
0.0
 40
1.0
 40
1.0
 40
1.0
 40
2.0
 40
2.0
 40
2.0
 40
2.0
 10
126.44744716153
 20
-151.5021770716207
 30
0.0
 10
126.44744716153
 20
-151.5021770716207
 30
0.0
 10
126.4253985509814
 20
-150.9912842939711
 30
0.0
 10
127.2549554742621
 20
-151.034323182849
 30
0.0
 10
127.2549554742621
 20
-151.034323182849
 30
0.0
 10
127.7441876840029
 20
-151.0980701272778
 30
0.0
 10
127.6594151861657
 20
-151.4811515160702
 30
0.0
  0
SPLINE
  5
8B
330
79
100
AcDbEntity
  8
レイヤー 1
 62
   250
420
  2299925
370
     9
100
AcDbSpline
210
0.0
220
0.0
230
1.0
 70
     9
 71
     3
 72
    17
 73
    13
 74
     0
 42
0.0000000001
 43
0.0000000001
 40
0.0
 40
0.0
 40
0.0
 40
0.0
 40
1.0
 40
1.0
 40
1.0
 40
2.0
 40
2.0
 40
2.0
 40
3.0
 40
3.0
 40
3.0
 40
4.0
 40
4.0
 40
4.0
 40
4.0
 10
135.4852960976219
 20
-150.8293592940113
 30
0.0
 10
135.4852960976219
 20
-151.0643092939523
 30
0.0
 10
135.1552724949304
 20
-151.2551620716827
 30
0.0
 10
134.7508127830268
 20
-151.2551620716827
 30
0.0
 10
134.3463530711232
 20
-151.2551620716827
 30
0.0
 10
134.0177053017299
 20
-151.0643092939523
 30
0.0
 10
134.0177053017299
 20
-150.8293592940113
 30
0.0
 10
134.0177053017299
 20
-150.5947267940699
 30
0.0
 10
134.3463530711232
 20
-150.4042267941172
 30
0.0
 10
134.7508127830268
 20
-150.4042267941172
 30
0.0
 10
135.1552724949304
 20
-150.4042267941172
 30
0.0
 10
135.4852960976219
 20
-150.5947267940699
 30
0.0
 10
135.4852960976219
 20
-150.8293592940113
 30
0.0
  0
SPLINE
  5
8C
330
79
100
AcDbEntity
  8
レイヤー 1
 62
   250
420
  2299925
370
     9
100
AcDbSpline
210
0.0
220
0.0
230
1.0
 70
     8
 71
     3
 72
    11
 73
     7
 74
     0
 42
0.0000000001
 43
0.0000000001
 40
0.0
 40
0.0
 40
0.0
 40
0.0
 40
1.0
 40
1.0
 40
1.0
 40
2.0
 40
2.0
 40
2.0
 40
2.0
 10
134.1451639095893
 20
-151.0636037383967
 30
0.0
 10
134.1451639095893
 20
-151.0636037383967
 30
0.0
 10
134.1237855768014
 20
-150.5523581829693
 30
0.0
 10
134.953377777859
 20
-150.5957851274032
 30
0.0
 10
134.953377777859
 20
-150.5957851274032
 30
0.0
 10
135.4425747098229
 20
-150.6591792940535
 30
0.0
 10
135.357131934225
 20
-151.0422606828467
 30
0.0
  0
SPLINE
  5
8D
330
79
100
AcDbEntity
  8
レイヤー 1
 62
   250
420
  2299925
370
     9
100
AcDbSpline
210
0.0
220
0.0
230
1.0
 70
     9
 71
     3
 72
    17
 73
    13
 74
     0
 42
0.0000000001
 43
0.0000000001
 40
0.0
 40
0.0
 40
0.0
 40
0.0
 40
1.0
 40
1.0
 40
1.0
 40
2.0
 40
2.0
 40
2.0
 40
3.0
 40
3.0
 40
3.0
 40
4.0
 40
4.0
 40
4.0
 40
4.0
 10
135.2482647147802
 20
-149.7489773498369
 30
0.0
 10
135.2482647147802
 20
-149.9839273497779
 30
0.0
 10
134.9196169453869
 20
-150.1747801275084
 30
0.0
 10
134.5144869557227
 20
-150.1747801275084
 30
0.0
 10
134.1100272438191
 20
-150.1747801275084
 30
0.0
 10
133.7806739188882
 20
-149.9839273497779
 30
0.0
 10
133.7806739188882
 20
-149.7489773498369
 30
0.0
 10
133.7806739188882
 20
-149.5136745721182
 30
0.0
 10
134.1100272438191
 20
-149.3238448499428
 30
0.0
 10
134.5144869557227
 20
-149.3238448499428
 30
0.0
 10
134.9196169453869
 20
-149.3238448499428
 30
0.0
 10
135.2482647147802
 20
-149.5136745721182
 30
0.0
 10
135.2482647147802
 20
-149.7489773498369
 30
0.0
  0
SPLINE
  5
8E
330
79
100
AcDbEntity
  8
レイヤー 1
 62
   250
420
  2299925
370
     9
100
AcDbSpline
210
0.0
220
0.0
230
1.0
 70
     8
 71
     3
 72
    11
 73
     7
 74
     0
 42
0.0000000001
 43
0.0000000001
 40
0.0
 40
0.0
 40
0.0
 40
0.0
 40
1.0
 40
1.0
 40
1.0
 40
2.0
 40
2.0
 40
2.0
 40
2.0
 10
133.9095083600458
 20
-149.9832217942224
 30
0.0
 10
133.9095083600458
 20
-149.9832217942224
 30
0.0
 10
133.8874597494972
 20
-149.471976238795
 30
0.0
 10
134.7163505286499
 20
-149.5154031832288
 30
0.0
 10
134.7163505286499
 20
-149.5154031832288
 30
0.0
 10
135.2055786047581
 20
-149.5787973498792
 30
0.0
 10
135.1208061069208
 20
-149.9618787386723
 30
0.0
  0
SPLINE
  5
8F
330
79
100
AcDbEntity
  8
レイヤー 1
 62
   250
420
  2299925
370
     9
100
AcDbSpline
210
0.0
220
0.0
230
1.0
 70
     9
 71
     3
 72
    17
 73
    13
 74
     0
 42
0.0000000001
 43
0.0000000001
 40
0.0
 40
0.0
 40
0.0
 40
0.0
 40
1.0
 40
1.0
 40
1.0
 40
2.0
 40
2.0
 40
2.0
 40
3.0
 40
3.0
 40
3.0
 40
4.0
 40
4.0
 40
4.0
 40
4.0
 10
134.7087616729885
 20
-148.803638738962
 30
0.0
 10
134.7087616729885
 20
-149.0385887389029
 30
0.0
 10
134.3794477509558
 20
-149.2294415166334
 30
0.0
 10
133.974983913931
 20
-149.2294415166334
 30
0.0
 10
133.5698227511588
 20
-149.2294415166334
 30
0.0
 10
133.240465321559
 20
-149.0385887389029
 30
0.0
 10
133.240465321559
 20
-148.803638738962
 30
0.0
 10
133.240465321559
 20
-148.5686887390206
 30
0.0
 10
133.5698227511588
 20
-148.3781534612908
 30
0.0
 10
133.974983913931
 20
-148.3781534612908
 30
0.0
 10
134.3794477509558
 20
-148.3781534612908
 30
0.0
 10
134.7087616729885
 20
-148.5686887390206
 30
0.0
 10
134.7087616729885
 20
-148.803638738962
 30
0.0
  0
SPLINE
  5
90
330
79
100
AcDbEntity
  8
レイヤー 1
 62
   250
420
  2299925
370
     9
100
AcDbSpline
210
0.0
220
0.0
230
1.0
 70
     8
 71
     3
 72
    11
 73
     7
 74
     0
 42
0.0000000001
 43
0.0000000001
 40
0.0
 40
0.0
 40
0.0
 40
0.0
 40
1.0
 40
1.0
 40
1.0
 40
2.0
 40
2.0
 40
2.0
 40
2.0
 10
133.3686294849559
 20
-149.0378831833481
 30
0.0
 10
133.3686294849559
 20
-149.0378831833481
 30
0.0
 10
133.3479567077055
 20
-148.52663762792
 30
0.0
 10
134.1761730754649
 20
-148.569711794576
 30
0.0
 10
134.1761730754649
 20
-148.569711794576
 30
0.0
 10
134.6653700074289
 20
-148.6334587390046
 30
0.0
 10
134.5806327873685
 20
-149.0165401277973
 30
0.0
  0
SPLINE
  5
91
330
79
100
AcDbEntity
  8
レイヤー 1
 62
   250
420
  2299925
370
     9
100
AcDbSpline
210
0.0
220
0.0
230
1.0
 70
     9
 71
     3
 72
    17
 73
    13
 74
     0
 42
0.0000000001
 43
0.0000000001
 40
0.0
 40
0.0
 40
0.0
 40
0.0
 40
1.0
 40
1.0
 40
1.0
 40
2.0
 40
2.0
 40
2.0
 40
3.0
 40
3.0
 40
3.0
 40
4.0
 40
4.0
 40
4.0
 40
4.0
 10
133.1888227512534
 20
-151.6396192938088
 30
0.0
 10
133.1888227512534
 20
-151.8746045715279
 30
0.0
 10
132.8594653312791
 20
-152.0654573492577
 30
0.0
 10
132.4550056193755
 20
-152.0654573492577
 30
0.0
 10
132.0491700741737
 20
-152.0654573492577
 30
0.0
 10
131.7218981380786
 20
-151.8746045715279
 30
0.0
 10
131.7218981380786
 20
-151.6396192938088
 30
0.0
 10
131.7218981380786
 20
-151.4046692938677
 30
0.0
 10
132.0491700741737
 20
-151.2145220716928
 30
0.0
 10
132.4550056193755
 20
-151.2145220716928
 30
0.0
 10
132.8594653312791
 20
-151.2145220716928
 30
0.0
 10
133.1888227512534
 20
-151.4046692938677
 30
0.0
 10
133.1888227512534
 20
-151.6396192938088
 30
0.0
  0
SPLINE
  5
92
330
79
100
AcDbEntity
  8
レイヤー 1
 62
   250
420
  2299925
370
     9
100
AcDbSpline
210
0.0
220
0.0
230
1.0
 70
     8
 71
     3
 72
    11
 73
     7
 74
     0
 42
0.0000000001
 43
0.0000000001
 40
0.0
 40
0.0
 40
0.0
 40
0.0
 40
1.0
 40
1.0
 40
1.0
 40
2.0
 40
2.0
 40
2.0
 40
2.0
 10
131.849356745938
 20
-151.8735462381946
 30
0.0
 10
131.849356745938
 20
-151.8735462381946
 30
0.0
 10
131.8273081353894
 20
-151.362653460545
 30
0.0
 10
132.6575706142076
 20
-151.4060451272006
 30
0.0
 10
132.6575706142076
 20
-151.4060451272006
 30
0.0
 10
133.146097268411
 20
-151.469439293851
 30
0.0
 10
133.060654492813
 20
-151.8525559604223
 30
0.0
  0
SPLINE
  5
93
330
79
100
AcDbEntity
  8
レイヤー 1
 62
   250
420
  2299925
370
     9
100
AcDbSpline
210
0.0
220
0.0
230
1.0
 70
     9
 71
     3
 72
    17
 73
    13
 74
     0
 42
0.0000000001
 43
0.0000000001
 40
0.0
 40
0.0
 40
0.0
 40
0.0
 40
1.0
 40
1.0
 40
1.0
 40
2.0
 40
2.0
 40
2.0
 40
3.0
 40
3.0
 40
3.0
 40
4.0
 40
4.0
 40
4.0
 40
4.0
 10
132.9517872733682
 20
-150.5592373496344
 30
0.0
 10
132.9517872733682
 20
-150.7942226273535
 30
0.0
 10
132.623104226198
 20
-150.9847226273056
 30
0.0
 10
132.2186838626071
 20
-150.9847226273056
 30
0.0
 10
131.8135145246302
 20
-150.9847226273056
 30
0.0
 10
131.4848667552369
 20
-150.7942226273535
 30
0.0
 10
131.4848667552369
 20
-150.5592373496344
 30
0.0
 10
131.4848667552369
 20
-150.3246401274705
 30
0.0
 10
131.8135145246302
 20
-150.1334345719629
 30
0.0
 10
132.2186838626071
 20
-150.1334345719629
 30
0.0
 10
132.623104226198
 20
-150.1334345719629
 30
0.0
 10
132.9517872733682
 20
-150.3246401274705
 30
0.0
 10
132.9517872733682
 20
-150.5592373496344
 30
0.0
  0
SPLINE
  5
94
330
79
100
AcDbEntity
  8
レイヤー 1
 62
   250
420
  2299925
370
     9
100
AcDbSpline
210
0.0
220
0.0
230
1.0
 70
     8
 71
     3
 72
    11
 73
     7
 74
     0
 42
0.0000000001
 43
0.0000000001
 40
0.0
 40
0.0
 40
0.0
 40
0.0
 40
1.0
 40
1.0
 40
1.0
 40
2.0
 40
2.0
 40
2.0
 40
2.0
 10
131.6130309186338
 20
-150.7928467940207
 30
0.0
 10
131.6130309186338
 20
-150.7928467940207
 30
0.0
 10
131.5916525858459
 20
-150.2822715163706
 30
0.0
 10
132.4205392313659
 20
-150.325345683026
 30
0.0
 10
132.4205392313659
 20
-150.325345683026
 30
0.0
 10
132.9097361633299
 20
-150.3890573496766
 30
0.0
 10
132.8243286655088
 20
-150.772174016248
 30
0.0
  0
SPLINE
  5
95
330
79
100
AcDbEntity
  8
レイヤー 1
 62
   250
420
  2299925
370
     9
100
AcDbSpline
210
0.0
220
0.0
230
1.0
 70
     9
 71
     3
 72
    17
 73
    13
 74
     0
 42
0.0000000001
 43
0.0000000001
 40
0.0
 40
0.0
 40
0.0
 40
0.0
 40
1.0
 40
1.0
 40
1.0
 40
2.0
 40
2.0
 40
2.0
 40
3.0
 40
3.0
 40
3.0
 40
4.0
 40
4.0
 40
4.0
 40
4.0
 10
132.4122842315765
 20
-149.6139340165369
 30
0.0
 10
132.4122842315765
 20
-149.8488840164786
 30
0.0
 10
132.0829309066457
 20
-150.0390312386535
 30
0.0
 10
131.6791767502797
 20
-150.0390312386535
 30
0.0
 10
131.2733412050778
 20
-150.0390312386535
 30
0.0
 10
130.9446581579077
 20
-149.8488840164786
 30
0.0
 10
130.9446581579077
 20
-149.6139340165369
 30
0.0
 10
130.9446581579077
 20
-149.3789487388184
 30
0.0
 10
131.2733412050778
 20
-149.1888015166435
 30
0.0
 10
131.6791767502797
 20
-149.1888015166435
 30
0.0
 10
132.0829309066457
 20
-149.1888015166435
 30
0.0
 10
132.4122842315765
 20
-149.3789487388184
 30
0.0
 10
132.4122842315765
 20
-149.6139340165369
 30
0.0
  0
SPLINE
  5
96
330
79
100
AcDbEntity
  8
レイヤー 1
 62
   250
420
  2299925
370
     9
100
AcDbSpline
210
0.0
220
0.0
230
1.0
 70
     8
 71
     3
 72
    11
 73
     7
 74
     0
 42
0.0000000001
 43
0.0000000001
 40
0.0
 40
0.0
 40
0.0
 40
0.0
 40
1.0
 40
1.0
 40
1.0
 40
2.0
 40
2.0
 40
2.0
 40
2.0
 10
131.0728223213046
 20
-149.8475081831457
 30
0.0
 10
131.0728223213046
 20
-149.8475081831457
 30
0.0
 10
131.0514792662936
 20
-149.3365801277178
 30
0.0
 10
131.8796644182476
 20
-149.3803598499288
 30
0.0
 10
131.8796644182476
 20
-149.3803598499288
 30
0.0
 10
132.3695628437775
 20
-149.4434012388021
 30
0.0
 10
132.2848256237172
 20
-149.8264826275952
 30
0.0
  0
ELLIPSE
  5
97
330
79
100
AcDbEntity
  8
レイヤー 1
 62
   250
420
  2299925
370
     9
100
AcDbEllipse
 10
130.0234495702986
 20
-152.4502673491615
 30
0.0
 11
0.7338130368344254
 21
0.0
 31
0.0
210
0.0
220
0.0
230
1.0
 40
0.5798279075371729
 41
0.0
 42
6.283185307179586
  0
SPLINE
  5
98
330
79
100
AcDbEntity
  8
レイヤー 1
 62
   250
420
  2299925
370
     9
100
AcDbSpline
210
0.0
220
0.0
230
1.0
 70
     8
 71
     3
 72
    11
 73
     7
 74
     0
 42
0.0000000001
 43
0.0000000001
 40
0.0
 40
0.0
 40
0.0
 40
0.0
 40
1.0
 40
1.0
 40
1.0
 40
2.0
 40
2.0
 40
2.0
 40
2.0
 10
129.4178006968611
 20
-152.6838415157696
 30
0.0
 10
129.4178006968611
 20
-152.6838415157696
 30
0.0
 10
129.3957560855349
 20
-152.1732662381196
 30
0.0
 10
130.2260145651307
 20
-152.2163404047756
 30
0.0
 10
130.2260145651307
 20
-152.2163404047756
 30
0.0
 10
130.714541219334
 20
-152.2793817936482
 30
0.0
 10
130.6304783074484
 20
-152.6631687379975
 30
0.0
  0
SPLINE
  5
99
330
79
100
AcDbEntity
  8
レイヤー 1
 62
   250
420
  2299925
370
     9
100
AcDbSpline
210
0.0
220
0.0
230
1.0
 70
    11
 71
     3
 72
    17
 73
    13
 74
     0
 42
0.0000000001
 43
0.0000000001
 40
0.0
 40
0.0
 40
0.0
 40
0.0
 40
1.0
 40
1.0
 40
1.0
 40
2.0
 40
2.0
 40
2.0
 40
3.0
 40
3.0
 40
3.0
 40
4.0
 40
4.0
 40
4.0
 40
4.0
 10
130.5216070575895
 20
-151.3695326272094
 30
0.0
 10
130.5216070575895
 20
-151.604482627151
 30
0.0
 10
130.191583454898
 20
-151.7950179048806
 30
0.0
 10
129.7871237429944
 20
-151.7950179048806
 30
0.0
 10
129.3819584755532
 20
-151.7950179048806
 30
0.0
 10
129.0540162616975
 20
-151.604482627151
 30
0.0
 10
129.0540162616975
 20
-151.3695326272094
 30
0.0
 10
129.0540162616975
 20
-151.1345826272677
 30
0.0
 10
129.3819584755532
 20
-150.9440826273157
 30
0.0
 10
129.7871237429944
 20
-150.9440826273157
 30
0.0
 10
130.191583454898
 20
-150.9440826273157
 30
0.0
 10
130.5216070575895
 20
-151.1345826272677
 30
0.0
 10
130.5216070575895
 20
-151.3695326272094
 30
0.0
  0
SPLINE
  5
9A
330
79
100
AcDbEntity
  8
レイヤー 1
 62
   250
420
  2299925
370
     9
100
AcDbSpline
210
0.0
220
0.0
230
1.0
 70
     8
 71
     3
 72
    11
 73
     7
 74
     0
 42
0.0000000001
 43
0.0000000001
 40
0.0
 40
0.0
 40
0.0
 40
0.0
 40
1.0
 40
1.0
 40
1.0
 40
2.0
 40
2.0
 40
2.0
 40
2.0
 10
129.1807693140193
 20
-151.6034595715952
 30
0.0
 10
129.1807693140193
 20
-151.6034595715952
 30
0.0
 10
129.160100530039
 20
-151.092566793945
 30
0.0
 10
129.9896887378265
 20
-151.1359584606013
 30
0.0
 10
129.9896887378265
 20
-151.1359584606013
 30
0.0
 10
130.4788856697905
 20
-151.1993526272517
 30
0.0
 10
130.3934428941926
 20
-151.5824340160454
 30
0.0
  0
SPLINE
  5
9B
330
79
100
AcDbEntity
  8
レイヤー 1
 62
   250
420
  2299925
370
     9
100
AcDbSpline
210
0.0
220
0.0
230
1.0
 70
     9
 71
     3
 72
    17
 73
    13
 74
     0
 42
0.0000000001
 43
0.0000000001
 40
0.0
 40
0.0
 40
0.0
 40
0.0
 40
1.0
 40
1.0
 40
1.0
 40
2.0
 40
2.0
 40
2.0
 40
3.0
 40
3.0
 40
3.0
 40
4.0
 40
4.0
 40
4.0
 40
4.0
 10
129.9807281824996
 20
-150.4241940163344
 30
0.0
 10
129.9807281824996
 20
-150.6591792940535
 30
0.0
 10
129.6520804131063
 20
-150.8500320717834
 30
0.0
 10
129.2476207012027
 20
-150.8500320717834
 30
0.0
 10
128.8417851560009
 20
-150.8500320717834
 30
0.0
 10
128.5138116413109
 20
-150.6591792940535
 30
0.0
 10
128.5138116413109
 20
-150.4241940163344
 30
0.0
 10
128.5138116413109
 20
-150.1892440163934
 30
0.0
 10
128.8417851560009
 20
-149.9990967942191
 30
0.0
 10
129.2476207012027
 20
-149.9990967942191
 30
0.0
 10
129.6520804131063
 20
-149.9990967942191
 30
0.0
 10
129.9807281824996
 20
-150.1892440163934
 30
0.0
 10
129.9807281824996
 20
-150.4241940163344
 30
0.0
  0
SPLINE
  5
9C
330
79
100
AcDbEntity
  8
レイヤー 1
 62
   250
420
  2299925
370
     9
100
AcDbSpline
210
0.0
220
0.0
230
1.0
 70
     8
 71
     3
 72
    11
 73
     7
 74
     0
 42
0.0000000001
 43
0.0000000001
 40
0.0
 40
0.0
 40
0.0
 40
0.0
 40
1.0
 40
1.0
 40
1.0
 40
2.0
 40
2.0
 40
2.0
 40
2.0
 10
128.6419718277652
 20
-150.6581209607209
 30
0.0
 10
128.6419718277652
 20
-150.6581209607209
 30
0.0
 10
128.6199232172166
 20
-150.1472281830706
 30
0.0
 10
129.4494801404973
 20
-150.190302349726
 30
0.0
 10
129.4494801404973
 20
-150.190302349726
 30
0.0
 10
129.9387123502381
 20
-150.2540140163773
 30
0.0
 10
129.8532695746402
 20
-150.6371306829479
 30
0.0
  0
SPLINE
  5
9D
330
79
100
AcDbEntity
  8
レイヤー 1
 62
   250
420
  2299925
370
     9
100
AcDbSpline
210
0.0
220
0.0
230
1.0
 70
    11
 71
     3
 72
    17
 73
    13
 74
     0
 42
0.0000000001
 43
0.0000000001
 40
0.0
 40
0.0
 40
0.0
 40
0.0
 40
1.0
 40
1.0
 40
1.0
 40
2.0
 40
2.0
 40
2.0
 40
3.0
 40
3.0
 40
3.0
 40
4.0
 40
4.0
 40
4.0
 40
4.0
 10
140.3139418077662
 20
-155.1519101262638
 30
0.0
 10
140.3139418077662
 20
-155.3868601262048
 30
0.0
 10
139.9845884828354
 20
-155.5773954039356
 30
0.0
 10
139.5794584931711
 20
-155.5773954039356
 30
0.0
 10
139.1743285035069
 20
-155.5773954039356
 30
0.0
 10
138.8463510118743
 20
-155.3868601262048
 30
0.0
 10
138.8463510118743
 20
-155.1519101262638
 30
0.0
 10
138.8463510118743
 20
-154.9169601263228
 30
0.0
 10
139.1743285035069
 20
-154.7264248485926
 30
0.0
 10
139.5794584931711
 20
-154.7264248485926
 30
0.0
 10
139.9845884828354
 20
-154.7264248485926
 30
0.0
 10
140.3139418077662
 20
-154.9169601263228
 30
0.0
 10
140.3139418077662
 20
-155.1519101262638
 30
0.0
  0
SPLINE
  5
9E
330
79
100
AcDbEntity
  8
レイヤー 1
 62
   250
420
  2299925
370
     9
100
AcDbSpline
210
0.0
220
0.0
230
1.0
 70
     8
 71
     3
 72
    11
 73
     7
 74
     0
 42
0.0000000001
 43
0.0000000001
 40
0.0
 40
0.0
 40
0.0
 40
0.0
 40
1.0
 40
1.0
 40
1.0
 40
2.0
 40
2.0
 40
2.0
 40
2.0
 10
138.9738096197336
 20
-155.3854842928719
 30
0.0
 10
138.9738096197336
 20
-155.3854842928719
 30
0.0
 10
138.9524312869457
 20
-154.8749090152218
 30
0.0
 10
139.7813532102426
 20
-154.9176304041002
 30
0.0
 10
139.7813532102426
 20
-154.9176304041002
 30
0.0
 10
140.2712204199673
 20
-154.981377348529
 30
0.0
 10
140.1864831999069
 20
-155.3641412373218
 30
0.0
  0
SPLINE
  5
9F
330
79
100
AcDbEntity
  8
レイヤー 1
 62
   250
420
  2299925
370
     9
100
AcDbSpline
210
0.0
220
0.0
230
1.0
 70
     9
 71
     3
 72
    17
 73
    13
 74
     0
 42
0.0000000001
 43
0.0000000001
 40
0.0
 40
0.0
 40
0.0
 40
0.0
 40
1.0
 40
1.0
 40
1.0
 40
2.0
 40
2.0
 40
2.0
 40
3.0
 40
3.0
 40
3.0
 40
4.0
 40
4.0
 40
4.0
 40
4.0
 10
140.3139418077662
 20
-156.4682651259349
 30
0.0
 10
140.3139418077662
 20
-156.7039206814314
 30
0.0
 10
139.9845884828354
 20
-156.8941031813839
 30
0.0
 10
139.5794584931711
 20
-156.8941031813839
 30
0.0
 10
139.1743285035069
 20
-156.8941031813839
 30
0.0
 10
138.8463510118743
 20
-156.7039206814314
 30
0.0
 10
138.8463510118743
 20
-156.4682651259349
 30
0.0
 10
138.8463510118743
 20
-156.233667903771
 30
0.0
 10
139.1743285035069
 20
-156.043167903819
 30
0.0
 10
139.5794584931711
 20
-156.043167903819
 30
0.0
 10
139.9845884828354
 20
-156.043167903819
 30
0.0
 10
140.3139418077662
 20
-156.233667903771
 30
0.0
 10
140.3139418077662
 20
-156.4682651259349
 30
0.0
  0
SPLINE
  5
A0
330
79
100
AcDbEntity
  8
レイヤー 1
 62
   250
420
  2299925
370
     9
100
AcDbSpline
210
0.0
220
0.0
230
1.0
 70
     8
 71
     3
 72
    11
 73
     7
 74
     0
 42
0.0000000001
 43
0.0000000001
 40
0.0
 40
0.0
 40
0.0
 40
0.0
 40
1.0
 40
1.0
 40
1.0
 40
2.0
 40
2.0
 40
2.0
 40
2.0
 10
138.9738096197336
 20
-156.7025448480985
 30
0.0
 10
138.9738096197336
 20
-156.7025448480985
 30
0.0
 10
138.9524312869457
 20
-156.1912992926711
 30
0.0
 10
139.7813532102426
 20
-156.2350437371045
 30
0.0
 10
139.7813532102426
 20
-156.2350437371045
 30
0.0
 10
140.2712204199673
 20
-156.2980851259772
 30
0.0
 10
140.1864831999069
 20
-156.6812017925485
 30
0.0
  0
SPLINE
  5
A1
330
79
100
AcDbEntity
  8
レイヤー 1
 62
   250
420
  2299925
370
     9
100
AcDbSpline
210
0.0
220
0.0
230
1.0
 70
    11
 71
     3
 72
    17
 73
    13
 74
     0
 42
0.0000000001
 43
0.0000000001
 40
0.0
 40
0.0
 40
0.0
 40
0.0
 40
1.0
 40
1.0
 40
1.0
 40
2.0
 40
2.0
 40
2.0
 40
3.0
 40
3.0
 40
3.0
 40
4.0
 40
4.0
 40
4.0
 40
4.0
 10
140.3139418077662
 20
-153.9361320710123
 30
0.0
 10
140.3139418077662
 20
-154.1714348487311
 30
0.0
 10
139.9845884828354
 20
-154.3616173486835
 30
0.0
 10
139.5794584931711
 20
-154.3616173486835
 30
0.0
 10
139.1743285035069
 20
-154.3616173486835
 30
0.0
 10
138.8463510118743
 20
-154.1714348487311
 30
0.0
 10
138.8463510118743
 20
-153.9361320710123
 30
0.0
 10
138.8463510118743
 20
-153.7008292932936
 30
0.0
 10
139.1743285035069
 20
-153.5106820711186
 30
0.0
 10
139.5794584931711
 20
-153.5106820711186
 30
0.0
 10
139.9845884828354
 20
-153.5106820711186
 30
0.0
 10
140.3139418077662
 20
-153.7008292932936
 30
0.0
 10
140.3139418077662
 20
-153.9361320710123
 30
0.0
  0
SPLINE
  5
A2
330
79
100
AcDbEntity
  8
レイヤー 1
 62
   250
420
  2299925
370
     9
100
AcDbSpline
210
0.0
220
0.0
230
1.0
 70
     8
 71
     3
 72
    11
 73
     7
 74
     0
 42
0.0000000001
 43
0.0000000001
 40
0.0
 40
0.0
 40
0.0
 40
0.0
 40
1.0
 40
1.0
 40
1.0
 40
2.0
 40
2.0
 40
2.0
 40
2.0
 10
138.9738096197336
 20
-154.1700590153982
 30
0.0
 10
138.9738096197336
 20
-154.1700590153982
 30
0.0
 10
138.9524312869457
 20
-153.6588134599708
 30
0.0
 10
139.7813532102426
 20
-153.7022051266264
 30
0.0
 10
139.7813532102426
 20
-153.7022051266264
 30
0.0
 10
140.2712204199673
 20
-153.7659520710553
 30
0.0
 10
140.1864831999069
 20
-154.1490334598477
 30
0.0
  0
SPLINE
  5
A3
330
79
100
AcDbEntity
  8
レイヤー 1
 62
   250
420
  2299925
370
     9
100
AcDbSpline
210
0.0
220
0.0
230
1.0
 70
     9
 71
     3
 72
    17
 73
    13
 74
     0
 42
0.0000000001
 43
0.0000000001
 40
0.0
 40
0.0
 40
0.0
 40
0.0
 40
1.0
 40
1.0
 40
1.0
 40
2.0
 40
2.0
 40
2.0
 40
3.0
 40
3.0
 40
3.0
 40
4.0
 40
4.0
 40
4.0
 40
4.0
 10
142.5250117513571
 20
-154.3247520709151
 30
0.0
 10
142.5250117513571
 20
-154.559349293079
 30
0.0
 10
142.1963639819639
 20
-154.7498845708086
 30
0.0
 10
141.7911987145227
 20
-154.7498845708086
 30
0.0
 10
141.3860687248584
 20
-154.7498845708086
 30
0.0
 10
141.0573856776883
 20
-154.559349293079
 30
0.0
 10
141.0573856776883
 20
-154.3247520709151
 30
0.0
 10
141.0573856776883
 20
-154.0894492931957
 30
0.0
 10
141.3860687248584
 20
-153.8989140154662
 30
0.0
 10
141.7911987145227
 20
-153.8989140154662
 30
0.0
 10
142.1963639819639
 20
-153.8989140154662
 30
0.0
 10
142.5250117513571
 20
-154.0894492931957
 30
0.0
 10
142.5250117513571
 20
-154.3247520709151
 30
0.0
  0
SPLINE
  5
A4
330
79
100
AcDbEntity
  8
レイヤー 1
 62
   250
420
  2299925
370
     9
100
AcDbSpline
210
0.0
220
0.0
230
1.0
 70
     8
 71
     3
 72
    11
 73
     7
 74
     0
 42
0.0000000001
 43
0.0000000001
 40
0.0
 40
0.0
 40
0.0
 40
0.0
 40
1.0
 40
1.0
 40
1.0
 40
2.0
 40
2.0
 40
2.0
 40
2.0
 10
141.1848838603659
 20
-154.5583262375233
 30
0.0
 10
141.1848838603659
 20
-154.5583262375233
 30
0.0
 10
141.1635012305366
 20
-154.0477509598732
 30
0.0
 10
141.9930977490531
 20
-154.0908251265293
 30
0.0
 10
141.9930977490531
 20
-154.0908251265293
 30
0.0
 10
142.4822903635581
 20
-154.1542192931797
 30
0.0
 10
142.3975531434978
 20
-154.5376534597512
 30
0.0
  0
SPLINE
  5
A5
330
79
100
AcDbEntity
  8
レイヤー 1
 62
   250
420
  2299925
370
     9
100
AcDbSpline
210
0.0
220
0.0
230
1.0
 70
     9
 71
     3
 72
    17
 73
    13
 74
     0
 42
0.0000000001
 43
0.0000000001
 40
0.0
 40
0.0
 40
0.0
 40
0.0
 40
1.0
 40
1.0
 40
1.0
 40
2.0
 40
2.0
 40
2.0
 40
3.0
 40
3.0
 40
3.0
 40
4.0
 40
4.0
 40
4.0
 40
4.0
 10
142.5250117513571
 20
-155.641459848364
 30
0.0
 10
142.5250117513571
 20
-155.876409848305
 30
0.0
 10
142.1963639819639
 20
-156.0669451260352
 30
0.0
 10
141.7911987145227
 20
-156.0669451260352
 30
0.0
 10
141.3860687248584
 20
-156.0669451260352
 30
0.0
 10
141.0573856776883
 20
-155.876409848305
 30
0.0
 10
141.0573856776883
 20
-155.641459848364
 30
0.0
 10
141.0573856776883
 20
-155.4068626262001
 30
0.0
 10
141.3860687248584
 20
-155.215657070692
 30
0.0
 10
141.7911987145227
 20
-155.215657070692
 30
0.0
 10
142.1963639819639
 20
-155.215657070692
 30
0.0
 10
142.5250117513571
 20
-155.4068626262001
 30
0.0
 10
142.5250117513571
 20
-155.641459848364
 30
0.0
  0
SPLINE
  5
A6
330
79
100
AcDbEntity
  8
レイヤー 1
 62
   250
420
  2299925
370
     9
100
AcDbSpline
210
0.0
220
0.0
230
1.0
 70
     8
 71
     3
 72
    11
 73
     7
 74
     0
 42
0.0000000001
 43
0.0000000001
 40
0.0
 40
0.0
 40
0.0
 40
0.0
 40
1.0
 40
1.0
 40
1.0
 40
2.0
 40
2.0
 40
2.0
 40
2.0
 10
141.1848838603659
 20
-155.8753867927492
 30
0.0
 10
141.1848838603659
 20
-155.8753867927492
 30
0.0
 10
141.1635012305366
 20
-155.3641412373218
 30
0.0
 10
141.9930977490531
 20
-155.4078856817553
 30
0.0
 10
141.9930977490531
 20
-155.4078856817553
 30
0.0
 10
142.4822903635581
 20
-155.4712798484063
 30
0.0
 10
142.3975531434978
 20
-155.8547140149772
 30
0.0
  0
SPLINE
  5
A7
330
79
100
AcDbEntity
  8
レイヤー 1
 62
   250
420
  2299925
370
     9
100
AcDbSpline
210
0.0
220
0.0
230
1.0
 70
     9
 71
     3
 72
    17
 73
    13
 74
     0
 42
0.0000000001
 43
0.0000000001
 40
0.0
 40
0.0
 40
0.0
 40
0.0
 40
1.0
 40
1.0
 40
1.0
 40
2.0
 40
2.0
 40
2.0
 40
3.0
 40
3.0
 40
3.0
 40
4.0
 40
4.0
 40
4.0
 40
4.0
 10
142.5250117513571
 20
-153.1093267934414
 30
0.0
 10
142.5250117513571
 20
-153.3435712378269
 30
0.0
 10
142.1963639819639
 20
-153.5344240155567
 30
0.0
 10
141.7911987145227
 20
-153.5344240155567
 30
0.0
 10
141.3860687248584
 20
-153.5344240155567
 30
0.0
 10
141.0573856776883
 20
-153.3435712378269
 30
0.0
 10
141.0573856776883
 20
-153.1093267934414
 30
0.0
 10
141.0573856776883
 20
-152.8746942934994
 30
0.0
 10
141.3860687248584
 20
-152.6834887379925
 30
0.0
 10
141.7911987145227
 20
-152.6834887379925
 30
0.0
 10
142.1963639819639
 20
-152.6834887379925
 30
0.0
 10
142.5250117513571
 20
-152.8746942934994
 30
0.0
 10
142.5250117513571
 20
-153.1093267934414
 30
0.0
  0
SPLINE
  5
A8
330
79
100
AcDbEntity
  8
レイヤー 1
 62
   250
420
  2299925
370
     9
100
AcDbSpline
210
0.0
220
0.0
230
1.0
 70
     8
 71
     3
 72
    11
 73
     7
 74
     0
 42
0.0000000001
 43
0.0000000001
 40
0.0
 40
0.0
 40
0.0
 40
0.0
 40
1.0
 40
1.0
 40
1.0
 40
2.0
 40
2.0
 40
2.0
 40
2.0
 10
141.1848838603659
 20
-153.3429009600496
 30
0.0
 10
141.1848838603659
 20
-153.3429009600496
 30
0.0
 10
141.1635012305366
 20
-152.8316554046215
 30
0.0
 10
141.9930977490531
 20
-152.8750470712772
 30
0.0
 10
141.9930977490531
 20
-152.8750470712772
 30
0.0
 10
142.4822903635581
 20
-152.9384412379282
 30
0.0
 10
142.3975531434978
 20
-153.3218754044991
 30
0.0
  0
SPLINE
  5
A9
330
79
100
AcDbEntity
  8
レイヤー 1
 62
   250
420
  2299925
370
     9
100
AcDbSpline
210
0.0
220
0.0
230
1.0
 70
     9
 71
     3
 72
    17
 73
    13
 74
     0
 42
0.0000000001
 43
0.0000000001
 40
0.0
 40
0.0
 40
0.0
 40
0.0
 40
1.0
 40
1.0
 40
1.0
 40
2.0
 40
2.0
 40
2.0
 40
3.0
 40
3.0
 40
3.0
 40
4.0
 40
4.0
 40
4.0
 40
4.0
 10
144.9731130777897
 20
-153.3959587378142
 30
0.0
 10
144.9731130777897
 20
-153.631261515533
 30
0.0
 10
144.6437597528589
 20
-153.8217615154851
 30
0.0
 10
144.239970318716
 20
-153.8217615154851
 30
0.0
 10
143.8341347735142
 20
-153.8217615154851
 30
0.0
 10
143.5054870041209
 20
-153.631261515533
 30
0.0
 10
143.5054870041209
 20
-153.3959587378142
 30
0.0
 10
143.5054870041209
 20
-153.1609734600951
 30
0.0
 10
143.8341347735142
 20
-152.9704734601424
 30
0.0
 10
144.239970318716
 20
-152.9704734601424
 30
0.0
 10
144.6437597528589
 20
-152.9704734601424
 30
0.0
 10
144.9731130777897
 20
-153.1609734600951
 30
0.0
 10
144.9731130777897
 20
-153.3959587378142
 30
0.0
  0
SPLINE
  5
AA
330
79
100
AcDbEntity
  8
レイヤー 1
 62
   250
420
  2299925
370
     9
100
AcDbSpline
210
0.0
220
0.0
230
1.0
 70
     8
 71
     3
 72
    11
 73
     7
 74
     0
 42
0.0000000001
 43
0.0000000001
 40
0.0
 40
0.0
 40
0.0
 40
0.0
 40
1.0
 40
1.0
 40
1.0
 40
2.0
 40
2.0
 40
2.0
 40
2.0
 10
143.6329456119803
 20
-153.6298856821995
 30
0.0
 10
143.6329456119803
 20
-153.6298856821995
 30
0.0
 10
143.6116025569692
 20
-153.1186048489945
 30
0.0
 10
144.4411594802499
 20
-153.1620317934277
 30
0.0
 10
144.4411594802499
 20
-153.1620317934277
 30
0.0
 10
144.9303916899908
 20
-153.2254259600787
 30
0.0
 10
144.8449533038953
 20
-153.6085073488719
 30
0.0
  0
SPLINE
  5
AB
330
79
100
AcDbEntity
  8
レイヤー 1
 62
   250
420
  2299925
370
     9
100
AcDbSpline
210
0.0
220
0.0
230
1.0
 70
    11
 71
     3
 72
    17
 73
    13
 74
     0
 42
0.0000000001
 43
0.0000000001
 40
0.0
 40
0.0
 40
0.0
 40
0.0
 40
1.0
 40
1.0
 40
1.0
 40
2.0
 40
2.0
 40
2.0
 40
3.0
 40
3.0
 40
3.0
 40
4.0
 40
4.0
 40
4.0
 40
4.0
 10
144.9731130777897
 20
-154.7130192930402
 30
0.0
 10
144.9731130777897
 20
-154.948322070759
 30
0.0
 10
144.6437597528589
 20
-155.1384692929339
 30
0.0
 10
144.239970318716
 20
-155.1384692929339
 30
0.0
 10
143.8341347735142
 20
-155.1384692929339
 30
0.0
 10
143.5054870041209
 20
-154.948322070759
 30
0.0
 10
143.5054870041209
 20
-154.7130192930402
 30
0.0
 10
143.5054870041209
 20
-154.4777165153214
 30
0.0
 10
143.8341347735142
 20
-154.2875340153684
 30
0.0
 10
144.239970318716
 20
-154.2875340153684
 30
0.0
 10
144.6437597528589
 20
-154.2875340153684
 30
0.0
 10
144.9731130777897
 20
-154.4777165153214
 30
0.0
 10
144.9731130777897
 20
-154.7130192930402
 30
0.0
  0
SPLINE
  5
AC
330
79
100
AcDbEntity
  8
レイヤー 1
 62
   250
420
  2299925
370
     9
100
AcDbSpline
210
0.0
220
0.0
230
1.0
 70
     8
 71
     3
 72
    11
 73
     7
 74
     0
 42
0.0000000001
 43
0.0000000001
 40
0.0
 40
0.0
 40
0.0
 40
0.0
 40
1.0
 40
1.0
 40
1.0
 40
2.0
 40
2.0
 40
2.0
 40
2.0
 10
143.6329456119803
 20
-154.9469109596486
 30
0.0
 10
143.6329456119803
 20
-154.9469109596486
 30
0.0
 10
143.6116025569692
 20
-154.4356654042205
 30
0.0
 10
144.4411594802499
 20
-154.4787395708766
 30
0.0
 10
144.4411594802499
 20
-154.4787395708766
 30
0.0
 10
144.9303916899908
 20
-154.5424865153054
 30
0.0
 10
144.8449533038953
 20
-154.9255679040979
 30
0.0
  0
SPLINE
  5
AD
330
79
100
AcDbEntity
  8
レイヤー 1
 62
   250
420
  2299925
370
     9
100
AcDbSpline
210
0.0
220
0.0
230
1.0
 70
     9
 71
     3
 72
    17
 73
    13
 74
     0
 42
0.0000000001
 43
0.0000000001
 40
0.0
 40
0.0
 40
0.0
 40
0.0
 40
1.0
 40
1.0
 40
1.0
 40
2.0
 40
2.0
 40
2.0
 40
3.0
 40
3.0
 40
3.0
 40
4.0
 40
4.0
 40
4.0
 40
4.0
 10
144.9731130777897
 20
-152.1805334603399
 30
0.0
 10
144.9731130777897
 20
-152.4151306825038
 30
0.0
 10
144.6437597528589
 20
-152.6056306824558
 30
0.0
 10
144.239970318716
 20
-152.6056306824558
 30
0.0
 10
143.8341347735142
 20
-152.6056306824558
 30
0.0
 10
143.5054870041209
 20
-152.4151306825038
 30
0.0
 10
143.5054870041209
 20
-152.1805334603399
 30
0.0
 10
143.5054870041209
 20
-151.9455481826207
 30
0.0
 10
143.8341347735142
 20
-151.7550481826687
 30
0.0
 10
144.239970318716
 20
-151.7550481826687
 30
0.0
 10
144.6437597528589
 20
-151.7550481826687
 30
0.0
 10
144.9731130777897
 20
-151.9455481826207
 30
0.0
 10
144.9731130777897
 20
-152.1805334603399
 30
0.0
  0
SPLINE
  5
AE
330
79
100
AcDbEntity
  8
レイヤー 1
 62
   250
420
  2299925
370
     9
100
AcDbSpline
210
0.0
220
0.0
230
1.0
 70
     8
 71
     3
 72
    11
 73
     7
 74
     0
 42
0.0000000001
 43
0.0000000001
 40
0.0
 40
0.0
 40
0.0
 40
0.0
 40
1.0
 40
1.0
 40
1.0
 40
2.0
 40
2.0
 40
2.0
 40
2.0
 10
143.6329456119803
 20
-152.4144251269482
 30
0.0
 10
143.6329456119803
 20
-152.4144251269482
 30
0.0
 10
143.6116025569692
 20
-151.9035323492979
 30
0.0
 10
144.4411594802499
 20
-151.946606515954
 30
0.0
 10
144.4411594802499
 20
-151.946606515954
 30
0.0
 10
144.9303916899908
 20
-152.010000682605
 30
0.0
 10
144.8449533038953
 20
-152.3934348491753
 30
0.0
  0
SPLINE
  5
AF
330
79
100
AcDbEntity
  8
レイヤー 1
 62
   250
420
  2299925
370
     9
100
AcDbSpline
210
0.0
220
0.0
230
1.0
 70
    11
 71
     3
 72
    17
 73
    13
 74
     0
 42
0.0000000001
 43
0.0000000001
 40
0.0
 40
0.0
 40
0.0
 40
0.0
 40
1.0
 40
1.0
 40
1.0
 40
2.0
 40
2.0
 40
2.0
 40
3.0
 40
3.0
 40
3.0
 40
4.0
 40
4.0
 40
4.0
 40
4.0
 10
147.3371121841458
 20
-153.9361320710123
 30
0.0
 10
147.3371121841458
 20
-154.1714348487311
 30
0.0
 10
147.0070885814543
 20
-154.3616173486835
 30
0.0
 10
146.6032991473114
 20
-154.3616173486835
 30
0.0
 10
146.1975033035568
 20
-154.3616173486835
 30
0.0
 10
145.8695213882538
 20
-154.1714348487311
 30
0.0
 10
145.8695213882538
 20
-153.9361320710123
 30
0.0
 10
145.8695213882538
 20
-153.7008292932936
 30
0.0
 10
146.1975033035568
 20
-153.5106820711186
 30
0.0
 10
146.6032991473114
 20
-153.5106820711186
 30
0.0
 10
147.0070885814543
 20
-153.5106820711186
 30
0.0
 10
147.3371121841458
 20
-153.7008292932936
 30
0.0
 10
147.3371121841458
 20
-153.9361320710123
 30
0.0
  0
SPLINE
  5
B0
330
79
100
AcDbEntity
  8
レイヤー 1
 62
   250
420
  2299925
370
     9
100
AcDbSpline
210
0.0
220
0.0
230
1.0
 70
     8
 71
     3
 72
    11
 73
     7
 74
     0
 42
0.0000000001
 43
0.0000000001
 40
0.0
 40
0.0
 40
0.0
 40
0.0
 40
1.0
 40
1.0
 40
1.0
 40
2.0
 40
2.0
 40
2.0
 40
2.0
 10
145.9969799961132
 20
-154.1700590153982
 30
0.0
 10
145.9969799961132
 20
-154.1700590153982
 30
0.0
 10
145.9756060813898
 20
-153.6588134599708
 30
0.0
 10
146.8051938643828
 20
-153.7022051266264
 30
0.0
 10
146.8051938643828
 20
-153.7022051266264
 30
0.0
 10
147.2943907963468
 20
-153.7659520710553
 30
0.0
 10
147.2089480207489
 20
-154.1490334598477
 30
0.0
  0
SPLINE
  5
B1
330
79
100
AcDbEntity
  8
レイヤー 1
 62
   250
420
  2299925
370
     9
100
AcDbSpline
210
0.0
220
0.0
230
1.0
 70
     9
 71
     3
 72
    17
 73
    13
 74
     0
 42
0.0000000001
 43
0.0000000001
 40
0.0
 40
0.0
 40
0.0
 40
0.0
 40
1.0
 40
1.0
 40
1.0
 40
2.0
 40
2.0
 40
2.0
 40
3.0
 40
3.0
 40
3.0
 40
4.0
 40
4.0
 40
4.0
 40
4.0
 10
147.3371121841458
 20
-152.720706793538
 30
0.0
 10
147.3371121841458
 20
-152.9553040157018
 30
0.0
 10
147.0070885814543
 20
-153.1461920712098
 30
0.0
 10
146.6032991473114
 20
-153.1461920712098
 30
0.0
 10
146.1975033035568
 20
-153.1461920712098
 30
0.0
 10
145.8695213882538
 20
-152.9553040157018
 30
0.0
 10
145.8695213882538
 20
-152.720706793538
 30
0.0
 10
145.8695213882538
 20
-152.485756793597
 30
0.0
 10
146.1975033035568
 20
-152.2952215158668
 30
0.0
 10
146.6032991473114
 20
-152.2952215158668
 30
0.0
 10
147.0070885814543
 20
-152.2952215158668
 30
0.0
 10
147.3371121841458
 20
-152.485756793597
 30
0.0
 10
147.3371121841458
 20
-152.720706793538
 30
0.0
  0
SPLINE
  5
B2
330
79
100
AcDbEntity
  8
レイヤー 1
 62
   250
420
  2299925
370
     9
100
AcDbSpline
210
0.0
220
0.0
230
1.0
 70
     8
 71
     3
 72
    11
 73
     7
 74
     0
 42
0.0000000001
 43
0.0000000001
 40
0.0
 40
0.0
 40
0.0
 40
0.0
 40
1.0
 40
1.0
 40
1.0
 40
2.0
 40
2.0
 40
2.0
 40
2.0
 10
145.9969799961132
 20
-152.9546337379245
 30
0.0
 10
145.9969799961132
 20
-152.9546337379245
 30
0.0
 10
145.9756060813898
 20
-152.4437056824966
 30
0.0
 10
146.8051938643828
 20
-152.4867798491527
 30
0.0
 10
146.8051938643828
 20
-152.4867798491527
 30
0.0
 10
147.2943907963468
 20
-152.5501740158031
 30
0.0
 10
147.2089480207489
 20
-152.9329379045966
 30
0.0
  0
ENDBLK
  5
7C
330
79
100
AcDbEntity
  8
0
100
AcDbBlockEnd
  0
BLOCK
  5
120
330
11E
100
AcDbEntity
  8
0
100
AcDbBlockBegin
  2
Block_1
 70
     0
 10
0.0
 20
0.0
 30
0.0
  3
Block_1
  1

  0
INSERT
  5
123
330
11E
100
AcDbEntity
  8
レイヤー 1
100
AcDbBlockReference
  2
Block_2
 10
0.0
 20
0.0
 30
0.0
  0
ENDBLK
  5
121
330
11E
100
AcDbEntity
  8
0
100
AcDbBlockEnd
  0
BLOCK
  5
124
330
122
100
AcDbEntity
  8
0
100
AcDbBlockBegin
  2
Block_2
 70
     0
 10
0.0
 20
0.0
 30
0.0
  3
Block_2
  1

  0
SPLINE
  5
126
330
122
100
AcDbEntity
  8
レイヤー 1
100
AcDbSpline
210
0.0
220
0.0
230
1.0
 70
     9
 71
     3
 72
    17
 73
    13
 74
     0
 42
0.0000000001
 43
0.0000000001
 40
0.0
 40
0.0
 40
0.0
 40
0.0
 40
1.0
 40
1.0
 40
1.0
 40
2.0
 40
2.0
 40
2.0
 40
3.0
 40
3.0
 40
3.0
 40
4.0
 40
4.0
 40
4.0
 40
4.0
 10
60.54910344623426
 20
-146.812227339599
 30
0.0
 10
60.54910344623426
 20
-147.0619967622796
 30
0.0
 10
60.83246254989606
 20
-147.1085055513305
 30
0.0
 10
61.17731660796956
 20
-147.1085055513305
 30
0.0
 10
61.49684921422648
 20
-147.1085055513305
 30
0.0
 10
61.80570202447913
 20
-147.0723320487354
 30
0.0
 10
61.80570202447913
 20
-146.812227339599
 30
0.0
 10
61.80570202447913
 20
-146.5645249742095
 30
0.0
 10
61.52423772333422
 20
-146.5159491278675
 30
0.0
 10
61.17731660796956
 20
-146.5159491278675
 30
0.0
 10
60.8579562564869
 20
-146.5159491278675
 30
0.0
 10
60.54910344623426
 20
-146.5541896877538
 30
0.0
 10
60.54910344623426
 20
-146.812227339599
 30
0.0
  0
SPLINE
  5
127
330
122
100
AcDbEntity
  8
レイヤー 1
100
AcDbSpline
210
0.0
220
0.0
230
1.0
 70
     9
 71
     3
 72
    29
 73
    25
 74
     0
 42
0.0000000001
 43
0.0000000001
 40
0.0
 40
0.0
 40
0.0
 40
0.0
 40
1.0
 40
1.0
 40
1.0
 40
2.0
 40
2.0
 40
2.0
 40
3.0
 40
3.0
 40
3.0
 40
4.0
 40
4.0
 40
4.0
 40
5.0
 40
5.0
 40
5.0
 40
6.0
 40
6.0
 40
6.0
 40
7.0
 40
7.0
 40
7.0
 40
8.0
 40
8.0
 40
8.0
 40
8.0
 10
61.77176783394942
 20
-146.4143188110527
 30
0.0
 10
61.98122963945261
 20
-146.5224948092895
 30
0.0
 10
62.00034991939574
 20
-146.6957831121976
 30
0.0
 10
62.00034991939574
 20
-146.812227339599
 30
0.0
 10
62.00034991939574
 20
-146.9731132987602
 30
0.0
 10
61.95384113034488
 20
-147.1147067232039
 30
0.0
 10
61.77176783394942
 20
-147.2097913585969
 30
0.0
 10
61.57729219380707
 20
-147.3134887327029
 30
0.0
 10
61.34026962442188
 20
-147.3327812674202
 30
0.0
 10
61.17731660796956
 20
-147.3327812674202
 30
0.0
 10
61.03348387146038
 20
-147.3327812674202
 30
0.0
 10
60.78181964626288
 20
-147.315555789994
 30
0.0
 10
60.5828653819897
 20
-147.2097913585969
 30
0.0
 10
60.37977700313422
 20
-147.1019598699085
 30
0.0
 10
60.35652260860879
 20
-146.9410739107473
 30
0.0
 10
60.35652260860879
 20
-146.812227339599
 30
0.0
 10
60.35652260860879
 20
-146.653408437729
 30
0.0
 10
60.40096434036851
 20
-146.5097479559941
 30
0.0
 10
60.5828653819897
 20
-146.4143188110527
 30
0.0
 10
60.77544621961517
 20
-146.3151000610775
 30
0.0
 10
61.00385605028723
 20
-146.2916734117778
 30
0.0
 10
61.17731660796956
 20
-146.2916734117778
 30
0.0
 10
61.34871010836074
 20
-146.2916734117778
 30
0.0
 10
61.57935925109821
 20
-146.3130330037863
 30
0.0
 10
61.77176783394942
 20
-146.4143188110527
 30
0.0
  0
HATCH
  5
128
330
122
100
AcDbEntity
  8
レイヤー 1
 62
   250
420
  2299925
440
 33554687
100
AcDbHatch
 10
0.0
 20
0.0
 30
0.0
210
0.0
220
0.0
230
1.0
  2
SOLID
 70
     1
 71
     1
 91
        2
 92
        1
 93
        1
 72
     4
 94
        3
 73
     0
 74
     0
 95
       17
 96
       13
 40
0.0
 40
0.0
 40
0.0
 40
0.0
 40
1.0
 40
1.0
 40
1.0
 40
2.0
 40
2.0
 40
2.0
 40
3.0
 40
3.0
 40
3.0
 40
4.0
 40
4.0
 40
4.0
 40
4.0
 10
60.54910344623426
 20
-146.812227339599
 10
60.54910344623426
 20
-147.0619967622796
 10
60.83246254989606
 20
-147.1085055513305
 10
61.17731660796956
 20
-147.1085055513305
 10
61.49684921422648
 20
-147.1085055513305
 10
61.80570202447913
 20
-147.0723320487354
 10
61.80570202447913
 20
-146.812227339599
 10
61.80570202447913
 20
-146.5645249742095
 10
61.52423772333422
 20
-146.5159491278675
 10
61.17731660796956
 20
-146.5159491278675
 10
60.8579562564869
 20
-146.5159491278675
 10
60.54910344623426
 20
-146.5541896877538
 10
60.54910344623426
 20
-146.812227339599
 97
        0
 97
        1
330
126
 92
        1
 93
        1
 72
     4
 94
        3
 73
     0
 74
     0
 95
       29
 96
       25
 40
0.0
 40
0.0
 40
0.0
 40
0.0
 40
1.0
 40
1.0
 40
1.0
 40
2.0
 40
2.0
 40
2.0
 40
3.0
 40
3.0
 40
3.0
 40
4.0
 40
4.0
 40
4.0
 40
5.0
 40
5.0
 40
5.0
 40
6.0
 40
6.0
 40
6.0
 40
7.0
 40
7.0
 40
7.0
 40
8.0
 40
8.0
 40
8.0
 40
8.0
 10
61.77176783394942
 20
-146.4143188110527
 10
61.98122963945261
 20
-146.5224948092895
 10
62.00034991939574
 20
-146.6957831121976
 10
62.00034991939574
 20
-146.812227339599
 10
62.00034991939574
 20
-146.9731132987602
 10
61.95384113034488
 20
-147.1147067232039
 10
61.77176783394942
 20
-147.2097913585969
 10
61.57729219380707
 20
-147.3134887327029
 10
61.34026962442188
 20
-147.3327812674202
 10
61.17731660796956
 20
-147.3327812674202
 10
61.03348387146038
 20
-147.3327812674202
 10
60.78181964626288
 20
-147.315555789994
 10
60.5828653819897
 20
-147.2097913585969
 10
60.37977700313422
 20
-147.1019598699085
 10
60.35652260860879
 20
-146.9410739107473
 10
60.35652260860879
 20
-146.812227339599
 10
60.35652260860879
 20
-146.653408437729
 10
60.40096434036851
 20
-146.5097479559941
 10
60.5828653819897
 20
-146.4143188110527
 10
60.77544621961517
 20
-146.3151000610775
 10
61.00385605028723
 20
-146.2916734117778
 10
61.17731660796956
 20
-146.2916734117778
 10
61.34871010836074
 20
-146.2916734117778
 10
61.57935925109821
 20
-146.3130330037863
 10
61.77176783394942
 20
-146.4143188110527
 97
        0
 97
        1
330
127
 75
     2
 76
     1
 98
        1
 10
0.0
 20
0.0
450
        0
451
        0
460
0.0
461
0.0
452
        0
462
0.0
453
        0
470

  0
SPLINE
  5
129
330
122
100
AcDbEntity
  8
レイヤー 1
100
AcDbSpline
210
0.0
220
0.0
230
1.0
 70
    11
 71
     3
 72
    17
 73
    13
 74
     0
 42
0.0000000001
 43
0.0000000001
 40
0.0
 40
0.0
 40
0.0
 40
0.0
 40
1.0
 40
1.0
 40
1.0
 40
2.0
 40
2.0
 40
2.0
 40
3.0
 40
3.0
 40
3.0
 40
4.0
 40
4.0
 40
4.0
 40
4.0
 10
61.94953476098831
 20
-146.0753214153041
 30
0.0
 10
61.94953476098831
 20
-146.0753214153041
 30
0.0
 10
61.69787053579081
 20
-146.0753214153041
 30
0.0
 10
61.69787053579081
 20
-146.0753214153041
 30
0.0
 10
61.69787053579081
 20
-146.0753214153041
 30
0.0
 10
61.69787053579081
 20
-145.8234849353323
 30
0.0
 10
61.69787053579081
 20
-145.8234849353323
 30
0.0
 10
61.69787053579081
 20
-145.8234849353323
 30
0.0
 10
61.94953476098831
 20
-145.8234849353323
 30
0.0
 10
61.94953476098831
 20
-145.8234849353323
 30
0.0
 10
61.94953476098831
 20
-145.8234849353323
 30
0.0
 10
61.94953476098831
 20
-146.0753214153041
 30
0.0
 10
61.94953476098831
 20
-146.0753214153041
 30
0.0
  0
HATCH
  5
12A
330
122
100
AcDbEntity
  8
レイヤー 1
 62
   250
420
  2299925
440
 33554687
100
AcDbHatch
 10
0.0
 20
0.0
 30
0.0
210
0.0
220
0.0
230
1.0
  2
SOLID
 70
     1
 71
     1
 91
        1
 92
        1
 93
        1
 72
     4
 94
        3
 73
     0
 74
     0
 95
       17
 96
       13
 40
0.0
 40
0.0
 40
0.0
 40
0.0
 40
1.0
 40
1.0
 40
1.0
 40
2.0
 40
2.0
 40
2.0
 40
3.0
 40
3.0
 40
3.0
 40
4.0
 40
4.0
 40
4.0
 40
4.0
 10
61.94953476098831
 20
-146.0753214153041
 10
61.94953476098831
 20
-146.0753214153041
 10
61.69787053579081
 20
-146.0753214153041
 10
61.69787053579081
 20
-146.0753214153041
 10
61.69787053579081
 20
-146.0753214153041
 10
61.69787053579081
 20
-145.8234849353323
 10
61.69787053579081
 20
-145.8234849353323
 10
61.69787053579081
 20
-145.8234849353323
 10
61.94953476098831
 20
-145.8234849353323
 10
61.94953476098831
 20
-145.8234849353323
 10
61.94953476098831
 20
-145.8234849353323
 10
61.94953476098831
 20
-146.0753214153041
 10
61.94953476098831
 20
-146.0753214153041
 97
        0
 97
        1
330
129
 75
     2
 76
     1
 98
        1
 10
0.0
 20
0.0
450
        0
451
        0
460
0.0
461
0.0
452
        0
462
0.0
453
        0
470

  0
SPLINE
  5
12B
330
122
100
AcDbEntity
  8
レイヤー 1
100
AcDbSpline
210
0.0
220
0.0
230
1.0
 70
     9
 71
     3
 72
    53
 73
    49
 74
     0
 42
0.0000000001
 43
0.0000000001
 40
0.0
 40
0.0
 40
0.0
 40
0.0
 40
1.0
 40
1.0
 40
1.0
 40
2.0
 40
2.0
 40
2.0
 40
3.0
 40
3.0
 40
3.0
 40
4.0
 40
4.0
 40
4.0
 40
5.0
 40
5.0
 40
5.0
 40
6.0
 40
6.0
 40
6.0
 40
7.0
 40
7.0
 40
7.0
 40
8.0
 40
8.0
 40
8.0
 40
9.0
 40
9.0
 40
9.0
 40
10.0
 40
10.0
 40
10.0
 40
11.0
 40
11.0
 40
11.0
 40
12.0
 40
12.0
 40
12.0
 40
13.0
 40
13.0
 40
13.0
 40
14.0
 40
14.0
 40
14.0
 40
15.0
 40
15.0
 40
15.0
 40
16.0
 40
16.0
 40
16.0
 40
16.0
 10
62.00034991939574
 20
-145.1062160553033
 30
0.0
 10
62.00034991939574
 20
-145.1844197228185
 30
0.0
 10
61.98346895151803
 20
-145.2860500396333
 30
0.0
 10
61.91990693981516
 20
-145.3876803564482
 30
0.0
 10
61.80983613906143
 20
-145.5609686593563
 30
0.0
 10
61.67875025584767
 20
-145.5823282513648
 30
0.0
 10
61.57091876715935
 20
-145.6012762765337
 30
0.0
 10
61.57091876715935
 20
-145.6012762765337
 30
0.0
 10
61.57091876715935
 20
-145.3790676177351
 30
0.0
 10
61.57091876715935
 20
-145.3790676177351
 30
0.0
 10
61.76970077665827
 20
-145.3242905995196
 30
0.0
 10
61.79932859783142
 20
-145.1971665761139
 30
0.0
 10
61.79932859783142
 20
-145.1041489980121
 30
0.0
 10
61.79932859783142
 20
-144.9646226308595
 30
0.0
 10
61.69993759308196
 20
-144.8123494104115
 30
0.0
 10
61.46722139305333
 20
-144.8123494104115
 30
0.0
 10
61.21125079849927
 20
-144.8123494104115
 30
0.0
 10
61.14148761492296
 20
-144.9921833947415
 30
0.0
 10
61.14148761492296
 20
-145.1127617367252
 30
0.0
 10
61.14148761492296
 20
-145.1444566151896
 30
0.0
 10
61.14148761492296
 20
-145.2860500396333
 30
0.0
 10
61.27050644084557
 20
-145.3749335031528
 30
0.0
 10
61.27050644084557
 20
-145.3749335031528
 30
0.0
 10
61.25138616090243
 20
-145.5506333729005
 30
0.0
 10
61.25138616090243
 20
-145.5506333729005
 30
0.0
 10
61.25138616090243
 20
-145.5506333729005
 30
0.0
 10
60.40527070972507
 20
-145.4300550309168
 30
0.0
 10
60.40527070972507
 20
-145.4300550309168
 30
0.0
 10
60.40527070972507
 20
-145.4300550309168
 30
0.0
 10
60.40527070972507
 20
-144.6514634512503
 30
0.0
 10
60.40527070972507
 20
-144.6514634512503
 30
0.0
 10
60.40527070972507
 20
-144.6514634512503
 30
0.0
 10
60.59991860464169
 20
-144.6514634512503
 30
0.0
 10
60.59991860464169
 20
-144.6514634512503
 30
0.0
 10
60.59991860464169
 20
-144.6514634512503
 30
0.0
 10
60.59991860464169
 20
-145.2671020144645
 30
0.0
 10
60.59991860464169
 20
-145.2671020144645
 30
0.0
 10
60.59991860464169
 20
-145.2671020144645
 30
0.0
 10
61.02297633023037
 20
-145.3325588286842
 30
0.0
 10
61.02297633023037
 20
-145.3325588286842
 30
0.0
 10
60.98904213970065
 20
-145.2712361290467
 30
0.0
 10
60.9489067772975
 20
-145.1888983469493
 30
0.0
 10
60.9489067772975
 20
-145.0703870622567
 30
0.0
 10
60.9489067772975
 20
-144.8164835249938
 30
0.0
 10
61.13511418827525
 20
-144.5794609556086
 30
0.0
 10
61.4481011131102
 20
-144.5794609556086
 30
0.0
 10
61.76556666207597
 20
-144.5794609556086
 30
0.0
 10
62.00034991939574
 20
-144.8037366716983
 30
0.0
 10
62.00034991939574
 20
-145.1062160553033
 30
0.0
  0
HATCH
  5
12C
330
122
100
AcDbEntity
  8
レイヤー 1
 62
   250
420
  2299925
440
 33554687
100
AcDbHatch
 10
0.0
 20
0.0
 30
0.0
210
0.0
220
0.0
230
1.0
  2
SOLID
 70
     1
 71
     1
 91
        1
 92
        1
 93
        1
 72
     4
 94
        3
 73
     0
 74
     0
 95
       53
 96
       49
 40
0.0
 40
0.0
 40
0.0
 40
0.0
 40
1.0
 40
1.0
 40
1.0
 40
2.0
 40
2.0
 40
2.0
 40
3.0
 40
3.0
 40
3.0
 40
4.0
 40
4.0
 40
4.0
 40
5.0
 40
5.0
 40
5.0
 40
6.0
 40
6.0
 40
6.0
 40
7.0
 40
7.0
 40
7.0
 40
8.0
 40
8.0
 40
8.0
 40
9.0
 40
9.0
 40
9.0
 40
10.0
 40
10.0
 40
10.0
 40
11.0
 40
11.0
 40
11.0
 40
12.0
 40
12.0
 40
12.0
 40
13.0
 40
13.0
 40
13.0
 40
14.0
 40
14.0
 40
14.0
 40
15.0
 40
15.0
 40
15.0
 40
16.0
 40
16.0
 40
16.0
 40
16.0
 10
62.00034991939574
 20
-145.1062160553033
 10
62.00034991939574
 20
-145.1844197228185
 10
61.98346895151803
 20
-145.2860500396333
 10
61.91990693981516
 20
-145.3876803564482
 10
61.80983613906143
 20
-145.5609686593563
 10
61.67875025584767
 20
-145.5823282513648
 10
61.57091876715935
 20
-145.6012762765337
 10
61.57091876715935
 20
-145.6012762765337
 10
61.57091876715935
 20
-145.3790676177351
 10
61.57091876715935
 20
-145.3790676177351
 10
61.76970077665827
 20
-145.3242905995196
 10
61.79932859783142
 20
-145.1971665761139
 10
61.79932859783142
 20
-145.1041489980121
 10
61.79932859783142
 20
-144.9646226308595
 10
61.69993759308196
 20
-144.8123494104115
 10
61.46722139305333
 20
-144.8123494104115
 10
61.21125079849927
 20
-144.8123494104115
 10
61.14148761492296
 20
-144.9921833947415
 10
61.14148761492296
 20
-145.1127617367252
 10
61.14148761492296
 20
-145.1444566151896
 10
61.14148761492296
 20
-145.2860500396333
 10
61.27050644084557
 20
-145.3749335031528
 10
61.27050644084557
 20
-145.3749335031528
 10
61.25138616090243
 20
-145.5506333729005
 10
61.25138616090243
 20
-145.5506333729005
 10
61.25138616090243
 20
-145.5506333729005
 10
60.40527070972507
 20
-145.4300550309168
 10
60.40527070972507
 20
-145.4300550309168
 10
60.40527070972507
 20
-145.4300550309168
 10
60.40527070972507
 20
-144.6514634512503
 10
60.40527070972507
 20
-144.6514634512503
 10
60.40527070972507
 20
-144.6514634512503
 10
60.59991860464169
 20
-144.6514634512503
 10
60.59991860464169
 20
-144.6514634512503
 10
60.59991860464169
 20
-144.6514634512503
 10
60.59991860464169
 20
-145.2671020144645
 10
60.59991860464169
 20
-145.2671020144645
 10
60.59991860464169
 20
-145.2671020144645
 10
61.02297633023037
 20
-145.3325588286842
 10
61.02297633023037
 20
-145.3325588286842
 10
60.98904213970065
 20
-145.2712361290467
 10
60.9489067772975
 20
-145.1888983469493
 10
60.9489067772975
 20
-145.0703870622567
 10
60.9489067772975
 20
-144.8164835249938
 10
61.13511418827525
 20
-144.5794609556086
 10
61.4481011131102
 20
-144.5794609556086
 10
61.76556666207597
 20
-144.5794609556086
 10
62.00034991939574
 20
-144.8037366716983
 10
62.00034991939574
 20
-145.1062160553033
 97
        0
 97
        1
330
12B
 75
     2
 76
     1
 98
        1
 10
0.0
 20
0.0
450
        0
451
        0
460
0.0
461
0.0
452
        0
462
0.0
453
        0
470

  0
ENDBLK
  5
125
330
122
100
AcDbEntity
  8
0
100
AcDbBlockEnd
  0
BLOCK
  5
131
330
12F
100
AcDbEntity
  8
0
100
AcDbBlockBegin
  2
Block_3
 70
     0
 10
0.0
 20
0.0
 30
0.0
  3
Block_3
  1

  0
INSERT
  5
134
330
12F
100
AcDbEntity
  8
レイヤー 1
100
AcDbBlockReference
  2
Block_4
 10
0.0
 20
0.0
 30
0.0
  0
ENDBLK
  5
132
330
12F
100
AcDbEntity
  8
0
100
AcDbBlockEnd
  0
BLOCK
  5
135
330
133
100
AcDbEntity
  8
0
100
AcDbBlockBegin
  2
Block_4
 70
     0
 10
0.0
 20
0.0
 30
0.0
  3
Block_4
  1

  0
SPLINE
  5
137
330
133
100
AcDbEntity
  8
レイヤー 1
100
AcDbSpline
210
0.0
220
0.0
230
1.0
 70
     9
 71
     3
 72
    44
 73
    40
 74
     0
 42
0.0000000001
 43
0.0000000001
 40
0.0
 40
0.0
 40
0.0
 40
0.0
 40
1.0
 40
1.0
 40
1.0
 40
2.0
 40
2.0
 40
2.0
 40
3.0
 40
3.0
 40
3.0
 40
4.0
 40
4.0
 40
4.0
 40
5.0
 40
5.0
 40
5.0
 40
6.0
 40
6.0
 40
6.0
 40
7.0
 40
7.0
 40
7.0
 40
8.0
 40
8.0
 40
8.0
 40
9.0
 40
9.0
 40
9.0
 40
10.0
 40
10.0
 40
10.0
 40
11.0
 40
11.0
 40
11.0
 40
12.0
 40
12.0
 40
12.0
 40
13.0
 40
13.0
 40
13.0
 40
13.0
 10
77.32275659959292
 20
-139.5999199412285
 30
0.0
 10
77.10485431015086
 20
-139.7585665883242
 30
0.0
 10
77.01166447727486
 20
-139.8326361412571
 30
0.0
 10
76.96308863093284
 20
-139.9764688777663
 30
0.0
 10
76.96308863093284
 20
-139.9764688777663
 30
0.0
 10
77.74150795582504
 20
-139.9764688777663
 30
0.0
 10
77.74150795582504
 20
-139.9764688777663
 30
0.0
 10
77.74150795582504
 20
-139.9764688777663
 30
0.0
 10
77.74150795582504
 20
-140.1816243139129
 30
0.0
 10
77.74150795582504
 20
-140.1816243139129
 30
0.0
 10
77.74150795582504
 20
-140.1816243139129
 30
0.0
 10
76.71349146302649
 20
-140.1816243139129
 30
0.0
 10
76.71349146302649
 20
-140.1816243139129
 30
0.0
 10
76.74518634149079
 20
-139.824023402544
 30
0.0
 10
76.81064315571053
 20
-139.7458197350288
 30
0.0
 10
77.19580483096146
 20
-139.4474744660062
 30
0.0
 10
77.45177542551553
 20
-139.2486924565073
 30
0.0
 10
77.51723223973527
 20
-139.1809963302221
 30
0.0
 10
77.51723223973527
 20
-139.0435370203606
 30
0.0
 10
77.51723223973527
 20
-138.925025735668
 30
0.0
 10
77.44540199886782
 20
-138.79376759768
 30
0.0
 10
77.24868704666005
 20
-138.79376759768
 30
0.0
 10
76.98841008274943
 20
-138.79376759768
 30
0.0
 10
76.97996959881057
 20
-139.0244167404175
 30
0.0
 10
76.975663229454
 20
-139.1408609678189
 30
0.0
 10
76.975663229454
 20
-139.1408609678189
 30
0.0
 10
76.75155976813851
 20
-139.1408609678189
 30
0.0
 10
76.75155976813851
 20
-139.1408609678189
 30
0.0
 10
76.76000025207736
 20
-139.0139091991875
 30
0.0
 10
76.77050779330738
 20
-138.9017713411426
 30
0.0
 10
76.85095077288796
 20
-138.78326005645
 30
0.0
 10
76.96084931886743
 20
-138.6225463520631
 30
0.0
 10
77.14705672984519
 20
-138.5886121615334
 30
0.0
 10
77.26350095724663
 20
-138.5886121615334
 30
0.0
 10
77.54065888903497
 20
-138.5886121615334
 30
0.0
 10
77.74788138247275
 20
-138.77275251522
 30
0.0
 10
77.74788138247275
 20
-139.0456040776518
 30
0.0
 10
77.74788138247275
 20
-139.2740139083239
 30
0.0
 10
77.63160940984557
 20
-139.3735771678475
 30
0.0
 10
77.32275659959292
 20
-139.5999199412285
 30
0.0
  0
HATCH
  5
138
330
133
100
AcDbEntity
  8
レイヤー 1
 62
   250
420
  2299925
440
 33554687
100
AcDbHatch
 10
0.0
 20
0.0
 30
0.0
210
0.0
220
0.0
230
1.0
  2
SOLID
 70
     1
 71
     1
 91
        1
 92
        1
 93
        1
 72
     4
 94
        3
 73
     0
 74
     0
 95
       44
 96
       40
 40
0.0
 40
0.0
 40
0.0
 40
0.0
 40
1.0
 40
1.0
 40
1.0
 40
2.0
 40
2.0
 40
2.0
 40
3.0
 40
3.0
 40
3.0
 40
4.0
 40
4.0
 40
4.0
 40
5.0
 40
5.0
 40
5.0
 40
6.0
 40
6.0
 40
6.0
 40
7.0
 40
7.0
 40
7.0
 40
8.0
 40
8.0
 40
8.0
 40
9.0
 40
9.0
 40
9.0
 40
10.0
 40
10.0
 40
10.0
 40
11.0
 40
11.0
 40
11.0
 40
12.0
 40
12.0
 40
12.0
 40
13.0
 40
13.0
 40
13.0
 40
13.0
 10
77.32275659959292
 20
-139.5999199412285
 10
77.10485431015086
 20
-139.7585665883242
 10
77.01166447727486
 20
-139.8326361412571
 10
76.96308863093284
 20
-139.9764688777663
 10
76.96308863093284
 20
-139.9764688777663
 10
77.74150795582504
 20
-139.9764688777663
 10
77.74150795582504
 20
-139.9764688777663
 10
77.74150795582504
 20
-139.9764688777663
 10
77.74150795582504
 20
-140.1816243139129
 10
77.74150795582504
 20
-140.1816243139129
 10
77.74150795582504
 20
-140.1816243139129
 10
76.71349146302649
 20
-140.1816243139129
 10
76.71349146302649
 20
-140.1816243139129
 10
76.74518634149079
 20
-139.824023402544
 10
76.81064315571053
 20
-139.7458197350288
 10
77.19580483096146
 20
-139.4474744660062
 10
77.45177542551553
 20
-139.2486924565073
 10
77.51723223973527
 20
-139.1809963302221
 10
77.51723223973527
 20
-139.0435370203606
 10
77.51723223973527
 20
-138.925025735668
 10
77.44540199886782
 20
-138.79376759768
 10
77.24868704666005
 20
-138.79376759768
 10
76.98841008274943
 20
-138.79376759768
 10
76.97996959881057
 20
-139.0244167404175
 10
76.975663229454
 20
-139.1408609678189
 10
76.975663229454
 20
-139.1408609678189
 10
76.75155976813851
 20
-139.1408609678189
 10
76.75155976813851
 20
-139.1408609678189
 10
76.76000025207736
 20
-139.0139091991875
 10
76.77050779330738
 20
-138.9017713411426
 10
76.85095077288796
 20
-138.78326005645
 10
76.96084931886743
 20
-138.6225463520631
 10
77.14705672984519
 20
-138.5886121615334
 10
77.26350095724663
 20
-138.5886121615334
 10
77.54065888903497
 20
-138.5886121615334
 10
77.74788138247275
 20
-138.77275251522
 10
77.74788138247275
 20
-139.0456040776518
 10
77.74788138247275
 20
-139.2740139083239
 10
77.63160940984557
 20
-139.3735771678475
 10
77.32275659959292
 20
-139.5999199412285
 97
        0
 97
        1
330
137
 75
     2
 76
     1
 98
        1
 10
0.0
 20
0.0
450
        0
451
        0
460
0.0
461
0.0
452
        0
462
0.0
453
        0
470

  0
SPLINE
  5
139
330
133
100
AcDbEntity
  8
レイヤー 1
100
AcDbSpline
210
0.0
220
0.0
230
1.0
 70
    11
 71
     3
 72
    26
 73
    22
 74
     0
 42
0.0000000001
 43
0.0000000001
 40
0.0
 40
0.0
 40
0.0
 40
0.0
 40
1.0
 40
1.0
 40
1.0
 40
2.0
 40
2.0
 40
2.0
 40
3.0
 40
3.0
 40
3.0
 40
4.0
 40
4.0
 40
4.0
 40
5.0
 40
5.0
 40
5.0
 40
6.0
 40
6.0
 40
6.0
 40
7.0
 40
7.0
 40
7.0
 40
7.0
 10
78.35783553813624
 20
-140.1816243139129
 30
0.0
 10
78.35783553813624
 20
-140.1816243139129
 30
0.0
 10
78.35783553813624
 20
-139.0772989561161
 30
0.0
 10
78.35783553813624
 20
-139.0772989561161
 30
0.0
 10
78.35783553813624
 20
-139.0772989561161
 30
0.0
 10
78.0277953906493
 20
-139.0772989561161
 30
0.0
 10
78.0277953906493
 20
-139.0772989561161
 30
0.0
 10
78.0277953906493
 20
-139.0772989561161
 30
0.0
 10
78.0277953906493
 20
-138.9291598502503
 30
0.0
 10
78.0277953906493
 20
-138.9291598502503
 30
0.0
 10
78.35990259542739
 20
-138.914518194438
 30
0.0
 10
78.40641138447826
 20
-138.7515651779857
 30
0.0
 10
78.43603920565141
 20
-138.6373602626497
 30
0.0
 10
78.43603920565141
 20
-138.6373602626497
 30
0.0
 10
78.58211125422601
 20
-138.6373602626497
 30
0.0
 10
78.58211125422601
 20
-138.6373602626497
 30
0.0
 10
78.58211125422601
 20
-138.6373602626497
 30
0.0
 10
78.58211125422601
 20
-140.1816243139129
 30
0.0
 10
78.58211125422601
 20
-140.1816243139129
 30
0.0
 10
78.58211125422601
 20
-140.1816243139129
 30
0.0
 10
78.35783553813624
 20
-140.1816243139129
 30
0.0
 10
78.35783553813624
 20
-140.1816243139129
 30
0.0
  0
HATCH
  5
13A
330
133
100
AcDbEntity
  8
レイヤー 1
 62
   250
420
  2299925
440
 33554687
100
AcDbHatch
 10
0.0
 20
0.0
 30
0.0
210
0.0
220
0.0
230
1.0
  2
SOLID
 70
     1
 71
     1
 91
        1
 92
        1
 93
        1
 72
     4
 94
        3
 73
     0
 74
     0
 95
       26
 96
       22
 40
0.0
 40
0.0
 40
0.0
 40
0.0
 40
1.0
 40
1.0
 40
1.0
 40
2.0
 40
2.0
 40
2.0
 40
3.0
 40
3.0
 40
3.0
 40
4.0
 40
4.0
 40
4.0
 40
5.0
 40
5.0
 40
5.0
 40
6.0
 40
6.0
 40
6.0
 40
7.0
 40
7.0
 40
7.0
 40
7.0
 10
78.35783553813624
 20
-140.1816243139129
 10
78.35783553813624
 20
-140.1816243139129
 10
78.35783553813624
 20
-139.0772989561161
 10
78.35783553813624
 20
-139.0772989561161
 10
78.35783553813624
 20
-139.0772989561161
 10
78.0277953906493
 20
-139.0772989561161
 10
78.0277953906493
 20
-139.0772989561161
 10
78.0277953906493
 20
-139.0772989561161
 10
78.0277953906493
 20
-138.9291598502503
 10
78.0277953906493
 20
-138.9291598502503
 10
78.35990259542739
 20
-138.914518194438
 10
78.40641138447826
 20
-138.7515651779857
 10
78.43603920565141
 20
-138.6373602626497
 10
78.43603920565141
 20
-138.6373602626497
 10
78.58211125422601
 20
-138.6373602626497
 10
78.58211125422601
 20
-138.6373602626497
 10
78.58211125422601
 20
-138.6373602626497
 10
78.58211125422601
 20
-140.1816243139129
 10
78.58211125422601
 20
-140.1816243139129
 10
78.58211125422601
 20
-140.1816243139129
 10
78.35783553813624
 20
-140.1816243139129
 10
78.35783553813624
 20
-140.1816243139129
 97
        0
 97
        1
330
139
 75
     2
 76
     1
 98
        1
 10
0.0
 20
0.0
450
        0
451
        0
460
0.0
461
0.0
452
        0
462
0.0
453
        0
470

  0
ENDBLK
  5
136
330
133
100
AcDbEntity
  8
0
100
AcDbBlockEnd
  0
BLOCK
  5
13F
330
13D
100
AcDbEntity
  8
0
100
AcDbBlockBegin
  2
Block_5
 70
     0
 10
0.0
 20
0.0
 30
0.0
  3
Block_5
  1

  0
SPLINE
  5
141
330
13D
100
AcDbEntity
  8
レイヤー 1
100
AcDbSpline
210
0.0
220
0.0
230
1.0
 70
     9
 71
     3
 72
    17
 73
    13
 74
     0
 42
0.0000000001
 43
0.0000000001
 40
0.0
 40
0.0
 40
0.0
 40
0.0
 40
1.0
 40
1.0
 40
1.0
 40
2.0
 40
2.0
 40
2.0
 40
3.0
 40
3.0
 40
3.0
 40
4.0
 40
4.0
 40
4.0
 40
4.0
 10
61.93971623885535
 20
-150.1551757437112
 30
0.0
 10
61.93971623885535
 20
-150.2988362254461
 30
0.0
 10
62.02636039030938
 20
-150.4514539554427
 30
0.0
 10
62.22944876916486
 20
-150.4514539554427
 30
0.0
 10
62.4346042053115
 20
-150.4514539554427
 30
0.0
 10
62.53623452212636
 20
-150.324329932037
 30
0.0
 10
62.53623452212636
 20
-150.1551757437112
 30
0.0
 10
62.53623452212636
 20
-149.9691405875077
 30
0.0
 10
62.41358912285146
 20
-149.8588975319797
 30
0.0
 10
62.23582219581257
 20
-149.8588975319797
 30
0.0
 10
62.01361353701396
 20
-149.8588975319797
 30
0.0
 10
61.93971623885535
 20
-150.021850548432
 30
0.0
 10
61.93971623885535
 20
-150.1551757437112
 30
0.0
  0
SPLINE
  5
142
330
13D
100
AcDbEntity
  8
レイヤー 1
100
AcDbSpline
210
0.0
220
0.0
230
1.0
 70
     9
 71
     3
 72
    17
 73
    13
 74
     0
 42
0.0000000001
 43
0.0000000001
 40
0.0
 40
0.0
 40
0.0
 40
0.0
 40
1.0
 40
1.0
 40
1.0
 40
2.0
 40
2.0
 40
2.0
 40
3.0
 40
3.0
 40
3.0
 40
4.0
 40
4.0
 40
4.0
 40
4.0
 10
61.27963594388148
 20
-150.1551757437112
 30
0.0
 10
61.27963594388148
 20
-150.3201958174547
 30
0.0
 10
61.37472057927438
 20
-150.4046006568433
 30
0.0
 10
61.5101128318447
 20
-150.4046006568433
 30
0.0
 10
61.63293048589385
 20
-150.4046006568433
 30
0.0
 10
61.75144177058644
 20
-150.3329426707501
 30
0.0
 10
61.75144177058644
 20
-150.1551757437112
 30
0.0
 10
61.75144177058644
 20
-149.9774088166723
 30
0.0
 10
61.63293048589385
 20
-149.9054063210306
 30
0.0
 10
61.5101128318447
 20
-149.9054063210306
 30
0.0
 10
61.37472057927438
 20
-149.9054063210306
 30
0.0
 10
61.27963594388148
 20
-149.9922227272589
 30
0.0
 10
61.27963594388148
 20
-150.1551757437112
 30
0.0
  0
SPLINE
  5
143
330
13D
100
AcDbEntity
  8
レイヤー 1
100
AcDbSpline
210
0.0
220
0.0
230
1.0
 70
     9
 71
     3
 72
    29
 73
    25
 74
     0
 42
0.0000000001
 43
0.0000000001
 40
0.0
 40
0.0
 40
0.0
 40
0.0
 40
1.0
 40
1.0
 40
1.0
 40
2.0
 40
2.0
 40
2.0
 40
3.0
 40
3.0
 40
3.0
 40
4.0
 40
4.0
 40
4.0
 40
5.0
 40
5.0
 40
5.0
 40
6.0
 40
6.0
 40
6.0
 40
7.0
 40
7.0
 40
7.0
 40
8.0
 40
8.0
 40
8.0
 40
8.0
 10
62.73088241704297
 20
-150.1551757437112
 30
0.0
 10
62.73088241704297
 20
-150.4218261342695
 30
0.0
 10
62.59325085240725
 20
-150.6753851619839
 30
0.0
 10
62.24426267975143
 20
-150.6753851619839
 30
0.0
 10
61.98829208519737
 20
-150.6753851619839
 30
0.0
 10
61.89303519503021
 20
-150.5337917375401
 30
0.0
 10
61.83171249539277
 20
-150.428027306143
 30
0.0
 10
61.77245685304647
 20
-150.552739762709
 30
0.0
 10
61.65825193771044
 20
-150.628876372933
 30
0.0
 10
61.49753823332353
 20
-150.628876372933
 30
0.0
 10
61.22244735882634
 20
-150.628876372933
 30
0.0
 10
61.08705510625601
 20
-150.4300943634341
 30
0.0
 10
61.08705510625601
 20
-150.1551757437112
 30
0.0
 10
61.08705510625601
 20
-149.8716443852751
 30
0.0
 10
61.2308878427652
 20
-149.6811306049408
 30
0.0
 10
61.49753823332353
 20
-149.6811306049408
 30
0.0
 10
61.65825193771044
 20
-149.6811306049408
 30
0.0
 10
61.77245685304647
 20
-149.7596787820045
 30
0.0
 10
61.83171249539277
 20
-149.8843912385706
 30
0.0
 10
61.88252765380021
 20
-149.7955077750511
 30
0.0
 10
61.97778454396736
 20
-149.6366888731811
 30
0.0
 10
62.24012856516914
 20
-149.6366888731811
 30
0.0
 10
62.61443818964153
 20
-149.6366888731811
 30
0.0
 10
62.73088241704297
 20
-149.9160861170348
 30
0.0
 10
62.73088241704297
 20
-150.1551757437112
 30
0.0
  0
HATCH
  5
144
330
13D
100
AcDbEntity
  8
レイヤー 1
 62
   250
420
  2299925
440
 33554687
100
AcDbHatch
 10
0.0
 20
0.0
 30
0.0
210
0.0
220
0.0
230
1.0
  2
SOLID
 70
     1
 71
     1
 91
        3
 92
        1
 93
        1
 72
     4
 94
        3
 73
     0
 74
     0
 95
       17
 96
       13
 40
0.0
 40
0.0
 40
0.0
 40
0.0
 40
1.0
 40
1.0
 40
1.0
 40
2.0
 40
2.0
 40
2.0
 40
3.0
 40
3.0
 40
3.0
 40
4.0
 40
4.0
 40
4.0
 40
4.0
 10
61.93971623885535
 20
-150.1551757437112
 10
61.93971623885535
 20
-150.2988362254461
 10
62.02636039030938
 20
-150.4514539554427
 10
62.22944876916486
 20
-150.4514539554427
 10
62.4346042053115
 20
-150.4514539554427
 10
62.53623452212636
 20
-150.324329932037
 10
62.53623452212636
 20
-150.1551757437112
 10
62.53623452212636
 20
-149.9691405875077
 10
62.41358912285146
 20
-149.8588975319797
 10
62.23582219581257
 20
-149.8588975319797
 10
62.01361353701396
 20
-149.8588975319797
 10
61.93971623885535
 20
-150.021850548432
 10
61.93971623885535
 20
-150.1551757437112
 97
        0
 97
        1
330
141
 92
        1
 93
        1
 72
     4
 94
        3
 73
     0
 74
     0
 95
       17
 96
       13
 40
0.0
 40
0.0
 40
0.0
 40
0.0
 40
1.0
 40
1.0
 40
1.0
 40
2.0
 40
2.0
 40
2.0
 40
3.0
 40
3.0
 40
3.0
 40
4.0
 40
4.0
 40
4.0
 40
4.0
 10
61.27963594388148
 20
-150.1551757437112
 10
61.27963594388148
 20
-150.3201958174547
 10
61.37472057927438
 20
-150.4046006568433
 10
61.5101128318447
 20
-150.4046006568433
 10
61.63293048589385
 20
-150.4046006568433
 10
61.75144177058644
 20
-150.3329426707501
 10
61.75144177058644
 20
-150.1551757437112
 10
61.75144177058644
 20
-149.9774088166723
 10
61.63293048589385
 20
-149.9054063210306
 10
61.5101128318447
 20
-149.9054063210306
 10
61.37472057927438
 20
-149.9054063210306
 10
61.27963594388148
 20
-149.9922227272589
 10
61.27963594388148
 20
-150.1551757437112
 97
        0
 97
        1
330
142
 92
        1
 93
        1
 72
     4
 94
        3
 73
     0
 74
     0
 95
       29
 96
       25
 40
0.0
 40
0.0
 40
0.0
 40
0.0
 40
1.0
 40
1.0
 40
1.0
 40
2.0
 40
2.0
 40
2.0
 40
3.0
 40
3.0
 40
3.0
 40
4.0
 40
4.0
 40
4.0
 40
5.0
 40
5.0
 40
5.0
 40
6.0
 40
6.0
 40
6.0
 40
7.0
 40
7.0
 40
7.0
 40
8.0
 40
8.0
 40
8.0
 40
8.0
 10
62.73088241704297
 20
-150.1551757437112
 10
62.73088241704297
 20
-150.4218261342695
 10
62.59325085240725
 20
-150.6753851619839
 10
62.24426267975143
 20
-150.6753851619839
 10
61.98829208519737
 20
-150.6753851619839
 10
61.89303519503021
 20
-150.5337917375401
 10
61.83171249539277
 20
-150.428027306143
 10
61.77245685304647
 20
-150.552739762709
 10
61.65825193771044
 20
-150.628876372933
 10
61.49753823332353
 20
-150.628876372933
 10
61.22244735882634
 20
-150.628876372933
 10
61.08705510625601
 20
-150.4300943634341
 10
61.08705510625601
 20
-150.1551757437112
 10
61.08705510625601
 20
-149.8716443852751
 10
61.2308878427652
 20
-149.6811306049408
 10
61.49753823332353
 20
-149.6811306049408
 10
61.65825193771044
 20
-149.6811306049408
 10
61.77245685304647
 20
-149.7596787820045
 10
61.83171249539277
 20
-149.8843912385706
 10
61.88252765380021
 20
-149.7955077750511
 10
61.97778454396736
 20
-149.6366888731811
 10
62.24012856516914
 20
-149.6366888731811
 10
62.61443818964153
 20
-149.6366888731811
 10
62.73088241704297
 20
-149.9160861170348
 10
62.73088241704297
 20
-150.1551757437112
 97
        0
 97
        1
330
143
 75
     2
 76
     1
 98
        1
 10
0.0
 20
0.0
450
        0
451
        0
460
0.0
461
0.0
452
        0
462
0.0
453
        0
470

  0
ENDBLK
  5
140
330
13D
100
AcDbEntity
  8
0
100
AcDbBlockEnd
  0
BLOCK
  5
149
330
147
100
AcDbEntity
  8
0
100
AcDbBlockBegin
  2
Block_6
 70
     0
 10
0.0
 20
0.0
 30
0.0
  3
Block_6
  1

  0
INSERT
  5
14C
330
147
100
AcDbEntity
  8
レイヤー 1
100
AcDbBlockReference
  2
Block_7
 10
0.0
 20
0.0
 30
0.0
  0
ENDBLK
  5
14A
330
147
100
AcDbEntity
  8
0
100
AcDbBlockEnd
  0
BLOCK
  5
14D
330
14B
100
AcDbEntity
  8
0
100
AcDbBlockBegin
  2
Block_7
 70
     0
 10
0.0
 20
0.0
 30
0.0
  3
Block_7
  1

  0
SPLINE
  5
14F
330
14B
100
AcDbEntity
  8
レイヤー 1
100
AcDbSpline
210
0.0
220
0.0
230
1.0
 70
     9
 71
     3
 72
    44
 73
    40
 74
     0
 42
0.0000000001
 43
0.0000000001
 40
0.0
 40
0.0
 40
0.0
 40
0.0
 40
1.0
 40
1.0
 40
1.0
 40
2.0
 40
2.0
 40
2.0
 40
3.0
 40
3.0
 40
3.0
 40
4.0
 40
4.0
 40
4.0
 40
5.0
 40
5.0
 40
5.0
 40
6.0
 40
6.0
 40
6.0
 40
7.0
 40
7.0
 40
7.0
 40
8.0
 40
8.0
 40
8.0
 40
9.0
 40
9.0
 40
9.0
 40
10.0
 40
10.0
 40
10.0
 40
11.0
 40
11.0
 40
11.0
 40
12.0
 40
12.0
 40
12.0
 40
13.0
 40
13.0
 40
13.0
 40
13.0
 10
104.324036974787
 20
-139.5999199412285
 30
0.0
 10
104.1063069401192
 20
-139.7585665883242
 30
0.0
 10
104.0132893620175
 20
-139.8326361412571
 30
0.0
 10
103.9643690061269
 20
-139.9764688777663
 30
0.0
 10
103.9643690061269
 20
-139.9764688777663
 30
0.0
 10
104.7429605857934
 20
-139.9764688777663
 30
0.0
 10
104.7429605857934
 20
-139.9764688777663
 30
0.0
 10
104.7429605857934
 20
-139.9764688777663
 30
0.0
 10
104.7429605857934
 20
-140.1816243139129
 30
0.0
 10
104.7429605857934
 20
-140.1816243139129
 30
0.0
 10
104.7429605857934
 20
-140.1816243139129
 30
0.0
 10
103.7149440929949
 20
-140.1816243139129
 30
0.0
 10
103.7149440929949
 20
-140.1816243139129
 30
0.0
 10
103.7466389714591
 20
-139.824023402544
 30
0.0
 10
103.8120957856789
 20
-139.7458197350288
 30
0.0
 10
104.1972574609298
 20
-139.4474744660062
 30
0.0
 10
104.4532280554839
 20
-139.2486924565073
 30
0.0
 10
104.5186848697036
 20
-139.1809963302221
 30
0.0
 10
104.5186848697036
 20
-139.0435370203606
 30
0.0
 10
104.5186848697036
 20
-138.925025735668
 30
0.0
 10
104.4466823740619
 20
-138.79376759768
 30
0.0
 10
104.2499674218541
 20
-138.79376759768
 30
0.0
 10
103.9898627127178
 20
-138.79376759768
 30
0.0
 10
103.9815944835532
 20
-139.0244167404175
 30
0.0
 10
103.9771158594224
 20
-139.1408609678189
 30
0.0
 10
103.9771158594224
 20
-139.1408609678189
 30
0.0
 10
103.7528401433326
 20
-139.1408609678189
 30
0.0
 10
103.7528401433326
 20
-139.1408609678189
 30
0.0
 10
103.7614528820457
 20
-139.0139091991875
 30
0.0
 10
103.77213267805
 20
-138.9017713411426
 30
0.0
 10
103.8524034028563
 20
-138.78326005645
 30
0.0
 10
103.9623019488358
 20
-138.6225463520631
 30
0.0
 10
104.1486816145878
 20
-138.5886121615334
 30
0.0
 10
104.2647813324407
 20
-138.5886121615334
 30
0.0
 10
104.5421115190033
 20
-138.5886121615334
 30
0.0
 10
104.7495062672154
 20
-138.77275251522
 30
0.0
 10
104.7495062672154
 20
-139.0456040776518
 30
0.0
 10
104.7495062672154
 20
-139.2740139083239
 30
0.0
 10
104.6330620398139
 20
-139.3735771678475
 30
0.0
 10
104.324036974787
 20
-139.5999199412285
 30
0.0
  0
HATCH
  5
150
330
14B
100
AcDbEntity
  8
レイヤー 1
 62
   250
420
  2299925
440
 33554687
100
AcDbHatch
 10
0.0
 20
0.0
 30
0.0
210
0.0
220
0.0
230
1.0
  2
SOLID
 70
     1
 71
     1
 91
        1
 92
        1
 93
        1
 72
     4
 94
        3
 73
     0
 74
     0
 95
       44
 96
       40
 40
0.0
 40
0.0
 40
0.0
 40
0.0
 40
1.0
 40
1.0
 40
1.0
 40
2.0
 40
2.0
 40
2.0
 40
3.0
 40
3.0
 40
3.0
 40
4.0
 40
4.0
 40
4.0
 40
5.0
 40
5.0
 40
5.0
 40
6.0
 40
6.0
 40
6.0
 40
7.0
 40
7.0
 40
7.0
 40
8.0
 40
8.0
 40
8.0
 40
9.0
 40
9.0
 40
9.0
 40
10.0
 40
10.0
 40
10.0
 40
11.0
 40
11.0
 40
11.0
 40
12.0
 40
12.0
 40
12.0
 40
13.0
 40
13.0
 40
13.0
 40
13.0
 10
104.324036974787
 20
-139.5999199412285
 10
104.1063069401192
 20
-139.7585665883242
 10
104.0132893620175
 20
-139.8326361412571
 10
103.9643690061269
 20
-139.9764688777663
 10
103.9643690061269
 20
-139.9764688777663
 10
104.7429605857934
 20
-139.9764688777663
 10
104.7429605857934
 20
-139.9764688777663
 10
104.7429605857934
 20
-139.9764688777663
 10
104.7429605857934
 20
-140.1816243139129
 10
104.7429605857934
 20
-140.1816243139129
 10
104.7429605857934
 20
-140.1816243139129
 10
103.7149440929949
 20
-140.1816243139129
 10
103.7149440929949
 20
-140.1816243139129
 10
103.7466389714591
 20
-139.824023402544
 10
103.8120957856789
 20
-139.7458197350288
 10
104.1972574609298
 20
-139.4474744660062
 10
104.4532280554839
 20
-139.2486924565073
 10
104.5186848697036
 20
-139.1809963302221
 10
104.5186848697036
 20
-139.0435370203606
 10
104.5186848697036
 20
-138.925025735668
 10
104.4466823740619
 20
-138.79376759768
 10
104.2499674218541
 20
-138.79376759768
 10
103.9898627127178
 20
-138.79376759768
 10
103.9815944835532
 20
-139.0244167404175
 10
103.9771158594224
 20
-139.1408609678189
 10
103.9771158594224
 20
-139.1408609678189
 10
103.7528401433326
 20
-139.1408609678189
 10
103.7528401433326
 20
-139.1408609678189
 10
103.7614528820457
 20
-139.0139091991875
 10
103.77213267805
 20
-138.9017713411426
 10
103.8524034028563
 20
-138.78326005645
 10
103.9623019488358
 20
-138.6225463520631
 10
104.1486816145878
 20
-138.5886121615334
 10
104.2647813324407
 20
-138.5886121615334
 10
104.5421115190033
 20
-138.5886121615334
 10
104.7495062672154
 20
-138.77275251522
 10
104.7495062672154
 20
-139.0456040776518
 10
104.7495062672154
 20
-139.2740139083239
 10
104.6330620398139
 20
-139.3735771678475
 10
104.324036974787
 20
-139.5999199412285
 97
        0
 97
        1
330
14F
 75
     2
 76
     1
 98
        1
 10
0.0
 20
0.0
450
        0
451
        0
460
0.0
461
0.0
452
        0
462
0.0
453
        0
470

  0
SPLINE
  5
151
330
14B
100
AcDbEntity
  8
レイヤー 1
100
AcDbSpline
210
0.0
220
0.0
230
1.0
 70
    11
 71
     3
 72
    26
 73
    22
 74
     0
 42
0.0000000001
 43
0.0000000001
 40
0.0
 40
0.0
 40
0.0
 40
0.0
 40
1.0
 40
1.0
 40
1.0
 40
2.0
 40
2.0
 40
2.0
 40
3.0
 40
3.0
 40
3.0
 40
4.0
 40
4.0
 40
4.0
 40
5.0
 40
5.0
 40
5.0
 40
6.0
 40
6.0
 40
6.0
 40
7.0
 40
7.0
 40
7.0
 40
7.0
 10
105.3592881681046
 20
-140.1816243139129
 30
0.0
 10
105.3592881681046
 20
-140.1816243139129
 30
0.0
 10
105.3592881681046
 20
-139.0772989561161
 30
0.0
 10
105.3592881681046
 20
-139.0772989561161
 30
0.0
 10
105.3592881681046
 20
-139.0772989561161
 30
0.0
 10
105.0292480206177
 20
-139.0772989561161
 30
0.0
 10
105.0292480206177
 20
-139.0772989561161
 30
0.0
 10
105.0292480206177
 20
-139.0772989561161
 30
0.0
 10
105.0292480206177
 20
-138.9291598502503
 30
0.0
 10
105.0292480206177
 20
-138.9291598502503
 30
0.0
 10
105.3613552253958
 20
-138.914518194438
 30
0.0
 10
105.4078640144466
 20
-138.7515651779857
 30
0.0
 10
105.4374918356198
 20
-138.6373602626497
 30
0.0
 10
105.4374918356198
 20
-138.6373602626497
 30
0.0
 10
105.5835638841944
 20
-138.6373602626497
 30
0.0
 10
105.5835638841944
 20
-138.6373602626497
 30
0.0
 10
105.5835638841944
 20
-138.6373602626497
 30
0.0
 10
105.5835638841944
 20
-140.1816243139129
 30
0.0
 10
105.5835638841944
 20
-140.1816243139129
 30
0.0
 10
105.5835638841944
 20
-140.1816243139129
 30
0.0
 10
105.3592881681046
 20
-140.1816243139129
 30
0.0
 10
105.3592881681046
 20
-140.1816243139129
 30
0.0
  0
HATCH
  5
152
330
14B
100
AcDbEntity
  8
レイヤー 1
 62
   250
420
  2299925
440
 33554687
100
AcDbHatch
 10
0.0
 20
0.0
 30
0.0
210
0.0
220
0.0
230
1.0
  2
SOLID
 70
     1
 71
     1
 91
        1
 92
        1
 93
        1
 72
     4
 94
        3
 73
     0
 74
     0
 95
       26
 96
       22
 40
0.0
 40
0.0
 40
0.0
 40
0.0
 40
1.0
 40
1.0
 40
1.0
 40
2.0
 40
2.0
 40
2.0
 40
3.0
 40
3.0
 40
3.0
 40
4.0
 40
4.0
 40
4.0
 40
5.0
 40
5.0
 40
5.0
 40
6.0
 40
6.0
 40
6.0
 40
7.0
 40
7.0
 40
7.0
 40
7.0
 10
105.3592881681046
 20
-140.1816243139129
 10
105.3592881681046
 20
-140.1816243139129
 10
105.3592881681046
 20
-139.0772989561161
 10
105.3592881681046
 20
-139.0772989561161
 10
105.3592881681046
 20
-139.0772989561161
 10
105.0292480206177
 20
-139.0772989561161
 10
105.0292480206177
 20
-139.0772989561161
 10
105.0292480206177
 20
-139.0772989561161
 10
105.0292480206177
 20
-138.9291598502503
 10
105.0292480206177
 20
-138.9291598502503
 10
105.3613552253958
 20
-138.914518194438
 10
105.4078640144466
 20
-138.7515651779857
 10
105.4374918356198
 20
-138.6373602626497
 10
105.4374918356198
 20
-138.6373602626497
 10
105.5835638841944
 20
-138.6373602626497
 10
105.5835638841944
 20
-138.6373602626497
 10
105.5835638841944
 20
-138.6373602626497
 10
105.5835638841944
 20
-140.1816243139129
 10
105.5835638841944
 20
-140.1816243139129
 10
105.5835638841944
 20
-140.1816243139129
 10
105.3592881681046
 20
-140.1816243139129
 10
105.3592881681046
 20
-140.1816243139129
 97
        0
 97
        1
330
151
 75
     2
 76
     1
 98
        1
 10
0.0
 20
0.0
450
        0
451
        0
460
0.0
461
0.0
452
        0
462
0.0
453
        0
470

  0
ENDBLK
  5
14E
330
14B
100
AcDbEntity
  8
0
100
AcDbBlockEnd
  0
BLOCK
  5
158
330
156
100
AcDbEntity
  8
0
100
AcDbBlockBegin
  2
Block_8
 70
     0
 10
0.0
 20
0.0
 30
0.0
  3
Block_8
  1

  0
SPLINE
  5
15A
330
156
100
AcDbEntity
  8
レイヤー 1
100
AcDbSpline
210
0.0
220
0.0
230
1.0
 70
     9
 71
     3
 72
    17
 73
    13
 74
     0
 42
0.0000000001
 43
0.0000000001
 40
0.0
 40
0.0
 40
0.0
 40
0.0
 40
1.0
 40
1.0
 40
1.0
 40
2.0
 40
2.0
 40
2.0
 40
3.0
 40
3.0
 40
3.0
 40
4.0
 40
4.0
 40
4.0
 40
4.0
 10
91.4185370322669
 20
-139.3735771678475
 30
0.0
 10
91.15619301106512
 20
-139.3735771678475
 30
0.0
 10
91.1181247059531
 20
-139.5851060306419
 30
0.0
 10
91.1181247059531
 20
-139.7013780032691
 30
0.0
 10
91.1181247059531
 20
-139.8770778730168
 30
0.0
 10
91.21338159612028
 20
-140.0398586346949
 30
0.0
 10
91.39734969503262
 20
-140.0398586346949
 30
0.0
 10
91.51792803701637
 20
-140.0398586346949
 30
0.0
 10
91.69362790676409
 20
-139.9806029923486
 30
0.0
 10
91.69362790676409
 20
-139.6950045766214
 30
0.0
 10
91.69362790676409
 20
-139.4709011153059
 30
0.0
 10
91.5539292848372
 20
-139.3735771678475
 30
0.0
 10
91.4185370322669
 20
-139.3735771678475
 30
0.0
  0
SPLINE
  5
15B
330
156
100
AcDbEntity
  8
レイヤー 1
100
AcDbSpline
210
0.0
220
0.0
230
1.0
 70
     9
 71
     3
 72
    32
 73
    28
 74
     0
 42
0.0000000001
 43
0.0000000001
 40
0.0
 40
0.0
 40
0.0
 40
0.0
 40
1.0
 40
1.0
 40
1.0
 40
2.0
 40
2.0
 40
2.0
 40
3.0
 40
3.0
 40
3.0
 40
4.0
 40
4.0
 40
4.0
 40
5.0
 40
5.0
 40
5.0
 40
6.0
 40
6.0
 40
6.0
 40
7.0
 40
7.0
 40
7.0
 40
8.0
 40
8.0
 40
8.0
 40
9.0
 40
9.0
 40
9.0
 40
9.0
 10
91.40165606438918
 20
-140.2324394723204
 30
0.0
 10
90.88540850592449
 20
-140.2324394723204
 30
0.0
 10
90.87696802198562
 20
-139.6781236087436
 30
0.0
 10
90.87696802198562
 20
-139.4645276886582
 30
0.0
 10
90.87696802198562
 20
-139.2338785459207
 30
0.0
 10
90.89608830192876
 20
-138.5865451042422
 30
0.0
 10
91.43972436950118
 20
-138.5865451042422
 30
0.0
 10
91.61318492718351
 20
-138.5865451042422
 30
0.0
 10
91.85864798050756
 20
-138.6563082878186
 30
0.0
 10
91.89671628561958
 20
-138.9884154925966
 30
0.0
 10
91.89671628561958
 20
-138.9884154925966
 30
0.0
 10
91.68294811075982
 20
-138.9884154925966
 30
0.0
 10
91.68294811075982
 20
-138.9884154925966
 30
0.0
 10
91.67244056952981
 20
-138.9313991623157
 30
0.0
 10
91.64074569106551
 20
-138.78326005645
 30
0.0
 10
91.43765731221003
 20
-138.78326005645
 30
0.0
 10
91.14568546983511
 20
-138.78326005645
 30
0.0
 10
91.10537785265767
 20
-139.1112331466458
 30
0.0
 10
91.09280325413653
 20
-139.3163885827924
 30
0.0
 10
91.18582083223827
 20
-139.2381849152772
 30
0.0
 10
91.25351695852343
 20
-139.1789292729309
 30
0.0
 10
91.43541800014462
 20
-139.1789292729309
 30
0.0
 10
91.61525198447467
 20
-139.1789292729309
 30
0.0
 10
91.9177313680796
 20
-139.2867607616193
 30
0.0
 10
91.9177313680796
 20
-139.6929375193302
 30
0.0
 10
91.9177313680796
 20
-140.0124701255871
 30
0.0
 10
91.71894935858068
 20
-140.2324394723204
 30
0.0
 10
91.40165606438918
 20
-140.2324394723204
 30
0.0
  0
HATCH
  5
15C
330
156
100
AcDbEntity
  8
レイヤー 1
 62
   250
420
  2299925
440
 33554687
100
AcDbHatch
 10
0.0
 20
0.0
 30
0.0
210
0.0
220
0.0
230
1.0
  2
SOLID
 70
     1
 71
     1
 91
        2
 92
        1
 93
        1
 72
     4
 94
        3
 73
     0
 74
     0
 95
       17
 96
       13
 40
0.0
 40
0.0
 40
0.0
 40
0.0
 40
1.0
 40
1.0
 40
1.0
 40
2.0
 40
2.0
 40
2.0
 40
3.0
 40
3.0
 40
3.0
 40
4.0
 40
4.0
 40
4.0
 40
4.0
 10
91.4185370322669
 20
-139.3735771678475
 10
91.15619301106512
 20
-139.3735771678475
 10
91.1181247059531
 20
-139.5851060306419
 10
91.1181247059531
 20
-139.7013780032691
 10
91.1181247059531
 20
-139.8770778730168
 10
91.21338159612028
 20
-140.0398586346949
 10
91.39734969503262
 20
-140.0398586346949
 10
91.51792803701637
 20
-140.0398586346949
 10
91.69362790676409
 20
-139.9806029923486
 10
91.69362790676409
 20
-139.6950045766214
 10
91.69362790676409
 20
-139.4709011153059
 10
91.5539292848372
 20
-139.3735771678475
 10
91.4185370322669
 20
-139.3735771678475
 97
        0
 97
        1
330
15A
 92
        1
 93
        1
 72
     4
 94
        3
 73
     0
 74
     0
 95
       32
 96
       28
 40
0.0
 40
0.0
 40
0.0
 40
0.0
 40
1.0
 40
1.0
 40
1.0
 40
2.0
 40
2.0
 40
2.0
 40
3.0
 40
3.0
 40
3.0
 40
4.0
 40
4.0
 40
4.0
 40
5.0
 40
5.0
 40
5.0
 40
6.0
 40
6.0
 40
6.0
 40
7.0
 40
7.0
 40
7.0
 40
8.0
 40
8.0
 40
8.0
 40
9.0
 40
9.0
 40
9.0
 40
9.0
 10
91.40165606438918
 20
-140.2324394723204
 10
90.88540850592449
 20
-140.2324394723204
 10
90.87696802198562
 20
-139.6781236087436
 10
90.87696802198562
 20
-139.4645276886582
 10
90.87696802198562
 20
-139.2338785459207
 10
90.89608830192876
 20
-138.5865451042422
 10
91.43972436950118
 20
-138.5865451042422
 10
91.61318492718351
 20
-138.5865451042422
 10
91.85864798050756
 20
-138.6563082878186
 10
91.89671628561958
 20
-138.9884154925966
 10
91.89671628561958
 20
-138.9884154925966
 10
91.68294811075982
 20
-138.9884154925966
 10
91.68294811075982
 20
-138.9884154925966
 10
91.67244056952981
 20
-138.9313991623157
 10
91.64074569106551
 20
-138.78326005645
 10
91.43765731221003
 20
-138.78326005645
 10
91.14568546983511
 20
-138.78326005645
 10
91.10537785265767
 20
-139.1112331466458
 10
91.09280325413653
 20
-139.3163885827924
 10
91.18582083223827
 20
-139.2381849152772
 10
91.25351695852343
 20
-139.1789292729309
 10
91.43541800014462
 20
-139.1789292729309
 10
91.61525198447467
 20
-139.1789292729309
 10
91.9177313680796
 20
-139.2867607616193
 10
91.9177313680796
 20
-139.6929375193302
 10
91.9177313680796
 20
-140.0124701255871
 10
91.71894935858068
 20
-140.2324394723204
 10
91.40165606438918
 20
-140.2324394723204
 97
        0
 97
        1
330
15B
 75
     2
 76
     1
 98
        1
 10
0.0
 20
0.0
450
        0
451
        0
460
0.0
461
0.0
452
        0
462
0.0
453
        0
470

  0
ENDBLK
  5
159
330
156
100
AcDbEntity
  8
0
100
AcDbBlockEnd
  0
BLOCK
  5
164
330
162
100
AcDbEntity
  8
0
100
AcDbBlockBegin
  2
Block_9
 70
     0
 10
0.0
 20
0.0
 30
0.0
  3
Block_9
  1

  0
SPLINE
  5
166
330
162
100
AcDbEntity
  8
レイヤー 1
100
AcDbSpline
210
0.0
220
0.0
230
1.0
 70
     9
 71
     3
 72
    17
 73
    13
 74
     0
 42
0.0000000001
 43
0.0000000001
 40
0.0
 40
0.0
 40
0.0
 40
0.0
 40
1.0
 40
1.0
 40
1.0
 40
2.0
 40
2.0
 40
2.0
 40
3.0
 40
3.0
 40
3.0
 40
4.0
 40
4.0
 40
4.0
 40
4.0
 10
91.20011797850207
 20
-156.1568765885649
 30
0.0
 10
91.03509790475859
 20
-156.1568765885649
 30
0.0
 10
90.95034855582145
 20
-156.2519612239578
 30
0.0
 10
90.95034855582145
 20
-156.3873534765282
 30
0.0
 10
90.95034855582145
 20
-156.509998875803
 30
0.0
 10
91.02235105146316
 20
-156.6285101604956
 30
0.0
 10
91.20011797850207
 20
-156.6285101604956
 30
0.0
 10
91.37788490554095
 20
-156.6285101604956
 30
0.0
 10
91.44988740118266
 20
-156.509998875803
 30
0.0
 10
91.44988740118266
 20
-156.3873534765282
 30
0.0
 10
91.44988740118266
 20
-156.2519612239578
 30
0.0
 10
91.36307099495438
 20
-156.1568765885649
 30
0.0
 10
91.20011797850207
 20
-156.1568765885649
 30
0.0
  0
SPLINE
  5
167
330
162
100
AcDbEntity
  8
レイヤー 1
100
AcDbSpline
210
0.0
220
0.0
230
1.0
 70
     9
 71
     3
 72
    17
 73
    13
 74
     0
 42
0.0000000001
 43
0.0000000001
 40
0.0
 40
0.0
 40
0.0
 40
0.0
 40
1.0
 40
1.0
 40
1.0
 40
2.0
 40
2.0
 40
2.0
 40
3.0
 40
3.0
 40
3.0
 40
4.0
 40
4.0
 40
4.0
 40
4.0
 10
91.20011797850207
 20
-156.8169568835388
 30
0.0
 10
91.05645749676714
 20
-156.8169568835388
 30
0.0
 10
90.90383976677058
 20
-156.9037732897671
 30
0.0
 10
90.90383976677058
 20
-157.1066894138483
 30
0.0
 10
90.90383976677058
 20
-157.3120171047692
 30
0.0
 10
91.03096379017628
 20
-157.4133029120355
 30
0.0
 10
91.20011797850207
 20
-157.4133029120355
 30
0.0
 10
91.38615313470555
 20
-157.4133029120355
 30
0.0
 10
91.49639619023353
 20
-157.2906575127607
 30
0.0
 10
91.49639619023353
 20
-157.1128905857217
 30
0.0
 10
91.49639619023353
 20
-156.8910264364717
 30
0.0
 10
91.33344317378123
 20
-156.8169568835388
 30
0.0
 10
91.20011797850207
 20
-156.8169568835388
 30
0.0
  0
SPLINE
  5
168
330
162
100
AcDbEntity
  8
レイヤー 1
100
AcDbSpline
210
0.0
220
0.0
230
1.0
 70
     9
 71
     3
 72
    29
 73
    25
 74
     0
 42
0.0000000001
 43
0.0000000001
 40
0.0
 40
0.0
 40
0.0
 40
0.0
 40
1.0
 40
1.0
 40
1.0
 40
2.0
 40
2.0
 40
2.0
 40
3.0
 40
3.0
 40
3.0
 40
4.0
 40
4.0
 40
4.0
 40
5.0
 40
5.0
 40
5.0
 40
6.0
 40
6.0
 40
6.0
 40
7.0
 40
7.0
 40
7.0
 40
8.0
 40
8.0
 40
8.0
 40
8.0
 10
91.20011797850207
 20
-157.6079508069522
 30
0.0
 10
90.93346758794373
 20
-157.6079508069522
 30
0.0
 10
90.6795640506808
 20
-157.4704914970907
 30
0.0
 10
90.6795640506808
 20
-157.1215033244349
 30
0.0
 10
90.6795640506808
 20
-156.8655327298808
 30
0.0
 10
90.8215019846731
 20
-156.7704480944879
 30
0.0
 10
90.92726641607027
 20
-156.7091253948505
 30
0.0
 10
90.80255395950421
 20
-156.6498697525042
 30
0.0
 10
90.72641734928021
 20
-156.5354925823939
 30
0.0
 10
90.72641734928021
 20
-156.3746066232327
 30
0.0
 10
90.72641734928021
 20
-156.0996880035098
 30
0.0
 10
90.92519935877913
 20
-155.9642957509395
 30
0.0
 10
91.20011797850207
 20
-155.9642957509395
 30
0.0
 10
91.48364933693811
 20
-155.9642957509395
 30
0.0
 10
91.67416311727244
 20
-156.1083007422229
 30
0.0
 10
91.67416311727244
 20
-156.3746066232327
 30
0.0
 10
91.67416311727244
 20
-156.5354925823939
 30
0.0
 10
91.59561494020874
 20
-156.6498697525042
 30
0.0
 10
91.47090248364269
 20
-156.7091253948505
 30
0.0
 10
91.55978594716215
 20
-156.7597682984836
 30
0.0
 10
91.71860484903216
 20
-156.8548529338765
 30
0.0
 10
91.71860484903216
 20
-157.1173692098526
 30
0.0
 10
91.71860484903216
 20
-157.4918510890992
 30
0.0
 10
91.4392076051784
 20
-157.6079508069522
 30
0.0
 10
91.20011797850207
 20
-157.6079508069522
 30
0.0
  0
HATCH
  5
169
330
162
100
AcDbEntity
  8
レイヤー 1
 62
   250
420
  2299925
440
 33554687
100
AcDbHatch
 10
0.0
 20
0.0
 30
0.0
210
0.0
220
0.0
230
1.0
  2
SOLID
 70
     1
 71
     1
 91
        3
 92
        1
 93
        1
 72
     4
 94
        3
 73
     0
 74
     0
 95
       17
 96
       13
 40
0.0
 40
0.0
 40
0.0
 40
0.0
 40
1.0
 40
1.0
 40
1.0
 40
2.0
 40
2.0
 40
2.0
 40
3.0
 40
3.0
 40
3.0
 40
4.0
 40
4.0
 40
4.0
 40
4.0
 10
91.20011797850207
 20
-156.1568765885649
 10
91.03509790475859
 20
-156.1568765885649
 10
90.95034855582145
 20
-156.2519612239578
 10
90.95034855582145
 20
-156.3873534765282
 10
90.95034855582145
 20
-156.509998875803
 10
91.02235105146316
 20
-156.6285101604956
 10
91.20011797850207
 20
-156.6285101604956
 10
91.37788490554095
 20
-156.6285101604956
 10
91.44988740118266
 20
-156.509998875803
 10
91.44988740118266
 20
-156.3873534765282
 10
91.44988740118266
 20
-156.2519612239578
 10
91.36307099495438
 20
-156.1568765885649
 10
91.20011797850207
 20
-156.1568765885649
 97
        0
 97
        1
330
166
 92
        1
 93
        1
 72
     4
 94
        3
 73
     0
 74
     0
 95
       17
 96
       13
 40
0.0
 40
0.0
 40
0.0
 40
0.0
 40
1.0
 40
1.0
 40
1.0
 40
2.0
 40
2.0
 40
2.0
 40
3.0
 40
3.0
 40
3.0
 40
4.0
 40
4.0
 40
4.0
 40
4.0
 10
91.20011797850207
 20
-156.8169568835388
 10
91.05645749676714
 20
-156.8169568835388
 10
90.90383976677058
 20
-156.9037732897671
 10
90.90383976677058
 20
-157.1066894138483
 10
90.90383976677058
 20
-157.3120171047692
 10
91.03096379017628
 20
-157.4133029120355
 10
91.20011797850207
 20
-157.4133029120355
 10
91.38615313470555
 20
-157.4133029120355
 10
91.49639619023353
 20
-157.2906575127607
 10
91.49639619023353
 20
-157.1128905857217
 10
91.49639619023353
 20
-156.8910264364717
 10
91.33344317378123
 20
-156.8169568835388
 10
91.20011797850207
 20
-156.8169568835388
 97
        0
 97
        1
330
167
 92
        1
 93
        1
 72
     4
 94
        3
 73
     0
 74
     0
 95
       29
 96
       25
 40
0.0
 40
0.0
 40
0.0
 40
0.0
 40
1.0
 40
1.0
 40
1.0
 40
2.0
 40
2.0
 40
2.0
 40
3.0
 40
3.0
 40
3.0
 40
4.0
 40
4.0
 40
4.0
 40
5.0
 40
5.0
 40
5.0
 40
6.0
 40
6.0
 40
6.0
 40
7.0
 40
7.0
 40
7.0
 40
8.0
 40
8.0
 40
8.0
 40
8.0
 10
91.20011797850207
 20
-157.6079508069522
 10
90.93346758794373
 20
-157.6079508069522
 10
90.6795640506808
 20
-157.4704914970907
 10
90.6795640506808
 20
-157.1215033244349
 10
90.6795640506808
 20
-156.8655327298808
 10
90.8215019846731
 20
-156.7704480944879
 10
90.92726641607027
 20
-156.7091253948505
 10
90.80255395950421
 20
-156.6498697525042
 10
90.72641734928021
 20
-156.5354925823939
 10
90.72641734928021
 20
-156.3746066232327
 10
90.72641734928021
 20
-156.0996880035098
 10
90.92519935877913
 20
-155.9642957509395
 10
91.20011797850207
 20
-155.9642957509395
 10
91.48364933693811
 20
-155.9642957509395
 10
91.67416311727244
 20
-156.1083007422229
 10
91.67416311727244
 20
-156.3746066232327
 10
91.67416311727244
 20
-156.5354925823939
 10
91.59561494020874
 20
-156.6498697525042
 10
91.47090248364269
 20
-156.7091253948505
 10
91.55978594716215
 20
-156.7597682984836
 10
91.71860484903216
 20
-156.8548529338765
 10
91.71860484903216
 20
-157.1173692098526
 10
91.71860484903216
 20
-157.4918510890992
 10
91.4392076051784
 20
-157.6079508069522
 10
91.20011797850207
 20
-157.6079508069522
 97
        0
 97
        1
330
168
 75
     2
 76
     1
 98
        1
 10
0.0
 20
0.0
450
        0
451
        0
460
0.0
461
0.0
452
        0
462
0.0
453
        0
470

  0
ENDBLK
  5
165
330
162
100
AcDbEntity
  8
0
100
AcDbBlockEnd
  0
BLOCK
  5
16D
330
16B
100
AcDbEntity
  8
0
100
AcDbBlockBegin
  2
Block_10
 70
     0
 10
0.0
 20
0.0
 30
0.0
  3
Block_10
  1

  0
SPLINE
  5
16F
330
16B
100
AcDbEntity
  8
レイヤー 1
100
AcDbSpline
210
0.0
220
0.0
230
1.0
 70
    11
 71
     3
 72
    26
 73
    22
 74
     0
 42
0.0000000001
 43
0.0000000001
 40
0.0
 40
0.0
 40
0.0
 40
0.0
 40
1.0
 40
1.0
 40
1.0
 40
2.0
 40
2.0
 40
2.0
 40
3.0
 40
3.0
 40
3.0
 40
4.0
 40
4.0
 40
4.0
 40
5.0
 40
5.0
 40
5.0
 40
6.0
 40
6.0
 40
6.0
 40
7.0
 40
7.0
 40
7.0
 40
7.0
 10
97.29655894920018
 20
-149.5343695372692
 30
0.0
 10
97.29655894920018
 20
-149.5343695372692
 30
0.0
 10
97.29655894920018
 20
-148.4300441794723
 30
0.0
 10
97.29655894920018
 20
-148.4300441794723
 30
0.0
 10
97.29655894920018
 20
-148.4300441794723
 30
0.0
 10
96.96651880171323
 20
-148.4300441794723
 30
0.0
 10
96.96651880171323
 20
-148.4300441794723
 30
0.0
 10
96.96651880171323
 20
-148.4300441794723
 30
0.0
 10
96.96651880171323
 20
-148.2819050736066
 30
0.0
 10
96.96651880171323
 20
-148.2819050736066
 30
0.0
 10
97.29862600649132
 20
-148.2672634177943
 30
0.0
 10
97.3451347955422
 20
-148.104310401342
 30
0.0
 10
97.37476261671535
 20
-147.9901054860059
 30
0.0
 10
97.37476261671535
 20
-147.9901054860059
 30
0.0
 10
97.52083466528993
 20
-147.9901054860059
 30
0.0
 10
97.52083466528993
 20
-147.9901054860059
 30
0.0
 10
97.52083466528993
 20
-147.9901054860059
 30
0.0
 10
97.52083466528993
 20
-149.5343695372692
 30
0.0
 10
97.52083466528993
 20
-149.5343695372692
 30
0.0
 10
97.52083466528993
 20
-149.5343695372692
 30
0.0
 10
97.29655894920018
 20
-149.5343695372692
 30
0.0
 10
97.29655894920018
 20
-149.5343695372692
 30
0.0
  0
HATCH
  5
170
330
16B
100
AcDbEntity
  8
レイヤー 1
 62
   250
420
  2299925
440
 33554687
100
AcDbHatch
 10
0.0
 20
0.0
 30
0.0
210
0.0
220
0.0
230
1.0
  2
SOLID
 70
     1
 71
     1
 91
        1
 92
        1
 93
        1
 72
     4
 94
        3
 73
     0
 74
     0
 95
       26
 96
       22
 40
0.0
 40
0.0
 40
0.0
 40
0.0
 40
1.0
 40
1.0
 40
1.0
 40
2.0
 40
2.0
 40
2.0
 40
3.0
 40
3.0
 40
3.0
 40
4.0
 40
4.0
 40
4.0
 40
5.0
 40
5.0
 40
5.0
 40
6.0
 40
6.0
 40
6.0
 40
7.0
 40
7.0
 40
7.0
 40
7.0
 10
97.29655894920018
 20
-149.5343695372692
 10
97.29655894920018
 20
-149.5343695372692
 10
97.29655894920018
 20
-148.4300441794723
 10
97.29655894920018
 20
-148.4300441794723
 10
97.29655894920018
 20
-148.4300441794723
 10
96.96651880171323
 20
-148.4300441794723
 10
96.96651880171323
 20
-148.4300441794723
 10
96.96651880171323
 20
-148.4300441794723
 10
96.96651880171323
 20
-148.2819050736066
 10
96.96651880171323
 20
-148.2819050736066
 10
97.29862600649132
 20
-148.2672634177943
 10
97.3451347955422
 20
-148.104310401342
 10
97.37476261671535
 20
-147.9901054860059
 10
97.37476261671535
 20
-147.9901054860059
 10
97.52083466528993
 20
-147.9901054860059
 10
97.52083466528993
 20
-147.9901054860059
 10
97.52083466528993
 20
-147.9901054860059
 10
97.52083466528993
 20
-149.5343695372692
 10
97.52083466528993
 20
-149.5343695372692
 10
97.52083466528993
 20
-149.5343695372692
 10
97.29655894920018
 20
-149.5343695372692
 10
97.29655894920018
 20
-149.5343695372692
 97
        0
 97
        1
330
16F
 75
     2
 76
     1
 98
        1
 10
0.0
 20
0.0
450
        0
451
        0
460
0.0
461
0.0
452
        0
462
0.0
453
        0
470

  0
ENDBLK
  5
16E
330
16B
100
AcDbEntity
  8
0
100
AcDbBlockEnd
  0
BLOCK
  5
173
330
171
100
AcDbEntity
  8
0
100
AcDbBlockBegin
  2
Block_11
 70
     0
 10
0.0
 20
0.0
 30
0.0
  3
Block_11
  1

  0
INSERT
  5
176
330
171
100
AcDbEntity
  8
レイヤー 1
100
AcDbBlockReference
  2
Block_12
 10
0.0
 20
0.0
 30
0.0
  0
INSERT
  5
17D
330
171
100
AcDbEntity
  8
レイヤー 1
100
AcDbBlockReference
  2
Block_13
 10
0.0
 20
0.0
 30
0.0
  0
ENDBLK
  5
174
330
171
100
AcDbEntity
  8
0
100
AcDbBlockEnd
  0
BLOCK
  5
177
330
175
100
AcDbEntity
  8
0
100
AcDbBlockBegin
  2
Block_12
 70
     0
 10
0.0
 20
0.0
 30
0.0
  3
Block_12
  1

  0
LINE
  5
179
330
175
100
AcDbEntity
  8
レイヤー 1
 62
    18
420
        0
370
     9
100
AcDbLine
 10
106.7483718307619
 20
-147.3101892948908
 30
0.0
 11
107.5596901433968
 21
-147.8948126280782
 31
0.0
  0
LINE
  5
17A
330
175
100
AcDbEntity
  8
レイヤー 1
 62
    18
420
        0
370
     9
100
AcDbLine
 10
106.7483718307619
 20
-147.3101892948908
 30
0.0
 11
109.3260131538897
 21
-150.4672681829905
 31
0.0
  0
LINE
  5
17B
330
175
100
AcDbEntity
  8
レイヤー 1
 62
    18
420
        0
370
     9
100
AcDbLine
 10
106.7483718307619
 20
-147.3101892948908
 30
0.0
 11
107.1586876536272
 21
-148.2222609613295
 31
0.0
  0
ENDBLK
  5
178
330
175
100
AcDbEntity
  8
0
100
AcDbBlockEnd
  0
BLOCK
  5
17E
330
17C
100
AcDbEntity
  8
0
100
AcDbBlockBegin
  2
Block_13
 70
     0
 10
0.0
 20
0.0
 30
0.0
  3
Block_13
  1

  0
INSERT
  5
181
330
17C
100
AcDbEntity
  8
レイヤー 1
100
AcDbBlockReference
  2
Block_14
 10
0.0
 20
0.0
 30
0.0
  0
ENDBLK
  5
17F
330
17C
100
AcDbEntity
  8
0
100
AcDbBlockEnd
  0
BLOCK
  5
182
330
180
100
AcDbEntity
  8
0
100
AcDbBlockBegin
  2
Block_14
 70
     0
 10
0.0
 20
0.0
 30
0.0
  3
Block_14
  1

  0
SPLINE
  5
184
330
180
100
AcDbEntity
  8
レイヤー 1
100
AcDbSpline
210
0.0
220
0.0
230
1.0
 70
     9
 71
     3
 72
    17
 73
    13
 74
     0
 42
0.0000000001
 43
0.0000000001
 40
0.0
 40
0.0
 40
0.0
 40
0.0
 40
1.0
 40
1.0
 40
1.0
 40
2.0
 40
2.0
 40
2.0
 40
3.0
 40
3.0
 40
3.0
 40
4.0
 40
4.0
 40
4.0
 40
4.0
 10
110.9923637960366
 20
-150.9141302791117
 30
0.0
 10
110.9754828281589
 20
-150.9437581002849
 30
0.0
 10
110.9248399245257
 20
-151.0367756783866
 30
0.0
 10
110.9141601285214
 20
-151.0557237035555
 30
0.0
 10
111.1046739088558
 20
-151.1149793459018
 30
0.0
 10
111.1256889913158
 20
-151.1215250273238
 30
0.0
 10
111.1976914869575
 20
-151.1487412816572
 30
0.0
 10
111.252468505173
 20
-151.0622693849775
 30
0.0
 10
111.2758951544727
 20
-150.9881998320446
 30
0.0
 10
111.2907090650592
 20
-150.9141302791117
 30
0.0
 10
111.2907090650592
 20
-150.9141302791117
 30
0.0
 10
110.9923637960366
 20
-150.9141302791117
 30
0.0
 10
110.9923637960366
 20
-150.9141302791117
 30
0.0
  0
SPLINE
  5
185
330
180
100
AcDbEntity
  8
レイヤー 1
100
AcDbSpline
210
0.0
220
0.0
230
1.0
 70
    11
 71
     3
 72
    20
 73
    16
 74
     0
 42
0.0000000001
 43
0.0000000001
 40
0.0
 40
0.0
 40
0.0
 40
0.0
 40
1.0
 40
1.0
 40
1.0
 40
2.0
 40
2.0
 40
2.0
 40
3.0
 40
3.0
 40
3.0
 40
4.0
 40
4.0
 40
4.0
 40
5.0
 40
5.0
 40
5.0
 40
5.0
 10
110.928974039108
 20
-150.0635362038036
 30
0.0
 10
110.928974039108
 20
-150.0635362038036
 30
0.0
 10
110.8972791606437
 20
-150.0635362038036
 30
0.0
 10
110.8972791606437
 20
-150.0635362038036
 30
0.0
 10
110.9437879496946
 20
-150.1630994633273
 30
0.0
 10
110.9754828281589
 20
-150.2433701881336
 30
0.0
 10
111.0092447639143
 20
-150.3704942115393
 30
0.0
 10
111.0092447639143
 20
-150.3704942115393
 30
0.0
 10
111.2166395121264
 20
-150.3704942115393
 30
0.0
 10
111.2166395121264
 20
-150.3704942115393
 30
0.0
 10
111.2483343905907
 20
-150.2774766334376
 30
0.0
 10
111.2717610398904
 20
-150.1927272845004
 30
0.0
 10
111.2948431796416
 20
-150.0635362038036
 30
0.0
 10
111.2948431796416
 20
-150.0635362038036
 30
0.0
 10
110.928974039108
 20
-150.0635362038036
 30
0.0
 10
110.928974039108
 20
-150.0635362038036
 30
0.0
  0
SPLINE
  5
186
330
180
100
AcDbEntity
  8
レイヤー 1
100
AcDbSpline
210
0.0
220
0.0
230
1.0
 70
     9
 71
     3
 72
   242
 73
   238
 74
     0
 42
0.0000000001
 43
0.0000000001
 40
0.0
 40
0.0
 40
0.0
 40
0.0
 40
1.0
 40
1.0
 40
1.0
 40
2.0
 40
2.0
 40
2.0
 40
3.0
 40
3.0
 40
3.0
 40
4.0
 40
4.0
 40
4.0
 40
5.0
 40
5.0
 40
5.0
 40
6.0
 40
6.0
 40
6.0
 40
7.0
 40
7.0
 40
7.0
 40
8.0
 40
8.0
 40
8.0
 40
9.0
 40
9.0
 40
9.0
 40
10.0
 40
10.0
 40
10.0
 40
11.0
 40
11.0
 40
11.0
 40
12.0
 40
12.0
 40
12.0
 40
13.0
 40
13.0
 40
13.0
 40
14.0
 40
14.0
 40
14.0
 40
15.0
 40
15.0
 40
15.0
 40
16.0
 40
16.0
 40
16.0
 40
17.0
 40
17.0
 40
17.0
 40
18.0
 40
18.0
 40
18.0
 40
19.0
 40
19.0
 40
19.0
 40
20.0
 40
20.0
 40
20.0
 40
21.0
 40
21.0
 40
21.0
 40
22.0
 40
22.0
 40
22.0
 40
23.0
 40
23.0
 40
23.0
 40
24.0
 40
24.0
 40
24.0
 40
25.0
 40
25.0
 40
25.0
 40
26.0
 40
26.0
 40
26.0
 40
27.0
 40
27.0
 40
27.0
 40
28.0
 40
28.0
 40
28.0
 40
29.0
 40
29.0
 40
29.0
 40
30.0
 40
30.0
 40
30.0
 40
31.0
 40
31.0
 40
31.0
 40
32.0
 40
32.0
 40
32.0
 40
33.0
 40
33.0
 40
33.0
 40
34.0
 40
34.0
 40
34.0
 40
35.0
 40
35.0
 40
35.0
 40
36.0
 40
36.0
 40
36.0
 40
37.0
 40
37.0
 40
37.0
 40
38.0
 40
38.0
 40
38.0
 40
39.0
 40
39.0
 40
39.0
 40
40.0
 40
40.0
 40
40.0
 40
41.0
 40
41.0
 40
41.0
 40
42.0
 40
42.0
 40
42.0
 40
43.0
 40
43.0
 40
43.0
 40
44.0
 40
44.0
 40
44.0
 40
45.0
 40
45.0
 40
45.0
 40
46.0
 40
46.0
 40
46.0
 40
47.0
 40
47.0
 40
47.0
 40
48.0
 40
48.0
 40
48.0
 40
49.0
 40
49.0
 40
49.0
 40
50.0
 40
50.0
 40
50.0
 40
51.0
 40
51.0
 40
51.0
 40
52.0
 40
52.0
 40
52.0
 40
53.0
 40
53.0
 40
53.0
 40
54.0
 40
54.0
 40
54.0
 40
55.0
 40
55.0
 40
55.0
 40
56.0
 40
56.0
 40
56.0
 40
57.0
 40
57.0
 40
57.0
 40
58.0
 40
58.0
 40
58.0
 40
59.0
 40
59.0
 40
59.0
 40
60.0
 40
60.0
 40
60.0
 40
61.0
 40
61.0
 40
61.0
 40
62.0
 40
62.0
 40
62.0
 40
63.0
 40
63.0
 40
63.0
 40
64.0
 40
64.0
 40
64.0
 40
65.0
 40
65.0
 40
65.0
 40
66.0
 40
66.0
 40
66.0
 40
67.0
 40
67.0
 40
67.0
 40
68.0
 40
68.0
 40
68.0
 40
69.0
 40
69.0
 40
69.0
 40
70.0
 40
70.0
 40
70.0
 40
71.0
 40
71.0
 40
71.0
 40
72.0
 40
72.0
 40
72.0
 40
73.0
 40
73.0
 40
73.0
 40
74.0
 40
74.0
 40
74.0
 40
75.0
 40
75.0
 40
75.0
 40
76.0
 40
76.0
 40
76.0
 40
77.0
 40
77.0
 40
77.0
 40
78.0
 40
78.0
 40
78.0
 40
79.0
 40
79.0
 40
79.0
 40
79.0
 10
111.5573594556176
 20
-150.5289686038608
 30
0.0
 10
111.5573594556176
 20
-150.5289686038608
 30
0.0
 10
111.3034559183547
 20
-150.5289686038608
 30
0.0
 10
111.3034559183547
 20
-150.5289686038608
 30
0.0
 10
111.3034559183547
 20
-150.5289686038608
 30
0.0
 10
111.0261257317921
 20
-150.5289686038608
 30
0.0
 10
111.0261257317921
 20
-150.5289686038608
 30
0.0
 10
111.0261257317921
 20
-150.5289686038608
 30
0.0
 10
111.1532497551978
 20
-150.5713432783293
 30
0.0
 10
111.1532497551978
 20
-150.5713432783293
 30
0.0
 10
111.163929551202
 20
-150.5754773929117
 30
0.0
 10
111.1763318949489
 20
-150.5820230743337
 30
0.0
 10
111.1763318949489
 20
-150.5947699276291
 30
0.0
 10
111.1763318949489
 20
-150.6157850100891
 30
0.0
 10
111.1446370164847
 20
-150.6219861819625
 30
0.0
 10
111.1236219340246
 20
-150.6264648060934
 30
0.0
 10
111.1129421380204
 20
-150.6495469458446
 30
0.0
 10
111.0833143168472
 20
-150.7153482696128
 30
0.0
 10
111.0643662916783
 20
-150.7597900013725
 30
0.0
 10
111.0643662916783
 20
-150.7597900013725
 30
0.0
 10
111.335150796819
 20
-150.7597900013725
 30
0.0
 10
111.335150796819
 20
-150.7597900013725
 30
0.0
 10
111.4261013176296
 20
-150.7597900013725
 30
0.0
 10
111.6228162698373
 20
-150.7553113772417
 30
0.0
 10
111.7644096942811
 20
-150.7470431480771
 30
0.0
 10
111.7644096942811
 20
-150.7470431480771
 30
0.0
 10
111.7644096942811
 20
-150.924810075116
 30
0.0
 10
111.7644096942811
 20
-150.924810075116
 30
0.0
 10
111.6820719121836
 20
-150.9203314509852
 30
0.0
 10
111.6610568297236
 20
-150.9203314509852
 30
0.0
 10
111.4812228453936
 20
-150.9161973364029
 30
0.0
 10
111.4495279669293
 20
-151.0705376141421
 30
0.0
 10
111.4050862351695
 20
-151.1511528484969
 30
0.0
 10
111.3606445034098
 20
-151.220743777299
 30
0.0
 10
111.4812228453936
 20
-151.2799994196453
 30
0.0
 10
111.5869872767907
 20
-151.3478678007047
 30
0.0
 10
111.6906846508967
 20
-151.4302055828022
 30
0.0
 10
111.6906846508967
 20
-151.4302055828022
 30
0.0
 10
111.5721733662041
 20
-151.5972927138368
 30
0.0
 10
111.5721733662041
 20
-151.5972927138368
 30
0.0
 10
111.5487467169045
 20
-151.5783446886679
 30
0.0
 10
111.535999863609
 20
-151.5697319499548
 30
0.0
 10
111.4240342603384
 20
-151.4853271105661
 30
0.0
 10
111.3754584139964
 20
-151.4470865506799
 30
0.0
 10
111.3162027716501
 20
-151.4112575576333
 30
0.0
 10
111.2355875372952
 20
-151.3668158258735
 30
0.0
 10
111.0240586745009
 20
-151.552850982077
 30
0.0
 10
110.8190754931285
 20
-151.5762776313767
 30
0.0
 10
110.5289984532705
 20
-151.6059054525499
 30
0.0
 10
110.5289984532705
 20
-151.6059054525499
 30
0.0
 10
110.4253010791645
 20
-151.4260714682198
 30
0.0
 10
110.4253010791645
 20
-151.4260714682198
 30
0.0
 10
110.7429388829045
 20
-151.4219373536375
 30
0.0
 10
110.9182942431037
 20
-151.3964436470467
 30
0.0
 10
111.0705674635518
 20
-151.2865451010672
 30
0.0
 10
110.9520561788592
 20
-151.2355576878855
 30
0.0
 10
110.8635172248883
 20
-151.2079969240035
 30
0.0
 10
110.8273437222931
 20
-151.1955945802566
 30
0.0
 10
110.8083956971243
 20
-151.2228108345901
 30
0.0
 10
110.7935817865377
 20
-151.2421033693075
 30
0.0
 10
110.7660210226557
 20
-151.275865305063
 30
0.0
 10
110.7660210226557
 20
-151.275865305063
 30
0.0
 10
110.5693060704479
 20
-151.193183013417
 30
0.0
 10
110.5693060704479
 20
-151.193183013417
 30
0.0
 10
110.6516438525454
 20
-151.1129122886106
 30
0.0
 10
110.7133110617314
 20
-151.0178276532178
 30
0.0
 10
110.770155137238
 20
-150.9161973364029
 30
0.0
 10
110.5799858664522
 20
-150.9203314509852
 30
0.0
 10
110.5586262744437
 20
-150.9203314509852
 30
0.0
 10
110.4762884923462
 20
-150.924810075116
 30
0.0
 10
110.4762884923462
 20
-150.924810075116
 30
0.0
 10
110.4762884923462
 20
-150.7470431480771
 30
0.0
 10
110.4762884923462
 20
-150.7470431480771
 30
0.0
 10
110.6158148594988
 20
-150.7532443199506
 30
0.0
 10
110.825276665002
 20
-150.7573784345329
 30
0.0
 10
110.8507703715928
 20
-150.7573784345329
 30
0.0
 10
110.8676513394706
 20
-150.7236164987774
 30
0.0
 10
110.922428357686
 20
-150.6030381567937
 30
0.0
 10
110.9417208924034
 20
-150.5289686038608
 30
0.0
 10
110.922428357686
 20
-150.5289686038608
 30
0.0
 10
110.7450059401957
 20
-150.5355142852828
 30
0.0
 10
110.5503580452791
 20
-150.5482611385782
 30
0.0
 10
110.5503580452791
 20
-150.5482611385782
 30
0.0
 10
110.5503580452791
 20
-150.6812418243088
 30
0.0
 10
110.5503580452791
 20
-150.6812418243088
 30
0.0
 10
110.501782198937
 20
-150.7067355308997
 30
0.0
 10
110.4425265565907
 20
-150.738430409364
 30
0.0
 10
110.3092013613116
 20
-150.8042317331322
 30
0.0
 10
110.3092013613116
 20
-150.8042317331322
 30
0.0
 10
110.3092013613116
 20
-150.9499592721583
 30
0.0
 10
110.3092013613116
 20
-150.9499592721583
 30
0.0
 10
110.3092013613116
 20
-150.9499592721583
 30
0.0
 10
110.3092013613116
 20
-151.4174587295067
 30
0.0
 10
110.3092013613116
 20
-151.4174587295067
 30
0.0
 10
110.3092013613116
 20
-151.5445827529124
 30
0.0
 10
110.2730278587165
 20
-151.6038383952587
 30
0.0
 10
109.9894965002804
 20
-151.5952256565456
 30
0.0
 10
109.9894965002804
 20
-151.5952256565456
 30
0.0
 10
109.8861436357229
 20
-151.3878309083336
 30
0.0
 10
109.8861436357229
 20
-151.3878309083336
 30
0.0
 10
109.9495333926515
 20
-151.400577761629
 30
0.0
 10
109.9981092389935
 20
-151.4050563857598
 30
0.0
 10
110.0384168561709
 20
-151.4050563857598
 30
0.0
 10
110.114553466395
 20
-151.4050563857598
 30
0.0
 10
110.1248887528507
 20
-151.3816297364601
 30
0.0
 10
110.1248887528507
 20
-151.3161729222404
 30
0.0
 10
110.1248887528507
 20
-151.3161729222404
 30
0.0
 10
110.1248887528507
 20
-150.8865695152297
 30
0.0
 10
110.1248887528507
 20
-150.8865695152297
 30
0.0
 10
110.0277370601667
 20
-150.9268771324071
 30
0.0
 10
110.0108560922889
 20
-150.9330783042806
 30
0.0
 10
109.9643473032381
 20
-150.9520263294495
 30
0.0
 10
109.9602131886558
 20
-150.973385921458
 30
0.0
 10
109.9557345645249
 20
-151.0030137426312
 30
0.0
 10
109.9367865393561
 20
-151.0030137426312
 30
0.0
 10
109.9281738006429
 20
-151.0030137426312
 30
0.0
 10
109.9178385141872
 20
-150.9985351185003
 30
0.0
 10
109.9112928327652
 20
-150.9754529787492
 30
0.0
 10
109.9112928327652
 20
-150.9754529787492
 30
0.0
 10
109.8585828718409
 20
-150.7828721411237
 30
0.0
 10
109.8585828718409
 20
-150.7828721411237
 30
0.0
 10
110.004310410867
 20
-150.7363633520728
 30
0.0
 10
110.0701117346352
 20
-150.7132812123217
 30
0.0
 10
110.1248887528507
 20
-150.6919216203131
 30
0.0
 10
110.1248887528507
 20
-150.6919216203131
 30
0.0
 10
110.1248887528507
 20
-150.2795436907287
 30
0.0
 10
110.1248887528507
 20
-150.2795436907287
 30
0.0
 10
110.1248887528507
 20
-150.2795436907287
 30
0.0
 10
110.0721787919264
 20
-150.2795436907287
 30
0.0
 10
110.0721787919264
 20
-150.2795436907287
 30
0.0
 10
110.0721787919264
 20
-150.2795436907287
 30
0.0
 10
109.9939751244112
 20
-150.2795436907287
 30
0.0
 10
109.9939751244112
 20
-150.2795436907287
 30
0.0
 10
109.9261067433518
 20
-150.2795436907287
 30
0.0
 10
109.9178385141872
 20
-150.2795436907287
 30
0.0
 10
109.8816650115921
 20
-150.2857448626022
 30
0.0
 10
109.8816650115921
 20
-150.2857448626022
 30
0.0
 10
109.8816650115921
 20
-150.0910969676855
 30
0.0
 10
109.8816650115921
 20
-150.0910969676855
 30
0.0
 10
109.9092257754741
 20
-150.0976426491075
 30
0.0
 10
109.9178385141872
 20
-150.0976426491075
 30
0.0
 10
109.9874294429892
 20
-150.0976426491075
 30
0.0
 10
109.9874294429892
 20
-150.0976426491075
 30
0.0
 10
110.1207546382684
 20
-150.0976426491075
 30
0.0
 10
110.1207546382684
 20
-150.0976426491075
 30
0.0
 10
110.1207546382684
 20
-150.027707210757
 30
0.0
 10
110.1207546382684
 20
-149.945024919111
 30
0.0
 10
110.1186875809773
 20
-149.9408908045286
 30
0.0
 10
110.1100748422641
 20
-149.7610568201986
 30
0.0
 10
110.1100748422641
 20
-149.7421087950297
 30
0.0
 10
110.108007784973
 20
-149.6956000059789
 30
0.0
 10
110.108007784973
 20
-149.6956000059789
 30
0.0
 10
110.3240152718981
 20
-149.7038682351435
 30
0.0
 10
110.3240152718981
 20
-149.7038682351435
 30
0.0
 10
110.3343505583539
 20
-149.7038682351435
 30
0.0
 10
110.3557101503624
 20
-149.7062798019831
 30
0.0
 10
110.3557101503624
 20
-149.7231607698609
 30
0.0
 10
110.3557101503624
 20
-149.7421087950297
 30
0.0
 10
110.3408962397759
 20
-149.752788591034
 30
0.0
 10
110.315402533185
 20
-149.7717366162029
 30
0.0
 10
110.315402533185
 20
-149.8223795198361
 30
0.0
 10
110.3092013613116
 20
-150.0511338600566
 30
0.0
 10
110.3112684186027
 20
-150.0976426491075
 30
0.0
 10
110.4401149897511
 20
-150.0976426491075
 30
0.0
 10
110.4528618430465
 20
-150.0976426491075
 30
0.0
 10
110.5503580452791
 20
-150.0890299103944
 30
0.0
 10
110.5503580452791
 20
-150.0890299103944
 30
0.0
 10
110.5503580452791
 20
-150.283677805311
 30
0.0
 10
110.5503580452791
 20
-150.283677805311
 30
0.0
 10
110.5121174853928
 20
-150.2816107480199
 30
0.0
 10
110.4445936138819
 20
-150.2774766334376
 30
0.0
 10
110.3092013613116
 20
-150.2795436907287
 30
0.0
 10
110.3092013613116
 20
-150.2795436907287
 30
0.0
 10
110.3092013613116
 20
-150.6178520673802
 30
0.0
 10
110.3092013613116
 20
-150.6178520673802
 30
0.0
 10
110.363978379527
 20
-150.5947699276291
 30
0.0
 10
110.4297797032953
 20
-150.5672091637471
 30
0.0
 10
110.4783555496373
 20
-150.5437825144474
 30
0.0
 10
110.4783555496373
 20
-150.5437825144474
 30
0.0
 10
110.4783555496373
 20
-150.3660155874085
 30
0.0
 10
110.4783555496373
 20
-150.3660155874085
 30
0.0
 10
110.5927327197476
 20
-150.3787624407039
 30
0.0
 10
110.7108994948917
 20
-150.3787624407039
 30
0.0
 10
110.8273437222931
 20
-150.3787624407039
 30
0.0
 10
110.804261582542
 20
-150.283677805311
 30
0.0
 10
110.77670081866
 20
-150.200995513665
 30
0.0
 10
110.7133110617314
 20
-150.0680148279344
 30
0.0
 10
110.6688693299716
 20
-150.0700818852255
 30
0.0
 10
110.5861870383257
 20
-150.0742159998078
 30
0.0
 10
110.5482909879879
 20
-150.076283057099
 30
0.0
 10
110.5482909879879
 20
-150.076283057099
 30
0.0
 10
110.5482909879879
 20
-149.8964490727689
 30
0.0
 10
110.5482909879879
 20
-149.8964490727689
 30
0.0
 10
110.6730034445539
 20
-149.9050618114821
 30
0.0
 10
110.846291747462
 20
-149.9091959260644
 30
0.0
 10
110.928974039108
 20
-149.9091959260644
 30
0.0
 10
110.928974039108
 20
-149.9091959260644
 30
0.0
 10
111.0113118212055
 20
-149.9091959260644
 30
0.0
 10
111.0113118212055
 20
-149.9091959260644
 30
0.0
 10
111.0113118212055
 20
-149.746242909612
 30
0.0
 10
111.0113118212055
 20
-149.7359076231563
 30
0.0
 10
111.0092447639143
 20
-149.6807860953923
 30
0.0
 10
111.0092447639143
 20
-149.6807860953923
 30
0.0
 10
111.2335204800041
 20
-149.7062798019831
 30
0.0
 10
111.2335204800041
 20
-149.7062798019831
 30
0.0
 10
111.2376545945864
 20
-149.7062798019831
 30
0.0
 10
111.2590141865949
 20
-149.7083468592743
 30
0.0
 10
111.2590141865949
 20
-149.725227827152
 30
0.0
 10
111.2590141865949
 20
-149.7400417377386
 30
0.0
 10
111.2483343905907
 20
-149.7483099669032
 30
0.0
 10
111.2207736267087
 20
-149.7631238774898
 30
0.0
 10
111.2145724548352
 20
-149.828925201258
 30
0.0
 10
111.2125053975441
 20
-149.8499402837181
 30
0.0
 10
111.2125053975441
 20
-149.9091959260644
 30
0.0
 10
111.2125053975441
 20
-149.9091959260644
 30
0.0
 10
111.307590032937
 20
-149.9091959260644
 30
0.0
 10
111.307590032937
 20
-149.9091959260644
 30
0.0
 10
111.390272324583
 20
-149.9091959260644
 30
0.0
 10
111.563560627491
 20
-149.9050618114821
 30
0.0
 10
111.6882730840571
 20
-149.8964490727689
 30
0.0
 10
111.6882730840571
 20
-149.8964490727689
 30
0.0
 10
111.6882730840571
 20
-150.076283057099
 30
0.0
 10
111.6882730840571
 20
-150.076283057099
 30
0.0
 10
111.6586452628839
 20
-150.0742159998078
 30
0.0
 10
111.5404784877399
 20
-150.0700818852255
 30
0.0
 10
111.5001708705624
 20
-150.0680148279344
 30
0.0
 10
111.4853569599759
 20
-150.1186577315675
 30
0.0
 10
111.4515950242204
 20
-150.2306233348382
 30
0.0
 10
111.3857937004521
 20
-150.3704942115393
 30
0.0
 10
111.4281683749207
 20
-150.3704942115393
 30
0.0
 10
111.7054985614833
 20
-150.3512016768219
 30
0.0
 10
111.7668212611208
 20
-150.3491346195308
 30
0.0
 10
111.7668212611208
 20
-150.3491346195308
 30
0.0
 10
111.7668212611208
 20
-150.5334472279916
 30
0.0
 10
111.7668212611208
 20
-150.5334472279916
 30
0.0
 10
111.7371934399476
 20
-150.5334472279916
 30
0.0
 10
111.7203124720699
 20
-150.5289686038608
 30
0.0
 10
111.5573594556176
 20
-150.5289686038608
 30
0.0
  0
HATCH
  5
187
330
180
100
AcDbEntity
  8
レイヤー 1
 62
    18
420
        0
440
 33554687
100
AcDbHatch
 10
0.0
 20
0.0
 30
0.0
210
0.0
220
0.0
230
1.0
  2
SOLID
 70
     1
 71
     1
 91
        3
 92
        1
 93
        1
 72
     4
 94
        3
 73
     0
 74
     0
 95
       17
 96
       13
 40
0.0
 40
0.0
 40
0.0
 40
0.0
 40
1.0
 40
1.0
 40
1.0
 40
2.0
 40
2.0
 40
2.0
 40
3.0
 40
3.0
 40
3.0
 40
4.0
 40
4.0
 40
4.0
 40
4.0
 10
110.9923637960366
 20
-150.9141302791117
 10
110.9754828281589
 20
-150.9437581002849
 10
110.9248399245257
 20
-151.0367756783866
 10
110.9141601285214
 20
-151.0557237035555
 10
111.1046739088558
 20
-151.1149793459018
 10
111.1256889913158
 20
-151.1215250273238
 10
111.1976914869575
 20
-151.1487412816572
 10
111.252468505173
 20
-151.0622693849775
 10
111.2758951544727
 20
-150.9881998320446
 10
111.2907090650592
 20
-150.9141302791117
 10
111.2907090650592
 20
-150.9141302791117
 10
110.9923637960366
 20
-150.9141302791117
 10
110.9923637960366
 20
-150.9141302791117
 97
        0
 97
        1
330
184
 92
        1
 93
        1
 72
     4
 94
        3
 73
     0
 74
     0
 95
       20
 96
       16
 40
0.0
 40
0.0
 40
0.0
 40
0.0
 40
1.0
 40
1.0
 40
1.0
 40
2.0
 40
2.0
 40
2.0
 40
3.0
 40
3.0
 40
3.0
 40
4.0
 40
4.0
 40
4.0
 40
5.0
 40
5.0
 40
5.0
 40
5.0
 10
110.928974039108
 20
-150.0635362038036
 10
110.928974039108
 20
-150.0635362038036
 10
110.8972791606437
 20
-150.0635362038036
 10
110.8972791606437
 20
-150.0635362038036
 10
110.9437879496946
 20
-150.1630994633273
 10
110.9754828281589
 20
-150.2433701881336
 10
111.0092447639143
 20
-150.3704942115393
 10
111.0092447639143
 20
-150.3704942115393
 10
111.2166395121264
 20
-150.3704942115393
 10
111.2166395121264
 20
-150.3704942115393
 10
111.2483343905907
 20
-150.2774766334376
 10
111.2717610398904
 20
-150.1927272845004
 10
111.2948431796416
 20
-150.0635362038036
 10
111.2948431796416
 20
-150.0635362038036
 10
110.928974039108
 20
-150.0635362038036
 10
110.928974039108
 20
-150.0635362038036
 97
        0
 97
        1
330
185
 92
        1
 93
        1
 72
     4
 94
        3
 73
     0
 74
     0
 95
      242
 96
      238
 40
0.0
 40
0.0
 40
0.0
 40
0.0
 40
1.0
 40
1.0
 40
1.0
 40
2.0
 40
2.0
 40
2.0
 40
3.0
 40
3.0
 40
3.0
 40
4.0
 40
4.0
 40
4.0
 40
5.0
 40
5.0
 40
5.0
 40
6.0
 40
6.0
 40
6.0
 40
7.0
 40
7.0
 40
7.0
 40
8.0
 40
8.0
 40
8.0
 40
9.0
 40
9.0
 40
9.0
 40
10.0
 40
10.0
 40
10.0
 40
11.0
 40
11.0
 40
11.0
 40
12.0
 40
12.0
 40
12.0
 40
13.0
 40
13.0
 40
13.0
 40
14.0
 40
14.0
 40
14.0
 40
15.0
 40
15.0
 40
15.0
 40
16.0
 40
16.0
 40
16.0
 40
17.0
 40
17.0
 40
17.0
 40
18.0
 40
18.0
 40
18.0
 40
19.0
 40
19.0
 40
19.0
 40
20.0
 40
20.0
 40
20.0
 40
21.0
 40
21.0
 40
21.0
 40
22.0
 40
22.0
 40
22.0
 40
23.0
 40
23.0
 40
23.0
 40
24.0
 40
24.0
 40
24.0
 40
25.0
 40
25.0
 40
25.0
 40
26.0
 40
26.0
 40
26.0
 40
27.0
 40
27.0
 40
27.0
 40
28.0
 40
28.0
 40
28.0
 40
29.0
 40
29.0
 40
29.0
 40
30.0
 40
30.0
 40
30.0
 40
31.0
 40
31.0
 40
31.0
 40
32.0
 40
32.0
 40
32.0
 40
33.0
 40
33.0
 40
33.0
 40
34.0
 40
34.0
 40
34.0
 40
35.0
 40
35.0
 40
35.0
 40
36.0
 40
36.0
 40
36.0
 40
37.0
 40
37.0
 40
37.0
 40
38.0
 40
38.0
 40
38.0
 40
39.0
 40
39.0
 40
39.0
 40
40.0
 40
40.0
 40
40.0
 40
41.0
 40
41.0
 40
41.0
 40
42.0
 40
42.0
 40
42.0
 40
43.0
 40
43.0
 40
43.0
 40
44.0
 40
44.0
 40
44.0
 40
45.0
 40
45.0
 40
45.0
 40
46.0
 40
46.0
 40
46.0
 40
47.0
 40
47.0
 40
47.0
 40
48.0
 40
48.0
 40
48.0
 40
49.0
 40
49.0
 40
49.0
 40
50.0
 40
50.0
 40
50.0
 40
51.0
 40
51.0
 40
51.0
 40
52.0
 40
52.0
 40
52.0
 40
53.0
 40
53.0
 40
53.0
 40
54.0
 40
54.0
 40
54.0
 40
55.0
 40
55.0
 40
55.0
 40
56.0
 40
56.0
 40
56.0
 40
57.0
 40
57.0
 40
57.0
 40
58.0
 40
58.0
 40
58.0
 40
59.0
 40
59.0
 40
59.0
 40
60.0
 40
60.0
 40
60.0
 40
61.0
 40
61.0
 40
61.0
 40
62.0
 40
62.0
 40
62.0
 40
63.0
 40
63.0
 40
63.0
 40
64.0
 40
64.0
 40
64.0
 40
65.0
 40
65.0
 40
65.0
 40
66.0
 40
66.0
 40
66.0
 40
67.0
 40
67.0
 40
67.0
 40
68.0
 40
68.0
 40
68.0
 40
69.0
 40
69.0
 40
69.0
 40
70.0
 40
70.0
 40
70.0
 40
71.0
 40
71.0
 40
71.0
 40
72.0
 40
72.0
 40
72.0
 40
73.0
 40
73.0
 40
73.0
 40
74.0
 40
74.0
 40
74.0
 40
75.0
 40
75.0
 40
75.0
 40
76.0
 40
76.0
 40
76.0
 40
77.0
 40
77.0
 40
77.0
 40
78.0
 40
78.0
 40
78.0
 40
79.0
 40
79.0
 40
79.0
 40
79.0
 10
111.5573594556176
 20
-150.5289686038608
 10
111.5573594556176
 20
-150.5289686038608
 10
111.3034559183547
 20
-150.5289686038608
 10
111.3034559183547
 20
-150.5289686038608
 10
111.3034559183547
 20
-150.5289686038608
 10
111.0261257317921
 20
-150.5289686038608
 10
111.0261257317921
 20
-150.5289686038608
 10
111.0261257317921
 20
-150.5289686038608
 10
111.1532497551978
 20
-150.5713432783293
 10
111.1532497551978
 20
-150.5713432783293
 10
111.163929551202
 20
-150.5754773929117
 10
111.1763318949489
 20
-150.5820230743337
 10
111.1763318949489
 20
-150.5947699276291
 10
111.1763318949489
 20
-150.6157850100891
 10
111.1446370164847
 20
-150.6219861819625
 10
111.1236219340246
 20
-150.6264648060934
 10
111.1129421380204
 20
-150.6495469458446
 10
111.0833143168472
 20
-150.7153482696128
 10
111.0643662916783
 20
-150.7597900013725
 10
111.0643662916783
 20
-150.7597900013725
 10
111.335150796819
 20
-150.7597900013725
 10
111.335150796819
 20
-150.7597900013725
 10
111.4261013176296
 20
-150.7597900013725
 10
111.6228162698373
 20
-150.7553113772417
 10
111.7644096942811
 20
-150.7470431480771
 10
111.7644096942811
 20
-150.7470431480771
 10
111.7644096942811
 20
-150.924810075116
 10
111.7644096942811
 20
-150.924810075116
 10
111.6820719121836
 20
-150.9203314509852
 10
111.6610568297236
 20
-150.9203314509852
 10
111.4812228453936
 20
-150.9161973364029
 10
111.4495279669293
 20
-151.0705376141421
 10
111.4050862351695
 20
-151.1511528484969
 10
111.3606445034098
 20
-151.220743777299
 10
111.4812228453936
 20
-151.2799994196453
 10
111.5869872767907
 20
-151.3478678007047
 10
111.6906846508967
 20
-151.4302055828022
 10
111.6906846508967
 20
-151.4302055828022
 10
111.5721733662041
 20
-151.5972927138368
 10
111.5721733662041
 20
-151.5972927138368
 10
111.5487467169045
 20
-151.5783446886679
 10
111.535999863609
 20
-151.5697319499548
 10
111.4240342603384
 20
-151.4853271105661
 10
111.3754584139964
 20
-151.4470865506799
 10
111.3162027716501
 20
-151.4112575576333
 10
111.2355875372952
 20
-151.3668158258735
 10
111.0240586745009
 20
-151.552850982077
 10
110.8190754931285
 20
-151.5762776313767
 10
110.5289984532705
 20
-151.6059054525499
 10
110.5289984532705
 20
-151.6059054525499
 10
110.4253010791645
 20
-151.4260714682198
 10
110.4253010791645
 20
-151.4260714682198
 10
110.7429388829045
 20
-151.4219373536375
 10
110.9182942431037
 20
-151.3964436470467
 10
111.0705674635518
 20
-151.2865451010672
 10
110.9520561788592
 20
-151.2355576878855
 10
110.8635172248883
 20
-151.2079969240035
 10
110.8273437222931
 20
-151.1955945802566
 10
110.8083956971243
 20
-151.2228108345901
 10
110.7935817865377
 20
-151.2421033693075
 10
110.7660210226557
 20
-151.275865305063
 10
110.7660210226557
 20
-151.275865305063
 10
110.5693060704479
 20
-151.193183013417
 10
110.5693060704479
 20
-151.193183013417
 10
110.6516438525454
 20
-151.1129122886106
 10
110.7133110617314
 20
-151.0178276532178
 10
110.770155137238
 20
-150.9161973364029
 10
110.5799858664522
 20
-150.9203314509852
 10
110.5586262744437
 20
-150.9203314509852
 10
110.4762884923462
 20
-150.924810075116
 10
110.4762884923462
 20
-150.924810075116
 10
110.4762884923462
 20
-150.7470431480771
 10
110.4762884923462
 20
-150.7470431480771
 10
110.6158148594988
 20
-150.7532443199506
 10
110.825276665002
 20
-150.7573784345329
 10
110.8507703715928
 20
-150.7573784345329
 10
110.8676513394706
 20
-150.7236164987774
 10
110.922428357686
 20
-150.6030381567937
 10
110.9417208924034
 20
-150.5289686038608
 10
110.922428357686
 20
-150.5289686038608
 10
110.7450059401957
 20
-150.5355142852828
 10
110.5503580452791
 20
-150.5482611385782
 10
110.5503580452791
 20
-150.5482611385782
 10
110.5503580452791
 20
-150.6812418243088
 10
110.5503580452791
 20
-150.6812418243088
 10
110.501782198937
 20
-150.7067355308997
 10
110.4425265565907
 20
-150.738430409364
 10
110.3092013613116
 20
-150.8042317331322
 10
110.3092013613116
 20
-150.8042317331322
 10
110.3092013613116
 20
-150.9499592721583
 10
110.3092013613116
 20
-150.9499592721583
 10
110.3092013613116
 20
-150.9499592721583
 10
110.3092013613116
 20
-151.4174587295067
 10
110.3092013613116
 20
-151.4174587295067
 10
110.3092013613116
 20
-151.5445827529124
 10
110.2730278587165
 20
-151.6038383952587
 10
109.9894965002804
 20
-151.5952256565456
 10
109.9894965002804
 20
-151.5952256565456
 10
109.8861436357229
 20
-151.3878309083336
 10
109.8861436357229
 20
-151.3878309083336
 10
109.9495333926515
 20
-151.400577761629
 10
109.9981092389935
 20
-151.4050563857598
 10
110.0384168561709
 20
-151.4050563857598
 10
110.114553466395
 20
-151.4050563857598
 10
110.1248887528507
 20
-151.3816297364601
 10
110.1248887528507
 20
-151.3161729222404
 10
110.1248887528507
 20
-151.3161729222404
 10
110.1248887528507
 20
-150.8865695152297
 10
110.1248887528507
 20
-150.8865695152297
 10
110.0277370601667
 20
-150.9268771324071
 10
110.0108560922889
 20
-150.9330783042806
 10
109.9643473032381
 20
-150.9520263294495
 10
109.9602131886558
 20
-150.973385921458
 10
109.9557345645249
 20
-151.0030137426312
 10
109.9367865393561
 20
-151.0030137426312
 10
109.9281738006429
 20
-151.0030137426312
 10
109.9178385141872
 20
-150.9985351185003
 10
109.9112928327652
 20
-150.9754529787492
 10
109.9112928327652
 20
-150.9754529787492
 10
109.8585828718409
 20
-150.7828721411237
 10
109.8585828718409
 20
-150.7828721411237
 10
110.004310410867
 20
-150.7363633520728
 10
110.0701117346352
 20
-150.7132812123217
 10
110.1248887528507
 20
-150.6919216203131
 10
110.1248887528507
 20
-150.6919216203131
 10
110.1248887528507
 20
-150.2795436907287
 10
110.1248887528507
 20
-150.2795436907287
 10
110.1248887528507
 20
-150.2795436907287
 10
110.0721787919264
 20
-150.2795436907287
 10
110.0721787919264
 20
-150.2795436907287
 10
110.0721787919264
 20
-150.2795436907287
 10
109.9939751244112
 20
-150.2795436907287
 10
109.9939751244112
 20
-150.2795436907287
 10
109.9261067433518
 20
-150.2795436907287
 10
109.9178385141872
 20
-150.2795436907287
 10
109.8816650115921
 20
-150.2857448626022
 10
109.8816650115921
 20
-150.2857448626022
 10
109.8816650115921
 20
-150.0910969676855
 10
109.8816650115921
 20
-150.0910969676855
 10
109.9092257754741
 20
-150.0976426491075
 10
109.9178385141872
 20
-150.0976426491075
 10
109.9874294429892
 20
-150.0976426491075
 10
109.9874294429892
 20
-150.0976426491075
 10
110.1207546382684
 20
-150.0976426491075
 10
110.1207546382684
 20
-150.0976426491075
 10
110.1207546382684
 20
-150.027707210757
 10
110.1207546382684
 20
-149.945024919111
 10
110.1186875809773
 20
-149.9408908045286
 10
110.1100748422641
 20
-149.7610568201986
 10
110.1100748422641
 20
-149.7421087950297
 10
110.108007784973
 20
-149.6956000059789
 10
110.108007784973
 20
-149.6956000059789
 10
110.3240152718981
 20
-149.7038682351435
 10
110.3240152718981
 20
-149.7038682351435
 10
110.3343505583539
 20
-149.7038682351435
 10
110.3557101503624
 20
-149.7062798019831
 10
110.3557101503624
 20
-149.7231607698609
 10
110.3557101503624
 20
-149.7421087950297
 10
110.3408962397759
 20
-149.752788591034
 10
110.315402533185
 20
-149.7717366162029
 10
110.315402533185
 20
-149.8223795198361
 10
110.3092013613116
 20
-150.0511338600566
 10
110.3112684186027
 20
-150.0976426491075
 10
110.4401149897511
 20
-150.0976426491075
 10
110.4528618430465
 20
-150.0976426491075
 10
110.5503580452791
 20
-150.0890299103944
 10
110.5503580452791
 20
-150.0890299103944
 10
110.5503580452791
 20
-150.283677805311
 10
110.5503580452791
 20
-150.283677805311
 10
110.5121174853928
 20
-150.2816107480199
 10
110.4445936138819
 20
-150.2774766334376
 10
110.3092013613116
 20
-150.2795436907287
 10
110.3092013613116
 20
-150.2795436907287
 10
110.3092013613116
 20
-150.6178520673802
 10
110.3092013613116
 20
-150.6178520673802
 10
110.363978379527
 20
-150.5947699276291
 10
110.4297797032953
 20
-150.5672091637471
 10
110.4783555496373
 20
-150.5437825144474
 10
110.4783555496373
 20
-150.5437825144474
 10
110.4783555496373
 20
-150.3660155874085
 10
110.4783555496373
 20
-150.3660155874085
 10
110.5927327197476
 20
-150.3787624407039
 10
110.7108994948917
 20
-150.3787624407039
 10
110.8273437222931
 20
-150.3787624407039
 10
110.804261582542
 20
-150.283677805311
 10
110.77670081866
 20
-150.200995513665
 10
110.7133110617314
 20
-150.0680148279344
 10
110.6688693299716
 20
-150.0700818852255
 10
110.5861870383257
 20
-150.0742159998078
 10
110.5482909879879
 20
-150.076283057099
 10
110.5482909879879
 20
-150.076283057099
 10
110.5482909879879
 20
-149.8964490727689
 10
110.5482909879879
 20
-149.8964490727689
 10
110.6730034445539
 20
-149.9050618114821
 10
110.846291747462
 20
-149.9091959260644
 10
110.928974039108
 20
-149.9091959260644
 10
110.928974039108
 20
-149.9091959260644
 10
111.0113118212055
 20
-149.9091959260644
 10
111.0113118212055
 20
-149.9091959260644
 10
111.0113118212055
 20
-149.746242909612
 10
111.0113118212055
 20
-149.7359076231563
 10
111.0092447639143
 20
-149.6807860953923
 10
111.0092447639143
 20
-149.6807860953923
 10
111.2335204800041
 20
-149.7062798019831
 10
111.2335204800041
 20
-149.7062798019831
 10
111.2376545945864
 20
-149.7062798019831
 10
111.2590141865949
 20
-149.7083468592743
 10
111.2590141865949
 20
-149.725227827152
 10
111.2590141865949
 20
-149.7400417377386
 10
111.2483343905907
 20
-149.7483099669032
 10
111.2207736267087
 20
-149.7631238774898
 10
111.2145724548352
 20
-149.828925201258
 10
111.2125053975441
 20
-149.8499402837181
 10
111.2125053975441
 20
-149.9091959260644
 10
111.2125053975441
 20
-149.9091959260644
 10
111.307590032937
 20
-149.9091959260644
 10
111.307590032937
 20
-149.9091959260644
 10
111.390272324583
 20
-149.9091959260644
 10
111.563560627491
 20
-149.9050618114821
 10
111.6882730840571
 20
-149.8964490727689
 10
111.6882730840571
 20
-149.8964490727689
 10
111.6882730840571
 20
-150.076283057099
 10
111.6882730840571
 20
-150.076283057099
 10
111.6586452628839
 20
-150.0742159998078
 10
111.5404784877399
 20
-150.0700818852255
 10
111.5001708705624
 20
-150.0680148279344
 10
111.4853569599759
 20
-150.1186577315675
 10
111.4515950242204
 20
-150.2306233348382
 10
111.3857937004521
 20
-150.3704942115393
 10
111.4281683749207
 20
-150.3704942115393
 10
111.7054985614833
 20
-150.3512016768219
 10
111.7668212611208
 20
-150.3491346195308
 10
111.7668212611208
 20
-150.3491346195308
 10
111.7668212611208
 20
-150.5334472279916
 10
111.7668212611208
 20
-150.5334472279916
 10
111.7371934399476
 20
-150.5334472279916
 10
111.7203124720699
 20
-150.5289686038608
 10
111.5573594556176
 20
-150.5289686038608
 97
        0
 97
        1
330
186
 75
     2
 76
     1
 98
        1
 10
0.0
 20
0.0
450
        0
451
        0
460
0.0
461
0.0
452
        0
462
0.0
453
        0
470

  0
SPLINE
  5
188
330
180
100
AcDbEntity
  8
レイヤー 1
100
AcDbSpline
210
0.0
220
0.0
230
1.0
 70
    11
 71
     3
 72
    17
 73
    13
 74
     0
 42
0.0000000001
 43
0.0000000001
 40
0.0
 40
0.0
 40
0.0
 40
0.0
 40
1.0
 40
1.0
 40
1.0
 40
2.0
 40
2.0
 40
2.0
 40
3.0
 40
3.0
 40
3.0
 40
4.0
 40
4.0
 40
4.0
 40
4.0
 10
113.4135769030702
 20
-151.3285752659873
 30
0.0
 10
113.4135769030702
 20
-151.3285752659873
 30
0.0
 10
112.7069878190455
 20
-151.3285752659873
 30
0.0
 10
112.7069878190455
 20
-151.3285752659873
 30
0.0
 10
112.7069878190455
 20
-151.3285752659873
 30
0.0
 10
112.7069878190455
 20
-151.4429524360976
 30
0.0
 10
112.7069878190455
 20
-151.4429524360976
 30
0.0
 10
112.7069878190455
 20
-151.4429524360976
 30
0.0
 10
113.4135769030702
 20
-151.4429524360976
 30
0.0
 10
113.4135769030702
 20
-151.4429524360976
 30
0.0
 10
113.4135769030702
 20
-151.4429524360976
 30
0.0
 10
113.4135769030702
 20
-151.3285752659873
 30
0.0
 10
113.4135769030702
 20
-151.3285752659873
 30
0.0
  0
SPLINE
  5
189
330
180
100
AcDbEntity
  8
レイヤー 1
100
AcDbSpline
210
0.0
220
0.0
230
1.0
 70
    11
 71
     3
 72
    17
 73
    13
 74
     0
 42
0.0000000001
 43
0.0000000001
 40
0.0
 40
0.0
 40
0.0
 40
0.0
 40
1.0
 40
1.0
 40
1.0
 40
2.0
 40
2.0
 40
2.0
 40
3.0
 40
3.0
 40
3.0
 40
4.0
 40
4.0
 40
4.0
 40
4.0
 10
113.4135769030702
 20
-151.0853515247287
 30
0.0
 10
113.4135769030702
 20
-151.0853515247287
 30
0.0
 10
112.7069878190455
 20
-151.0853515247287
 30
0.0
 10
112.7069878190455
 20
-151.0853515247287
 30
0.0
 10
112.7069878190455
 20
-151.0853515247287
 30
0.0
 10
112.7069878190455
 20
-151.1997286948389
 30
0.0
 10
112.7069878190455
 20
-151.1997286948389
 30
0.0
 10
112.7069878190455
 20
-151.1997286948389
 30
0.0
 10
113.4135769030702
 20
-151.1997286948389
 30
0.0
 10
113.4135769030702
 20
-151.1997286948389
 30
0.0
 10
113.4135769030702
 20
-151.1997286948389
 30
0.0
 10
113.4135769030702
 20
-151.0853515247287
 30
0.0
 10
113.4135769030702
 20
-151.0853515247287
 30
0.0
  0
SPLINE
  5
18A
330
180
100
AcDbEntity
  8
レイヤー 1
100
AcDbSpline
210
0.0
220
0.0
230
1.0
 70
    11
 71
     3
 72
    17
 73
    13
 74
     0
 42
0.0000000001
 43
0.0000000001
 40
0.0
 40
0.0
 40
0.0
 40
0.0
 40
1.0
 40
1.0
 40
1.0
 40
2.0
 40
2.0
 40
2.0
 40
3.0
 40
3.0
 40
3.0
 40
4.0
 40
4.0
 40
4.0
 40
4.0
 10
113.4135769030702
 20
-150.8528075794743
 30
0.0
 10
113.4135769030702
 20
-150.8528075794743
 30
0.0
 10
112.7069878190455
 20
-150.8528075794743
 30
0.0
 10
112.7069878190455
 20
-150.8528075794743
 30
0.0
 10
112.7069878190455
 20
-150.8528075794743
 30
0.0
 10
112.7069878190455
 20
-150.9606390681626
 30
0.0
 10
112.7069878190455
 20
-150.9606390681626
 30
0.0
 10
112.7069878190455
 20
-150.9606390681626
 30
0.0
 10
113.4135769030702
 20
-150.9606390681626
 30
0.0
 10
113.4135769030702
 20
-150.9606390681626
 30
0.0
 10
113.4135769030702
 20
-150.9606390681626
 30
0.0
 10
113.4135769030702
 20
-150.8528075794743
 30
0.0
 10
113.4135769030702
 20
-150.8528075794743
 30
0.0
  0
SPLINE
  5
18B
330
180
100
AcDbEntity
  8
レイヤー 1
100
AcDbSpline
210
0.0
220
0.0
230
1.0
 70
     9
 71
     3
 72
   203
 73
   199
 74
     0
 42
0.0000000001
 43
0.0000000001
 40
0.0
 40
0.0
 40
0.0
 40
0.0
 40
1.0
 40
1.0
 40
1.0
 40
2.0
 40
2.0
 40
2.0
 40
3.0
 40
3.0
 40
3.0
 40
4.0
 40
4.0
 40
4.0
 40
5.0
 40
5.0
 40
5.0
 40
6.0
 40
6.0
 40
6.0
 40
7.0
 40
7.0
 40
7.0
 40
8.0
 40
8.0
 40
8.0
 40
9.0
 40
9.0
 40
9.0
 40
10.0
 40
10.0
 40
10.0
 40
11.0
 40
11.0
 40
11.0
 40
12.0
 40
12.0
 40
12.0
 40
13.0
 40
13.0
 40
13.0
 40
14.0
 40
14.0
 40
14.0
 40
15.0
 40
15.0
 40
15.0
 40
16.0
 40
16.0
 40
16.0
 40
17.0
 40
17.0
 40
17.0
 40
18.0
 40
18.0
 40
18.0
 40
19.0
 40
19.0
 40
19.0
 40
20.0
 40
20.0
 40
20.0
 40
21.0
 40
21.0
 40
21.0
 40
22.0
 40
22.0
 40
22.0
 40
23.0
 40
23.0
 40
23.0
 40
24.0
 40
24.0
 40
24.0
 40
25.0
 40
25.0
 40
25.0
 40
26.0
 40
26.0
 40
26.0
 40
27.0
 40
27.0
 40
27.0
 40
28.0
 40
28.0
 40
28.0
 40
29.0
 40
29.0
 40
29.0
 40
30.0
 40
30.0
 40
30.0
 40
31.0
 40
31.0
 40
31.0
 40
32.0
 40
32.0
 40
32.0
 40
33.0
 40
33.0
 40
33.0
 40
34.0
 40
34.0
 40
34.0
 40
35.0
 40
35.0
 40
35.0
 40
36.0
 40
36.0
 40
36.0
 40
37.0
 40
37.0
 40
37.0
 40
38.0
 40
38.0
 40
38.0
 40
39.0
 40
39.0
 40
39.0
 40
40.0
 40
40.0
 40
40.0
 40
41.0
 40
41.0
 40
41.0
 40
42.0
 40
42.0
 40
42.0
 40
43.0
 40
43.0
 40
43.0
 40
44.0
 40
44.0
 40
44.0
 40
45.0
 40
45.0
 40
45.0
 40
46.0
 40
46.0
 40
46.0
 40
47.0
 40
47.0
 40
47.0
 40
48.0
 40
48.0
 40
48.0
 40
49.0
 40
49.0
 40
49.0
 40
50.0
 40
50.0
 40
50.0
 40
51.0
 40
51.0
 40
51.0
 40
52.0
 40
52.0
 40
52.0
 40
53.0
 40
53.0
 40
53.0
 40
54.0
 40
54.0
 40
54.0
 40
55.0
 40
55.0
 40
55.0
 40
56.0
 40
56.0
 40
56.0
 40
57.0
 40
57.0
 40
57.0
 40
58.0
 40
58.0
 40
58.0
 40
59.0
 40
59.0
 40
59.0
 40
60.0
 40
60.0
 40
60.0
 40
61.0
 40
61.0
 40
61.0
 40
62.0
 40
62.0
 40
62.0
 40
63.0
 40
63.0
 40
63.0
 40
64.0
 40
64.0
 40
64.0
 40
65.0
 40
65.0
 40
65.0
 40
66.0
 40
66.0
 40
66.0
 40
66.0
 10
113.2485568293267
 20
-150.5968369849202
 30
0.0
 10
113.2485568293267
 20
-150.5968369849202
 30
0.0
 10
112.6901068511677
 20
-150.5968369849202
 30
0.0
 10
112.6901068511677
 20
-150.5968369849202
 30
0.0
 10
112.679771564712
 20
-150.64127871668
 30
0.0
 10
112.6711588259989
 20
-150.6729735951442
 30
0.0
 10
112.6584119727034
 20
-150.710869645482
 30
0.0
 10
112.6839056792943
 20
-150.710869645482
 30
0.0
 10
112.6987195898809
 20
-150.7132812123217
 30
0.0
 10
112.7049207617543
 20
-150.7132812123217
 30
0.0
 10
112.7049207617543
 20
-150.7132812123217
 30
0.0
 10
112.8933674847975
 20
-150.7132812123217
 30
0.0
 10
112.8933674847975
 20
-150.7132812123217
 30
0.0
 10
112.8933674847975
 20
-150.7132812123217
 30
0.0
 10
113.2678493640441
 20
-150.7132812123217
 30
0.0
 10
113.2678493640441
 20
-150.7132812123217
 30
0.0
 10
113.3184922676773
 20
-150.7132812123217
 30
0.0
 10
113.6020236261134
 20
-150.7005343590262
 30
0.0
 10
113.6337185045777
 20
-150.7005343590262
 30
0.0
 10
113.6316514472865
 20
-150.7277506133597
 30
0.0
 10
113.6295843899954
 20
-150.7470431480771
 30
0.0
 10
113.6295843899954
 20
-150.7766709692503
 30
0.0
 10
113.6275173327042
 20
-150.8083658477145
 30
0.0
 10
113.6275173327042
 20
-150.9437581002849
 30
0.0
 10
113.6275173327042
 20
-150.9713188641669
 30
0.0
 10
113.6275173327042
 20
-150.9713188641669
 30
0.0
 10
113.6275173327042
 20
-151.2166096627167
 30
0.0
 10
113.6275173327042
 20
-151.2166096627167
 30
0.0
 10
113.6275173327042
 20
-151.2610513944764
 30
0.0
 10
113.6316514472865
 20
-151.4577663466841
 30
0.0
 10
113.6357855618688
 20
-151.6100395671322
 30
0.0
 10
113.6357855618688
 20
-151.6100395671322
 30
0.0
 10
113.4094427884879
 20
-151.6100395671322
 30
0.0
 10
113.4094427884879
 20
-151.6100395671322
 30
0.0
 10
113.4094427884879
 20
-151.6100395671322
 30
0.0
 10
113.411509845779
 20
-151.5762776313767
 30
0.0
 10
113.411509845779
 20
-151.5762776313767
 30
0.0
 10
113.411509845779
 20
-151.5762776313767
 30
0.0
 10
112.7093993858851
 20
-151.5762776313767
 30
0.0
 10
112.7093993858851
 20
-151.5762776313767
 30
0.0
 10
112.7093993858851
 20
-151.5762776313767
 30
0.0
 10
112.7114664431763
 20
-151.6100395671322
 30
0.0
 10
112.7114664431763
 20
-151.6100395671322
 30
0.0
 10
112.7114664431763
 20
-151.6100395671322
 30
0.0
 10
112.49339189896
 20
-151.6100395671322
 30
0.0
 10
112.49339189896
 20
-151.6100395671322
 30
0.0
 10
112.4975260135423
 20
-151.5549180393682
 30
0.0
 10
112.4975260135423
 20
-151.5425156956213
 30
0.0
 10
112.5040716949643
 20
-151.428138525511
 30
0.0
 10
112.5061387522554
 20
-151.400577761629
 30
0.0
 10
112.5082058095465
 20
-151.2672525663498
 30
0.0
 10
112.5082058095465
 20
-151.248304541181
 30
0.0
 10
112.5082058095465
 20
-151.248304541181
 30
0.0
 10
112.5082058095465
 20
-151.0453884170997
 30
0.0
 10
112.5082058095465
 20
-151.0453884170997
 30
0.0
 10
112.3686794423939
 20
-151.2948133302318
 30
0.0
 10
112.1995252540681
 20
-151.4260714682198
 30
0.0
 10
112.093760822671
 20
-151.4915282824396
 30
0.0
 10
112.093760822671
 20
-151.4915282824396
 30
0.0
 10
111.9201280102144
 20
-151.352001915287
 30
0.0
 10
111.9201280102144
 20
-151.352001915287
 30
0.0
 10
112.0090114737338
 20
-151.3013590116538
 30
0.0
 10
112.1530164650173
 20
-151.2145426054255
 30
0.0
 10
112.2904757748788
 20
-151.0198947105089
 30
0.0
 10
112.3814262956893
 20
-150.8927706871032
 30
0.0
 10
112.4468831099091
 20
-150.7491102053682
 30
0.0
 10
112.4806450456645
 20
-150.5968369849202
 30
0.0
 10
112.2522352149925
 20
-150.5989040422114
 30
0.0
 10
112.0724012306624
 20
-150.6051052140848
 30
0.0
 10
111.9773165952695
 20
-150.607172271376
 30
0.0
 10
111.9773165952695
 20
-150.607172271376
 30
0.0
 10
111.9773165952695
 20
-150.4297498538856
 30
0.0
 10
111.9773165952695
 20
-150.4297498538856
 30
0.0
 10
112.1740315474773
 20
-150.435951025759
 30
0.0
 10
112.4575629059134
 20
-150.4400851403414
 30
0.0
 10
112.6077690690703
 20
-150.4400851403414
 30
0.0
 10
112.6077690690703
 20
-150.4400851403414
 30
0.0
 10
112.8213649891558
 20
-150.4400851403414
 30
0.0
 10
112.8213649891558
 20
-150.4400851403414
 30
0.0
 10
112.8213649891558
 20
-150.4400851403414
 30
0.0
 10
112.8213649891558
 20
-150.332253651653
 30
0.0
 10
112.8213649891558
 20
-150.332253651653
 30
0.0
 10
112.8213649891558
 20
-150.332253651653
 30
0.0
 10
112.6752929405812
 20
-150.332253651653
 30
0.0
 10
112.6752929405812
 20
-150.332253651653
 30
0.0
 10
112.5061387522554
 20
-150.332253651653
 30
0.0
 10
112.3369845639296
 20
-150.3363877662353
 30
0.0
 10
112.169897432895
 20
-150.3429334476573
 30
0.0
 10
112.169897432895
 20
-150.3429334476573
 30
0.0
 10
112.169897432895
 20
-150.1717122020404
 30
0.0
 10
112.169897432895
 20
-150.1717122020404
 30
0.0
 10
112.3242377106342
 20
-150.1820474884961
 30
0.0
 10
112.5102728668377
 20
-150.1820474884961
 30
0.0
 10
112.6752929405812
 20
-150.1820474884961
 30
0.0
 10
112.6752929405812
 20
-150.1820474884961
 30
0.0
 10
112.8213649891558
 20
-150.1820474884961
 30
0.0
 10
112.8213649891558
 20
-150.1820474884961
 30
0.0
 10
112.8213649891558
 20
-150.1820474884961
 30
0.0
 10
112.8213649891558
 20
-150.0635362038036
 30
0.0
 10
112.8213649891558
 20
-150.0635362038036
 30
0.0
 10
112.8213649891558
 20
-150.0635362038036
 30
0.0
 10
112.6901068511677
 20
-150.0635362038036
 30
0.0
 10
112.6901068511677
 20
-150.0635362038036
 30
0.0
 10
112.6435980621169
 20
-150.0635362038036
 30
0.0
 10
112.4406819380356
 20
-150.0721489425167
 30
0.0
 10
112.3983072635671
 20
-150.0721489425167
 30
0.0
 10
112.1950466299373
 20
-150.076283057099
 30
0.0
 10
112.1189100197133
 20
-150.0783501143901
 30
0.0
 10
112.0407063521981
 20
-150.0804171716813
 30
0.0
 10
112.0407063521981
 20
-150.0804171716813
 30
0.0
 10
112.0407063521981
 20
-149.8964490727689
 30
0.0
 10
112.0407063521981
 20
-149.8964490727689
 30
0.0
 10
112.1550835223084
 20
-149.9050618114821
 30
0.0
 10
112.1995252540681
 20
-149.9050618114821
 30
0.0
 10
112.5822753624794
 20
-149.9133300406467
 30
0.0
 10
112.5188856055508
 20
-149.8182454052537
 30
0.0
 10
112.4913248416688
 20
-149.7906846413718
 30
0.0
 10
112.4554958486222
 20
-149.7548556483252
 30
0.0
 10
112.4554958486222
 20
-149.7548556483252
 30
0.0
 10
112.6308512088214
 20
-149.6721733566792
 30
0.0
 10
112.6308512088214
 20
-149.6721733566792
 30
0.0
 10
112.6711588259989
 20
-149.7083468592743
 30
0.0
 10
112.7156005577586
 20
-149.7507215337428
 30
0.0
 10
112.7896701106914
 20
-149.8606200797223
 30
0.0
 10
112.7896701106914
 20
-149.8606200797223
 30
0.0
 10
112.6752929405812
 20
-149.9153970979378
 30
0.0
 10
112.6752929405812
 20
-149.9153970979378
 30
0.0
 10
112.6752929405812
 20
-149.9153970979378
 30
0.0
 10
112.6859727365854
 20
-149.9153970979378
 30
0.0
 10
112.6859727365854
 20
-149.9153970979378
 30
0.0
 10
112.6859727365854
 20
-149.9153970979378
 30
0.0
 10
113.2085937216978
 20
-149.9153970979378
 30
0.0
 10
113.2085937216978
 20
-149.9153970979378
 30
0.0
 10
113.2085937216978
 20
-149.9153970979378
 30
0.0
 10
113.1131645767564
 20
-149.8712998757266
 30
0.0
 10
113.1131645767564
 20
-149.8712998757266
 30
0.0
 10
113.1407253406384
 20
-149.8330593158403
 30
0.0
 10
113.1979139256936
 20
-149.752788591034
 30
0.0
 10
113.2127278362801
 20
-149.6787190381011
 30
0.0
 10
113.2127278362801
 20
-149.6787190381011
 30
0.0
 10
113.4263237563656
 20
-149.7421087950297
 30
0.0
 10
113.4263237563656
 20
-149.7421087950297
 30
0.0
 10
113.4349364950788
 20
-149.7441758523209
 30
0.0
 10
113.4559515775388
 20
-149.7548556483252
 30
0.0
 10
113.4559515775388
 20
-149.7758707307852
 30
0.0
 10
113.4559515775388
 20
-149.8141112906715
 30
0.0
 10
113.390494763319
 20
-149.8141112906715
 30
0.0
 10
113.3715467381501
 20
-149.8141112906715
 30
0.0
 10
113.3608669421459
 20
-149.8330593158403
 30
0.0
 10
113.3374402928462
 20
-149.8733669330177
 30
0.0
 10
113.307812471673
 20
-149.9133300406467
 30
0.0
 10
113.7077880575105
 20
-149.9071288687732
 30
0.0
 10
113.7374158786837
 20
-149.9050618114821
 30
0.0
 10
113.8135524889077
 20
-149.8985161300601
 30
0.0
 10
113.8135524889077
 20
-149.8985161300601
 30
0.0
 10
113.8135524889077
 20
-150.0804171716813
 30
0.0
 10
113.8135524889077
 20
-150.0804171716813
 30
0.0
 10
113.7946044637388
 20
-150.0804171716813
 30
0.0
 10
113.769110757148
 20
-150.0783501143901
 30
0.0
 10
113.5489691556405
 20
-150.0700818852255
 30
0.0
 10
113.4983262520073
 20
-150.0680148279344
 30
0.0
 10
113.2781846504999
 20
-150.0635362038036
 30
0.0
 10
113.2337429187401
 20
-150.0635362038036
 30
0.0
 10
113.2337429187401
 20
-150.0635362038036
 30
0.0
 10
113.0180799413635
 20
-150.0635362038036
 30
0.0
 10
113.0180799413635
 20
-150.0635362038036
 30
0.0
 10
113.0180799413635
 20
-150.0635362038036
 30
0.0
 10
113.0180799413635
 20
-150.1820474884961
 30
0.0
 10
113.0180799413635
 20
-150.1820474884961
 30
0.0
 10
113.0180799413635
 20
-150.1820474884961
 30
0.0
 10
113.1917127538201
 20
-150.1820474884961
 30
0.0
 10
113.1917127538201
 20
-150.1820474884961
 30
0.0
 10
113.3543212607239
 20
-150.1820474884961
 30
0.0
 10
113.5448350410582
 20
-150.1820474884961
 30
0.0
 10
113.7015868856371
 20
-150.1717122020404
 30
0.0
 10
113.7015868856371
 20
-150.1717122020404
 30
0.0
 10
113.7015868856371
 20
-150.3429334476573
 30
0.0
 10
113.7015868856371
 20
-150.3429334476573
 30
0.0
 10
113.4921250801339
 20
-150.3343207089442
 30
0.0
 10
113.2954101279261
 20
-150.332253651653
 30
0.0
 10
113.1917127538201
 20
-150.332253651653
 30
0.0
 10
113.1917127538201
 20
-150.332253651653
 30
0.0
 10
113.0180799413635
 20
-150.332253651653
 30
0.0
 10
113.0180799413635
 20
-150.332253651653
 30
0.0
 10
113.0180799413635
 20
-150.332253651653
 30
0.0
 10
113.0180799413635
 20
-150.4400851403414
 30
0.0
 10
113.0180799413635
 20
-150.4400851403414
 30
0.0
 10
113.0180799413635
 20
-150.4400851403414
 30
0.0
 10
113.2485568293267
 20
-150.4400851403414
 30
0.0
 10
113.2485568293267
 20
-150.4400851403414
 30
0.0
 10
113.3818820246059
 20
-150.4400851403414
 30
0.0
 10
113.6695474976243
 20
-150.435951025759
 30
0.0
 10
113.8790093031275
 20
-150.4297498538856
 30
0.0
 10
113.8790093031275
 20
-150.4297498538856
 30
0.0
 10
113.8790093031275
 20
-150.607172271376
 30
0.0
 10
113.8790093031275
 20
-150.607172271376
 30
0.0
 10
113.6867729750505
 20
-150.6009710995025
 30
0.0
 10
113.3736137954413
 20
-150.5968369849202
 30
0.0
 10
113.2485568293267
 20
-150.5968369849202
 30
0.0
  0
HATCH
  5
18C
330
180
100
AcDbEntity
  8
レイヤー 1
 62
    18
420
        0
440
 33554687
100
AcDbHatch
 10
0.0
 20
0.0
 30
0.0
210
0.0
220
0.0
230
1.0
  2
SOLID
 70
     1
 71
     1
 91
        4
 92
        1
 93
        1
 72
     4
 94
        3
 73
     0
 74
     0
 95
       17
 96
       13
 40
0.0
 40
0.0
 40
0.0
 40
0.0
 40
1.0
 40
1.0
 40
1.0
 40
2.0
 40
2.0
 40
2.0
 40
3.0
 40
3.0
 40
3.0
 40
4.0
 40
4.0
 40
4.0
 40
4.0
 10
113.4135769030702
 20
-151.3285752659873
 10
113.4135769030702
 20
-151.3285752659873
 10
112.7069878190455
 20
-151.3285752659873
 10
112.7069878190455
 20
-151.3285752659873
 10
112.7069878190455
 20
-151.3285752659873
 10
112.7069878190455
 20
-151.4429524360976
 10
112.7069878190455
 20
-151.4429524360976
 10
112.7069878190455
 20
-151.4429524360976
 10
113.4135769030702
 20
-151.4429524360976
 10
113.4135769030702
 20
-151.4429524360976
 10
113.4135769030702
 20
-151.4429524360976
 10
113.4135769030702
 20
-151.3285752659873
 10
113.4135769030702
 20
-151.3285752659873
 97
        0
 97
        1
330
188
 92
        1
 93
        1
 72
     4
 94
        3
 73
     0
 74
     0
 95
       17
 96
       13
 40
0.0
 40
0.0
 40
0.0
 40
0.0
 40
1.0
 40
1.0
 40
1.0
 40
2.0
 40
2.0
 40
2.0
 40
3.0
 40
3.0
 40
3.0
 40
4.0
 40
4.0
 40
4.0
 40
4.0
 10
113.4135769030702
 20
-151.0853515247287
 10
113.4135769030702
 20
-151.0853515247287
 10
112.7069878190455
 20
-151.0853515247287
 10
112.7069878190455
 20
-151.0853515247287
 10
112.7069878190455
 20
-151.0853515247287
 10
112.7069878190455
 20
-151.1997286948389
 10
112.7069878190455
 20
-151.1997286948389
 10
112.7069878190455
 20
-151.1997286948389
 10
113.4135769030702
 20
-151.1997286948389
 10
113.4135769030702
 20
-151.1997286948389
 10
113.4135769030702
 20
-151.1997286948389
 10
113.4135769030702
 20
-151.0853515247287
 10
113.4135769030702
 20
-151.0853515247287
 97
        0
 97
        1
330
189
 92
        1
 93
        1
 72
     4
 94
        3
 73
     0
 74
     0
 95
       17
 96
       13
 40
0.0
 40
0.0
 40
0.0
 40
0.0
 40
1.0
 40
1.0
 40
1.0
 40
2.0
 40
2.0
 40
2.0
 40
3.0
 40
3.0
 40
3.0
 40
4.0
 40
4.0
 40
4.0
 40
4.0
 10
113.4135769030702
 20
-150.8528075794743
 10
113.4135769030702
 20
-150.8528075794743
 10
112.7069878190455
 20
-150.8528075794743
 10
112.7069878190455
 20
-150.8528075794743
 10
112.7069878190455
 20
-150.8528075794743
 10
112.7069878190455
 20
-150.9606390681626
 10
112.7069878190455
 20
-150.9606390681626
 10
112.7069878190455
 20
-150.9606390681626
 10
113.4135769030702
 20
-150.9606390681626
 10
113.4135769030702
 20
-150.9606390681626
 10
113.4135769030702
 20
-150.9606390681626
 10
113.4135769030702
 20
-150.8528075794743
 10
113.4135769030702
 20
-150.8528075794743
 97
        0
 97
        1
330
18A
 92
        1
 93
        1
 72
     4
 94
        3
 73
     0
 74
     0
 95
      203
 96
      199
 40
0.0
 40
0.0
 40
0.0
 40
0.0
 40
1.0
 40
1.0
 40
1.0
 40
2.0
 40
2.0
 40
2.0
 40
3.0
 40
3.0
 40
3.0
 40
4.0
 40
4.0
 40
4.0
 40
5.0
 40
5.0
 40
5.0
 40
6.0
 40
6.0
 40
6.0
 40
7.0
 40
7.0
 40
7.0
 40
8.0
 40
8.0
 40
8.0
 40
9.0
 40
9.0
 40
9.0
 40
10.0
 40
10.0
 40
10.0
 40
11.0
 40
11.0
 40
11.0
 40
12.0
 40
12.0
 40
12.0
 40
13.0
 40
13.0
 40
13.0
 40
14.0
 40
14.0
 40
14.0
 40
15.0
 40
15.0
 40
15.0
 40
16.0
 40
16.0
 40
16.0
 40
17.0
 40
17.0
 40
17.0
 40
18.0
 40
18.0
 40
18.0
 40
19.0
 40
19.0
 40
19.0
 40
20.0
 40
20.0
 40
20.0
 40
21.0
 40
21.0
 40
21.0
 40
22.0
 40
22.0
 40
22.0
 40
23.0
 40
23.0
 40
23.0
 40
24.0
 40
24.0
 40
24.0
 40
25.0
 40
25.0
 40
25.0
 40
26.0
 40
26.0
 40
26.0
 40
27.0
 40
27.0
 40
27.0
 40
28.0
 40
28.0
 40
28.0
 40
29.0
 40
29.0
 40
29.0
 40
30.0
 40
30.0
 40
30.0
 40
31.0
 40
31.0
 40
31.0
 40
32.0
 40
32.0
 40
32.0
 40
33.0
 40
33.0
 40
33.0
 40
34.0
 40
34.0
 40
34.0
 40
35.0
 40
35.0
 40
35.0
 40
36.0
 40
36.0
 40
36.0
 40
37.0
 40
37.0
 40
37.0
 40
38.0
 40
38.0
 40
38.0
 40
39.0
 40
39.0
 40
39.0
 40
40.0
 40
40.0
 40
40.0
 40
41.0
 40
41.0
 40
41.0
 40
42.0
 40
42.0
 40
42.0
 40
43.0
 40
43.0
 40
43.0
 40
44.0
 40
44.0
 40
44.0
 40
45.0
 40
45.0
 40
45.0
 40
46.0
 40
46.0
 40
46.0
 40
47.0
 40
47.0
 40
47.0
 40
48.0
 40
48.0
 40
48.0
 40
49.0
 40
49.0
 40
49.0
 40
50.0
 40
50.0
 40
50.0
 40
51.0
 40
51.0
 40
51.0
 40
52.0
 40
52.0
 40
52.0
 40
53.0
 40
53.0
 40
53.0
 40
54.0
 40
54.0
 40
54.0
 40
55.0
 40
55.0
 40
55.0
 40
56.0
 40
56.0
 40
56.0
 40
57.0
 40
57.0
 40
57.0
 40
58.0
 40
58.0
 40
58.0
 40
59.0
 40
59.0
 40
59.0
 40
60.0
 40
60.0
 40
60.0
 40
61.0
 40
61.0
 40
61.0
 40
62.0
 40
62.0
 40
62.0
 40
63.0
 40
63.0
 40
63.0
 40
64.0
 40
64.0
 40
64.0
 40
65.0
 40
65.0
 40
65.0
 40
66.0
 40
66.0
 40
66.0
 40
66.0
 10
113.2485568293267
 20
-150.5968369849202
 10
113.2485568293267
 20
-150.5968369849202
 10
112.6901068511677
 20
-150.5968369849202
 10
112.6901068511677
 20
-150.5968369849202
 10
112.679771564712
 20
-150.64127871668
 10
112.6711588259989
 20
-150.6729735951442
 10
112.6584119727034
 20
-150.710869645482
 10
112.6839056792943
 20
-150.710869645482
 10
112.6987195898809
 20
-150.7132812123217
 10
112.7049207617543
 20
-150.7132812123217
 10
112.7049207617543
 20
-150.7132812123217
 10
112.8933674847975
 20
-150.7132812123217
 10
112.8933674847975
 20
-150.7132812123217
 10
112.8933674847975
 20
-150.7132812123217
 10
113.2678493640441
 20
-150.7132812123217
 10
113.2678493640441
 20
-150.7132812123217
 10
113.3184922676773
 20
-150.7132812123217
 10
113.6020236261134
 20
-150.7005343590262
 10
113.6337185045777
 20
-150.7005343590262
 10
113.6316514472865
 20
-150.7277506133597
 10
113.6295843899954
 20
-150.7470431480771
 10
113.6295843899954
 20
-150.7766709692503
 10
113.6275173327042
 20
-150.8083658477145
 10
113.6275173327042
 20
-150.9437581002849
 10
113.6275173327042
 20
-150.9713188641669
 10
113.6275173327042
 20
-150.9713188641669
 10
113.6275173327042
 20
-151.2166096627167
 10
113.6275173327042
 20
-151.2166096627167
 10
113.6275173327042
 20
-151.2610513944764
 10
113.6316514472865
 20
-151.4577663466841
 10
113.6357855618688
 20
-151.6100395671322
 10
113.6357855618688
 20
-151.6100395671322
 10
113.4094427884879
 20
-151.6100395671322
 10
113.4094427884879
 20
-151.6100395671322
 10
113.4094427884879
 20
-151.6100395671322
 10
113.411509845779
 20
-151.5762776313767
 10
113.411509845779
 20
-151.5762776313767
 10
113.411509845779
 20
-151.5762776313767
 10
112.7093993858851
 20
-151.5762776313767
 10
112.7093993858851
 20
-151.5762776313767
 10
112.7093993858851
 20
-151.5762776313767
 10
112.7114664431763
 20
-151.6100395671322
 10
112.7114664431763
 20
-151.6100395671322
 10
112.7114664431763
 20
-151.6100395671322
 10
112.49339189896
 20
-151.6100395671322
 10
112.49339189896
 20
-151.6100395671322
 10
112.4975260135423
 20
-151.5549180393682
 10
112.4975260135423
 20
-151.5425156956213
 10
112.5040716949643
 20
-151.428138525511
 10
112.5061387522554
 20
-151.400577761629
 10
112.5082058095465
 20
-151.2672525663498
 10
112.5082058095465
 20
-151.248304541181
 10
112.5082058095465
 20
-151.248304541181
 10
112.5082058095465
 20
-151.0453884170997
 10
112.5082058095465
 20
-151.0453884170997
 10
112.3686794423939
 20
-151.2948133302318
 10
112.1995252540681
 20
-151.4260714682198
 10
112.093760822671
 20
-151.4915282824396
 10
112.093760822671
 20
-151.4915282824396
 10
111.9201280102144
 20
-151.352001915287
 10
111.9201280102144
 20
-151.352001915287
 10
112.0090114737338
 20
-151.3013590116538
 10
112.1530164650173
 20
-151.2145426054255
 10
112.2904757748788
 20
-151.0198947105089
 10
112.3814262956893
 20
-150.8927706871032
 10
112.4468831099091
 20
-150.7491102053682
 10
112.4806450456645
 20
-150.5968369849202
 10
112.2522352149925
 20
-150.5989040422114
 10
112.0724012306624
 20
-150.6051052140848
 10
111.9773165952695
 20
-150.607172271376
 10
111.9773165952695
 20
-150.607172271376
 10
111.9773165952695
 20
-150.4297498538856
 10
111.9773165952695
 20
-150.4297498538856
 10
112.1740315474773
 20
-150.435951025759
 10
112.4575629059134
 20
-150.4400851403414
 10
112.6077690690703
 20
-150.4400851403414
 10
112.6077690690703
 20
-150.4400851403414
 10
112.8213649891558
 20
-150.4400851403414
 10
112.8213649891558
 20
-150.4400851403414
 10
112.8213649891558
 20
-150.4400851403414
 10
112.8213649891558
 20
-150.332253651653
 10
112.8213649891558
 20
-150.332253651653
 10
112.8213649891558
 20
-150.332253651653
 10
112.6752929405812
 20
-150.332253651653
 10
112.6752929405812
 20
-150.332253651653
 10
112.5061387522554
 20
-150.332253651653
 10
112.3369845639296
 20
-150.3363877662353
 10
112.169897432895
 20
-150.3429334476573
 10
112.169897432895
 20
-150.3429334476573
 10
112.169897432895
 20
-150.1717122020404
 10
112.169897432895
 20
-150.1717122020404
 10
112.3242377106342
 20
-150.1820474884961
 10
112.5102728668377
 20
-150.1820474884961
 10
112.6752929405812
 20
-150.1820474884961
 10
112.6752929405812
 20
-150.1820474884961
 10
112.8213649891558
 20
-150.1820474884961
 10
112.8213649891558
 20
-150.1820474884961
 10
112.8213649891558
 20
-150.1820474884961
 10
112.8213649891558
 20
-150.0635362038036
 10
112.8213649891558
 20
-150.0635362038036
 10
112.8213649891558
 20
-150.0635362038036
 10
112.6901068511677
 20
-150.0635362038036
 10
112.6901068511677
 20
-150.0635362038036
 10
112.6435980621169
 20
-150.0635362038036
 10
112.4406819380356
 20
-150.0721489425167
 10
112.3983072635671
 20
-150.0721489425167
 10
112.1950466299373
 20
-150.076283057099
 10
112.1189100197133
 20
-150.0783501143901
 10
112.0407063521981
 20
-150.0804171716813
 10
112.0407063521981
 20
-150.0804171716813
 10
112.0407063521981
 20
-149.8964490727689
 10
112.0407063521981
 20
-149.8964490727689
 10
112.1550835223084
 20
-149.9050618114821
 10
112.1995252540681
 20
-149.9050618114821
 10
112.5822753624794
 20
-149.9133300406467
 10
112.5188856055508
 20
-149.8182454052537
 10
112.4913248416688
 20
-149.7906846413718
 10
112.4554958486222
 20
-149.7548556483252
 10
112.4554958486222
 20
-149.7548556483252
 10
112.6308512088214
 20
-149.6721733566792
 10
112.6308512088214
 20
-149.6721733566792
 10
112.6711588259989
 20
-149.7083468592743
 10
112.7156005577586
 20
-149.7507215337428
 10
112.7896701106914
 20
-149.8606200797223
 10
112.7896701106914
 20
-149.8606200797223
 10
112.6752929405812
 20
-149.9153970979378
 10
112.6752929405812
 20
-149.9153970979378
 10
112.6752929405812
 20
-149.9153970979378
 10
112.6859727365854
 20
-149.9153970979378
 10
112.6859727365854
 20
-149.9153970979378
 10
112.6859727365854
 20
-149.9153970979378
 10
113.2085937216978
 20
-149.9153970979378
 10
113.2085937216978
 20
-149.9153970979378
 10
113.2085937216978
 20
-149.9153970979378
 10
113.1131645767564
 20
-149.8712998757266
 10
113.1131645767564
 20
-149.8712998757266
 10
113.1407253406384
 20
-149.8330593158403
 10
113.1979139256936
 20
-149.752788591034
 10
113.2127278362801
 20
-149.6787190381011
 10
113.2127278362801
 20
-149.6787190381011
 10
113.4263237563656
 20
-149.7421087950297
 10
113.4263237563656
 20
-149.7421087950297
 10
113.4349364950788
 20
-149.7441758523209
 10
113.4559515775388
 20
-149.7548556483252
 10
113.4559515775388
 20
-149.7758707307852
 10
113.4559515775388
 20
-149.8141112906715
 10
113.390494763319
 20
-149.8141112906715
 10
113.3715467381501
 20
-149.8141112906715
 10
113.3608669421459
 20
-149.8330593158403
 10
113.3374402928462
 20
-149.8733669330177
 10
113.307812471673
 20
-149.9133300406467
 10
113.7077880575105
 20
-149.9071288687732
 10
113.7374158786837
 20
-149.9050618114821
 10
113.8135524889077
 20
-149.8985161300601
 10
113.8135524889077
 20
-149.8985161300601
 10
113.8135524889077
 20
-150.0804171716813
 10
113.8135524889077
 20
-150.0804171716813
 10
113.7946044637388
 20
-150.0804171716813
 10
113.769110757148
 20
-150.0783501143901
 10
113.5489691556405
 20
-150.0700818852255
 10
113.4983262520073
 20
-150.0680148279344
 10
113.2781846504999
 20
-150.0635362038036
 10
113.2337429187401
 20
-150.0635362038036
 10
113.2337429187401
 20
-150.0635362038036
 10
113.0180799413635
 20
-150.0635362038036
 10
113.0180799413635
 20
-150.0635362038036
 10
113.0180799413635
 20
-150.0635362038036
 10
113.0180799413635
 20
-150.1820474884961
 10
113.0180799413635
 20
-150.1820474884961
 10
113.0180799413635
 20
-150.1820474884961
 10
113.1917127538201
 20
-150.1820474884961
 10
113.1917127538201
 20
-150.1820474884961
 10
113.3543212607239
 20
-150.1820474884961
 10
113.5448350410582
 20
-150.1820474884961
 10
113.7015868856371
 20
-150.1717122020404
 10
113.7015868856371
 20
-150.1717122020404
 10
113.7015868856371
 20
-150.3429334476573
 10
113.7015868856371
 20
-150.3429334476573
 10
113.4921250801339
 20
-150.3343207089442
 10
113.2954101279261
 20
-150.332253651653
 10
113.1917127538201
 20
-150.332253651653
 10
113.1917127538201
 20
-150.332253651653
 10
113.0180799413635
 20
-150.332253651653
 10
113.0180799413635
 20
-150.332253651653
 10
113.0180799413635
 20
-150.332253651653
 10
113.0180799413635
 20
-150.4400851403414
 10
113.0180799413635
 20
-150.4400851403414
 10
113.0180799413635
 20
-150.4400851403414
 10
113.2485568293267
 20
-150.4400851403414
 10
113.2485568293267
 20
-150.4400851403414
 10
113.3818820246059
 20
-150.4400851403414
 10
113.6695474976243
 20
-150.435951025759
 10
113.8790093031275
 20
-150.4297498538856
 10
113.8790093031275
 20
-150.4297498538856
 10
113.8790093031275
 20
-150.607172271376
 10
113.8790093031275
 20
-150.607172271376
 10
113.6867729750505
 20
-150.6009710995025
 10
113.3736137954413
 20
-150.5968369849202
 10
113.2485568293267
 20
-150.5968369849202
 97
        0
 97
        1
330
18B
 75
     2
 76
     1
 98
        1
 10
0.0
 20
0.0
450
        0
451
        0
460
0.0
461
0.0
452
        0
462
0.0
453
        0
470

  0
SPLINE
  5
18D
330
180
100
AcDbEntity
  8
レイヤー 1
100
AcDbSpline
210
0.0
220
0.0
230
1.0
 70
     9
 71
     3
 72
    29
 73
    25
 74
     0
 42
0.0000000001
 43
0.0000000001
 40
0.0
 40
0.0
 40
0.0
 40
0.0
 40
1.0
 40
1.0
 40
1.0
 40
2.0
 40
2.0
 40
2.0
 40
3.0
 40
3.0
 40
3.0
 40
4.0
 40
4.0
 40
4.0
 40
5.0
 40
5.0
 40
5.0
 40
6.0
 40
6.0
 40
6.0
 40
7.0
 40
7.0
 40
7.0
 40
8.0
 40
8.0
 40
8.0
 40
8.0
 10
115.1240668114967
 20
-150.0445881786347
 30
0.0
 10
115.1240668114967
 20
-150.0445881786347
 30
0.0
 10
114.7709445242586
 20
-150.0445881786347
 30
0.0
 10
114.7709445242586
 20
-150.0445881786347
 30
0.0
 10
114.6586344114395
 20
-150.0445881786347
 30
0.0
 10
114.5191080442869
 20
-150.0511338600566
 30
0.0
 10
114.4112765555985
 20
-150.0635362038036
 30
0.0
 10
114.4112765555985
 20
-150.0635362038036
 30
0.0
 10
114.4112765555985
 20
-149.828925201258
 30
0.0
 10
114.4112765555985
 20
-149.828925201258
 30
0.0
 10
114.5297878402911
 20
-149.8437391118446
 30
0.0
 10
114.7137559392035
 20
-149.8478732264269
 30
0.0
 10
114.7709445242586
 20
-149.8478732264269
 30
0.0
 10
114.7709445242586
 20
-149.8478732264269
 30
0.0
 10
115.1240668114967
 20
-149.8478732264269
 30
0.0
 10
115.1240668114967
 20
-149.8478732264269
 30
0.0
 10
115.1433593462142
 20
-149.8478732264269
 30
0.0
 10
115.3462754702954
 20
-149.8478732264269
 30
0.0
 10
115.4878688947391
 20
-149.828925201258
 30
0.0
 10
115.4878688947391
 20
-149.828925201258
 30
0.0
 10
115.4878688947391
 20
-150.0635362038036
 30
0.0
 10
115.4878688947391
 20
-150.0635362038036
 30
0.0
 10
115.3314615597088
 20
-150.0445881786347
 30
0.0
 10
115.1409477793745
 20
-150.0445881786347
 30
0.0
 10
115.1240668114967
 20
-150.0445881786347
 30
0.0
  0
SPLINE
  5
18E
330
180
100
AcDbEntity
  8
レイヤー 1
100
AcDbSpline
210
0.0
220
0.0
230
1.0
 70
     9
 71
     3
 72
    47
 73
    43
 74
     0
 42
0.0000000001
 43
0.0000000001
 40
0.0
 40
0.0
 40
0.0
 40
0.0
 40
1.0
 40
1.0
 40
1.0
 40
2.0
 40
2.0
 40
2.0
 40
3.0
 40
3.0
 40
3.0
 40
4.0
 40
4.0
 40
4.0
 40
5.0
 40
5.0
 40
5.0
 40
6.0
 40
6.0
 40
6.0
 40
7.0
 40
7.0
 40
7.0
 40
8.0
 40
8.0
 40
8.0
 40
9.0
 40
9.0
 40
9.0
 40
10.0
 40
10.0
 40
10.0
 40
11.0
 40
11.0
 40
11.0
 40
12.0
 40
12.0
 40
12.0
 40
13.0
 40
13.0
 40
13.0
 40
14.0
 40
14.0
 40
14.0
 40
14.0
 10
115.2256971283116
 20
-150.5734103356205
 30
0.0
 10
115.2256971283116
 20
-150.5734103356205
 30
0.0
 10
115.1240668114967
 20
-150.5734103356205
 30
0.0
 10
115.1240668114967
 20
-150.5734103356205
 30
0.0
 10
115.1240668114967
 20
-150.6602267418488
 30
0.0
 10
115.1030517290367
 20
-151.049522531682
 30
0.0
 10
114.9063367768289
 20
-151.269319623641
 30
0.0
 10
114.7540635563809
 20
-151.4388183215153
 30
0.0
 10
114.5466688081689
 20
-151.5084092503173
 30
0.0
 10
114.4619194592317
 20
-151.5359700141993
 30
0.0
 10
114.4619194592317
 20
-151.5359700141993
 30
0.0
 10
114.2672715643151
 20
-151.3688828831647
 30
0.0
 10
114.2672715643151
 20
-151.3688828831647
 30
0.0
 10
114.3647677665477
 20
-151.3561360298693
 30
0.0
 10
114.5401231267469
 20
-151.3330538901181
 30
0.0
 10
114.7285698497901
 20
-151.144607167075
 30
0.0
 10
114.8026394027229
 20
-151.0726046714332
 30
0.0
 10
114.9063367768289
 20
-150.9330783042806
 30
0.0
 10
114.9063367768289
 20
-150.5734103356205
 30
0.0
 10
114.9063367768289
 20
-150.5734103356205
 30
0.0
 10
114.6755153793172
 20
-150.5734103356205
 30
0.0
 10
114.6755153793172
 20
-150.5734103356205
 30
0.0
 10
114.4894802231137
 20
-150.5734103356205
 30
0.0
 10
114.3034450669102
 20
-150.5778889597513
 30
0.0
 10
114.1170654011582
 20
-150.5927028703379
 30
0.0
 10
114.1170654011582
 20
-150.5927028703379
 30
0.0
 10
114.1170654011582
 20
-150.3725612688304
 30
0.0
 10
114.1170654011582
 20
-150.3725612688304
 30
0.0
 10
114.3055121242014
 20
-150.387375179417
 30
0.0
 10
114.5911105399286
 20
-150.3915092939993
 30
0.0
 10
114.6755153793172
 20
-150.3915092939993
 30
0.0
 10
114.6755153793172
 20
-150.3915092939993
 30
0.0
 10
115.2256971283116
 20
-150.3915092939993
 30
0.0
 10
115.2256971283116
 20
-150.3915092939993
 30
0.0
 10
115.2446451534805
 20
-150.3915092939993
 30
0.0
 10
115.561938447672
 20
-150.3915092939993
 30
0.0
 10
115.7906927878926
 20
-150.3725612688304
 30
0.0
 10
115.7906927878926
 20
-150.3725612688304
 30
0.0
 10
115.7906927878926
 20
-150.5927028703379
 30
0.0
 10
115.7906927878926
 20
-150.5927028703379
 30
0.0
 10
115.6022460648494
 20
-150.5778889597513
 30
0.0
 10
115.4141438513548
 20
-150.5734103356205
 30
0.0
 10
115.2256971283116
 20
-150.5734103356205
 30
0.0
  0
HATCH
  5
18F
330
180
100
AcDbEntity
  8
レイヤー 1
 62
    18
420
        0
440
 33554687
100
AcDbHatch
 10
0.0
 20
0.0
 30
0.0
210
0.0
220
0.0
230
1.0
  2
SOLID
 70
     1
 71
     1
 91
        2
 92
        1
 93
        1
 72
     4
 94
        3
 73
     0
 74
     0
 95
       29
 96
       25
 40
0.0
 40
0.0
 40
0.0
 40
0.0
 40
1.0
 40
1.0
 40
1.0
 40
2.0
 40
2.0
 40
2.0
 40
3.0
 40
3.0
 40
3.0
 40
4.0
 40
4.0
 40
4.0
 40
5.0
 40
5.0
 40
5.0
 40
6.0
 40
6.0
 40
6.0
 40
7.0
 40
7.0
 40
7.0
 40
8.0
 40
8.0
 40
8.0
 40
8.0
 10
115.1240668114967
 20
-150.0445881786347
 10
115.1240668114967
 20
-150.0445881786347
 10
114.7709445242586
 20
-150.0445881786347
 10
114.7709445242586
 20
-150.0445881786347
 10
114.6586344114395
 20
-150.0445881786347
 10
114.5191080442869
 20
-150.0511338600566
 10
114.4112765555985
 20
-150.0635362038036
 10
114.4112765555985
 20
-150.0635362038036
 10
114.4112765555985
 20
-149.828925201258
 10
114.4112765555985
 20
-149.828925201258
 10
114.5297878402911
 20
-149.8437391118446
 10
114.7137559392035
 20
-149.8478732264269
 10
114.7709445242586
 20
-149.8478732264269
 10
114.7709445242586
 20
-149.8478732264269
 10
115.1240668114967
 20
-149.8478732264269
 10
115.1240668114967
 20
-149.8478732264269
 10
115.1433593462142
 20
-149.8478732264269
 10
115.3462754702954
 20
-149.8478732264269
 10
115.4878688947391
 20
-149.828925201258
 10
115.4878688947391
 20
-149.828925201258
 10
115.4878688947391
 20
-150.0635362038036
 10
115.4878688947391
 20
-150.0635362038036
 10
115.3314615597088
 20
-150.0445881786347
 10
115.1409477793745
 20
-150.0445881786347
 10
115.1240668114967
 20
-150.0445881786347
 97
        0
 97
        1
330
18D
 92
        1
 93
        1
 72
     4
 94
        3
 73
     0
 74
     0
 95
       47
 96
       43
 40
0.0
 40
0.0
 40
0.0
 40
0.0
 40
1.0
 40
1.0
 40
1.0
 40
2.0
 40
2.0
 40
2.0
 40
3.0
 40
3.0
 40
3.0
 40
4.0
 40
4.0
 40
4.0
 40
5.0
 40
5.0
 40
5.0
 40
6.0
 40
6.0
 40
6.0
 40
7.0
 40
7.0
 40
7.0
 40
8.0
 40
8.0
 40
8.0
 40
9.0
 40
9.0
 40
9.0
 40
10.0
 40
10.0
 40
10.0
 40
11.0
 40
11.0
 40
11.0
 40
12.0
 40
12.0
 40
12.0
 40
13.0
 40
13.0
 40
13.0
 40
14.0
 40
14.0
 40
14.0
 40
14.0
 10
115.2256971283116
 20
-150.5734103356205
 10
115.2256971283116
 20
-150.5734103356205
 10
115.1240668114967
 20
-150.5734103356205
 10
115.1240668114967
 20
-150.5734103356205
 10
115.1240668114967
 20
-150.6602267418488
 10
115.1030517290367
 20
-151.049522531682
 10
114.9063367768289
 20
-151.269319623641
 10
114.7540635563809
 20
-151.4388183215153
 10
114.5466688081689
 20
-151.5084092503173
 10
114.4619194592317
 20
-151.5359700141993
 10
114.4619194592317
 20
-151.5359700141993
 10
114.2672715643151
 20
-151.3688828831647
 10
114.2672715643151
 20
-151.3688828831647
 10
114.3647677665477
 20
-151.3561360298693
 10
114.5401231267469
 20
-151.3330538901181
 10
114.7285698497901
 20
-151.144607167075
 10
114.8026394027229
 20
-151.0726046714332
 10
114.9063367768289
 20
-150.9330783042806
 10
114.9063367768289
 20
-150.5734103356205
 10
114.9063367768289
 20
-150.5734103356205
 10
114.6755153793172
 20
-150.5734103356205
 10
114.6755153793172
 20
-150.5734103356205
 10
114.4894802231137
 20
-150.5734103356205
 10
114.3034450669102
 20
-150.5778889597513
 10
114.1170654011582
 20
-150.5927028703379
 10
114.1170654011582
 20
-150.5927028703379
 10
114.1170654011582
 20
-150.3725612688304
 10
114.1170654011582
 20
-150.3725612688304
 10
114.3055121242014
 20
-150.387375179417
 10
114.5911105399286
 20
-150.3915092939993
 10
114.6755153793172
 20
-150.3915092939993
 10
114.6755153793172
 20
-150.3915092939993
 10
115.2256971283116
 20
-150.3915092939993
 10
115.2256971283116
 20
-150.3915092939993
 10
115.2446451534805
 20
-150.3915092939993
 10
115.561938447672
 20
-150.3915092939993
 10
115.7906927878926
 20
-150.3725612688304
 10
115.7906927878926
 20
-150.3725612688304
 10
115.7906927878926
 20
-150.5927028703379
 10
115.7906927878926
 20
-150.5927028703379
 10
115.6022460648494
 20
-150.5778889597513
 10
115.4141438513548
 20
-150.5734103356205
 10
115.2256971283116
 20
-150.5734103356205
 97
        0
 97
        1
330
18E
 75
     2
 76
     1
 98
        1
 10
0.0
 20
0.0
450
        0
451
        0
460
0.0
461
0.0
452
        0
462
0.0
453
        0
470

  0
SPLINE
  5
190
330
180
100
AcDbEntity
  8
レイヤー 1
100
AcDbSpline
210
0.0
220
0.0
230
1.0
 70
     9
 71
     3
 72
    29
 73
    25
 74
     0
 42
0.0000000001
 43
0.0000000001
 40
0.0
 40
0.0
 40
0.0
 40
0.0
 40
1.0
 40
1.0
 40
1.0
 40
2.0
 40
2.0
 40
2.0
 40
3.0
 40
3.0
 40
3.0
 40
4.0
 40
4.0
 40
4.0
 40
5.0
 40
5.0
 40
5.0
 40
6.0
 40
6.0
 40
6.0
 40
7.0
 40
7.0
 40
7.0
 40
8.0
 40
8.0
 40
8.0
 40
8.0
 10
117.0715792893085
 20
-150.7363633520728
 30
0.0
 10
117.0715792893085
 20
-150.7363633520728
 30
0.0
 10
116.5871988640823
 20
-150.7363633520728
 30
0.0
 10
116.5871988640823
 20
-150.7363633520728
 30
0.0
 10
116.5596381002004
 20
-150.7363633520728
 30
0.0
 10
116.2423448060088
 20
-150.7363633520728
 30
0.0
 10
116.0308159432145
 20
-150.7618570586637
 30
0.0
 10
116.0308159432145
 20
-150.7618570586637
 30
0.0
 10
116.0308159432145
 20
-150.531035661152
 30
0.0
 10
116.0308159432145
 20
-150.531035661152
 30
0.0
 10
116.189290335536
 20
-150.5544623104516
 30
0.0
 10
116.3798041158703
 20
-150.5565293677428
 30
0.0
 10
116.5871988640823
 20
-150.5565293677428
 30
0.0
 10
116.5871988640823
 20
-150.5565293677428
 30
0.0
 10
117.0715792893085
 20
-150.5565293677428
 30
0.0
 10
117.0715792893085
 20
-150.5565293677428
 30
0.0
 10
117.257614445512
 20
-150.5565293677428
 30
0.0
 10
117.4436496017154
 20
-150.5544623104516
 30
0.0
 10
117.6279622101763
 20
-150.531035661152
 30
0.0
 10
117.6279622101763
 20
-150.531035661152
 30
0.0
 10
117.6279622101763
 20
-150.7618570586637
 30
0.0
 10
117.6279622101763
 20
-150.7618570586637
 30
0.0
 10
117.4436496017154
 20
-150.738430409364
 30
0.0
 10
117.1962917458745
 20
-150.7363633520728
 30
0.0
 10
117.0715792893085
 20
-150.7363633520728
 30
0.0
  0
HATCH
  5
191
330
180
100
AcDbEntity
  8
レイヤー 1
 62
    18
420
        0
440
 33554687
100
AcDbHatch
 10
0.0
 20
0.0
 30
0.0
210
0.0
220
0.0
230
1.0
  2
SOLID
 70
     1
 71
     1
 91
        1
 92
        1
 93
        1
 72
     4
 94
        3
 73
     0
 74
     0
 95
       29
 96
       25
 40
0.0
 40
0.0
 40
0.0
 40
0.0
 40
1.0
 40
1.0
 40
1.0
 40
2.0
 40
2.0
 40
2.0
 40
3.0
 40
3.0
 40
3.0
 40
4.0
 40
4.0
 40
4.0
 40
5.0
 40
5.0
 40
5.0
 40
6.0
 40
6.0
 40
6.0
 40
7.0
 40
7.0
 40
7.0
 40
8.0
 40
8.0
 40
8.0
 40
8.0
 10
117.0715792893085
 20
-150.7363633520728
 10
117.0715792893085
 20
-150.7363633520728
 10
116.5871988640823
 20
-150.7363633520728
 10
116.5871988640823
 20
-150.7363633520728
 10
116.5596381002004
 20
-150.7363633520728
 10
116.2423448060088
 20
-150.7363633520728
 10
116.0308159432145
 20
-150.7618570586637
 10
116.0308159432145
 20
-150.7618570586637
 10
116.0308159432145
 20
-150.531035661152
 10
116.0308159432145
 20
-150.531035661152
 10
116.189290335536
 20
-150.5544623104516
 10
116.3798041158703
 20
-150.5565293677428
 10
116.5871988640823
 20
-150.5565293677428
 10
116.5871988640823
 20
-150.5565293677428
 10
117.0715792893085
 20
-150.5565293677428
 10
117.0715792893085
 20
-150.5565293677428
 10
117.257614445512
 20
-150.5565293677428
 10
117.4436496017154
 20
-150.5544623104516
 10
117.6279622101763
 20
-150.531035661152
 10
117.6279622101763
 20
-150.531035661152
 10
117.6279622101763
 20
-150.7618570586637
 10
117.6279622101763
 20
-150.7618570586637
 10
117.4436496017154
 20
-150.738430409364
 10
117.1962917458745
 20
-150.7363633520728
 10
117.0715792893085
 20
-150.7363633520728
 97
        0
 97
        1
330
190
 75
     2
 76
     1
 98
        1
 10
0.0
 20
0.0
450
        0
451
        0
460
0.0
461
0.0
452
        0
462
0.0
453
        0
470

  0
SPLINE
  5
192
330
180
100
AcDbEntity
  8
レイヤー 1
100
AcDbSpline
210
0.0
220
0.0
230
1.0
 70
     9
 71
     3
 72
    47
 73
    43
 74
     0
 42
0.0000000001
 43
0.0000000001
 40
0.0
 40
0.0
 40
0.0
 40
0.0
 40
1.0
 40
1.0
 40
1.0
 40
2.0
 40
2.0
 40
2.0
 40
3.0
 40
3.0
 40
3.0
 40
4.0
 40
4.0
 40
4.0
 40
5.0
 40
5.0
 40
5.0
 40
6.0
 40
6.0
 40
6.0
 40
7.0
 40
7.0
 40
7.0
 40
8.0
 40
8.0
 40
8.0
 40
9.0
 40
9.0
 40
9.0
 40
10.0
 40
10.0
 40
10.0
 40
11.0
 40
11.0
 40
11.0
 40
12.0
 40
12.0
 40
12.0
 40
13.0
 40
13.0
 40
13.0
 40
14.0
 40
14.0
 40
14.0
 40
14.0
 10
119.2915988200035
 20
-150.1420843808672
 30
0.0
 10
119.2216633816529
 20
-150.4211371151725
 30
0.0
 10
119.1455267714289
 20
-150.7256835560686
 30
0.0
 10
118.8327121013682
 20
-151.0577907608466
 30
0.0
 10
118.595689531983
 20
-151.3075601835272
 30
0.0
 10
118.3503987334332
 20
-151.407123443051
 30
0.0
 10
118.2446343020361
 20
-151.449153607971
 30
0.0
 10
118.2446343020361
 20
-151.449153607971
 30
0.0
 10
118.0499864071194
 20
-151.2672525663498
 30
0.0
 10
118.0499864071194
 20
-151.2672525663498
 30
0.0
 10
118.2360215633229
 20
-151.220743777299
 30
0.0
 10
118.5977565892742
 20
-151.1277261991972
 30
0.0
 10
118.8940348010056
 20
-150.6326659779668
 30
0.0
 10
119.0545762506183
 20
-150.3660155874085
 30
0.0
 10
119.0673231039137
 20
-150.1927272845004
 30
0.0
 10
119.0759358426268
 20
-150.1017767636898
 30
0.0
 10
119.0759358426268
 20
-150.1017767636898
 30
0.0
 10
118.5701958253922
 20
-150.1017767636898
 30
0.0
 10
118.5701958253922
 20
-150.1017767636898
 30
0.0
 10
118.4516845406996
 20
-150.1017767636898
 30
0.0
 10
118.030693872402
 20
-150.1207247888587
 30
0.0
 10
117.878420651954
 20
-150.131404584863
 30
0.0
 10
117.878420651954
 20
-150.131404584863
 30
0.0
 10
117.878420651954
 20
-149.9219427793598
 30
0.0
 10
117.878420651954
 20
-149.9219427793598
 30
0.0
 10
118.0203585859463
 20
-149.9346896326552
 30
0.0
 10
118.2973442629604
 20
-149.9388237472375
 30
0.0
 10
118.4137884903618
 20
-149.9388237472375
 30
0.0
 10
118.4137884903618
 20
-149.9388237472375
 30
0.0
 10
118.7689778348911
 20
-149.9388237472375
 30
0.0
 10
118.7689778348911
 20
-149.9388237472375
 30
0.0
 10
118.7965385987731
 20
-149.9388237472375
 30
0.0
 10
118.9574245579342
 20
-149.9367566899463
 30
0.0
 10
119.0673231039137
 20
-149.9219427793598
 30
0.0
 10
119.1245116889689
 20
-149.9153970979378
 30
0.0
 10
119.1413926568466
 20
-149.8964490727689
 30
0.0
 10
119.1648193061463
 20
-149.8733669330177
 30
0.0
 10
119.1648193061463
 20
-149.8733669330177
 30
0.0
 10
119.3529215196409
 20
-150.0235730961746
 30
0.0
 10
119.3529215196409
 20
-150.0235730961746
 30
0.0
 10
119.3381076090543
 20
-150.0532009173478
 30
0.0
 10
119.3277723225986
 20
-150.0721489425167
 30
0.0
 10
119.2915988200035
 20
-150.1420843808672
 30
0.0
  0
HATCH
  5
193
330
180
100
AcDbEntity
  8
レイヤー 1
 62
    18
420
        0
440
 33554687
100
AcDbHatch
 10
0.0
 20
0.0
 30
0.0
210
0.0
220
0.0
230
1.0
  2
SOLID
 70
     1
 71
     1
 91
        1
 92
        1
 93
        1
 72
     4
 94
        3
 73
     0
 74
     0
 95
       47
 96
       43
 40
0.0
 40
0.0
 40
0.0
 40
0.0
 40
1.0
 40
1.0
 40
1.0
 40
2.0
 40
2.0
 40
2.0
 40
3.0
 40
3.0
 40
3.0
 40
4.0
 40
4.0
 40
4.0
 40
5.0
 40
5.0
 40
5.0
 40
6.0
 40
6.0
 40
6.0
 40
7.0
 40
7.0
 40
7.0
 40
8.0
 40
8.0
 40
8.0
 40
9.0
 40
9.0
 40
9.0
 40
10.0
 40
10.0
 40
10.0
 40
11.0
 40
11.0
 40
11.0
 40
12.0
 40
12.0
 40
12.0
 40
13.0
 40
13.0
 40
13.0
 40
14.0
 40
14.0
 40
14.0
 40
14.0
 10
119.2915988200035
 20
-150.1420843808672
 10
119.2216633816529
 20
-150.4211371151725
 10
119.1455267714289
 20
-150.7256835560686
 10
118.8327121013682
 20
-151.0577907608466
 10
118.595689531983
 20
-151.3075601835272
 10
118.3503987334332
 20
-151.407123443051
 10
118.2446343020361
 20
-151.449153607971
 10
118.2446343020361
 20
-151.449153607971
 10
118.0499864071194
 20
-151.2672525663498
 10
118.0499864071194
 20
-151.2672525663498
 10
118.2360215633229
 20
-151.220743777299
 10
118.5977565892742
 20
-151.1277261991972
 10
118.8940348010056
 20
-150.6326659779668
 10
119.0545762506183
 20
-150.3660155874085
 10
119.0673231039137
 20
-150.1927272845004
 10
119.0759358426268
 20
-150.1017767636898
 10
119.0759358426268
 20
-150.1017767636898
 10
118.5701958253922
 20
-150.1017767636898
 10
118.5701958253922
 20
-150.1017767636898
 10
118.4516845406996
 20
-150.1017767636898
 10
118.030693872402
 20
-150.1207247888587
 10
117.878420651954
 20
-150.131404584863
 10
117.878420651954
 20
-150.131404584863
 10
117.878420651954
 20
-149.9219427793598
 10
117.878420651954
 20
-149.9219427793598
 10
118.0203585859463
 20
-149.9346896326552
 10
118.2973442629604
 20
-149.9388237472375
 10
118.4137884903618
 20
-149.9388237472375
 10
118.4137884903618
 20
-149.9388237472375
 10
118.7689778348911
 20
-149.9388237472375
 10
118.7689778348911
 20
-149.9388237472375
 10
118.7965385987731
 20
-149.9388237472375
 10
118.9574245579342
 20
-149.9367566899463
 10
119.0673231039137
 20
-149.9219427793598
 10
119.1245116889689
 20
-149.9153970979378
 10
119.1413926568466
 20
-149.8964490727689
 10
119.1648193061463
 20
-149.8733669330177
 10
119.1648193061463
 20
-149.8733669330177
 10
119.3529215196409
 20
-150.0235730961746
 10
119.3529215196409
 20
-150.0235730961746
 10
119.3381076090543
 20
-150.0532009173478
 10
119.3277723225986
 20
-150.0721489425167
 10
119.2915988200035
 20
-150.1420843808672
 97
        0
 97
        1
330
192
 75
     2
 76
     1
 98
        1
 10
0.0
 20
0.0
450
        0
451
        0
460
0.0
461
0.0
452
        0
462
0.0
453
        0
470

  0
SPLINE
  5
194
330
180
100
AcDbEntity
  8
レイヤー 1
100
AcDbSpline
210
0.0
220
0.0
230
1.0
 70
    11
 71
     3
 72
    17
 73
    13
 74
     0
 42
0.0000000001
 43
0.0000000001
 40
0.0
 40
0.0
 40
0.0
 40
0.0
 40
1.0
 40
1.0
 40
1.0
 40
2.0
 40
2.0
 40
2.0
 40
3.0
 40
3.0
 40
3.0
 40
4.0
 40
4.0
 40
4.0
 40
4.0
 10
119.6819281384823
 20
-149.9240098366509
 30
0.0
 10
119.6819281384823
 20
-149.9832654789972
 30
0.0
 10
119.7284369275331
 20
-150.0297742680481
 30
0.0
 10
119.7876925698794
 20
-150.0297742680481
 30
0.0
 10
119.8469482122257
 20
-150.0297742680481
 30
0.0
 10
119.8955240585678
 20
-149.9832654789972
 30
0.0
 10
119.8955240585678
 20
-149.9240098366509
 30
0.0
 10
119.8955240585678
 20
-149.8647541943046
 30
0.0
 10
119.8469482122257
 20
-149.8161783479626
 30
0.0
 10
119.7876925698794
 20
-149.8161783479626
 30
0.0
 10
119.7284369275331
 20
-149.8161783479626
 30
0.0
 10
119.6819281384823
 20
-149.8647541943046
 30
0.0
 10
119.6819281384823
 20
-149.9240098366509
 30
0.0
  0
SPLINE
  5
195
330
180
100
AcDbEntity
  8
レイヤー 1
100
AcDbSpline
210
0.0
220
0.0
230
1.0
 70
     9
 71
     3
 72
    17
 73
    13
 74
     0
 42
0.0000000001
 43
0.0000000001
 40
0.0
 40
0.0
 40
0.0
 40
0.0
 40
1.0
 40
1.0
 40
1.0
 40
2.0
 40
2.0
 40
2.0
 40
3.0
 40
3.0
 40
3.0
 40
4.0
 40
4.0
 40
4.0
 40
4.0
 10
119.9971543753826
 20
-149.9240098366509
 30
0.0
 10
119.9971543753826
 20
-150.0383870067612
 30
0.0
 10
119.9041367972809
 20
-150.1334716421541
 30
0.0
 10
119.7876925698794
 20
-150.1334716421541
 30
0.0
 10
119.6733153997691
 20
-150.1334716421541
 30
0.0
 10
119.5782307643763
 20
-150.0383870067612
 30
0.0
 10
119.5782307643763
 20
-149.9240098366509
 30
0.0
 10
119.5782307643763
 20
-149.8075656092495
 30
0.0
 10
119.6733153997691
 20
-149.7145480311477
 30
0.0
 10
119.7876925698794
 20
-149.7145480311477
 30
0.0
 10
119.9020697399898
 20
-149.7145480311477
 30
0.0
 10
119.9971543753826
 20
-149.8075656092495
 30
0.0
 10
119.9971543753826
 20
-149.9240098366509
 30
0.0
  0
HATCH
  5
196
330
180
100
AcDbEntity
  8
レイヤー 1
 62
    18
420
        0
440
 33554687
100
AcDbHatch
 10
0.0
 20
0.0
 30
0.0
210
0.0
220
0.0
230
1.0
  2
SOLID
 70
     1
 71
     1
 91
        2
 92
        1
 93
        1
 72
     4
 94
        3
 73
     0
 74
     0
 95
       17
 96
       13
 40
0.0
 40
0.0
 40
0.0
 40
0.0
 40
1.0
 40
1.0
 40
1.0
 40
2.0
 40
2.0
 40
2.0
 40
3.0
 40
3.0
 40
3.0
 40
4.0
 40
4.0
 40
4.0
 40
4.0
 10
119.6819281384823
 20
-149.9240098366509
 10
119.6819281384823
 20
-149.9832654789972
 10
119.7284369275331
 20
-150.0297742680481
 10
119.7876925698794
 20
-150.0297742680481
 10
119.8469482122257
 20
-150.0297742680481
 10
119.8955240585678
 20
-149.9832654789972
 10
119.8955240585678
 20
-149.9240098366509
 10
119.8955240585678
 20
-149.8647541943046
 10
119.8469482122257
 20
-149.8161783479626
 10
119.7876925698794
 20
-149.8161783479626
 10
119.7284369275331
 20
-149.8161783479626
 10
119.6819281384823
 20
-149.8647541943046
 10
119.6819281384823
 20
-149.9240098366509
 97
        0
 97
        1
330
194
 92
        1
 93
        1
 72
     4
 94
        3
 73
     0
 74
     0
 95
       17
 96
       13
 40
0.0
 40
0.0
 40
0.0
 40
0.0
 40
1.0
 40
1.0
 40
1.0
 40
2.0
 40
2.0
 40
2.0
 40
3.0
 40
3.0
 40
3.0
 40
4.0
 40
4.0
 40
4.0
 40
4.0
 10
119.9971543753826
 20
-149.9240098366509
 10
119.9971543753826
 20
-150.0383870067612
 10
119.9041367972809
 20
-150.1334716421541
 10
119.7876925698794
 20
-150.1334716421541
 10
119.6733153997691
 20
-150.1334716421541
 10
119.5782307643763
 20
-150.0383870067612
 10
119.5782307643763
 20
-149.9240098366509
 10
119.5782307643763
 20
-149.8075656092495
 10
119.6733153997691
 20
-149.7145480311477
 10
119.7876925698794
 20
-149.7145480311477
 10
119.9020697399898
 20
-149.7145480311477
 10
119.9971543753826
 20
-149.8075656092495
 10
119.9971543753826
 20
-149.9240098366509
 97
        0
 97
        1
330
195
 75
     2
 76
     1
 98
        1
 10
0.0
 20
0.0
450
        0
451
        0
460
0.0
461
0.0
452
        0
462
0.0
453
        0
470

  0
ENDBLK
  5
183
330
180
100
AcDbEntity
  8
0
100
AcDbBlockEnd
  0
ENDSEC
  0
SECTION
  2
ENTITIES
  0
INSERT
  5
7A
330
70
100
AcDbEntity
  8
レイヤー 1
100
AcDbBlockReference
  2
Block_0
 10
0.0
 20
0.0
 30
0.0
  0
LINE
  5
B3
330
70
100
AcDbEntity
  8
レイヤー 1
  6
AI-Linetype-0
 62
   154
420
    23468
370
    25
100
AcDbLine
 10
67.39350700145519
 20
-146.8674884616682
 30
0.0
 11
77.39376896854948
 21
-146.8674884616682
 31
0.0
  0
LINE
  5
B5
330
70
100
AcDbEntity
  8
レイヤー 1
  6
AI-Linetype-1
 62
   154
420
    23468
370
    25
100
AcDbLine
 10
104.9314252104498
 20
-146.8674884616682
 30
0.0
 11
115.3966129990158
 21
-146.8674884616682
 31
0.0
  0
LINE
  5
B7
330
70
100
AcDbEntity
  8
レイヤー 1
 62
   250
420
  2299925
370
    25
100
AcDbLine
 10
95.39541878706691
 20
-154.1579940154012
 30
0.0
 11
87.3952303800576
 21
-154.1579940154012
 31
0.0
  0
LINE
  5
B8
330
70
100
AcDbEntity
  8
レイヤー 1
 62
   250
420
  2299925
370
    25
100
AcDbLine
 10
67.39350700145519
 20
-145.6579192953041
 30
0.0
 11
67.39350700145519
 21
-146.1581581840678
 31
0.0
  0
LINE
  5
B9
330
70
100
AcDbEntity
  8
レイヤー 1
 62
   250
420
  2299925
370
    25
100
AcDbLine
 10
87.3952303800576
 20
-146.1581581840678
 30
0.0
 11
67.39350700145519
 21
-146.1581581840678
 31
0.0
  0
LINE
  5
BA
330
70
100
AcDbEntity
  8
レイヤー 1
 62
   250
420
  2299925
370
    25
100
AcDbLine
 10
67.39350700145519
 20
-145.6579192953041
 30
0.0
 11
67.90750421056426
 21
-146.0399776285418
 31
0.0
  0
LINE
  5
BB
330
70
100
AcDbEntity
  8
レイヤー 1
 62
   250
420
  2299925
370
    25
100
AcDbLine
 10
67.90750421056426
 20
-146.0399776285418
 30
0.0
 11
68.39292642040232
 21
-145.6224298508683
 31
0.0
  0
LINE
  5
BC
330
70
100
AcDbEntity
  8
レイヤー 1
 62
   250
420
  2299925
370
    25
100
AcDbLine
 10
68.90692362951138
 20
-146.0044881841063
 30
0.0
 11
69.39234583934944
 21
-145.5865876286551
 31
0.0
  0
LINE
  5
BD
330
70
100
AcDbEntity
  8
レイヤー 1
 62
   250
420
  2299925
370
    25
100
AcDbLine
 10
68.39292642040232
 20
-145.6224298508683
 30
0.0
 11
68.90692362951138
 21
-146.0044881841063
 31
0.0
  0
LINE
  5
BE
330
70
100
AcDbEntity
  8
レイヤー 1
 62
   250
420
  2299925
370
    25
100
AcDbLine
 10
69.39234583934944
 20
-145.5865876286551
 30
0.0
 11
69.90637832623538
 21
-145.9686812396709
 31
0.0
  0
LINE
  5
BF
330
70
100
AcDbEntity
  8
レイヤー 1
 62
   250
420
  2299925
370
    25
100
AcDbLine
 10
69.90637832623538
 20
-145.9686812396709
 30
0.0
 11
70.39176525829659
 21
-145.5511334619974
 31
0.0
  0
LINE
  5
C0
330
70
100
AcDbEntity
  8
レイヤー 1
 62
   250
420
  2299925
370
    25
100
AcDbLine
 10
70.39176525829659
 20
-145.5511334619974
 30
0.0
 11
70.90544496741374
 21
-145.9328390174577
 31
0.0
  0
LINE
  5
C1
330
70
100
AcDbEntity
  8
レイヤー 1
 62
   250
420
  2299925
370
    25
100
AcDbLine
 10
70.90544496741374
 20
-145.9328390174577
 30
0.0
 11
71.39118467724371
 21
-145.5152912397842
 31
0.0
  0
LINE
  5
C2
330
70
100
AcDbEntity
  8
レイヤー 1
 62
   250
420
  2299925
370
    25
100
AcDbLine
 10
71.39118467724371
 20
-145.5152912397842
 30
0.0
 11
71.90521716412965
 21
-145.8969967952447
 31
0.0
  0
LINE
  5
C3
330
70
100
AcDbEntity
  8
レイヤー 1
 62
   250
420
  2299925
370
    25
100
AcDbLine
 10
71.90521716412965
 20
-145.8969967952447
 30
0.0
 11
72.39028659619894
 21
-145.4794490175709
 31
0.0
  0
LINE
  5
C4
330
70
100
AcDbEntity
  8
レイヤー 1
 62
   250
420
  2299925
370
    25
100
AcDbLine
 10
72.39028659619894
 20
-145.4794490175709
 30
0.0
 11
72.90428380530769
 21
-145.8615073508086
 31
0.0
  0
LINE
  5
C5
330
70
100
AcDbEntity
  8
レイヤー 1
 62
   250
420
  2299925
370
    25
100
AcDbLine
 10
72.90428380530769
 20
-145.8615073508086
 30
0.0
 11
73.39005879291517
 21
-145.4439595731354
 31
0.0
  0
LINE
  5
C6
330
70
100
AcDbEntity
  8
レイヤー 1
 62
   250
420
  2299925
370
    25
100
AcDbLine
 10
73.39005879291517
 20
-145.4439595731354
 30
0.0
 11
73.90370322425514
 21
-145.826053184151
 31
0.0
  0
LINE
  5
C7
330
70
100
AcDbEntity
  8
レイヤー 1
 62
   250
420
  2299925
370
    25
100
AcDbLine
 10
73.90370322425514
 20
-145.826053184151
 30
0.0
 11
74.3891254340932
 21
-145.4081526286997
 31
0.0
  0
LINE
  5
C8
330
70
100
AcDbEntity
  8
レイヤー 1
 62
   250
420
  2299925
370
    25
100
AcDbLine
 10
74.90312264320227
 20
-145.7902109619377
 30
0.0
 11
75.38854485304033
 21
-145.3726631842642
 31
0.0
  0
LINE
  5
C9
330
70
100
AcDbEntity
  8
レイヤー 1
 62
   250
420
  2299925
370
    25
100
AcDbLine
 10
74.3891254340932
 20
-145.4081526286997
 30
0.0
 11
74.90312264320227
 21
-145.7902109619377
 31
0.0
  0
LINE
  5
CA
330
70
100
AcDbEntity
  8
レイヤー 1
 62
   250
420
  2299925
370
    25
100
AcDbLine
 10
75.38854485304033
 20
-145.3726631842642
 30
0.0
 11
75.9025420621494
 21
-145.7543687397245
 31
0.0
  0
LINE
  5
CB
330
70
100
AcDbEntity
  8
レイヤー 1
 62
   250
420
  2299925
370
    25
100
AcDbLine
 10
75.9025420621494
 20
-145.7543687397245
 30
0.0
 11
76.38796427198747
 21
-145.336820962051
 31
0.0
  0
LINE
  5
CC
330
70
100
AcDbEntity
  8
レイヤー 1
 62
   250
420
  2299925
370
    25
100
AcDbLine
 10
76.90178509221214
 20
-145.7185617952887
 30
0.0
 11
77.38685452428143
 21
-145.3010140176156
 31
0.0
  0
LINE
  5
CD
330
70
100
AcDbEntity
  8
レイヤー 1
 62
   250
420
  2299925
370
    25
100
AcDbLine
 10
76.38796427198747
 20
-145.336820962051
 30
0.0
 11
76.90178509221214
 21
-145.7185617952887
 31
0.0
  0
LINE
  5
CE
330
70
100
AcDbEntity
  8
レイヤー 1
 62
   250
420
  2299925
370
    25
100
AcDbLine
 10
77.90088701116737
 20
-145.6830723508533
 30
0.0
 11
78.38662672099734
 21
-145.2655245731798
 31
0.0
  0
LINE
  5
CF
330
70
100
AcDbEntity
  8
レイヤー 1
 62
   250
420
  2299925
370
    25
100
AcDbLine
 10
77.38685452428143
 20
-145.3010140176156
 30
0.0
 11
77.90088701116737
 21
-145.6830723508533
 31
0.0
  0
LINE
  5
D0
330
70
100
AcDbEntity
  8
レイヤー 1
 62
   250
420
  2299925
370
    25
100
AcDbLine
 10
78.38662672099734
 20
-145.2655245731798
 30
0.0
 11
78.90065920788328
 21
-145.6475829064178
 31
0.0
  0
LINE
  5
D1
330
70
100
AcDbEntity
  8
レイヤー 1
 62
   250
420
  2299925
370
    25
100
AcDbLine
 10
78.90065920788328
 20
-145.6475829064178
 30
0.0
 11
79.38572863995289
 21
-145.2296823509665
 31
0.0
  0
LINE
  5
D2
330
70
100
AcDbEntity
  8
レイヤー 1
 62
   250
420
  2299925
370
    25
100
AcDbLine
 10
79.38572863995289
 20
-145.2296823509665
 30
0.0
 11
79.9000786268304
 21
-145.6117406842045
 31
0.0
  0
LINE
  5
D3
330
70
100
AcDbEntity
  8
レイヤー 1
 62
   250
420
  2299925
370
    25
100
AcDbLine
 10
79.9000786268304
 20
-145.6117406842045
 30
0.0
 11
80.3851480588997
 21
-145.194192906531
 31
0.0
  0
LINE
  5
D4
330
70
100
AcDbEntity
  8
レイヤー 1
 62
   250
420
  2299925
370
    25
100
AcDbLine
 10
80.3851480588997
 20
-145.194192906531
 30
0.0
 11
80.89914526800876
 21
-145.5759337397688
 31
0.0
  0
LINE
  5
D5
330
70
100
AcDbEntity
  8
レイヤー 1
 62
   250
420
  2299925
370
    25
100
AcDbLine
 10
80.89914526800876
 20
-145.5759337397688
 30
0.0
 11
81.38492025561561
 21
-145.1583859620956
 31
0.0
  0
LINE
  5
D6
330
70
100
AcDbEntity
  8
レイヤー 1
 62
   250
420
  2299925
370
    25
100
AcDbLine
 10
81.38492025561561
 20
-145.1583859620956
 30
0.0
 11
81.89891746472467
 21
-145.5400915175555
 31
0.0
  0
LINE
  5
D7
330
70
100
AcDbEntity
  8
レイヤー 1
 62
   250
420
  2299925
370
    25
100
AcDbLine
 10
81.89891746472467
 20
-145.5400915175555
 30
0.0
 11
82.38398689679396
 21
-145.1225437398823
 31
0.0
  0
LINE
  5
D8
330
70
100
AcDbEntity
  8
レイヤー 1
 62
   250
420
  2299925
370
    25
100
AcDbLine
 10
82.38398689679396
 20
-145.1225437398823
 30
0.0
 11
82.89798410590302
 21
-145.5046020731201
 31
0.0
  0
LINE
  5
D9
330
70
100
AcDbEntity
  8
レイヤー 1
 62
   250
420
  2299925
370
    25
100
AcDbLine
 10
82.89798410590302
 20
-145.5046020731201
 30
0.0
 11
83.38375909350986
 21
-145.0870542954465
 31
0.0
  0
LINE
  5
DA
330
70
100
AcDbEntity
  8
レイヤー 1
 62
   250
420
  2299925
370
    25
100
AcDbLine
 10
83.38375909350986
 20
-145.0870542954465
 30
0.0
 11
83.89775630261892
 21
-145.4691126286846
 31
0.0
  0
LINE
  5
DB
330
70
100
AcDbEntity
  8
レイヤー 1
 62
   250
420
  2299925
370
    25
100
AcDbLine
 10
83.89775630261892
 20
-145.4691126286846
 30
0.0
 11
84.38282573468855
 21
-145.0512473510111
 31
0.0
  0
LINE
  5
DC
330
70
100
AcDbEntity
  8
レイヤー 1
 62
   250
420
  2299925
370
    25
100
AcDbLine
 10
84.38282573468855
 20
-145.0512473510111
 30
0.0
 11
84.89682294379729
 21
-145.4333056842491
 31
0.0
  0
LINE
  5
DD
330
70
100
AcDbEntity
  8
レイヤー 1
 62
   250
420
  2299925
370
    25
100
AcDbLine
 10
84.89682294379729
 20
-145.4333056842491
 30
0.0
 11
85.38259793140413
 21
-145.0157579065757
 31
0.0
  0
LINE
  5
DE
330
70
100
AcDbEntity
  8
レイヤー 1
 62
   250
420
  2299925
370
    25
100
AcDbLine
 10
85.38259793140413
 20
-145.0157579065757
 30
0.0
 11
85.89659514051319
 21
-145.3974634620359
 31
0.0
  0
LINE
  5
DF
330
70
100
AcDbEntity
  8
レイヤー 1
 62
   250
420
  2299925
370
    25
100
AcDbLine
 10
85.89659514051319
 20
-145.3974634620359
 30
0.0
 11
86.38166457258249
 21
-144.9799156843624
 31
0.0
  0
LINE
  5
E0
330
70
100
AcDbEntity
  8
レイヤー 1
 62
   250
420
  2299925
370
    25
100
AcDbLine
 10
86.38166457258249
 20
-144.9799156843624
 30
0.0
 11
86.89566178169155
 21
-145.3616565176002
 31
0.0
  0
LINE
  5
E1
330
70
100
AcDbEntity
  8
レイヤー 1
 62
   250
420
  2299925
370
    25
100
AcDbLine
 10
86.89566178169155
 20
-145.3616565176002
 30
0.0
 11
87.38143676929807
 21
-144.944108739927
 31
0.0
  0
LINE
  5
E2
330
70
100
AcDbEntity
  8
レイヤー 1
 62
   250
420
  2299925
370
    25
100
AcDbLine
 10
87.43754073397182
 20
-144.895848739939
 30
0.0
 11
88.39496729899662
 21
-144.895848739939
 31
0.0
  0
LINE
  5
E3
330
70
100
AcDbEntity
  8
レイヤー 1
 62
   250
420
  2299925
370
    25
100
AcDbLine
 10
88.39496729899662
 20
-144.895848739939
 30
0.0
 11
88.39496729899662
 21
-153.1579042934291
 31
0.0
  0
LINE
  5
E4
330
70
100
AcDbEntity
  8
レイヤー 1
 62
   250
420
  2299925
370
    25
100
AcDbLine
 10
87.3952303800576
 20
-146.1581581840678
 30
0.0
 11
87.3952303800576
 21
-154.1579940154012
 31
0.0
  0
LINE
  5
E5
330
70
100
AcDbEntity
  8
レイヤー 1
 62
   250
420
  2299925
370
    25
100
AcDbLine
 10
94.39497631259031
 20
-153.1579042934291
 30
0.0
 11
88.39496729899662
 21
-153.1579042934291
 31
0.0
  0
LINE
  5
E6
330
70
100
AcDbEntity
  8
レイヤー 1
 62
   250
420
  2299925
370
    25
100
AcDbLine
 10
105.4027363095367
 20
-145.3010140176156
 30
0.0
 11
104.8887391004277
 21
-145.6830723508533
 31
0.0
  0
LINE
  5
E7
330
70
100
AcDbEntity
  8
レイヤー 1
 62
   250
420
  2299925
370
    25
100
AcDbLine
 10
110.3994806265033
 20
-145.4794490175709
 30
0.0
 11
109.8854834173942
 21
-145.8615073508086
 31
0.0
  0
LINE
  5
E8
330
70
100
AcDbEntity
  8
レイヤー 1
 62
   250
420
  2299925
370
    25
100
AcDbLine
 10
105.8878057416057
 20
-145.7185617952887
 30
0.0
 11
105.4027363095367
 21
-145.3010140176156
 31
0.0
  0
LINE
  5
E9
330
70
100
AcDbEntity
  8
レイヤー 1
 62
   250
420
  2299925
370
    25
100
AcDbLine
 10
106.8875779383216
 20
-145.7543687397245
 30
0.0
 11
106.4018029507147
 21
-145.336820962051
 31
0.0
  0
LINE
  5
EA
330
70
100
AcDbEntity
  8
レイヤー 1
 62
   250
420
  2299925
370
    25
100
AcDbLine
 10
104.8887391004277
 20
-145.6830723508533
 30
0.0
 11
104.403669668358
 21
-145.2655245731798
 31
0.0
  0
LINE
  5
EB
330
70
100
AcDbEntity
  8
レイヤー 1
 62
   250
420
  2299925
370
    25
100
AcDbLine
 10
106.4018029507147
 20
-145.336820962051
 30
0.0
 11
105.8878057416057
 21
-145.7185617952887
 31
0.0
  0
LINE
  5
EC
330
70
100
AcDbEntity
  8
レイヤー 1
 62
   250
420
  2299925
370
    25
100
AcDbLine
 10
114.3971935800687
 20
-145.6224298508683
 30
0.0
 11
113.8831610931827
 21
-146.0044881841063
 31
0.0
  0
LINE
  5
ED
330
70
100
AcDbEntity
  8
レイヤー 1
 62
   250
420
  2299925
370
    25
100
AcDbLine
 10
107.4015751474306
 20
-145.3726631842642
 30
0.0
 11
106.8875779383216
 21
-145.7543687397245
 31
0.0
  0
LINE
  5
EE
330
70
100
AcDbEntity
  8
レイヤー 1
 62
   250
420
  2299925
370
    25
100
AcDbLine
 10
108.400641788609
 20
-145.4081526286997
 30
0.0
 11
107.8866445794999
 21
-145.7902109619377
 31
0.0
  0
LINE
  5
EF
330
70
100
AcDbEntity
  8
レイヤー 1
 62
   250
420
  2299925
370
    25
100
AcDbLine
 10
94.39497631259031
 20
-144.895848739939
 30
0.0
 11
94.39497631259031
 21
-153.1579042934291
 31
0.0
  0
LINE
  5
F0
330
70
100
AcDbEntity
  8
レイヤー 1
 62
   250
420
  2299925
370
    25
100
AcDbLine
 10
107.8866445794999
 20
-145.7902109619377
 30
0.0
 11
107.4015751474306
 21
-145.3726631842642
 31
0.0
  0
LINE
  5
F1
330
70
100
AcDbEntity
  8
レイヤー 1
 62
   250
420
  2299925
370
    25
100
AcDbLine
 10
108.8864167762159
 20
-145.826053184151
 30
0.0
 11
108.400641788609
 21
-145.4081526286997
 31
0.0
  0
LINE
  5
F2
330
70
100
AcDbEntity
  8
レイヤー 1
 62
   250
420
  2299925
370
    25
100
AcDbLine
 10
113.8831610931827
 20
-146.0044881841063
 30
0.0
 11
113.3974213833528
 21
-145.5865876286551
 31
0.0
  0
LINE
  5
F3
330
70
100
AcDbEntity
  8
レイヤー 1
 62
   250
420
  2299925
370
    25
100
AcDbLine
 10
109.4004139853249
 20
-145.4439595731354
 30
0.0
 11
108.8864167762159
 21
-145.826053184151
 31
0.0
  0
LINE
  5
F4
330
70
100
AcDbEntity
  8
レイヤー 1
 62
   250
420
  2299925
370
    25
100
AcDbLine
 10
109.8854834173942
 20
-145.8615073508086
 30
0.0
 11
109.4004139853249
 21
-145.4439595731354
 31
0.0
  0
LINE
  5
F5
330
70
100
AcDbEntity
  8
レイヤー 1
 62
   250
420
  2299925
370
    25
100
AcDbLine
 10
114.882263012138
 20
-146.0399776285418
 30
0.0
 11
114.3971935800687
 21
-145.6224298508683
 31
0.0
  0
LINE
  5
F6
330
70
100
AcDbEntity
  8
レイヤー 1
 62
   250
420
  2299925
370
    25
100
AcDbLine
 10
111.3985825454585
 20
-145.5152912397842
 30
0.0
 11
110.8852556141101
 21
-145.8969967952447
 31
0.0
  0
LINE
  5
F7
330
70
100
AcDbEntity
  8
レイヤー 1
 62
   250
420
  2299925
370
    25
100
AcDbLine
 10
112.3983547421744
 20
-145.5511334619974
 30
0.0
 11
111.8843222552885
 21
-145.9328390174577
 31
0.0
  0
LINE
  5
F8
330
70
100
AcDbEntity
  8
レイヤー 1
 62
   250
420
  2299925
370
    25
100
AcDbLine
 10
111.8843222552885
 20
-145.9328390174577
 30
0.0
 11
111.3985825454585
 21
-145.5152912397842
 31
0.0
  0
LINE
  5
F9
330
70
100
AcDbEntity
  8
レイヤー 1
 62
   250
420
  2299925
370
    25
100
AcDbLine
 10
115.396260221247
 20
-145.6579192953041
 30
0.0
 11
114.882263012138
 21
-146.0399776285418
 31
0.0
  0
LINE
  5
FA
330
70
100
AcDbEntity
  8
レイヤー 1
 62
   250
420
  2299925
370
    25
100
AcDbLine
 10
110.8852556141101
 20
-145.8969967952447
 30
0.0
 11
110.3994806265033
 21
-145.4794490175709
 31
0.0
  0
LINE
  5
FB
330
70
100
AcDbEntity
  8
レイヤー 1
 62
   250
420
  2299925
370
    25
100
AcDbLine
 10
113.3974213833528
 20
-145.5865876286551
 30
0.0
 11
112.8834241742437
 21
-145.9686812396709
 31
0.0
  0
LINE
  5
FC
330
70
100
AcDbEntity
  8
レイヤー 1
 62
   250
420
  2299925
370
    25
100
AcDbLine
 10
112.8834241742437
 20
-145.9686812396709
 30
0.0
 11
112.3983547421744
 21
-145.5511334619974
 31
0.0
  0
LINE
  5
FD
330
70
100
AcDbEntity
  8
レイヤー 1
 62
   250
420
  2299925
370
    25
100
AcDbLine
 10
115.396260221247
 20
-145.6579192953041
 30
0.0
 11
115.396260221247
 21
-146.1581581840678
 31
0.0
  0
LINE
  5
FE
330
70
100
AcDbEntity
  8
レイヤー 1
 62
   250
420
  2299925
370
    25
100
AcDbLine
 10
95.39541878706691
 20
-146.1581581840678
 30
0.0
 11
115.396260221247
 21
-146.1581581840678
 31
0.0
  0
LINE
  5
FF
330
70
100
AcDbEntity
  8
レイヤー 1
 62
   250
420
  2299925
370
    25
100
AcDbLine
 10
104.403669668358
 20
-145.2655245731798
 30
0.0
 11
103.8896371814724
 21
-145.6475829064178
 31
0.0
  0
LINE
  5
100
330
70
100
AcDbEntity
  8
レイヤー 1
 62
   250
420
  2299925
370
    25
100
AcDbLine
 10
103.8896371814724
 20
-145.6475829064178
 30
0.0
 11
103.4038974716425
 21
-145.2296823509665
 31
0.0
  0
LINE
  5
101
330
70
100
AcDbEntity
  8
レイヤー 1
 62
   250
420
  2299925
370
    25
100
AcDbLine
 10
103.4038974716425
 20
-145.2296823509665
 30
0.0
 11
102.8898649847565
 21
-145.6117406842045
 31
0.0
  0
LINE
  5
102
330
70
100
AcDbEntity
  8
レイヤー 1
 62
   250
420
  2299925
370
    25
100
AcDbLine
 10
102.8898649847565
 20
-145.6117406842045
 30
0.0
 11
102.4047955526872
 21
-145.194192906531
 31
0.0
  0
LINE
  5
103
330
70
100
AcDbEntity
  8
レイヤー 1
 62
   250
420
  2299925
370
    25
100
AcDbLine
 10
102.4047955526872
 20
-145.194192906531
 30
0.0
 11
101.8907983435782
 21
-145.5759337397688
 31
0.0
  0
LINE
  5
104
330
70
100
AcDbEntity
  8
レイヤー 1
 62
   250
420
  2299925
370
    25
100
AcDbLine
 10
101.8907983435782
 20
-145.5759337397688
 30
0.0
 11
101.4050586337485
 21
-145.1583859620956
 31
0.0
  0
LINE
  5
105
330
70
100
AcDbEntity
  8
レイヤー 1
 62
   250
420
  2299925
370
    25
100
AcDbLine
 10
101.4050586337485
 20
-145.1583859620956
 30
0.0
 11
100.8910261468622
 21
-145.5400915175555
 31
0.0
  0
LINE
  5
106
330
70
100
AcDbEntity
  8
レイヤー 1
 62
   250
420
  2299925
370
    25
100
AcDbLine
 10
100.8910261468622
 20
-145.5400915175555
 30
0.0
 11
100.405956714793
 21
-145.1225437398823
 31
0.0
  0
LINE
  5
107
330
70
100
AcDbEntity
  8
レイヤー 1
 62
   250
420
  2299925
370
    25
100
AcDbLine
 10
100.405956714793
 20
-145.1225437398823
 30
0.0
 11
99.89195950568394
 21
-145.5046020731201
 31
0.0
  0
LINE
  5
108
330
70
100
AcDbEntity
  8
レイヤー 1
 62
   250
420
  2299925
370
    25
100
AcDbLine
 10
99.89195950568394
 20
-145.5046020731201
 30
0.0
 11
99.40689007361463
 21
-145.0870542954465
 31
0.0
  0
LINE
  5
109
330
70
100
AcDbEntity
  8
レイヤー 1
 62
   250
420
  2299925
370
    25
100
AcDbLine
 10
99.40689007361463
 20
-145.0870542954465
 30
0.0
 11
98.89289286450557
 21
-145.4691126286846
 31
0.0
  0
LINE
  5
10A
330
70
100
AcDbEntity
  8
レイヤー 1
 62
   250
420
  2299925
370
    25
100
AcDbLine
 10
98.89289286450557
 20
-145.4691126286846
 30
0.0
 11
98.40711787689905
 21
-145.0512473510111
 31
0.0
  0
LINE
  5
10B
330
70
100
AcDbEntity
  8
レイヤー 1
 62
   250
420
  2299925
370
    25
100
AcDbLine
 10
98.40711787689905
 20
-145.0512473510111
 30
0.0
 11
97.89312066778935
 21
-145.4333056842491
 31
0.0
  0
LINE
  5
10C
330
70
100
AcDbEntity
  8
レイヤー 1
 62
   250
420
  2299925
370
    25
100
AcDbLine
 10
97.89312066778935
 20
-145.4333056842491
 30
0.0
 11
97.40805123572037
 21
-145.0157579065757
 31
0.0
  0
LINE
  5
10D
330
70
100
AcDbEntity
  8
レイヤー 1
 62
   250
420
  2299925
370
    25
100
AcDbLine
 10
97.40805123572037
 20
-145.0157579065757
 30
0.0
 11
96.89401874883444
 21
-145.3974634620359
 31
0.0
  0
LINE
  5
10E
330
70
100
AcDbEntity
  8
レイヤー 1
 62
   250
420
  2299925
370
    25
100
AcDbLine
 10
96.89401874883444
 20
-145.3974634620359
 30
0.0
 11
96.40827903900447
 21
-144.9799156843624
 31
0.0
  0
LINE
  5
10F
330
70
100
AcDbEntity
  8
レイヤー 1
 62
   250
420
  2299925
370
    25
100
AcDbLine
 10
96.40827903900447
 20
-144.9799156843624
 30
0.0
 11
95.89428182989541
 21
-145.3616565176002
 31
0.0
  0
LINE
  5
110
330
70
100
AcDbEntity
  8
レイヤー 1
 62
   250
420
  2299925
370
    25
100
AcDbLine
 10
95.89428182989541
 20
-145.3616565176002
 30
0.0
 11
95.4092123978261
 21
-144.944108739927
 31
0.0
  0
LINE
  5
111
330
70
100
AcDbEntity
  8
レイヤー 1
 62
   250
420
  2299925
370
    25
100
AcDbLine
 10
95.34087078699633
 20
-144.895848739939
 30
0.0
 11
94.39497631259031
 21
-144.895848739939
 31
0.0
  0
LINE
  5
112
330
70
100
AcDbEntity
  8
レイヤー 1
 62
   250
420
  2299925
370
    25
100
AcDbLine
 10
95.39541878706691
 20
-146.1581581840678
 30
0.0
 11
95.39541878706691
 21
-154.1579940154012
 31
0.0
  0
SPLINE
  5
113
330
70
100
AcDbEntity
  8
レイヤー 1
 62
   250
420
  2299925
370
     9
100
AcDbSpline
210
0.0
220
0.0
230
1.0
 70
     9
 71
     3
 72
    17
 73
    13
 74
     0
 42
0.0000000001
 43
0.0000000001
 40
0.0
 40
0.0
 40
0.0
 40
0.0
 40
1.0
 40
1.0
 40
1.0
 40
2.0
 40
2.0
 40
2.0
 40
3.0
 40
3.0
 40
3.0
 40
4.0
 40
4.0
 40
4.0
 40
4.0
 10
67.49341366557302
 20
-140.8960895742721
 30
0.0
 10
67.49341366557302
 20
-140.8406329076194
 30
0.0
 10
67.44864616671513
 20
-140.7958654076306
 30
0.0
 10
67.39350700145519
 20
-140.7958654076306
 30
0.0
 10
67.33840311397212
 20
-140.7958654076306
 30
0.0
 10
67.29360033733735
 20
-140.8406329076194
 30
0.0
 10
67.29360033733735
 20
-140.8960895742721
 30
0.0
 10
67.29360033733735
 20
-140.9512287409252
 30
0.0
 10
67.33840311397212
 20
-140.9960315186916
 30
0.0
 10
67.39350700145519
 20
-140.9960315186916
 30
0.0
 10
67.44864616671513
 20
-140.9960315186916
 30
0.0
 10
67.49341366557302
 20
-140.9512287409252
 30
0.0
 10
67.49341366557302
 20
-140.8960895742721
 30
0.0
  0
SPLINE
  5
114
330
70
100
AcDbEntity
  8
レイヤー 1
 62
   250
420
  2299925
370
     9
100
AcDbSpline
210
0.0
220
0.0
230
1.0
 70
     9
 71
     3
 72
    17
 73
    13
 74
     0
 42
0.0000000001
 43
0.0000000001
 40
0.0
 40
0.0
 40
0.0
 40
0.0
 40
1.0
 40
1.0
 40
1.0
 40
2.0
 40
2.0
 40
2.0
 40
3.0
 40
3.0
 40
3.0
 40
4.0
 40
4.0
 40
4.0
 40
4.0
 10
63.49365460094872
 20
-145.6579192953041
 30
0.0
 10
63.49365460094872
 20
-145.602780128651
 30
0.0
 10
63.44888943535537
 20
-145.5580126286625
 30
0.0
 10
63.39357154794648
 20
-145.5580126286625
 30
0.0
 10
63.3384699909385
 20
-145.5580126286625
 30
0.0
 10
63.29366721317178
 20
-145.602780128651
 30
0.0
 10
63.29366721317178
 20
-145.6579192953041
 30
0.0
 10
63.29366721317178
 20
-145.713023184179
 30
0.0
 10
63.3384699909385
 20
-145.7578259619458
 30
0.0
 10
63.39357154794648
 20
-145.7578259619458
 30
0.0
 10
63.44888943535537
 20
-145.7578259619458
 30
0.0
 10
63.49365460094872
 20
-145.713023184179
 30
0.0
 10
63.49365460094872
 20
-145.6579192953041
 30
0.0
  0
SPLINE
  5
115
330
70
100
AcDbEntity
  8
レイヤー 1
 62
   250
420
  2299925
370
     9
100
AcDbSpline
210
0.0
220
0.0
230
1.0
 70
     9
 71
     3
 72
    17
 73
    13
 74
     0
 42
0.0000000001
 43
0.0000000001
 40
0.0
 40
0.0
 40
0.0
 40
0.0
 40
1.0
 40
1.0
 40
1.0
 40
2.0
 40
2.0
 40
2.0
 40
3.0
 40
3.0
 40
3.0
 40
4.0
 40
4.0
 40
4.0
 40
4.0
 10
63.49365460094872
 20
-146.1581581840678
 30
0.0
 10
63.49365460094872
 20
-146.1030190174151
 30
0.0
 10
63.44888943535537
 20
-146.0582515174262
 30
0.0
 10
63.39357154794648
 20
-146.0582515174262
 30
0.0
 10
63.3384699909385
 20
-146.0582515174262
 30
0.0
 10
63.29366721317178
 20
-146.1030190174151
 30
0.0
 10
63.29366721317178
 20
-146.1581581840678
 30
0.0
 10
63.29366721317178
 20
-146.213262072943
 30
0.0
 10
63.3384699909385
 20
-146.2580648507095
 30
0.0
 10
63.39357154794648
 20
-146.2580648507095
 30
0.0
 10
63.44888943535537
 20
-146.2580648507095
 30
0.0
 10
63.49365460094872
 20
-146.213262072943
 30
0.0
 10
63.49365460094872
 20
-146.1581581840678
 30
0.0
  0
SPLINE
  5
116
330
70
100
AcDbEntity
  8
レイヤー 1
 62
   250
420
  2299925
370
     9
100
AcDbSpline
210
0.0
220
0.0
230
1.0
 70
     9
 71
     3
 72
    17
 73
    13
 74
     0
 42
0.0000000001
 43
0.0000000001
 40
0.0
 40
0.0
 40
0.0
 40
0.0
 40
1.0
 40
1.0
 40
1.0
 40
2.0
 40
2.0
 40
2.0
 40
3.0
 40
3.0
 40
3.0
 40
4.0
 40
4.0
 40
4.0
 40
4.0
 10
63.49365460094872
 20
-154.1579940154012
 30
0.0
 10
63.49365460094872
 20
-154.1028901265263
 30
0.0
 10
63.44888943535537
 20
-154.0580873487596
 30
0.0
 10
63.39357154794648
 20
-154.0580873487596
 30
0.0
 10
63.3384699909385
 20
-154.0580873487596
 30
0.0
 10
63.29366721317178
 20
-154.1028901265263
 30
0.0
 10
63.29366721317178
 20
-154.1579940154012
 30
0.0
 10
63.29366721317178
 20
-154.2131331820543
 30
0.0
 10
63.3384699909385
 20
-154.2579006820429
 30
0.0
 10
63.39357154794648
 20
-154.2579006820429
 30
0.0
 10
63.44888943535537
 20
-154.2579006820429
 30
0.0
 10
63.49365460094872
 20
-154.2131331820543
 30
0.0
 10
63.49365460094872
 20
-154.1579940154012
 30
0.0
  0
SPLINE
  5
117
330
70
100
AcDbEntity
  8
レイヤー 1
 62
   250
420
  2299925
370
     9
100
AcDbSpline
210
0.0
220
0.0
230
1.0
 70
     9
 71
     3
 72
    17
 73
    13
 74
     0
 42
0.0000000001
 43
0.0000000001
 40
0.0
 40
0.0
 40
0.0
 40
0.0
 40
1.0
 40
1.0
 40
1.0
 40
2.0
 40
2.0
 40
2.0
 40
3.0
 40
3.0
 40
3.0
 40
4.0
 40
4.0
 40
4.0
 40
4.0
 10
88.49487396311447
 20
-140.8960895742721
 30
0.0
 10
88.49487396311447
 20
-140.8406329076194
 30
0.0
 10
88.45010646425658
 20
-140.7958654076306
 30
0.0
 10
88.39496729899662
 20
-140.7958654076306
 30
0.0
 10
88.33986341151357
 20
-140.7958654076306
 30
0.0
 10
88.2950606348788
 20
-140.8406329076194
 30
0.0
 10
88.2950606348788
 20
-140.8960895742721
 30
0.0
 10
88.2950606348788
 20
-140.9512287409252
 30
0.0
 10
88.33986341151357
 20
-140.9960315186916
 30
0.0
 10
88.39496729899662
 20
-140.9960315186916
 30
0.0
 10
88.45010646425658
 20
-140.9960315186916
 30
0.0
 10
88.49487396311447
 20
-140.9512287409252
 30
0.0
 10
88.49487396311447
 20
-140.8960895742721
 30
0.0
  0
SPLINE
  5
118
330
70
100
AcDbEntity
  8
レイヤー 1
 62
   250
420
  2299925
370
     9
100
AcDbSpline
210
0.0
220
0.0
230
1.0
 70
     9
 71
     3
 72
    17
 73
    13
 74
     0
 42
0.0000000001
 43
0.0000000001
 40
0.0
 40
0.0
 40
0.0
 40
0.0
 40
1.0
 40
1.0
 40
1.0
 40
2.0
 40
2.0
 40
2.0
 40
3.0
 40
3.0
 40
3.0
 40
4.0
 40
4.0
 40
4.0
 40
4.0
 10
115.4961668853649
 20
-140.8960895742721
 30
0.0
 10
115.4961668853649
 20
-140.8406329076194
 30
0.0
 10
115.451399386507
 20
-140.7958654076306
 30
0.0
 10
115.396260221247
 20
-140.7958654076306
 30
0.0
 10
115.341156333764
 20
-140.7958654076306
 30
0.0
 10
115.2963535571292
 20
-140.8406329076194
 30
0.0
 10
115.2963535571292
 20
-140.8960895742721
 30
0.0
 10
115.2963535571292
 20
-140.9512287409252
 30
0.0
 10
115.341156333764
 20
-140.9960315186916
 30
0.0
 10
115.396260221247
 20
-140.9960315186916
 30
0.0
 10
115.451399386507
 20
-140.9960315186916
 30
0.0
 10
115.4961668853649
 20
-140.9512287409252
 30
0.0
 10
115.4961668853649
 20
-140.8960895742721
 30
0.0
  0
SPLINE
  5
119
330
70
100
AcDbEntity
  8
レイヤー 1
 62
   250
420
  2299925
370
     9
100
AcDbSpline
210
0.0
220
0.0
230
1.0
 70
     9
 71
     3
 72
    17
 73
    13
 74
     0
 42
0.0000000001
 43
0.0000000001
 40
0.0
 40
0.0
 40
0.0
 40
0.0
 40
1.0
 40
1.0
 40
1.0
 40
2.0
 40
2.0
 40
2.0
 40
3.0
 40
3.0
 40
3.0
 40
4.0
 40
4.0
 40
4.0
 40
4.0
 10
94.49488297670782
 20
-140.8960895742721
 30
0.0
 10
94.49488297670782
 20
-140.8406329076194
 30
0.0
 10
94.45008020007339
 20
-140.7958654076306
 30
0.0
 10
94.39497631259031
 20
-140.7958654076306
 30
0.0
 10
94.33983714733036
 20
-140.7958654076306
 30
0.0
 10
94.29507276097721
 20
-140.8406329076194
 30
0.0
 10
94.29507276097721
 20
-140.8960895742721
 30
0.0
 10
94.29507276097721
 20
-140.9512287409252
 30
0.0
 10
94.33983714733036
 20
-140.9960315186916
 30
0.0
 10
94.39497631259031
 20
-140.9960315186916
 30
0.0
 10
94.45008020007339
 20
-140.9960315186916
 30
0.0
 10
94.49488297670782
 20
-140.9512287409252
 30
0.0
 10
94.49488297670782
 20
-140.8960895742721
 30
0.0
  0
LINE
  5
11A
330
70
100
AcDbEntity
  8
レイヤー 1
 62
   250
420
  2299925
370
     9
100
AcDbLine
 10
63.39357154794648
 20
-145.6579192953041
 30
0.0
 11
63.39357154794648
 21
-140.4000134632852
 31
0.0
  0
LINE
  5
11B
330
70
100
AcDbEntity
  8
レイヤー 1
 62
   250
420
  2299925
370
     9
100
AcDbLine
 10
63.39357154794648
 20
-145.6579192953041
 30
0.0
 11
63.39357154794648
 21
-146.1581581840678
 31
0.0
  0
LINE
  5
11C
330
70
100
AcDbEntity
  8
レイヤー 1
 62
   250
420
  2299925
370
     9
100
AcDbLine
 10
64.85378928847101
 20
-145.6579192953041
 30
0.0
 11
62.39365824012306
 21
-145.6579192953041
 31
0.0
  0
LINE
  5
11D
330
70
100
AcDbEntity
  8
レイヤー 1
 62
   250
420
  2299925
370
     9
100
AcDbLine
 10
64.85378928847101
 20
-146.1581581840678
 30
0.0
 11
62.39365824012306
 21
-146.1581581840678
 31
0.0
  0
INSERT
  5
11F
330
70
100
AcDbEntity
  8
レイヤー 1
100
AcDbBlockReference
  2
Block_1
 10
0.0
 20
0.0
 30
0.0
  0
LINE
  5
12D
330
70
100
AcDbEntity
  8
レイヤー 1
 62
   250
420
  2299925
370
     9
100
AcDbLine
 10
67.39350700145519
 20
-140.8960895742721
 30
0.0
 11
88.39496729899662
 21
-140.8960895742721
 31
0.0
  0
LINE
  5
12E
330
70
100
AcDbEntity
  8
レイヤー 1
 62
   250
420
  2299925
370
     9
100
AcDbLine
 10
67.39350700145519
 20
-143.1182015181613
 30
0.0
 11
67.39350700145519
 21
-139.8959998523
 31
0.0
  0
INSERT
  5
130
330
70
100
AcDbEntity
  8
レイヤー 1
100
AcDbBlockReference
  2
Block_3
 10
0.0
 20
0.0
 30
0.0
  0
LINE
  5
13B
330
70
100
AcDbEntity
  8
レイヤー 1
 62
   250
420
  2299925
370
     9
100
AcDbLine
 10
63.39357154794648
 20
-146.1581581840678
 30
0.0
 11
63.39357154794648
 21
-154.1579940154012
 31
0.0
  0
LINE
  5
13C
330
70
100
AcDbEntity
  8
レイヤー 1
 62
   250
420
  2299925
370
     9
100
AcDbLine
 10
84.85547738929653
 20
-154.1579940154012
 30
0.0
 11
62.39365824012306
 21
-154.1579940154012
 31
0.0
  0
INSERT
  5
13E
330
70
100
AcDbEntity
  8
レイヤー 1
100
AcDbBlockReference
  2
Block_5
 10
0.0
 20
0.0
 30
0.0
  0
LINE
  5
145
330
70
100
AcDbEntity
  8
レイヤー 1
 62
   250
420
  2299925
370
     9
100
AcDbLine
 10
115.396260221247
 20
-140.8960895742721
 30
0.0
 11
94.39497631259031
 21
-140.8960895742721
 31
0.0
  0
LINE
  5
146
330
70
100
AcDbEntity
  8
レイヤー 1
 62
   250
420
  2299925
370
     9
100
AcDbLine
 10
115.396260221247
 20
-143.1182015181613
 30
0.0
 11
115.396260221247
 21
-139.8959998523
 31
0.0
  0
INSERT
  5
148
330
70
100
AcDbEntity
  8
レイヤー 1
100
AcDbBlockReference
  2
Block_6
 10
0.0
 20
0.0
 30
0.0
  0
LINE
  5
153
330
70
100
AcDbEntity
  8
レイヤー 1
 62
   250
420
  2299925
370
     9
100
AcDbLine
 10
88.39496729899662
 20
-140.8960895742721
 30
0.0
 11
94.39497631259031
 21
-140.8960895742721
 31
0.0
  0
LINE
  5
154
330
70
100
AcDbEntity
  8
レイヤー 1
 62
   250
420
  2299925
370
     9
100
AcDbLine
 10
88.39496729899662
 20
-142.3561309627961
 30
0.0
 11
88.39496729899662
 21
-139.8959998523
 31
0.0
  0
LINE
  5
155
330
70
100
AcDbEntity
  8
レイヤー 1
 62
   250
420
  2299925
370
     9
100
AcDbLine
 10
94.39497631259031
 20
-142.3561309627961
 30
0.0
 11
94.39497631259031
 21
-139.8959998523
 31
0.0
  0
INSERT
  5
157
330
70
100
AcDbEntity
  8
レイヤー 1
100
AcDbBlockReference
  2
Block_8
 10
0.0
 20
0.0
 30
0.0
  0
SPLINE
  5
15D
330
70
100
AcDbEntity
  8
レイヤー 1
 62
   250
420
  2299925
370
     9
100
AcDbSpline
210
0.0
220
0.0
230
1.0
 70
     9
 71
     3
 72
    17
 73
    13
 74
     0
 42
0.0000000001
 43
0.0000000001
 40
0.0
 40
0.0
 40
0.0
 40
0.0
 40
1.0
 40
1.0
 40
1.0
 40
2.0
 40
2.0
 40
2.0
 40
3.0
 40
3.0
 40
3.0
 40
4.0
 40
4.0
 40
4.0
 40
4.0
 10
87.67907831818646
 20
-158.2714534588174
 30
0.0
 10
87.67907831818646
 20
-158.2163142921643
 30
0.0
 10
87.62326592979547
 20
-158.1715467921757
 30
0.0
 10
87.55507398709044
 20
-158.1715467921757
 30
0.0
 10
87.48617648884849
 20
-158.1715467921757
 30
0.0
 10
87.43103732358854
 20
-158.2163142921643
 30
0.0
 10
87.43103732358854
 20
-158.2714534588174
 30
0.0
 10
87.43103732358854
 20
-158.3265573476923
 30
0.0
 10
87.48617648884849
 20
-158.371360125459
 30
0.0
 10
87.55507398709044
 20
-158.371360125459
 30
0.0
 10
87.62326592979547
 20
-158.371360125459
 30
0.0
 10
87.67907831818646
 20
-158.3265573476923
 30
0.0
 10
87.67907831818646
 20
-158.2714534588174
 30
0.0
  0
SPLINE
  5
15E
330
70
100
AcDbEntity
  8
レイヤー 1
 62
   250
420
  2299925
370
     9
100
AcDbSpline
210
0.0
220
0.0
230
1.0
 70
     9
 71
     3
 72
    17
 73
    13
 74
     0
 42
0.0000000001
 43
0.0000000001
 40
0.0
 40
0.0
 40
0.0
 40
0.0
 40
1.0
 40
1.0
 40
1.0
 40
2.0
 40
2.0
 40
2.0
 40
3.0
 40
3.0
 40
3.0
 40
4.0
 40
4.0
 40
4.0
 40
4.0
 10
95.76336599990169
 20
-158.2714534588174
 30
0.0
 10
95.76336599990169
 20
-158.2163142921643
 30
0.0
 10
95.70755655688138
 20
-158.1715467921757
 30
0.0
 10
95.63862378086223
 20
-158.1715467921757
 30
0.0
 10
95.56972628261995
 20
-158.1715467921757
 30
0.0
 10
95.5146255384502
 20
-158.2163142921643
 30
0.0
 10
95.5146255384502
 20
-158.2714534588174
 30
0.0
 10
95.5146255384502
 20
-158.3265573476923
 30
0.0
 10
95.56972628261995
 20
-158.371360125459
 30
0.0
 10
95.63862378086223
 20
-158.371360125459
 30
0.0
 10
95.70755655688138
 20
-158.371360125459
 30
0.0
 10
95.76336599990169
 20
-158.3265573476923
 30
0.0
 10
95.76336599990169
 20
-158.2714534588174
 30
0.0
  0
LINE
  5
15F
330
70
100
AcDbEntity
  8
レイヤー 1
 62
   250
420
  2299925
370
     9
100
AcDbLine
 10
95.63862378086223
 20
-158.2714534588174
 30
0.0
 11
87.55507398709044
 21
-158.2714534588174
 31
0.0
  0
LINE
  5
160
330
70
100
AcDbEntity
  8
レイヤー 1
 62
   250
420
  2299925
370
     9
100
AcDbLine
 10
95.63862378086223
 20
-156.8114120702937
 30
0.0
 11
95.63862378086223
 21
-159.2715431807895
 31
0.0
  0
LINE
  5
161
330
70
100
AcDbEntity
  8
レイヤー 1
 62
   250
420
  2299925
370
     9
100
AcDbLine
 10
87.55507398709044
 20
-156.8114120702937
 30
0.0
 11
87.55507398709044
 21
-159.2715431807895
 31
0.0
  0
INSERT
  5
163
330
70
100
AcDbEntity
  8
レイヤー 1
100
AcDbBlockReference
  2
Block_9
 10
0.0
 20
0.0
 30
0.0
  0
LINE
  5
16A
330
70
100
AcDbEntity
  8
レイヤー 1
 62
   250
420
  2299925
370
     9
100
AcDbLine
 10
92.3368708095414
 20
-150.3032970719204
 30
0.0
 11
100.3370592165507
 21
-150.3032970719204
 31
0.0
  0
INSERT
  5
16C
330
70
100
AcDbEntity
  8
レイヤー 1
100
AcDbBlockReference
  2
Block_10
 10
0.0
 20
0.0
 30
0.0
  0
INSERT
  5
172
330
70
100
AcDbEntity
  8
レイヤー 1
100
AcDbBlockReference
  2
Block_11
 10
0.0
 20
0.0
 30
0.0
  0
ENDSEC
  0
SECTION
  2
OBJECTS
  0
DICTIONARY
  5
C
330
0
100
AcDbDictionary
281
     1
  3
ACAD_COLOR
350
63
  3
ACAD_DETAILVIEWSTYLE
350
6A
  3
ACAD_GROUP
350
D
  3
ACAD_LAYOUT
350
62
  3
ACAD_MATERIAL
350
10
  3
ACAD_MLEADERSTYLE
350
66
  3
ACAD_MLINESTYLE
350
5F
  3
ACAD_PLOTSETTINGS
350
61
  3
ACAD_PLOTSTYLENAME
350
E
  3
ACAD_SCALELIST
350
42
  3
ACAD_SECTIONVIEWSTYLE
350
68
  3
ACAD_TABLESTYLE
350
64
  3
ACAD_VISUALSTYLE
350
29
  3
ACDB_RECOMPOSE_DATA
350
19F
  3
AcDbVariableDictionary
350
197
  0
DICTIONARY
  5
63
102
{ACAD_REACTORS
330
C
102
}
330
C
100
AcDbDictionary
281
     1
  0
DICTIONARY
  5
6A
102
{ACAD_REACTORS
330
C
102
}
330
C
100
AcDbDictionary
281
     1
  3
Imperial24
350
6B
  0
DICTIONARY
  5
D
102
{ACAD_REACTORS
330
C
102
}
330
C
100
AcDbDictionary
281
     1
  0
DICTIONARY
  5
62
102
{ACAD_REACTORS
330
C
102
}
330
C
100
AcDbDictionary
281
     1
  3
Layout1
350
6F
  3
Layout2
350
77
  3
Model
350
73
  0
DICTIONARY
  5
10
102
{ACAD_REACTORS
330
C
102
}
330
C
100
AcDbDictionary
281
     1
  3
ByBlock
350
19
  3
ByLayer
350
11
  3
Global
350
21
  0
DICTIONARY
  5
66
102
{ACAD_REACTORS
330
C
102
}
330
C
100
AcDbDictionary
281
     1
  3
Standard
350
67
  0
DICTIONARY
  5
5F
102
{ACAD_REACTORS
330
C
102
}
330
C
100
AcDbDictionary
281
     1
  3
Standard
350
60
  0
DICTIONARY
  5
61
102
{ACAD_REACTORS
330
C
102
}
330
C
100
AcDbDictionary
281
     1
  0
ACDBDICTIONARYWDFLT
  5
E
102
{ACAD_REACTORS
330
C
102
}
330
C
100
AcDbDictionary
281
     1
  3
Normal
350
F
100
AcDbDictionaryWithDefault
340
F
  0
DICTIONARY
  5
42
102
{ACAD_REACTORS
330
C
102
}
330
C
100
AcDbDictionary
281
     1
  3
A0
350
43
  3
A1
350
44
  3
A2
350
45
  3
A3
350
46
  3
A4
350
47
  3
A5
350
48
  3
A6
350
49
  3
A7
350
4A
  3
A8
350
4B
  3
A9
350
4C
  3
B0
350
4D
  3
B1
350
4E
  3
B2
350
4F
  3
B3
350
50
  3
B4
350
51
  3
B5
350
52
  3
B6
350
53
  0
DICTIONARY
  5
68
102
{ACAD_REACTORS
330
C
102
}
330
C
100
AcDbDictionary
281
     1
  3
Imperial24
350
69
  0
DICTIONARY
  5
64
102
{ACAD_REACTORS
330
C
102
}
330
C
100
AcDbDictionary
281
     1
  3
Standard
350
65
  0
DICTIONARY
  5
29
102
{ACAD_REACTORS
330
C
102
}
330
C
100
AcDbDictionary
281
     1
  3
2dWireframe
350
2F
  3
Basic
350
2E
  3
Brighten
350
35
  3
ColorChange
350
39
  3
Conceptual
350
32
  3
Dim
350
34
  3
EdgeColorOff
350
41
  3
Facepattern
350
38
  3
Flat
350
2A
  3
FlatWithEdges
350
2B
  3
Gouraud
350
2C
  3
GouraudWithEdges
350
2D
  3
Hidden
350
31
  3
JitterOff
350
3F
  3
Linepattern
350
37
  3
OverhangOff
350
40
  3
Realistic
350
33
  3
Shaded
350
3E
  3
Shaded with edges
350
3D
  3
Shades of Gray
350
3A
  3
Sketchy
350
3B
  3
Thicken
350
36
  3
Wireframe
350
30
  3
X-Ray
350
3C
  0
XRECORD
  5
19F
102
{ACAD_REACTORS
330
C
102
}
330
C
100
AcDbXrecord
280
     1
 90
        1
330
65
  0
DICTIONARY
  5
197
102
{ACAD_REACTORS
330
C
102
}
330
C
100
AcDbDictionary
281
     1
  3
CANNOSCALE
350
19C
  3
CMLEADERSTYLE
350
199
  3
CTABLESTYLE
350
198
  3
CVIEWDETAILSTYLE
350
19A
  3
CVIEWSECTIONSTYLE
350
19B
  0
ACDBDETAILVIEWSTYLE
  5
6B
102
{ACAD_XDICTIONARY
360
1D4
102
}
102
{ACAD_REACTORS
330
6A
102
}
330
6A
100
AcDbModelDocViewStyle
 70
     0
  3
Imperial24
290
     0
100
AcDbDetailViewStyle
 70
     0
 71
     0
 90
        3
 71
     1
340
55
 62
   256
 40
0.24
340
0
 62
   256
 40
0.24
300

 40
0.36
280
     3
 71
     2
340
5D
 90
       25
 62
   256
 71
     3
340
55
 62
   256
 40
0.24
 90
        1
 40
0.75
 90
        1
300
%<\AcVar ViewType \f "%tc1">% %<\AcVar ViewDetailId>%\PSCALE %<\AcVar ViewScale \f "%sn">%
 71
     4
340
5D
 90
       25
 62
   256
340
5D
 90
       25
 62
   256
280
     0
  0
LAYOUT
  5
6F
102
{ACAD_REACTORS
330
62
102
}
330
62
100
AcDbPlotSettings
  1

  2

  4

  6

 40
0.0
 41
0.0
 42
0.0
 43
0.0
 44
0.0
 45
0.0
 46
0.0
 47
0.0
 48
0.0
 49
0.0
140
0.0
141
0.0
142
1.0
143
1.0
 70
   688
 72
     0
 73
     0
 74
     5
  7

 75
    16
147
1.0
 76
     0
 77
     2
 78
   300
148
0.0
149
0.0
100
AcDbLayout
  1
Layout1
 70
     1
 71
     1
 10
0.0
 20
0.0
 11
12.0
 21
9.0
 12
0.0
 22
0.0
 32
0.0
 14
0.0
 24
0.0
 34
0.0
 15
0.0
 25
0.0
 35
0.0
146
0.0
 13
0.0
 23
0.0
 33
0.0
 16
1.0
 26
0.0
 36
0.0
 17
0.0
 27
1.0
 37
0.0
 76
     0
330
6C
  0
LAYOUT
  5
77
102
{ACAD_REACTORS
330
62
102
}
330
62
100
AcDbPlotSettings
  1

  2

  4

  6

 40
0.0
 41
0.0
 42
0.0
 43
0.0
 44
0.0
 45
0.0
 46
0.0
 47
0.0
 48
0.0
 49
0.0
140
0.0
141
0.0
142
1.0
143
1.0
 70
   688
 72
     0
 73
     0
 74
     5
  7

 75
    16
147
1.0
 76
     0
 77
     2
 78
   300
148
0.0
149
0.0
100
AcDbLayout
  1
Layout2
 70
     1
 71
     2
 10
0.0
 20
0.0
 11
12.0
 21
9.0
 12
0.0
 22
0.0
 32
0.0
 14
0.0
 24
0.0
 34
0.0
 15
0.0
 25
0.0
 35
0.0
146
0.0
 13
0.0
 23
0.0
 33
0.0
 16
1.0
 26
0.0
 36
0.0
 17
0.0
 27
1.0
 37
0.0
 76
     0
330
74
  0
LAYOUT
  5
73
102
{ACAD_REACTORS
330
62
102
}
330
62
100
AcDbPlotSettings
  1

  2

  4

  6

 40
0.0
 41
0.0
 42
0.0
 43
0.0
 44
0.0
 45
0.0
 46
0.0
 47
0.0
 48
0.0
 49
0.0
140
0.0
141
0.0
142
1.0
143
1.0
 70
  1712
 72
     0
 73
     0
 74
     0
  7

 75
     0
147
1.0
 76
     0
 77
     2
 78
   300
148
0.0
149
0.0
100
AcDbLayout
  1
Model
 70
     1
 71
     0
 10
0.0
 20
0.0
 11
12.0
 21
9.0
 12
0.0
 22
0.0
 32
0.0
 14
0.0
 24
0.0
 34
0.0
 15
0.0
 25
0.0
 35
0.0
146
0.0
 13
0.0
 23
0.0
 33
0.0
 16
1.0
 26
0.0
 36
0.0
 17
0.0
 27
1.0
 37
0.0
 76
     0
330
70
  0
MATERIAL
  5
19
102
{ACAD_XDICTIONARY
360
1A
102
}
102
{ACAD_REACTORS
330
10
102
}
330
10
100
AcDbMaterial
  1
ByBlock
 72
     0
 43
0.0208333333333333
 43
0.0
 43
0.0
 43
0.0
 43
0.0
 43
0.0208333333333333
 43
0.0
 43
0.0
 43
0.0
 43
0.0
 43
1.0
 43
0.0
 43
0.0
 43
0.0
 43
0.0
 43
1.0
 77
     0
 47
0.0208333333333333
 47
0.0
 47
0.0
 47
0.0
 47
0.0
 47
0.0208333333333333
 47
0.0
 47
0.0
 47
0.0
 47
0.0
 47
1.0
 47
0.0
 47
0.0
 47
0.0
 47
0.0
 47
1.0
171
     0
 49
0.0208333333333333
 49
0.0
 49
0.0
 49
0.0
 49
0.0
 49
0.0208333333333333
 49
0.0
 49
0.0
 49
0.0
 49
0.0
 49
1.0
 49
0.0
 49
0.0
 49
0.0
 49
0.0
 49
1.0
175
     0
142
0.0208333333333333
142
0.0
142
0.0
142
0.0
142
0.0
142
0.0208333333333333
142
0.0
142
0.0
142
0.0
142
0.0
142
1.0
142
0.0
142
0.0
142
0.0
142
0.0
142
1.0
179
     0
144
0.0208333333333333
144
0.0
144
0.0
144
0.0
144
0.0
144
0.0208333333333333
144
0.0
144
0.0
144
0.0
144
0.0
144
1.0
144
0.0
144
0.0
144
0.0
144
0.0
144
1.0
147
0.0208333333333333
147
0.0
147
0.0
147
0.0
147
0.0
147
0.0208333333333333
147
0.0
147
0.0
147
0.0
147
0.0
147
1.0
147
0.0
147
0.0
147
0.0
147
0.0
147
1.0
  0
MATERIAL
  5
11
102
{ACAD_XDICTIONARY
360
12
102
}
102
{ACAD_REACTORS
330
10
102
}
330
10
100
AcDbMaterial
  1
ByLayer
 72
     0
 43
0.0208333333333333
 43
0.0
 43
0.0
 43
0.0
 43
0.0
 43
0.0208333333333333
 43
0.0
 43
0.0
 43
0.0
 43
0.0
 43
1.0
 43
0.0
 43
0.0
 43
0.0
 43
0.0
 43
1.0
 77
     0
 47
0.0208333333333333
 47
0.0
 47
0.0
 47
0.0
 47
0.0
 47
0.0208333333333333
 47
0.0
 47
0.0
 47
0.0
 47
0.0
 47
1.0
 47
0.0
 47
0.0
 47
0.0
 47
0.0
 47
1.0
171
     0
 49
0.0208333333333333
 49
0.0
 49
0.0
 49
0.0
 49
0.0
 49
0.0208333333333333
 49
0.0
 49
0.0
 49
0.0
 49
0.0
 49
1.0
 49
0.0
 49
0.0
 49
0.0
 49
0.0
 49
1.0
175
     0
142
0.0208333333333333
142
0.0
142
0.0
142
0.0
142
0.0
142
0.0208333333333333
142
0.0
142
0.0
142
0.0
142
0.0
142
1.0
142
0.0
142
0.0
142
0.0
142
0.0
142
1.0
179
     0
144
0.0208333333333333
144
0.0
144
0.0
144
0.0
144
0.0
144
0.0208333333333333
144
0.0
144
0.0
144
0.0
144
0.0
144
1.0
144
0.0
144
0.0
144
0.0
144
0.0
144
1.0
147
0.0208333333333333
147
0.0
147
0.0
147
0.0
147
0.0
147
0.0208333333333333
147
0.0
147
0.0
147
0.0
147
0.0
147
1.0
147
0.0
147
0.0
147
0.0
147
0.0
147
1.0
  0
MATERIAL
  5
21
102
{ACAD_XDICTIONARY
360
22
102
}
102
{ACAD_REACTORS
330
10
102
}
330
10
100
AcDbMaterial
  1
Global
 72
     0
 43
0.0208333333333333
 43
0.0
 43
0.0
 43
0.0
 43
0.0
 43
0.0208333333333333
 43
0.0
 43
0.0
 43
0.0
 43
0.0
 43
1.0
 43
0.0
 43
0.0
 43
0.0
 43
0.0
 43
1.0
 77
     0
 47
0.0208333333333333
 47
0.0
 47
0.0
 47
0.0
 47
0.0
 47
0.0208333333333333
 47
0.0
 47
0.0
 47
0.0
 47
0.0
 47
1.0
 47
0.0
 47
0.0
 47
0.0
 47
0.0
 47
1.0
171
     0
 49
0.0208333333333333
 49
0.0
 49
0.0
 49
0.0
 49
0.0
 49
0.0208333333333333
 49
0.0
 49
0.0
 49
0.0
 49
0.0
 49
1.0
 49
0.0
 49
0.0
 49
0.0
 49
0.0
 49
1.0
175
     0
142
0.0208333333333333
142
0.0
142
0.0
142
0.0
142
0.0
142
0.0208333333333333
142
0.0
142
0.0
142
0.0
142
0.0
142
1.0
142
0.0
142
0.0
142
0.0
142
0.0
142
1.0
179
     0
144
0.0208333333333333
144
0.0
144
0.0
144
0.0
144
0.0
144
0.0208333333333333
144
0.0
144
0.0
144
0.0
144
0.0
144
1.0
144
0.0
144
0.0
144
0.0
144
0.0
144
1.0
147
0.0208333333333333
147
0.0
147
0.0
147
0.0
147
0.0
147
0.0208333333333333
147
0.0
147
0.0
147
0.0
147
0.0
147
1.0
147
0.0
147
0.0
147
0.0
147
0.0
147
1.0
  0
MLEADERSTYLE
  5
67
102
{ACAD_XDICTIONARY
360
1D0
102
}
102
{ACAD_REACTORS
330
66
102
}
330
66
100
AcDbMLeaderStyle
179
     2
170
     2
171
     1
172
     0
 90
        2
 40
0.0
 41
0.0
173
     1
 91
-1056964608
340
5B
 92
       -2
290
     1
 42
0.09
291
     1
 43
0.36
  3
Standard
 44
0.18
300

342
55
174
     1
178
     6
175
     1
176
     0
 93
-1056964608
 45
0.18
292
     0
297
     0
 46
0.18
 94
-1056964608
 47
1.0
 49
1.0
140
1.0
293
     1
141
0.0
294
     1
177
     0
142
1.0
295
     0
296
     0
143
0.125
271
     0
272
     9
273
     9
  0
MLINESTYLE
  5
60
102
{ACAD_REACTORS
330
5F
102
}
330
5F
100
AcDbMlineStyle
  2
STANDARD
 70
     0
  3

 62
   256
 51
90.0
 52
90.0
 71
     2
 49
0.5
 62
   256
  6
BYLAYER
 49
-0.5
 62
   256
  6
BYLAYER
  0
ACDBPLACEHOLDER
  5
F
102
{ACAD_REACTORS
330
E
102
}
330
E
  0
SCALE
  5
43
102
{ACAD_REACTORS
330
42
102
}
330
42
100
AcDbScale
 70
     0
300
1:1
140
1.0
141
1.0
290
     1
  0
SCALE
  5
44
102
{ACAD_REACTORS
330
42
102
}
330
42
100
AcDbScale
 70
     0
300
1/128" = 1'-0"
140
0.0078125
141
12.0
290
     0
  0
SCALE
  5
45
102
{ACAD_REACTORS
330
42
102
}
330
42
100
AcDbScale
 70
     0
300
1/64" = 1'-0"
140
0.015625
141
12.0
290
     0
  0
SCALE
  5
46
102
{ACAD_REACTORS
330
42
102
}
330
42
100
AcDbScale
 70
     0
300
1/32" = 1'-0"
140
0.03125
141
12.0
290
     0
  0
SCALE
  5
47
102
{ACAD_REACTORS
330
42
102
}
330
42
100
AcDbScale
 70
     0
300
1/16" = 1'-0"
140
0.0625
141
12.0
290
     0
  0
SCALE
  5
48
102
{ACAD_REACTORS
330
42
102
}
330
42
100
AcDbScale
 70
     0
300
3/32" = 1'-0"
140
0.09375
141
12.0
290
     0
  0
SCALE
  5
49
102
{ACAD_REACTORS
330
42
102
}
330
42
100
AcDbScale
 70
     0
300
1/8" = 1'-0"
140
0.125
141
12.0
290
     0
  0
SCALE
  5
4A
102
{ACAD_REACTORS
330
42
102
}
330
42
100
AcDbScale
 70
     0
300
3/16" = 1'-0"
140
0.1875
141
12.0
290
     0
  0
SCALE
  5
4B
102
{ACAD_REACTORS
330
42
102
}
330
42
100
AcDbScale
 70
     0
300
1/4" = 1'-0"
140
0.25
141
12.0
290
     0
  0
SCALE
  5
4C
102
{ACAD_REACTORS
330
42
102
}
330
42
100
AcDbScale
 70
     0
300
3/8" = 1'-0"
140
0.375
141
12.0
290
     0
  0
SCALE
  5
4D
102
{ACAD_REACTORS
330
42
102
}
330
42
100
AcDbScale
 70
     0
300
1/2" = 1'-0"
140
0.5
141
12.0
290
     0
  0
SCALE
  5
4E
102
{ACAD_REACTORS
330
42
102
}
330
42
100
AcDbScale
 70
     0
300
3/4" = 1'-0"
140
0.75
141
12.0
290
     0
  0
SCALE
  5
4F
102
{ACAD_REACTORS
330
42
102
}
330
42
100
AcDbScale
 70
     0
300
1" = 1'-0"
140
1.0
141
12.0
290
     0
  0
SCALE
  5
50
102
{ACAD_REACTORS
330
42
102
}
330
42
100
AcDbScale
 70
     0
300
1-1/2" = 1'-0"
140
1.5
141
12.0
290
     0
  0
SCALE
  5
51
102
{ACAD_REACTORS
330
42
102
}
330
42
100
AcDbScale
 70
     0
300
3" = 1'-0"
140
3.0
141
12.0
290
     0
  0
SCALE
  5
52
102
{ACAD_REACTORS
330
42
102
}
330
42
100
AcDbScale
 70
     0
300
6" = 1'-0"
140
6.0
141
12.0
290
     0
  0
SCALE
  5
53
102
{ACAD_REACTORS
330
42
102
}
330
42
100
AcDbScale
 70
     0
300
1'-0" = 1'-0"
140
12.0
141
12.0
290
     0
  0
ACDBSECTIONVIEWSTYLE
  5
69
102
{ACAD_XDICTIONARY
360
1D2
102
}
102
{ACAD_REACTORS
330
68
102
}
330
68
100
AcDbModelDocViewStyle
 70
     0
  3
Imperial24
290
     0
100
AcDbSectionViewStyle
 70
     0
 71
     0
 90
       78
 71
     1
340
55
 62
   256
 40
0.24
340
0
340
0
 62
   256
 40
0.24
300
I, O, Q, S, X, Z
 40
0.48
 90
        3
 40
0.18
 90
        1
 71
     2
340
5D
 90
       25
 62
   256
340
5D
 90
       50
 62
   256
 40
0.24
 40
0.0
 40
0.24
 71
     3
340
55
 62
   256
 40
0.24
 90
        1
 40
0.75
 90
        1
300
%<\AcVar ViewType \f "%tc1">% %<\AcVar ViewSectionStartId>%-%<\AcVar ViewSectionEndId>%\PSCALE %<\AcVar ViewScale \f "%sn">%
 71
     4
 62
   256
 62
   257
300
ANSI31
 40
1.0
 90
        0
290
     0
290
     0
 90
        6
 40
0.0
 40
1.570796326794896
 40
0.2617993877991494
 40
1.308996938995747
 40
-0.2617993877991494
 40
1.832595714594046
  0
TABLESTYLE
  5
65
102
{ACAD_XDICTIONARY
360
19D
102
}
102
{ACAD_REACTORS
330
64
102
}
330
64
100
AcDbTableStyle
280
     0
  3
Standard
 70
     0
 71
     0
 40
0.06
 41
0.06
280
     0
281
     0
  7
Standard
140
0.18
170
     2
 62
     0
 63
     7
283
     0
 90
      512
 91
        0
  1

274
    -2
284
     1
 64
     0
275
    -2
285
     1
 65
     0
276
    -2
286
     1
 66
     0
277
    -2
287
     1
 67
     0
278
    -2
288
     1
 68
     0
279
    -2
289
     1
 69
     0
  7
Standard
140
0.25
170
     5
 62
     0
 63
     7
283
     0
 90
      512
 91
        0
  1

274
    -2
284
     1
 64
     0
275
    -2
285
     1
 65
     0
276
    -2
286
     1
 66
     0
277
    -2
287
     1
 67
     0
278
    -2
288
     1
 68
     0
279
    -2
289
     1
 69
     0
  7
Standard
140
0.18
170
     5
 62
     0
 63
     7
283
     0
 90
      512
 91
        0
  1

274
    -2
284
     1
 64
     0
275
    -2
285
     1
 65
     0
276
    -2
286
     1
 66
     0
277
    -2
287
     1
 67
     0
278
    -2
288
     1
 68
     0
279
    -2
289
     1
 69
     0
  0
VISUALSTYLE
  5
2F
102
{ACAD_XDICTIONARY
360
1AA
102
}
102
{ACAD_REACTORS
330
29
102
}
330
29
100
AcDbVisualStyle
  2
2dWireframe
 70
     4
177
     2
291
     0
 71
     0
176
     1
 72
     2
176
     1
 73
     0
176
     1
 90
        0
176
     1
 40
0.6
176
     1
 41
30.0
176
     1
 63
     7
421
 16777215
176
     1
 74
     1
176
     1
 91
        4
176
     1
 64
     7
176
     1
 65
   257
176
     1
 75
     1
176
     1
175
     1
176
     1
 42
1.0
176
     1
 92
        0
176
     1
 66
   257
176
     1
 43
1.0
176
     1
 76
     1
176
     1
 77
     6
176
     1
 78
     2
176
     1
 67
     7
176
     1
 79
     5
176
     1
170
     0
176
     1
171
     0
176
     1
290
     0
176
     1
 93
        1
176
     1
 44
0.0
176
     1
173
     0
176
     1
1001
ACAD
1000
AcDbSavedByObjectVersion
1070
     0
  0
VISUALSTYLE
  5
2E
102
{ACAD_XDICTIONARY
360
1A8
102
}
102
{ACAD_REACTORS
330
29
102
}
330
29
100
AcDbVisualStyle
  2
Basic
 70
     7
177
     2
291
     1
 71
     1
176
     1
 72
     0
176
     1
 73
     1
176
     1
 90
        0
176
     1
 40
0.6
176
     1
 41
30.0
176
     1
 63
     7
421
 16777215
176
     1
 74
     0
176
     1
 91
        4
176
     1
 64
     7
176
     1
 65
   257
176
     1
 75
     1
176
     1
175
     1
176
     1
 42
1.0
176
     1
 92
        8
176
     1
 66
     7
176
     1
 43
1.0
176
     1
 76
     1
176
     1
 77
     6
176
     1
 78
     2
176
     1
 67
     7
176
     1
 79
     5
176
     1
170
     0
176
     1
171
     0
176
     1
290
     0
176
     1
 93
        1
176
     1
 44
0.0
176
     1
173
     0
176
     1
1001
ACAD
1000
AcDbSavedByObjectVersion
1070
     0
  0
VISUALSTYLE
  5
35
102
{ACAD_XDICTIONARY
360
1B6
102
}
102
{ACAD_REACTORS
330
29
102
}
330
29
100
AcDbVisualStyle
  2
Brighten
 70
    12
177
     2
291
     1
 71
     2
176
     1
 72
     2
176
     1
 73
     0
176
     1
 90
        0
176
     1
 40
0.6
176
     1
 41
30.0
176
     1
 63
     7
421
 16777215
176
     1
 74
     1
176
     1
 91
        4
176
     1
 64
     7
176
     1
 65
   257
176
     1
 75
     1
176
     1
175
     1
176
     1
 42
1.0
176
     1
 92
        8
176
     1
 66
     7
176
     1
 43
1.0
176
     1
 76
     1
176
     1
 77
     6
176
     1
 78
     2
176
     1
 67
     7
176
     1
 79
     5
176
     1
170
     0
176
     1
171
     0
176
     1
290
     0
176
     1
 93
        1
176
     1
 44
50.0
176
     1
173
     0
176
     1
1001
ACAD
1000
AcDbSavedByObjectVersion
1070
     0
  0
VISUALSTYLE
  5
39
102
{ACAD_XDICTIONARY
360
1BE
102
}
102
{ACAD_REACTORS
330
29
102
}
330
29
100
AcDbVisualStyle
  2
ColorChange
 70
    16
177
     2
291
     1
 71
     2
176
     1
 72
     2
176
     1
 73
     3
176
     1
 90
        0
176
     1
 40
0.6
176
     1
 41
30.0
176
     1
 63
     8
421
  8421504
176
     1
 74
     1
176
     1
 91
        4
176
     1
 64
     7
176
     1
 65
   257
176
     1
 75
     1
176
     1
175
     1
176
     1
 42
1.0
176
     1
 92
        8
176
     1
 66
     8
424
  8421504
176
     1
 43
1.0
176
     1
 76
     1
176
     1
 77
     6
176
     1
 78
     2
176
     1
 67
     7
176
     1
 79
     5
176
     1
170
     0
176
     1
171
     0
176
     1
290
     0
176
     1
 93
        1
176
     1
 44
0.0
176
     1
173
     0
176
     1
1001
ACAD
1000
AcDbSavedByObjectVersion
1070
     0
  0
VISUALSTYLE
  5
32
102
{ACAD_XDICTIONARY
360
1B0
102
}
102
{ACAD_REACTORS
330
29
102
}
330
29
100
AcDbVisualStyle
  2
Conceptual
 70
     9
177
     2
291
     0
 71
     3
176
     1
 72
     2
176
     1
 73
     0
176
     1
 90
        0
176
     1
 40
0.6
176
     1
 41
30.0
176
     1
 63
     7
421
 16777215
176
     1
 74
     2
176
     1
 91
        2
176
     1
 64
     7
176
     1
 65
   257
176
     1
 75
     1
176
     1
175
     1
176
     1
 42
179.0
176
     1
 92
        8
176
     1
 66
     7
176
     1
 43
1.0
176
     1
 76
     1
176
     1
 77
     6
176
     1
 78
     2
176
     1
 67
     7
176
     1
 79
     3
176
     1
170
     0
176
     1
171
     0
176
     1
290
     0
176
     1
 93
        1
176
     1
 44
0.0
176
     1
173
     0
176
     1
1001
ACAD
1000
AcDbSavedByObjectVersion
1070
     0
  0
VISUALSTYLE
  5
34
102
{ACAD_XDICTIONARY
360
1B4
102
}
102
{ACAD_REACTORS
330
29
102
}
330
29
100
AcDbVisualStyle
  2
Dim
 70
    11
177
     2
291
     1
 71
     2
176
     1
 72
     2
176
     1
 73
     0
176
     1
 90
        0
176
     1
 40
0.6
176
     1
 41
30.0
176
     1
 63
     7
421
 16777215
176
     1
 74
     1
176
     1
 91
        4
176
     1
 64
     7
176
     1
 65
   257
176
     1
 75
     1
176
     1
175
     1
176
     1
 42
1.0
176
     1
 92
        8
176
     1
 66
     7
176
     1
 43
1.0
176
     1
 76
     1
176
     1
 77
     6
176
     1
 78
     2
176
     1
 67
     7
176
     1
 79
     5
176
     1
170
     0
176
     1
171
     0
176
     1
290
     0
176
     1
 93
        1
176
     1
 44
-50.0
176
     1
173
     0
176
     1
1001
ACAD
1000
AcDbSavedByObjectVersion
1070
     0
  0
VISUALSTYLE
  5
41
102
{ACAD_XDICTIONARY
360
1CE
102
}
102
{ACAD_REACTORS
330
29
102
}
330
29
100
AcDbVisualStyle
  2
EdgeColorOff
 70
    22
177
     2
291
     1
 71
     2
176
     0
 72
     2
176
     0
 73
     0
176
     0
 90
        0
176
     0
 40
0.6
176
     0
 41
30.0
176
     0
 63
     7
421
 16777215
176
     0
 74
     1
176
     0
 91
        4
176
     0
 64
     7
176
     0
 65
   257
176
     0
 75
     1
176
     0
175
     1
176
     0
 42
1.0
176
     0
 92
        8
176
     2
 66
     7
176
     0
 43
1.0
176
     0
 76
     1
176
     0
 77
     6
176
     0
 78
     2
176
     0
 67
     7
176
     0
 79
     5
176
     0
170
     0
176
     0
171
     0
176
     0
290
     0
176
     0
 93
        1
176
     0
 44
0.0
176
     0
173
     0
176
     0
1001
ACAD
1000
AcDbSavedByObjectVersion
1070
     0
  0
VISUALSTYLE
  5
38
102
{ACAD_XDICTIONARY
360
1BC
102
}
102
{ACAD_REACTORS
330
29
102
}
330
29
100
AcDbVisualStyle
  2
Facepattern
 70
    15
177
     2
291
     1
 71
     2
176
     1
 72
     2
176
     1
 73
     0
176
     1
 90
        0
176
     1
 40
0.6
176
     1
 41
30.0
176
     1
 63
     7
421
 16777215
176
     1
 74
     1
176
     1
 91
        4
176
     1
 64
     7
176
     1
 65
   257
176
     1
 75
     1
176
     1
175
     1
176
     1
 42
1.0
176
     1
 92
        8
176
     1
 66
     7
176
     1
 43
1.0
176
     1
 76
     1
176
     1
 77
     6
176
     1
 78
     2
176
     1
 67
     7
176
     1
 79
     5
176
     1
170
     0
176
     1
171
     0
176
     1
290
     0
176
     1
 93
        1
176
     1
 44
0.0
176
     1
173
     0
176
     1
1001
ACAD
1000
AcDbSavedByObjectVersion
1070
     0
  0
VISUALSTYLE
  5
2A
102
{ACAD_XDICTIONARY
360
1A0
102
}
102
{ACAD_REACTORS
330
29
102
}
330
29
100
AcDbVisualStyle
  2
Flat
 70
     0
177
     2
291
     1
 71
     2
176
     1
 72
     1
176
     1
 73
     1
176
     1
 90
        2
176
     1
 40
0.6
176
     1
 41
30.0
176
     1
 63
     7
421
 16777215
176
     1
 74
     0
176
     1
 91
        0
176
     1
 64
     7
176
     1
 65
   257
176
     1
 75
     1
176
     1
175
     1
176
     1
 42
1.0
176
     1
 92
        8
176
     1
 66
     7
176
     1
 43
1.0
176
     1
 76
     1
176
     1
 77
     6
176
     1
 78
     2
176
     1
 67
     7
176
     1
 79
     5
176
     1
170
     0
176
     1
171
     0
176
     1
290
     0
176
     1
 93
       13
176
     1
 44
0.0
176
     1
173
     0
176
     1
1001
ACAD
1000
AcDbSavedByObjectVersion
1070
     0
  0
VISUALSTYLE
  5
2B
102
{ACAD_XDICTIONARY
360
1A2
102
}
102
{ACAD_REACTORS
330
29
102
}
330
29
100
AcDbVisualStyle
  2
FlatWithEdges
 70
     1
177
     2
291
     1
 71
     2
176
     1
 72
     1
176
     1
 73
     1
176
     1
 90
        2
176
     1
 40
0.6
176
     1
 41
30.0
176
     1
 63
     7
421
 16777215
176
     1
 74
     1
176
     1
 91
        0
176
     1
 64
     7
176
     1
 65
   257
176
     1
 75
     1
176
     1
175
     1
176
     1
 42
1.0
176
     1
 92
        0
176
     1
 66
   257
176
     1
 43
1.0
176
     1
 76
     1
176
     1
 77
     6
176
     1
 78
     2
176
     1
 67
     7
176
     1
 79
     5
176
     1
170
     0
176
     1
171
     0
176
     1
290
     0
176
     1
 93
       13
176
     1
 44
0.0
176
     1
173
     0
176
     1
1001
ACAD
1000
AcDbSavedByObjectVersion
1070
     0
  0
VISUALSTYLE
  5
2C
102
{ACAD_XDICTIONARY
360
1A4
102
}
102
{ACAD_REACTORS
330
29
102
}
330
29
100
AcDbVisualStyle
  2
Gouraud
 70
     2
177
     2
291
     1
 71
     2
176
     1
 72
     2
176
     1
 73
     1
176
     1
 90
        2
176
     1
 40
0.6
176
     1
 41
30.0
176
     1
 63
     7
421
 16777215
176
     1
 74
     0
176
     1
 91
        0
176
     1
 64
     7
176
     1
 65
   257
176
     1
 75
     1
176
     1
175
     1
176
     1
 42
1.0
176
     1
 92
        0
176
     1
 66
     7
176
     1
 43
1.0
176
     1
 76
     1
176
     1
 77
     6
176
     1
 78
     2
176
     1
 67
     7
176
     1
 79
     5
176
     1
170
     0
176
     1
171
     0
176
     1
290
     0
176
     1
 93
       13
176
     1
 44
0.0
176
     1
173
     0
176
     1
1001
ACAD
1000
AcDbSavedByObjectVersion
1070
     0
  0
VISUALSTYLE
  5
2D
102
{ACAD_XDICTIONARY
360
1A6
102
}
102
{ACAD_REACTORS
330
29
102
}
330
29
100
AcDbVisualStyle
  2
GouraudWithEdges
 70
     3
177
     2
291
     1
 71
     2
176
     1
 72
     2
176
     1
 73
     1
176
     1
 90
        2
176
     1
 40
0.6
176
     1
 41
30.0
176
     1
 63
     7
421
 16777215
176
     1
 74
     1
176
     1
 91
        0
176
     1
 64
     7
176
     1
 65
   257
176
     1
 75
     1
176
     1
175
     1
176
     1
 42
1.0
176
     1
 92
        0
176
     1
 66
   257
176
     1
 43
1.0
176
     1
 76
     1
176
     1
 77
     6
176
     1
 78
     2
176
     1
 67
     7
176
     1
 79
     5
176
     1
170
     0
176
     1
171
     0
176
     1
290
     0
176
     1
 93
       13
176
     1
 44
0.0
176
     1
173
     0
176
     1
1001
ACAD
1000
AcDbSavedByObjectVersion
1070
     0
  0
VISUALSTYLE
  5
31
102
{ACAD_XDICTIONARY
360
1AE
102
}
102
{ACAD_REACTORS
330
29
102
}
330
29
100
AcDbVisualStyle
  2
Hidden
 70
     6
177
     2
291
     0
 71
     1
176
     1
 72
     2
176
     1
 73
     2
176
     1
 90
        0
176
     1
 40
0.6
176
     1
 41
30.0
176
     1
 63
     7
421
 16777215
176
     1
 74
     2
176
     1
 91
        2
176
     1
 64
     7
176
     1
 65
   257
176
     1
 75
     2
176
     1
175
     1
176
     1
 42
40.0
176
     1
 92
        0
176
     1
 66
   257
176
     1
 43
1.0
176
     1
 76
     1
176
     1
 77
     6
176
     1
 78
     2
176
     1
 67
     7
176
     1
 79
     3
176
     1
170
     0
176
     1
171
     0
176
     1
290
     0
176
     1
 93
        1
176
     1
 44
0.0
176
     1
173
     0
176
     1
1001
ACAD
1000
AcDbSavedByObjectVersion
1070
     0
  0
VISUALSTYLE
  5
3F
102
{ACAD_XDICTIONARY
360
1CA
102
}
102
{ACAD_REACTORS
330
29
102
}
330
29
100
AcDbVisualStyle
  2
JitterOff
 70
    20
177
     2
291
     1
 71
     2
176
     0
 72
     2
176
     0
 73
     0
176
     0
 90
        0
176
     0
 40
0.6
176
     0
 41
30.0
176
     0
 63
     7
421
 16777215
176
     0
 74
     1
176
     0
 91
        4
176
     0
 64
     7
176
     0
 65
   257
176
     0
 75
     1
176
     0
175
     1
176
     0
 42
1.0
176
     0
 92
       10
176
     2
 66
     7
176
     0
 43
1.0
176
     0
 76
     1
176
     0
 77
     6
176
     0
 78
     2
176
     0
 67
     7
176
     0
 79
     5
176
     0
170
     0
176
     0
171
     0
176
     0
290
     0
176
     0
 93
        1
176
     0
 44
0.0
176
     0
173
     0
176
     0
1001
ACAD
1000
AcDbSavedByObjectVersion
1070
     0
  0
VISUALSTYLE
  5
37
102
{ACAD_XDICTIONARY
360
1BA
102
}
102
{ACAD_REACTORS
330
29
102
}
330
29
100
AcDbVisualStyle
  2
Linepattern
 70
    14
177
     2
291
     1
 71
     2
176
     1
 72
     2
176
     1
 73
     0
176
     1
 90
        0
176
     1
 40
0.6
176
     1
 41
30.0
176
     1
 63
     7
421
 16777215
176
     1
 74
     1
176
     1
 91
        4
176
     1
 64
     7
176
     1
 65
   257
176
     1
 75
     7
176
     1
175
     7
176
     1
 42
1.0
176
     1
 92
        8
176
     1
 66
     7
176
     1
 43
1.0
176
     1
 76
     1
176
     1
 77
     6
176
     1
 78
     2
176
     1
 67
     7
176
     1
 79
     5
176
     1
170
     0
176
     1
171
     0
176
     1
290
     0
176
     1
 93
        1
176
     1
 44
0.0
176
     1
173
     0
176
     1
1001
ACAD
1000
AcDbSavedByObjectVersion
1070
     0
  0
VISUALSTYLE
  5
40
102
{ACAD_XDICTIONARY
360
1CC
102
}
102
{ACAD_REACTORS
330
29
102
}
330
29
100
AcDbVisualStyle
  2
OverhangOff
 70
    21
177
     2
291
     1
 71
     2
176
     0
 72
     2
176
     0
 73
     0
176
     0
 90
        0
176
     0
 40
0.6
176
     0
 41
30.0
176
     0
 63
     7
421
 16777215
176
     0
 74
     1
176
     0
 91
        4
176
     0
 64
     7
176
     0
 65
   257
176
     0
 75
     1
176
     0
175
     1
176
     0
 42
1.0
176
     0
 92
        9
176
     2
 66
     7
176
     0
 43
1.0
176
     0
 76
     1
176
     0
 77
     6
176
     0
 78
     2
176
     0
 67
     7
176
     0
 79
     5
176
     0
170
     0
176
     0
171
     0
176
     0
290
     0
176
     0
 93
        1
176
     0
 44
0.0
176
     0
173
     0
176
     0
1001
ACAD
1000
AcDbSavedByObjectVersion
1070
     0
  0
VISUALSTYLE
  5
33
102
{ACAD_XDICTIONARY
360
1B2
102
}
102
{ACAD_REACTORS
330
29
102
}
330
29
100
AcDbVisualStyle
  2
Realistic
 70
     8
177
     2
291
     0
 71
     2
176
     1
 72
     3
176
     1
 73
     0
176
     1
 90
        2
176
     1
 40
0.6
176
     1
 41
30.0
176
     1
 63
     7
421
 16777215
176
     1
 74
     0
176
     1
 91
        0
176
     1
 64
     7
176
     1
 65
   257
176
     1
 75
     1
176
     1
175
     1
176
     1
 42
1.0
176
     1
 92
        8
176
     1
 66
   257
176
     1
 43
1.0
176
     1
 76
     1
176
     1
 77
     6
176
     1
 78
     2
176
     1
 67
     7
176
     1
 79
     3
176
     1
170
     0
176
     1
171
     0
176
     1
290
     0
176
     1
 93
       13
176
     1
 44
0.0
176
     1
173
     0
176
     1
1001
ACAD
1000
AcDbSavedByObjectVersion
1070
     0
  0
VISUALSTYLE
  5
3E
102
{ACAD_XDICTIONARY
360
1C8
102
}
102
{ACAD_REACTORS
330
29
102
}
330
29
100
AcDbVisualStyle
  2
Shaded
 70
    27
177
     2
291
     0
 71
     2
176
     1
 72
     2
176
     1
 73
     1
176
     1
 90
        2
176
     1
 40
0.6
176
     1
 41
30.0
176
     1
 63
     7
421
 16777215
176
     1
 74
     0
176
     1
 91
        4
176
     1
 64
     7
176
     1
 65
   257
176
     1
 75
     1
176
     1
175
     1
176
     1
 42
1.0
176
     1
 92
        8
176
     1
 66
   257
176
     1
 43
1.0
176
     1
 76
     1
176
     1
 77
     6
176
     1
 78
     2
176
     1
 67
     8
425
  7895160
176
     1
 79
     3
176
     1
170
     0
176
     1
171
     0
176
     1
290
     0
176
     1
 93
        5
176
     1
 44
0.0
176
     1
173
     0
176
     1
1001
ACAD
1000
AcDbSavedByObjectVersion
1070
     0
  0
VISUALSTYLE
  5
3D
102
{ACAD_XDICTIONARY
360
1C6
102
}
102
{ACAD_REACTORS
330
29
102
}
330
29
100
AcDbVisualStyle
  2
Shaded with edges
 70
    26
177
     2
291
     0
 71
     2
176
     1
 72
     2
176
     1
 73
     1
176
     1
 90
        2
176
     1
 40
0.6
176
     1
 41
30.0
176
     1
 63
     7
421
 16777215
176
     1
 74
     1
176
     1
 91
        2
176
     1
 64
     7
176
     1
 65
   257
176
     1
 75
     2
176
     1
175
     1
176
     1
 42
1.0
176
     1
 92
        8
176
     1
 66
   257
176
     1
 43
1.0
176
     1
 76
     1
176
     1
 77
     6
176
     1
 78
     2
176
     1
 67
     7
176
     1
 79
     3
176
     1
170
     0
176
     1
171
     0
176
     1
290
     0
176
     1
 93
        5
176
     1
 44
0.0
176
     1
173
     0
176
     1
1001
ACAD
1000
AcDbSavedByObjectVersion
1070
     0
  0
VISUALSTYLE
  5
3A
102
{ACAD_XDICTIONARY
360
1C0
102
}
102
{ACAD_REACTORS
330
29
102
}
330
29
100
AcDbVisualStyle
  2
Shades of Gray
 70
    23
177
     2
291
     0
 71
     2
176
     1
 72
     2
176
     1
 73
     3
176
     1
 90
        0
176
     1
 40
0.6
176
     1
 41
30.0
176
     1
 63
     7
421
 16777215
176
     1
 74
     2
176
     1
 91
        2
176
     1
 64
     7
176
     1
 65
     7
176
     1
 75
     1
176
     1
175
     1
176
     1
 42
40.0
176
     1
 92
        8
176
     1
 66
     7
176
     1
 43
1.0
176
     1
 76
     1
176
     1
 77
     6
176
     1
 78
     2
176
     1
 67
     7
176
     1
 79
     3
176
     1
170
     0
176
     1
171
     0
176
     1
290
     0
176
     1
 93
        1
176
     1
 44
0.0
176
     1
173
     0
176
     1
1001
ACAD
1000
AcDbSavedByObjectVersion
1070
     0
  0
VISUALSTYLE
  5
3B
102
{ACAD_XDICTIONARY
360
1C2
102
}
102
{ACAD_REACTORS
330
29
102
}
330
29
100
AcDbVisualStyle
  2
Sketchy
 70
    24
177
     2
291
     0
 71
     1
176
     1
 72
     2
176
     1
 73
     2
176
     1
 90
        0
176
     1
 40
0.6
176
     1
 41
30.0
176
     1
 63
     7
421
 16777215
176
     1
 74
     2
176
     1
 91
        2
176
     1
 64
     7
176
     1
 65
     7
176
     1
 75
     1
176
     1
175
     1
176
     1
 42
40.0
176
     1
 92
       11
176
     1
 66
     7
176
     1
 43
1.0
176
     1
 76
     1
176
     1
 77
     6
176
     1
 78
     2
176
     1
 67
     7
176
     1
 79
     6
176
     1
170
     0
176
     1
171
     0
176
     1
290
     0
176
     1
 93
        1
176
     1
 44
0.0
176
     1
173
     0
176
     1
1001
ACAD
1000
AcDbSavedByObjectVersion
1070
     0
  0
VISUALSTYLE
  5
36
102
{ACAD_XDICTIONARY
360
1B8
102
}
102
{ACAD_REACTORS
330
29
102
}
330
29
100
AcDbVisualStyle
  2
Thicken
 70
    13
177
     2
291
     1
 71
     2
176
     1
 72
     2
176
     1
 73
     0
176
     1
 90
        0
176
     1
 40
0.6
176
     1
 41
30.0
176
     1
 63
     7
421
 16777215
176
     1
 74
     1
176
     1
 91
        4
176
     1
 64
     7
176
     1
 65
   257
176
     1
 75
     1
176
     1
175
     1
176
     1
 42
1.0
176
     1
 92
       12
176
     1
 66
     7
176
     1
 43
1.0
176
     1
 76
     1
176
     1
 77
     6
176
     1
 78
     2
176
     1
 67
     7
176
     1
 79
     5
176
     1
170
     0
176
     1
171
     0
176
     1
290
     0
176
     1
 93
        1
176
     1
 44
0.0
176
     1
173
     0
176
     1
1001
ACAD
1000
AcDbSavedByObjectVersion
1070
     0
  0
VISUALSTYLE
  5
30
102
{ACAD_XDICTIONARY
360
1AC
102
}
102
{ACAD_REACTORS
330
29
102
}
330
29
100
AcDbVisualStyle
  2
Wireframe
 70
     5
177
     2
291
     0
 71
     0
176
     1
 72
     2
176
     1
 73
     0
176
     1
 90
        0
176
     1
 40
0.6
176
     1
 41
30.0
176
     1
 63
     7
421
 16777215
176
     1
 74
     1
176
     1
 91
        4
176
     1
 64
     7
176
     1
 65
   257
176
     1
 75
     1
176
     1
175
     1
176
     1
 42
1.0
176
     1
 92
        0
176
     1
 66
   257
176
     1
 43
1.0
176
     1
 76
     1
176
     1
 77
     6
176
     1
 78
     2
176
     1
 67
     7
176
     1
 79
     3
176
     1
170
     0
176
     1
171
     0
176
     1
290
     0
176
     1
 93
        1
176
     1
 44
0.0
176
     1
173
     0
176
     1
1001
ACAD
1000
AcDbSavedByObjectVersion
1070
     0
  0
VISUALSTYLE
  5
3C
102
{ACAD_XDICTIONARY
360
1C4
102
}
102
{ACAD_REACTORS
330
29
102
}
330
29
100
AcDbVisualStyle
  2
X-Ray
 70
    25
177
     2
291
     0
 71
     2
176
     1
 72
     2
176
     1
 73
     1
176
     1
 90
        1
176
     1
 40
0.5
176
     1
 41
30.0
176
     1
 63
     7
421
 16777215
176
     1
 74
     1
176
     1
 91
        0
176
     1
 64
     7
176
     1
 65
   257
176
     1
 75
     1
176
     1
175
     1
176
     1
 42
1.0
176
     1
 92
        8
176
     1
 66
     7
176
     1
 43
1.0
176
     1
 76
     1
176
     1
 77
     6
176
     1
 78
     2
176
     1
 67
     7
176
     1
 79
     3
176
     1
170
     0
176
     1
171
     0
176
     1
290
     0
176
     1
 93
       13
176
     1
 44
0.0
176
     1
173
     0
176
     1
1001
ACAD
1000
AcDbSavedByObjectVersion
1070
     0
  0
DICTIONARYVAR
  5
19C
102
{ACAD_REACTORS
330
197
102
}
330
197
100
DictionaryVariables
280
     0
  1
1:1
  0
DICTIONARYVAR
  5
199
102
{ACAD_REACTORS
330
197
102
}
330
197
100
DictionaryVariables
280
     0
  1
STANDARD
  0
DICTIONARYVAR
  5
198
102
{ACAD_REACTORS
330
197
102
}
330
197
100
DictionaryVariables
280
     0
  1
STANDARD
  0
DICTIONARYVAR
  5
19A
102
{ACAD_REACTORS
330
197
102
}
330
197
100
DictionaryVariables
280
     0
  1
Imperial24
  0
DICTIONARYVAR
  5
19B
102
{ACAD_REACTORS
330
197
102
}
330
197
100
DictionaryVariables
280
     0
  1
Imperial24
  0
DICTIONARY
  5
1D4
330
6B
100
AcDbDictionary
280
     1
281
     1
  3
ACAD_XREC_ROUNDTRIP
360
1D5
  0
DICTIONARY
  5
1A
330
19
100
AcDbDictionary
280
     1
281
     1
  3
BUMPTILE
360
1C
  3
DIFFUSETILE
360
1B
  3
OPACITYTILE
360
1F
  3
REFLECTIONTILE
360
1E
  3
REFRACTIONTILE
360
20
  3
SPECULARTILE
360
1D
  0
DICTIONARY
  5
12
330
11
100
AcDbDictionary
280
     1
281
     1
  3
BUMPTILE
360
14
  3
DIFFUSETILE
360
13
  3
OPACITYTILE
360
17
  3
REFLECTIONTILE
360
16
  3
REFRACTIONTILE
360
18
  3
SPECULARTILE
360
15
  0
DICTIONARY
  5
22
330
21
100
AcDbDictionary
280
     1
281
     1
  3
BUMPTILE
360
24
  3
DIFFUSETILE
360
23
  3
OPACITYTILE
360
27
  3
REFLECTIONTILE
360
26
  3
REFRACTIONTILE
360
28
  3
SPECULARTILE
360
25
  0
DICTIONARY
  5
1D0
330
67
100
AcDbDictionary
280
     1
281
     1
  3
ACAD_XREC_ROUNDTRIP
360
1D1
  0
DICTIONARY
  5
1D2
330
69
100
AcDbDictionary
280
     1
281
     1
  3
ACAD_XREC_ROUNDTRIP
360
1D3
  0
DICTIONARY
  5
19D
330
65
100
AcDbDictionary
280
     1
281
     1
  3
ACAD_ROUNDTRIP_2008_TABLESTYLE_CELLSTYLEMAP
360
19E
  0
DICTIONARY
  5
1AA
330
2F
100
AcDbDictionary
280
     1
281
     1
  3
ACAD_XREC_ROUNDTRIP
360
1AB
  0
DICTIONARY
  5
1A8
330
2E
100
AcDbDictionary
280
     1
281
     1
  3
ACAD_XREC_ROUNDTRIP
360
1A9
  0
DICTIONARY
  5
1B6
330
35
100
AcDbDictionary
280
     1
281
     1
  3
ACAD_XREC_ROUNDTRIP
360
1B7
  0
DICTIONARY
  5
1BE
330
39
100
AcDbDictionary
280
     1
281
     1
  3
ACAD_XREC_ROUNDTRIP
360
1BF
  0
DICTIONARY
  5
1B0
330
32
100
AcDbDictionary
280
     1
281
     1
  3
ACAD_XREC_ROUNDTRIP
360
1B1
  0
DICTIONARY
  5
1B4
330
34
100
AcDbDictionary
280
     1
281
     1
  3
ACAD_XREC_ROUNDTRIP
360
1B5
  0
DICTIONARY
  5
1CE
330
41
100
AcDbDictionary
280
     1
281
     1
  3
ACAD_XREC_ROUNDTRIP
360
1CF
  0
DICTIONARY
  5
1BC
330
38
100
AcDbDictionary
280
     1
281
     1
  3
ACAD_XREC_ROUNDTRIP
360
1BD
  0
DICTIONARY
  5
1A0
330
2A
100
AcDbDictionary
280
     1
281
     1
  3
ACAD_XREC_ROUNDTRIP
360
1A1
  0
DICTIONARY
  5
1A2
330
2B
100
AcDbDictionary
280
     1
281
     1
  3
ACAD_XREC_ROUNDTRIP
360
1A3
  0
DICTIONARY
  5
1A4
330
2C
100
AcDbDictionary
280
     1
281
     1
  3
ACAD_XREC_ROUNDTRIP
360
1A5
  0
DICTIONARY
  5
1A6
330
2D
100
AcDbDictionary
280
     1
281
     1
  3
ACAD_XREC_ROUNDTRIP
360
1A7
  0
DICTIONARY
  5
1AE
330
31
100
AcDbDictionary
280
     1
281
     1
  3
ACAD_XREC_ROUNDTRIP
360
1AF
  0
DICTIONARY
  5
1CA
330
3F
100
AcDbDictionary
280
     1
281
     1
  3
ACAD_XREC_ROUNDTRIP
360
1CB
  0
DICTIONARY
  5
1BA
330
37
100
AcDbDictionary
280
     1
281
     1
  3
ACAD_XREC_ROUNDTRIP
360
1BB
  0
DICTIONARY
  5
1CC
330
40
100
AcDbDictionary
280
     1
281
     1
  3
ACAD_XREC_ROUNDTRIP
360
1CD
  0
DICTIONARY
  5
1B2
330
33
100
AcDbDictionary
280
     1
281
     1
  3
ACAD_XREC_ROUNDTRIP
360
1B3
  0
DICTIONARY
  5
1C8
330
3E
100
AcDbDictionary
280
     1
281
     1
  3
ACAD_XREC_ROUNDTRIP
360
1C9
  0
DICTIONARY
  5
1C6
330
3D
100
AcDbDictionary
280
     1
281
     1
  3
ACAD_XREC_ROUNDTRIP
360
1C7
  0
DICTIONARY
  5
1C0
330
3A
100
AcDbDictionary
280
     1
281
     1
  3
ACAD_XREC_ROUNDTRIP
360
1C1
  0
DICTIONARY
  5
1C2
330
3B
100
AcDbDictionary
280
     1
281
     1
  3
ACAD_XREC_ROUNDTRIP
360
1C3
  0
DICTIONARY
  5
1B8
330
36
100
AcDbDictionary
280
     1
281
     1
  3
ACAD_XREC_ROUNDTRIP
360
1B9
  0
DICTIONARY
  5
1AC
330
30
100
AcDbDictionary
280
     1
281
     1
  3
ACAD_XREC_ROUNDTRIP
360
1AD
  0
DICTIONARY
  5
1C4
330
3C
100
AcDbDictionary
280
     1
281
     1
  3
ACAD_XREC_ROUNDTRIP
360
1C5
  0
XRECORD
  5
1D5
102
{ACAD_REACTORS
330
1D4
102
}
330
1D4
100
AcDbXrecord
280
     1
102
DISPLAYNAME
  1
Imperial24
102
FLAGS
 90
        0
  0
XRECORD
  5
1C
102
{ACAD_REACTORS
330
1A
102
}
330
1A
100
AcDbXrecord
280
     1
270
     1
271
     1
  0
XRECORD
  5
1B
102
{ACAD_REACTORS
330
1A
102
}
330
1A
100
AcDbXrecord
280
     1
270
     1
271
     1
  0
XRECORD
  5
1F
102
{ACAD_REACTORS
330
1A
102
}
330
1A
100
AcDbXrecord
280
     1
270
     1
271
     1
  0
XRECORD
  5
1E
102
{ACAD_REACTORS
330
1A
102
}
330
1A
100
AcDbXrecord
280
     1
270
     1
271
     1
  0
XRECORD
  5
20
102
{ACAD_REACTORS
330
1A
102
}
330
1A
100
AcDbXrecord
280
     1
270
     1
271
     1
  0
XRECORD
  5
1D
102
{ACAD_REACTORS
330
1A
102
}
330
1A
100
AcDbXrecord
280
     1
270
     1
271
     1
  0
XRECORD
  5
14
102
{ACAD_REACTORS
330
12
102
}
330
12
100
AcDbXrecord
280
     1
270
     1
271
     1
  0
XRECORD
  5
13
102
{ACAD_REACTORS
330
12
102
}
330
12
100
AcDbXrecord
280
     1
270
     1
271
     1
  0
XRECORD
  5
17
102
{ACAD_REACTORS
330
12
102
}
330
12
100
AcDbXrecord
280
     1
270
     1
271
     1
  0
XRECORD
  5
16
102
{ACAD_REACTORS
330
12
102
}
330
12
100
AcDbXrecord
280
     1
270
     1
271
     1
  0
XRECORD
  5
18
102
{ACAD_REACTORS
330
12
102
}
330
12
100
AcDbXrecord
280
     1
270
     1
271
     1
  0
XRECORD
  5
15
102
{ACAD_REACTORS
330
12
102
}
330
12
100
AcDbXrecord
280
     1
270
     1
271
     1
  0
XRECORD
  5
24
102
{ACAD_REACTORS
330
22
102
}
330
22
100
AcDbXrecord
280
     1
270
     1
271
     1
  0
XRECORD
  5
23
102
{ACAD_REACTORS
330
22
102
}
330
22
100
AcDbXrecord
280
     1
270
     1
271
     1
  0
XRECORD
  5
27
102
{ACAD_REACTORS
330
22
102
}
330
22
100
AcDbXrecord
280
     1
270
     1
271
     1
  0
XRECORD
  5
26
102
{ACAD_REACTORS
330
22
102
}
330
22
100
AcDbXrecord
280
     1
270
     1
271
     1
  0
XRECORD
  5
28
102
{ACAD_REACTORS
330
22
102
}
330
22
100
AcDbXrecord
280
     1
270
     1
271
     1
  0
XRECORD
  5
25
102
{ACAD_REACTORS
330
22
102
}
330
22
100
AcDbXrecord
280
     1
270
     1
271
     1
  0
XRECORD
  5
1D1
102
{ACAD_REACTORS
330
1D0
102
}
330
1D0
100
AcDbXrecord
280
     1
102
ACAD_ROUNDTRIP_2012_MLEADER_STYLE
298
     1
  0
XRECORD
  5
1D3
102
{ACAD_REACTORS
330
1D2
102
}
330
1D2
100
AcDbXrecord
280
     1
102
DISPLAYNAME
  1
Imperial24
102
FLAGS
 90
        0
  0
CELLSTYLEMAP
  5
19E
102
{ACAD_REACTORS
330
19D
102
}
330
19D
100
AcDbCellStyleMap
 90
        3
300
CELLSTYLE
  1
TABLEFORMAT_BEGIN
 90
        5
170
     1
 91
        0
 92
    32768
 62
   257
 93
        1
300
CONTENTFORMAT
  1
CONTENTFORMAT_BEGIN
 90
        0
 91
        0
 92
      512
 93
        0
300

 40
0.0
140
1.0
 94
        5
 62
     0
340
55
144
0.25
309
CONTENTFORMAT_END
171
     0
 94
        0
309
TABLEFORMAT_END
  1
CELLSTYLE_BEGIN
 90
        1
 91
        1
300
_TITLE
309
CELLSTYLE_END
300
CELLSTYLE
  1
TABLEFORMAT_BEGIN
 90
        5
170
     1
 91
        0
 92
        0
 62
   257
 93
        1
300
CONTENTFORMAT
  1
CONTENTFORMAT_BEGIN
 90
        0
 91
        0
 92
      512
 93
        0
300

 40
0.0
140
1.0
 94
        5
 62
     0
340
55
144
0.18
309
CONTENTFORMAT_END
171
     0
 94
        0
309
TABLEFORMAT_END
  1
CELLSTYLE_BEGIN
 90
        2
 91
        1
300
_HEADER
309
CELLSTYLE_END
300
CELLSTYLE
  1
TABLEFORMAT_BEGIN
 90
        5
170
     1
 91
        0
 92
        0
 62
   257
 93
        1
300
CONTENTFORMAT
  1
CONTENTFORMAT_BEGIN
 90
        0
 91
        0
 92
      512
 93
        0
300

 40
0.0
140
1.0
 94
        2
 62
     0
340
55
144
0.18
309
CONTENTFORMAT_END
171
     0
 94
        0
309
TABLEFORMAT_END
  1
CELLSTYLE_BEGIN
 90
        3
 91
        2
300
_DATA
309
CELLSTYLE_END
  0
XRECORD
  5
1AB
102
{ACAD_REACTORS
330
1AA
102
}
330
1AA
100
AcDbXrecord
280
     1
102
RTVSPost2010Prop28
280
     1
102
RTVSPost2010PropOp28
 70
     1
102
RTVSPost2010Prop29
280
     1
102
RTVSPost2010PropOp29
 70
     1
102
RTVSPost2010Prop30
280
     0
102
RTVSPost2010PropOp30
 70
     1
102
RTVSPost2010Prop31
280
     0
102
RTVSPost2010PropOp31
 70
     1
102
RTVSPost2010Prop32
280
     0
102
RTVSPost2010PropOp32
 70
     1
102
RTVSPost2010Prop33
280
     0
102
RTVSPost2010PropOp33
 70
     1
102
RTVSPost2010Prop34
280
     0
102
RTVSPost2010PropOp34
 70
     1
102
RTVSPost2010Prop35
280
     0
102
RTVSPost2010PropOp35
 70
     1
102
RTVSPost2010Prop36
280
     0
102
RTVSPost2010PropOp36
 70
     1
102
RTVSPost2010Prop37
 90
       50
102
RTVSPost2010PropOp37
 70
     1
102
RTVSPost2010Prop38
140
0.0
102
RTVSPost2010PropOp38
 70
     1
102
RTVSPost2010Prop39
140
1.0
102
RTVSPost2010PropOp39
 70
     1
102
RTVSPost2010Prop40
 90
        0
102
RTVSPost2010PropOp40
 70
     1
102
RTVSPost2010Prop41ColorIndex
 90
       18
102
RTVSPost2010Prop41ColorRGB
 90
        0
102
RTVSPost2010PropOp41
 70
     1
102
RTVSPost2010Prop42
 90
       50
102
RTVSPost2010PropOp42
 70
     1
102
RTVSPost2010Prop43
 90
        3
102
RTVSPost2010PropOp43
 70
     1
102
RTVSPost2010Prop44ColorIndex
 90
        5
102
RTVSPost2010Prop44ColorRGB
 90
      255
102
RTVSPost2010PropOp44
 70
     1
102
RTVSPost2010Prop45
280
     0
102
RTVSPost2010PropOp45
 70
     1
102
RTVSPost2010Prop46
 90
       50
102
RTVSPost2010PropOp46
 70
     1
102
RTVSPost2010Prop47
 90
       50
102
RTVSPost2010PropOp47
 70
     1
102
RTVSPost2010Prop48
 90
       50
102
RTVSPost2010PropOp48
 70
     1
102
RTVSPost2010Prop49
280
     0
102
RTVSPost2010PropOp49
 70
     1
102
RTVSPost2010Prop50
 90
       50
102
RTVSPost2010PropOp50
 70
     1
102
RTVSPost2010Prop51ColorIndex
 90
      256
102
RTVSPost2010Prop51ColorRGB
 90
-16777216
102
RTVSPost2010PropOp51
 70
     0
102
RTVSPost2010Prop52
140
1.0
102
RTVSPost2010PropOp52
 70
     0
102
RTVSPost2010Prop53
 90
        2
102
RTVSPost2010PropOp53
 70
     1
102
RTVSPost2010Prop54
  1
strokes_ogs.tif
102
RTVSPost2010PropOp54
 70
     1
102
RTVSPost2010Prop55
280
     0
102
RTVSPost2010PropOp55
 70
     1
102
RTVSPost2010Prop56
140
1.0
102
RTVSPost2010PropOp56
 70
     1
102
RTVSPost2010Prop57
140
1.0
102
RTVSPost2010PropOp57
 70
     1
  0
XRECORD
  5
1A9
102
{ACAD_REACTORS
330
1A8
102
}
330
1A8
100
AcDbXrecord
280
     1
102
RTVSPost2010Prop28
280
     0
102
RTVSPost2010PropOp28
 70
     1
102
RTVSPost2010Prop29
280
     1
102
RTVSPost2010PropOp29
 70
     1
102
RTVSPost2010Prop30
280
     1
102
RTVSPost2010PropOp30
 70
     1
102
RTVSPost2010Prop31
280
     0
102
RTVSPost2010PropOp31
 70
     1
102
RTVSPost2010Prop32
280
     0
102
RTVSPost2010PropOp32
 70
     1
102
RTVSPost2010Prop33
280
     0
102
RTVSPost2010PropOp33
 70
     1
102
RTVSPost2010Prop34
280
     0
102
RTVSPost2010PropOp34
 70
     1
102
RTVSPost2010Prop35
280
     0
102
RTVSPost2010PropOp35
 70
     1
102
RTVSPost2010Prop36
280
     0
102
RTVSPost2010PropOp36
 70
     1
102
RTVSPost2010Prop37
 90
       50
102
RTVSPost2010PropOp37
 70
     1
102
RTVSPost2010Prop38
140
0.0
102
RTVSPost2010PropOp38
 70
     1
102
RTVSPost2010Prop39
140
1.0
102
RTVSPost2010PropOp39
 70
     1
102
RTVSPost2010Prop40
 90
        0
102
RTVSPost2010PropOp40
 70
     1
102
RTVSPost2010Prop41ColorIndex
 90
       18
102
RTVSPost2010Prop41ColorRGB
 90
        0
102
RTVSPost2010PropOp41
 70
     1
102
RTVSPost2010Prop42
 90
       50
102
RTVSPost2010PropOp42
 70
     1
102
RTVSPost2010Prop43
 90
        3
102
RTVSPost2010PropOp43
 70
     1
102
RTVSPost2010Prop44ColorIndex
 90
        5
102
RTVSPost2010Prop44ColorRGB
 90
      255
102
RTVSPost2010PropOp44
 70
     1
102
RTVSPost2010Prop45
280
     0
102
RTVSPost2010PropOp45
 70
     1
102
RTVSPost2010Prop46
 90
       50
102
RTVSPost2010PropOp46
 70
     1
102
RTVSPost2010Prop47
 90
       50
102
RTVSPost2010PropOp47
 70
     1
102
RTVSPost2010Prop48
 90
       50
102
RTVSPost2010PropOp48
 70
     1
102
RTVSPost2010Prop49
280
     0
102
RTVSPost2010PropOp49
 70
     1
102
RTVSPost2010Prop50
 90
       50
102
RTVSPost2010PropOp50
 70
     1
102
RTVSPost2010Prop51ColorIndex
 90
      256
102
RTVSPost2010Prop51ColorRGB
 90
-16777216
102
RTVSPost2010PropOp51
 70
     0
102
RTVSPost2010Prop52
140
1.0
102
RTVSPost2010PropOp52
 70
     0
102
RTVSPost2010Prop53
 90
        2
102
RTVSPost2010PropOp53
 70
     1
102
RTVSPost2010Prop54
  1
strokes_ogs.tif
102
RTVSPost2010PropOp54
 70
     1
102
RTVSPost2010Prop55
280
     0
102
RTVSPost2010PropOp55
 70
     1
102
RTVSPost2010Prop56
140
1.0
102
RTVSPost2010PropOp56
 70
     1
102
RTVSPost2010Prop57
140
1.0
102
RTVSPost2010PropOp57
 70
     1
  0
XRECORD
  5
1B7
102
{ACAD_REACTORS
330
1B6
102
}
330
1B6
100
AcDbXrecord
280
     1
102
RTVSPost2010Prop28
280
     0
102
RTVSPost2010PropOp28
 70
     1
102
RTVSPost2010Prop29
280
     1
102
RTVSPost2010PropOp29
 70
     1
102
RTVSPost2010Prop30
280
     1
102
RTVSPost2010PropOp30
 70
     1
102
RTVSPost2010Prop31
280
     0
102
RTVSPost2010PropOp31
 70
     1
102
RTVSPost2010Prop32
280
     0
102
RTVSPost2010PropOp32
 70
     1
102
RTVSPost2010Prop33
280
     0
102
RTVSPost2010PropOp33
 70
     1
102
RTVSPost2010Prop34
280
     0
102
RTVSPost2010PropOp34
 70
     1
102
RTVSPost2010Prop35
280
     0
102
RTVSPost2010PropOp35
 70
     1
102
RTVSPost2010Prop36
280
     0
102
RTVSPost2010PropOp36
 70
     1
102
RTVSPost2010Prop37
 90
       50
102
RTVSPost2010PropOp37
 70
     1
102
RTVSPost2010Prop38
140
0.0
102
RTVSPost2010PropOp38
 70
     1
102
RTVSPost2010Prop39
140
1.0
102
RTVSPost2010PropOp39
 70
     1
102
RTVSPost2010Prop40
 90
        0
102
RTVSPost2010PropOp40
 70
     1
102
RTVSPost2010Prop41ColorIndex
 90
       18
102
RTVSPost2010Prop41ColorRGB
 90
        0
102
RTVSPost2010PropOp41
 70
     1
102
RTVSPost2010Prop42
 90
       50
102
RTVSPost2010PropOp42
 70
     1
102
RTVSPost2010Prop43
 90
        3
102
RTVSPost2010PropOp43
 70
     1
102
RTVSPost2010Prop44ColorIndex
 90
        5
102
RTVSPost2010Prop44ColorRGB
 90
      255
102
RTVSPost2010PropOp44
 70
     1
102
RTVSPost2010Prop45
280
     0
102
RTVSPost2010PropOp45
 70
     1
102
RTVSPost2010Prop46
 90
       50
102
RTVSPost2010PropOp46
 70
     1
102
RTVSPost2010Prop47
 90
       50
102
RTVSPost2010PropOp47
 70
     1
102
RTVSPost2010Prop48
 90
       50
102
RTVSPost2010PropOp48
 70
     1
102
RTVSPost2010Prop49
280
     0
102
RTVSPost2010PropOp49
 70
     1
102
RTVSPost2010Prop50
 90
       50
102
RTVSPost2010PropOp50
 70
     1
102
RTVSPost2010Prop51ColorIndex
 90
      256
102
RTVSPost2010Prop51ColorRGB
 90
-16777216
102
RTVSPost2010PropOp51
 70
     0
102
RTVSPost2010Prop52
140
1.0
102
RTVSPost2010PropOp52
 70
     0
102
RTVSPost2010Prop53
 90
        2
102
RTVSPost2010PropOp53
 70
     1
102
RTVSPost2010Prop54
  1
strokes_ogs.tif
102
RTVSPost2010PropOp54
 70
     1
102
RTVSPost2010Prop55
280
     0
102
RTVSPost2010PropOp55
 70
     1
102
RTVSPost2010Prop56
140
1.0
102
RTVSPost2010PropOp56
 70
     1
102
RTVSPost2010Prop57
140
1.0
102
RTVSPost2010PropOp57
 70
     1
  0
XRECORD
  5
1BF
102
{ACAD_REACTORS
330
1BE
102
}
330
1BE
100
AcDbXrecord
280
     1
102
RTVSPost2010Prop28
280
     0
102
RTVSPost2010PropOp28
 70
     1
102
RTVSPost2010Prop29
280
     1
102
RTVSPost2010PropOp29
 70
     1
102
RTVSPost2010Prop30
280
     1
102
RTVSPost2010PropOp30
 70
     1
102
RTVSPost2010Prop31
280
     0
102
RTVSPost2010PropOp31
 70
     1
102
RTVSPost2010Prop32
280
     0
102
RTVSPost2010PropOp32
 70
     1
102
RTVSPost2010Prop33
280
     0
102
RTVSPost2010PropOp33
 70
     1
102
RTVSPost2010Prop34
280
     0
102
RTVSPost2010PropOp34
 70
     1
102
RTVSPost2010Prop35
280
     0
102
RTVSPost2010PropOp35
 70
     1
102
RTVSPost2010Prop36
280
     0
102
RTVSPost2010PropOp36
 70
     1
102
RTVSPost2010Prop37
 90
       50
102
RTVSPost2010PropOp37
 70
     1
102
RTVSPost2010Prop38
140
0.0
102
RTVSPost2010PropOp38
 70
     1
102
RTVSPost2010Prop39
140
1.0
102
RTVSPost2010PropOp39
 70
     1
102
RTVSPost2010Prop40
 90
        0
102
RTVSPost2010PropOp40
 70
     1
102
RTVSPost2010Prop41ColorIndex
 90
       18
102
RTVSPost2010Prop41ColorRGB
 90
        0
102
RTVSPost2010PropOp41
 70
     1
102
RTVSPost2010Prop42
 90
       50
102
RTVSPost2010PropOp42
 70
     1
102
RTVSPost2010Prop43
 90
        3
102
RTVSPost2010PropOp43
 70
     1
102
RTVSPost2010Prop44ColorIndex
 90
        5
102
RTVSPost2010Prop44ColorRGB
 90
      255
102
RTVSPost2010PropOp44
 70
     1
102
RTVSPost2010Prop45
280
     0
102
RTVSPost2010PropOp45
 70
     1
102
RTVSPost2010Prop46
 90
       50
102
RTVSPost2010PropOp46
 70
     1
102
RTVSPost2010Prop47
 90
       50
102
RTVSPost2010PropOp47
 70
     1
102
RTVSPost2010Prop48
 90
       50
102
RTVSPost2010PropOp48
 70
     1
102
RTVSPost2010Prop49
280
     0
102
RTVSPost2010PropOp49
 70
     1
102
RTVSPost2010Prop50
 90
       50
102
RTVSPost2010PropOp50
 70
     1
102
RTVSPost2010Prop51ColorIndex
 90
      256
102
RTVSPost2010Prop51ColorRGB
 90
-16777216
102
RTVSPost2010PropOp51
 70
     0
102
RTVSPost2010Prop52
140
1.0
102
RTVSPost2010PropOp52
 70
     0
102
RTVSPost2010Prop53
 90
        2
102
RTVSPost2010PropOp53
 70
     1
102
RTVSPost2010Prop54
  1
strokes_ogs.tif
102
RTVSPost2010PropOp54
 70
     1
102
RTVSPost2010Prop55
280
     0
102
RTVSPost2010PropOp55
 70
     1
102
RTVSPost2010Prop56
140
1.0
102
RTVSPost2010PropOp56
 70
     1
102
RTVSPost2010Prop57
140
1.0
102
RTVSPost2010PropOp57
 70
     1
  0
XRECORD
  5
1B1
102
{ACAD_REACTORS
330
1B0
102
}
330
1B0
100
AcDbXrecord
280
     1
102
RTVSPost2010Prop28
280
     0
102
RTVSPost2010PropOp28
 70
     1
102
RTVSPost2010Prop29
280
     1
102
RTVSPost2010PropOp29
 70
     1
102
RTVSPost2010Prop30
280
     1
102
RTVSPost2010PropOp30
 70
     1
102
RTVSPost2010Prop31
280
     0
102
RTVSPost2010PropOp31
 70
     1
102
RTVSPost2010Prop32
280
     0
102
RTVSPost2010PropOp32
 70
     1
102
RTVSPost2010Prop33
280
     0
102
RTVSPost2010PropOp33
 70
     1
102
RTVSPost2010Prop34
280
     0
102
RTVSPost2010PropOp34
 70
     1
102
RTVSPost2010Prop35
280
     0
102
RTVSPost2010PropOp35
 70
     1
102
RTVSPost2010Prop36
280
     0
102
RTVSPost2010PropOp36
 70
     1
102
RTVSPost2010Prop37
 90
       50
102
RTVSPost2010PropOp37
 70
     1
102
RTVSPost2010Prop38
140
0.0
102
RTVSPost2010PropOp38
 70
     1
102
RTVSPost2010Prop39
140
1.0
102
RTVSPost2010PropOp39
 70
     1
102
RTVSPost2010Prop40
 90
        0
102
RTVSPost2010PropOp40
 70
     1
102
RTVSPost2010Prop41ColorIndex
 90
       18
102
RTVSPost2010Prop41ColorRGB
 90
        0
102
RTVSPost2010PropOp41
 70
     1
102
RTVSPost2010Prop42
 90
       50
102
RTVSPost2010PropOp42
 70
     1
102
RTVSPost2010Prop43
 90
        3
102
RTVSPost2010PropOp43
 70
     1
102
RTVSPost2010Prop44ColorIndex
 90
        5
102
RTVSPost2010Prop44ColorRGB
 90
      255
102
RTVSPost2010PropOp44
 70
     1
102
RTVSPost2010Prop45
280
     0
102
RTVSPost2010PropOp45
 70
     1
102
RTVSPost2010Prop46
 90
       50
102
RTVSPost2010PropOp46
 70
     1
102
RTVSPost2010Prop47
 90
       50
102
RTVSPost2010PropOp47
 70
     1
102
RTVSPost2010Prop48
 90
       50
102
RTVSPost2010PropOp48
 70
     1
102
RTVSPost2010Prop49
280
     0
102
RTVSPost2010PropOp49
 70
     1
102
RTVSPost2010Prop50
 90
       50
102
RTVSPost2010PropOp50
 70
     1
102
RTVSPost2010Prop51ColorIndex
 90
      256
102
RTVSPost2010Prop51ColorRGB
 90
-16777216
102
RTVSPost2010PropOp51
 70
     0
102
RTVSPost2010Prop52
140
1.0
102
RTVSPost2010PropOp52
 70
     0
102
RTVSPost2010Prop53
 90
        2
102
RTVSPost2010PropOp53
 70
     1
102
RTVSPost2010Prop54
  1
strokes_ogs.tif
102
RTVSPost2010PropOp54
 70
     1
102
RTVSPost2010Prop55
280
     0
102
RTVSPost2010PropOp55
 70
     1
102
RTVSPost2010Prop56
140
1.0
102
RTVSPost2010PropOp56
 70
     1
102
RTVSPost2010Prop57
140
1.0
102
RTVSPost2010PropOp57
 70
     1
  0
XRECORD
  5
1B5
102
{ACAD_REACTORS
330
1B4
102
}
330
1B4
100
AcDbXrecord
280
     1
102
RTVSPost2010Prop28
280
     0
102
RTVSPost2010PropOp28
 70
     1
102
RTVSPost2010Prop29
280
     1
102
RTVSPost2010PropOp29
 70
     1
102
RTVSPost2010Prop30
280
     1
102
RTVSPost2010PropOp30
 70
     1
102
RTVSPost2010Prop31
280
     0
102
RTVSPost2010PropOp31
 70
     1
102
RTVSPost2010Prop32
280
     0
102
RTVSPost2010PropOp32
 70
     1
102
RTVSPost2010Prop33
280
     0
102
RTVSPost2010PropOp33
 70
     1
102
RTVSPost2010Prop34
280
     0
102
RTVSPost2010PropOp34
 70
     1
102
RTVSPost2010Prop35
280
     0
102
RTVSPost2010PropOp35
 70
     1
102
RTVSPost2010Prop36
280
     0
102
RTVSPost2010PropOp36
 70
     1
102
RTVSPost2010Prop37
 90
       50
102
RTVSPost2010PropOp37
 70
     1
102
RTVSPost2010Prop38
140
0.0
102
RTVSPost2010PropOp38
 70
     1
102
RTVSPost2010Prop39
140
1.0
102
RTVSPost2010PropOp39
 70
     1
102
RTVSPost2010Prop40
 90
        0
102
RTVSPost2010PropOp40
 70
     1
102
RTVSPost2010Prop41ColorIndex
 90
       18
102
RTVSPost2010Prop41ColorRGB
 90
        0
102
RTVSPost2010PropOp41
 70
     1
102
RTVSPost2010Prop42
 90
       50
102
RTVSPost2010PropOp42
 70
     1
102
RTVSPost2010Prop43
 90
        3
102
RTVSPost2010PropOp43
 70
     1
102
RTVSPost2010Prop44ColorIndex
 90
        5
102
RTVSPost2010Prop44ColorRGB
 90
      255
102
RTVSPost2010PropOp44
 70
     1
102
RTVSPost2010Prop45
280
     0
102
RTVSPost2010PropOp45
 70
     1
102
RTVSPost2010Prop46
 90
       50
102
RTVSPost2010PropOp46
 70
     1
102
RTVSPost2010Prop47
 90
       50
102
RTVSPost2010PropOp47
 70
     1
102
RTVSPost2010Prop48
 90
       50
102
RTVSPost2010PropOp48
 70
     1
102
RTVSPost2010Prop49
280
     0
102
RTVSPost2010PropOp49
 70
     1
102
RTVSPost2010Prop50
 90
       50
102
RTVSPost2010PropOp50
 70
     1
102
RTVSPost2010Prop51ColorIndex
 90
      256
102
RTVSPost2010Prop51ColorRGB
 90
-16777216
102
RTVSPost2010PropOp51
 70
     0
102
RTVSPost2010Prop52
140
1.0
102
RTVSPost2010PropOp52
 70
     0
102
RTVSPost2010Prop53
 90
        2
102
RTVSPost2010PropOp53
 70
     1
102
RTVSPost2010Prop54
  1
strokes_ogs.tif
102
RTVSPost2010PropOp54
 70
     1
102
RTVSPost2010Prop55
280
     0
102
RTVSPost2010PropOp55
 70
     1
102
RTVSPost2010Prop56
140
1.0
102
RTVSPost2010PropOp56
 70
     1
102
RTVSPost2010Prop57
140
1.0
102
RTVSPost2010PropOp57
 70
     1
  0
XRECORD
  5
1CF
102
{ACAD_REACTORS
330
1CE
102
}
330
1CE
100
AcDbXrecord
280
     1
102
RTVSPost2010Prop28
280
     0
102
RTVSPost2010PropOp28
 70
     0
102
RTVSPost2010Prop29
280
     1
102
RTVSPost2010PropOp29
 70
     0
102
RTVSPost2010Prop30
280
     1
102
RTVSPost2010PropOp30
 70
     0
102
RTVSPost2010Prop31
280
     0
102
RTVSPost2010PropOp31
 70
     0
102
RTVSPost2010Prop32
280
     0
102
RTVSPost2010PropOp32
 70
     0
102
RTVSPost2010Prop33
280
     0
102
RTVSPost2010PropOp33
 70
     0
102
RTVSPost2010Prop34
280
     0
102
RTVSPost2010PropOp34
 70
     0
102
RTVSPost2010Prop35
280
     0
102
RTVSPost2010PropOp35
 70
     0
102
RTVSPost2010Prop36
280
     0
102
RTVSPost2010PropOp36
 70
     0
102
RTVSPost2010Prop37
 90
       50
102
RTVSPost2010PropOp37
 70
     0
102
RTVSPost2010Prop38
140
0.0
102
RTVSPost2010PropOp38
 70
     0
102
RTVSPost2010Prop39
140
1.0
102
RTVSPost2010PropOp39
 70
     0
102
RTVSPost2010Prop40
 90
        0
102
RTVSPost2010PropOp40
 70
     0
102
RTVSPost2010Prop41ColorIndex
 90
       18
102
RTVSPost2010Prop41ColorRGB
 90
        0
102
RTVSPost2010PropOp41
 70
     0
102
RTVSPost2010Prop42
 90
       50
102
RTVSPost2010PropOp42
 70
     0
102
RTVSPost2010Prop43
 90
        3
102
RTVSPost2010PropOp43
 70
     0
102
RTVSPost2010Prop44ColorIndex
 90
        5
102
RTVSPost2010Prop44ColorRGB
 90
      255
102
RTVSPost2010PropOp44
 70
     0
102
RTVSPost2010Prop45
280
     0
102
RTVSPost2010PropOp45
 70
     0
102
RTVSPost2010Prop46
 90
       50
102
RTVSPost2010PropOp46
 70
     0
102
RTVSPost2010Prop47
 90
       50
102
RTVSPost2010PropOp47
 70
     0
102
RTVSPost2010Prop48
 90
       50
102
RTVSPost2010PropOp48
 70
     0
102
RTVSPost2010Prop49
280
     0
102
RTVSPost2010PropOp49
 70
     0
102
RTVSPost2010Prop50
 90
       50
102
RTVSPost2010PropOp50
 70
     0
102
RTVSPost2010Prop51ColorIndex
 90
      256
102
RTVSPost2010Prop51ColorRGB
 90
-16777216
102
RTVSPost2010PropOp51
 70
     0
102
RTVSPost2010Prop52
140
1.0
102
RTVSPost2010PropOp52
 70
     0
102
RTVSPost2010Prop53
 90
        2
102
RTVSPost2010PropOp53
 70
     0
102
RTVSPost2010Prop54
  1
strokes_ogs.tif
102
RTVSPost2010PropOp54
 70
     0
102
RTVSPost2010Prop55
280
     0
102
RTVSPost2010PropOp55
 70
     0
102
RTVSPost2010Prop56
140
1.0
102
RTVSPost2010PropOp56
 70
     0
102
RTVSPost2010Prop57
140
1.0
102
RTVSPost2010PropOp57
 70
     0
  0
XRECORD
  5
1BD
102
{ACAD_REACTORS
330
1BC
102
}
330
1BC
100
AcDbXrecord
280
     1
102
RTVSPost2010Prop28
280
     0
102
RTVSPost2010PropOp28
 70
     1
102
RTVSPost2010Prop29
280
     1
102
RTVSPost2010PropOp29
 70
     1
102
RTVSPost2010Prop30
280
     1
102
RTVSPost2010PropOp30
 70
     1
102
RTVSPost2010Prop31
280
     0
102
RTVSPost2010PropOp31
 70
     1
102
RTVSPost2010Prop32
280
     0
102
RTVSPost2010PropOp32
 70
     1
102
RTVSPost2010Prop33
280
     0
102
RTVSPost2010PropOp33
 70
     1
102
RTVSPost2010Prop34
280
     0
102
RTVSPost2010PropOp34
 70
     1
102
RTVSPost2010Prop35
280
     0
102
RTVSPost2010PropOp35
 70
     1
102
RTVSPost2010Prop36
280
     0
102
RTVSPost2010PropOp36
 70
     1
102
RTVSPost2010Prop37
 90
       50
102
RTVSPost2010PropOp37
 70
     1
102
RTVSPost2010Prop38
140
0.0
102
RTVSPost2010PropOp38
 70
     1
102
RTVSPost2010Prop39
140
1.0
102
RTVSPost2010PropOp39
 70
     1
102
RTVSPost2010Prop40
 90
        0
102
RTVSPost2010PropOp40
 70
     1
102
RTVSPost2010Prop41ColorIndex
 90
       18
102
RTVSPost2010Prop41ColorRGB
 90
        0
102
RTVSPost2010PropOp41
 70
     1
102
RTVSPost2010Prop42
 90
       50
102
RTVSPost2010PropOp42
 70
     1
102
RTVSPost2010Prop43
 90
        3
102
RTVSPost2010PropOp43
 70
     1
102
RTVSPost2010Prop44ColorIndex
 90
        5
102
RTVSPost2010Prop44ColorRGB
 90
      255
102
RTVSPost2010PropOp44
 70
     1
102
RTVSPost2010Prop45
280
     0
102
RTVSPost2010PropOp45
 70
     1
102
RTVSPost2010Prop46
 90
       50
102
RTVSPost2010PropOp46
 70
     1
102
RTVSPost2010Prop47
 90
       50
102
RTVSPost2010PropOp47
 70
     1
102
RTVSPost2010Prop48
 90
       50
102
RTVSPost2010PropOp48
 70
     1
102
RTVSPost2010Prop49
280
     0
102
RTVSPost2010PropOp49
 70
     1
102
RTVSPost2010Prop50
 90
       50
102
RTVSPost2010PropOp50
 70
     1
102
RTVSPost2010Prop51ColorIndex
 90
      256
102
RTVSPost2010Prop51ColorRGB
 90
-16777216
102
RTVSPost2010PropOp51
 70
     0
102
RTVSPost2010Prop52
140
1.0
102
RTVSPost2010PropOp52
 70
     0
102
RTVSPost2010Prop53
 90
        2
102
RTVSPost2010PropOp53
 70
     1
102
RTVSPost2010Prop54
  1
strokes_ogs.tif
102
RTVSPost2010PropOp54
 70
     1
102
RTVSPost2010Prop55
280
     0
102
RTVSPost2010PropOp55
 70
     1
102
RTVSPost2010Prop56
140
1.0
102
RTVSPost2010PropOp56
 70
     1
102
RTVSPost2010Prop57
140
1.0
102
RTVSPost2010PropOp57
 70
     1
  0
XRECORD
  5
1A1
102
{ACAD_REACTORS
330
1A0
102
}
330
1A0
100
AcDbXrecord
280
     1
102
RTVSPost2010Prop28
280
     0
102
RTVSPost2010PropOp28
 70
     1
102
RTVSPost2010Prop29
280
     1
102
RTVSPost2010PropOp29
 70
     1
102
RTVSPost2010Prop30
280
     1
102
RTVSPost2010PropOp30
 70
     1
102
RTVSPost2010Prop31
280
     0
102
RTVSPost2010PropOp31
 70
     1
102
RTVSPost2010Prop32
280
     0
102
RTVSPost2010PropOp32
 70
     1
102
RTVSPost2010Prop33
280
     0
102
RTVSPost2010PropOp33
 70
     1
102
RTVSPost2010Prop34
280
     0
102
RTVSPost2010PropOp34
 70
     1
102
RTVSPost2010Prop35
280
     0
102
RTVSPost2010PropOp35
 70
     1
102
RTVSPost2010Prop36
280
     0
102
RTVSPost2010PropOp36
 70
     1
102
RTVSPost2010Prop37
 90
       50
102
RTVSPost2010PropOp37
 70
     1
102
RTVSPost2010Prop38
140
0.0
102
RTVSPost2010PropOp38
 70
     1
102
RTVSPost2010Prop39
140
1.0
102
RTVSPost2010PropOp39
 70
     1
102
RTVSPost2010Prop40
 90
        0
102
RTVSPost2010PropOp40
 70
     1
102
RTVSPost2010Prop41ColorIndex
 90
       18
102
RTVSPost2010Prop41ColorRGB
 90
        0
102
RTVSPost2010PropOp41
 70
     1
102
RTVSPost2010Prop42
 90
       50
102
RTVSPost2010PropOp42
 70
     1
102
RTVSPost2010Prop43
 90
        3
102
RTVSPost2010PropOp43
 70
     1
102
RTVSPost2010Prop44ColorIndex
 90
        5
102
RTVSPost2010Prop44ColorRGB
 90
      255
102
RTVSPost2010PropOp44
 70
     1
102
RTVSPost2010Prop45
280
     0
102
RTVSPost2010PropOp45
 70
     1
102
RTVSPost2010Prop46
 90
       50
102
RTVSPost2010PropOp46
 70
     1
102
RTVSPost2010Prop47
 90
       50
102
RTVSPost2010PropOp47
 70
     1
102
RTVSPost2010Prop48
 90
       50
102
RTVSPost2010PropOp48
 70
     1
102
RTVSPost2010Prop49
280
     0
102
RTVSPost2010PropOp49
 70
     1
102
RTVSPost2010Prop50
 90
       50
102
RTVSPost2010PropOp50
 70
     1
102
RTVSPost2010Prop51ColorIndex
 90
      256
102
RTVSPost2010Prop51ColorRGB
 90
-16777216
102
RTVSPost2010PropOp51
 70
     0
102
RTVSPost2010Prop52
140
1.0
102
RTVSPost2010PropOp52
 70
     0
102
RTVSPost2010Prop53
 90
        2
102
RTVSPost2010PropOp53
 70
     1
102
RTVSPost2010Prop54
  1
strokes_ogs.tif
102
RTVSPost2010PropOp54
 70
     1
102
RTVSPost2010Prop55
280
     0
102
RTVSPost2010PropOp55
 70
     1
102
RTVSPost2010Prop56
140
1.0
102
RTVSPost2010PropOp56
 70
     1
102
RTVSPost2010Prop57
140
1.0
102
RTVSPost2010PropOp57
 70
     1
  0
XRECORD
  5
1A3
102
{ACAD_REACTORS
330
1A2
102
}
330
1A2
100
AcDbXrecord
280
     1
102
RTVSPost2010Prop28
280
     0
102
RTVSPost2010PropOp28
 70
     1
102
RTVSPost2010Prop29
280
     1
102
RTVSPost2010PropOp29
 70
     1
102
RTVSPost2010Prop30
280
     1
102
RTVSPost2010PropOp30
 70
     1
102
RTVSPost2010Prop31
280
     0
102
RTVSPost2010PropOp31
 70
     1
102
RTVSPost2010Prop32
280
     0
102
RTVSPost2010PropOp32
 70
     1
102
RTVSPost2010Prop33
280
     0
102
RTVSPost2010PropOp33
 70
     1
102
RTVSPost2010Prop34
280
     0
102
RTVSPost2010PropOp34
 70
     1
102
RTVSPost2010Prop35
280
     0
102
RTVSPost2010PropOp35
 70
     1
102
RTVSPost2010Prop36
280
     0
102
RTVSPost2010PropOp36
 70
     1
102
RTVSPost2010Prop37
 90
       50
102
RTVSPost2010PropOp37
 70
     1
102
RTVSPost2010Prop38
140
0.0
102
RTVSPost2010PropOp38
 70
     1
102
RTVSPost2010Prop39
140
1.0
102
RTVSPost2010PropOp39
 70
     1
102
RTVSPost2010Prop40
 90
        0
102
RTVSPost2010PropOp40
 70
     1
102
RTVSPost2010Prop41ColorIndex
 90
       18
102
RTVSPost2010Prop41ColorRGB
 90
        0
102
RTVSPost2010PropOp41
 70
     1
102
RTVSPost2010Prop42
 90
       50
102
RTVSPost2010PropOp42
 70
     1
102
RTVSPost2010Prop43
 90
        3
102
RTVSPost2010PropOp43
 70
     1
102
RTVSPost2010Prop44ColorIndex
 90
        5
102
RTVSPost2010Prop44ColorRGB
 90
      255
102
RTVSPost2010PropOp44
 70
     1
102
RTVSPost2010Prop45
280
     0
102
RTVSPost2010PropOp45
 70
     1
102
RTVSPost2010Prop46
 90
       50
102
RTVSPost2010PropOp46
 70
     1
102
RTVSPost2010Prop47
 90
       50
102
RTVSPost2010PropOp47
 70
     1
102
RTVSPost2010Prop48
 90
       50
102
RTVSPost2010PropOp48
 70
     1
102
RTVSPost2010Prop49
280
     0
102
RTVSPost2010PropOp49
 70
     1
102
RTVSPost2010Prop50
 90
       50
102
RTVSPost2010PropOp50
 70
     1
102
RTVSPost2010Prop51ColorIndex
 90
      256
102
RTVSPost2010Prop51ColorRGB
 90
-16777216
102
RTVSPost2010PropOp51
 70
     0
102
RTVSPost2010Prop52
140
1.0
102
RTVSPost2010PropOp52
 70
     0
102
RTVSPost2010Prop53
 90
        2
102
RTVSPost2010PropOp53
 70
     1
102
RTVSPost2010Prop54
  1
strokes_ogs.tif
102
RTVSPost2010PropOp54
 70
     1
102
RTVSPost2010Prop55
280
     0
102
RTVSPost2010PropOp55
 70
     1
102
RTVSPost2010Prop56
140
1.0
102
RTVSPost2010PropOp56
 70
     1
102
RTVSPost2010Prop57
140
1.0
102
RTVSPost2010PropOp57
 70
     1
  0
XRECORD
  5
1A5
102
{ACAD_REACTORS
330
1A4
102
}
330
1A4
100
AcDbXrecord
280
     1
102
RTVSPost2010Prop28
280
     0
102
RTVSPost2010PropOp28
 70
     1
102
RTVSPost2010Prop29
280
     1
102
RTVSPost2010PropOp29
 70
     1
102
RTVSPost2010Prop30
280
     1
102
RTVSPost2010PropOp30
 70
     1
102
RTVSPost2010Prop31
280
     0
102
RTVSPost2010PropOp31
 70
     1
102
RTVSPost2010Prop32
280
     0
102
RTVSPost2010PropOp32
 70
     1
102
RTVSPost2010Prop33
280
     0
102
RTVSPost2010PropOp33
 70
     1
102
RTVSPost2010Prop34
280
     0
102
RTVSPost2010PropOp34
 70
     1
102
RTVSPost2010Prop35
280
     0
102
RTVSPost2010PropOp35
 70
     1
102
RTVSPost2010Prop36
280
     0
102
RTVSPost2010PropOp36
 70
     1
102
RTVSPost2010Prop37
 90
       50
102
RTVSPost2010PropOp37
 70
     1
102
RTVSPost2010Prop38
140
0.0
102
RTVSPost2010PropOp38
 70
     1
102
RTVSPost2010Prop39
140
1.0
102
RTVSPost2010PropOp39
 70
     1
102
RTVSPost2010Prop40
 90
        0
102
RTVSPost2010PropOp40
 70
     1
102
RTVSPost2010Prop41ColorIndex
 90
       18
102
RTVSPost2010Prop41ColorRGB
 90
        0
102
RTVSPost2010PropOp41
 70
     1
102
RTVSPost2010Prop42
 90
       50
102
RTVSPost2010PropOp42
 70
     1
102
RTVSPost2010Prop43
 90
        3
102
RTVSPost2010PropOp43
 70
     1
102
RTVSPost2010Prop44ColorIndex
 90
        5
102
RTVSPost2010Prop44ColorRGB
 90
      255
102
RTVSPost2010PropOp44
 70
     1
102
RTVSPost2010Prop45
280
     0
102
RTVSPost2010PropOp45
 70
     1
102
RTVSPost2010Prop46
 90
       50
102
RTVSPost2010PropOp46
 70
     1
102
RTVSPost2010Prop47
 90
       50
102
RTVSPost2010PropOp47
 70
     1
102
RTVSPost2010Prop48
 90
       50
102
RTVSPost2010PropOp48
 70
     1
102
RTVSPost2010Prop49
280
     0
102
RTVSPost2010PropOp49
 70
     1
102
RTVSPost2010Prop50
 90
       50
102
RTVSPost2010PropOp50
 70
     1
102
RTVSPost2010Prop51ColorIndex
 90
      256
102
RTVSPost2010Prop51ColorRGB
 90
-16777216
102
RTVSPost2010PropOp51
 70
     0
102
RTVSPost2010Prop52
140
1.0
102
RTVSPost2010PropOp52
 70
     0
102
RTVSPost2010Prop53
 90
        2
102
RTVSPost2010PropOp53
 70
     1
102
RTVSPost2010Prop54
  1
strokes_ogs.tif
102
RTVSPost2010PropOp54
 70
     1
102
RTVSPost2010Prop55
280
     0
102
RTVSPost2010PropOp55
 70
     1
102
RTVSPost2010Prop56
140
1.0
102
RTVSPost2010PropOp56
 70
     1
102
RTVSPost2010Prop57
140
1.0
102
RTVSPost2010PropOp57
 70
     1
  0
XRECORD
  5
1A7
102
{ACAD_REACTORS
330
1A6
102
}
330
1A6
100
AcDbXrecord
280
     1
102
RTVSPost2010Prop28
280
     0
102
RTVSPost2010PropOp28
 70
     1
102
RTVSPost2010Prop29
280
     1
102
RTVSPost2010PropOp29
 70
     1
102
RTVSPost2010Prop30
280
     1
102
RTVSPost2010PropOp30
 70
     1
102
RTVSPost2010Prop31
280
     0
102
RTVSPost2010PropOp31
 70
     1
102
RTVSPost2010Prop32
280
     0
102
RTVSPost2010PropOp32
 70
     1
102
RTVSPost2010Prop33
280
     0
102
RTVSPost2010PropOp33
 70
     1
102
RTVSPost2010Prop34
280
     0
102
RTVSPost2010PropOp34
 70
     1
102
RTVSPost2010Prop35
280
     0
102
RTVSPost2010PropOp35
 70
     1
102
RTVSPost2010Prop36
280
     0
102
RTVSPost2010PropOp36
 70
     1
102
RTVSPost2010Prop37
 90
       50
102
RTVSPost2010PropOp37
 70
     1
102
RTVSPost2010Prop38
140
0.0
102
RTVSPost2010PropOp38
 70
     1
102
RTVSPost2010Prop39
140
1.0
102
RTVSPost2010PropOp39
 70
     1
102
RTVSPost2010Prop40
 90
        0
102
RTVSPost2010PropOp40
 70
     1
102
RTVSPost2010Prop41ColorIndex
 90
       18
102
RTVSPost2010Prop41ColorRGB
 90
        0
102
RTVSPost2010PropOp41
 70
     1
102
RTVSPost2010Prop42
 90
       50
102
RTVSPost2010PropOp42
 70
     1
102
RTVSPost2010Prop43
 90
        3
102
RTVSPost2010PropOp43
 70
     1
102
RTVSPost2010Prop44ColorIndex
 90
        5
102
RTVSPost2010Prop44ColorRGB
 90
      255
102
RTVSPost2010PropOp44
 70
     1
102
RTVSPost2010Prop45
280
     0
102
RTVSPost2010PropOp45
 70
     1
102
RTVSPost2010Prop46
 90
       50
102
RTVSPost2010PropOp46
 70
     1
102
RTVSPost2010Prop47
 90
       50
102
RTVSPost2010PropOp47
 70
     1
102
RTVSPost2010Prop48
 90
       50
102
RTVSPost2010PropOp48
 70
     1
102
RTVSPost2010Prop49
280
     0
102
RTVSPost2010PropOp49
 70
     1
102
RTVSPost2010Prop50
 90
       50
102
RTVSPost2010PropOp50
 70
     1
102
RTVSPost2010Prop51ColorIndex
 90
      256
102
RTVSPost2010Prop51ColorRGB
 90
-16777216
102
RTVSPost2010PropOp51
 70
     0
102
RTVSPost2010Prop52
140
1.0
102
RTVSPost2010PropOp52
 70
     0
102
RTVSPost2010Prop53
 90
        2
102
RTVSPost2010PropOp53
 70
     1
102
RTVSPost2010Prop54
  1
strokes_ogs.tif
102
RTVSPost2010PropOp54
 70
     1
102
RTVSPost2010Prop55
280
     0
102
RTVSPost2010PropOp55
 70
     1
102
RTVSPost2010Prop56
140
1.0
102
RTVSPost2010PropOp56
 70
     1
102
RTVSPost2010Prop57
140
1.0
102
RTVSPost2010PropOp57
 70
     1
  0
XRECORD
  5
1AF
102
{ACAD_REACTORS
330
1AE
102
}
330
1AE
100
AcDbXrecord
280
     1
102
RTVSPost2010Prop28
280
     0
102
RTVSPost2010PropOp28
 70
     1
102
RTVSPost2010Prop29
280
     1
102
RTVSPost2010PropOp29
 70
     1
102
RTVSPost2010Prop30
280
     1
102
RTVSPost2010PropOp30
 70
     1
102
RTVSPost2010Prop31
280
     0
102
RTVSPost2010PropOp31
 70
     1
102
RTVSPost2010Prop32
280
     0
102
RTVSPost2010PropOp32
 70
     1
102
RTVSPost2010Prop33
280
     0
102
RTVSPost2010PropOp33
 70
     1
102
RTVSPost2010Prop34
280
     0
102
RTVSPost2010PropOp34
 70
     1
102
RTVSPost2010Prop35
280
     0
102
RTVSPost2010PropOp35
 70
     1
102
RTVSPost2010Prop36
280
     0
102
RTVSPost2010PropOp36
 70
     1
102
RTVSPost2010Prop37
 90
       50
102
RTVSPost2010PropOp37
 70
     1
102
RTVSPost2010Prop38
140
0.0
102
RTVSPost2010PropOp38
 70
     1
102
RTVSPost2010Prop39
140
1.0
102
RTVSPost2010PropOp39
 70
     1
102
RTVSPost2010Prop40
 90
        0
102
RTVSPost2010PropOp40
 70
     1
102
RTVSPost2010Prop41ColorIndex
 90
       18
102
RTVSPost2010Prop41ColorRGB
 90
        0
102
RTVSPost2010PropOp41
 70
     1
102
RTVSPost2010Prop42
 90
       50
102
RTVSPost2010PropOp42
 70
     1
102
RTVSPost2010Prop43
 90
        3
102
RTVSPost2010PropOp43
 70
     1
102
RTVSPost2010Prop44ColorIndex
 90
        5
102
RTVSPost2010Prop44ColorRGB
 90
      255
102
RTVSPost2010PropOp44
 70
     1
102
RTVSPost2010Prop45
280
     0
102
RTVSPost2010PropOp45
 70
     1
102
RTVSPost2010Prop46
 90
       50
102
RTVSPost2010PropOp46
 70
     1
102
RTVSPost2010Prop47
 90
       50
102
RTVSPost2010PropOp47
 70
     1
102
RTVSPost2010Prop48
 90
       50
102
RTVSPost2010PropOp48
 70
     1
102
RTVSPost2010Prop49
280
     0
102
RTVSPost2010PropOp49
 70
     1
102
RTVSPost2010Prop50
 90
       50
102
RTVSPost2010PropOp50
 70
     1
102
RTVSPost2010Prop51ColorIndex
 90
      256
102
RTVSPost2010Prop51ColorRGB
 90
-16777216
102
RTVSPost2010PropOp51
 70
     0
102
RTVSPost2010Prop52
140
1.0
102
RTVSPost2010PropOp52
 70
     0
102
RTVSPost2010Prop53
 90
        2
102
RTVSPost2010PropOp53
 70
     1
102
RTVSPost2010Prop54
  1
strokes_ogs.tif
102
RTVSPost2010PropOp54
 70
     1
102
RTVSPost2010Prop55
280
     0
102
RTVSPost2010PropOp55
 70
     1
102
RTVSPost2010Prop56
140
1.0
102
RTVSPost2010PropOp56
 70
     1
102
RTVSPost2010Prop57
140
1.0
102
RTVSPost2010PropOp57
 70
     1
  0
XRECORD
  5
1CB
102
{ACAD_REACTORS
330
1CA
102
}
330
1CA
100
AcDbXrecord
280
     1
102
RTVSPost2010Prop28
280
     0
102
RTVSPost2010PropOp28
 70
     0
102
RTVSPost2010Prop29
280
     1
102
RTVSPost2010PropOp29
 70
     0
102
RTVSPost2010Prop30
280
     1
102
RTVSPost2010PropOp30
 70
     0
102
RTVSPost2010Prop31
280
     0
102
RTVSPost2010PropOp31
 70
     0
102
RTVSPost2010Prop32
280
     0
102
RTVSPost2010PropOp32
 70
     0
102
RTVSPost2010Prop33
280
     0
102
RTVSPost2010PropOp33
 70
     0
102
RTVSPost2010Prop34
280
     0
102
RTVSPost2010PropOp34
 70
     0
102
RTVSPost2010Prop35
280
     0
102
RTVSPost2010PropOp35
 70
     0
102
RTVSPost2010Prop36
280
     0
102
RTVSPost2010PropOp36
 70
     0
102
RTVSPost2010Prop37
 90
       50
102
RTVSPost2010PropOp37
 70
     0
102
RTVSPost2010Prop38
140
0.0
102
RTVSPost2010PropOp38
 70
     0
102
RTVSPost2010Prop39
140
1.0
102
RTVSPost2010PropOp39
 70
     0
102
RTVSPost2010Prop40
 90
        0
102
RTVSPost2010PropOp40
 70
     0
102
RTVSPost2010Prop41ColorIndex
 90
       18
102
RTVSPost2010Prop41ColorRGB
 90
        0
102
RTVSPost2010PropOp41
 70
     0
102
RTVSPost2010Prop42
 90
       50
102
RTVSPost2010PropOp42
 70
     0
102
RTVSPost2010Prop43
 90
        3
102
RTVSPost2010PropOp43
 70
     0
102
RTVSPost2010Prop44ColorIndex
 90
        5
102
RTVSPost2010Prop44ColorRGB
 90
      255
102
RTVSPost2010PropOp44
 70
     0
102
RTVSPost2010Prop45
280
     0
102
RTVSPost2010PropOp45
 70
     0
102
RTVSPost2010Prop46
 90
       50
102
RTVSPost2010PropOp46
 70
     0
102
RTVSPost2010Prop47
 90
       50
102
RTVSPost2010PropOp47
 70
     0
102
RTVSPost2010Prop48
 90
       50
102
RTVSPost2010PropOp48
 70
     0
102
RTVSPost2010Prop49
280
     0
102
RTVSPost2010PropOp49
 70
     0
102
RTVSPost2010Prop50
 90
       50
102
RTVSPost2010PropOp50
 70
     0
102
RTVSPost2010Prop51ColorIndex
 90
      256
102
RTVSPost2010Prop51ColorRGB
 90
-16777216
102
RTVSPost2010PropOp51
 70
     0
102
RTVSPost2010Prop52
140
1.0
102
RTVSPost2010PropOp52
 70
     0
102
RTVSPost2010Prop53
 90
        2
102
RTVSPost2010PropOp53
 70
     0
102
RTVSPost2010Prop54
  1
strokes_ogs.tif
102
RTVSPost2010PropOp54
 70
     0
102
RTVSPost2010Prop55
280
     0
102
RTVSPost2010PropOp55
 70
     0
102
RTVSPost2010Prop56
140
1.0
102
RTVSPost2010PropOp56
 70
     0
102
RTVSPost2010Prop57
140
1.0
102
RTVSPost2010PropOp57
 70
     0
  0
XRECORD
  5
1BB
102
{ACAD_REACTORS
330
1BA
102
}
330
1BA
100
AcDbXrecord
280
     1
102
RTVSPost2010Prop28
280
     0
102
RTVSPost2010PropOp28
 70
     1
102
RTVSPost2010Prop29
280
     1
102
RTVSPost2010PropOp29
 70
     1
102
RTVSPost2010Prop30
280
     1
102
RTVSPost2010PropOp30
 70
     1
102
RTVSPost2010Prop31
280
     0
102
RTVSPost2010PropOp31
 70
     1
102
RTVSPost2010Prop32
280
     0
102
RTVSPost2010PropOp32
 70
     1
102
RTVSPost2010Prop33
280
     0
102
RTVSPost2010PropOp33
 70
     1
102
RTVSPost2010Prop34
280
     0
102
RTVSPost2010PropOp34
 70
     1
102
RTVSPost2010Prop35
280
     0
102
RTVSPost2010PropOp35
 70
     1
102
RTVSPost2010Prop36
280
     0
102
RTVSPost2010PropOp36
 70
     1
102
RTVSPost2010Prop37
 90
       50
102
RTVSPost2010PropOp37
 70
     1
102
RTVSPost2010Prop38
140
0.0
102
RTVSPost2010PropOp38
 70
     1
102
RTVSPost2010Prop39
140
1.0
102
RTVSPost2010PropOp39
 70
     1
102
RTVSPost2010Prop40
 90
        0
102
RTVSPost2010PropOp40
 70
     1
102
RTVSPost2010Prop41ColorIndex
 90
       18
102
RTVSPost2010Prop41ColorRGB
 90
        0
102
RTVSPost2010PropOp41
 70
     1
102
RTVSPost2010Prop42
 90
       50
102
RTVSPost2010PropOp42
 70
     1
102
RTVSPost2010Prop43
 90
        3
102
RTVSPost2010PropOp43
 70
     1
102
RTVSPost2010Prop44ColorIndex
 90
        5
102
RTVSPost2010Prop44ColorRGB
 90
      255
102
RTVSPost2010PropOp44
 70
     1
102
RTVSPost2010Prop45
280
     0
102
RTVSPost2010PropOp45
 70
     1
102
RTVSPost2010Prop46
 90
       50
102
RTVSPost2010PropOp46
 70
     1
102
RTVSPost2010Prop47
 90
       50
102
RTVSPost2010PropOp47
 70
     1
102
RTVSPost2010Prop48
 90
       50
102
RTVSPost2010PropOp48
 70
     1
102
RTVSPost2010Prop49
280
     0
102
RTVSPost2010PropOp49
 70
     1
102
RTVSPost2010Prop50
 90
       50
102
RTVSPost2010PropOp50
 70
     1
102
RTVSPost2010Prop51ColorIndex
 90
      256
102
RTVSPost2010Prop51ColorRGB
 90
-16777216
102
RTVSPost2010PropOp51
 70
     0
102
RTVSPost2010Prop52
140
1.0
102
RTVSPost2010PropOp52
 70
     0
102
RTVSPost2010Prop53
 90
        2
102
RTVSPost2010PropOp53
 70
     1
102
RTVSPost2010Prop54
  1
strokes_ogs.tif
102
RTVSPost2010PropOp54
 70
     1
102
RTVSPost2010Prop55
280
     0
102
RTVSPost2010PropOp55
 70
     1
102
RTVSPost2010Prop56
140
1.0
102
RTVSPost2010PropOp56
 70
     1
102
RTVSPost2010Prop57
140
1.0
102
RTVSPost2010PropOp57
 70
     1
  0
XRECORD
  5
1CD
102
{ACAD_REACTORS
330
1CC
102
}
330
1CC
100
AcDbXrecord
280
     1
102
RTVSPost2010Prop28
280
     0
102
RTVSPost2010PropOp28
 70
     0
102
RTVSPost2010Prop29
280
     1
102
RTVSPost2010PropOp29
 70
     0
102
RTVSPost2010Prop30
280
     1
102
RTVSPost2010PropOp30
 70
     0
102
RTVSPost2010Prop31
280
     0
102
RTVSPost2010PropOp31
 70
     0
102
RTVSPost2010Prop32
280
     0
102
RTVSPost2010PropOp32
 70
     0
102
RTVSPost2010Prop33
280
     0
102
RTVSPost2010PropOp33
 70
     0
102
RTVSPost2010Prop34
280
     0
102
RTVSPost2010PropOp34
 70
     0
102
RTVSPost2010Prop35
280
     0
102
RTVSPost2010PropOp35
 70
     0
102
RTVSPost2010Prop36
280
     0
102
RTVSPost2010PropOp36
 70
     0
102
RTVSPost2010Prop37
 90
       50
102
RTVSPost2010PropOp37
 70
     0
102
RTVSPost2010Prop38
140
0.0
102
RTVSPost2010PropOp38
 70
     0
102
RTVSPost2010Prop39
140
1.0
102
RTVSPost2010PropOp39
 70
     0
102
RTVSPost2010Prop40
 90
        0
102
RTVSPost2010PropOp40
 70
     0
102
RTVSPost2010Prop41ColorIndex
 90
       18
102
RTVSPost2010Prop41ColorRGB
 90
        0
102
RTVSPost2010PropOp41
 70
     0
102
RTVSPost2010Prop42
 90
       50
102
RTVSPost2010PropOp42
 70
     0
102
RTVSPost2010Prop43
 90
        3
102
RTVSPost2010PropOp43
 70
     0
102
RTVSPost2010Prop44ColorIndex
 90
        5
102
RTVSPost2010Prop44ColorRGB
 90
      255
102
RTVSPost2010PropOp44
 70
     0
102
RTVSPost2010Prop45
280
     0
102
RTVSPost2010PropOp45
 70
     0
102
RTVSPost2010Prop46
 90
       50
102
RTVSPost2010PropOp46
 70
     0
102
RTVSPost2010Prop47
 90
       50
102
RTVSPost2010PropOp47
 70
     0
102
RTVSPost2010Prop48
 90
       50
102
RTVSPost2010PropOp48
 70
     0
102
RTVSPost2010Prop49
280
     0
102
RTVSPost2010PropOp49
 70
     0
102
RTVSPost2010Prop50
 90
       50
102
RTVSPost2010PropOp50
 70
     0
102
RTVSPost2010Prop51ColorIndex
 90
      256
102
RTVSPost2010Prop51ColorRGB
 90
-16777216
102
RTVSPost2010PropOp51
 70
     0
102
RTVSPost2010Prop52
140
1.0
102
RTVSPost2010PropOp52
 70
     0
102
RTVSPost2010Prop53
 90
        2
102
RTVSPost2010PropOp53
 70
     0
102
RTVSPost2010Prop54
  1
strokes_ogs.tif
102
RTVSPost2010PropOp54
 70
     0
102
RTVSPost2010Prop55
280
     0
102
RTVSPost2010PropOp55
 70
     0
102
RTVSPost2010Prop56
140
1.0
102
RTVSPost2010PropOp56
 70
     0
102
RTVSPost2010Prop57
140
1.0
102
RTVSPost2010PropOp57
 70
     0
  0
XRECORD
  5
1B3
102
{ACAD_REACTORS
330
1B2
102
}
330
1B2
100
AcDbXrecord
280
     1
102
RTVSPost2010Prop28
280
     0
102
RTVSPost2010PropOp28
 70
     1
102
RTVSPost2010Prop29
280
     1
102
RTVSPost2010PropOp29
 70
     1
102
RTVSPost2010Prop30
280
     1
102
RTVSPost2010PropOp30
 70
     1
102
RTVSPost2010Prop31
280
     0
102
RTVSPost2010PropOp31
 70
     1
102
RTVSPost2010Prop32
280
     0
102
RTVSPost2010PropOp32
 70
     1
102
RTVSPost2010Prop33
280
     0
102
RTVSPost2010PropOp33
 70
     1
102
RTVSPost2010Prop34
280
     0
102
RTVSPost2010PropOp34
 70
     1
102
RTVSPost2010Prop35
280
     0
102
RTVSPost2010PropOp35
 70
     1
102
RTVSPost2010Prop36
280
     0
102
RTVSPost2010PropOp36
 70
     1
102
RTVSPost2010Prop37
 90
       50
102
RTVSPost2010PropOp37
 70
     1
102
RTVSPost2010Prop38
140
0.0
102
RTVSPost2010PropOp38
 70
     1
102
RTVSPost2010Prop39
140
1.0
102
RTVSPost2010PropOp39
 70
     1
102
RTVSPost2010Prop40
 90
        0
102
RTVSPost2010PropOp40
 70
     1
102
RTVSPost2010Prop41ColorIndex
 90
       18
102
RTVSPost2010Prop41ColorRGB
 90
        0
102
RTVSPost2010PropOp41
 70
     1
102
RTVSPost2010Prop42
 90
       50
102
RTVSPost2010PropOp42
 70
     1
102
RTVSPost2010Prop43
 90
        3
102
RTVSPost2010PropOp43
 70
     1
102
RTVSPost2010Prop44ColorIndex
 90
        5
102
RTVSPost2010Prop44ColorRGB
 90
      255
102
RTVSPost2010PropOp44
 70
     1
102
RTVSPost2010Prop45
280
     0
102
RTVSPost2010PropOp45
 70
     1
102
RTVSPost2010Prop46
 90
       50
102
RTVSPost2010PropOp46
 70
     1
102
RTVSPost2010Prop47
 90
       50
102
RTVSPost2010PropOp47
 70
     1
102
RTVSPost2010Prop48
 90
       50
102
RTVSPost2010PropOp48
 70
     1
102
RTVSPost2010Prop49
280
     0
102
RTVSPost2010PropOp49
 70
     1
102
RTVSPost2010Prop50
 90
       50
102
RTVSPost2010PropOp50
 70
     1
102
RTVSPost2010Prop51ColorIndex
 90
      256
102
RTVSPost2010Prop51ColorRGB
 90
-16777216
102
RTVSPost2010PropOp51
 70
     0
102
RTVSPost2010Prop52
140
1.0
102
RTVSPost2010PropOp52
 70
     0
102
RTVSPost2010Prop53
 90
        2
102
RTVSPost2010PropOp53
 70
     1
102
RTVSPost2010Prop54
  1
strokes_ogs.tif
102
RTVSPost2010PropOp54
 70
     1
102
RTVSPost2010Prop55
280
     0
102
RTVSPost2010PropOp55
 70
     1
102
RTVSPost2010Prop56
140
1.0
102
RTVSPost2010PropOp56
 70
     1
102
RTVSPost2010Prop57
140
1.0
102
RTVSPost2010PropOp57
 70
     1
  0
XRECORD
  5
1C9
102
{ACAD_REACTORS
330
1C8
102
}
330
1C8
100
AcDbXrecord
280
     1
102
RTVSPost2010Prop28
280
     0
102
RTVSPost2010PropOp28
 70
     1
102
RTVSPost2010Prop29
280
     1
102
RTVSPost2010PropOp29
 70
     1
102
RTVSPost2010Prop30
280
     1
102
RTVSPost2010PropOp30
 70
     1
102
RTVSPost2010Prop31
280
     0
102
RTVSPost2010PropOp31
 70
     1
102
RTVSPost2010Prop32
280
     0
102
RTVSPost2010PropOp32
 70
     1
102
RTVSPost2010Prop33
280
     0
102
RTVSPost2010PropOp33
 70
     1
102
RTVSPost2010Prop34
280
     0
102
RTVSPost2010PropOp34
 70
     1
102
RTVSPost2010Prop35
280
     0
102
RTVSPost2010PropOp35
 70
     1
102
RTVSPost2010Prop36
280
     0
102
RTVSPost2010PropOp36
 70
     1
102
RTVSPost2010Prop37
 90
       50
102
RTVSPost2010PropOp37
 70
     1
102
RTVSPost2010Prop38
140
0.0
102
RTVSPost2010PropOp38
 70
     1
102
RTVSPost2010Prop39
140
1.0
102
RTVSPost2010PropOp39
 70
     1
102
RTVSPost2010Prop40
 90
        0
102
RTVSPost2010PropOp40
 70
     1
102
RTVSPost2010Prop41ColorIndex
 90
       18
102
RTVSPost2010Prop41ColorRGB
 90
        0
102
RTVSPost2010PropOp41
 70
     1
102
RTVSPost2010Prop42
 90
       50
102
RTVSPost2010PropOp42
 70
     1
102
RTVSPost2010Prop43
 90
        3
102
RTVSPost2010PropOp43
 70
     1
102
RTVSPost2010Prop44ColorIndex
 90
        5
102
RTVSPost2010Prop44ColorRGB
 90
      255
102
RTVSPost2010PropOp44
 70
     1
102
RTVSPost2010Prop45
280
     0
102
RTVSPost2010PropOp45
 70
     1
102
RTVSPost2010Prop46
 90
       50
102
RTVSPost2010PropOp46
 70
     1
102
RTVSPost2010Prop47
 90
       50
102
RTVSPost2010PropOp47
 70
     1
102
RTVSPost2010Prop48
 90
       50
102
RTVSPost2010PropOp48
 70
     1
102
RTVSPost2010Prop49
280
     0
102
RTVSPost2010PropOp49
 70
     1
102
RTVSPost2010Prop50
 90
       50
102
RTVSPost2010PropOp50
 70
     1
102
RTVSPost2010Prop51ColorIndex
 90
      256
102
RTVSPost2010Prop51ColorRGB
 90
-16777216
102
RTVSPost2010PropOp51
 70
     0
102
RTVSPost2010Prop52
140
1.0
102
RTVSPost2010PropOp52
 70
     0
102
RTVSPost2010Prop53
 90
        2
102
RTVSPost2010PropOp53
 70
     1
102
RTVSPost2010Prop54
  1
strokes_ogs.tif
102
RTVSPost2010PropOp54
 70
     1
102
RTVSPost2010Prop55
280
     0
102
RTVSPost2010PropOp55
 70
     1
102
RTVSPost2010Prop56
140
1.0
102
RTVSPost2010PropOp56
 70
     1
102
RTVSPost2010Prop57
140
1.0
102
RTVSPost2010PropOp57
 70
     1
  0
XRECORD
  5
1C7
102
{ACAD_REACTORS
330
1C6
102
}
330
1C6
100
AcDbXrecord
280
     1
102
RTVSPost2010Prop28
280
     0
102
RTVSPost2010PropOp28
 70
     1
102
RTVSPost2010Prop29
280
     1
102
RTVSPost2010PropOp29
 70
     1
102
RTVSPost2010Prop30
280
     1
102
RTVSPost2010PropOp30
 70
     1
102
RTVSPost2010Prop31
280
     0
102
RTVSPost2010PropOp31
 70
     1
102
RTVSPost2010Prop32
280
     0
102
RTVSPost2010PropOp32
 70
     1
102
RTVSPost2010Prop33
280
     0
102
RTVSPost2010PropOp33
 70
     1
102
RTVSPost2010Prop34
280
     0
102
RTVSPost2010PropOp34
 70
     1
102
RTVSPost2010Prop35
280
     0
102
RTVSPost2010PropOp35
 70
     1
102
RTVSPost2010Prop36
280
     0
102
RTVSPost2010PropOp36
 70
     1
102
RTVSPost2010Prop37
 90
       50
102
RTVSPost2010PropOp37
 70
     1
102
RTVSPost2010Prop38
140
0.0
102
RTVSPost2010PropOp38
 70
     1
102
RTVSPost2010Prop39
140
1.0
102
RTVSPost2010PropOp39
 70
     1
102
RTVSPost2010Prop40
 90
        0
102
RTVSPost2010PropOp40
 70
     1
102
RTVSPost2010Prop41ColorIndex
 90
       18
102
RTVSPost2010Prop41ColorRGB
 90
        0
102
RTVSPost2010PropOp41
 70
     1
102
RTVSPost2010Prop42
 90
       50
102
RTVSPost2010PropOp42
 70
     1
102
RTVSPost2010Prop43
 90
        3
102
RTVSPost2010PropOp43
 70
     1
102
RTVSPost2010Prop44ColorIndex
 90
        5
102
RTVSPost2010Prop44ColorRGB
 90
      255
102
RTVSPost2010PropOp44
 70
     1
102
RTVSPost2010Prop45
280
     0
102
RTVSPost2010PropOp45
 70
     1
102
RTVSPost2010Prop46
 90
       50
102
RTVSPost2010PropOp46
 70
     1
102
RTVSPost2010Prop47
 90
       50
102
RTVSPost2010PropOp47
 70
     1
102
RTVSPost2010Prop48
 90
       50
102
RTVSPost2010PropOp48
 70
     1
102
RTVSPost2010Prop49
280
     0
102
RTVSPost2010PropOp49
 70
     1
102
RTVSPost2010Prop50
 90
       50
102
RTVSPost2010PropOp50
 70
     1
102
RTVSPost2010Prop51ColorIndex
 90
      256
102
RTVSPost2010Prop51ColorRGB
 90
-16777216
102
RTVSPost2010PropOp51
 70
     0
102
RTVSPost2010Prop52
140
1.0
102
RTVSPost2010PropOp52
 70
     0
102
RTVSPost2010Prop53
 90
        2
102
RTVSPost2010PropOp53
 70
     1
102
RTVSPost2010Prop54
  1
strokes_ogs.tif
102
RTVSPost2010PropOp54
 70
     1
102
RTVSPost2010Prop55
280
     0
102
RTVSPost2010PropOp55
 70
     1
102
RTVSPost2010Prop56
140
1.0
102
RTVSPost2010PropOp56
 70
     1
102
RTVSPost2010Prop57
140
1.0
102
RTVSPost2010PropOp57
 70
     1
  0
XRECORD
  5
1C1
102
{ACAD_REACTORS
330
1C0
102
}
330
1C0
100
AcDbXrecord
280
     1
102
RTVSPost2010Prop28
280
     0
102
RTVSPost2010PropOp28
 70
     1
102
RTVSPost2010Prop29
280
     1
102
RTVSPost2010PropOp29
 70
     1
102
RTVSPost2010Prop30
280
     1
102
RTVSPost2010PropOp30
 70
     1
102
RTVSPost2010Prop31
280
     0
102
RTVSPost2010PropOp31
 70
     1
102
RTVSPost2010Prop32
280
     0
102
RTVSPost2010PropOp32
 70
     1
102
RTVSPost2010Prop33
280
     0
102
RTVSPost2010PropOp33
 70
     1
102
RTVSPost2010Prop34
280
     0
102
RTVSPost2010PropOp34
 70
     1
102
RTVSPost2010Prop35
280
     0
102
RTVSPost2010PropOp35
 70
     1
102
RTVSPost2010Prop36
280
     0
102
RTVSPost2010PropOp36
 70
     1
102
RTVSPost2010Prop37
 90
       50
102
RTVSPost2010PropOp37
 70
     1
102
RTVSPost2010Prop38
140
0.0
102
RTVSPost2010PropOp38
 70
     1
102
RTVSPost2010Prop39
140
1.0
102
RTVSPost2010PropOp39
 70
     1
102
RTVSPost2010Prop40
 90
        0
102
RTVSPost2010PropOp40
 70
     1
102
RTVSPost2010Prop41ColorIndex
 90
       18
102
RTVSPost2010Prop41ColorRGB
 90
        0
102
RTVSPost2010PropOp41
 70
     1
102
RTVSPost2010Prop42
 90
       50
102
RTVSPost2010PropOp42
 70
     1
102
RTVSPost2010Prop43
 90
        3
102
RTVSPost2010PropOp43
 70
     1
102
RTVSPost2010Prop44ColorIndex
 90
        5
102
RTVSPost2010Prop44ColorRGB
 90
      255
102
RTVSPost2010PropOp44
 70
     1
102
RTVSPost2010Prop45
280
     0
102
RTVSPost2010PropOp45
 70
     1
102
RTVSPost2010Prop46
 90
       50
102
RTVSPost2010PropOp46
 70
     1
102
RTVSPost2010Prop47
 90
       50
102
RTVSPost2010PropOp47
 70
     1
102
RTVSPost2010Prop48
 90
       50
102
RTVSPost2010PropOp48
 70
     1
102
RTVSPost2010Prop49
280
     0
102
RTVSPost2010PropOp49
 70
     1
102
RTVSPost2010Prop50
 90
       50
102
RTVSPost2010PropOp50
 70
     1
102
RTVSPost2010Prop51ColorIndex
 90
      256
102
RTVSPost2010Prop51ColorRGB
 90
-16777216
102
RTVSPost2010PropOp51
 70
     0
102
RTVSPost2010Prop52
140
1.0
102
RTVSPost2010PropOp52
 70
     0
102
RTVSPost2010Prop53
 90
        2
102
RTVSPost2010PropOp53
 70
     1
102
RTVSPost2010Prop54
  1
strokes_ogs.tif
102
RTVSPost2010PropOp54
 70
     1
102
RTVSPost2010Prop55
280
     0
102
RTVSPost2010PropOp55
 70
     1
102
RTVSPost2010Prop56
140
1.0
102
RTVSPost2010PropOp56
 70
     1
102
RTVSPost2010Prop57
140
1.0
102
RTVSPost2010PropOp57
 70
     1
  0
XRECORD
  5
1C3
102
{ACAD_REACTORS
330
1C2
102
}
330
1C2
100
AcDbXrecord
280
     1
102
RTVSPost2010Prop28
280
     0
102
RTVSPost2010PropOp28
 70
     1
102
RTVSPost2010Prop29
280
     1
102
RTVSPost2010PropOp29
 70
     1
102
RTVSPost2010Prop30
280
     1
102
RTVSPost2010PropOp30
 70
     1
102
RTVSPost2010Prop31
280
     0
102
RTVSPost2010PropOp31
 70
     1
102
RTVSPost2010Prop32
280
     0
102
RTVSPost2010PropOp32
 70
     1
102
RTVSPost2010Prop33
280
     0
102
RTVSPost2010PropOp33
 70
     1
102
RTVSPost2010Prop34
280
     0
102
RTVSPost2010PropOp34
 70
     1
102
RTVSPost2010Prop35
280
     0
102
RTVSPost2010PropOp35
 70
     1
102
RTVSPost2010Prop36
280
     0
102
RTVSPost2010PropOp36
 70
     1
102
RTVSPost2010Prop37
 90
       50
102
RTVSPost2010PropOp37
 70
     1
102
RTVSPost2010Prop38
140
0.0
102
RTVSPost2010PropOp38
 70
     1
102
RTVSPost2010Prop39
140
1.0
102
RTVSPost2010PropOp39
 70
     1
102
RTVSPost2010Prop40
 90
        0
102
RTVSPost2010PropOp40
 70
     1
102
RTVSPost2010Prop41ColorIndex
 90
       18
102
RTVSPost2010Prop41ColorRGB
 90
        0
102
RTVSPost2010PropOp41
 70
     1
102
RTVSPost2010Prop42
 90
       50
102
RTVSPost2010PropOp42
 70
     1
102
RTVSPost2010Prop43
 90
        3
102
RTVSPost2010PropOp43
 70
     1
102
RTVSPost2010Prop44ColorIndex
 90
        5
102
RTVSPost2010Prop44ColorRGB
 90
      255
102
RTVSPost2010PropOp44
 70
     1
102
RTVSPost2010Prop45
280
     0
102
RTVSPost2010PropOp45
 70
     1
102
RTVSPost2010Prop46
 90
       50
102
RTVSPost2010PropOp46
 70
     1
102
RTVSPost2010Prop47
 90
       50
102
RTVSPost2010PropOp47
 70
     1
102
RTVSPost2010Prop48
 90
       50
102
RTVSPost2010PropOp48
 70
     1
102
RTVSPost2010Prop49
280
     0
102
RTVSPost2010PropOp49
 70
     1
102
RTVSPost2010Prop50
 90
       50
102
RTVSPost2010PropOp50
 70
     1
102
RTVSPost2010Prop51ColorIndex
 90
      256
102
RTVSPost2010Prop51ColorRGB
 90
-16777216
102
RTVSPost2010PropOp51
 70
     0
102
RTVSPost2010Prop52
140
1.0
102
RTVSPost2010PropOp52
 70
     0
102
RTVSPost2010Prop53
 90
        2
102
RTVSPost2010PropOp53
 70
     1
102
RTVSPost2010Prop54
  1
strokes_ogs.tif
102
RTVSPost2010PropOp54
 70
     1
102
RTVSPost2010Prop55
280
     0
102
RTVSPost2010PropOp55
 70
     1
102
RTVSPost2010Prop56
140
1.0
102
RTVSPost2010PropOp56
 70
     1
102
RTVSPost2010Prop57
140
1.0
102
RTVSPost2010PropOp57
 70
     1
  0
XRECORD
  5
1B9
102
{ACAD_REACTORS
330
1B8
102
}
330
1B8
100
AcDbXrecord
280
     1
102
RTVSPost2010Prop28
280
     0
102
RTVSPost2010PropOp28
 70
     1
102
RTVSPost2010Prop29
280
     1
102
RTVSPost2010PropOp29
 70
     1
102
RTVSPost2010Prop30
280
     1
102
RTVSPost2010PropOp30
 70
     1
102
RTVSPost2010Prop31
280
     0
102
RTVSPost2010PropOp31
 70
     1
102
RTVSPost2010Prop32
280
     0
102
RTVSPost2010PropOp32
 70
     1
102
RTVSPost2010Prop33
280
     0
102
RTVSPost2010PropOp33
 70
     1
102
RTVSPost2010Prop34
280
     0
102
RTVSPost2010PropOp34
 70
     1
102
RTVSPost2010Prop35
280
     0
102
RTVSPost2010PropOp35
 70
     1
102
RTVSPost2010Prop36
280
     0
102
RTVSPost2010PropOp36
 70
     1
102
RTVSPost2010Prop37
 90
       50
102
RTVSPost2010PropOp37
 70
     1
102
RTVSPost2010Prop38
140
0.0
102
RTVSPost2010PropOp38
 70
     1
102
RTVSPost2010Prop39
140
1.0
102
RTVSPost2010PropOp39
 70
     1
102
RTVSPost2010Prop40
 90
        0
102
RTVSPost2010PropOp40
 70
     1
102
RTVSPost2010Prop41ColorIndex
 90
       18
102
RTVSPost2010Prop41ColorRGB
 90
        0
102
RTVSPost2010PropOp41
 70
     1
102
RTVSPost2010Prop42
 90
       50
102
RTVSPost2010PropOp42
 70
     1
102
RTVSPost2010Prop43
 90
        3
102
RTVSPost2010PropOp43
 70
     1
102
RTVSPost2010Prop44ColorIndex
 90
        5
102
RTVSPost2010Prop44ColorRGB
 90
      255
102
RTVSPost2010PropOp44
 70
     1
102
RTVSPost2010Prop45
280
     0
102
RTVSPost2010PropOp45
 70
     1
102
RTVSPost2010Prop46
 90
       50
102
RTVSPost2010PropOp46
 70
     1
102
RTVSPost2010Prop47
 90
       50
102
RTVSPost2010PropOp47
 70
     1
102
RTVSPost2010Prop48
 90
       50
102
RTVSPost2010PropOp48
 70
     1
102
RTVSPost2010Prop49
280
     0
102
RTVSPost2010PropOp49
 70
     1
102
RTVSPost2010Prop50
 90
       50
102
RTVSPost2010PropOp50
 70
     1
102
RTVSPost2010Prop51ColorIndex
 90
      256
102
RTVSPost2010Prop51ColorRGB
 90
-16777216
102
RTVSPost2010PropOp51
 70
     0
102
RTVSPost2010Prop52
140
1.0
102
RTVSPost2010PropOp52
 70
     0
102
RTVSPost2010Prop53
 90
        2
102
RTVSPost2010PropOp53
 70
     1
102
RTVSPost2010Prop54
  1
strokes_ogs.tif
102
RTVSPost2010PropOp54
 70
     1
102
RTVSPost2010Prop55
280
     0
102
RTVSPost2010PropOp55
 70
     1
102
RTVSPost2010Prop56
140
1.0
102
RTVSPost2010PropOp56
 70
     1
102
RTVSPost2010Prop57
140
1.0
102
RTVSPost2010PropOp57
 70
     1
  0
XRECORD
  5
1AD
102
{ACAD_REACTORS
330
1AC
102
}
330
1AC
100
AcDbXrecord
280
     1
102
RTVSPost2010Prop28
280
     0
102
RTVSPost2010PropOp28
 70
     1
102
RTVSPost2010Prop29
280
     1
102
RTVSPost2010PropOp29
 70
     1
102
RTVSPost2010Prop30
280
     1
102
RTVSPost2010PropOp30
 70
     1
102
RTVSPost2010Prop31
280
     0
102
RTVSPost2010PropOp31
 70
     1
102
RTVSPost2010Prop32
280
     0
102
RTVSPost2010PropOp32
 70
     1
102
RTVSPost2010Prop33
280
     0
102
RTVSPost2010PropOp33
 70
     1
102
RTVSPost2010Prop34
280
     0
102
RTVSPost2010PropOp34
 70
     1
102
RTVSPost2010Prop35
280
     0
102
RTVSPost2010PropOp35
 70
     1
102
RTVSPost2010Prop36
280
     0
102
RTVSPost2010PropOp36
 70
     1
102
RTVSPost2010Prop37
 90
       50
102
RTVSPost2010PropOp37
 70
     1
102
RTVSPost2010Prop38
140
0.0
102
RTVSPost2010PropOp38
 70
     1
102
RTVSPost2010Prop39
140
1.0
102
RTVSPost2010PropOp39
 70
     1
102
RTVSPost2010Prop40
 90
        0
102
RTVSPost2010PropOp40
 70
     1
102
RTVSPost2010Prop41ColorIndex
 90
       18
102
RTVSPost2010Prop41ColorRGB
 90
        0
102
RTVSPost2010PropOp41
 70
     1
102
RTVSPost2010Prop42
 90
       50
102
RTVSPost2010PropOp42
 70
     1
102
RTVSPost2010Prop43
 90
        3
102
RTVSPost2010PropOp43
 70
     1
102
RTVSPost2010Prop44ColorIndex
 90
        5
102
RTVSPost2010Prop44ColorRGB
 90
      255
102
RTVSPost2010PropOp44
 70
     1
102
RTVSPost2010Prop45
280
     0
102
RTVSPost2010PropOp45
 70
     1
102
RTVSPost2010Prop46
 90
       50
102
RTVSPost2010PropOp46
 70
     1
102
RTVSPost2010Prop47
 90
       50
102
RTVSPost2010PropOp47
 70
     1
102
RTVSPost2010Prop48
 90
       50
102
RTVSPost2010PropOp48
 70
     1
102
RTVSPost2010Prop49
280
     0
102
RTVSPost2010PropOp49
 70
     1
102
RTVSPost2010Prop50
 90
       50
102
RTVSPost2010PropOp50
 70
     1
102
RTVSPost2010Prop51ColorIndex
 90
      256
102
RTVSPost2010Prop51ColorRGB
 90
-16777216
102
RTVSPost2010PropOp51
 70
     0
102
RTVSPost2010Prop52
140
1.0
102
RTVSPost2010PropOp52
 70
     0
102
RTVSPost2010Prop53
 90
        2
102
RTVSPost2010PropOp53
 70
     1
102
RTVSPost2010Prop54
  1
strokes_ogs.tif
102
RTVSPost2010PropOp54
 70
     1
102
RTVSPost2010Prop55
280
     0
102
RTVSPost2010PropOp55
 70
     1
102
RTVSPost2010Prop56
140
1.0
102
RTVSPost2010PropOp56
 70
     1
102
RTVSPost2010Prop57
140
1.0
102
RTVSPost2010PropOp57
 70
     1
  0
XRECORD
  5
1C5
102
{ACAD_REACTORS
330
1C4
102
}
330
1C4
100
AcDbXrecord
280
     1
102
RTVSPost2010Prop28
280
     0
102
RTVSPost2010PropOp28
 70
     1
102
RTVSPost2010Prop29
280
     1
102
RTVSPost2010PropOp29
 70
     1
102
RTVSPost2010Prop30
280
     1
102
RTVSPost2010PropOp30
 70
     1
102
RTVSPost2010Prop31
280
     0
102
RTVSPost2010PropOp31
 70
     1
102
RTVSPost2010Prop32
280
     0
102
RTVSPost2010PropOp32
 70
     1
102
RTVSPost2010Prop33
280
     0
102
RTVSPost2010PropOp33
 70
     1
102
RTVSPost2010Prop34
280
     0
102
RTVSPost2010PropOp34
 70
     1
102
RTVSPost2010Prop35
280
     0
102
RTVSPost2010PropOp35
 70
     1
102
RTVSPost2010Prop36
280
     0
102
RTVSPost2010PropOp36
 70
     1
102
RTVSPost2010Prop37
 90
       50
102
RTVSPost2010PropOp37
 70
     1
102
RTVSPost2010Prop38
140
0.0
102
RTVSPost2010PropOp38
 70
     1
102
RTVSPost2010Prop39
140
1.0
102
RTVSPost2010PropOp39
 70
     1
102
RTVSPost2010Prop40
 90
        0
102
RTVSPost2010PropOp40
 70
     1
102
RTVSPost2010Prop41ColorIndex
 90
       18
102
RTVSPost2010Prop41ColorRGB
 90
        0
102
RTVSPost2010PropOp41
 70
     1
102
RTVSPost2010Prop42
 90
       50
102
RTVSPost2010PropOp42
 70
     1
102
RTVSPost2010Prop43
 90
        3
102
RTVSPost2010PropOp43
 70
     1
102
RTVSPost2010Prop44ColorIndex
 90
        5
102
RTVSPost2010Prop44ColorRGB
 90
      255
102
RTVSPost2010PropOp44
 70
     1
102
RTVSPost2010Prop45
280
     0
102
RTVSPost2010PropOp45
 70
     1
102
RTVSPost2010Prop46
 90
       50
102
RTVSPost2010PropOp46
 70
     1
102
RTVSPost2010Prop47
 90
       50
102
RTVSPost2010PropOp47
 70
     1
102
RTVSPost2010Prop48
 90
       50
102
RTVSPost2010PropOp48
 70
     1
102
RTVSPost2010Prop49
280
     0
102
RTVSPost2010PropOp49
 70
     1
102
RTVSPost2010Prop50
 90
       50
102
RTVSPost2010PropOp50
 70
     1
102
RTVSPost2010Prop51ColorIndex
 90
      256
102
RTVSPost2010Prop51ColorRGB
 90
-16777216
102
RTVSPost2010PropOp51
 70
     0
102
RTVSPost2010Prop52
140
1.0
102
RTVSPost2010PropOp52
 70
     0
102
RTVSPost2010Prop53
 90
        2
102
RTVSPost2010PropOp53
 70
     1
102
RTVSPost2010Prop54
  1
strokes_ogs.tif
102
RTVSPost2010PropOp54
 70
     1
102
RTVSPost2010Prop55
280
     0
102
RTVSPost2010PropOp55
 70
     1
102
RTVSPost2010Prop56
140
1.0
102
RTVSPost2010PropOp56
 70
     1
102
RTVSPost2010Prop57
140
1.0
102
RTVSPost2010PropOp57
 70
     1
  0
ENDSEC
  0
EOF
