  0
SECTION
  2
HEADER
  9
$ACADVER
  1
AC1024
  9
$ACADMAINTVER
 70
   226
  9
$DWGCODEPAGE
  3
ANSI_932
  9
$INSBASE
 10
0.0
 20
0.0
 30
0.0
  9
$EXTMIN
 10
1.000000000000000E+20
 20
1.000000000000000E+20
 30
1.000000000000000E+20
  9
$EXTMAX
 10
-1.000000000000000E+20
 20
-1.000000000000000E+20
 30
-1.000000000000000E+20
  9
$LIMMIN
 10
0.0
 20
0.0
  9
$LIMMAX
 10
12.0
 20
9.0
  9
$ORTHOMODE
 70
     0
  9
$REGENMODE
 70
     1
  9
$FILLMODE
 70
     1
  9
$QTEXTMODE
 70
     0
  9
$MIRRTEXT
 70
     0
  9
$LTSCALE
 40
1.0
  9
$ATTMODE
 70
     1
  9
$TEXTSIZE
 40
0.2
  9
$TRACEWID
 40
0.05
  9
$TEXTSTYLE
  7
Standard
  9
$CLAYER
  8
0
  9
$CELTYPE
  6
ByLayer
  9
$CECOLOR
 62
   256
  9
$CELTSCALE
 40
1.0
  9
$DISPSILH
 70
     0
  9
$DIMSCALE
 40
1.0
  9
$DIMASZ
 40
0.18
  9
$DIMEXO
 40
0.0625
  9
$DIMDLI
 40
0.38
  9
$DIMRND
 40
0.0
  9
$DIMDLE
 40
0.0
  9
$DIMEXE
 40
0.18
  9
$DIMTP
 40
0.0
  9
$DIMTM
 40
0.0
  9
$DIMTXT
 40
0.18
  9
$DIMCEN
 40
0.09
  9
$DIMTSZ
 40
0.0
  9
$DIMTOL
 70
     0
  9
$DIMLIM
 70
     0
  9
$DIMTIH
 70
     1
  9
$DIMTOH
 70
     1
  9
$DIMSE1
 70
     0
  9
$DIMSE2
 70
     0
  9
$DIMTAD
 70
     0
  9
$DIMZIN
 70
     0
  9
$DIMBLK
  1

  9
$DIMASO
 70
     1
  9
$DIMSHO
 70
     1
  9
$DIMPOST
  1

  9
$DIMAPOST
  1

  9
$DIMALT
 70
     0
  9
$DIMALTD
 70
     2
  9
$DIMALTF
 40
25.4
  9
$DIMLFAC
 40
1.0
  9
$DIMTOFL
 70
     0
  9
$DIMTVP
 40
0.0
  9
$DIMTIX
 70
     0
  9
$DIMSOXD
 70
     0
  9
$DIMSAH
 70
     0
  9
$DIMBLK1
  1

  9
$DIMBLK2
  1

  9
$DIMSTYLE
  2
Standard
  9
$DIMCLRD
 70
     0
  9
$DIMCLRE
 70
     0
  9
$DIMCLRT
 70
     0
  9
$DIMTFAC
 40
1.0
  9
$DIMGAP
 40
0.09
  9
$DIMJUST
 70
     0
  9
$DIMSD1
 70
     0
  9
$DIMSD2
 70
     0
  9
$DIMTOLJ
 70
     1
  9
$DIMTZIN
 70
     0
  9
$DIMALTZ
 70
     0
  9
$DIMALTTZ
 70
     0
  9
$DIMUPT
 70
     0
  9
$DIMDEC
 70
     4
  9
$DIMTDEC
 70
     4
  9
$DIMALTU
 70
     2
  9
$DIMALTTD
 70
     2
  9
$DIMTXSTY
  7
Standard
  9
$DIMAUNIT
 70
     0
  9
$DIMADEC
 70
     0
  9
$DIMALTRND
 40
0.0
  9
$DIMAZIN
 70
     0
  9
$DIMDSEP
 70
    46
  9
$DIMATFIT
 70
     3
  9
$DIMFRAC
 70
     0
  9
$DIMLDRBLK
  1

  9
$DIMLUNIT
 70
     2
  9
$DIMLWD
 70
    -2
  9
$DIMLWE
 70
    -2
  9
$DIMTMOVE
 70
     0
  9
$DIMFXL
 40
1.0
  9
$DIMFXLON
 70
     0
  9
$DIMJOGANG
 40
0.7853981633974483
  9
$DIMTFILL
 70
     0
  9
$DIMTFILLCLR
 70
     0
  9
$DIMARCSYM
 70
     0
  9
$DIMLTYPE
  6

  9
$DIMLTEX1
  6

  9
$DIMLTEX2
  6

  9
$DIMTXTDIRECTION
 70
     0
  9
$LUNITS
 70
     2
  9
$LUPREC
 70
     4
  9
$SKETCHINC
 40
0.1
  9
$FILLETRAD
 40
0.0
  9
$AUNITS
 70
     0
  9
$AUPREC
 70
     0
  9
$MENU
  1
.
  9
$ELEVATION
 40
0.0
  9
$PELEVATION
 40
0.0
  9
$THICKNESS
 40
0.0
  9
$LIMCHECK
 70
     0
  9
$CHAMFERA
 40
0.0
  9
$CHAMFERB
 40
0.0
  9
$CHAMFERC
 40
0.0
  9
$CHAMFERD
 40
0.0
  9
$SKPOLY
 70
     0
  9
$TDCREATE
 40
2459569.503368056
  9
$TDUCREATE
 40
2459569.128368055
  9
$TDUPDATE
 40
2459569.503368056
  9
$TDUUPDATE
 40
2459569.128368055
  9
$TDINDWG
 40
0.0000000000
  9
$TDUSRTIMER
 40
0.0000000000
  9
$USRTIMER
 70
     1
  9
$ANGBASE
 50
0.0
  9
$ANGDIR
 70
     0
  9
$PDMODE
 70
     0
  9
$PDSIZE
 40
0.0
  9
$PLINEWID
 40
0.0
  9
$SPLFRAME
 70
     0
  9
$SPLINETYPE
 70
     6
  9
$SPLINESEGS
 70
     8
  9
$HANDSEED
  5
19C
  9
$SURFTAB1
 70
     6
  9
$SURFTAB2
 70
     6
  9
$SURFTYPE
 70
     6
  9
$SURFU
 70
     6
  9
$SURFV
 70
     6
  9
$UCSBASE
  2

  9
$UCSNAME
  2

  9
$UCSORG
 10
0.0
 20
0.0
 30
0.0
  9
$UCSXDIR
 10
1.0
 20
0.0
 30
0.0
  9
$UCSYDIR
 10
0.0
 20
1.0
 30
0.0
  9
$UCSORTHOREF
  2

  9
$UCSORTHOVIEW
 70
     0
  9
$UCSORGTOP
 10
0.0
 20
0.0
 30
0.0
  9
$UCSORGBOTTOM
 10
0.0
 20
0.0
 30
0.0
  9
$UCSORGLEFT
 10
0.0
 20
0.0
 30
0.0
  9
$UCSORGRIGHT
 10
0.0
 20
0.0
 30
0.0
  9
$UCSORGFRONT
 10
0.0
 20
0.0
 30
0.0
  9
$UCSORGBACK
 10
0.0
 20
0.0
 30
0.0
  9
$PUCSBASE
  2

  9
$PUCSNAME
  2

  9
$PUCSORG
 10
0.0
 20
0.0
 30
0.0
  9
$PUCSXDIR
 10
1.0
 20
0.0
 30
0.0
  9
$PUCSYDIR
 10
0.0
 20
1.0
 30
0.0
  9
$PUCSORTHOREF
  2

  9
$PUCSORTHOVIEW
 70
     0
  9
$PUCSORGTOP
 10
0.0
 20
0.0
 30
0.0
  9
$PUCSORGBOTTOM
 10
0.0
 20
0.0
 30
0.0
  9
$PUCSORGLEFT
 10
0.0
 20
0.0
 30
0.0
  9
$PUCSORGRIGHT
 10
0.0
 20
0.0
 30
0.0
  9
$PUCSORGFRONT
 10
0.0
 20
0.0
 30
0.0
  9
$PUCSORGBACK
 10
0.0
 20
0.0
 30
0.0
  9
$USERI1
 70
     0
  9
$USERI2
 70
     0
  9
$USERI3
 70
     0
  9
$USERI4
 70
     0
  9
$USERI5
 70
     0
  9
$USERR1
 40
0.0
  9
$USERR2
 40
0.0
  9
$USERR3
 40
0.0
  9
$USERR4
 40
0.0
  9
$USERR5
 40
0.0
  9
$WORLDVIEW
 70
     1
  9
$SHADEDGE
 70
     3
  9
$SHADEDIF
 70
    70
  9
$TILEMODE
 70
     1
  9
$MAXACTVP
 70
    64
  9
$PINSBASE
 10
0.0
 20
0.0
 30
0.0
  9
$PLIMCHECK
 70
     0
  9
$PEXTMIN
 10
1.000000000000000E+20
 20
1.000000000000000E+20
 30
1.000000000000000E+20
  9
$PEXTMAX
 10
-1.000000000000000E+20
 20
-1.000000000000000E+20
 30
-1.000000000000000E+20
  9
$PLIMMIN
 10
0.0
 20
0.0
  9
$PLIMMAX
 10
12.0
 20
9.0
  9
$UNITMODE
 70
     0
  9
$VISRETAIN
 70
     1
  9
$PLINEGEN
 70
     0
  9
$PSLTSCALE
 70
     1
  9
$TREEDEPTH
 70
  3020
  9
$CMLSTYLE
  2
Standard
  9
$CMLJUST
 70
     0
  9
$CMLSCALE
 40
1.0
  9
$PROXYGRAPHICS
 70
     1
  9
$MEASUREMENT
 70
     0
  9
$CELWEIGHT
370
    -1
  9
$ENDCAPS
280
     0
  9
$JOINSTYLE
280
     0
  9
$LWDISPLAY
290
     1
  9
$INSUNITS
 70
     4
  9
$HYPERLINKBASE
  1

  9
$STYLESHEET
  1

  9
$XEDIT
290
     1
  9
$CEPSNTYPE
380
     0
  9
$PSTYLEMODE
290
     1
  9
$FINGERPRINTGUID
  2
{3BAAAEE5-C2EF-BF45-B521-9716D8C60B6D}
  9
$VERSIONGUID
  2
{54C4DA91-E29E-3E41-8427-FF63B36EC96F}
  9
$EXTNAMES
290
     1
  9
$PSVPSCALE
 40
0.0
  9
$OLESTARTUP
290
     0
  9
$SORTENTS
280
   127
  9
$INDEXCTL
280
     0
  9
$HIDETEXT
280
     1
  9
$XCLIPFRAME
280
     2
  9
$HALOGAP
280
     0
  9
$OBSCOLOR
 70
   257
  9
$OBSLTYPE
280
     0
  9
$INTERSECTIONDISPLAY
280
     0
  9
$INTERSECTIONCOLOR
 70
   257
  9
$DIMASSOC
280
     2
  9
$PROJECTNAME
  1

  9
$CAMERADISPLAY
290
     0
  9
$LENSLENGTH
 40
50.0
  9
$CAMERAHEIGHT
 40
0.0
  9
$STEPSPERSEC
 40
2.0
  9
$STEPSIZE
 40
6.0
  9
$3DDWFPREC
 40
2.0
  9
$PSOLWIDTH
 40
0.25
  9
$PSOLHEIGHT
 40
4.0
  9
$LOFTANG1
 40
1.570796326794896
  9
$LOFTANG2
 40
1.570796326794896
  9
$LOFTMAG1
 40
0.0
  9
$LOFTMAG2
 40
0.0
  9
$LOFTPARAM
 70
     7
  9
$LOFTNORMALS
280
     1
  9
$LATITUDE
 40
37.795
  9
$LONGITUDE
 40
-122.394
  9
$NORTHDIRECTION
 40
0.0
  9
$TIMEZONE
 70
 -8000
  9
$LIGHTGLYPHDISPLAY
280
     1
  9
$TILEMODELIGHTSYNCH
280
     1
  9
$CMATERIAL
347
11
  9
$SOLIDHIST
280
     0
  9
$SHOWHIST
280
     1
  9
$DWFFRAME
280
     2
  9
$DGNFRAME
280
     0
  9
$REALWORLDSCALE
290
     1
  9
$INTERFERECOLOR
 62
     1
  9
$INTERFEREOBJVS
345
33
  9
$INTERFEREVPVS
346
30
  9
$CSHADOW
280
     0
  9
$SHADOWPLANELOCATION
 40
0.0
  0
ENDSEC
  0
SECTION
  2
CLASSES
  0
CLASS
  1
ACDBDICTIONARYWDFLT
  2
AcDbDictionaryWithDefault
  3
ObjectDBX Classes
 90
        0
 91
        1
280
     0
281
     0
  0
CLASS
  1
MATERIAL
  2
AcDbMaterial
  3
ObjectDBX Classes
 90
     1153
 91
        3
280
     0
281
     0
  0
CLASS
  1
VISUALSTYLE
  2
AcDbVisualStyle
  3
ObjectDBX Classes
 90
     4095
 91
       24
280
     0
281
     0
  0
CLASS
  1
SCALE
  2
AcDbScale
  3
ObjectDBX Classes
 90
     1153
 91
       17
280
     0
281
     0
  0
CLASS
  1
TABLESTYLE
  2
AcDbTableStyle
  3
ObjectDBX Classes
 90
     4095
 91
        1
280
     0
281
     0
  0
CLASS
  1
MLEADERSTYLE
  2
AcDbMLeaderStyle
  3
ACDB_MLEADERSTYLE_CLASS
 90
     4095
 91
        1
280
     0
281
     0
  0
CLASS
  1
ACDBSECTIONVIEWSTYLE
  2
AcDbSectionViewStyle
  3
ObjectDBX Classes
 90
     1025
 91
        1
280
     0
281
     0
  0
CLASS
  1
ACDBDETAILVIEWSTYLE
  2
AcDbDetailViewStyle
  3
ObjectDBX Classes
 90
     1025
 91
        1
280
     0
281
     0
  0
CLASS
  1
DICTIONARYVAR
  2
AcDbDictionaryVar
  3
ObjectDBX Classes
 90
        0
 91
        5
280
     0
281
     0
  0
CLASS
  1
CELLSTYLEMAP
  2
AcDbCellStyleMap
  3
ObjectDBX Classes
 90
     1152
 91
        1
280
     0
281
     0
  0
ENDSEC
  0
SECTION
  2
TABLES
  0
TABLE
  2
VPORT
  5
8
330
0
100
AcDbSymbolTable
 70
     1
  0
VPORT
  5
57
330
8
100
AcDbSymbolTableRecord
100
AcDbViewportTableRecord
  2
*Active
 70
     0
 10
0.0
 20
0.0
 11
1.0
 21
1.0
 12
0.0
 22
0.0
 13
0.0
 23
0.0
 14
1.0
 24
1.0
 15
0.0
 25
0.0
 16
0.0
 26
0.0
 36
1.0
 17
104.9999999737534
 27
-148.4999999628701
 37
0.0
 40
302.939999924255
 41
0.7070707070707534
 42
50.0
 43
0.0
 44
0.0
 50
0.0
 51
0.0
 71
     0
 72
   100
 73
     1
 74
     0
 75
     1
 76
     0
 77
     0
 78
     0
281
     0
 65
     1
110
0.0
120
0.0
130
0.0
111
1.0
121
0.0
131
0.0
112
0.0
122
1.0
132
0.0
 79
     0
146
0.0
 60
     3
 61
     5
292
     1
282
     1
141
0.0
142
0.0
 63
   250
421
  3355443
  0
ENDTAB
  0
TABLE
  2
LTYPE
  5
5
330
0
100
AcDbSymbolTable
 70
     3
  0
LTYPE
  5
5B
330
5
100
AcDbSymbolTableRecord
100
AcDbLinetypeTableRecord
  2
ByBlock
 70
     0
  3

 72
    65
 73
     0
 40
0.0
  0
LTYPE
  5
5C
330
5
100
AcDbSymbolTableRecord
100
AcDbLinetypeTableRecord
  2
ByLayer
 70
     0
  3

 72
    65
 73
     0
 40
0.0
  0
LTYPE
  5
5D
330
5
100
AcDbSymbolTableRecord
100
AcDbLinetypeTableRecord
  2
Continuous
 70
     0
  3
Solid line
 72
    65
 73
     0
 40
0.0
  0
LTYPE
  5
134
330
5
100
AcDbSymbolTableRecord
100
AcDbLinetypeTableRecord
  2
AI-Linetype-0
 70
     0
  3
Adobe Illustrator Linetype No. 0
 72
    65
 73
     2
 40
1.411111110758333
 49
0.7055555553791667
 74
     0
 49
-0.7055555553791667
 74
     0
  0
LTYPE
  5
136
330
5
100
AcDbSymbolTableRecord
100
AcDbLinetypeTableRecord
  2
AI-Linetype-1
 70
     0
  3
Adobe Illustrator Linetype No. 1
 72
    65
 73
     2
 40
1.411111110758333
 49
0.7055555553791667
 74
     0
 49
-0.7055555553791667
 74
     0
  0
ENDTAB
  0
TABLE
  2
LAYER
  5
2
330
0
100
AcDbSymbolTable
 70
     2
  0
LAYER
  5
54
330
2
100
AcDbSymbolTableRecord
100
AcDbLayerTableRecord
  2
0
 70
     0
 62
     7
  6
Continuous
370
    -3
390
F
347
21
  0
LAYER
  5
78
330
2
100
AcDbSymbolTableRecord
100
AcDbLayerTableRecord
  2
レイヤー 1
 70
     0
 62
     7
  6
Continuous
370
     0
390
F
347
21
  0
ENDTAB
  0
TABLE
  2
STYLE
  5
3
330
0
100
AcDbSymbolTable
 70
     2
  0
STYLE
  5
55
330
3
100
AcDbSymbolTableRecord
100
AcDbTextStyleTableRecord
  2
Standard
 70
     0
 40
0.0
 41
1.0
 50
0.0
 71
     0
 42
0.2
  3
txt
  4

  0
STYLE
  5
5A
330
3
100
AcDbSymbolTableRecord
100
AcDbTextStyleTableRecord
  2
Annotative
 70
     0
 40
0.0
 41
1.0
 50
0.0
 71
     0
 42
0.2
  3
txt
  4

1001
AcadAnnotative
1000
AnnotativeData
1002
{
1070
     1
1070
     1
1002
}
  0
ENDTAB
  0
TABLE
  2
VIEW
  5
6
330
0
100
AcDbSymbolTable
 70
     0
  0
ENDTAB
  0
TABLE
  2
UCS
  5
7
330
0
100
AcDbSymbolTable
 70
     0
  0
ENDTAB
  0
TABLE
  2
APPID
  5
9
330
0
100
AcDbSymbolTable
 70
     2
  0
APPID
  5
56
330
9
100
AcDbSymbolTableRecord
100
AcDbRegAppTableRecord
  2
ACAD
 70
     0
  0
APPID
  5
5E
330
9
100
AcDbSymbolTableRecord
100
AcDbRegAppTableRecord
  2
AcadAnnotative
 70
     0
  0
ENDTAB
  0
TABLE
  2
DIMSTYLE
  5
A
330
0
100
AcDbSymbolTable
 70
     2
100
AcDbDimStyleTable
 71
     0
  0
DIMSTYLE
105
58
330
A
100
AcDbSymbolTableRecord
100
AcDbDimStyleTableRecord
  2
Standard
 70
     0
340
55
  0
DIMSTYLE
105
59
330
A
100
AcDbSymbolTableRecord
100
AcDbDimStyleTableRecord
  2
Annotative
 70
     0
340
55
1001
AcadAnnotative
1000
AnnotativeData
1002
{
1070
     1
1070
     1
1002
}
  0
ENDTAB
  0
TABLE
  2
BLOCK_RECORD
  5
1
330
0
100
AcDbSymbolTable
 70
    15
  0
BLOCK_RECORD
  5
70
330
1
100
AcDbSymbolTableRecord
100
AcDbBlockTableRecord
  2
*Model_Space
340
73
 70
     0
280
     1
281
     0
  0
BLOCK_RECORD
  5
6C
330
1
100
AcDbSymbolTableRecord
100
AcDbBlockTableRecord
  2
*Paper_Space
340
6F
 70
     0
280
     1
281
     0
  0
BLOCK_RECORD
  5
74
330
1
100
AcDbSymbolTableRecord
100
AcDbBlockTableRecord
  2
*Paper_Space0
340
77
 70
     0
280
     1
281
     0
  0
BLOCK_RECORD
  5
E0
330
1
100
AcDbSymbolTableRecord
100
AcDbBlockTableRecord
  2
Block_0
340
0
102
{BLKREFS
331
E1
102
}
 70
     0
280
     1
281
     0
  0
BLOCK_RECORD
  5
E4
330
1
100
AcDbSymbolTableRecord
100
AcDbBlockTableRecord
  2
Block_1
340
0
102
{BLKREFS
331
E5
102
}
 70
     0
280
     1
281
     0
  0
BLOCK_RECORD
  5
F1
330
1
100
AcDbSymbolTableRecord
100
AcDbBlockTableRecord
  2
Block_2
340
0
102
{BLKREFS
331
F2
102
}
 70
     0
280
     1
281
     0
  0
BLOCK_RECORD
  5
F5
330
1
100
AcDbSymbolTableRecord
100
AcDbBlockTableRecord
  2
Block_3
340
0
102
{BLKREFS
331
F6
102
}
 70
     0
280
     1
281
     0
  0
BLOCK_RECORD
  5
FF
330
1
100
AcDbSymbolTableRecord
100
AcDbBlockTableRecord
  2
Block_4
340
0
102
{BLKREFS
331
100
102
}
 70
     0
280
     1
281
     0
  0
BLOCK_RECORD
  5
109
330
1
100
AcDbSymbolTableRecord
100
AcDbBlockTableRecord
  2
Block_5
340
0
102
{BLKREFS
331
10A
102
}
 70
     0
280
     1
281
     0
  0
BLOCK_RECORD
  5
10D
330
1
100
AcDbSymbolTableRecord
100
AcDbBlockTableRecord
  2
Block_6
340
0
102
{BLKREFS
331
10E
102
}
 70
     0
280
     1
281
     0
  0
BLOCK_RECORD
  5
118
330
1
100
AcDbSymbolTableRecord
100
AcDbBlockTableRecord
  2
Block_7
340
0
102
{BLKREFS
331
119
102
}
 70
     0
280
     1
281
     0
  0
BLOCK_RECORD
  5
124
330
1
100
AcDbSymbolTableRecord
100
AcDbBlockTableRecord
  2
Block_8
340
0
102
{BLKREFS
331
125
102
}
 70
     0
280
     1
281
     0
  0
BLOCK_RECORD
  5
12D
330
1
100
AcDbSymbolTableRecord
100
AcDbBlockTableRecord
  2
Block_9
340
0
102
{BLKREFS
331
12E
102
}
 70
     0
280
     1
281
     0
  0
BLOCK_RECORD
  5
137
330
1
100
AcDbSymbolTableRecord
100
AcDbBlockTableRecord
  2
Block_10
340
0
102
{BLKREFS
331
138
102
}
 70
     0
280
     1
281
     0
  0
BLOCK_RECORD
  5
13B
330
1
100
AcDbSymbolTableRecord
100
AcDbBlockTableRecord
  2
Block_11
340
0
102
{BLKREFS
331
13C
102
}
 70
     0
280
     1
281
     0
  0
BLOCK_RECORD
  5
142
330
1
100
AcDbSymbolTableRecord
100
AcDbBlockTableRecord
  2
Block_12
340
0
102
{BLKREFS
331
143
102
}
 70
     0
280
     1
281
     0
  0
BLOCK_RECORD
  5
146
330
1
100
AcDbSymbolTableRecord
100
AcDbBlockTableRecord
  2
Block_13
340
0
102
{BLKREFS
331
147
102
}
 70
     0
280
     1
281
     0
  0
ENDTAB
  0
ENDSEC
  0
SECTION
  2
BLOCKS
  0
BLOCK
  5
71
330
70
100
AcDbEntity
  8
0
100
AcDbBlockBegin
  2
*Model_Space
 70
     0
 10
0.0
 20
0.0
 30
0.0
  3
*Model_Space
  1

  0
ENDBLK
  5
72
330
70
100
AcDbEntity
  8
0
100
AcDbBlockEnd
  0
BLOCK
  5
6D
330
6C
100
AcDbEntity
 67
     1
  8
0
100
AcDbBlockBegin
  2
*Paper_Space
 70
     0
 10
0.0
 20
0.0
 30
0.0
  3
*Paper_Space
  1

  0
ENDBLK
  5
6E
330
6C
100
AcDbEntity
 67
     1
  8
0
100
AcDbBlockEnd
  0
BLOCK
  5
75
330
74
100
AcDbEntity
 67
     1
  8
0
100
AcDbBlockBegin
  2
*Paper_Space0
 70
     0
 10
0.0
 20
0.0
 30
0.0
  3
*Paper_Space0
  1

  0
ENDBLK
  5
76
330
74
100
AcDbEntity
 67
     1
  8
0
100
AcDbBlockEnd
  0
BLOCK
  5
E2
330
E0
100
AcDbEntity
  8
0
100
AcDbBlockBegin
  2
Block_0
 70
     0
 10
0.0
 20
0.0
 30
0.0
  3
Block_0
  1

  0
INSERT
  5
E5
330
E0
100
AcDbEntity
  8
レイヤー 1
100
AcDbBlockReference
  2
Block_1
 10
0.0
 20
0.0
 30
0.0
  0
ENDBLK
  5
E3
330
E0
100
AcDbEntity
  8
0
100
AcDbBlockEnd
  0
BLOCK
  5
E6
330
E4
100
AcDbEntity
  8
0
100
AcDbBlockBegin
  2
Block_1
 70
     0
 10
0.0
 20
0.0
 30
0.0
  3
Block_1
  1

  0
SPLINE
  5
E8
330
E4
100
AcDbEntity
  8
レイヤー 1
100
AcDbSpline
210
0.0
220
0.0
230
1.0
 70
     9
 71
     3
 72
    17
 73
    13
 74
     0
 42
0.0000000001
 43
0.0000000001
 40
0.0
 40
0.0
 40
0.0
 40
0.0
 40
1.0
 40
1.0
 40
1.0
 40
2.0
 40
2.0
 40
2.0
 40
3.0
 40
3.0
 40
3.0
 40
4.0
 40
4.0
 40
4.0
 40
4.0
 10
72.35372312644281
 20
-146.8125718491475
 30
0.0
 10
72.35372312644281
 20
-147.0623412718281
 30
0.0
 10
72.63708223010462
 20
-147.108850060879
 30
0.0
 10
72.98193628817813
 20
-147.108850060879
 30
0.0
 10
73.30146889443504
 20
-147.108850060879
 30
0.0
 10
73.61032170468771
 20
-147.0726765582839
 30
0.0
 10
73.61032170468771
 20
-146.8125718491475
 30
0.0
 10
73.61032170468771
 20
-146.5648694837581
 30
0.0
 10
73.32885740354278
 20
-146.5162936374161
 30
0.0
 10
72.98193628817813
 20
-146.5162936374161
 30
0.0
 10
72.66257593669547
 20
-146.5162936374161
 30
0.0
 10
72.35372312644281
 20
-146.5545341973023
 30
0.0
 10
72.35372312644281
 20
-146.8125718491475
 30
0.0
  0
SPLINE
  5
E9
330
E4
100
AcDbEntity
  8
レイヤー 1
100
AcDbSpline
210
0.0
220
0.0
230
1.0
 70
     9
 71
     3
 72
    29
 73
    25
 74
     0
 42
0.0000000001
 43
0.0000000001
 40
0.0
 40
0.0
 40
0.0
 40
0.0
 40
1.0
 40
1.0
 40
1.0
 40
2.0
 40
2.0
 40
2.0
 40
3.0
 40
3.0
 40
3.0
 40
4.0
 40
4.0
 40
4.0
 40
5.0
 40
5.0
 40
5.0
 40
6.0
 40
6.0
 40
6.0
 40
7.0
 40
7.0
 40
7.0
 40
8.0
 40
8.0
 40
8.0
 40
8.0
 10
73.57638751415798
 20
-146.4146633206012
 30
0.0
 10
73.78584931966118
 20
-146.522839318838
 30
0.0
 10
73.80496959960431
 20
-146.6961276217461
 30
0.0
 10
73.80496959960431
 20
-146.8125718491475
 30
0.0
 10
73.80496959960431
 20
-146.9734578083087
 30
0.0
 10
73.75846081055344
 20
-147.1150512327525
 30
0.0
 10
73.57638751415798
 20
-147.2101358681454
 30
0.0
 10
73.38191187401564
 20
-147.3138332422514
 30
0.0
 10
73.14488930463046
 20
-147.3331257769688
 30
0.0
 10
72.98193628817813
 20
-147.3331257769688
 30
0.0
 10
72.83810355166895
 20
-147.3331257769688
 30
0.0
 10
72.58643932647145
 20
-147.3159002995425
 30
0.0
 10
72.38748506219827
 20
-147.2101358681454
 30
0.0
 10
72.1843966833428
 20
-147.1023043794571
 30
0.0
 10
72.16114228881735
 20
-146.9414184202959
 30
0.0
 10
72.16114228881735
 20
-146.8125718491475
 30
0.0
 10
72.16114228881735
 20
-146.6537529472775
 30
0.0
 10
72.20558402057708
 20
-146.5100924655426
 30
0.0
 10
72.38748506219827
 20
-146.4146633206012
 30
0.0
 10
72.58006589982374
 20
-146.315444570626
 30
0.0
 10
72.8084757304958
 20
-146.2920179213263
 30
0.0
 10
72.98193628817813
 20
-146.2920179213263
 30
0.0
 10
73.15332978856931
 20
-146.2920179213263
 30
0.0
 10
73.38397893130679
 20
-146.3133775133348
 30
0.0
 10
73.57638751415798
 20
-146.4146633206012
 30
0.0
  0
HATCH
  5
EA
330
E4
100
AcDbEntity
  8
レイヤー 1
 62
   250
420
  2299925
440
 33554687
100
AcDbHatch
 10
0.0
 20
0.0
 30
0.0
210
0.0
220
0.0
230
1.0
  2
SOLID
 70
     1
 71
     1
 91
        2
 92
        1
 93
        1
 72
     4
 94
        3
 73
     0
 74
     0
 95
       17
 96
       13
 40
0.0
 40
0.0
 40
0.0
 40
0.0
 40
1.0
 40
1.0
 40
1.0
 40
2.0
 40
2.0
 40
2.0
 40
3.0
 40
3.0
 40
3.0
 40
4.0
 40
4.0
 40
4.0
 40
4.0
 10
72.35372312644281
 20
-146.8125718491475
 10
72.35372312644281
 20
-147.0623412718281
 10
72.63708223010462
 20
-147.108850060879
 10
72.98193628817813
 20
-147.108850060879
 10
73.30146889443504
 20
-147.108850060879
 10
73.61032170468771
 20
-147.0726765582839
 10
73.61032170468771
 20
-146.8125718491475
 10
73.61032170468771
 20
-146.5648694837581
 10
73.32885740354278
 20
-146.5162936374161
 10
72.98193628817813
 20
-146.5162936374161
 10
72.66257593669547
 20
-146.5162936374161
 10
72.35372312644281
 20
-146.5545341973023
 10
72.35372312644281
 20
-146.8125718491475
 97
        0
 97
        1
330
E8
 92
        1
 93
        1
 72
     4
 94
        3
 73
     0
 74
     0
 95
       29
 96
       25
 40
0.0
 40
0.0
 40
0.0
 40
0.0
 40
1.0
 40
1.0
 40
1.0
 40
2.0
 40
2.0
 40
2.0
 40
3.0
 40
3.0
 40
3.0
 40
4.0
 40
4.0
 40
4.0
 40
5.0
 40
5.0
 40
5.0
 40
6.0
 40
6.0
 40
6.0
 40
7.0
 40
7.0
 40
7.0
 40
8.0
 40
8.0
 40
8.0
 40
8.0
 10
73.57638751415798
 20
-146.4146633206012
 10
73.78584931966118
 20
-146.522839318838
 10
73.80496959960431
 20
-146.6961276217461
 10
73.80496959960431
 20
-146.8125718491475
 10
73.80496959960431
 20
-146.9734578083087
 10
73.75846081055344
 20
-147.1150512327525
 10
73.57638751415798
 20
-147.2101358681454
 10
73.38191187401564
 20
-147.3138332422514
 10
73.14488930463046
 20
-147.3331257769688
 10
72.98193628817813
 20
-147.3331257769688
 10
72.83810355166895
 20
-147.3331257769688
 10
72.58643932647145
 20
-147.3159002995425
 10
72.38748506219827
 20
-147.2101358681454
 10
72.1843966833428
 20
-147.1023043794571
 10
72.16114228881735
 20
-146.9414184202959
 10
72.16114228881735
 20
-146.8125718491475
 10
72.16114228881735
 20
-146.6537529472775
 10
72.20558402057708
 20
-146.5100924655426
 10
72.38748506219827
 20
-146.4146633206012
 10
72.58006589982374
 20
-146.315444570626
 10
72.8084757304958
 20
-146.2920179213263
 10
72.98193628817813
 20
-146.2920179213263
 10
73.15332978856931
 20
-146.2920179213263
 10
73.38397893130679
 20
-146.3133775133348
 10
73.57638751415798
 20
-146.4146633206012
 97
        0
 97
        1
330
E9
 75
     2
 76
     1
 98
        1
 10
0.0
 20
0.0
450
        0
451
        0
460
0.0
461
0.0
452
        0
462
0.0
453
        0
470

  0
SPLINE
  5
EB
330
E4
100
AcDbEntity
  8
レイヤー 1
100
AcDbSpline
210
0.0
220
0.0
230
1.0
 70
    11
 71
     3
 72
    17
 73
    13
 74
     0
 42
0.0000000001
 43
0.0000000001
 40
0.0
 40
0.0
 40
0.0
 40
0.0
 40
1.0
 40
1.0
 40
1.0
 40
2.0
 40
2.0
 40
2.0
 40
3.0
 40
3.0
 40
3.0
 40
4.0
 40
4.0
 40
4.0
 40
4.0
 10
73.75415444119687
 20
-146.0756659248526
 30
0.0
 10
73.75415444119687
 20
-146.0756659248526
 30
0.0
 10
73.50249021599939
 20
-146.0756659248526
 30
0.0
 10
73.50249021599939
 20
-146.0756659248526
 30
0.0
 10
73.50249021599939
 20
-146.0756659248526
 30
0.0
 10
73.50249021599939
 20
-145.8238294448808
 30
0.0
 10
73.50249021599939
 20
-145.8238294448808
 30
0.0
 10
73.50249021599939
 20
-145.8238294448808
 30
0.0
 10
73.75415444119687
 20
-145.8238294448808
 30
0.0
 10
73.75415444119687
 20
-145.8238294448808
 30
0.0
 10
73.75415444119687
 20
-145.8238294448808
 30
0.0
 10
73.75415444119687
 20
-146.0756659248526
 30
0.0
 10
73.75415444119687
 20
-146.0756659248526
 30
0.0
  0
HATCH
  5
EC
330
E4
100
AcDbEntity
  8
レイヤー 1
 62
   250
420
  2299925
440
 33554687
100
AcDbHatch
 10
0.0
 20
0.0
 30
0.0
210
0.0
220
0.0
230
1.0
  2
SOLID
 70
     1
 71
     1
 91
        1
 92
        1
 93
        1
 72
     4
 94
        3
 73
     0
 74
     0
 95
       17
 96
       13
 40
0.0
 40
0.0
 40
0.0
 40
0.0
 40
1.0
 40
1.0
 40
1.0
 40
2.0
 40
2.0
 40
2.0
 40
3.0
 40
3.0
 40
3.0
 40
4.0
 40
4.0
 40
4.0
 40
4.0
 10
73.75415444119687
 20
-146.0756659248526
 10
73.75415444119687
 20
-146.0756659248526
 10
73.50249021599939
 20
-146.0756659248526
 10
73.50249021599939
 20
-146.0756659248526
 10
73.50249021599939
 20
-146.0756659248526
 10
73.50249021599939
 20
-145.8238294448808
 10
73.50249021599939
 20
-145.8238294448808
 10
73.50249021599939
 20
-145.8238294448808
 10
73.75415444119687
 20
-145.8238294448808
 10
73.75415444119687
 20
-145.8238294448808
 10
73.75415444119687
 20
-145.8238294448808
 10
73.75415444119687
 20
-146.0756659248526
 10
73.75415444119687
 20
-146.0756659248526
 97
        0
 97
        1
330
EB
 75
     2
 76
     1
 98
        1
 10
0.0
 20
0.0
450
        0
451
        0
460
0.0
461
0.0
452
        0
462
0.0
453
        0
470

  0
SPLINE
  5
ED
330
E4
100
AcDbEntity
  8
レイヤー 1
100
AcDbSpline
210
0.0
220
0.0
230
1.0
 70
     9
 71
     3
 72
    53
 73
    49
 74
     0
 42
0.0000000001
 43
0.0000000001
 40
0.0
 40
0.0
 40
0.0
 40
0.0
 40
1.0
 40
1.0
 40
1.0
 40
2.0
 40
2.0
 40
2.0
 40
3.0
 40
3.0
 40
3.0
 40
4.0
 40
4.0
 40
4.0
 40
5.0
 40
5.0
 40
5.0
 40
6.0
 40
6.0
 40
6.0
 40
7.0
 40
7.0
 40
7.0
 40
8.0
 40
8.0
 40
8.0
 40
9.0
 40
9.0
 40
9.0
 40
10.0
 40
10.0
 40
10.0
 40
11.0
 40
11.0
 40
11.0
 40
12.0
 40
12.0
 40
12.0
 40
13.0
 40
13.0
 40
13.0
 40
14.0
 40
14.0
 40
14.0
 40
15.0
 40
15.0
 40
15.0
 40
16.0
 40
16.0
 40
16.0
 40
16.0
 10
73.80496959960431
 20
-145.1065605648518
 30
0.0
 10
73.80496959960431
 20
-145.184764232367
 30
0.0
 10
73.78808863172659
 20
-145.2863945491819
 30
0.0
 10
73.72452662002373
 20
-145.3880248659967
 30
0.0
 10
73.61445581927
 20
-145.5613131689048
 30
0.0
 10
73.48336993605625
 20
-145.5826727609133
 30
0.0
 10
73.37553844736793
 20
-145.6016207860822
 30
0.0
 10
73.37553844736793
 20
-145.6016207860822
 30
0.0
 10
73.37553844736793
 20
-145.3794121272836
 30
0.0
 10
73.37553844736793
 20
-145.3794121272836
 30
0.0
 10
73.57432045686684
 20
-145.3246351090681
 30
0.0
 10
73.60394827803999
 20
-145.1975110856624
 30
0.0
 10
73.60394827803999
 20
-145.1044935075606
 30
0.0
 10
73.60394827803999
 20
-144.964967140408
 30
0.0
 10
73.50455727329053
 20
-144.81269391996
 30
0.0
 10
73.27184107326191
 20
-144.81269391996
 30
0.0
 10
73.01587047870784
 20
-144.81269391996
 30
0.0
 10
72.94610729513152
 20
-144.99252790429
 30
0.0
 10
72.94610729513152
 20
-145.1131062462738
 30
0.0
 10
72.94610729513152
 20
-145.1448011247381
 30
0.0
 10
72.94610729513152
 20
-145.2863945491819
 30
0.0
 10
73.07512612105414
 20
-145.3752780127013
 30
0.0
 10
73.07512612105414
 20
-145.3752780127013
 30
0.0
 10
73.056005841111
 20
-145.5509778824491
 30
0.0
 10
73.056005841111
 20
-145.5509778824491
 30
0.0
 10
73.056005841111
 20
-145.5509778824491
 30
0.0
 10
72.20989038993365
 20
-145.4303995404653
 30
0.0
 10
72.20989038993365
 20
-145.4303995404653
 30
0.0
 10
72.20989038993365
 20
-145.4303995404653
 30
0.0
 10
72.20989038993365
 20
-144.6518079607988
 30
0.0
 10
72.20989038993365
 20
-144.6518079607988
 30
0.0
 10
72.20989038993365
 20
-144.6518079607988
 30
0.0
 10
72.40453828485026
 20
-144.6518079607988
 30
0.0
 10
72.40453828485026
 20
-144.6518079607988
 30
0.0
 10
72.40453828485026
 20
-144.6518079607988
 30
0.0
 10
72.40453828485026
 20
-145.267446524013
 30
0.0
 10
72.40453828485026
 20
-145.267446524013
 30
0.0
 10
72.40453828485026
 20
-145.267446524013
 30
0.0
 10
72.82759601043894
 20
-145.3329033382327
 30
0.0
 10
72.82759601043894
 20
-145.3329033382327
 30
0.0
 10
72.79366181990923
 20
-145.2715806385953
 30
0.0
 10
72.75352645750607
 20
-145.1892428564978
 30
0.0
 10
72.75352645750607
 20
-145.0707315718052
 30
0.0
 10
72.75352645750607
 20
-144.8168280345423
 30
0.0
 10
72.93973386848382
 20
-144.5798054651571
 30
0.0
 10
73.25272079331877
 20
-144.5798054651571
 30
0.0
 10
73.57018634228454
 20
-144.5798054651571
 30
0.0
 10
73.80496959960431
 20
-144.8040811812469
 30
0.0
 10
73.80496959960431
 20
-145.1065605648518
 30
0.0
  0
HATCH
  5
EE
330
E4
100
AcDbEntity
  8
レイヤー 1
 62
   250
420
  2299925
440
 33554687
100
AcDbHatch
 10
0.0
 20
0.0
 30
0.0
210
0.0
220
0.0
230
1.0
  2
SOLID
 70
     1
 71
     1
 91
        1
 92
        1
 93
        1
 72
     4
 94
        3
 73
     0
 74
     0
 95
       53
 96
       49
 40
0.0
 40
0.0
 40
0.0
 40
0.0
 40
1.0
 40
1.0
 40
1.0
 40
2.0
 40
2.0
 40
2.0
 40
3.0
 40
3.0
 40
3.0
 40
4.0
 40
4.0
 40
4.0
 40
5.0
 40
5.0
 40
5.0
 40
6.0
 40
6.0
 40
6.0
 40
7.0
 40
7.0
 40
7.0
 40
8.0
 40
8.0
 40
8.0
 40
9.0
 40
9.0
 40
9.0
 40
10.0
 40
10.0
 40
10.0
 40
11.0
 40
11.0
 40
11.0
 40
12.0
 40
12.0
 40
12.0
 40
13.0
 40
13.0
 40
13.0
 40
14.0
 40
14.0
 40
14.0
 40
15.0
 40
15.0
 40
15.0
 40
16.0
 40
16.0
 40
16.0
 40
16.0
 10
73.80496959960431
 20
-145.1065605648518
 10
73.80496959960431
 20
-145.184764232367
 10
73.78808863172659
 20
-145.2863945491819
 10
73.72452662002373
 20
-145.3880248659967
 10
73.61445581927
 20
-145.5613131689048
 10
73.48336993605625
 20
-145.5826727609133
 10
73.37553844736793
 20
-145.6016207860822
 10
73.37553844736793
 20
-145.6016207860822
 10
73.37553844736793
 20
-145.3794121272836
 10
73.37553844736793
 20
-145.3794121272836
 10
73.57432045686684
 20
-145.3246351090681
 10
73.60394827803999
 20
-145.1975110856624
 10
73.60394827803999
 20
-145.1044935075606
 10
73.60394827803999
 20
-144.964967140408
 10
73.50455727329053
 20
-144.81269391996
 10
73.27184107326191
 20
-144.81269391996
 10
73.01587047870784
 20
-144.81269391996
 10
72.94610729513152
 20
-144.99252790429
 10
72.94610729513152
 20
-145.1131062462738
 10
72.94610729513152
 20
-145.1448011247381
 10
72.94610729513152
 20
-145.2863945491819
 10
73.07512612105414
 20
-145.3752780127013
 10
73.07512612105414
 20
-145.3752780127013
 10
73.056005841111
 20
-145.5509778824491
 10
73.056005841111
 20
-145.5509778824491
 10
73.056005841111
 20
-145.5509778824491
 10
72.20989038993365
 20
-145.4303995404653
 10
72.20989038993365
 20
-145.4303995404653
 10
72.20989038993365
 20
-145.4303995404653
 10
72.20989038993365
 20
-144.6518079607988
 10
72.20989038993365
 20
-144.6518079607988
 10
72.20989038993365
 20
-144.6518079607988
 10
72.40453828485026
 20
-144.6518079607988
 10
72.40453828485026
 20
-144.6518079607988
 10
72.40453828485026
 20
-144.6518079607988
 10
72.40453828485026
 20
-145.267446524013
 10
72.40453828485026
 20
-145.267446524013
 10
72.40453828485026
 20
-145.267446524013
 10
72.82759601043894
 20
-145.3329033382327
 10
72.82759601043894
 20
-145.3329033382327
 10
72.79366181990923
 20
-145.2715806385953
 10
72.75352645750607
 20
-145.1892428564978
 10
72.75352645750607
 20
-145.0707315718052
 10
72.75352645750607
 20
-144.8168280345423
 10
72.93973386848382
 20
-144.5798054651571
 10
73.25272079331877
 20
-144.5798054651571
 10
73.57018634228454
 20
-144.5798054651571
 10
73.80496959960431
 20
-144.8040811812469
 10
73.80496959960431
 20
-145.1065605648518
 97
        0
 97
        1
330
ED
 75
     2
 76
     1
 98
        1
 10
0.0
 20
0.0
450
        0
451
        0
460
0.0
461
0.0
452
        0
462
0.0
453
        0
470

  0
ENDBLK
  5
E7
330
E4
100
AcDbEntity
  8
0
100
AcDbBlockEnd
  0
BLOCK
  5
F3
330
F1
100
AcDbEntity
  8
0
100
AcDbBlockBegin
  2
Block_2
 70
     0
 10
0.0
 20
0.0
 30
0.0
  3
Block_2
  1

  0
INSERT
  5
F6
330
F1
100
AcDbEntity
  8
レイヤー 1
100
AcDbBlockReference
  2
Block_3
 10
0.0
 20
0.0
 30
0.0
  0
ENDBLK
  5
F4
330
F1
100
AcDbEntity
  8
0
100
AcDbBlockEnd
  0
BLOCK
  5
F7
330
F5
100
AcDbEntity
  8
0
100
AcDbBlockBegin
  2
Block_3
 70
     0
 10
0.0
 20
0.0
 30
0.0
  3
Block_3
  1

  0
SPLINE
  5
F9
330
F5
100
AcDbEntity
  8
レイヤー 1
100
AcDbSpline
210
0.0
220
0.0
230
1.0
 70
     9
 71
     3
 72
    44
 73
    40
 74
     0
 42
0.0000000001
 43
0.0000000001
 40
0.0
 40
0.0
 40
0.0
 40
0.0
 40
1.0
 40
1.0
 40
1.0
 40
2.0
 40
2.0
 40
2.0
 40
3.0
 40
3.0
 40
3.0
 40
4.0
 40
4.0
 40
4.0
 40
5.0
 40
5.0
 40
5.0
 40
6.0
 40
6.0
 40
6.0
 40
7.0
 40
7.0
 40
7.0
 40
8.0
 40
8.0
 40
8.0
 40
9.0
 40
9.0
 40
9.0
 40
10.0
 40
10.0
 40
10.0
 40
11.0
 40
11.0
 40
11.0
 40
12.0
 40
12.0
 40
12.0
 40
13.0
 40
13.0
 40
13.0
 40
13.0
 10
89.12737627980149
 20
-139.600264450777
 30
0.0
 10
88.90947399035944
 20
-139.7589110978728
 30
0.0
 10
88.81628415748343
 20
-139.8329806508056
 30
0.0
 10
88.76770831114141
 20
-139.9768133873148
 30
0.0
 10
88.76770831114141
 20
-139.9768133873148
 30
0.0
 10
89.54612763603362
 20
-139.9768133873148
 30
0.0
 10
89.54612763603362
 20
-139.9768133873148
 30
0.0
 10
89.54612763603362
 20
-139.9768133873148
 30
0.0
 10
89.54612763603362
 20
-140.1819688234614
 30
0.0
 10
89.54612763603362
 20
-140.1819688234614
 30
0.0
 10
89.54612763603362
 20
-140.1819688234614
 30
0.0
 10
88.51811114323506
 20
-140.1819688234614
 30
0.0
 10
88.51811114323506
 20
-140.1819688234614
 30
0.0
 10
88.54980602169936
 20
-139.8243679120925
 30
0.0
 10
88.61526283591912
 20
-139.7461642445773
 30
0.0
 10
89.00042451117004
 20
-139.4478189755547
 30
0.0
 10
89.25639510572409
 20
-139.2490369660558
 30
0.0
 10
89.32185191994385
 20
-139.1813408397706
 30
0.0
 10
89.32185191994385
 20
-139.0438815299092
 30
0.0
 10
89.32185191994385
 20
-138.9253702452166
 30
0.0
 10
89.25002167907639
 20
-138.7941121072285
 30
0.0
 10
89.05330672686863
 20
-138.7941121072285
 30
0.0
 10
88.793029762958
 20
-138.7941121072285
 30
0.0
 10
88.78458927901913
 20
-139.024761249966
 30
0.0
 10
88.78028290966257
 20
-139.1412054773675
 30
0.0
 10
88.78028290966257
 20
-139.1412054773675
 30
0.0
 10
88.55617944834706
 20
-139.1412054773675
 30
0.0
 10
88.55617944834706
 20
-139.1412054773675
 30
0.0
 10
88.56461993228593
 20
-139.014253708736
 30
0.0
 10
88.57512747351595
 20
-138.9021158506911
 30
0.0
 10
88.65557045309653
 20
-138.7836045659985
 30
0.0
 10
88.765468999076
 20
-138.6228908616116
 30
0.0
 10
88.95167641005375
 20
-138.5889566710819
 30
0.0
 10
89.06812063745519
 20
-138.5889566710819
 30
0.0
 10
89.34527856924354
 20
-138.5889566710819
 30
0.0
 10
89.55250106268133
 20
-138.7730970247685
 30
0.0
 10
89.55250106268133
 20
-139.0459485872003
 30
0.0
 10
89.55250106268133
 20
-139.2743584178724
 30
0.0
 10
89.43622909005414
 20
-139.3739216773961
 30
0.0
 10
89.12737627980149
 20
-139.600264450777
 30
0.0
  0
HATCH
  5
FA
330
F5
100
AcDbEntity
  8
レイヤー 1
 62
   250
420
  2299925
440
 33554687
100
AcDbHatch
 10
0.0
 20
0.0
 30
0.0
210
0.0
220
0.0
230
1.0
  2
SOLID
 70
     1
 71
     1
 91
        1
 92
        1
 93
        1
 72
     4
 94
        3
 73
     0
 74
     0
 95
       44
 96
       40
 40
0.0
 40
0.0
 40
0.0
 40
0.0
 40
1.0
 40
1.0
 40
1.0
 40
2.0
 40
2.0
 40
2.0
 40
3.0
 40
3.0
 40
3.0
 40
4.0
 40
4.0
 40
4.0
 40
5.0
 40
5.0
 40
5.0
 40
6.0
 40
6.0
 40
6.0
 40
7.0
 40
7.0
 40
7.0
 40
8.0
 40
8.0
 40
8.0
 40
9.0
 40
9.0
 40
9.0
 40
10.0
 40
10.0
 40
10.0
 40
11.0
 40
11.0
 40
11.0
 40
12.0
 40
12.0
 40
12.0
 40
13.0
 40
13.0
 40
13.0
 40
13.0
 10
89.12737627980149
 20
-139.600264450777
 10
88.90947399035944
 20
-139.7589110978728
 10
88.81628415748343
 20
-139.8329806508056
 10
88.76770831114141
 20
-139.9768133873148
 10
88.76770831114141
 20
-139.9768133873148
 10
89.54612763603362
 20
-139.9768133873148
 10
89.54612763603362
 20
-139.9768133873148
 10
89.54612763603362
 20
-139.9768133873148
 10
89.54612763603362
 20
-140.1819688234614
 10
89.54612763603362
 20
-140.1819688234614
 10
89.54612763603362
 20
-140.1819688234614
 10
88.51811114323506
 20
-140.1819688234614
 10
88.51811114323506
 20
-140.1819688234614
 10
88.54980602169936
 20
-139.8243679120925
 10
88.61526283591912
 20
-139.7461642445773
 10
89.00042451117004
 20
-139.4478189755547
 10
89.25639510572409
 20
-139.2490369660558
 10
89.32185191994385
 20
-139.1813408397706
 10
89.32185191994385
 20
-139.0438815299092
 10
89.32185191994385
 20
-138.9253702452166
 10
89.25002167907639
 20
-138.7941121072285
 10
89.05330672686863
 20
-138.7941121072285
 10
88.793029762958
 20
-138.7941121072285
 10
88.78458927901913
 20
-139.024761249966
 10
88.78028290966257
 20
-139.1412054773675
 10
88.78028290966257
 20
-139.1412054773675
 10
88.55617944834706
 20
-139.1412054773675
 10
88.55617944834706
 20
-139.1412054773675
 10
88.56461993228593
 20
-139.014253708736
 10
88.57512747351595
 20
-138.9021158506911
 10
88.65557045309653
 20
-138.7836045659985
 10
88.765468999076
 20
-138.6228908616116
 10
88.95167641005375
 20
-138.5889566710819
 10
89.06812063745519
 20
-138.5889566710819
 10
89.34527856924354
 20
-138.5889566710819
 10
89.55250106268133
 20
-138.7730970247685
 10
89.55250106268133
 20
-139.0459485872003
 10
89.55250106268133
 20
-139.2743584178724
 10
89.43622909005414
 20
-139.3739216773961
 10
89.12737627980149
 20
-139.600264450777
 97
        0
 97
        1
330
F9
 75
     2
 76
     1
 98
        1
 10
0.0
 20
0.0
450
        0
451
        0
460
0.0
461
0.0
452
        0
462
0.0
453
        0
470

  0
SPLINE
  5
FB
330
F5
100
AcDbEntity
  8
レイヤー 1
100
AcDbSpline
210
0.0
220
0.0
230
1.0
 70
    11
 71
     3
 72
    26
 73
    22
 74
     0
 42
0.0000000001
 43
0.0000000001
 40
0.0
 40
0.0
 40
0.0
 40
0.0
 40
1.0
 40
1.0
 40
1.0
 40
2.0
 40
2.0
 40
2.0
 40
3.0
 40
3.0
 40
3.0
 40
4.0
 40
4.0
 40
4.0
 40
5.0
 40
5.0
 40
5.0
 40
6.0
 40
6.0
 40
6.0
 40
7.0
 40
7.0
 40
7.0
 40
7.0
 10
90.16245521834481
 20
-140.1819688234614
 30
0.0
 10
90.16245521834481
 20
-140.1819688234614
 30
0.0
 10
90.16245521834481
 20
-139.0776434656646
 30
0.0
 10
90.16245521834481
 20
-139.0776434656646
 30
0.0
 10
90.16245521834481
 20
-139.0776434656646
 30
0.0
 10
89.83241507085788
 20
-139.0776434656646
 30
0.0
 10
89.83241507085788
 20
-139.0776434656646
 30
0.0
 10
89.83241507085788
 20
-139.0776434656646
 30
0.0
 10
89.83241507085788
 20
-138.9295043597988
 30
0.0
 10
89.83241507085788
 20
-138.9295043597988
 30
0.0
 10
90.16452227563595
 20
-138.9148627039865
 30
0.0
 10
90.21103106468684
 20
-138.7519096875342
 30
0.0
 10
90.24065888585997
 20
-138.6377047721982
 30
0.0
 10
90.24065888585997
 20
-138.6377047721982
 30
0.0
 10
90.38673093443456
 20
-138.6377047721982
 30
0.0
 10
90.38673093443456
 20
-138.6377047721982
 30
0.0
 10
90.38673093443456
 20
-138.6377047721982
 30
0.0
 10
90.38673093443456
 20
-140.1819688234614
 30
0.0
 10
90.38673093443456
 20
-140.1819688234614
 30
0.0
 10
90.38673093443456
 20
-140.1819688234614
 30
0.0
 10
90.16245521834481
 20
-140.1819688234614
 30
0.0
 10
90.16245521834481
 20
-140.1819688234614
 30
0.0
  0
HATCH
  5
FC
330
F5
100
AcDbEntity
  8
レイヤー 1
 62
   250
420
  2299925
440
 33554687
100
AcDbHatch
 10
0.0
 20
0.0
 30
0.0
210
0.0
220
0.0
230
1.0
  2
SOLID
 70
     1
 71
     1
 91
        1
 92
        1
 93
        1
 72
     4
 94
        3
 73
     0
 74
     0
 95
       26
 96
       22
 40
0.0
 40
0.0
 40
0.0
 40
0.0
 40
1.0
 40
1.0
 40
1.0
 40
2.0
 40
2.0
 40
2.0
 40
3.0
 40
3.0
 40
3.0
 40
4.0
 40
4.0
 40
4.0
 40
5.0
 40
5.0
 40
5.0
 40
6.0
 40
6.0
 40
6.0
 40
7.0
 40
7.0
 40
7.0
 40
7.0
 10
90.16245521834481
 20
-140.1819688234614
 10
90.16245521834481
 20
-140.1819688234614
 10
90.16245521834481
 20
-139.0776434656646
 10
90.16245521834481
 20
-139.0776434656646
 10
90.16245521834481
 20
-139.0776434656646
 10
89.83241507085788
 20
-139.0776434656646
 10
89.83241507085788
 20
-139.0776434656646
 10
89.83241507085788
 20
-139.0776434656646
 10
89.83241507085788
 20
-138.9295043597988
 10
89.83241507085788
 20
-138.9295043597988
 10
90.16452227563595
 20
-138.9148627039865
 10
90.21103106468684
 20
-138.7519096875342
 10
90.24065888585997
 20
-138.6377047721982
 10
90.24065888585997
 20
-138.6377047721982
 10
90.38673093443456
 20
-138.6377047721982
 10
90.38673093443456
 20
-138.6377047721982
 10
90.38673093443456
 20
-138.6377047721982
 10
90.38673093443456
 20
-140.1819688234614
 10
90.38673093443456
 20
-140.1819688234614
 10
90.38673093443456
 20
-140.1819688234614
 10
90.16245521834481
 20
-140.1819688234614
 10
90.16245521834481
 20
-140.1819688234614
 97
        0
 97
        1
330
FB
 75
     2
 76
     1
 98
        1
 10
0.0
 20
0.0
450
        0
451
        0
460
0.0
461
0.0
452
        0
462
0.0
453
        0
470

  0
ENDBLK
  5
F8
330
F5
100
AcDbEntity
  8
0
100
AcDbBlockEnd
  0
BLOCK
  5
101
330
FF
100
AcDbEntity
  8
0
100
AcDbBlockBegin
  2
Block_4
 70
     0
 10
0.0
 20
0.0
 30
0.0
  3
Block_4
  1

  0
SPLINE
  5
103
330
FF
100
AcDbEntity
  8
レイヤー 1
100
AcDbSpline
210
0.0
220
0.0
230
1.0
 70
     9
 71
     3
 72
    17
 73
    13
 74
     0
 42
0.0000000001
 43
0.0000000001
 40
0.0
 40
0.0
 40
0.0
 40
0.0
 40
1.0
 40
1.0
 40
1.0
 40
2.0
 40
2.0
 40
2.0
 40
3.0
 40
3.0
 40
3.0
 40
4.0
 40
4.0
 40
4.0
 40
4.0
 10
73.74433591906392
 20
-150.1551757437112
 30
0.0
 10
73.74433591906392
 20
-150.2988362254461
 30
0.0
 10
73.83098007051795
 20
-150.4514539554427
 30
0.0
 10
74.03406844937343
 20
-150.4514539554427
 30
0.0
 10
74.23922388552006
 20
-150.4514539554427
 30
0.0
 10
74.34085420233492
 20
-150.324329932037
 30
0.0
 10
74.34085420233492
 20
-150.1551757437112
 30
0.0
 10
74.34085420233492
 20
-149.9691405875077
 30
0.0
 10
74.21820880306004
 20
-149.8588975319797
 30
0.0
 10
74.04044187602115
 20
-149.8588975319797
 30
0.0
 10
73.81823321722253
 20
-149.8588975319797
 30
0.0
 10
73.74433591906392
 20
-150.021850548432
 30
0.0
 10
73.74433591906392
 20
-150.1551757437112
 30
0.0
  0
SPLINE
  5
104
330
FF
100
AcDbEntity
  8
レイヤー 1
100
AcDbSpline
210
0.0
220
0.0
230
1.0
 70
     9
 71
     3
 72
    17
 73
    13
 74
     0
 42
0.0000000001
 43
0.0000000001
 40
0.0
 40
0.0
 40
0.0
 40
0.0
 40
1.0
 40
1.0
 40
1.0
 40
2.0
 40
2.0
 40
2.0
 40
3.0
 40
3.0
 40
3.0
 40
4.0
 40
4.0
 40
4.0
 40
4.0
 10
73.08425562409005
 20
-150.1551757437112
 30
0.0
 10
73.08425562409005
 20
-150.3201958174547
 30
0.0
 10
73.17934025948294
 20
-150.4046006568433
 30
0.0
 10
73.31473251205327
 20
-150.4046006568433
 30
0.0
 10
73.43755016610242
 20
-150.4046006568433
 30
0.0
 10
73.55606145079502
 20
-150.3329426707501
 30
0.0
 10
73.55606145079502
 20
-150.1551757437112
 30
0.0
 10
73.55606145079502
 20
-149.9774088166723
 30
0.0
 10
73.43755016610242
 20
-149.9054063210306
 30
0.0
 10
73.31473251205327
 20
-149.9054063210306
 30
0.0
 10
73.17934025948294
 20
-149.9054063210306
 30
0.0
 10
73.08425562409005
 20
-149.9922227272589
 30
0.0
 10
73.08425562409005
 20
-150.1551757437112
 30
0.0
  0
SPLINE
  5
105
330
FF
100
AcDbEntity
  8
レイヤー 1
100
AcDbSpline
210
0.0
220
0.0
230
1.0
 70
     9
 71
     3
 72
    29
 73
    25
 74
     0
 42
0.0000000001
 43
0.0000000001
 40
0.0
 40
0.0
 40
0.0
 40
0.0
 40
1.0
 40
1.0
 40
1.0
 40
2.0
 40
2.0
 40
2.0
 40
3.0
 40
3.0
 40
3.0
 40
4.0
 40
4.0
 40
4.0
 40
5.0
 40
5.0
 40
5.0
 40
6.0
 40
6.0
 40
6.0
 40
7.0
 40
7.0
 40
7.0
 40
8.0
 40
8.0
 40
8.0
 40
8.0
 10
74.53550209725154
 20
-150.1551757437112
 30
0.0
 10
74.53550209725154
 20
-150.4218261342695
 30
0.0
 10
74.39787053261581
 20
-150.6753851619839
 30
0.0
 10
74.04888235996001
 20
-150.6753851619839
 30
0.0
 10
73.79291176540594
 20
-150.6753851619839
 30
0.0
 10
73.69765487523878
 20
-150.5337917375401
 30
0.0
 10
73.63633217560134
 20
-150.428027306143
 30
0.0
 10
73.57707653325504
 20
-150.552739762709
 30
0.0
 10
73.462871617919
 20
-150.628876372933
 30
0.0
 10
73.3021579135321
 20
-150.628876372933
 30
0.0
 10
73.0270670390349
 20
-150.628876372933
 30
0.0
 10
72.89167478646459
 20
-150.4300943634341
 30
0.0
 10
72.89167478646459
 20
-150.1551757437112
 30
0.0
 10
72.89167478646459
 20
-149.8716443852751
 30
0.0
 10
73.03550752297375
 20
-149.6811306049408
 30
0.0
 10
73.3021579135321
 20
-149.6811306049408
 30
0.0
 10
73.462871617919
 20
-149.6811306049408
 30
0.0
 10
73.57707653325504
 20
-149.7596787820045
 30
0.0
 10
73.63633217560134
 20
-149.8843912385706
 30
0.0
 10
73.68714733400877
 20
-149.7955077750511
 30
0.0
 10
73.78240422417594
 20
-149.6366888731811
 30
0.0
 10
74.0447482453777
 20
-149.6366888731811
 30
0.0
 10
74.4190578698501
 20
-149.6366888731811
 30
0.0
 10
74.53550209725154
 20
-149.9160861170348
 30
0.0
 10
74.53550209725154
 20
-150.1551757437112
 30
0.0
  0
HATCH
  5
106
330
FF
100
AcDbEntity
  8
レイヤー 1
 62
   250
420
  2299925
440
 33554687
100
AcDbHatch
 10
0.0
 20
0.0
 30
0.0
210
0.0
220
0.0
230
1.0
  2
SOLID
 70
     1
 71
     1
 91
        3
 92
        1
 93
        1
 72
     4
 94
        3
 73
     0
 74
     0
 95
       17
 96
       13
 40
0.0
 40
0.0
 40
0.0
 40
0.0
 40
1.0
 40
1.0
 40
1.0
 40
2.0
 40
2.0
 40
2.0
 40
3.0
 40
3.0
 40
3.0
 40
4.0
 40
4.0
 40
4.0
 40
4.0
 10
73.74433591906392
 20
-150.1551757437112
 10
73.74433591906392
 20
-150.2988362254461
 10
73.83098007051795
 20
-150.4514539554427
 10
74.03406844937343
 20
-150.4514539554427
 10
74.23922388552006
 20
-150.4514539554427
 10
74.34085420233492
 20
-150.324329932037
 10
74.34085420233492
 20
-150.1551757437112
 10
74.34085420233492
 20
-149.9691405875077
 10
74.21820880306004
 20
-149.8588975319797
 10
74.04044187602115
 20
-149.8588975319797
 10
73.81823321722253
 20
-149.8588975319797
 10
73.74433591906392
 20
-150.021850548432
 10
73.74433591906392
 20
-150.1551757437112
 97
        0
 97
        1
330
103
 92
        1
 93
        1
 72
     4
 94
        3
 73
     0
 74
     0
 95
       17
 96
       13
 40
0.0
 40
0.0
 40
0.0
 40
0.0
 40
1.0
 40
1.0
 40
1.0
 40
2.0
 40
2.0
 40
2.0
 40
3.0
 40
3.0
 40
3.0
 40
4.0
 40
4.0
 40
4.0
 40
4.0
 10
73.08425562409005
 20
-150.1551757437112
 10
73.08425562409005
 20
-150.3201958174547
 10
73.17934025948294
 20
-150.4046006568433
 10
73.31473251205327
 20
-150.4046006568433
 10
73.43755016610242
 20
-150.4046006568433
 10
73.55606145079502
 20
-150.3329426707501
 10
73.55606145079502
 20
-150.1551757437112
 10
73.55606145079502
 20
-149.9774088166723
 10
73.43755016610242
 20
-149.9054063210306
 10
73.31473251205327
 20
-149.9054063210306
 10
73.17934025948294
 20
-149.9054063210306
 10
73.08425562409005
 20
-149.9922227272589
 10
73.08425562409005
 20
-150.1551757437112
 97
        0
 97
        1
330
104
 92
        1
 93
        1
 72
     4
 94
        3
 73
     0
 74
     0
 95
       29
 96
       25
 40
0.0
 40
0.0
 40
0.0
 40
0.0
 40
1.0
 40
1.0
 40
1.0
 40
2.0
 40
2.0
 40
2.0
 40
3.0
 40
3.0
 40
3.0
 40
4.0
 40
4.0
 40
4.0
 40
5.0
 40
5.0
 40
5.0
 40
6.0
 40
6.0
 40
6.0
 40
7.0
 40
7.0
 40
7.0
 40
8.0
 40
8.0
 40
8.0
 40
8.0
 10
74.53550209725154
 20
-150.1551757437112
 10
74.53550209725154
 20
-150.4218261342695
 10
74.39787053261581
 20
-150.6753851619839
 10
74.04888235996001
 20
-150.6753851619839
 10
73.79291176540594
 20
-150.6753851619839
 10
73.69765487523878
 20
-150.5337917375401
 10
73.63633217560134
 20
-150.428027306143
 10
73.57707653325504
 20
-150.552739762709
 10
73.462871617919
 20
-150.628876372933
 10
73.3021579135321
 20
-150.628876372933
 10
73.0270670390349
 20
-150.628876372933
 10
72.89167478646459
 20
-150.4300943634341
 10
72.89167478646459
 20
-150.1551757437112
 10
72.89167478646459
 20
-149.8716443852751
 10
73.03550752297375
 20
-149.6811306049408
 10
73.3021579135321
 20
-149.6811306049408
 10
73.462871617919
 20
-149.6811306049408
 10
73.57707653325504
 20
-149.7596787820045
 10
73.63633217560134
 20
-149.8843912385706
 10
73.68714733400877
 20
-149.7955077750511
 10
73.78240422417594
 20
-149.6366888731811
 10
74.0447482453777
 20
-149.6366888731811
 10
74.4190578698501
 20
-149.6366888731811
 10
74.53550209725154
 20
-149.9160861170348
 10
74.53550209725154
 20
-150.1551757437112
 97
        0
 97
        1
330
105
 75
     2
 76
     1
 98
        1
 10
0.0
 20
0.0
450
        0
451
        0
460
0.0
461
0.0
452
        0
462
0.0
453
        0
470

  0
ENDBLK
  5
102
330
FF
100
AcDbEntity
  8
0
100
AcDbBlockEnd
  0
BLOCK
  5
10B
330
109
100
AcDbEntity
  8
0
100
AcDbBlockBegin
  2
Block_5
 70
     0
 10
0.0
 20
0.0
 30
0.0
  3
Block_5
  1

  0
INSERT
  5
10E
330
109
100
AcDbEntity
  8
レイヤー 1
100
AcDbBlockReference
  2
Block_6
 10
0.0
 20
0.0
 30
0.0
  0
ENDBLK
  5
10C
330
109
100
AcDbEntity
  8
0
100
AcDbBlockEnd
  0
BLOCK
  5
10F
330
10D
100
AcDbEntity
  8
0
100
AcDbBlockBegin
  2
Block_6
 70
     0
 10
0.0
 20
0.0
 30
0.0
  3
Block_6
  1

  0
SPLINE
  5
111
330
10D
100
AcDbEntity
  8
レイヤー 1
100
AcDbSpline
210
0.0
220
0.0
230
1.0
 70
     9
 71
     3
 72
    44
 73
    40
 74
     0
 42
0.0000000001
 43
0.0000000001
 40
0.0
 40
0.0
 40
0.0
 40
0.0
 40
1.0
 40
1.0
 40
1.0
 40
2.0
 40
2.0
 40
2.0
 40
3.0
 40
3.0
 40
3.0
 40
4.0
 40
4.0
 40
4.0
 40
5.0
 40
5.0
 40
5.0
 40
6.0
 40
6.0
 40
6.0
 40
7.0
 40
7.0
 40
7.0
 40
8.0
 40
8.0
 40
8.0
 40
9.0
 40
9.0
 40
9.0
 40
10.0
 40
10.0
 40
10.0
 40
11.0
 40
11.0
 40
11.0
 40
12.0
 40
12.0
 40
12.0
 40
13.0
 40
13.0
 40
13.0
 40
13.0
 10
116.1286566549956
 20
-139.600264450777
 30
0.0
 10
115.9109266203278
 20
-139.7589110978728
 30
0.0
 10
115.8179090422261
 20
-139.8329806508056
 30
0.0
 10
115.7689886863355
 20
-139.9768133873148
 30
0.0
 10
115.7689886863355
 20
-139.9768133873148
 30
0.0
 10
116.547580266002
 20
-139.9768133873148
 30
0.0
 10
116.547580266002
 20
-139.9768133873148
 30
0.0
 10
116.547580266002
 20
-139.9768133873148
 30
0.0
 10
116.547580266002
 20
-140.1819688234614
 30
0.0
 10
116.547580266002
 20
-140.1819688234614
 30
0.0
 10
116.547580266002
 20
-140.1819688234614
 30
0.0
 10
115.5195637732034
 20
-140.1819688234614
 30
0.0
 10
115.5195637732034
 20
-140.1819688234614
 30
0.0
 10
115.5512586516677
 20
-139.8243679120925
 30
0.0
 10
115.6167154658875
 20
-139.7461642445773
 30
0.0
 10
116.0018771411384
 20
-139.4478189755547
 30
0.0
 10
116.2578477356925
 20
-139.2490369660558
 30
0.0
 10
116.3233045499122
 20
-139.1813408397706
 30
0.0
 10
116.3233045499122
 20
-139.0438815299092
 30
0.0
 10
116.3233045499122
 20
-138.9253702452166
 30
0.0
 10
116.2513020542705
 20
-138.7941121072285
 30
0.0
 10
116.0545871020627
 20
-138.7941121072285
 30
0.0
 10
115.7944823929264
 20
-138.7941121072285
 30
0.0
 10
115.7862141637618
 20
-139.024761249966
 30
0.0
 10
115.7817355396309
 20
-139.1412054773675
 30
0.0
 10
115.7817355396309
 20
-139.1412054773675
 30
0.0
 10
115.5574598235412
 20
-139.1412054773675
 30
0.0
 10
115.5574598235412
 20
-139.1412054773675
 30
0.0
 10
115.5660725622543
 20
-139.014253708736
 30
0.0
 10
115.5767523582586
 20
-138.9021158506911
 30
0.0
 10
115.6570230830649
 20
-138.7836045659985
 30
0.0
 10
115.7669216290444
 20
-138.6228908616116
 30
0.0
 10
115.9533012947964
 20
-138.5889566710819
 30
0.0
 10
116.0694010126493
 20
-138.5889566710819
 30
0.0
 10
116.3467311992119
 20
-138.5889566710819
 30
0.0
 10
116.554125947424
 20
-138.7730970247685
 30
0.0
 10
116.554125947424
 20
-139.0459485872003
 30
0.0
 10
116.554125947424
 20
-139.2743584178724
 30
0.0
 10
116.4376817200225
 20
-139.3739216773961
 30
0.0
 10
116.1286566549956
 20
-139.600264450777
 30
0.0
  0
HATCH
  5
112
330
10D
100
AcDbEntity
  8
レイヤー 1
 62
   250
420
  2299925
440
 33554687
100
AcDbHatch
 10
0.0
 20
0.0
 30
0.0
210
0.0
220
0.0
230
1.0
  2
SOLID
 70
     1
 71
     1
 91
        1
 92
        1
 93
        1
 72
     4
 94
        3
 73
     0
 74
     0
 95
       44
 96
       40
 40
0.0
 40
0.0
 40
0.0
 40
0.0
 40
1.0
 40
1.0
 40
1.0
 40
2.0
 40
2.0
 40
2.0
 40
3.0
 40
3.0
 40
3.0
 40
4.0
 40
4.0
 40
4.0
 40
5.0
 40
5.0
 40
5.0
 40
6.0
 40
6.0
 40
6.0
 40
7.0
 40
7.0
 40
7.0
 40
8.0
 40
8.0
 40
8.0
 40
9.0
 40
9.0
 40
9.0
 40
10.0
 40
10.0
 40
10.0
 40
11.0
 40
11.0
 40
11.0
 40
12.0
 40
12.0
 40
12.0
 40
13.0
 40
13.0
 40
13.0
 40
13.0
 10
116.1286566549956
 20
-139.600264450777
 10
115.9109266203278
 20
-139.7589110978728
 10
115.8179090422261
 20
-139.8329806508056
 10
115.7689886863355
 20
-139.9768133873148
 10
115.7689886863355
 20
-139.9768133873148
 10
116.547580266002
 20
-139.9768133873148
 10
116.547580266002
 20
-139.9768133873148
 10
116.547580266002
 20
-139.9768133873148
 10
116.547580266002
 20
-140.1819688234614
 10
116.547580266002
 20
-140.1819688234614
 10
116.547580266002
 20
-140.1819688234614
 10
115.5195637732034
 20
-140.1819688234614
 10
115.5195637732034
 20
-140.1819688234614
 10
115.5512586516677
 20
-139.8243679120925
 10
115.6167154658875
 20
-139.7461642445773
 10
116.0018771411384
 20
-139.4478189755547
 10
116.2578477356925
 20
-139.2490369660558
 10
116.3233045499122
 20
-139.1813408397706
 10
116.3233045499122
 20
-139.0438815299092
 10
116.3233045499122
 20
-138.9253702452166
 10
116.2513020542705
 20
-138.7941121072285
 10
116.0545871020627
 20
-138.7941121072285
 10
115.7944823929264
 20
-138.7941121072285
 10
115.7862141637618
 20
-139.024761249966
 10
115.7817355396309
 20
-139.1412054773675
 10
115.7817355396309
 20
-139.1412054773675
 10
115.5574598235412
 20
-139.1412054773675
 10
115.5574598235412
 20
-139.1412054773675
 10
115.5660725622543
 20
-139.014253708736
 10
115.5767523582586
 20
-138.9021158506911
 10
115.6570230830649
 20
-138.7836045659985
 10
115.7669216290444
 20
-138.6228908616116
 10
115.9533012947964
 20
-138.5889566710819
 10
116.0694010126493
 20
-138.5889566710819
 10
116.3467311992119
 20
-138.5889566710819
 10
116.554125947424
 20
-138.7730970247685
 10
116.554125947424
 20
-139.0459485872003
 10
116.554125947424
 20
-139.2743584178724
 10
116.4376817200225
 20
-139.3739216773961
 10
116.1286566549956
 20
-139.600264450777
 97
        0
 97
        1
330
111
 75
     2
 76
     1
 98
        1
 10
0.0
 20
0.0
450
        0
451
        0
460
0.0
461
0.0
452
        0
462
0.0
453
        0
470

  0
SPLINE
  5
113
330
10D
100
AcDbEntity
  8
レイヤー 1
100
AcDbSpline
210
0.0
220
0.0
230
1.0
 70
    11
 71
     3
 72
    26
 73
    22
 74
     0
 42
0.0000000001
 43
0.0000000001
 40
0.0
 40
0.0
 40
0.0
 40
0.0
 40
1.0
 40
1.0
 40
1.0
 40
2.0
 40
2.0
 40
2.0
 40
3.0
 40
3.0
 40
3.0
 40
4.0
 40
4.0
 40
4.0
 40
5.0
 40
5.0
 40
5.0
 40
6.0
 40
6.0
 40
6.0
 40
7.0
 40
7.0
 40
7.0
 40
7.0
 10
117.1639078483132
 20
-140.1819688234614
 30
0.0
 10
117.1639078483132
 20
-140.1819688234614
 30
0.0
 10
117.1639078483132
 20
-139.0776434656646
 30
0.0
 10
117.1639078483132
 20
-139.0776434656646
 30
0.0
 10
117.1639078483132
 20
-139.0776434656646
 30
0.0
 10
116.8338677008262
 20
-139.0776434656646
 30
0.0
 10
116.8338677008262
 20
-139.0776434656646
 30
0.0
 10
116.8338677008262
 20
-139.0776434656646
 30
0.0
 10
116.8338677008262
 20
-138.9295043597988
 30
0.0
 10
116.8338677008262
 20
-138.9295043597988
 30
0.0
 10
117.1659749056043
 20
-138.9148627039865
 30
0.0
 10
117.2124836946552
 20
-138.7519096875342
 30
0.0
 10
117.2421115158283
 20
-138.6377047721982
 30
0.0
 10
117.2421115158283
 20
-138.6377047721982
 30
0.0
 10
117.3881835644029
 20
-138.6377047721982
 30
0.0
 10
117.3881835644029
 20
-138.6377047721982
 30
0.0
 10
117.3881835644029
 20
-138.6377047721982
 30
0.0
 10
117.3881835644029
 20
-140.1819688234614
 30
0.0
 10
117.3881835644029
 20
-140.1819688234614
 30
0.0
 10
117.3881835644029
 20
-140.1819688234614
 30
0.0
 10
117.1639078483132
 20
-140.1819688234614
 30
0.0
 10
117.1639078483132
 20
-140.1819688234614
 30
0.0
  0
HATCH
  5
114
330
10D
100
AcDbEntity
  8
レイヤー 1
 62
   250
420
  2299925
440
 33554687
100
AcDbHatch
 10
0.0
 20
0.0
 30
0.0
210
0.0
220
0.0
230
1.0
  2
SOLID
 70
     1
 71
     1
 91
        1
 92
        1
 93
        1
 72
     4
 94
        3
 73
     0
 74
     0
 95
       26
 96
       22
 40
0.0
 40
0.0
 40
0.0
 40
0.0
 40
1.0
 40
1.0
 40
1.0
 40
2.0
 40
2.0
 40
2.0
 40
3.0
 40
3.0
 40
3.0
 40
4.0
 40
4.0
 40
4.0
 40
5.0
 40
5.0
 40
5.0
 40
6.0
 40
6.0
 40
6.0
 40
7.0
 40
7.0
 40
7.0
 40
7.0
 10
117.1639078483132
 20
-140.1819688234614
 10
117.1639078483132
 20
-140.1819688234614
 10
117.1639078483132
 20
-139.0776434656646
 10
117.1639078483132
 20
-139.0776434656646
 10
117.1639078483132
 20
-139.0776434656646
 10
116.8338677008262
 20
-139.0776434656646
 10
116.8338677008262
 20
-139.0776434656646
 10
116.8338677008262
 20
-139.0776434656646
 10
116.8338677008262
 20
-138.9295043597988
 10
116.8338677008262
 20
-138.9295043597988
 10
117.1659749056043
 20
-138.9148627039865
 10
117.2124836946552
 20
-138.7519096875342
 10
117.2421115158283
 20
-138.6377047721982
 10
117.2421115158283
 20
-138.6377047721982
 10
117.3881835644029
 20
-138.6377047721982
 10
117.3881835644029
 20
-138.6377047721982
 10
117.3881835644029
 20
-138.6377047721982
 10
117.3881835644029
 20
-140.1819688234614
 10
117.3881835644029
 20
-140.1819688234614
 10
117.3881835644029
 20
-140.1819688234614
 10
117.1639078483132
 20
-140.1819688234614
 10
117.1639078483132
 20
-140.1819688234614
 97
        0
 97
        1
330
113
 75
     2
 76
     1
 98
        1
 10
0.0
 20
0.0
450
        0
451
        0
460
0.0
461
0.0
452
        0
462
0.0
453
        0
470

  0
ENDBLK
  5
110
330
10D
100
AcDbEntity
  8
0
100
AcDbBlockEnd
  0
BLOCK
  5
11A
330
118
100
AcDbEntity
  8
0
100
AcDbBlockBegin
  2
Block_7
 70
     0
 10
0.0
 20
0.0
 30
0.0
  3
Block_7
  1

  0
SPLINE
  5
11C
330
118
100
AcDbEntity
  8
レイヤー 1
100
AcDbSpline
210
0.0
220
0.0
230
1.0
 70
     9
 71
     3
 72
    17
 73
    13
 74
     0
 42
0.0000000001
 43
0.0000000001
 40
0.0
 40
0.0
 40
0.0
 40
0.0
 40
1.0
 40
1.0
 40
1.0
 40
2.0
 40
2.0
 40
2.0
 40
3.0
 40
3.0
 40
3.0
 40
4.0
 40
4.0
 40
4.0
 40
4.0
 10
103.223501222024
 20
-139.3735771678475
 30
0.0
 10
102.9611572008222
 20
-139.3735771678475
 30
0.0
 10
102.9230888957102
 20
-139.5851060306419
 30
0.0
 10
102.9230888957102
 20
-139.7013780032691
 30
0.0
 10
102.9230888957102
 20
-139.8770778730168
 30
0.0
 10
103.0183457858773
 20
-140.0398586346949
 30
0.0
 10
103.2023138847897
 20
-140.0398586346949
 30
0.0
 10
103.3228922267734
 20
-140.0398586346949
 30
0.0
 10
103.4985920965212
 20
-139.9806029923486
 30
0.0
 10
103.4985920965212
 20
-139.6950045766214
 30
0.0
 10
103.4985920965212
 20
-139.4709011153059
 30
0.0
 10
103.3588934745943
 20
-139.3735771678475
 30
0.0
 10
103.223501222024
 20
-139.3735771678475
 30
0.0
  0
SPLINE
  5
11D
330
118
100
AcDbEntity
  8
レイヤー 1
100
AcDbSpline
210
0.0
220
0.0
230
1.0
 70
     9
 71
     3
 72
    32
 73
    28
 74
     0
 42
0.0000000001
 43
0.0000000001
 40
0.0
 40
0.0
 40
0.0
 40
0.0
 40
1.0
 40
1.0
 40
1.0
 40
2.0
 40
2.0
 40
2.0
 40
3.0
 40
3.0
 40
3.0
 40
4.0
 40
4.0
 40
4.0
 40
5.0
 40
5.0
 40
5.0
 40
6.0
 40
6.0
 40
6.0
 40
7.0
 40
7.0
 40
7.0
 40
8.0
 40
8.0
 40
8.0
 40
9.0
 40
9.0
 40
9.0
 40
9.0
 10
103.2066202541462
 20
-140.2324394723204
 30
0.0
 10
102.6903726956815
 20
-140.2324394723204
 30
0.0
 10
102.6819322117427
 20
-139.6781236087436
 30
0.0
 10
102.6819322117427
 20
-139.4645276886582
 30
0.0
 10
102.6819322117427
 20
-139.2338785459207
 30
0.0
 10
102.7010524916858
 20
-138.5865451042422
 30
0.0
 10
103.2446885592583
 20
-138.5865451042422
 30
0.0
 10
103.4181491169406
 20
-138.5865451042422
 30
0.0
 10
103.6636121702646
 20
-138.6563082878186
 30
0.0
 10
103.7016804753766
 20
-138.9884154925966
 30
0.0
 10
103.7016804753766
 20
-138.9884154925966
 30
0.0
 10
103.4879123005169
 20
-138.9884154925966
 30
0.0
 10
103.4879123005169
 20
-138.9884154925966
 30
0.0
 10
103.4774047592869
 20
-138.9313991623157
 30
0.0
 10
103.4457098808226
 20
-138.78326005645
 30
0.0
 10
103.2426215019671
 20
-138.78326005645
 30
0.0
 10
102.9506496595922
 20
-138.78326005645
 30
0.0
 10
102.9103420424148
 20
-139.1112331466458
 30
0.0
 10
102.8977674438936
 20
-139.3163885827924
 30
0.0
 10
102.9907850219953
 20
-139.2381849152772
 30
0.0
 10
103.0584811482805
 20
-139.1789292729309
 30
0.0
 10
103.2403821899017
 20
-139.1789292729309
 30
0.0
 10
103.4202161742317
 20
-139.1789292729309
 30
0.0
 10
103.7226955578367
 20
-139.2867607616193
 30
0.0
 10
103.7226955578367
 20
-139.6929375193302
 30
0.0
 10
103.7226955578367
 20
-140.0124701255871
 30
0.0
 10
103.5239135483377
 20
-140.2324394723204
 30
0.0
 10
103.2066202541462
 20
-140.2324394723204
 30
0.0
  0
HATCH
  5
11E
330
118
100
AcDbEntity
  8
レイヤー 1
 62
   250
420
  2299925
440
 33554687
100
AcDbHatch
 10
0.0
 20
0.0
 30
0.0
210
0.0
220
0.0
230
1.0
  2
SOLID
 70
     1
 71
     1
 91
        2
 92
        1
 93
        1
 72
     4
 94
        3
 73
     0
 74
     0
 95
       17
 96
       13
 40
0.0
 40
0.0
 40
0.0
 40
0.0
 40
1.0
 40
1.0
 40
1.0
 40
2.0
 40
2.0
 40
2.0
 40
3.0
 40
3.0
 40
3.0
 40
4.0
 40
4.0
 40
4.0
 40
4.0
 10
103.223501222024
 20
-139.3735771678475
 10
102.9611572008222
 20
-139.3735771678475
 10
102.9230888957102
 20
-139.5851060306419
 10
102.9230888957102
 20
-139.7013780032691
 10
102.9230888957102
 20
-139.8770778730168
 10
103.0183457858773
 20
-140.0398586346949
 10
103.2023138847897
 20
-140.0398586346949
 10
103.3228922267734
 20
-140.0398586346949
 10
103.4985920965212
 20
-139.9806029923486
 10
103.4985920965212
 20
-139.6950045766214
 10
103.4985920965212
 20
-139.4709011153059
 10
103.3588934745943
 20
-139.3735771678475
 10
103.223501222024
 20
-139.3735771678475
 97
        0
 97
        1
330
11C
 92
        1
 93
        1
 72
     4
 94
        3
 73
     0
 74
     0
 95
       32
 96
       28
 40
0.0
 40
0.0
 40
0.0
 40
0.0
 40
1.0
 40
1.0
 40
1.0
 40
2.0
 40
2.0
 40
2.0
 40
3.0
 40
3.0
 40
3.0
 40
4.0
 40
4.0
 40
4.0
 40
5.0
 40
5.0
 40
5.0
 40
6.0
 40
6.0
 40
6.0
 40
7.0
 40
7.0
 40
7.0
 40
8.0
 40
8.0
 40
8.0
 40
9.0
 40
9.0
 40
9.0
 40
9.0
 10
103.2066202541462
 20
-140.2324394723204
 10
102.6903726956815
 20
-140.2324394723204
 10
102.6819322117427
 20
-139.6781236087436
 10
102.6819322117427
 20
-139.4645276886582
 10
102.6819322117427
 20
-139.2338785459207
 10
102.7010524916858
 20
-138.5865451042422
 10
103.2446885592583
 20
-138.5865451042422
 10
103.4181491169406
 20
-138.5865451042422
 10
103.6636121702646
 20
-138.6563082878186
 10
103.7016804753766
 20
-138.9884154925966
 10
103.7016804753766
 20
-138.9884154925966
 10
103.4879123005169
 20
-138.9884154925966
 10
103.4879123005169
 20
-138.9884154925966
 10
103.4774047592869
 20
-138.9313991623157
 10
103.4457098808226
 20
-138.78326005645
 10
103.2426215019671
 20
-138.78326005645
 10
102.9506496595922
 20
-138.78326005645
 10
102.9103420424148
 20
-139.1112331466458
 10
102.8977674438936
 20
-139.3163885827924
 10
102.9907850219953
 20
-139.2381849152772
 10
103.0584811482805
 20
-139.1789292729309
 10
103.2403821899017
 20
-139.1789292729309
 10
103.4202161742317
 20
-139.1789292729309
 10
103.7226955578367
 20
-139.2867607616193
 10
103.7226955578367
 20
-139.6929375193302
 10
103.7226955578367
 20
-140.0124701255871
 10
103.5239135483377
 20
-140.2324394723204
 10
103.2066202541462
 20
-140.2324394723204
 97
        0
 97
        1
330
11D
 75
     2
 76
     1
 98
        1
 10
0.0
 20
0.0
450
        0
451
        0
460
0.0
461
0.0
452
        0
462
0.0
453
        0
470

  0
ENDBLK
  5
11B
330
118
100
AcDbEntity
  8
0
100
AcDbBlockEnd
  0
BLOCK
  5
126
330
124
100
AcDbEntity
  8
0
100
AcDbBlockBegin
  2
Block_8
 70
     0
 10
0.0
 20
0.0
 30
0.0
  3
Block_8
  1

  0
SPLINE
  5
128
330
124
100
AcDbEntity
  8
レイヤー 1
100
AcDbSpline
210
0.0
220
0.0
230
1.0
 70
     9
 71
     3
 72
    17
 73
    13
 74
     0
 42
0.0000000001
 43
0.0000000001
 40
0.0
 40
0.0
 40
0.0
 40
0.0
 40
1.0
 40
1.0
 40
1.0
 40
2.0
 40
2.0
 40
2.0
 40
3.0
 40
3.0
 40
3.0
 40
4.0
 40
4.0
 40
4.0
 40
4.0
 10
103.4010958942886
 20
-156.1565320790164
 30
0.0
 10
103.2360758205451
 20
-156.1565320790164
 30
0.0
 10
103.151326471608
 20
-156.2516167144093
 30
0.0
 10
103.151326471608
 20
-156.3870089669796
 30
0.0
 10
103.151326471608
 20
-156.5096543662545
 30
0.0
 10
103.2233289672497
 20
-156.6281656509471
 30
0.0
 10
103.4010958942886
 20
-156.6281656509471
 30
0.0
 10
103.5788628213275
 20
-156.6281656509471
 30
0.0
 10
103.6508653169692
 20
-156.5096543662545
 30
0.0
 10
103.6508653169692
 20
-156.3870089669796
 30
0.0
 10
103.6508653169692
 20
-156.2516167144093
 30
0.0
 10
103.5640489107409
 20
-156.1565320790164
 30
0.0
 10
103.4010958942886
 20
-156.1565320790164
 30
0.0
  0
SPLINE
  5
129
330
124
100
AcDbEntity
  8
レイヤー 1
100
AcDbSpline
210
0.0
220
0.0
230
1.0
 70
     9
 71
     3
 72
    17
 73
    13
 74
     0
 42
0.0000000001
 43
0.0000000001
 40
0.0
 40
0.0
 40
0.0
 40
0.0
 40
1.0
 40
1.0
 40
1.0
 40
2.0
 40
2.0
 40
2.0
 40
3.0
 40
3.0
 40
3.0
 40
4.0
 40
4.0
 40
4.0
 40
4.0
 10
103.4010958942886
 20
-156.8166123739903
 30
0.0
 10
103.2574354125537
 20
-156.8166123739903
 30
0.0
 10
103.1048176825571
 20
-156.9034287802186
 30
0.0
 10
103.1048176825571
 20
-157.1063449042998
 30
0.0
 10
103.1048176825571
 20
-157.3116725952207
 30
0.0
 10
103.2319417059628
 20
-157.412958402487
 30
0.0
 10
103.4010958942886
 20
-157.412958402487
 30
0.0
 10
103.5871310504921
 20
-157.412958402487
 30
0.0
 10
103.6973741060201
 20
-157.2903130032121
 30
0.0
 10
103.6973741060201
 20
-157.1125460761732
 30
0.0
 10
103.6973741060201
 20
-156.8906819269232
 30
0.0
 10
103.5344210895678
 20
-156.8166123739903
 30
0.0
 10
103.4010958942886
 20
-156.8166123739903
 30
0.0
  0
SPLINE
  5
12A
330
124
100
AcDbEntity
  8
レイヤー 1
100
AcDbSpline
210
0.0
220
0.0
230
1.0
 70
     9
 71
     3
 72
    29
 73
    25
 74
     0
 42
0.0000000001
 43
0.0000000001
 40
0.0
 40
0.0
 40
0.0
 40
0.0
 40
1.0
 40
1.0
 40
1.0
 40
2.0
 40
2.0
 40
2.0
 40
3.0
 40
3.0
 40
3.0
 40
4.0
 40
4.0
 40
4.0
 40
5.0
 40
5.0
 40
5.0
 40
6.0
 40
6.0
 40
6.0
 40
7.0
 40
7.0
 40
7.0
 40
8.0
 40
8.0
 40
8.0
 40
8.0
 10
103.4010958942886
 20
-157.6076062974036
 30
0.0
 10
103.1344455037302
 20
-157.6076062974036
 30
0.0
 10
102.8805419664673
 20
-157.4701469875422
 30
0.0
 10
102.8805419664673
 20
-157.1211588148863
 30
0.0
 10
102.8805419664673
 20
-156.8651882203323
 30
0.0
 10
103.0224799004596
 20
-156.7701035849394
 30
0.0
 10
103.1282443318568
 20
-156.708780885302
 30
0.0
 10
103.0035318752908
 20
-156.6495252429557
 30
0.0
 10
102.9273952650667
 20
-156.5351480728454
 30
0.0
 10
102.9273952650667
 20
-156.3742621136842
 30
0.0
 10
102.9273952650667
 20
-156.0993434939613
 30
0.0
 10
103.1261772745657
 20
-155.9639512413909
 30
0.0
 10
103.4010958942886
 20
-155.9639512413909
 30
0.0
 10
103.6846272527247
 20
-155.9639512413909
 30
0.0
 10
103.875141033059
 20
-156.1079562326744
 30
0.0
 10
103.875141033059
 20
-156.3742621136842
 30
0.0
 10
103.875141033059
 20
-156.5351480728454
 30
0.0
 10
103.7965928559953
 20
-156.6495252429557
 30
0.0
 10
103.6718803994292
 20
-156.708780885302
 30
0.0
 10
103.7607638629487
 20
-156.7594237889351
 30
0.0
 10
103.9195827648187
 20
-156.854508424328
 30
0.0
 10
103.9195827648187
 20
-157.1170247003041
 30
0.0
 10
103.9195827648187
 20
-157.4915065795507
 30
0.0
 10
103.6401855209649
 20
-157.6076062974036
 30
0.0
 10
103.4010958942886
 20
-157.6076062974036
 30
0.0
  0
HATCH
  5
12B
330
124
100
AcDbEntity
  8
レイヤー 1
 62
   250
420
  2299925
440
 33554687
100
AcDbHatch
 10
0.0
 20
0.0
 30
0.0
210
0.0
220
0.0
230
1.0
  2
SOLID
 70
     1
 71
     1
 91
        3
 92
        1
 93
        1
 72
     4
 94
        3
 73
     0
 74
     0
 95
       17
 96
       13
 40
0.0
 40
0.0
 40
0.0
 40
0.0
 40
1.0
 40
1.0
 40
1.0
 40
2.0
 40
2.0
 40
2.0
 40
3.0
 40
3.0
 40
3.0
 40
4.0
 40
4.0
 40
4.0
 40
4.0
 10
103.4010958942886
 20
-156.1565320790164
 10
103.2360758205451
 20
-156.1565320790164
 10
103.151326471608
 20
-156.2516167144093
 10
103.151326471608
 20
-156.3870089669796
 10
103.151326471608
 20
-156.5096543662545
 10
103.2233289672497
 20
-156.6281656509471
 10
103.4010958942886
 20
-156.6281656509471
 10
103.5788628213275
 20
-156.6281656509471
 10
103.6508653169692
 20
-156.5096543662545
 10
103.6508653169692
 20
-156.3870089669796
 10
103.6508653169692
 20
-156.2516167144093
 10
103.5640489107409
 20
-156.1565320790164
 10
103.4010958942886
 20
-156.1565320790164
 97
        0
 97
        1
330
128
 92
        1
 93
        1
 72
     4
 94
        3
 73
     0
 74
     0
 95
       17
 96
       13
 40
0.0
 40
0.0
 40
0.0
 40
0.0
 40
1.0
 40
1.0
 40
1.0
 40
2.0
 40
2.0
 40
2.0
 40
3.0
 40
3.0
 40
3.0
 40
4.0
 40
4.0
 40
4.0
 40
4.0
 10
103.4010958942886
 20
-156.8166123739903
 10
103.2574354125537
 20
-156.8166123739903
 10
103.1048176825571
 20
-156.9034287802186
 10
103.1048176825571
 20
-157.1063449042998
 10
103.1048176825571
 20
-157.3116725952207
 10
103.2319417059628
 20
-157.412958402487
 10
103.4010958942886
 20
-157.412958402487
 10
103.5871310504921
 20
-157.412958402487
 10
103.6973741060201
 20
-157.2903130032121
 10
103.6973741060201
 20
-157.1125460761732
 10
103.6973741060201
 20
-156.8906819269232
 10
103.5344210895678
 20
-156.8166123739903
 10
103.4010958942886
 20
-156.8166123739903
 97
        0
 97
        1
330
129
 92
        1
 93
        1
 72
     4
 94
        3
 73
     0
 74
     0
 95
       29
 96
       25
 40
0.0
 40
0.0
 40
0.0
 40
0.0
 40
1.0
 40
1.0
 40
1.0
 40
2.0
 40
2.0
 40
2.0
 40
3.0
 40
3.0
 40
3.0
 40
4.0
 40
4.0
 40
4.0
 40
5.0
 40
5.0
 40
5.0
 40
6.0
 40
6.0
 40
6.0
 40
7.0
 40
7.0
 40
7.0
 40
8.0
 40
8.0
 40
8.0
 40
8.0
 10
103.4010958942886
 20
-157.6076062974036
 10
103.1344455037302
 20
-157.6076062974036
 10
102.8805419664673
 20
-157.4701469875422
 10
102.8805419664673
 20
-157.1211588148863
 10
102.8805419664673
 20
-156.8651882203323
 10
103.0224799004596
 20
-156.7701035849394
 10
103.1282443318568
 20
-156.708780885302
 10
103.0035318752908
 20
-156.6495252429557
 10
102.9273952650667
 20
-156.5351480728454
 10
102.9273952650667
 20
-156.3742621136842
 10
102.9273952650667
 20
-156.0993434939613
 10
103.1261772745657
 20
-155.9639512413909
 10
103.4010958942886
 20
-155.9639512413909
 10
103.6846272527247
 20
-155.9639512413909
 10
103.875141033059
 20
-156.1079562326744
 10
103.875141033059
 20
-156.3742621136842
 10
103.875141033059
 20
-156.5351480728454
 10
103.7965928559953
 20
-156.6495252429557
 10
103.6718803994292
 20
-156.708780885302
 10
103.7607638629487
 20
-156.7594237889351
 10
103.9195827648187
 20
-156.854508424328
 10
103.9195827648187
 20
-157.1170247003041
 10
103.9195827648187
 20
-157.4915065795507
 10
103.6401855209649
 20
-157.6076062974036
 10
103.4010958942886
 20
-157.6076062974036
 97
        0
 97
        1
330
12A
 75
     2
 76
     1
 98
        1
 10
0.0
 20
0.0
450
        0
451
        0
460
0.0
461
0.0
452
        0
462
0.0
453
        0
470

  0
ENDBLK
  5
127
330
124
100
AcDbEntity
  8
0
100
AcDbBlockEnd
  0
BLOCK
  5
12F
330
12D
100
AcDbEntity
  8
0
100
AcDbBlockBegin
  2
Block_9
 70
     0
 10
0.0
 20
0.0
 30
0.0
  3
Block_9
  1

  0
SPLINE
  5
131
330
12D
100
AcDbEntity
  8
レイヤー 1
100
AcDbSpline
210
0.0
220
0.0
230
1.0
 70
    11
 71
     3
 72
    26
 73
    22
 74
     0
 42
0.0000000001
 43
0.0000000001
 40
0.0
 40
0.0
 40
0.0
 40
0.0
 40
1.0
 40
1.0
 40
1.0
 40
2.0
 40
2.0
 40
2.0
 40
3.0
 40
3.0
 40
3.0
 40
4.0
 40
4.0
 40
4.0
 40
5.0
 40
5.0
 40
5.0
 40
6.0
 40
6.0
 40
6.0
 40
7.0
 40
7.0
 40
7.0
 40
7.0
 10
109.1010063746345
 20
-149.5347140468177
 30
0.0
 10
109.1010063746345
 20
-149.5347140468177
 30
0.0
 10
109.1010063746345
 20
-148.4303886890208
 30
0.0
 10
109.1010063746345
 20
-148.4303886890208
 30
0.0
 10
109.1010063746345
 20
-148.4303886890208
 30
0.0
 10
108.7709662271475
 20
-148.4303886890208
 30
0.0
 10
108.7709662271475
 20
-148.4303886890208
 30
0.0
 10
108.7709662271475
 20
-148.4303886890208
 30
0.0
 10
108.7709662271475
 20
-148.2822495831551
 30
0.0
 10
108.7709662271475
 20
-148.2822495831551
 30
0.0
 10
109.1030734319256
 20
-148.2676079273428
 30
0.0
 10
109.1495822209765
 20
-148.1046549108905
 30
0.0
 10
109.1792100421496
 20
-147.9904499955545
 30
0.0
 10
109.1792100421496
 20
-147.9904499955545
 30
0.0
 10
109.3252820907242
 20
-147.9904499955545
 30
0.0
 10
109.3252820907242
 20
-147.9904499955545
 30
0.0
 10
109.3252820907242
 20
-147.9904499955545
 30
0.0
 10
109.3252820907242
 20
-149.5347140468177
 30
0.0
 10
109.3252820907242
 20
-149.5347140468177
 30
0.0
 10
109.3252820907242
 20
-149.5347140468177
 30
0.0
 10
109.1010063746345
 20
-149.5347140468177
 30
0.0
 10
109.1010063746345
 20
-149.5347140468177
 30
0.0
  0
HATCH
  5
132
330
12D
100
AcDbEntity
  8
レイヤー 1
 62
   250
420
  2299925
440
 33554687
100
AcDbHatch
 10
0.0
 20
0.0
 30
0.0
210
0.0
220
0.0
230
1.0
  2
SOLID
 70
     1
 71
     1
 91
        1
 92
        1
 93
        1
 72
     4
 94
        3
 73
     0
 74
     0
 95
       26
 96
       22
 40
0.0
 40
0.0
 40
0.0
 40
0.0
 40
1.0
 40
1.0
 40
1.0
 40
2.0
 40
2.0
 40
2.0
 40
3.0
 40
3.0
 40
3.0
 40
4.0
 40
4.0
 40
4.0
 40
5.0
 40
5.0
 40
5.0
 40
6.0
 40
6.0
 40
6.0
 40
7.0
 40
7.0
 40
7.0
 40
7.0
 10
109.1010063746345
 20
-149.5347140468177
 10
109.1010063746345
 20
-149.5347140468177
 10
109.1010063746345
 20
-148.4303886890208
 10
109.1010063746345
 20
-148.4303886890208
 10
109.1010063746345
 20
-148.4303886890208
 10
108.7709662271475
 20
-148.4303886890208
 10
108.7709662271475
 20
-148.4303886890208
 10
108.7709662271475
 20
-148.4303886890208
 10
108.7709662271475
 20
-148.2822495831551
 10
108.7709662271475
 20
-148.2822495831551
 10
109.1030734319256
 20
-148.2676079273428
 10
109.1495822209765
 20
-148.1046549108905
 10
109.1792100421496
 20
-147.9904499955545
 10
109.1792100421496
 20
-147.9904499955545
 10
109.3252820907242
 20
-147.9904499955545
 10
109.3252820907242
 20
-147.9904499955545
 10
109.3252820907242
 20
-147.9904499955545
 10
109.3252820907242
 20
-149.5347140468177
 10
109.3252820907242
 20
-149.5347140468177
 10
109.3252820907242
 20
-149.5347140468177
 10
109.1010063746345
 20
-149.5347140468177
 10
109.1010063746345
 20
-149.5347140468177
 97
        0
 97
        1
330
131
 75
     2
 76
     1
 98
        1
 10
0.0
 20
0.0
450
        0
451
        0
460
0.0
461
0.0
452
        0
462
0.0
453
        0
470

  0
ENDBLK
  5
130
330
12D
100
AcDbEntity
  8
0
100
AcDbBlockEnd
  0
BLOCK
  5
139
330
137
100
AcDbEntity
  8
0
100
AcDbBlockBegin
  2
Block_10
 70
     0
 10
0.0
 20
0.0
 30
0.0
  3
Block_10
  1

  0
INSERT
  5
13C
330
137
100
AcDbEntity
  8
レイヤー 1
100
AcDbBlockReference
  2
Block_11
 10
0.0
 20
0.0
 30
0.0
  0
INSERT
  5
143
330
137
100
AcDbEntity
  8
レイヤー 1
100
AcDbBlockReference
  2
Block_12
 10
0.0
 20
0.0
 30
0.0
  0
ENDBLK
  5
13A
330
137
100
AcDbEntity
  8
0
100
AcDbBlockEnd
  0
BLOCK
  5
13D
330
13B
100
AcDbEntity
  8
0
100
AcDbBlockBegin
  2
Block_11
 70
     0
 10
0.0
 20
0.0
 30
0.0
  3
Block_11
  1

  0
LINE
  5
13F
330
13B
100
AcDbEntity
  8
レイヤー 1
 62
    18
420
        0
370
     9
100
AcDbLine
 10
121.4478422822351
 20
-147.3141544619907
 30
0.0
 11
122.25916059487
 21
-147.8987777951781
 31
0.0
  0
LINE
  5
140
330
13B
100
AcDbEntity
  8
レイヤー 1
 62
    18
420
        0
370
     9
100
AcDbLine
 10
121.4478422822351
 20
-147.3141544619907
 30
0.0
 11
124.0254483275861
 21
-150.4712333500903
 31
0.0
  0
LINE
  5
141
330
13B
100
AcDbEntity
  8
レイヤー 1
 62
    18
420
        0
370
     9
100
AcDbLine
 10
121.4478422822351
 20
-147.3141544619907
 30
0.0
 11
121.8581581051005
 21
-148.2262261284293
 31
0.0
  0
ENDBLK
  5
13E
330
13B
100
AcDbEntity
  8
0
100
AcDbBlockEnd
  0
BLOCK
  5
144
330
142
100
AcDbEntity
  8
0
100
AcDbBlockBegin
  2
Block_12
 70
     0
 10
0.0
 20
0.0
 30
0.0
  3
Block_12
  1

  0
INSERT
  5
147
330
142
100
AcDbEntity
  8
レイヤー 1
100
AcDbBlockReference
  2
Block_13
 10
0.0
 20
0.0
 30
0.0
  0
ENDBLK
  5
145
330
142
100
AcDbEntity
  8
0
100
AcDbBlockEnd
  0
BLOCK
  5
148
330
146
100
AcDbEntity
  8
0
100
AcDbBlockBegin
  2
Block_13
 70
     0
 10
0.0
 20
0.0
 30
0.0
  3
Block_13
  1

  0
SPLINE
  5
14A
330
146
100
AcDbEntity
  8
レイヤー 1
100
AcDbSpline
210
0.0
220
0.0
230
1.0
 70
     9
 71
     3
 72
    17
 73
    13
 74
     0
 42
0.0000000001
 43
0.0000000001
 40
0.0
 40
0.0
 40
0.0
 40
0.0
 40
1.0
 40
1.0
 40
1.0
 40
2.0
 40
2.0
 40
2.0
 40
3.0
 40
3.0
 40
3.0
 40
4.0
 40
4.0
 40
4.0
 40
4.0
 10
125.6918972125006
 20
-150.918264393694
 30
0.0
 10
125.6750162446229
 20
-150.9478922148672
 30
0.0
 10
125.6243733409897
 20
-151.0409097929689
 30
0.0
 10
125.6136935449854
 20
-151.0598578181378
 30
0.0
 10
125.8042073253198
 20
-151.1191134604841
 30
0.0
 10
125.8252224077798
 20
-151.125659141906
 30
0.0
 10
125.8972249034215
 20
-151.1528753962396
 30
0.0
 10
125.952001921637
 20
-151.0664034995597
 30
0.0
 10
125.9754285709367
 20
-150.9923339466269
 30
0.0
 10
125.9902424815233
 20
-150.918264393694
 30
0.0
 10
125.9902424815233
 20
-150.918264393694
 30
0.0
 10
125.6918972125006
 20
-150.918264393694
 30
0.0
 10
125.6918972125006
 20
-150.918264393694
 30
0.0
  0
SPLINE
  5
14B
330
146
100
AcDbEntity
  8
レイヤー 1
100
AcDbSpline
210
0.0
220
0.0
230
1.0
 70
    11
 71
     3
 72
    20
 73
    16
 74
     0
 42
0.0000000001
 43
0.0000000001
 40
0.0
 40
0.0
 40
0.0
 40
0.0
 40
1.0
 40
1.0
 40
1.0
 40
2.0
 40
2.0
 40
2.0
 40
3.0
 40
3.0
 40
3.0
 40
4.0
 40
4.0
 40
4.0
 40
5.0
 40
5.0
 40
5.0
 40
5.0
 10
125.628507455572
 20
-150.0676703183858
 30
0.0
 10
125.628507455572
 20
-150.0676703183858
 30
0.0
 10
125.5968125771077
 20
-150.0676703183858
 30
0.0
 10
125.5968125771077
 20
-150.0676703183858
 30
0.0
 10
125.6433213661586
 20
-150.1672335779096
 30
0.0
 10
125.6750162446229
 20
-150.2475043027159
 30
0.0
 10
125.7087781803783
 20
-150.3746283261216
 30
0.0
 10
125.7087781803783
 20
-150.3746283261216
 30
0.0
 10
125.9161729285904
 20
-150.3746283261216
 30
0.0
 10
125.9161729285904
 20
-150.3746283261216
 30
0.0
 10
125.9478678070547
 20
-150.2816107480199
 30
0.0
 10
125.9712944563544
 20
-150.1968613990827
 30
0.0
 10
125.9943765961056
 20
-150.0676703183858
 30
0.0
 10
125.9943765961056
 20
-150.0676703183858
 30
0.0
 10
125.628507455572
 20
-150.0676703183858
 30
0.0
 10
125.628507455572
 20
-150.0676703183858
 30
0.0
  0
SPLINE
  5
14C
330
146
100
AcDbEntity
  8
レイヤー 1
100
AcDbSpline
210
0.0
220
0.0
230
1.0
 70
     9
 71
     3
 72
   242
 73
   238
 74
     0
 42
0.0000000001
 43
0.0000000001
 40
0.0
 40
0.0
 40
0.0
 40
0.0
 40
1.0
 40
1.0
 40
1.0
 40
2.0
 40
2.0
 40
2.0
 40
3.0
 40
3.0
 40
3.0
 40
4.0
 40
4.0
 40
4.0
 40
5.0
 40
5.0
 40
5.0
 40
6.0
 40
6.0
 40
6.0
 40
7.0
 40
7.0
 40
7.0
 40
8.0
 40
8.0
 40
8.0
 40
9.0
 40
9.0
 40
9.0
 40
10.0
 40
10.0
 40
10.0
 40
11.0
 40
11.0
 40
11.0
 40
12.0
 40
12.0
 40
12.0
 40
13.0
 40
13.0
 40
13.0
 40
14.0
 40
14.0
 40
14.0
 40
15.0
 40
15.0
 40
15.0
 40
16.0
 40
16.0
 40
16.0
 40
17.0
 40
17.0
 40
17.0
 40
18.0
 40
18.0
 40
18.0
 40
19.0
 40
19.0
 40
19.0
 40
20.0
 40
20.0
 40
20.0
 40
21.0
 40
21.0
 40
21.0
 40
22.0
 40
22.0
 40
22.0
 40
23.0
 40
23.0
 40
23.0
 40
24.0
 40
24.0
 40
24.0
 40
25.0
 40
25.0
 40
25.0
 40
26.0
 40
26.0
 40
26.0
 40
27.0
 40
27.0
 40
27.0
 40
28.0
 40
28.0
 40
28.0
 40
29.0
 40
29.0
 40
29.0
 40
30.0
 40
30.0
 40
30.0
 40
31.0
 40
31.0
 40
31.0
 40
32.0
 40
32.0
 40
32.0
 40
33.0
 40
33.0
 40
33.0
 40
34.0
 40
34.0
 40
34.0
 40
35.0
 40
35.0
 40
35.0
 40
36.0
 40
36.0
 40
36.0
 40
37.0
 40
37.0
 40
37.0
 40
38.0
 40
38.0
 40
38.0
 40
39.0
 40
39.0
 40
39.0
 40
40.0
 40
40.0
 40
40.0
 40
41.0
 40
41.0
 40
41.0
 40
42.0
 40
42.0
 40
42.0
 40
43.0
 40
43.0
 40
43.0
 40
44.0
 40
44.0
 40
44.0
 40
45.0
 40
45.0
 40
45.0
 40
46.0
 40
46.0
 40
46.0
 40
47.0
 40
47.0
 40
47.0
 40
48.0
 40
48.0
 40
48.0
 40
49.0
 40
49.0
 40
49.0
 40
50.0
 40
50.0
 40
50.0
 40
51.0
 40
51.0
 40
51.0
 40
52.0
 40
52.0
 40
52.0
 40
53.0
 40
53.0
 40
53.0
 40
54.0
 40
54.0
 40
54.0
 40
55.0
 40
55.0
 40
55.0
 40
56.0
 40
56.0
 40
56.0
 40
57.0
 40
57.0
 40
57.0
 40
58.0
 40
58.0
 40
58.0
 40
59.0
 40
59.0
 40
59.0
 40
60.0
 40
60.0
 40
60.0
 40
61.0
 40
61.0
 40
61.0
 40
62.0
 40
62.0
 40
62.0
 40
63.0
 40
63.0
 40
63.0
 40
64.0
 40
64.0
 40
64.0
 40
65.0
 40
65.0
 40
65.0
 40
66.0
 40
66.0
 40
66.0
 40
67.0
 40
67.0
 40
67.0
 40
68.0
 40
68.0
 40
68.0
 40
69.0
 40
69.0
 40
69.0
 40
70.0
 40
70.0
 40
70.0
 40
71.0
 40
71.0
 40
71.0
 40
72.0
 40
72.0
 40
72.0
 40
73.0
 40
73.0
 40
73.0
 40
74.0
 40
74.0
 40
74.0
 40
75.0
 40
75.0
 40
75.0
 40
76.0
 40
76.0
 40
76.0
 40
77.0
 40
77.0
 40
77.0
 40
78.0
 40
78.0
 40
78.0
 40
79.0
 40
79.0
 40
79.0
 40
79.0
 10
126.2568928720816
 20
-150.5331027184431
 30
0.0
 10
126.2568928720816
 20
-150.5331027184431
 30
0.0
 10
126.0029893348187
 20
-150.5331027184431
 30
0.0
 10
126.0029893348187
 20
-150.5331027184431
 30
0.0
 10
126.0029893348187
 20
-150.5331027184431
 30
0.0
 10
125.7256591482561
 20
-150.5331027184431
 30
0.0
 10
125.7256591482561
 20
-150.5331027184431
 30
0.0
 10
125.7256591482561
 20
-150.5331027184431
 30
0.0
 10
125.8527831716618
 20
-150.5754773929117
 30
0.0
 10
125.8527831716618
 20
-150.5754773929117
 30
0.0
 10
125.8634629676661
 20
-150.579611507494
 30
0.0
 10
125.875865311413
 20
-150.5861571889159
 30
0.0
 10
125.875865311413
 20
-150.5989040422114
 30
0.0
 10
125.875865311413
 20
-150.6199191246714
 30
0.0
 10
125.8441704329487
 20
-150.6261202965448
 30
0.0
 10
125.8231553504886
 20
-150.6305989206756
 30
0.0
 10
125.8124755544844
 20
-150.6536810604268
 30
0.0
 10
125.7828477333112
 20
-150.7194823841951
 30
0.0
 10
125.7638997081423
 20
-150.7639241159548
 30
0.0
 10
125.7638997081423
 20
-150.7639241159548
 30
0.0
 10
126.034684213283
 20
-150.7639241159548
 30
0.0
 10
126.034684213283
 20
-150.7639241159548
 30
0.0
 10
126.1256347340936
 20
-150.7639241159548
 30
0.0
 10
126.3223496863013
 20
-150.759445491824
 30
0.0
 10
126.4639431107451
 20
-150.7511772626594
 30
0.0
 10
126.4639431107451
 20
-150.7511772626594
 30
0.0
 10
126.4639431107451
 20
-150.9289441896983
 30
0.0
 10
126.4639431107451
 20
-150.9289441896983
 30
0.0
 10
126.3816053286476
 20
-150.9244655655675
 30
0.0
 10
126.3605902461876
 20
-150.9244655655675
 30
0.0
 10
126.1807562618576
 20
-150.9203314509852
 30
0.0
 10
126.1490613833933
 20
-151.0746717287244
 30
0.0
 10
126.1046196516335
 20
-151.1552869630792
 30
0.0
 10
126.0601779198738
 20
-151.2248778918813
 30
0.0
 10
126.1807562618576
 20
-151.2841335342276
 30
0.0
 10
126.2865206932547
 20
-151.352001915287
 30
0.0
 10
126.3902180673608
 20
-151.4343396973844
 30
0.0
 10
126.3902180673608
 20
-151.4343396973844
 30
0.0
 10
126.2717067826682
 20
-151.6014268284191
 30
0.0
 10
126.2717067826682
 20
-151.6014268284191
 30
0.0
 10
126.2482801333685
 20
-151.5824788032502
 30
0.0
 10
126.235533280073
 20
-151.5738660645371
 30
0.0
 10
126.1235676768024
 20
-151.4894612251485
 30
0.0
 10
126.0749918304604
 20
-151.4512206652622
 30
0.0
 10
126.0157361881141
 20
-151.4153916722156
 30
0.0
 10
125.9351209537593
 20
-151.3709499404559
 30
0.0
 10
125.7235920909649
 20
-151.5569850966593
 30
0.0
 10
125.5186089095925
 20
-151.5804117459591
 30
0.0
 10
125.2285318697345
 20
-151.6100395671322
 30
0.0
 10
125.2285318697345
 20
-151.6100395671322
 30
0.0
 10
125.1248344956285
 20
-151.4302055828022
 30
0.0
 10
125.1248344956285
 20
-151.4302055828022
 30
0.0
 10
125.4424722993685
 20
-151.4260714682198
 30
0.0
 10
125.6178276595677
 20
-151.400577761629
 30
0.0
 10
125.7701008800158
 20
-151.2906792156495
 30
0.0
 10
125.6515895953232
 20
-151.2396918024678
 30
0.0
 10
125.5630506413523
 20
-151.2121310385858
 30
0.0
 10
125.5268771387571
 20
-151.1997286948389
 30
0.0
 10
125.5079291135883
 20
-151.2269449491724
 30
0.0
 10
125.4931152030017
 20
-151.2462374838898
 30
0.0
 10
125.4655544391197
 20
-151.2799994196453
 30
0.0
 10
125.4655544391197
 20
-151.2799994196453
 30
0.0
 10
125.2688394869119
 20
-151.1973171279993
 30
0.0
 10
125.2688394869119
 20
-151.1973171279993
 30
0.0
 10
125.3511772690094
 20
-151.1170464031929
 30
0.0
 10
125.4128444781954
 20
-151.0219617678
 30
0.0
 10
125.469688553702
 20
-150.9203314509852
 30
0.0
 10
125.2795192829162
 20
-150.9244655655675
 30
0.0
 10
125.2581596909077
 20
-150.9244655655675
 30
0.0
 10
125.1758219088102
 20
-150.9289441896983
 30
0.0
 10
125.1758219088102
 20
-150.9289441896983
 30
0.0
 10
125.1758219088102
 20
-150.7511772626594
 30
0.0
 10
125.1758219088102
 20
-150.7511772626594
 30
0.0
 10
125.3153482759628
 20
-150.7573784345329
 30
0.0
 10
125.524810081466
 20
-150.7615125491152
 30
0.0
 10
125.5503037880568
 20
-150.7615125491152
 30
0.0
 10
125.5671847559346
 20
-150.7277506133597
 30
0.0
 10
125.62196177415
 20
-150.607172271376
 30
0.0
 10
125.6412543088675
 20
-150.5331027184431
 30
0.0
 10
125.62196177415
 20
-150.5331027184431
 30
0.0
 10
125.4445393566597
 20
-150.5396483998651
 30
0.0
 10
125.2498914617431
 20
-150.5523952531605
 30
0.0
 10
125.2498914617431
 20
-150.5523952531605
 30
0.0
 10
125.2498914617431
 20
-150.6853759388911
 30
0.0
 10
125.2498914617431
 20
-150.6853759388911
 30
0.0
 10
125.201315615401
 20
-150.710869645482
 30
0.0
 10
125.1420599730547
 20
-150.7425645239463
 30
0.0
 10
125.0087347777756
 20
-150.8083658477145
 30
0.0
 10
125.0087347777756
 20
-150.8083658477145
 30
0.0
 10
125.0087347777756
 20
-150.9540933867406
 30
0.0
 10
125.0087347777756
 20
-150.9540933867406
 30
0.0
 10
125.0087347777756
 20
-150.9540933867406
 30
0.0
 10
125.0087347777756
 20
-151.421592844089
 30
0.0
 10
125.0087347777756
 20
-151.421592844089
 30
0.0
 10
125.0087347777756
 20
-151.5487168674947
 30
0.0
 10
124.9725612751805
 20
-151.607972509841
 30
0.0
 10
124.6890299167444
 20
-151.5993597711279
 30
0.0
 10
124.6890299167444
 20
-151.5993597711279
 30
0.0
 10
124.5856770521869
 20
-151.3919650229159
 30
0.0
 10
124.5856770521869
 20
-151.3919650229159
 30
0.0
 10
124.6490668091155
 20
-151.4047118762113
 30
0.0
 10
124.6976426554575
 20
-151.4091905003421
 30
0.0
 10
124.7379502726349
 20
-151.4091905003421
 30
0.0
 10
124.814086882859
 20
-151.4091905003421
 30
0.0
 10
124.8244221693147
 20
-151.3857638510424
 30
0.0
 10
124.8244221693147
 20
-151.3203070368227
 30
0.0
 10
124.8244221693147
 20
-151.3203070368227
 30
0.0
 10
124.8244221693147
 20
-150.890703629812
 30
0.0
 10
124.8244221693147
 20
-150.890703629812
 30
0.0
 10
124.7272704766307
 20
-150.9310112469894
 30
0.0
 10
124.7103895087529
 20
-150.9372124188629
 30
0.0
 10
124.6638807197021
 20
-150.9561604440318
 30
0.0
 10
124.6597466051198
 20
-150.9775200360403
 30
0.0
 10
124.6552679809889
 20
-151.0071478572135
 30
0.0
 10
124.6363199558201
 20
-151.0071478572135
 30
0.0
 10
124.627707217107
 20
-151.0071478572135
 30
0.0
 10
124.6173719306512
 20
-151.0026692330827
 30
0.0
 10
124.6108262492292
 20
-150.9795870933315
 30
0.0
 10
124.6108262492292
 20
-150.9795870933315
 30
0.0
 10
124.5581162883049
 20
-150.787006255706
 30
0.0
 10
124.5581162883049
 20
-150.787006255706
 30
0.0
 10
124.703843827331
 20
-150.7404974666551
 30
0.0
 10
124.7696451510992
 20
-150.717415326904
 30
0.0
 10
124.8244221693147
 20
-150.6960557348954
 30
0.0
 10
124.8244221693147
 20
-150.6960557348954
 30
0.0
 10
124.8244221693147
 20
-150.283677805311
 30
0.0
 10
124.8244221693147
 20
-150.283677805311
 30
0.0
 10
124.8244221693147
 20
-150.283677805311
 30
0.0
 10
124.7717122083904
 20
-150.283677805311
 30
0.0
 10
124.7717122083904
 20
-150.283677805311
 30
0.0
 10
124.7717122083904
 20
-150.283677805311
 30
0.0
 10
124.6935085408752
 20
-150.283677805311
 30
0.0
 10
124.6935085408752
 20
-150.283677805311
 30
0.0
 10
124.6256401598158
 20
-150.283677805311
 30
0.0
 10
124.6173719306512
 20
-150.283677805311
 30
0.0
 10
124.5811984280561
 20
-150.2898789771845
 30
0.0
 10
124.5811984280561
 20
-150.2898789771845
 30
0.0
 10
124.5811984280561
 20
-150.0952310822678
 30
0.0
 10
124.5811984280561
 20
-150.0952310822678
 30
0.0
 10
124.6087591919381
 20
-150.1017767636898
 30
0.0
 10
124.6173719306512
 20
-150.1017767636898
 30
0.0
 10
124.6869628594532
 20
-150.1017767636898
 30
0.0
 10
124.6869628594532
 20
-150.1017767636898
 30
0.0
 10
124.8202880547324
 20
-150.1017767636898
 30
0.0
 10
124.8202880547324
 20
-150.1017767636898
 30
0.0
 10
124.8202880547324
 20
-150.0318413253392
 30
0.0
 10
124.8202880547324
 20
-149.9491590336932
 30
0.0
 10
124.8182209974413
 20
-149.945024919111
 30
0.0
 10
124.8096082587281
 20
-149.7651909347809
 30
0.0
 10
124.8096082587281
 20
-149.746242909612
 30
0.0
 10
124.807541201437
 20
-149.6997341205611
 30
0.0
 10
124.807541201437
 20
-149.6997341205611
 30
0.0
 10
125.0235486883621
 20
-149.7080023497258
 30
0.0
 10
125.0235486883621
 20
-149.7080023497258
 30
0.0
 10
125.0338839748179
 20
-149.7080023497258
 30
0.0
 10
125.0552435668264
 20
-149.7104139165655
 30
0.0
 10
125.0552435668264
 20
-149.7272948844432
 30
0.0
 10
125.0552435668264
 20
-149.746242909612
 30
0.0
 10
125.0404296562399
 20
-149.7569227056163
 30
0.0
 10
125.014935949649
 20
-149.7758707307852
 30
0.0
 10
125.014935949649
 20
-149.8265136344184
 30
0.0
 10
125.0087347777756
 20
-150.0552679746389
 30
0.0
 10
125.0108018350667
 20
-150.1017767636898
 30
0.0
 10
125.1396484062151
 20
-150.1017767636898
 30
0.0
 10
125.1523952595105
 20
-150.1017767636898
 30
0.0
 10
125.2498914617431
 20
-150.0931640249767
 30
0.0
 10
125.2498914617431
 20
-150.0931640249767
 30
0.0
 10
125.2498914617431
 20
-150.2878119198933
 30
0.0
 10
125.2498914617431
 20
-150.2878119198933
 30
0.0
 10
125.2116509018568
 20
-150.2857448626022
 30
0.0
 10
125.1441270303459
 20
-150.2816107480199
 30
0.0
 10
125.0087347777756
 20
-150.283677805311
 30
0.0
 10
125.0087347777756
 20
-150.283677805311
 30
0.0
 10
125.0087347777756
 20
-150.6219861819625
 30
0.0
 10
125.0087347777756
 20
-150.6219861819625
 30
0.0
 10
125.0635117959911
 20
-150.5989040422114
 30
0.0
 10
125.1293131197593
 20
-150.5713432783293
 30
0.0
 10
125.1778889661013
 20
-150.5479166290297
 30
0.0
 10
125.1778889661013
 20
-150.5479166290297
 30
0.0
 10
125.1778889661013
 20
-150.3701497019908
 30
0.0
 10
125.1778889661013
 20
-150.3701497019908
 30
0.0
 10
125.2922661362116
 20
-150.3828965552862
 30
0.0
 10
125.4104329113557
 20
-150.3828965552862
 30
0.0
 10
125.5268771387571
 20
-150.3828965552862
 30
0.0
 10
125.503794999006
 20
-150.2878119198933
 30
0.0
 10
125.476234235124
 20
-150.2051296282473
 30
0.0
 10
125.4128444781954
 20
-150.0721489425167
 30
0.0
 10
125.3684027464357
 20
-150.0742159998078
 30
0.0
 10
125.2857204547897
 20
-150.0783501143901
 30
0.0
 10
125.2478244044519
 20
-150.0804171716813
 30
0.0
 10
125.2478244044519
 20
-150.0804171716813
 30
0.0
 10
125.2478244044519
 20
-149.9005831873512
 30
0.0
 10
125.2478244044519
 20
-149.9005831873512
 30
0.0
 10
125.3725368610179
 20
-149.9091959260644
 30
0.0
 10
125.545825163926
 20
-149.9133300406467
 30
0.0
 10
125.628507455572
 20
-149.9133300406467
 30
0.0
 10
125.628507455572
 20
-149.9133300406467
 30
0.0
 10
125.7108452376695
 20
-149.9133300406467
 30
0.0
 10
125.7108452376695
 20
-149.9133300406467
 30
0.0
 10
125.7108452376695
 20
-149.7503770241943
 30
0.0
 10
125.7108452376695
 20
-149.7400417377386
 30
0.0
 10
125.7087781803783
 20
-149.6849202099746
 30
0.0
 10
125.7087781803783
 20
-149.6849202099746
 30
0.0
 10
125.9330538964681
 20
-149.7104139165655
 30
0.0
 10
125.9330538964681
 20
-149.7104139165655
 30
0.0
 10
125.9371880110504
 20
-149.7104139165655
 30
0.0
 10
125.958547603059
 20
-149.7124809738566
 30
0.0
 10
125.958547603059
 20
-149.7293619417343
 30
0.0
 10
125.958547603059
 20
-149.7441758523209
 30
0.0
 10
125.9478678070547
 20
-149.7524440814855
 30
0.0
 10
125.9203070431727
 20
-149.7672579920721
 30
0.0
 10
125.9141058712992
 20
-149.8330593158403
 30
0.0
 10
125.9120388140081
 20
-149.8540743983004
 30
0.0
 10
125.9120388140081
 20
-149.9133300406467
 30
0.0
 10
125.9120388140081
 20
-149.9133300406467
 30
0.0
 10
126.007123449401
 20
-149.9133300406467
 30
0.0
 10
126.007123449401
 20
-149.9133300406467
 30
0.0
 10
126.089805741047
 20
-149.9133300406467
 30
0.0
 10
126.263094043955
 20
-149.9091959260644
 30
0.0
 10
126.3878065005211
 20
-149.9005831873512
 30
0.0
 10
126.3878065005211
 20
-149.9005831873512
 30
0.0
 10
126.3878065005211
 20
-150.0804171716813
 30
0.0
 10
126.3878065005211
 20
-150.0804171716813
 30
0.0
 10
126.3581786793479
 20
-150.0783501143901
 30
0.0
 10
126.2400119042039
 20
-150.0742159998078
 30
0.0
 10
126.1997042870264
 20
-150.0721489425167
 30
0.0
 10
126.1848903764399
 20
-150.1227918461498
 30
0.0
 10
126.1511284406844
 20
-150.2347574494204
 30
0.0
 10
126.0853271169162
 20
-150.3746283261216
 30
0.0
 10
126.1277017913847
 20
-150.3746283261216
 30
0.0
 10
126.4050319779473
 20
-150.3553357914042
 30
0.0
 10
126.4663546775848
 20
-150.353268734113
 30
0.0
 10
126.4663546775848
 20
-150.353268734113
 30
0.0
 10
126.4663546775848
 20
-150.5375813425739
 30
0.0
 10
126.4663546775848
 20
-150.5375813425739
 30
0.0
 10
126.4367268564116
 20
-150.5375813425739
 30
0.0
 10
126.4198458885339
 20
-150.5331027184431
 30
0.0
 10
126.2568928720816
 20
-150.5331027184431
 30
0.0
  0
HATCH
  5
14D
330
146
100
AcDbEntity
  8
レイヤー 1
 62
    18
420
        0
440
 33554687
100
AcDbHatch
 10
0.0
 20
0.0
 30
0.0
210
0.0
220
0.0
230
1.0
  2
SOLID
 70
     1
 71
     1
 91
        3
 92
        1
 93
        1
 72
     4
 94
        3
 73
     0
 74
     0
 95
       17
 96
       13
 40
0.0
 40
0.0
 40
0.0
 40
0.0
 40
1.0
 40
1.0
 40
1.0
 40
2.0
 40
2.0
 40
2.0
 40
3.0
 40
3.0
 40
3.0
 40
4.0
 40
4.0
 40
4.0
 40
4.0
 10
125.6918972125006
 20
-150.918264393694
 10
125.6750162446229
 20
-150.9478922148672
 10
125.6243733409897
 20
-151.0409097929689
 10
125.6136935449854
 20
-151.0598578181378
 10
125.8042073253198
 20
-151.1191134604841
 10
125.8252224077798
 20
-151.125659141906
 10
125.8972249034215
 20
-151.1528753962396
 10
125.952001921637
 20
-151.0664034995597
 10
125.9754285709367
 20
-150.9923339466269
 10
125.9902424815233
 20
-150.918264393694
 10
125.9902424815233
 20
-150.918264393694
 10
125.6918972125006
 20
-150.918264393694
 10
125.6918972125006
 20
-150.918264393694
 97
        0
 97
        1
330
14A
 92
        1
 93
        1
 72
     4
 94
        3
 73
     0
 74
     0
 95
       20
 96
       16
 40
0.0
 40
0.0
 40
0.0
 40
0.0
 40
1.0
 40
1.0
 40
1.0
 40
2.0
 40
2.0
 40
2.0
 40
3.0
 40
3.0
 40
3.0
 40
4.0
 40
4.0
 40
4.0
 40
5.0
 40
5.0
 40
5.0
 40
5.0
 10
125.628507455572
 20
-150.0676703183858
 10
125.628507455572
 20
-150.0676703183858
 10
125.5968125771077
 20
-150.0676703183858
 10
125.5968125771077
 20
-150.0676703183858
 10
125.6433213661586
 20
-150.1672335779096
 10
125.6750162446229
 20
-150.2475043027159
 10
125.7087781803783
 20
-150.3746283261216
 10
125.7087781803783
 20
-150.3746283261216
 10
125.9161729285904
 20
-150.3746283261216
 10
125.9161729285904
 20
-150.3746283261216
 10
125.9478678070547
 20
-150.2816107480199
 10
125.9712944563544
 20
-150.1968613990827
 10
125.9943765961056
 20
-150.0676703183858
 10
125.9943765961056
 20
-150.0676703183858
 10
125.628507455572
 20
-150.0676703183858
 10
125.628507455572
 20
-150.0676703183858
 97
        0
 97
        1
330
14B
 92
        1
 93
        1
 72
     4
 94
        3
 73
     0
 74
     0
 95
      242
 96
      238
 40
0.0
 40
0.0
 40
0.0
 40
0.0
 40
1.0
 40
1.0
 40
1.0
 40
2.0
 40
2.0
 40
2.0
 40
3.0
 40
3.0
 40
3.0
 40
4.0
 40
4.0
 40
4.0
 40
5.0
 40
5.0
 40
5.0
 40
6.0
 40
6.0
 40
6.0
 40
7.0
 40
7.0
 40
7.0
 40
8.0
 40
8.0
 40
8.0
 40
9.0
 40
9.0
 40
9.0
 40
10.0
 40
10.0
 40
10.0
 40
11.0
 40
11.0
 40
11.0
 40
12.0
 40
12.0
 40
12.0
 40
13.0
 40
13.0
 40
13.0
 40
14.0
 40
14.0
 40
14.0
 40
15.0
 40
15.0
 40
15.0
 40
16.0
 40
16.0
 40
16.0
 40
17.0
 40
17.0
 40
17.0
 40
18.0
 40
18.0
 40
18.0
 40
19.0
 40
19.0
 40
19.0
 40
20.0
 40
20.0
 40
20.0
 40
21.0
 40
21.0
 40
21.0
 40
22.0
 40
22.0
 40
22.0
 40
23.0
 40
23.0
 40
23.0
 40
24.0
 40
24.0
 40
24.0
 40
25.0
 40
25.0
 40
25.0
 40
26.0
 40
26.0
 40
26.0
 40
27.0
 40
27.0
 40
27.0
 40
28.0
 40
28.0
 40
28.0
 40
29.0
 40
29.0
 40
29.0
 40
30.0
 40
30.0
 40
30.0
 40
31.0
 40
31.0
 40
31.0
 40
32.0
 40
32.0
 40
32.0
 40
33.0
 40
33.0
 40
33.0
 40
34.0
 40
34.0
 40
34.0
 40
35.0
 40
35.0
 40
35.0
 40
36.0
 40
36.0
 40
36.0
 40
37.0
 40
37.0
 40
37.0
 40
38.0
 40
38.0
 40
38.0
 40
39.0
 40
39.0
 40
39.0
 40
40.0
 40
40.0
 40
40.0
 40
41.0
 40
41.0
 40
41.0
 40
42.0
 40
42.0
 40
42.0
 40
43.0
 40
43.0
 40
43.0
 40
44.0
 40
44.0
 40
44.0
 40
45.0
 40
45.0
 40
45.0
 40
46.0
 40
46.0
 40
46.0
 40
47.0
 40
47.0
 40
47.0
 40
48.0
 40
48.0
 40
48.0
 40
49.0
 40
49.0
 40
49.0
 40
50.0
 40
50.0
 40
50.0
 40
51.0
 40
51.0
 40
51.0
 40
52.0
 40
52.0
 40
52.0
 40
53.0
 40
53.0
 40
53.0
 40
54.0
 40
54.0
 40
54.0
 40
55.0
 40
55.0
 40
55.0
 40
56.0
 40
56.0
 40
56.0
 40
57.0
 40
57.0
 40
57.0
 40
58.0
 40
58.0
 40
58.0
 40
59.0
 40
59.0
 40
59.0
 40
60.0
 40
60.0
 40
60.0
 40
61.0
 40
61.0
 40
61.0
 40
62.0
 40
62.0
 40
62.0
 40
63.0
 40
63.0
 40
63.0
 40
64.0
 40
64.0
 40
64.0
 40
65.0
 40
65.0
 40
65.0
 40
66.0
 40
66.0
 40
66.0
 40
67.0
 40
67.0
 40
67.0
 40
68.0
 40
68.0
 40
68.0
 40
69.0
 40
69.0
 40
69.0
 40
70.0
 40
70.0
 40
70.0
 40
71.0
 40
71.0
 40
71.0
 40
72.0
 40
72.0
 40
72.0
 40
73.0
 40
73.0
 40
73.0
 40
74.0
 40
74.0
 40
74.0
 40
75.0
 40
75.0
 40
75.0
 40
76.0
 40
76.0
 40
76.0
 40
77.0
 40
77.0
 40
77.0
 40
78.0
 40
78.0
 40
78.0
 40
79.0
 40
79.0
 40
79.0
 40
79.0
 10
126.2568928720816
 20
-150.5331027184431
 10
126.2568928720816
 20
-150.5331027184431
 10
126.0029893348187
 20
-150.5331027184431
 10
126.0029893348187
 20
-150.5331027184431
 10
126.0029893348187
 20
-150.5331027184431
 10
125.7256591482561
 20
-150.5331027184431
 10
125.7256591482561
 20
-150.5331027184431
 10
125.7256591482561
 20
-150.5331027184431
 10
125.8527831716618
 20
-150.5754773929117
 10
125.8527831716618
 20
-150.5754773929117
 10
125.8634629676661
 20
-150.579611507494
 10
125.875865311413
 20
-150.5861571889159
 10
125.875865311413
 20
-150.5989040422114
 10
125.875865311413
 20
-150.6199191246714
 10
125.8441704329487
 20
-150.6261202965448
 10
125.8231553504886
 20
-150.6305989206756
 10
125.8124755544844
 20
-150.6536810604268
 10
125.7828477333112
 20
-150.7194823841951
 10
125.7638997081423
 20
-150.7639241159548
 10
125.7638997081423
 20
-150.7639241159548
 10
126.034684213283
 20
-150.7639241159548
 10
126.034684213283
 20
-150.7639241159548
 10
126.1256347340936
 20
-150.7639241159548
 10
126.3223496863013
 20
-150.759445491824
 10
126.4639431107451
 20
-150.7511772626594
 10
126.4639431107451
 20
-150.7511772626594
 10
126.4639431107451
 20
-150.9289441896983
 10
126.4639431107451
 20
-150.9289441896983
 10
126.3816053286476
 20
-150.9244655655675
 10
126.3605902461876
 20
-150.9244655655675
 10
126.1807562618576
 20
-150.9203314509852
 10
126.1490613833933
 20
-151.0746717287244
 10
126.1046196516335
 20
-151.1552869630792
 10
126.0601779198738
 20
-151.2248778918813
 10
126.1807562618576
 20
-151.2841335342276
 10
126.2865206932547
 20
-151.352001915287
 10
126.3902180673608
 20
-151.4343396973844
 10
126.3902180673608
 20
-151.4343396973844
 10
126.2717067826682
 20
-151.6014268284191
 10
126.2717067826682
 20
-151.6014268284191
 10
126.2482801333685
 20
-151.5824788032502
 10
126.235533280073
 20
-151.5738660645371
 10
126.1235676768024
 20
-151.4894612251485
 10
126.0749918304604
 20
-151.4512206652622
 10
126.0157361881141
 20
-151.4153916722156
 10
125.9351209537593
 20
-151.3709499404559
 10
125.7235920909649
 20
-151.5569850966593
 10
125.5186089095925
 20
-151.5804117459591
 10
125.2285318697345
 20
-151.6100395671322
 10
125.2285318697345
 20
-151.6100395671322
 10
125.1248344956285
 20
-151.4302055828022
 10
125.1248344956285
 20
-151.4302055828022
 10
125.4424722993685
 20
-151.4260714682198
 10
125.6178276595677
 20
-151.400577761629
 10
125.7701008800158
 20
-151.2906792156495
 10
125.6515895953232
 20
-151.2396918024678
 10
125.5630506413523
 20
-151.2121310385858
 10
125.5268771387571
 20
-151.1997286948389
 10
125.5079291135883
 20
-151.2269449491724
 10
125.4931152030017
 20
-151.2462374838898
 10
125.4655544391197
 20
-151.2799994196453
 10
125.4655544391197
 20
-151.2799994196453
 10
125.2688394869119
 20
-151.1973171279993
 10
125.2688394869119
 20
-151.1973171279993
 10
125.3511772690094
 20
-151.1170464031929
 10
125.4128444781954
 20
-151.0219617678
 10
125.469688553702
 20
-150.9203314509852
 10
125.2795192829162
 20
-150.9244655655675
 10
125.2581596909077
 20
-150.9244655655675
 10
125.1758219088102
 20
-150.9289441896983
 10
125.1758219088102
 20
-150.9289441896983
 10
125.1758219088102
 20
-150.7511772626594
 10
125.1758219088102
 20
-150.7511772626594
 10
125.3153482759628
 20
-150.7573784345329
 10
125.524810081466
 20
-150.7615125491152
 10
125.5503037880568
 20
-150.7615125491152
 10
125.5671847559346
 20
-150.7277506133597
 10
125.62196177415
 20
-150.607172271376
 10
125.6412543088675
 20
-150.5331027184431
 10
125.62196177415
 20
-150.5331027184431
 10
125.4445393566597
 20
-150.5396483998651
 10
125.2498914617431
 20
-150.5523952531605
 10
125.2498914617431
 20
-150.5523952531605
 10
125.2498914617431
 20
-150.6853759388911
 10
125.2498914617431
 20
-150.6853759388911
 10
125.201315615401
 20
-150.710869645482
 10
125.1420599730547
 20
-150.7425645239463
 10
125.0087347777756
 20
-150.8083658477145
 10
125.0087347777756
 20
-150.8083658477145
 10
125.0087347777756
 20
-150.9540933867406
 10
125.0087347777756
 20
-150.9540933867406
 10
125.0087347777756
 20
-150.9540933867406
 10
125.0087347777756
 20
-151.421592844089
 10
125.0087347777756
 20
-151.421592844089
 10
125.0087347777756
 20
-151.5487168674947
 10
124.9725612751805
 20
-151.607972509841
 10
124.6890299167444
 20
-151.5993597711279
 10
124.6890299167444
 20
-151.5993597711279
 10
124.5856770521869
 20
-151.3919650229159
 10
124.5856770521869
 20
-151.3919650229159
 10
124.6490668091155
 20
-151.4047118762113
 10
124.6976426554575
 20
-151.4091905003421
 10
124.7379502726349
 20
-151.4091905003421
 10
124.814086882859
 20
-151.4091905003421
 10
124.8244221693147
 20
-151.3857638510424
 10
124.8244221693147
 20
-151.3203070368227
 10
124.8244221693147
 20
-151.3203070368227
 10
124.8244221693147
 20
-150.890703629812
 10
124.8244221693147
 20
-150.890703629812
 10
124.7272704766307
 20
-150.9310112469894
 10
124.7103895087529
 20
-150.9372124188629
 10
124.6638807197021
 20
-150.9561604440318
 10
124.6597466051198
 20
-150.9775200360403
 10
124.6552679809889
 20
-151.0071478572135
 10
124.6363199558201
 20
-151.0071478572135
 10
124.627707217107
 20
-151.0071478572135
 10
124.6173719306512
 20
-151.0026692330827
 10
124.6108262492292
 20
-150.9795870933315
 10
124.6108262492292
 20
-150.9795870933315
 10
124.5581162883049
 20
-150.787006255706
 10
124.5581162883049
 20
-150.787006255706
 10
124.703843827331
 20
-150.7404974666551
 10
124.7696451510992
 20
-150.717415326904
 10
124.8244221693147
 20
-150.6960557348954
 10
124.8244221693147
 20
-150.6960557348954
 10
124.8244221693147
 20
-150.283677805311
 10
124.8244221693147
 20
-150.283677805311
 10
124.8244221693147
 20
-150.283677805311
 10
124.7717122083904
 20
-150.283677805311
 10
124.7717122083904
 20
-150.283677805311
 10
124.7717122083904
 20
-150.283677805311
 10
124.6935085408752
 20
-150.283677805311
 10
124.6935085408752
 20
-150.283677805311
 10
124.6256401598158
 20
-150.283677805311
 10
124.6173719306512
 20
-150.283677805311
 10
124.5811984280561
 20
-150.2898789771845
 10
124.5811984280561
 20
-150.2898789771845
 10
124.5811984280561
 20
-150.0952310822678
 10
124.5811984280561
 20
-150.0952310822678
 10
124.6087591919381
 20
-150.1017767636898
 10
124.6173719306512
 20
-150.1017767636898
 10
124.6869628594532
 20
-150.1017767636898
 10
124.6869628594532
 20
-150.1017767636898
 10
124.8202880547324
 20
-150.1017767636898
 10
124.8202880547324
 20
-150.1017767636898
 10
124.8202880547324
 20
-150.0318413253392
 10
124.8202880547324
 20
-149.9491590336932
 10
124.8182209974413
 20
-149.945024919111
 10
124.8096082587281
 20
-149.7651909347809
 10
124.8096082587281
 20
-149.746242909612
 10
124.807541201437
 20
-149.6997341205611
 10
124.807541201437
 20
-149.6997341205611
 10
125.0235486883621
 20
-149.7080023497258
 10
125.0235486883621
 20
-149.7080023497258
 10
125.0338839748179
 20
-149.7080023497258
 10
125.0552435668264
 20
-149.7104139165655
 10
125.0552435668264
 20
-149.7272948844432
 10
125.0552435668264
 20
-149.746242909612
 10
125.0404296562399
 20
-149.7569227056163
 10
125.014935949649
 20
-149.7758707307852
 10
125.014935949649
 20
-149.8265136344184
 10
125.0087347777756
 20
-150.0552679746389
 10
125.0108018350667
 20
-150.1017767636898
 10
125.1396484062151
 20
-150.1017767636898
 10
125.1523952595105
 20
-150.1017767636898
 10
125.2498914617431
 20
-150.0931640249767
 10
125.2498914617431
 20
-150.0931640249767
 10
125.2498914617431
 20
-150.2878119198933
 10
125.2498914617431
 20
-150.2878119198933
 10
125.2116509018568
 20
-150.2857448626022
 10
125.1441270303459
 20
-150.2816107480199
 10
125.0087347777756
 20
-150.283677805311
 10
125.0087347777756
 20
-150.283677805311
 10
125.0087347777756
 20
-150.6219861819625
 10
125.0087347777756
 20
-150.6219861819625
 10
125.0635117959911
 20
-150.5989040422114
 10
125.1293131197593
 20
-150.5713432783293
 10
125.1778889661013
 20
-150.5479166290297
 10
125.1778889661013
 20
-150.5479166290297
 10
125.1778889661013
 20
-150.3701497019908
 10
125.1778889661013
 20
-150.3701497019908
 10
125.2922661362116
 20
-150.3828965552862
 10
125.4104329113557
 20
-150.3828965552862
 10
125.5268771387571
 20
-150.3828965552862
 10
125.503794999006
 20
-150.2878119198933
 10
125.476234235124
 20
-150.2051296282473
 10
125.4128444781954
 20
-150.0721489425167
 10
125.3684027464357
 20
-150.0742159998078
 10
125.2857204547897
 20
-150.0783501143901
 10
125.2478244044519
 20
-150.0804171716813
 10
125.2478244044519
 20
-150.0804171716813
 10
125.2478244044519
 20
-149.9005831873512
 10
125.2478244044519
 20
-149.9005831873512
 10
125.3725368610179
 20
-149.9091959260644
 10
125.545825163926
 20
-149.9133300406467
 10
125.628507455572
 20
-149.9133300406467
 10
125.628507455572
 20
-149.9133300406467
 10
125.7108452376695
 20
-149.9133300406467
 10
125.7108452376695
 20
-149.9133300406467
 10
125.7108452376695
 20
-149.7503770241943
 10
125.7108452376695
 20
-149.7400417377386
 10
125.7087781803783
 20
-149.6849202099746
 10
125.7087781803783
 20
-149.6849202099746
 10
125.9330538964681
 20
-149.7104139165655
 10
125.9330538964681
 20
-149.7104139165655
 10
125.9371880110504
 20
-149.7104139165655
 10
125.958547603059
 20
-149.7124809738566
 10
125.958547603059
 20
-149.7293619417343
 10
125.958547603059
 20
-149.7441758523209
 10
125.9478678070547
 20
-149.7524440814855
 10
125.9203070431727
 20
-149.7672579920721
 10
125.9141058712992
 20
-149.8330593158403
 10
125.9120388140081
 20
-149.8540743983004
 10
125.9120388140081
 20
-149.9133300406467
 10
125.9120388140081
 20
-149.9133300406467
 10
126.007123449401
 20
-149.9133300406467
 10
126.007123449401
 20
-149.9133300406467
 10
126.089805741047
 20
-149.9133300406467
 10
126.263094043955
 20
-149.9091959260644
 10
126.3878065005211
 20
-149.9005831873512
 10
126.3878065005211
 20
-149.9005831873512
 10
126.3878065005211
 20
-150.0804171716813
 10
126.3878065005211
 20
-150.0804171716813
 10
126.3581786793479
 20
-150.0783501143901
 10
126.2400119042039
 20
-150.0742159998078
 10
126.1997042870264
 20
-150.0721489425167
 10
126.1848903764399
 20
-150.1227918461498
 10
126.1511284406844
 20
-150.2347574494204
 10
126.0853271169162
 20
-150.3746283261216
 10
126.1277017913847
 20
-150.3746283261216
 10
126.4050319779473
 20
-150.3553357914042
 10
126.4663546775848
 20
-150.353268734113
 10
126.4663546775848
 20
-150.353268734113
 10
126.4663546775848
 20
-150.5375813425739
 10
126.4663546775848
 20
-150.5375813425739
 10
126.4367268564116
 20
-150.5375813425739
 10
126.4198458885339
 20
-150.5331027184431
 10
126.2568928720816
 20
-150.5331027184431
 97
        0
 97
        1
330
14C
 75
     2
 76
     1
 98
        1
 10
0.0
 20
0.0
450
        0
451
        0
460
0.0
461
0.0
452
        0
462
0.0
453
        0
470

  0
SPLINE
  5
14E
330
146
100
AcDbEntity
  8
レイヤー 1
100
AcDbSpline
210
0.0
220
0.0
230
1.0
 70
    11
 71
     3
 72
    17
 73
    13
 74
     0
 42
0.0000000001
 43
0.0000000001
 40
0.0
 40
0.0
 40
0.0
 40
0.0
 40
1.0
 40
1.0
 40
1.0
 40
2.0
 40
2.0
 40
2.0
 40
3.0
 40
3.0
 40
3.0
 40
4.0
 40
4.0
 40
4.0
 40
4.0
 10
128.1131103195342
 20
-151.3327093805696
 30
0.0
 10
128.1131103195342
 20
-151.3327093805696
 30
0.0
 10
127.4065212355095
 20
-151.3327093805696
 30
0.0
 10
127.4065212355095
 20
-151.3327093805696
 30
0.0
 10
127.4065212355095
 20
-151.3327093805696
 30
0.0
 10
127.4065212355095
 20
-151.4470865506799
 30
0.0
 10
127.4065212355095
 20
-151.4470865506799
 30
0.0
 10
127.4065212355095
 20
-151.4470865506799
 30
0.0
 10
128.1131103195342
 20
-151.4470865506799
 30
0.0
 10
128.1131103195342
 20
-151.4470865506799
 30
0.0
 10
128.1131103195342
 20
-151.4470865506799
 30
0.0
 10
128.1131103195342
 20
-151.3327093805696
 30
0.0
 10
128.1131103195342
 20
-151.3327093805696
 30
0.0
  0
SPLINE
  5
14F
330
146
100
AcDbEntity
  8
レイヤー 1
100
AcDbSpline
210
0.0
220
0.0
230
1.0
 70
    11
 71
     3
 72
    17
 73
    13
 74
     0
 42
0.0000000001
 43
0.0000000001
 40
0.0
 40
0.0
 40
0.0
 40
0.0
 40
1.0
 40
1.0
 40
1.0
 40
2.0
 40
2.0
 40
2.0
 40
3.0
 40
3.0
 40
3.0
 40
4.0
 40
4.0
 40
4.0
 40
4.0
 10
128.1131103195342
 20
-151.0894856393109
 30
0.0
 10
128.1131103195342
 20
-151.0894856393109
 30
0.0
 10
127.4065212355095
 20
-151.0894856393109
 30
0.0
 10
127.4065212355095
 20
-151.0894856393109
 30
0.0
 10
127.4065212355095
 20
-151.0894856393109
 30
0.0
 10
127.4065212355095
 20
-151.2038628094212
 30
0.0
 10
127.4065212355095
 20
-151.2038628094212
 30
0.0
 10
127.4065212355095
 20
-151.2038628094212
 30
0.0
 10
128.1131103195342
 20
-151.2038628094212
 30
0.0
 10
128.1131103195342
 20
-151.2038628094212
 30
0.0
 10
128.1131103195342
 20
-151.2038628094212
 30
0.0
 10
128.1131103195342
 20
-151.0894856393109
 30
0.0
 10
128.1131103195342
 20
-151.0894856393109
 30
0.0
  0
SPLINE
  5
150
330
146
100
AcDbEntity
  8
レイヤー 1
100
AcDbSpline
210
0.0
220
0.0
230
1.0
 70
    11
 71
     3
 72
    17
 73
    13
 74
     0
 42
0.0000000001
 43
0.0000000001
 40
0.0
 40
0.0
 40
0.0
 40
0.0
 40
1.0
 40
1.0
 40
1.0
 40
2.0
 40
2.0
 40
2.0
 40
3.0
 40
3.0
 40
3.0
 40
4.0
 40
4.0
 40
4.0
 40
4.0
 10
128.1131103195342
 20
-150.8569416940566
 30
0.0
 10
128.1131103195342
 20
-150.8569416940566
 30
0.0
 10
127.4065212355095
 20
-150.8569416940566
 30
0.0
 10
127.4065212355095
 20
-150.8569416940566
 30
0.0
 10
127.4065212355095
 20
-150.8569416940566
 30
0.0
 10
127.4065212355095
 20
-150.9647731827449
 30
0.0
 10
127.4065212355095
 20
-150.9647731827449
 30
0.0
 10
127.4065212355095
 20
-150.9647731827449
 30
0.0
 10
128.1131103195342
 20
-150.9647731827449
 30
0.0
 10
128.1131103195342
 20
-150.9647731827449
 30
0.0
 10
128.1131103195342
 20
-150.9647731827449
 30
0.0
 10
128.1131103195342
 20
-150.8569416940566
 30
0.0
 10
128.1131103195342
 20
-150.8569416940566
 30
0.0
  0
SPLINE
  5
151
330
146
100
AcDbEntity
  8
レイヤー 1
100
AcDbSpline
210
0.0
220
0.0
230
1.0
 70
     9
 71
     3
 72
   203
 73
   199
 74
     0
 42
0.0000000001
 43
0.0000000001
 40
0.0
 40
0.0
 40
0.0
 40
0.0
 40
1.0
 40
1.0
 40
1.0
 40
2.0
 40
2.0
 40
2.0
 40
3.0
 40
3.0
 40
3.0
 40
4.0
 40
4.0
 40
4.0
 40
5.0
 40
5.0
 40
5.0
 40
6.0
 40
6.0
 40
6.0
 40
7.0
 40
7.0
 40
7.0
 40
8.0
 40
8.0
 40
8.0
 40
9.0
 40
9.0
 40
9.0
 40
10.0
 40
10.0
 40
10.0
 40
11.0
 40
11.0
 40
11.0
 40
12.0
 40
12.0
 40
12.0
 40
13.0
 40
13.0
 40
13.0
 40
14.0
 40
14.0
 40
14.0
 40
15.0
 40
15.0
 40
15.0
 40
16.0
 40
16.0
 40
16.0
 40
17.0
 40
17.0
 40
17.0
 40
18.0
 40
18.0
 40
18.0
 40
19.0
 40
19.0
 40
19.0
 40
20.0
 40
20.0
 40
20.0
 40
21.0
 40
21.0
 40
21.0
 40
22.0
 40
22.0
 40
22.0
 40
23.0
 40
23.0
 40
23.0
 40
24.0
 40
24.0
 40
24.0
 40
25.0
 40
25.0
 40
25.0
 40
26.0
 40
26.0
 40
26.0
 40
27.0
 40
27.0
 40
27.0
 40
28.0
 40
28.0
 40
28.0
 40
29.0
 40
29.0
 40
29.0
 40
30.0
 40
30.0
 40
30.0
 40
31.0
 40
31.0
 40
31.0
 40
32.0
 40
32.0
 40
32.0
 40
33.0
 40
33.0
 40
33.0
 40
34.0
 40
34.0
 40
34.0
 40
35.0
 40
35.0
 40
35.0
 40
36.0
 40
36.0
 40
36.0
 40
37.0
 40
37.0
 40
37.0
 40
38.0
 40
38.0
 40
38.0
 40
39.0
 40
39.0
 40
39.0
 40
40.0
 40
40.0
 40
40.0
 40
41.0
 40
41.0
 40
41.0
 40
42.0
 40
42.0
 40
42.0
 40
43.0
 40
43.0
 40
43.0
 40
44.0
 40
44.0
 40
44.0
 40
45.0
 40
45.0
 40
45.0
 40
46.0
 40
46.0
 40
46.0
 40
47.0
 40
47.0
 40
47.0
 40
48.0
 40
48.0
 40
48.0
 40
49.0
 40
49.0
 40
49.0
 40
50.0
 40
50.0
 40
50.0
 40
51.0
 40
51.0
 40
51.0
 40
52.0
 40
52.0
 40
52.0
 40
53.0
 40
53.0
 40
53.0
 40
54.0
 40
54.0
 40
54.0
 40
55.0
 40
55.0
 40
55.0
 40
56.0
 40
56.0
 40
56.0
 40
57.0
 40
57.0
 40
57.0
 40
58.0
 40
58.0
 40
58.0
 40
59.0
 40
59.0
 40
59.0
 40
60.0
 40
60.0
 40
60.0
 40
61.0
 40
61.0
 40
61.0
 40
62.0
 40
62.0
 40
62.0
 40
63.0
 40
63.0
 40
63.0
 40
64.0
 40
64.0
 40
64.0
 40
65.0
 40
65.0
 40
65.0
 40
66.0
 40
66.0
 40
66.0
 40
66.0
 10
127.9480902457907
 20
-150.6009710995025
 30
0.0
 10
127.9480902457907
 20
-150.6009710995025
 30
0.0
 10
127.3896402676317
 20
-150.6009710995025
 30
0.0
 10
127.3896402676317
 20
-150.6009710995025
 30
0.0
 10
127.379304981176
 20
-150.6454128312622
 30
0.0
 10
127.3706922424629
 20
-150.6771077097265
 30
0.0
 10
127.3579453891674
 20
-150.7150037600643
 30
0.0
 10
127.3834390957583
 20
-150.7150037600643
 30
0.0
 10
127.3982530063449
 20
-150.717415326904
 30
0.0
 10
127.4044541782183
 20
-150.717415326904
 30
0.0
 10
127.4044541782183
 20
-150.717415326904
 30
0.0
 10
127.5929009012615
 20
-150.717415326904
 30
0.0
 10
127.5929009012615
 20
-150.717415326904
 30
0.0
 10
127.5929009012615
 20
-150.717415326904
 30
0.0
 10
127.9673827805081
 20
-150.717415326904
 30
0.0
 10
127.9673827805081
 20
-150.717415326904
 30
0.0
 10
128.0180256841413
 20
-150.717415326904
 30
0.0
 10
128.3015570425774
 20
-150.7046684736085
 30
0.0
 10
128.3332519210417
 20
-150.7046684736085
 30
0.0
 10
128.3311848637505
 20
-150.731884727942
 30
0.0
 10
128.3291178064594
 20
-150.7511772626594
 30
0.0
 10
128.3291178064594
 20
-150.7808050838326
 30
0.0
 10
128.3270507491682
 20
-150.8124999622968
 30
0.0
 10
128.3270507491682
 20
-150.9478922148672
 30
0.0
 10
128.3270507491682
 20
-150.9754529787492
 30
0.0
 10
128.3270507491682
 20
-150.9754529787492
 30
0.0
 10
128.3270507491682
 20
-151.220743777299
 30
0.0
 10
128.3270507491682
 20
-151.220743777299
 30
0.0
 10
128.3270507491682
 20
-151.2651855090587
 30
0.0
 10
128.3311848637505
 20
-151.4619004612665
 30
0.0
 10
128.3353189783328
 20
-151.6141736817145
 30
0.0
 10
128.3353189783328
 20
-151.6141736817145
 30
0.0
 10
128.1089762049519
 20
-151.6141736817145
 30
0.0
 10
128.1089762049519
 20
-151.6141736817145
 30
0.0
 10
128.1089762049519
 20
-151.6141736817145
 30
0.0
 10
128.111043262243
 20
-151.5804117459591
 30
0.0
 10
128.111043262243
 20
-151.5804117459591
 30
0.0
 10
128.111043262243
 20
-151.5804117459591
 30
0.0
 10
127.4089328023491
 20
-151.5804117459591
 30
0.0
 10
127.4089328023491
 20
-151.5804117459591
 30
0.0
 10
127.4089328023491
 20
-151.5804117459591
 30
0.0
 10
127.4109998596403
 20
-151.6141736817145
 30
0.0
 10
127.4109998596403
 20
-151.6141736817145
 30
0.0
 10
127.4109998596403
 20
-151.6141736817145
 30
0.0
 10
127.192925315424
 20
-151.6141736817145
 30
0.0
 10
127.192925315424
 20
-151.6141736817145
 30
0.0
 10
127.1970594300063
 20
-151.5590521539505
 30
0.0
 10
127.1970594300063
 20
-151.5466498102036
 30
0.0
 10
127.2036051114282
 20
-151.4322726400933
 30
0.0
 10
127.2056721687194
 20
-151.4047118762113
 30
0.0
 10
127.2077392260106
 20
-151.2713866809321
 30
0.0
 10
127.2077392260106
 20
-151.2524386557633
 30
0.0
 10
127.2077392260106
 20
-151.2524386557633
 30
0.0
 10
127.2077392260106
 20
-151.049522531682
 30
0.0
 10
127.2077392260106
 20
-151.049522531682
 30
0.0
 10
127.0682128588579
 20
-151.2989474448141
 30
0.0
 10
126.8990586705322
 20
-151.4302055828022
 30
0.0
 10
126.793294239135
 20
-151.4956623970219
 30
0.0
 10
126.793294239135
 20
-151.4956623970219
 30
0.0
 10
126.6196614266784
 20
-151.3561360298693
 30
0.0
 10
126.6196614266784
 20
-151.3561360298693
 30
0.0
 10
126.7085448901978
 20
-151.3054931262361
 30
0.0
 10
126.8525498814813
 20
-151.2186767200078
 30
0.0
 10
126.9900091913428
 20
-151.0240288250912
 30
0.0
 10
127.0809597121534
 20
-150.8969048016855
 30
0.0
 10
127.1464165263731
 20
-150.7532443199506
 30
0.0
 10
127.1801784621285
 20
-150.6009710995025
 30
0.0
 10
126.9517686314565
 20
-150.6030381567937
 30
0.0
 10
126.7719346471265
 20
-150.6092393286671
 30
0.0
 10
126.6768500117336
 20
-150.6113063859583
 30
0.0
 10
126.6768500117336
 20
-150.6113063859583
 30
0.0
 10
126.6768500117336
 20
-150.4338839684679
 30
0.0
 10
126.6768500117336
 20
-150.4338839684679
 30
0.0
 10
126.8735649639413
 20
-150.4400851403414
 30
0.0
 10
127.1570963223774
 20
-150.4442192549236
 30
0.0
 10
127.3073024855343
 20
-150.4442192549236
 30
0.0
 10
127.3073024855343
 20
-150.4442192549236
 30
0.0
 10
127.5208984056197
 20
-150.4442192549236
 30
0.0
 10
127.5208984056197
 20
-150.4442192549236
 30
0.0
 10
127.5208984056197
 20
-150.4442192549236
 30
0.0
 10
127.5208984056197
 20
-150.3363877662353
 30
0.0
 10
127.5208984056197
 20
-150.3363877662353
 30
0.0
 10
127.5208984056197
 20
-150.3363877662353
 30
0.0
 10
127.3748263570452
 20
-150.3363877662353
 30
0.0
 10
127.3748263570452
 20
-150.3363877662353
 30
0.0
 10
127.2056721687194
 20
-150.3363877662353
 30
0.0
 10
127.0365179803936
 20
-150.3405218808176
 30
0.0
 10
126.869430849359
 20
-150.3470675622396
 30
0.0
 10
126.869430849359
 20
-150.3470675622396
 30
0.0
 10
126.869430849359
 20
-150.1758463166227
 30
0.0
 10
126.869430849359
 20
-150.1758463166227
 30
0.0
 10
127.0237711270982
 20
-150.1861816030784
 30
0.0
 10
127.2098062833017
 20
-150.1861816030784
 30
0.0
 10
127.3748263570452
 20
-150.1861816030784
 30
0.0
 10
127.3748263570452
 20
-150.1861816030784
 30
0.0
 10
127.5208984056197
 20
-150.1861816030784
 30
0.0
 10
127.5208984056197
 20
-150.1861816030784
 30
0.0
 10
127.5208984056197
 20
-150.1861816030784
 30
0.0
 10
127.5208984056197
 20
-150.0676703183858
 30
0.0
 10
127.5208984056197
 20
-150.0676703183858
 30
0.0
 10
127.5208984056197
 20
-150.0676703183858
 30
0.0
 10
127.3896402676317
 20
-150.0676703183858
 30
0.0
 10
127.3896402676317
 20
-150.0676703183858
 30
0.0
 10
127.3431314785809
 20
-150.0676703183858
 30
0.0
 10
127.1402153544997
 20
-150.076283057099
 30
0.0
 10
127.0978406800311
 20
-150.076283057099
 30
0.0
 10
126.8945800464013
 20
-150.0804171716813
 30
0.0
 10
126.8184434361773
 20
-150.0824842289724
 30
0.0
 10
126.7402397686621
 20
-150.0845512862636
 30
0.0
 10
126.7402397686621
 20
-150.0845512862636
 30
0.0
 10
126.7402397686621
 20
-149.9005831873512
 30
0.0
 10
126.7402397686621
 20
-149.9005831873512
 30
0.0
 10
126.8546169387724
 20
-149.9091959260644
 30
0.0
 10
126.8990586705322
 20
-149.9091959260644
 30
0.0
 10
127.2818087789434
 20
-149.9174641552289
 30
0.0
 10
127.2184190220148
 20
-149.8223795198361
 30
0.0
 10
127.1908582581328
 20
-149.7948187559541
 30
0.0
 10
127.1550292650862
 20
-149.7589897629074
 30
0.0
 10
127.1550292650862
 20
-149.7589897629074
 30
0.0
 10
127.3303846252854
 20
-149.6763074712615
 30
0.0
 10
127.3303846252854
 20
-149.6763074712615
 30
0.0
 10
127.3706922424629
 20
-149.7124809738566
 30
0.0
 10
127.4151339742226
 20
-149.7548556483252
 30
0.0
 10
127.4892035271555
 20
-149.8647541943046
 30
0.0
 10
127.4892035271555
 20
-149.8647541943046
 30
0.0
 10
127.3748263570452
 20
-149.9195312125201
 30
0.0
 10
127.3748263570452
 20
-149.9195312125201
 30
0.0
 10
127.3748263570452
 20
-149.9195312125201
 30
0.0
 10
127.3855061530494
 20
-149.9195312125201
 30
0.0
 10
127.3855061530494
 20
-149.9195312125201
 30
0.0
 10
127.3855061530494
 20
-149.9195312125201
 30
0.0
 10
127.9081271381618
 20
-149.9195312125201
 30
0.0
 10
127.9081271381618
 20
-149.9195312125201
 30
0.0
 10
127.9081271381618
 20
-149.9195312125201
 30
0.0
 10
127.8126979932204
 20
-149.8754339903089
 30
0.0
 10
127.8126979932204
 20
-149.8754339903089
 30
0.0
 10
127.8402587571024
 20
-149.8371934304226
 30
0.0
 10
127.8974473421576
 20
-149.7569227056163
 30
0.0
 10
127.9122612527441
 20
-149.6828531526834
 30
0.0
 10
127.9122612527441
 20
-149.6828531526834
 30
0.0
 10
128.1258571728296
 20
-149.746242909612
 30
0.0
 10
128.1258571728296
 20
-149.746242909612
 30
0.0
 10
128.1344699115427
 20
-149.7483099669032
 30
0.0
 10
128.1554849940028
 20
-149.7589897629074
 30
0.0
 10
128.1554849940028
 20
-149.7800048453675
 30
0.0
 10
128.1554849940028
 20
-149.8182454052537
 30
0.0
 10
128.090028179783
 20
-149.8182454052537
 30
0.0
 10
128.0710801546142
 20
-149.8182454052537
 30
0.0
 10
128.0604003586099
 20
-149.8371934304226
 30
0.0
 10
128.0369737093102
 20
-149.8775010476
 30
0.0
 10
128.007345888137
 20
-149.9174641552289
 30
0.0
 10
128.4073214739746
 20
-149.9112629833555
 30
0.0
 10
128.4369492951477
 20
-149.9091959260644
 30
0.0
 10
128.5130859053717
 20
-149.9026502446424
 30
0.0
 10
128.5130859053717
 20
-149.9026502446424
 30
0.0
 10
128.5130859053717
 20
-150.0845512862636
 30
0.0
 10
128.5130859053717
 20
-150.0845512862636
 30
0.0
 10
128.4941378802028
 20
-150.0845512862636
 30
0.0
 10
128.468644173612
 20
-150.0824842289724
 30
0.0
 10
128.2485025721045
 20
-150.0742159998078
 30
0.0
 10
128.1978596684714
 20
-150.0721489425167
 30
0.0
 10
127.9777180669639
 20
-150.0676703183858
 30
0.0
 10
127.9332763352042
 20
-150.0676703183858
 30
0.0
 10
127.9332763352042
 20
-150.0676703183858
 30
0.0
 10
127.7176133578275
 20
-150.0676703183858
 30
0.0
 10
127.7176133578275
 20
-150.0676703183858
 30
0.0
 10
127.7176133578275
 20
-150.0676703183858
 30
0.0
 10
127.7176133578275
 20
-150.1861816030784
 30
0.0
 10
127.7176133578275
 20
-150.1861816030784
 30
0.0
 10
127.7176133578275
 20
-150.1861816030784
 30
0.0
 10
127.8912461702841
 20
-150.1861816030784
 30
0.0
 10
127.8912461702841
 20
-150.1861816030784
 30
0.0
 10
128.0538546771879
 20
-150.1861816030784
 30
0.0
 10
128.2443684575222
 20
-150.1861816030784
 30
0.0
 10
128.4011203021011
 20
-150.1758463166227
 30
0.0
 10
128.4011203021011
 20
-150.1758463166227
 30
0.0
 10
128.4011203021011
 20
-150.3470675622396
 30
0.0
 10
128.4011203021011
 20
-150.3470675622396
 30
0.0
 10
128.1916584965979
 20
-150.3384548235265
 30
0.0
 10
127.9949435443901
 20
-150.3363877662353
 30
0.0
 10
127.8912461702841
 20
-150.3363877662353
 30
0.0
 10
127.8912461702841
 20
-150.3363877662353
 30
0.0
 10
127.7176133578275
 20
-150.3363877662353
 30
0.0
 10
127.7176133578275
 20
-150.3363877662353
 30
0.0
 10
127.7176133578275
 20
-150.3363877662353
 30
0.0
 10
127.7176133578275
 20
-150.4442192549236
 30
0.0
 10
127.7176133578275
 20
-150.4442192549236
 30
0.0
 10
127.7176133578275
 20
-150.4442192549236
 30
0.0
 10
127.9480902457907
 20
-150.4442192549236
 30
0.0
 10
127.9480902457907
 20
-150.4442192549236
 30
0.0
 10
128.0814154410699
 20
-150.4442192549236
 30
0.0
 10
128.3690809140883
 20
-150.4400851403414
 30
0.0
 10
128.5785427195914
 20
-150.4338839684679
 30
0.0
 10
128.5785427195914
 20
-150.4338839684679
 30
0.0
 10
128.5785427195914
 20
-150.6113063859583
 30
0.0
 10
128.5785427195914
 20
-150.6113063859583
 30
0.0
 10
128.3863063915145
 20
-150.6051052140848
 30
0.0
 10
128.0731472119053
 20
-150.6009710995025
 30
0.0
 10
127.9480902457907
 20
-150.6009710995025
 30
0.0
  0
HATCH
  5
152
330
146
100
AcDbEntity
  8
レイヤー 1
 62
    18
420
        0
440
 33554687
100
AcDbHatch
 10
0.0
 20
0.0
 30
0.0
210
0.0
220
0.0
230
1.0
  2
SOLID
 70
     1
 71
     1
 91
        4
 92
        1
 93
        1
 72
     4
 94
        3
 73
     0
 74
     0
 95
       17
 96
       13
 40
0.0
 40
0.0
 40
0.0
 40
0.0
 40
1.0
 40
1.0
 40
1.0
 40
2.0
 40
2.0
 40
2.0
 40
3.0
 40
3.0
 40
3.0
 40
4.0
 40
4.0
 40
4.0
 40
4.0
 10
128.1131103195342
 20
-151.3327093805696
 10
128.1131103195342
 20
-151.3327093805696
 10
127.4065212355095
 20
-151.3327093805696
 10
127.4065212355095
 20
-151.3327093805696
 10
127.4065212355095
 20
-151.3327093805696
 10
127.4065212355095
 20
-151.4470865506799
 10
127.4065212355095
 20
-151.4470865506799
 10
127.4065212355095
 20
-151.4470865506799
 10
128.1131103195342
 20
-151.4470865506799
 10
128.1131103195342
 20
-151.4470865506799
 10
128.1131103195342
 20
-151.4470865506799
 10
128.1131103195342
 20
-151.3327093805696
 10
128.1131103195342
 20
-151.3327093805696
 97
        0
 97
        1
330
14E
 92
        1
 93
        1
 72
     4
 94
        3
 73
     0
 74
     0
 95
       17
 96
       13
 40
0.0
 40
0.0
 40
0.0
 40
0.0
 40
1.0
 40
1.0
 40
1.0
 40
2.0
 40
2.0
 40
2.0
 40
3.0
 40
3.0
 40
3.0
 40
4.0
 40
4.0
 40
4.0
 40
4.0
 10
128.1131103195342
 20
-151.0894856393109
 10
128.1131103195342
 20
-151.0894856393109
 10
127.4065212355095
 20
-151.0894856393109
 10
127.4065212355095
 20
-151.0894856393109
 10
127.4065212355095
 20
-151.0894856393109
 10
127.4065212355095
 20
-151.2038628094212
 10
127.4065212355095
 20
-151.2038628094212
 10
127.4065212355095
 20
-151.2038628094212
 10
128.1131103195342
 20
-151.2038628094212
 10
128.1131103195342
 20
-151.2038628094212
 10
128.1131103195342
 20
-151.2038628094212
 10
128.1131103195342
 20
-151.0894856393109
 10
128.1131103195342
 20
-151.0894856393109
 97
        0
 97
        1
330
14F
 92
        1
 93
        1
 72
     4
 94
        3
 73
     0
 74
     0
 95
       17
 96
       13
 40
0.0
 40
0.0
 40
0.0
 40
0.0
 40
1.0
 40
1.0
 40
1.0
 40
2.0
 40
2.0
 40
2.0
 40
3.0
 40
3.0
 40
3.0
 40
4.0
 40
4.0
 40
4.0
 40
4.0
 10
128.1131103195342
 20
-150.8569416940566
 10
128.1131103195342
 20
-150.8569416940566
 10
127.4065212355095
 20
-150.8569416940566
 10
127.4065212355095
 20
-150.8569416940566
 10
127.4065212355095
 20
-150.8569416940566
 10
127.4065212355095
 20
-150.9647731827449
 10
127.4065212355095
 20
-150.9647731827449
 10
127.4065212355095
 20
-150.9647731827449
 10
128.1131103195342
 20
-150.9647731827449
 10
128.1131103195342
 20
-150.9647731827449
 10
128.1131103195342
 20
-150.9647731827449
 10
128.1131103195342
 20
-150.8569416940566
 10
128.1131103195342
 20
-150.8569416940566
 97
        0
 97
        1
330
150
 92
        1
 93
        1
 72
     4
 94
        3
 73
     0
 74
     0
 95
      203
 96
      199
 40
0.0
 40
0.0
 40
0.0
 40
0.0
 40
1.0
 40
1.0
 40
1.0
 40
2.0
 40
2.0
 40
2.0
 40
3.0
 40
3.0
 40
3.0
 40
4.0
 40
4.0
 40
4.0
 40
5.0
 40
5.0
 40
5.0
 40
6.0
 40
6.0
 40
6.0
 40
7.0
 40
7.0
 40
7.0
 40
8.0
 40
8.0
 40
8.0
 40
9.0
 40
9.0
 40
9.0
 40
10.0
 40
10.0
 40
10.0
 40
11.0
 40
11.0
 40
11.0
 40
12.0
 40
12.0
 40
12.0
 40
13.0
 40
13.0
 40
13.0
 40
14.0
 40
14.0
 40
14.0
 40
15.0
 40
15.0
 40
15.0
 40
16.0
 40
16.0
 40
16.0
 40
17.0
 40
17.0
 40
17.0
 40
18.0
 40
18.0
 40
18.0
 40
19.0
 40
19.0
 40
19.0
 40
20.0
 40
20.0
 40
20.0
 40
21.0
 40
21.0
 40
21.0
 40
22.0
 40
22.0
 40
22.0
 40
23.0
 40
23.0
 40
23.0
 40
24.0
 40
24.0
 40
24.0
 40
25.0
 40
25.0
 40
25.0
 40
26.0
 40
26.0
 40
26.0
 40
27.0
 40
27.0
 40
27.0
 40
28.0
 40
28.0
 40
28.0
 40
29.0
 40
29.0
 40
29.0
 40
30.0
 40
30.0
 40
30.0
 40
31.0
 40
31.0
 40
31.0
 40
32.0
 40
32.0
 40
32.0
 40
33.0
 40
33.0
 40
33.0
 40
34.0
 40
34.0
 40
34.0
 40
35.0
 40
35.0
 40
35.0
 40
36.0
 40
36.0
 40
36.0
 40
37.0
 40
37.0
 40
37.0
 40
38.0
 40
38.0
 40
38.0
 40
39.0
 40
39.0
 40
39.0
 40
40.0
 40
40.0
 40
40.0
 40
41.0
 40
41.0
 40
41.0
 40
42.0
 40
42.0
 40
42.0
 40
43.0
 40
43.0
 40
43.0
 40
44.0
 40
44.0
 40
44.0
 40
45.0
 40
45.0
 40
45.0
 40
46.0
 40
46.0
 40
46.0
 40
47.0
 40
47.0
 40
47.0
 40
48.0
 40
48.0
 40
48.0
 40
49.0
 40
49.0
 40
49.0
 40
50.0
 40
50.0
 40
50.0
 40
51.0
 40
51.0
 40
51.0
 40
52.0
 40
52.0
 40
52.0
 40
53.0
 40
53.0
 40
53.0
 40
54.0
 40
54.0
 40
54.0
 40
55.0
 40
55.0
 40
55.0
 40
56.0
 40
56.0
 40
56.0
 40
57.0
 40
57.0
 40
57.0
 40
58.0
 40
58.0
 40
58.0
 40
59.0
 40
59.0
 40
59.0
 40
60.0
 40
60.0
 40
60.0
 40
61.0
 40
61.0
 40
61.0
 40
62.0
 40
62.0
 40
62.0
 40
63.0
 40
63.0
 40
63.0
 40
64.0
 40
64.0
 40
64.0
 40
65.0
 40
65.0
 40
65.0
 40
66.0
 40
66.0
 40
66.0
 40
66.0
 10
127.9480902457907
 20
-150.6009710995025
 10
127.9480902457907
 20
-150.6009710995025
 10
127.3896402676317
 20
-150.6009710995025
 10
127.3896402676317
 20
-150.6009710995025
 10
127.379304981176
 20
-150.6454128312622
 10
127.3706922424629
 20
-150.6771077097265
 10
127.3579453891674
 20
-150.7150037600643
 10
127.3834390957583
 20
-150.7150037600643
 10
127.3982530063449
 20
-150.717415326904
 10
127.4044541782183
 20
-150.717415326904
 10
127.4044541782183
 20
-150.717415326904
 10
127.5929009012615
 20
-150.717415326904
 10
127.5929009012615
 20
-150.717415326904
 10
127.5929009012615
 20
-150.717415326904
 10
127.9673827805081
 20
-150.717415326904
 10
127.9673827805081
 20
-150.717415326904
 10
128.0180256841413
 20
-150.717415326904
 10
128.3015570425774
 20
-150.7046684736085
 10
128.3332519210417
 20
-150.7046684736085
 10
128.3311848637505
 20
-150.731884727942
 10
128.3291178064594
 20
-150.7511772626594
 10
128.3291178064594
 20
-150.7808050838326
 10
128.3270507491682
 20
-150.8124999622968
 10
128.3270507491682
 20
-150.9478922148672
 10
128.3270507491682
 20
-150.9754529787492
 10
128.3270507491682
 20
-150.9754529787492
 10
128.3270507491682
 20
-151.220743777299
 10
128.3270507491682
 20
-151.220743777299
 10
128.3270507491682
 20
-151.2651855090587
 10
128.3311848637505
 20
-151.4619004612665
 10
128.3353189783328
 20
-151.6141736817145
 10
128.3353189783328
 20
-151.6141736817145
 10
128.1089762049519
 20
-151.6141736817145
 10
128.1089762049519
 20
-151.6141736817145
 10
128.1089762049519
 20
-151.6141736817145
 10
128.111043262243
 20
-151.5804117459591
 10
128.111043262243
 20
-151.5804117459591
 10
128.111043262243
 20
-151.5804117459591
 10
127.4089328023491
 20
-151.5804117459591
 10
127.4089328023491
 20
-151.5804117459591
 10
127.4089328023491
 20
-151.5804117459591
 10
127.4109998596403
 20
-151.6141736817145
 10
127.4109998596403
 20
-151.6141736817145
 10
127.4109998596403
 20
-151.6141736817145
 10
127.192925315424
 20
-151.6141736817145
 10
127.192925315424
 20
-151.6141736817145
 10
127.1970594300063
 20
-151.5590521539505
 10
127.1970594300063
 20
-151.5466498102036
 10
127.2036051114282
 20
-151.4322726400933
 10
127.2056721687194
 20
-151.4047118762113
 10
127.2077392260106
 20
-151.2713866809321
 10
127.2077392260106
 20
-151.2524386557633
 10
127.2077392260106
 20
-151.2524386557633
 10
127.2077392260106
 20
-151.049522531682
 10
127.2077392260106
 20
-151.049522531682
 10
127.0682128588579
 20
-151.2989474448141
 10
126.8990586705322
 20
-151.4302055828022
 10
126.793294239135
 20
-151.4956623970219
 10
126.793294239135
 20
-151.4956623970219
 10
126.6196614266784
 20
-151.3561360298693
 10
126.6196614266784
 20
-151.3561360298693
 10
126.7085448901978
 20
-151.3054931262361
 10
126.8525498814813
 20
-151.2186767200078
 10
126.9900091913428
 20
-151.0240288250912
 10
127.0809597121534
 20
-150.8969048016855
 10
127.1464165263731
 20
-150.7532443199506
 10
127.1801784621285
 20
-150.6009710995025
 10
126.9517686314565
 20
-150.6030381567937
 10
126.7719346471265
 20
-150.6092393286671
 10
126.6768500117336
 20
-150.6113063859583
 10
126.6768500117336
 20
-150.6113063859583
 10
126.6768500117336
 20
-150.4338839684679
 10
126.6768500117336
 20
-150.4338839684679
 10
126.8735649639413
 20
-150.4400851403414
 10
127.1570963223774
 20
-150.4442192549236
 10
127.3073024855343
 20
-150.4442192549236
 10
127.3073024855343
 20
-150.4442192549236
 10
127.5208984056197
 20
-150.4442192549236
 10
127.5208984056197
 20
-150.4442192549236
 10
127.5208984056197
 20
-150.4442192549236
 10
127.5208984056197
 20
-150.3363877662353
 10
127.5208984056197
 20
-150.3363877662353
 10
127.5208984056197
 20
-150.3363877662353
 10
127.3748263570452
 20
-150.3363877662353
 10
127.3748263570452
 20
-150.3363877662353
 10
127.2056721687194
 20
-150.3363877662353
 10
127.0365179803936
 20
-150.3405218808176
 10
126.869430849359
 20
-150.3470675622396
 10
126.869430849359
 20
-150.3470675622396
 10
126.869430849359
 20
-150.1758463166227
 10
126.869430849359
 20
-150.1758463166227
 10
127.0237711270982
 20
-150.1861816030784
 10
127.2098062833017
 20
-150.1861816030784
 10
127.3748263570452
 20
-150.1861816030784
 10
127.3748263570452
 20
-150.1861816030784
 10
127.5208984056197
 20
-150.1861816030784
 10
127.5208984056197
 20
-150.1861816030784
 10
127.5208984056197
 20
-150.1861816030784
 10
127.5208984056197
 20
-150.0676703183858
 10
127.5208984056197
 20
-150.0676703183858
 10
127.5208984056197
 20
-150.0676703183858
 10
127.3896402676317
 20
-150.0676703183858
 10
127.3896402676317
 20
-150.0676703183858
 10
127.3431314785809
 20
-150.0676703183858
 10
127.1402153544997
 20
-150.076283057099
 10
127.0978406800311
 20
-150.076283057099
 10
126.8945800464013
 20
-150.0804171716813
 10
126.8184434361773
 20
-150.0824842289724
 10
126.7402397686621
 20
-150.0845512862636
 10
126.7402397686621
 20
-150.0845512862636
 10
126.7402397686621
 20
-149.9005831873512
 10
126.7402397686621
 20
-149.9005831873512
 10
126.8546169387724
 20
-149.9091959260644
 10
126.8990586705322
 20
-149.9091959260644
 10
127.2818087789434
 20
-149.9174641552289
 10
127.2184190220148
 20
-149.8223795198361
 10
127.1908582581328
 20
-149.7948187559541
 10
127.1550292650862
 20
-149.7589897629074
 10
127.1550292650862
 20
-149.7589897629074
 10
127.3303846252854
 20
-149.6763074712615
 10
127.3303846252854
 20
-149.6763074712615
 10
127.3706922424629
 20
-149.7124809738566
 10
127.4151339742226
 20
-149.7548556483252
 10
127.4892035271555
 20
-149.8647541943046
 10
127.4892035271555
 20
-149.8647541943046
 10
127.3748263570452
 20
-149.9195312125201
 10
127.3748263570452
 20
-149.9195312125201
 10
127.3748263570452
 20
-149.9195312125201
 10
127.3855061530494
 20
-149.9195312125201
 10
127.3855061530494
 20
-149.9195312125201
 10
127.3855061530494
 20
-149.9195312125201
 10
127.9081271381618
 20
-149.9195312125201
 10
127.9081271381618
 20
-149.9195312125201
 10
127.9081271381618
 20
-149.9195312125201
 10
127.8126979932204
 20
-149.8754339903089
 10
127.8126979932204
 20
-149.8754339903089
 10
127.8402587571024
 20
-149.8371934304226
 10
127.8974473421576
 20
-149.7569227056163
 10
127.9122612527441
 20
-149.6828531526834
 10
127.9122612527441
 20
-149.6828531526834
 10
128.1258571728296
 20
-149.746242909612
 10
128.1258571728296
 20
-149.746242909612
 10
128.1344699115427
 20
-149.7483099669032
 10
128.1554849940028
 20
-149.7589897629074
 10
128.1554849940028
 20
-149.7800048453675
 10
128.1554849940028
 20
-149.8182454052537
 10
128.090028179783
 20
-149.8182454052537
 10
128.0710801546142
 20
-149.8182454052537
 10
128.0604003586099
 20
-149.8371934304226
 10
128.0369737093102
 20
-149.8775010476
 10
128.007345888137
 20
-149.9174641552289
 10
128.4073214739746
 20
-149.9112629833555
 10
128.4369492951477
 20
-149.9091959260644
 10
128.5130859053717
 20
-149.9026502446424
 10
128.5130859053717
 20
-149.9026502446424
 10
128.5130859053717
 20
-150.0845512862636
 10
128.5130859053717
 20
-150.0845512862636
 10
128.4941378802028
 20
-150.0845512862636
 10
128.468644173612
 20
-150.0824842289724
 10
128.2485025721045
 20
-150.0742159998078
 10
128.1978596684714
 20
-150.0721489425167
 10
127.9777180669639
 20
-150.0676703183858
 10
127.9332763352042
 20
-150.0676703183858
 10
127.9332763352042
 20
-150.0676703183858
 10
127.7176133578275
 20
-150.0676703183858
 10
127.7176133578275
 20
-150.0676703183858
 10
127.7176133578275
 20
-150.0676703183858
 10
127.7176133578275
 20
-150.1861816030784
 10
127.7176133578275
 20
-150.1861816030784
 10
127.7176133578275
 20
-150.1861816030784
 10
127.8912461702841
 20
-150.1861816030784
 10
127.8912461702841
 20
-150.1861816030784
 10
128.0538546771879
 20
-150.1861816030784
 10
128.2443684575222
 20
-150.1861816030784
 10
128.4011203021011
 20
-150.1758463166227
 10
128.4011203021011
 20
-150.1758463166227
 10
128.4011203021011
 20
-150.3470675622396
 10
128.4011203021011
 20
-150.3470675622396
 10
128.1916584965979
 20
-150.3384548235265
 10
127.9949435443901
 20
-150.3363877662353
 10
127.8912461702841
 20
-150.3363877662353
 10
127.8912461702841
 20
-150.3363877662353
 10
127.7176133578275
 20
-150.3363877662353
 10
127.7176133578275
 20
-150.3363877662353
 10
127.7176133578275
 20
-150.3363877662353
 10
127.7176133578275
 20
-150.4442192549236
 10
127.7176133578275
 20
-150.4442192549236
 10
127.7176133578275
 20
-150.4442192549236
 10
127.9480902457907
 20
-150.4442192549236
 10
127.9480902457907
 20
-150.4442192549236
 10
128.0814154410699
 20
-150.4442192549236
 10
128.3690809140883
 20
-150.4400851403414
 10
128.5785427195914
 20
-150.4338839684679
 10
128.5785427195914
 20
-150.4338839684679
 10
128.5785427195914
 20
-150.6113063859583
 10
128.5785427195914
 20
-150.6113063859583
 10
128.3863063915145
 20
-150.6051052140848
 10
128.0731472119053
 20
-150.6009710995025
 10
127.9480902457907
 20
-150.6009710995025
 97
        0
 97
        1
330
151
 75
     2
 76
     1
 98
        1
 10
0.0
 20
0.0
450
        0
451
        0
460
0.0
461
0.0
452
        0
462
0.0
453
        0
470

  0
SPLINE
  5
153
330
146
100
AcDbEntity
  8
レイヤー 1
100
AcDbSpline
210
0.0
220
0.0
230
1.0
 70
     9
 71
     3
 72
    29
 73
    25
 74
     0
 42
0.0000000001
 43
0.0000000001
 40
0.0
 40
0.0
 40
0.0
 40
0.0
 40
1.0
 40
1.0
 40
1.0
 40
2.0
 40
2.0
 40
2.0
 40
3.0
 40
3.0
 40
3.0
 40
4.0
 40
4.0
 40
4.0
 40
5.0
 40
5.0
 40
5.0
 40
6.0
 40
6.0
 40
6.0
 40
7.0
 40
7.0
 40
7.0
 40
8.0
 40
8.0
 40
8.0
 40
8.0
 10
129.8236002279607
 20
-150.048722293217
 30
0.0
 10
129.8236002279607
 20
-150.048722293217
 30
0.0
 10
129.4704779407227
 20
-150.048722293217
 30
0.0
 10
129.4704779407227
 20
-150.048722293217
 30
0.0
 10
129.3581678279035
 20
-150.048722293217
 30
0.0
 10
129.2186414607509
 20
-150.0552679746389
 30
0.0
 10
129.1108099720626
 20
-150.0676703183858
 30
0.0
 10
129.1108099720626
 20
-150.0676703183858
 30
0.0
 10
129.1108099720626
 20
-149.8330593158403
 30
0.0
 10
129.1108099720626
 20
-149.8330593158403
 30
0.0
 10
129.2293212567552
 20
-149.8478732264269
 30
0.0
 10
129.4132893556675
 20
-149.8520073410092
 30
0.0
 10
129.4704779407227
 20
-149.8520073410092
 30
0.0
 10
129.4704779407227
 20
-149.8520073410092
 30
0.0
 10
129.8236002279607
 20
-149.8520073410092
 30
0.0
 10
129.8236002279607
 20
-149.8520073410092
 30
0.0
 10
129.8428927626781
 20
-149.8520073410092
 30
0.0
 10
130.0458088867594
 20
-149.8520073410092
 30
0.0
 10
130.1874023112031
 20
-149.8330593158403
 30
0.0
 10
130.1874023112031
 20
-149.8330593158403
 30
0.0
 10
130.1874023112031
 20
-150.0676703183858
 30
0.0
 10
130.1874023112031
 20
-150.0676703183858
 30
0.0
 10
130.0309949761728
 20
-150.048722293217
 30
0.0
 10
129.8404811958385
 20
-150.048722293217
 30
0.0
 10
129.8236002279607
 20
-150.048722293217
 30
0.0
  0
SPLINE
  5
154
330
146
100
AcDbEntity
  8
レイヤー 1
100
AcDbSpline
210
0.0
220
0.0
230
1.0
 70
     9
 71
     3
 72
    47
 73
    43
 74
     0
 42
0.0000000001
 43
0.0000000001
 40
0.0
 40
0.0
 40
0.0
 40
0.0
 40
1.0
 40
1.0
 40
1.0
 40
2.0
 40
2.0
 40
2.0
 40
3.0
 40
3.0
 40
3.0
 40
4.0
 40
4.0
 40
4.0
 40
5.0
 40
5.0
 40
5.0
 40
6.0
 40
6.0
 40
6.0
 40
7.0
 40
7.0
 40
7.0
 40
8.0
 40
8.0
 40
8.0
 40
9.0
 40
9.0
 40
9.0
 40
10.0
 40
10.0
 40
10.0
 40
11.0
 40
11.0
 40
11.0
 40
12.0
 40
12.0
 40
12.0
 40
13.0
 40
13.0
 40
13.0
 40
14.0
 40
14.0
 40
14.0
 40
14.0
 10
129.9252305447756
 20
-150.5775444502028
 30
0.0
 10
129.9252305447756
 20
-150.5775444502028
 30
0.0
 10
129.8236002279607
 20
-150.5775444502028
 30
0.0
 10
129.8236002279607
 20
-150.5775444502028
 30
0.0
 10
129.8236002279607
 20
-150.6643608564311
 30
0.0
 10
129.8025851455007
 20
-151.0536566462643
 30
0.0
 10
129.605870193293
 20
-151.2734537382233
 30
0.0
 10
129.4535969728449
 20
-151.4429524360976
 30
0.0
 10
129.2462022246329
 20
-151.5125433648996
 30
0.0
 10
129.1614528756957
 20
-151.5401041287816
 30
0.0
 10
129.1614528756957
 20
-151.5401041287816
 30
0.0
 10
128.9668049807791
 20
-151.373016997747
 30
0.0
 10
128.9668049807791
 20
-151.373016997747
 30
0.0
 10
129.0643011830117
 20
-151.3602701444516
 30
0.0
 10
129.2396565432109
 20
-151.3371880047004
 30
0.0
 10
129.4281032662541
 20
-151.1487412816572
 30
0.0
 10
129.5021728191869
 20
-151.0767387860155
 30
0.0
 10
129.605870193293
 20
-150.9372124188629
 30
0.0
 10
129.605870193293
 20
-150.5775444502028
 30
0.0
 10
129.605870193293
 20
-150.5775444502028
 30
0.0
 10
129.3750487957812
 20
-150.5775444502028
 30
0.0
 10
129.3750487957812
 20
-150.5775444502028
 30
0.0
 10
129.1890136395777
 20
-150.5775444502028
 30
0.0
 10
129.0029784833742
 20
-150.5820230743337
 30
0.0
 10
128.8165988176222
 20
-150.5968369849202
 30
0.0
 10
128.8165988176222
 20
-150.5968369849202
 30
0.0
 10
128.8165988176222
 20
-150.3766953834127
 30
0.0
 10
128.8165988176222
 20
-150.3766953834127
 30
0.0
 10
129.0050455406654
 20
-150.3915092939993
 30
0.0
 10
129.2906439563926
 20
-150.3956434085816
 30
0.0
 10
129.3750487957812
 20
-150.3956434085816
 30
0.0
 10
129.3750487957812
 20
-150.3956434085816
 30
0.0
 10
129.9252305447756
 20
-150.3956434085816
 30
0.0
 10
129.9252305447756
 20
-150.3956434085816
 30
0.0
 10
129.9441785699445
 20
-150.3956434085816
 30
0.0
 10
130.261471864136
 20
-150.3956434085816
 30
0.0
 10
130.4902262043566
 20
-150.3766953834127
 30
0.0
 10
130.4902262043566
 20
-150.3766953834127
 30
0.0
 10
130.4902262043566
 20
-150.5968369849202
 30
0.0
 10
130.4902262043566
 20
-150.5968369849202
 30
0.0
 10
130.3017794813134
 20
-150.5820230743337
 30
0.0
 10
130.1136772678188
 20
-150.5775444502028
 30
0.0
 10
129.9252305447756
 20
-150.5775444502028
 30
0.0
  0
HATCH
  5
155
330
146
100
AcDbEntity
  8
レイヤー 1
 62
    18
420
        0
440
 33554687
100
AcDbHatch
 10
0.0
 20
0.0
 30
0.0
210
0.0
220
0.0
230
1.0
  2
SOLID
 70
     1
 71
     1
 91
        2
 92
        1
 93
        1
 72
     4
 94
        3
 73
     0
 74
     0
 95
       29
 96
       25
 40
0.0
 40
0.0
 40
0.0
 40
0.0
 40
1.0
 40
1.0
 40
1.0
 40
2.0
 40
2.0
 40
2.0
 40
3.0
 40
3.0
 40
3.0
 40
4.0
 40
4.0
 40
4.0
 40
5.0
 40
5.0
 40
5.0
 40
6.0
 40
6.0
 40
6.0
 40
7.0
 40
7.0
 40
7.0
 40
8.0
 40
8.0
 40
8.0
 40
8.0
 10
129.8236002279607
 20
-150.048722293217
 10
129.8236002279607
 20
-150.048722293217
 10
129.4704779407227
 20
-150.048722293217
 10
129.4704779407227
 20
-150.048722293217
 10
129.3581678279035
 20
-150.048722293217
 10
129.2186414607509
 20
-150.0552679746389
 10
129.1108099720626
 20
-150.0676703183858
 10
129.1108099720626
 20
-150.0676703183858
 10
129.1108099720626
 20
-149.8330593158403
 10
129.1108099720626
 20
-149.8330593158403
 10
129.2293212567552
 20
-149.8478732264269
 10
129.4132893556675
 20
-149.8520073410092
 10
129.4704779407227
 20
-149.8520073410092
 10
129.4704779407227
 20
-149.8520073410092
 10
129.8236002279607
 20
-149.8520073410092
 10
129.8236002279607
 20
-149.8520073410092
 10
129.8428927626781
 20
-149.8520073410092
 10
130.0458088867594
 20
-149.8520073410092
 10
130.1874023112031
 20
-149.8330593158403
 10
130.1874023112031
 20
-149.8330593158403
 10
130.1874023112031
 20
-150.0676703183858
 10
130.1874023112031
 20
-150.0676703183858
 10
130.0309949761728
 20
-150.048722293217
 10
129.8404811958385
 20
-150.048722293217
 10
129.8236002279607
 20
-150.048722293217
 97
        0
 97
        1
330
153
 92
        1
 93
        1
 72
     4
 94
        3
 73
     0
 74
     0
 95
       47
 96
       43
 40
0.0
 40
0.0
 40
0.0
 40
0.0
 40
1.0
 40
1.0
 40
1.0
 40
2.0
 40
2.0
 40
2.0
 40
3.0
 40
3.0
 40
3.0
 40
4.0
 40
4.0
 40
4.0
 40
5.0
 40
5.0
 40
5.0
 40
6.0
 40
6.0
 40
6.0
 40
7.0
 40
7.0
 40
7.0
 40
8.0
 40
8.0
 40
8.0
 40
9.0
 40
9.0
 40
9.0
 40
10.0
 40
10.0
 40
10.0
 40
11.0
 40
11.0
 40
11.0
 40
12.0
 40
12.0
 40
12.0
 40
13.0
 40
13.0
 40
13.0
 40
14.0
 40
14.0
 40
14.0
 40
14.0
 10
129.9252305447756
 20
-150.5775444502028
 10
129.9252305447756
 20
-150.5775444502028
 10
129.8236002279607
 20
-150.5775444502028
 10
129.8236002279607
 20
-150.5775444502028
 10
129.8236002279607
 20
-150.6643608564311
 10
129.8025851455007
 20
-151.0536566462643
 10
129.605870193293
 20
-151.2734537382233
 10
129.4535969728449
 20
-151.4429524360976
 10
129.2462022246329
 20
-151.5125433648996
 10
129.1614528756957
 20
-151.5401041287816
 10
129.1614528756957
 20
-151.5401041287816
 10
128.9668049807791
 20
-151.373016997747
 10
128.9668049807791
 20
-151.373016997747
 10
129.0643011830117
 20
-151.3602701444516
 10
129.2396565432109
 20
-151.3371880047004
 10
129.4281032662541
 20
-151.1487412816572
 10
129.5021728191869
 20
-151.0767387860155
 10
129.605870193293
 20
-150.9372124188629
 10
129.605870193293
 20
-150.5775444502028
 10
129.605870193293
 20
-150.5775444502028
 10
129.3750487957812
 20
-150.5775444502028
 10
129.3750487957812
 20
-150.5775444502028
 10
129.1890136395777
 20
-150.5775444502028
 10
129.0029784833742
 20
-150.5820230743337
 10
128.8165988176222
 20
-150.5968369849202
 10
128.8165988176222
 20
-150.5968369849202
 10
128.8165988176222
 20
-150.3766953834127
 10
128.8165988176222
 20
-150.3766953834127
 10
129.0050455406654
 20
-150.3915092939993
 10
129.2906439563926
 20
-150.3956434085816
 10
129.3750487957812
 20
-150.3956434085816
 10
129.3750487957812
 20
-150.3956434085816
 10
129.9252305447756
 20
-150.3956434085816
 10
129.9252305447756
 20
-150.3956434085816
 10
129.9441785699445
 20
-150.3956434085816
 10
130.261471864136
 20
-150.3956434085816
 10
130.4902262043566
 20
-150.3766953834127
 10
130.4902262043566
 20
-150.3766953834127
 10
130.4902262043566
 20
-150.5968369849202
 10
130.4902262043566
 20
-150.5968369849202
 10
130.3017794813134
 20
-150.5820230743337
 10
130.1136772678188
 20
-150.5775444502028
 10
129.9252305447756
 20
-150.5775444502028
 97
        0
 97
        1
330
154
 75
     2
 76
     1
 98
        1
 10
0.0
 20
0.0
450
        0
451
        0
460
0.0
461
0.0
452
        0
462
0.0
453
        0
470

  0
SPLINE
  5
156
330
146
100
AcDbEntity
  8
レイヤー 1
100
AcDbSpline
210
0.0
220
0.0
230
1.0
 70
     9
 71
     3
 72
    29
 73
    25
 74
     0
 42
0.0000000001
 43
0.0000000001
 40
0.0
 40
0.0
 40
0.0
 40
0.0
 40
1.0
 40
1.0
 40
1.0
 40
2.0
 40
2.0
 40
2.0
 40
3.0
 40
3.0
 40
3.0
 40
4.0
 40
4.0
 40
4.0
 40
5.0
 40
5.0
 40
5.0
 40
6.0
 40
6.0
 40
6.0
 40
7.0
 40
7.0
 40
7.0
 40
8.0
 40
8.0
 40
8.0
 40
8.0
 10
131.7711127057725
 20
-150.7404974666551
 30
0.0
 10
131.7711127057725
 20
-150.7404974666551
 30
0.0
 10
131.2867322805463
 20
-150.7404974666551
 30
0.0
 10
131.2867322805463
 20
-150.7404974666551
 30
0.0
 10
131.2591715166643
 20
-150.7404974666551
 30
0.0
 10
130.9418782224728
 20
-150.7404974666551
 30
0.0
 10
130.7303493596785
 20
-150.765991173246
 30
0.0
 10
130.7303493596785
 20
-150.765991173246
 30
0.0
 10
130.7303493596785
 20
-150.5351697757342
 30
0.0
 10
130.7303493596785
 20
-150.5351697757342
 30
0.0
 10
130.888823752
 20
-150.558596425034
 30
0.0
 10
131.0793375323343
 20
-150.5606634823251
 30
0.0
 10
131.2867322805463
 20
-150.5606634823251
 30
0.0
 10
131.2867322805463
 20
-150.5606634823251
 30
0.0
 10
131.7711127057725
 20
-150.5606634823251
 30
0.0
 10
131.7711127057725
 20
-150.5606634823251
 30
0.0
 10
131.957147861976
 20
-150.5606634823251
 30
0.0
 10
132.1431830181795
 20
-150.558596425034
 30
0.0
 10
132.3274956266403
 20
-150.5351697757342
 30
0.0
 10
132.3274956266403
 20
-150.5351697757342
 30
0.0
 10
132.3274956266403
 20
-150.765991173246
 30
0.0
 10
132.3274956266403
 20
-150.765991173246
 30
0.0
 10
132.1431830181795
 20
-150.7425645239463
 30
0.0
 10
131.8958251623385
 20
-150.7404974666551
 30
0.0
 10
131.7711127057725
 20
-150.7404974666551
 30
0.0
  0
HATCH
  5
157
330
146
100
AcDbEntity
  8
レイヤー 1
 62
    18
420
        0
440
 33554687
100
AcDbHatch
 10
0.0
 20
0.0
 30
0.0
210
0.0
220
0.0
230
1.0
  2
SOLID
 70
     1
 71
     1
 91
        1
 92
        1
 93
        1
 72
     4
 94
        3
 73
     0
 74
     0
 95
       29
 96
       25
 40
0.0
 40
0.0
 40
0.0
 40
0.0
 40
1.0
 40
1.0
 40
1.0
 40
2.0
 40
2.0
 40
2.0
 40
3.0
 40
3.0
 40
3.0
 40
4.0
 40
4.0
 40
4.0
 40
5.0
 40
5.0
 40
5.0
 40
6.0
 40
6.0
 40
6.0
 40
7.0
 40
7.0
 40
7.0
 40
8.0
 40
8.0
 40
8.0
 40
8.0
 10
131.7711127057725
 20
-150.7404974666551
 10
131.7711127057725
 20
-150.7404974666551
 10
131.2867322805463
 20
-150.7404974666551
 10
131.2867322805463
 20
-150.7404974666551
 10
131.2591715166643
 20
-150.7404974666551
 10
130.9418782224728
 20
-150.7404974666551
 10
130.7303493596785
 20
-150.765991173246
 10
130.7303493596785
 20
-150.765991173246
 10
130.7303493596785
 20
-150.5351697757342
 10
130.7303493596785
 20
-150.5351697757342
 10
130.888823752
 20
-150.558596425034
 10
131.0793375323343
 20
-150.5606634823251
 10
131.2867322805463
 20
-150.5606634823251
 10
131.2867322805463
 20
-150.5606634823251
 10
131.7711127057725
 20
-150.5606634823251
 10
131.7711127057725
 20
-150.5606634823251
 10
131.957147861976
 20
-150.5606634823251
 10
132.1431830181795
 20
-150.558596425034
 10
132.3274956266403
 20
-150.5351697757342
 10
132.3274956266403
 20
-150.5351697757342
 10
132.3274956266403
 20
-150.765991173246
 10
132.3274956266403
 20
-150.765991173246
 10
132.1431830181795
 20
-150.7425645239463
 10
131.8958251623385
 20
-150.7404974666551
 10
131.7711127057725
 20
-150.7404974666551
 97
        0
 97
        1
330
156
 75
     2
 76
     1
 98
        1
 10
0.0
 20
0.0
450
        0
451
        0
460
0.0
461
0.0
452
        0
462
0.0
453
        0
470

  0
SPLINE
  5
158
330
146
100
AcDbEntity
  8
レイヤー 1
100
AcDbSpline
210
0.0
220
0.0
230
1.0
 70
     9
 71
     3
 72
    47
 73
    43
 74
     0
 42
0.0000000001
 43
0.0000000001
 40
0.0
 40
0.0
 40
0.0
 40
0.0
 40
1.0
 40
1.0
 40
1.0
 40
2.0
 40
2.0
 40
2.0
 40
3.0
 40
3.0
 40
3.0
 40
4.0
 40
4.0
 40
4.0
 40
5.0
 40
5.0
 40
5.0
 40
6.0
 40
6.0
 40
6.0
 40
7.0
 40
7.0
 40
7.0
 40
8.0
 40
8.0
 40
8.0
 40
9.0
 40
9.0
 40
9.0
 40
10.0
 40
10.0
 40
10.0
 40
11.0
 40
11.0
 40
11.0
 40
12.0
 40
12.0
 40
12.0
 40
13.0
 40
13.0
 40
13.0
 40
14.0
 40
14.0
 40
14.0
 40
14.0
 10
133.9911322364675
 20
-150.1462184954496
 30
0.0
 10
133.9211967981169
 20
-150.4252712297548
 30
0.0
 10
133.8450601878929
 20
-150.7298176706509
 30
0.0
 10
133.5322455178322
 20
-151.0619248754289
 30
0.0
 10
133.295222948447
 20
-151.3116942981096
 30
0.0
 10
133.0499321498972
 20
-151.4112575576333
 30
0.0
 10
132.9441677185
 20
-151.4532877225533
 30
0.0
 10
132.9441677185
 20
-151.4532877225533
 30
0.0
 10
132.7495198235834
 20
-151.2713866809321
 30
0.0
 10
132.7495198235834
 20
-151.2713866809321
 30
0.0
 10
132.9355549797869
 20
-151.2248778918813
 30
0.0
 10
133.2972900057382
 20
-151.1318603137795
 30
0.0
 10
133.5935682174697
 20
-150.6368000925491
 30
0.0
 10
133.7541096670823
 20
-150.3701497019908
 30
0.0
 10
133.7668565203777
 20
-150.1968613990827
 30
0.0
 10
133.7754692590908
 20
-150.1059108782721
 30
0.0
 10
133.7754692590908
 20
-150.1059108782721
 30
0.0
 10
133.2697292418562
 20
-150.1059108782721
 30
0.0
 10
133.2697292418562
 20
-150.1059108782721
 30
0.0
 10
133.1512179571636
 20
-150.1059108782721
 30
0.0
 10
132.730227288866
 20
-150.124858903441
 30
0.0
 10
132.577954068418
 20
-150.1355386994452
 30
0.0
 10
132.577954068418
 20
-150.1355386994452
 30
0.0
 10
132.577954068418
 20
-149.9260768939421
 30
0.0
 10
132.577954068418
 20
-149.9260768939421
 30
0.0
 10
132.7198920024103
 20
-149.9388237472375
 30
0.0
 10
132.9968776794244
 20
-149.9429578618198
 30
0.0
 10
133.1133219068258
 20
-149.9429578618198
 30
0.0
 10
133.1133219068258
 20
-149.9429578618198
 30
0.0
 10
133.4685112513551
 20
-149.9429578618198
 30
0.0
 10
133.4685112513551
 20
-149.9429578618198
 30
0.0
 10
133.4960720152371
 20
-149.9429578618198
 30
0.0
 10
133.6569579743982
 20
-149.9408908045286
 30
0.0
 10
133.7668565203777
 20
-149.9260768939421
 30
0.0
 10
133.8240451054328
 20
-149.9195312125201
 30
0.0
 10
133.8409260733106
 20
-149.9005831873512
 30
0.0
 10
133.8643527226103
 20
-149.8775010476
 30
0.0
 10
133.8643527226103
 20
-149.8775010476
 30
0.0
 10
134.0524549361049
 20
-150.027707210757
 30
0.0
 10
134.0524549361049
 20
-150.027707210757
 30
0.0
 10
134.0376410255184
 20
-150.0573350319301
 30
0.0
 10
134.0273057390626
 20
-150.076283057099
 30
0.0
 10
133.9911322364675
 20
-150.1462184954496
 30
0.0
  0
HATCH
  5
159
330
146
100
AcDbEntity
  8
レイヤー 1
 62
    18
420
        0
440
 33554687
100
AcDbHatch
 10
0.0
 20
0.0
 30
0.0
210
0.0
220
0.0
230
1.0
  2
SOLID
 70
     1
 71
     1
 91
        1
 92
        1
 93
        1
 72
     4
 94
        3
 73
     0
 74
     0
 95
       47
 96
       43
 40
0.0
 40
0.0
 40
0.0
 40
0.0
 40
1.0
 40
1.0
 40
1.0
 40
2.0
 40
2.0
 40
2.0
 40
3.0
 40
3.0
 40
3.0
 40
4.0
 40
4.0
 40
4.0
 40
5.0
 40
5.0
 40
5.0
 40
6.0
 40
6.0
 40
6.0
 40
7.0
 40
7.0
 40
7.0
 40
8.0
 40
8.0
 40
8.0
 40
9.0
 40
9.0
 40
9.0
 40
10.0
 40
10.0
 40
10.0
 40
11.0
 40
11.0
 40
11.0
 40
12.0
 40
12.0
 40
12.0
 40
13.0
 40
13.0
 40
13.0
 40
14.0
 40
14.0
 40
14.0
 40
14.0
 10
133.9911322364675
 20
-150.1462184954496
 10
133.9211967981169
 20
-150.4252712297548
 10
133.8450601878929
 20
-150.7298176706509
 10
133.5322455178322
 20
-151.0619248754289
 10
133.295222948447
 20
-151.3116942981096
 10
133.0499321498972
 20
-151.4112575576333
 10
132.9441677185
 20
-151.4532877225533
 10
132.9441677185
 20
-151.4532877225533
 10
132.7495198235834
 20
-151.2713866809321
 10
132.7495198235834
 20
-151.2713866809321
 10
132.9355549797869
 20
-151.2248778918813
 10
133.2972900057382
 20
-151.1318603137795
 10
133.5935682174697
 20
-150.6368000925491
 10
133.7541096670823
 20
-150.3701497019908
 10
133.7668565203777
 20
-150.1968613990827
 10
133.7754692590908
 20
-150.1059108782721
 10
133.7754692590908
 20
-150.1059108782721
 10
133.2697292418562
 20
-150.1059108782721
 10
133.2697292418562
 20
-150.1059108782721
 10
133.1512179571636
 20
-150.1059108782721
 10
132.730227288866
 20
-150.124858903441
 10
132.577954068418
 20
-150.1355386994452
 10
132.577954068418
 20
-150.1355386994452
 10
132.577954068418
 20
-149.9260768939421
 10
132.577954068418
 20
-149.9260768939421
 10
132.7198920024103
 20
-149.9388237472375
 10
132.9968776794244
 20
-149.9429578618198
 10
133.1133219068258
 20
-149.9429578618198
 10
133.1133219068258
 20
-149.9429578618198
 10
133.4685112513551
 20
-149.9429578618198
 10
133.4685112513551
 20
-149.9429578618198
 10
133.4960720152371
 20
-149.9429578618198
 10
133.6569579743982
 20
-149.9408908045286
 10
133.7668565203777
 20
-149.9260768939421
 10
133.8240451054328
 20
-149.9195312125201
 10
133.8409260733106
 20
-149.9005831873512
 10
133.8643527226103
 20
-149.8775010476
 10
133.8643527226103
 20
-149.8775010476
 10
134.0524549361049
 20
-150.027707210757
 10
134.0524549361049
 20
-150.027707210757
 10
134.0376410255184
 20
-150.0573350319301
 10
134.0273057390626
 20
-150.076283057099
 10
133.9911322364675
 20
-150.1462184954496
 97
        0
 97
        1
330
158
 75
     2
 76
     1
 98
        1
 10
0.0
 20
0.0
450
        0
451
        0
460
0.0
461
0.0
452
        0
462
0.0
453
        0
470

  0
SPLINE
  5
15A
330
146
100
AcDbEntity
  8
レイヤー 1
100
AcDbSpline
210
0.0
220
0.0
230
1.0
 70
    11
 71
     3
 72
    17
 73
    13
 74
     0
 42
0.0000000001
 43
0.0000000001
 40
0.0
 40
0.0
 40
0.0
 40
0.0
 40
1.0
 40
1.0
 40
1.0
 40
2.0
 40
2.0
 40
2.0
 40
3.0
 40
3.0
 40
3.0
 40
4.0
 40
4.0
 40
4.0
 40
4.0
 10
134.3814615549463
 20
-149.9281439512332
 30
0.0
 10
134.3814615549463
 20
-149.9873995935795
 30
0.0
 10
134.4279703439972
 20
-150.0339083826304
 30
0.0
 10
134.4872259863435
 20
-150.0339083826304
 30
0.0
 10
134.5464816286898
 20
-150.0339083826304
 30
0.0
 10
134.5950574750318
 20
-149.9873995935795
 30
0.0
 10
134.5950574750318
 20
-149.9281439512332
 30
0.0
 10
134.5950574750318
 20
-149.8688883088869
 30
0.0
 10
134.5464816286898
 20
-149.8203124625449
 30
0.0
 10
134.4872259863435
 20
-149.8203124625449
 30
0.0
 10
134.4279703439972
 20
-149.8203124625449
 30
0.0
 10
134.3814615549463
 20
-149.8688883088869
 30
0.0
 10
134.3814615549463
 20
-149.9281439512332
 30
0.0
  0
SPLINE
  5
15B
330
146
100
AcDbEntity
  8
レイヤー 1
100
AcDbSpline
210
0.0
220
0.0
230
1.0
 70
     9
 71
     3
 72
    17
 73
    13
 74
     0
 42
0.0000000001
 43
0.0000000001
 40
0.0
 40
0.0
 40
0.0
 40
0.0
 40
1.0
 40
1.0
 40
1.0
 40
2.0
 40
2.0
 40
2.0
 40
3.0
 40
3.0
 40
3.0
 40
4.0
 40
4.0
 40
4.0
 40
4.0
 10
134.6966877918466
 20
-149.9281439512332
 30
0.0
 10
134.6966877918466
 20
-150.0425211213435
 30
0.0
 10
134.6036702137449
 20
-150.1376057567364
 30
0.0
 10
134.4872259863435
 20
-150.1376057567364
 30
0.0
 10
134.3728488162332
 20
-150.1376057567364
 30
0.0
 10
134.2777641808402
 20
-150.0425211213435
 30
0.0
 10
134.2777641808402
 20
-149.9281439512332
 30
0.0
 10
134.2777641808402
 20
-149.8116997238318
 30
0.0
 10
134.3728488162332
 20
-149.71868214573
 30
0.0
 10
134.4872259863435
 20
-149.71868214573
 30
0.0
 10
134.6016031564537
 20
-149.71868214573
 30
0.0
 10
134.6966877918466
 20
-149.8116997238318
 30
0.0
 10
134.6966877918466
 20
-149.9281439512332
 30
0.0
  0
HATCH
  5
15C
330
146
100
AcDbEntity
  8
レイヤー 1
 62
    18
420
        0
440
 33554687
100
AcDbHatch
 10
0.0
 20
0.0
 30
0.0
210
0.0
220
0.0
230
1.0
  2
SOLID
 70
     1
 71
     1
 91
        2
 92
        1
 93
        1
 72
     4
 94
        3
 73
     0
 74
     0
 95
       17
 96
       13
 40
0.0
 40
0.0
 40
0.0
 40
0.0
 40
1.0
 40
1.0
 40
1.0
 40
2.0
 40
2.0
 40
2.0
 40
3.0
 40
3.0
 40
3.0
 40
4.0
 40
4.0
 40
4.0
 40
4.0
 10
134.3814615549463
 20
-149.9281439512332
 10
134.3814615549463
 20
-149.9873995935795
 10
134.4279703439972
 20
-150.0339083826304
 10
134.4872259863435
 20
-150.0339083826304
 10
134.5464816286898
 20
-150.0339083826304
 10
134.5950574750318
 20
-149.9873995935795
 10
134.5950574750318
 20
-149.9281439512332
 10
134.5950574750318
 20
-149.8688883088869
 10
134.5464816286898
 20
-149.8203124625449
 10
134.4872259863435
 20
-149.8203124625449
 10
134.4279703439972
 20
-149.8203124625449
 10
134.3814615549463
 20
-149.8688883088869
 10
134.3814615549463
 20
-149.9281439512332
 97
        0
 97
        1
330
15A
 92
        1
 93
        1
 72
     4
 94
        3
 73
     0
 74
     0
 95
       17
 96
       13
 40
0.0
 40
0.0
 40
0.0
 40
0.0
 40
1.0
 40
1.0
 40
1.0
 40
2.0
 40
2.0
 40
2.0
 40
3.0
 40
3.0
 40
3.0
 40
4.0
 40
4.0
 40
4.0
 40
4.0
 10
134.6966877918466
 20
-149.9281439512332
 10
134.6966877918466
 20
-150.0425211213435
 10
134.6036702137449
 20
-150.1376057567364
 10
134.4872259863435
 20
-150.1376057567364
 10
134.3728488162332
 20
-150.1376057567364
 10
134.2777641808402
 20
-150.0425211213435
 10
134.2777641808402
 20
-149.9281439512332
 10
134.2777641808402
 20
-149.8116997238318
 10
134.3728488162332
 20
-149.71868214573
 10
134.4872259863435
 20
-149.71868214573
 10
134.6016031564537
 20
-149.71868214573
 10
134.6966877918466
 20
-149.8116997238318
 10
134.6966877918466
 20
-149.9281439512332
 97
        0
 97
        1
330
15B
 75
     2
 76
     1
 98
        1
 10
0.0
 20
0.0
450
        0
451
        0
460
0.0
461
0.0
452
        0
462
0.0
453
        0
470

  0
ENDBLK
  5
149
330
146
100
AcDbEntity
  8
0
100
AcDbBlockEnd
  0
ENDSEC
  0
SECTION
  2
ENTITIES
  0
LINE
  5
79
330
70
100
AcDbEntity
  8
レイヤー 1
 62
   250
420
  2299925
370
    25
100
AcDbLine
 10
107.2003123679421
 20
-154.1578316825024
 30
0.0
 11
99.20008868315632
 21
-154.1578316825024
 31
0.0
  0
LINE
  5
7A
330
70
100
AcDbEntity
  8
レイヤー 1
 62
   250
420
  2299925
370
    25
100
AcDbLine
 10
79.19840058233076
 20
-145.6577216846272
 30
0.0
 11
79.19840058233076
 21
-146.1579605733909
 31
0.0
  0
LINE
  5
7B
330
70
100
AcDbEntity
  8
レイヤー 1
 62
   250
420
  2299925
370
    25
100
AcDbLine
 10
99.20008868315632
 20
-146.1579605733909
 30
0.0
 11
79.19840058233076
 21
-146.1579605733909
 31
0.0
  0
LINE
  5
7C
330
70
100
AcDbEntity
  8
レイヤー 1
 62
   250
420
  2299925
370
    25
100
AcDbLine
 10
79.19840058233076
 20
-145.6577216846272
 30
0.0
 11
79.71204501367106
 21
-146.0397800178649
 31
0.0
  0
LINE
  5
7D
330
70
100
AcDbEntity
  8
レイヤー 1
 62
   250
420
  2299925
370
    25
100
AcDbLine
 10
79.71204501367106
 20
-146.0397800178649
 30
0.0
 11
80.19746722350912
 21
-145.6222675179692
 31
0.0
  0
LINE
  5
7E
330
70
100
AcDbEntity
  8
レイヤー 1
 62
   250
420
  2299925
370
    25
100
AcDbLine
 10
80.71146443261818
 20
-146.0043258512072
 30
0.0
 11
81.19688664245593
 21
-145.5864252957559
 31
0.0
  0
LINE
  5
7F
330
70
100
AcDbEntity
  8
レイヤー 1
 62
   250
420
  2299925
370
    25
100
AcDbLine
 10
80.19746722350912
 20
-145.6222675179692
 30
0.0
 11
80.71146443261818
 21
-146.0043258512072
 31
0.0
  0
LINE
  5
80
330
70
100
AcDbEntity
  8
レイヤー 1
 62
   250
420
  2299925
370
    25
100
AcDbLine
 10
81.19688664245593
 20
-145.5864252957559
 30
0.0
 11
81.71091912934219
 21
-145.968483628994
 31
0.0
  0
LINE
  5
81
330
70
100
AcDbEntity
  8
レイヤー 1
 62
   250
420
  2299925
370
    25
100
AcDbLine
 10
81.71091912934219
 20
-145.968483628994
 30
0.0
 11
82.1963060614034
 21
-145.5509358513205
 31
0.0
  0
LINE
  5
82
330
70
100
AcDbEntity
  8
レイヤー 1
 62
   250
420
  2299925
370
    25
100
AcDbLine
 10
82.1963060614034
 20
-145.5509358513205
 30
0.0
 11
82.70998577052054
 21
-145.9326414067807
 31
0.0
  0
LINE
  5
83
330
70
100
AcDbEntity
  8
レイヤー 1
 62
   250
420
  2299925
370
    25
100
AcDbLine
 10
82.70998577052054
 20
-145.9326414067807
 30
0.0
 11
83.19572548035052
 21
-145.5150936291072
 31
0.0
  0
LINE
  5
84
330
70
100
AcDbEntity
  8
レイヤー 1
 62
   250
420
  2299925
370
    25
100
AcDbLine
 10
83.19572548035052
 20
-145.5150936291072
 30
0.0
 11
83.70975796723646
 21
-145.8968344623453
 31
0.0
  0
LINE
  5
85
330
70
100
AcDbEntity
  8
レイヤー 1
 62
   250
420
  2299925
370
    25
100
AcDbLine
 10
83.70975796723646
 20
-145.8968344623453
 30
0.0
 11
84.19482739930575
 21
-145.4792866846718
 31
0.0
  0
LINE
  5
86
330
70
100
AcDbEntity
  8
レイヤー 1
 62
   250
420
  2299925
370
    25
100
AcDbLine
 10
84.19482739930575
 20
-145.4792866846718
 30
0.0
 11
84.70882460841449
 21
-145.8613450179095
 31
0.0
  0
LINE
  5
87
330
70
100
AcDbEntity
  8
レイヤー 1
 62
   250
420
  2299925
370
    25
100
AcDbLine
 10
84.70882460841449
 20
-145.8613450179095
 30
0.0
 11
85.19459959602198
 21
-145.4437972402363
 31
0.0
  0
LINE
  5
88
330
70
100
AcDbEntity
  8
レイヤー 1
 62
   250
420
  2299925
370
    25
100
AcDbLine
 10
85.19459959602198
 20
-145.4437972402363
 30
0.0
 11
85.70824402736194
 21
-145.8258555734743
 31
0.0
  0
LINE
  5
89
330
70
100
AcDbEntity
  8
レイヤー 1
 62
   250
420
  2299925
370
    25
100
AcDbLine
 10
85.70824402736194
 20
-145.8258555734743
 30
0.0
 11
86.19366623720001
 21
-145.4079550180231
 31
0.0
  0
LINE
  5
8A
330
70
100
AcDbEntity
  8
レイヤー 1
 62
   250
420
  2299925
370
    25
100
AcDbLine
 10
86.70766344630907
 20
-145.7900133512607
 30
0.0
 11
87.19308565614714
 21
-145.3724655735872
 31
0.0
  0
LINE
  5
8B
330
70
100
AcDbEntity
  8
レイヤー 1
 62
   250
420
  2299925
370
    25
100
AcDbLine
 10
86.19366623720001
 20
-145.4079550180231
 30
0.0
 11
86.70766344630907
 21
-145.7900133512607
 31
0.0
  0
LINE
  5
8C
330
70
100
AcDbEntity
  8
レイヤー 1
 62
   250
420
  2299925
370
    25
100
AcDbLine
 10
87.19308565614714
 20
-145.3724655735872
 30
0.0
 11
87.7070828652562
 21
-145.7542064068253
 31
0.0
  0
LINE
  5
8D
330
70
100
AcDbEntity
  8
レイヤー 1
 62
   250
420
  2299925
370
    25
100
AcDbLine
 10
87.7070828652562
 20
-145.7542064068253
 30
0.0
 11
88.19250507509428
 21
-145.3366586291522
 31
0.0
  0
LINE
  5
8E
330
70
100
AcDbEntity
  8
レイヤー 1
 62
   250
420
  2299925
370
    25
100
AcDbLine
 10
88.70667867308773
 20
-145.7183641846121
 30
0.0
 11
89.19174810515702
 21
-145.3008164069389
 31
0.0
  0
LINE
  5
8F
330
70
100
AcDbEntity
  8
レイヤー 1
 62
   250
420
  2299925
370
    25
100
AcDbLine
 10
88.19250507509428
 20
-145.3366586291522
 30
0.0
 11
88.70667867308773
 21
-145.7183641846121
 31
0.0
  0
LINE
  5
90
330
70
100
AcDbEntity
  8
レイヤー 1
 62
   250
420
  2299925
370
    25
100
AcDbLine
 10
89.70578059204296
 20
-145.6828747401763
 30
0.0
 11
90.19152030187292
 21
-145.2653269625031
 31
0.0
  0
LINE
  5
91
330
70
100
AcDbEntity
  8
レイヤー 1
 62
   250
420
  2299925
370
    25
100
AcDbLine
 10
89.19174810515702
 20
-145.3008164069389
 30
0.0
 11
89.70578059204296
 21
-145.6828747401763
 31
0.0
  0
LINE
  5
92
330
70
100
AcDbEntity
  8
レイヤー 1
 62
   250
420
  2299925
370
    25
100
AcDbLine
 10
90.19152030187292
 20
-145.2653269625031
 30
0.0
 11
90.70551751098198
 21
-145.6473852957408
 31
0.0
  0
LINE
  5
93
330
70
100
AcDbEntity
  8
レイヤー 1
 62
   250
420
  2299925
370
    25
100
AcDbLine
 10
90.70551751098198
 20
-145.6473852957408
 30
0.0
 11
91.19058694305127
 21
-145.2295200180674
 31
0.0
  0
LINE
  5
94
330
70
100
AcDbEntity
  8
レイヤー 1
 62
   250
420
  2299925
370
    25
100
AcDbLine
 10
91.19058694305127
 20
-145.2295200180674
 30
0.0
 11
91.70493692992911
 21
-145.6115783513054
 31
0.0
  0
LINE
  5
95
330
70
100
AcDbEntity
  8
レイヤー 1
 62
   250
420
  2299925
370
    25
100
AcDbLine
 10
91.70493692992911
 20
-145.6115783513054
 30
0.0
 11
92.1900063619984
 21
-145.1940305736319
 31
0.0
  0
LINE
  5
96
330
70
100
AcDbEntity
  8
レイヤー 1
 62
   250
420
  2299925
370
    25
100
AcDbLine
 10
92.1900063619984
 20
-145.1940305736319
 30
0.0
 11
92.70403884888434
 21
-145.5757361290921
 31
0.0
  0
LINE
  5
97
330
70
100
AcDbEntity
  8
レイヤー 1
 62
   250
420
  2299925
370
    25
100
AcDbLine
 10
92.70403884888434
 20
-145.5757361290921
 30
0.0
 11
93.1897785587143
 21
-145.1581883514187
 31
0.0
  0
LINE
  5
98
330
70
100
AcDbEntity
  8
レイヤー 1
 62
   250
420
  2299925
370
    25
100
AcDbLine
 10
93.1897785587143
 20
-145.1581883514187
 30
0.0
 11
93.70381104560024
 21
-145.5399291846567
 31
0.0
  0
LINE
  5
99
330
70
100
AcDbEntity
  8
レイヤー 1
 62
   250
420
  2299925
370
    25
100
AcDbLine
 10
93.70381104560024
 20
-145.5399291846567
 30
0.0
 11
94.18888047766987
 21
-145.1223814069832
 31
0.0
  0
LINE
  5
9A
330
70
100
AcDbEntity
  8
レイヤー 1
 62
   250
420
  2299925
370
    25
100
AcDbLine
 10
94.18888047766987
 20
-145.1223814069832
 30
0.0
 11
94.70287768677861
 21
-145.5044397402209
 31
0.0
  0
LINE
  5
9B
330
70
100
AcDbEntity
  8
レイヤー 1
 62
   250
420
  2299925
370
    25
100
AcDbLine
 10
94.70287768677861
 20
-145.5044397402209
 30
0.0
 11
95.18861739660858
 21
-145.0868919625477
 31
0.0
  0
LINE
  5
9C
330
70
100
AcDbEntity
  8
レイヤー 1
 62
   250
420
  2299925
370
    25
100
AcDbLine
 10
95.18861739660858
 20
-145.0868919625477
 30
0.0
 11
95.70264988349451
 21
-145.4689502957858
 31
0.0
  0
LINE
  5
9D
330
70
100
AcDbEntity
  8
レイヤー 1
 62
   250
420
  2299925
370
    25
100
AcDbLine
 10
95.70264988349451
 20
-145.4689502957858
 30
0.0
 11
96.18771931556381
 21
-145.0510497403345
 31
0.0
  0
LINE
  5
9E
330
70
100
AcDbEntity
  8
レイヤー 1
 62
   250
420
  2299925
370
    25
100
AcDbLine
 10
96.18771931556381
 20
-145.0510497403345
 30
0.0
 11
96.70171652467287
 21
-145.4331080735725
 31
0.0
  0
LINE
  5
9F
330
70
100
AcDbEntity
  8
レイヤー 1
 62
   250
420
  2299925
370
    25
100
AcDbLine
 10
96.70171652467287
 20
-145.4331080735725
 30
0.0
 11
97.18749151227939
 21
-145.0155602958987
 31
0.0
  0
LINE
  5
A0
330
70
100
AcDbEntity
  8
レイヤー 1
 62
   250
420
  2299925
370
    25
100
AcDbLine
 10
97.18749151227939
 20
-145.0155602958987
 30
0.0
 11
97.70148872138911
 21
-145.3973011291368
 31
0.0
  0
LINE
  5
A1
330
70
100
AcDbEntity
  8
レイヤー 1
 62
   250
420
  2299925
370
    25
100
AcDbLine
 10
97.70148872138911
 20
-145.3973011291368
 30
0.0
 11
98.18655815345806
 21
-144.9797533514633
 31
0.0
  0
LINE
  5
A2
330
70
100
AcDbEntity
  8
レイヤー 1
 62
   250
420
  2299925
370
    25
100
AcDbLine
 10
98.18655815345806
 20
-144.9797533514633
 30
0.0
 11
98.70055536256714
 21
-145.3614589069235
 31
0.0
  0
LINE
  5
A3
330
70
100
AcDbEntity
  8
レイヤー 1
 62
   250
420
  2299925
370
    25
100
AcDbLine
 10
98.70055536256714
 20
-145.3614589069235
 30
0.0
 11
99.18633035017398
 21
-144.9439111292504
 31
0.0
  0
LINE
  5
A4
330
70
100
AcDbEntity
  8
レイヤー 1
 62
   250
420
  2299925
370
    25
100
AcDbLine
 10
99.23960723708891
 20
-144.8956864070402
 30
0.0
 11
100.1998608798722
 21
-144.8956864070402
 31
0.0
  0
LINE
  5
A5
330
70
100
AcDbEntity
  8
レイヤー 1
 62
   250
420
  2299925
370
    25
100
AcDbLine
 10
100.1998608798722
 20
-144.8956864070402
 30
0.0
 11
100.1998608798722
 21
-153.1577066827521
 31
0.0
  0
LINE
  5
A6
330
70
100
AcDbEntity
  8
レイヤー 1
 62
   250
420
  2299925
370
    25
100
AcDbLine
 10
99.20008868315632
 20
-146.1579605733909
 30
0.0
 11
99.20008868315632
 21
-154.1578316825024
 31
0.0
  0
LINE
  5
A7
330
70
100
AcDbEntity
  8
レイヤー 1
 62
   250
420
  2299925
370
    25
100
AcDbLine
 10
106.1998346156887
 20
-153.1577066827521
 30
0.0
 11
100.1998608798722
 21
-153.1577066827521
 31
0.0
  0
LINE
  5
A8
330
70
100
AcDbEntity
  8
レイヤー 1
 62
   250
420
  2299925
370
    25
100
AcDbLine
 10
117.207629890412
 20
-145.3008164069389
 30
0.0
 11
116.693597403526
 21
-145.6828747401763
 31
0.0
  0
LINE
  5
A9
330
70
100
AcDbEntity
  8
レイヤー 1
 62
   250
420
  2299925
370
    25
100
AcDbLine
 10
122.2043742073789
 20
-145.4792866846718
 30
0.0
 11
121.6903769982698
 21
-145.8613450179095
 31
0.0
  0
LINE
  5
AA
330
70
100
AcDbEntity
  8
レイヤー 1
 62
   250
420
  2299925
370
    25
100
AcDbLine
 10
117.6926993224813
 20
-145.7183641846121
 30
0.0
 11
117.207629890412
 21
-145.3008164069389
 31
0.0
  0
LINE
  5
AB
330
70
100
AcDbEntity
  8
レイヤー 1
 62
   250
420
  2299925
370
    25
100
AcDbLine
 10
118.6924362414203
 20
-145.7542064068253
 30
0.0
 11
118.2066965315903
 21
-145.3366586291522
 31
0.0
  0
LINE
  5
AC
330
70
100
AcDbEntity
  8
レイヤー 1
 62
   250
420
  2299925
370
    25
100
AcDbLine
 10
116.693597403526
 20
-145.6828747401763
 30
0.0
 11
116.2085279714567
 21
-145.2653269625031
 31
0.0
  0
LINE
  5
AD
330
70
100
AcDbEntity
  8
レイヤー 1
 62
   250
420
  2299925
370
    25
100
AcDbLine
 10
118.2066965315903
 20
-145.3366586291522
 30
0.0
 11
117.6926993224813
 21
-145.7183641846121
 31
0.0
  0
LINE
  5
AE
330
70
100
AcDbEntity
  8
レイヤー 1
 62
   250
420
  2299925
370
    25
100
AcDbLine
 10
126.2020871609442
 20
-145.6222675179692
 30
0.0
 11
125.6880546740583
 21
-146.0043258512072
 31
0.0
  0
LINE
  5
AF
330
70
100
AcDbEntity
  8
レイヤー 1
 62
   250
420
  2299925
370
    25
100
AcDbLine
 10
119.2064687283062
 20
-145.3724655735872
 30
0.0
 11
118.6924362414203
 21
-145.7542064068253
 31
0.0
  0
LINE
  5
B0
330
70
100
AcDbEntity
  8
レイヤー 1
 62
   250
420
  2299925
370
    25
100
AcDbLine
 10
120.2055353694846
 20
-145.4079550180231
 30
0.0
 11
119.6915381603755
 21
-145.7900133512607
 31
0.0
  0
LINE
  5
B1
330
70
100
AcDbEntity
  8
レイヤー 1
 62
   250
420
  2299925
370
    25
100
AcDbLine
 10
106.1998346156887
 20
-144.8956864070402
 30
0.0
 11
106.1998346156887
 21
-153.1577066827521
 31
0.0
  0
LINE
  5
B2
330
70
100
AcDbEntity
  8
レイヤー 1
 62
   250
420
  2299925
370
    25
100
AcDbLine
 10
119.6915381603755
 20
-145.7900133512607
 30
0.0
 11
119.2064687283062
 21
-145.3724655735872
 31
0.0
  0
LINE
  5
B3
330
70
100
AcDbEntity
  8
レイヤー 1
 62
   250
420
  2299925
370
    25
100
AcDbLine
 10
120.6913103570914
 20
-145.8258555734743
 30
0.0
 11
120.2055353694846
 21
-145.4079550180231
 31
0.0
  0
LINE
  5
B4
330
70
100
AcDbEntity
  8
レイヤー 1
 62
   250
420
  2299925
370
    25
100
AcDbLine
 10
125.6880546740583
 20
-146.0043258512072
 30
0.0
 11
125.2023149642283
 21
-145.5864252957559
 31
0.0
  0
LINE
  5
B5
330
70
100
AcDbEntity
  8
レイヤー 1
 62
   250
420
  2299925
370
    25
100
AcDbLine
 10
121.2053075662005
 20
-145.4437972402363
 30
0.0
 11
120.6913103570914
 21
-145.8258555734743
 31
0.0
  0
LINE
  5
B6
330
70
100
AcDbEntity
  8
レイヤー 1
 62
   250
420
  2299925
370
    25
100
AcDbLine
 10
121.6903769982698
 20
-145.8613450179095
 30
0.0
 11
121.2053075662005
 21
-145.4437972402363
 31
0.0
  0
LINE
  5
B7
330
70
100
AcDbEntity
  8
レイヤー 1
 62
   250
420
  2299925
370
    25
100
AcDbLine
 10
126.6871565930135
 20
-146.0397800178649
 30
0.0
 11
126.2020871609442
 21
-145.6222675179692
 31
0.0
  0
LINE
  5
B8
330
70
100
AcDbEntity
  8
レイヤー 1
 62
   250
420
  2299925
370
    25
100
AcDbLine
 10
123.2034761263341
 20
-145.5150936291072
 30
0.0
 11
122.6901491949857
 21
-145.8968344623453
 31
0.0
  0
LINE
  5
B9
330
70
100
AcDbEntity
  8
レイヤー 1
 62
   250
420
  2299925
370
    25
100
AcDbLine
 10
124.2032130452731
 20
-145.5509358513205
 30
0.0
 11
123.6892158361641
 21
-145.9326414067807
 31
0.0
  0
LINE
  5
BA
330
70
100
AcDbEntity
  8
レイヤー 1
 62
   250
420
  2299925
370
    25
100
AcDbLine
 10
123.6892158361641
 20
-145.9326414067807
 30
0.0
 11
123.2034761263341
 21
-145.5150936291072
 31
0.0
  0
LINE
  5
BB
330
70
100
AcDbEntity
  8
レイヤー 1
 62
   250
420
  2299925
370
    25
100
AcDbLine
 10
127.2011538021226
 20
-145.6577216846272
 30
0.0
 11
126.6871565930135
 21
-146.0397800178649
 31
0.0
  0
LINE
  5
BC
330
70
100
AcDbEntity
  8
レイヤー 1
 62
   250
420
  2299925
370
    25
100
AcDbLine
 10
122.6901491949857
 20
-145.8968344623453
 30
0.0
 11
122.2043742073789
 21
-145.4792866846718
 31
0.0
  0
LINE
  5
BD
330
70
100
AcDbEntity
  8
レイヤー 1
 62
   250
420
  2299925
370
    25
100
AcDbLine
 10
125.2023149642283
 20
-145.5864252957559
 30
0.0
 11
124.6882824773424
 21
-145.968483628994
 31
0.0
  0
LINE
  5
BE
330
70
100
AcDbEntity
  8
レイヤー 1
 62
   250
420
  2299925
370
    25
100
AcDbLine
 10
124.6882824773424
 20
-145.968483628994
 30
0.0
 11
124.2032130452731
 21
-145.5509358513205
 31
0.0
  0
LINE
  5
BF
330
70
100
AcDbEntity
  8
レイヤー 1
 62
   250
420
  2299925
370
    25
100
AcDbLine
 10
127.2011538021226
 20
-145.6577216846272
 30
0.0
 11
127.2011538021226
 21
-146.1579605733909
 31
0.0
  0
LINE
  5
C0
330
70
100
AcDbEntity
  8
レイヤー 1
 62
   250
420
  2299925
370
    25
100
AcDbLine
 10
107.2003123679421
 20
-146.1579605733909
 30
0.0
 11
127.2011538021226
 21
-146.1579605733909
 31
0.0
  0
LINE
  5
C1
330
70
100
AcDbEntity
  8
レイヤー 1
 62
   250
420
  2299925
370
    25
100
AcDbLine
 10
116.2085279714567
 20
-145.2653269625031
 30
0.0
 11
115.6945307623477
 21
-145.6473852957408
 31
0.0
  0
LINE
  5
C2
330
70
100
AcDbEntity
  8
レイヤー 1
 62
   250
420
  2299925
370
    25
100
AcDbLine
 10
115.6945307623477
 20
-145.6473852957408
 30
0.0
 11
115.2087557747409
 21
-145.2295200180674
 31
0.0
  0
LINE
  5
C3
330
70
100
AcDbEntity
  8
レイヤー 1
 62
   250
420
  2299925
370
    25
100
AcDbLine
 10
115.2087557747409
 20
-145.2295200180674
 30
0.0
 11
114.6947585656318
 21
-145.6115783513054
 31
0.0
  0
LINE
  5
C4
330
70
100
AcDbEntity
  8
レイヤー 1
 62
   250
420
  2299925
370
    25
100
AcDbLine
 10
114.6947585656318
 20
-145.6115783513054
 30
0.0
 11
114.2096891335625
 21
-145.1940305736319
 31
0.0
  0
LINE
  5
C5
330
70
100
AcDbEntity
  8
レイヤー 1
 62
   250
420
  2299925
370
    25
100
AcDbLine
 10
114.2096891335625
 20
-145.1940305736319
 30
0.0
 11
113.6956919244534
 21
-145.5757361290921
 31
0.0
  0
LINE
  5
C6
330
70
100
AcDbEntity
  8
レイヤー 1
 62
   250
420
  2299925
370
    25
100
AcDbLine
 10
113.6956919244534
 20
-145.5757361290921
 30
0.0
 11
113.2099169368466
 21
-145.1581883514187
 31
0.0
  0
LINE
  5
C7
330
70
100
AcDbEntity
  8
レイヤー 1
 62
   250
420
  2299925
370
    25
100
AcDbLine
 10
113.2099169368466
 20
-145.1581883514187
 30
0.0
 11
112.6959197277375
 21
-145.5399291846567
 31
0.0
  0
LINE
  5
C8
330
70
100
AcDbEntity
  8
レイヤー 1
 62
   250
420
  2299925
370
    25
100
AcDbLine
 10
112.6959197277375
 20
-145.5399291846567
 30
0.0
 11
112.2108502956682
 21
-145.1223814069832
 31
0.0
  0
LINE
  5
C9
330
70
100
AcDbEntity
  8
レイヤー 1
 62
   250
420
  2299925
370
    25
100
AcDbLine
 10
112.2108502956682
 20
-145.1223814069832
 30
0.0
 11
111.6968530865592
 21
-145.5044397402209
 31
0.0
  0
LINE
  5
CA
330
70
100
AcDbEntity
  8
レイヤー 1
 62
   250
420
  2299925
370
    25
100
AcDbLine
 10
111.6968530865592
 20
-145.5044397402209
 30
0.0
 11
111.2117836544899
 21
-145.0868919625477
 31
0.0
  0
LINE
  5
CB
330
70
100
AcDbEntity
  8
レイヤー 1
 62
   250
420
  2299925
370
    25
100
AcDbLine
 10
111.2117836544899
 20
-145.0868919625477
 30
0.0
 11
110.6977511676039
 21
-145.4689502957858
 31
0.0
  0
LINE
  5
CC
330
70
100
AcDbEntity
  8
レイヤー 1
 62
   250
420
  2299925
370
    25
100
AcDbLine
 10
110.6977511676039
 20
-145.4689502957858
 30
0.0
 11
110.212011457774
 21
-145.0510497403345
 31
0.0
  0
LINE
  5
CD
330
70
100
AcDbEntity
  8
レイヤー 1
 62
   250
420
  2299925
370
    25
100
AcDbLine
 10
110.212011457774
 20
-145.0510497403345
 30
0.0
 11
109.697978970888
 21
-145.4331080735725
 31
0.0
  0
LINE
  5
CE
330
70
100
AcDbEntity
  8
レイヤー 1
 62
   250
420
  2299925
370
    25
100
AcDbLine
 10
109.697978970888
 20
-145.4331080735725
 30
0.0
 11
109.2129095388187
 21
-145.0155602958987
 31
0.0
  0
LINE
  5
CF
330
70
100
AcDbEntity
  8
レイヤー 1
 62
   250
420
  2299925
370
    25
100
AcDbLine
 10
109.2129095388187
 20
-145.0155602958987
 30
0.0
 11
108.6989123297097
 21
-145.3973011291368
 31
0.0
  0
LINE
  5
D0
330
70
100
AcDbEntity
  8
レイヤー 1
 62
   250
420
  2299925
370
    25
100
AcDbLine
 10
108.6989123297097
 20
-145.3973011291368
 30
0.0
 11
108.2131726198797
 21
-144.9797533514633
 31
0.0
  0
LINE
  5
D1
330
70
100
AcDbEntity
  8
レイヤー 1
 62
   250
420
  2299925
370
    25
100
AcDbLine
 10
108.2131726198797
 20
-144.9797533514633
 30
0.0
 11
107.6991401329938
 21
-145.3614589069235
 31
0.0
  0
LINE
  5
D2
330
70
100
AcDbEntity
  8
レイヤー 1
 62
   250
420
  2299925
370
    25
100
AcDbLine
 10
107.6991401329938
 20
-145.3614589069235
 30
0.0
 11
107.2140707009245
 21
-144.9439111292504
 31
0.0
  0
LINE
  5
D3
330
70
100
AcDbEntity
  8
レイヤー 1
 62
   250
420
  2299925
370
    25
100
AcDbLine
 10
107.1596454943152
 20
-144.8956864070402
 30
0.0
 11
106.1998346156887
 21
-144.8956864070402
 31
0.0
  0
LINE
  5
D4
330
70
100
AcDbEntity
  8
レイヤー 1
 62
   250
420
  2299925
370
    25
100
AcDbLine
 10
107.2003123679421
 20
-146.1579605733909
 30
0.0
 11
107.2003123679421
 21
-154.1578316825024
 31
0.0
  0
SPLINE
  5
D5
330
70
100
AcDbEntity
  8
レイヤー 1
 62
   250
420
  2299925
370
     9
100
AcDbSpline
210
0.0
220
0.0
230
1.0
 70
     9
 71
     3
 72
    17
 73
    13
 74
     0
 42
0.0000000001
 43
0.0000000001
 40
0.0
 40
0.0
 40
0.0
 40
0.0
 40
1.0
 40
1.0
 40
1.0
 40
2.0
 40
2.0
 40
2.0
 40
3.0
 40
3.0
 40
3.0
 40
4.0
 40
4.0
 40
4.0
 40
4.0
 10
79.2983072464486
 20
-140.8959272413733
 30
0.0
 10
79.2983072464486
 20
-140.8404705747203
 30
0.0
 10
79.25350446981385
 20
-140.7956677969539
 30
0.0
 10
79.19840058233076
 20
-140.7956677969539
 30
0.0
 10
79.14294391707892
 20
-140.7956677969539
 30
0.0
 10
79.09814114044415
 20
-140.8404705747203
 30
0.0
 10
79.09814114044415
 20
-140.8959272413733
 30
0.0
 10
79.09814114044415
 20
-140.9510311302482
 30
0.0
 10
79.14294391707892
 20
-140.995833908015
 30
0.0
 10
79.19840058233076
 20
-140.995833908015
 30
0.0
 10
79.25350446981385
 20
-140.995833908015
 30
0.0
 10
79.2983072464486
 20
-140.9510311302482
 30
0.0
 10
79.2983072464486
 20
-140.8959272413733
 30
0.0
  0
SPLINE
  5
D6
330
70
100
AcDbEntity
  8
レイヤー 1
 62
   250
420
  2299925
370
     9
100
AcDbSpline
210
0.0
220
0.0
230
1.0
 70
     9
 71
     3
 72
    17
 73
    13
 74
     0
 42
0.0000000001
 43
0.0000000001
 40
0.0
 40
0.0
 40
0.0
 40
0.0
 40
1.0
 40
1.0
 40
1.0
 40
2.0
 40
2.0
 40
2.0
 40
3.0
 40
3.0
 40
3.0
 40
4.0
 40
4.0
 40
4.0
 40
4.0
 10
75.29819540405552
 20
-145.6577216846272
 30
0.0
 10
75.29819540405552
 20
-145.6026177957519
 30
0.0
 10
75.25343023846218
 20
-145.5578150179855
 30
0.0
 10
75.19811235105329
 20
-145.5578150179855
 30
0.0
 10
75.14301079404531
 20
-145.5578150179855
 30
0.0
 10
75.09820801627859
 20
-145.6026177957519
 30
0.0
 10
75.09820801627859
 20
-145.6577216846272
 30
0.0
 10
75.09820801627859
 20
-145.7128608512799
 30
0.0
 10
75.14301079404531
 20
-145.7576283512688
 30
0.0
 10
75.19811235105329
 20
-145.7576283512688
 30
0.0
 10
75.25343023846218
 20
-145.7576283512688
 30
0.0
 10
75.29819540405552
 20
-145.7128608512799
 30
0.0
 10
75.29819540405552
 20
-145.6577216846272
 30
0.0
  0
SPLINE
  5
D7
330
70
100
AcDbEntity
  8
レイヤー 1
 62
   250
420
  2299925
370
     9
100
AcDbSpline
210
0.0
220
0.0
230
1.0
 70
     9
 71
     3
 72
    17
 73
    13
 74
     0
 42
0.0000000001
 43
0.0000000001
 40
0.0
 40
0.0
 40
0.0
 40
0.0
 40
1.0
 40
1.0
 40
1.0
 40
2.0
 40
2.0
 40
2.0
 40
3.0
 40
3.0
 40
3.0
 40
4.0
 40
4.0
 40
4.0
 40
4.0
 10
75.29819540405552
 20
-146.1579605733909
 30
0.0
 10
75.29819540405552
 20
-146.102856684516
 30
0.0
 10
75.25343023846218
 20
-146.0580539067492
 30
0.0
 10
75.19811235105329
 20
-146.0580539067492
 30
0.0
 10
75.14301079404531
 20
-146.0580539067492
 30
0.0
 10
75.09820801627859
 20
-146.102856684516
 30
0.0
 10
75.09820801627859
 20
-146.1579605733909
 30
0.0
 10
75.09820801627859
 20
-146.213099740044
 30
0.0
 10
75.14301079404531
 20
-146.2578672400325
 30
0.0
 10
75.19811235105329
 20
-146.2578672400325
 30
0.0
 10
75.25343023846218
 20
-146.2578672400325
 30
0.0
 10
75.29819540405552
 20
-146.213099740044
 30
0.0
 10
75.29819540405552
 20
-146.1579605733909
 30
0.0
  0
SPLINE
  5
D8
330
70
100
AcDbEntity
  8
レイヤー 1
 62
   250
420
  2299925
370
     9
100
AcDbSpline
210
0.0
220
0.0
230
1.0
 70
     9
 71
     3
 72
    17
 73
    13
 74
     0
 42
0.0000000001
 43
0.0000000001
 40
0.0
 40
0.0
 40
0.0
 40
0.0
 40
1.0
 40
1.0
 40
1.0
 40
2.0
 40
2.0
 40
2.0
 40
3.0
 40
3.0
 40
3.0
 40
4.0
 40
4.0
 40
4.0
 40
4.0
 10
75.29819540405552
 20
-154.1578316825024
 30
0.0
 10
75.29819540405552
 20
-154.1026925158493
 30
0.0
 10
75.25343023846218
 20
-154.0579250158601
 30
0.0
 10
75.19811235105329
 20
-154.0579250158601
 30
0.0
 10
75.14301079404531
 20
-154.0579250158601
 30
0.0
 10
75.09820801627859
 20
-154.1026925158493
 30
0.0
 10
75.09820801627859
 20
-154.1578316825024
 30
0.0
 10
75.09820801627859
 20
-154.2129355713773
 30
0.0
 10
75.14301079404531
 20
-154.2577383491434
 30
0.0
 10
75.19811235105329
 20
-154.2577383491434
 30
0.0
 10
75.25343023846218
 20
-154.2577383491434
 30
0.0
 10
75.29819540405552
 20
-154.2129355713773
 30
0.0
 10
75.29819540405552
 20
-154.1578316825024
 30
0.0
  0
SPLINE
  5
D9
330
70
100
AcDbEntity
  8
レイヤー 1
 62
   250
420
  2299925
370
     9
100
AcDbSpline
210
0.0
220
0.0
230
1.0
 70
     9
 71
     3
 72
    17
 73
    13
 74
     0
 42
0.0000000001
 43
0.0000000001
 40
0.0
 40
0.0
 40
0.0
 40
0.0
 40
1.0
 40
1.0
 40
1.0
 40
2.0
 40
2.0
 40
2.0
 40
3.0
 40
3.0
 40
3.0
 40
4.0
 40
4.0
 40
4.0
 40
4.0
 10
100.29976754399
 20
-140.8959272413733
 30
0.0
 10
100.29976754399
 20
-140.8404705747203
 30
0.0
 10
100.2550000451321
 20
-140.7956677969539
 30
0.0
 10
100.1998608798722
 20
-140.7956677969539
 30
0.0
 10
100.1447569923891
 20
-140.7956677969539
 30
0.0
 10
100.0999542157543
 20
-140.8404705747203
 30
0.0
 10
100.0999542157543
 20
-140.8959272413733
 30
0.0
 10
100.0999542157543
 20
-140.9510311302482
 30
0.0
 10
100.1447569923891
 20
-140.995833908015
 30
0.0
 10
100.1998608798722
 20
-140.995833908015
 30
0.0
 10
100.2550000451321
 20
-140.995833908015
 30
0.0
 10
100.29976754399
 20
-140.9510311302482
 30
0.0
 10
100.29976754399
 20
-140.8959272413733
 30
0.0
  0
SPLINE
  5
DA
330
70
100
AcDbEntity
  8
レイヤー 1
 62
   250
420
  2299925
370
     9
100
AcDbSpline
210
0.0
220
0.0
230
1.0
 70
     9
 71
     3
 72
    17
 73
    13
 74
     0
 42
0.0000000001
 43
0.0000000001
 40
0.0
 40
0.0
 40
0.0
 40
0.0
 40
1.0
 40
1.0
 40
1.0
 40
2.0
 40
2.0
 40
2.0
 40
3.0
 40
3.0
 40
3.0
 40
4.0
 40
4.0
 40
4.0
 40
4.0
 10
127.3010604662405
 20
-140.8959272413733
 30
0.0
 10
127.3010604662405
 20
-140.8404705747203
 30
0.0
 10
127.2562576896057
 20
-140.7956677969539
 30
0.0
 10
127.2011538021226
 20
-140.7956677969539
 30
0.0
 10
127.1460146368627
 20
-140.7956677969539
 30
0.0
 10
127.1012471380048
 20
-140.8404705747203
 30
0.0
 10
127.1012471380048
 20
-140.8959272413733
 30
0.0
 10
127.1012471380048
 20
-140.9510311302482
 30
0.0
 10
127.1460146368627
 20
-140.995833908015
 30
0.0
 10
127.2011538021226
 20
-140.995833908015
 30
0.0
 10
127.2562576896057
 20
-140.995833908015
 30
0.0
 10
127.3010604662405
 20
-140.9510311302482
 30
0.0
 10
127.3010604662405
 20
-140.8959272413733
 30
0.0
  0
SPLINE
  5
DB
330
70
100
AcDbEntity
  8
レイヤー 1
 62
   250
420
  2299925
370
     9
100
AcDbSpline
210
0.0
220
0.0
230
1.0
 70
     9
 71
     3
 72
    17
 73
    13
 74
     0
 42
0.0000000001
 43
0.0000000001
 40
0.0
 40
0.0
 40
0.0
 40
0.0
 40
1.0
 40
1.0
 40
1.0
 40
2.0
 40
2.0
 40
2.0
 40
3.0
 40
3.0
 40
3.0
 40
4.0
 40
4.0
 40
4.0
 40
4.0
 10
106.2997412798065
 20
-140.8959272413733
 30
0.0
 10
106.2997412798065
 20
-140.8404705747203
 30
0.0
 10
106.2549737809486
 20
-140.7956677969539
 30
0.0
 10
106.1998346156887
 20
-140.7956677969539
 30
0.0
 10
106.1447307282056
 20
-140.7956677969539
 30
0.0
 10
106.0999279515708
 20
-140.8404705747203
 30
0.0
 10
106.0999279515708
 20
-140.8959272413733
 30
0.0
 10
106.0999279515708
 20
-140.9510311302482
 30
0.0
 10
106.1447307282056
 20
-140.995833908015
 30
0.0
 10
106.1998346156887
 20
-140.995833908015
 30
0.0
 10
106.2549737809486
 20
-140.995833908015
 30
0.0
 10
106.2997412798065
 20
-140.9510311302482
 30
0.0
 10
106.2997412798065
 20
-140.8959272413733
 30
0.0
  0
LINE
  5
DC
330
70
100
AcDbEntity
  8
レイヤー 1
 62
   250
420
  2299925
370
     9
100
AcDbLine
 10
75.19811235105329
 20
-145.6577216846272
 30
0.0
 11
75.19811235105329
 21
-140.3998158526083
 31
0.0
  0
LINE
  5
DD
330
70
100
AcDbEntity
  8
レイヤー 1
 62
   250
420
  2299925
370
     9
100
AcDbLine
 10
75.19811235105329
 20
-145.6577216846272
 30
0.0
 11
75.19811235105329
 21
-146.1579605733909
 31
0.0
  0
LINE
  5
DE
330
70
100
AcDbEntity
  8
レイヤー 1
 62
   250
420
  2299925
370
     9
100
AcDbLine
 10
76.65797731380902
 20
-145.6577216846272
 30
0.0
 11
74.19819904322988
 21
-145.6577216846272
 31
0.0
  0
LINE
  5
DF
330
70
100
AcDbEntity
  8
レイヤー 1
 62
   250
420
  2299925
370
     9
100
AcDbLine
 10
76.65797731380902
 20
-146.1579605733909
 30
0.0
 11
74.19819904322988
 21
-146.1579605733909
 31
0.0
  0
INSERT
  5
E1
330
70
100
AcDbEntity
  8
レイヤー 1
100
AcDbBlockReference
  2
Block_0
 10
0.0
 20
0.0
 30
0.0
  0
LINE
  5
EF
330
70
100
AcDbEntity
  8
レイヤー 1
 62
   250
420
  2299925
370
     9
100
AcDbLine
 10
79.19840058233076
 20
-140.8959272413733
 30
0.0
 11
100.1998608798722
 21
-140.8959272413733
 31
0.0
  0
LINE
  5
F0
330
70
100
AcDbEntity
  8
レイヤー 1
 62
   250
420
  2299925
370
     9
100
AcDbLine
 10
79.19840058233076
 20
-143.1180039074846
 30
0.0
 11
79.19840058233076
 21
-139.8958022416233
 31
0.0
  0
INSERT
  5
F2
330
70
100
AcDbEntity
  8
レイヤー 1
100
AcDbBlockReference
  2
Block_2
 10
0.0
 20
0.0
 30
0.0
  0
LINE
  5
FD
330
70
100
AcDbEntity
  8
レイヤー 1
 62
   250
420
  2299925
370
     9
100
AcDbLine
 10
75.19811235105329
 20
-146.1579605733909
 30
0.0
 11
75.19811235105329
 21
-154.1578316825024
 31
0.0
  0
LINE
  5
FE
330
70
100
AcDbEntity
  8
レイヤー 1
 62
   250
420
  2299925
370
     9
100
AcDbLine
 10
96.66037097017213
 20
-154.1578316825024
 30
0.0
 11
74.19819904322988
 21
-154.1578316825024
 31
0.0
  0
INSERT
  5
100
330
70
100
AcDbEntity
  8
レイヤー 1
100
AcDbBlockReference
  2
Block_4
 10
0.0
 20
0.0
 30
0.0
  0
LINE
  5
107
330
70
100
AcDbEntity
  8
レイヤー 1
 62
   250
420
  2299925
370
     9
100
AcDbLine
 10
127.2011538021226
 20
-140.8959272413733
 30
0.0
 11
106.1998346156887
 21
-140.8959272413733
 31
0.0
  0
LINE
  5
108
330
70
100
AcDbEntity
  8
レイヤー 1
 62
   250
420
  2299925
370
     9
100
AcDbLine
 10
127.2011538021226
 20
-143.1180039074846
 30
0.0
 11
127.2011538021226
 21
-139.8958022416233
 31
0.0
  0
INSERT
  5
10A
330
70
100
AcDbEntity
  8
レイヤー 1
100
AcDbBlockReference
  2
Block_5
 10
0.0
 20
0.0
 30
0.0
  0
LINE
  5
115
330
70
100
AcDbEntity
  8
レイヤー 1
 62
   250
420
  2299925
370
     9
100
AcDbLine
 10
100.1998608798722
 20
-140.8959272413733
 30
0.0
 11
106.1998346156887
 21
-140.8959272413733
 31
0.0
  0
LINE
  5
116
330
70
100
AcDbEntity
  8
レイヤー 1
 62
   250
420
  2299925
370
     9
100
AcDbLine
 10
100.1998608798722
 20
-142.355968629897
 30
0.0
 11
100.1998608798722
 21
-139.8958022416233
 31
0.0
  0
LINE
  5
117
330
70
100
AcDbEntity
  8
レイヤー 1
 62
   250
420
  2299925
370
     9
100
AcDbLine
 10
106.1998346156887
 20
-142.355968629897
 30
0.0
 11
106.1998346156887
 21
-139.8958022416233
 31
0.0
  0
INSERT
  5
119
330
70
100
AcDbEntity
  8
レイヤー 1
100
AcDbBlockReference
  2
Block_7
 10
0.0
 20
0.0
 30
0.0
  0
SPLINE
  5
11F
330
70
100
AcDbEntity
  8
レイヤー 1
 62
   250
420
  2299925
370
     9
100
AcDbSpline
210
0.0
220
0.0
230
1.0
 70
     9
 71
     3
 72
    17
 73
    13
 74
     0
 42
0.0000000001
 43
0.0000000001
 40
0.0
 40
0.0
 40
0.0
 40
0.0
 40
1.0
 40
1.0
 40
1.0
 40
2.0
 40
2.0
 40
2.0
 40
3.0
 40
3.0
 40
3.0
 40
4.0
 40
4.0
 40
4.0
 40
4.0
 10
99.48397189907105
 20
-158.2712558481404
 30
0.0
 10
99.48397189907105
 20
-158.2161519592655
 30
0.0
 10
99.42815951067107
 20
-158.1713491814988
 30
0.0
 10
99.35996756796635
 20
-158.1713491814988
 30
0.0
 10
99.29103479194687
 20
-158.1713491814988
 30
0.0
 10
99.23593090446411
 20
-158.2161519592655
 30
0.0
 10
99.23593090446411
 20
-158.2712558481404
 30
0.0
 10
99.23593090446411
 20
-158.3263950147935
 30
0.0
 10
99.29103479194687
 20
-158.371162514782
 30
0.0
 10
99.35996756796635
 20
-158.371162514782
 30
0.0
 10
99.42815951067107
 20
-158.371162514782
 30
0.0
 10
99.48397189907105
 20
-158.3263950147935
 30
0.0
 10
99.48397189907105
 20
-158.2712558481404
 30
0.0
  0
SPLINE
  5
120
330
70
100
AcDbEntity
  8
レイヤー 1
 62
   250
420
  2299925
370
     9
100
AcDbSpline
210
0.0
220
0.0
230
1.0
 70
     9
 71
     3
 72
    17
 73
    13
 74
     0
 42
0.0000000001
 43
0.0000000001
 40
0.0
 40
0.0
 40
0.0
 40
0.0
 40
1.0
 40
1.0
 40
1.0
 40
2.0
 40
2.0
 40
2.0
 40
3.0
 40
3.0
 40
3.0
 40
4.0
 40
4.0
 40
4.0
 40
4.0
 10
107.5682274526056
 20
-158.2712558481404
 30
0.0
 10
107.5682274526056
 20
-158.2161519592655
 30
0.0
 10
107.5124148599797
 20
-158.1713491814988
 30
0.0
 10
107.4435173617375
 20
-158.1713491814988
 30
0.0
 10
107.3746198634952
 20
-158.1713491814988
 30
0.0
 10
107.3195191193338
 20
-158.2161519592655
 30
0.0
 10
107.3195191193338
 20
-158.2712558481404
 30
0.0
 10
107.3195191193338
 20
-158.3263950147935
 30
0.0
 10
107.3746198634952
 20
-158.371162514782
 30
0.0
 10
107.4435173617375
 20
-158.371162514782
 30
0.0
 10
107.5124148599797
 20
-158.371162514782
 30
0.0
 10
107.5682274526056
 20
-158.3263950147935
 30
0.0
 10
107.5682274526056
 20
-158.2712558481404
 30
0.0
  0
LINE
  5
121
330
70
100
AcDbEntity
  8
レイヤー 1
 62
   250
420
  2299925
370
     9
100
AcDbLine
 10
107.4435173617375
 20
-158.2712558481404
 30
0.0
 11
99.35996756796635
 21
-158.2712558481404
 31
0.0
  0
LINE
  5
122
330
70
100
AcDbEntity
  8
レイヤー 1
 62
   250
420
  2299925
370
     9
100
AcDbLine
 10
107.4435173617375
 20
-156.8112144596167
 30
0.0
 11
107.4435173617375
 21
-159.2713808478907
 31
0.0
  0
LINE
  5
123
330
70
100
AcDbEntity
  8
レイヤー 1
 62
   250
420
  2299925
370
     9
100
AcDbLine
 10
99.35996756796635
 20
-156.8112144596167
 30
0.0
 11
99.35996756796635
 21
-159.2713808478907
 31
0.0
  0
INSERT
  5
125
330
70
100
AcDbEntity
  8
レイヤー 1
100
AcDbBlockReference
  2
Block_8
 10
0.0
 20
0.0
 30
0.0
  0
LINE
  5
12C
330
70
100
AcDbEntity
  8
レイヤー 1
 62
   250
420
  2299925
370
     9
100
AcDbLine
 10
104.1417291126401
 20
-150.3030994612435
 30
0.0
 11
112.141952797426
 21
-150.3030994612435
 31
0.0
  0
INSERT
  5
12E
330
70
100
AcDbEntity
  8
レイヤー 1
100
AcDbBlockReference
  2
Block_9
 10
0.0
 20
0.0
 30
0.0
  0
LINE
  5
133
330
70
100
AcDbEntity
  8
レイヤー 1
  6
AI-Linetype-0
 62
   154
420
    23468
370
    25
100
AcDbLine
 10
117.0663776717934
 20
-146.8586830732159
 30
0.0
 11
127.2011538021226
 21
-146.8586830732159
 31
0.0
  0
LINE
  5
135
330
70
100
AcDbEntity
  8
レイヤー 1
  6
AI-Linetype-1
 62
   154
420
    23468
370
    25
100
AcDbLine
 10
79.16531002761942
 20
-146.8586830732159
 30
0.0
 11
89.16557467942849
 21
-146.8586830732159
 31
0.0
  0
INSERT
  5
138
330
70
100
AcDbEntity
  8
レイヤー 1
100
AcDbBlockReference
  2
Block_10
 10
0.0
 20
0.0
 30
0.0
  0
ENDSEC
  0
SECTION
  2
OBJECTS
  0
DICTIONARY
  5
C
330
0
100
AcDbDictionary
281
     1
  3
ACAD_COLOR
350
63
  3
ACAD_DETAILVIEWSTYLE
350
6A
  3
ACAD_GROUP
350
D
  3
ACAD_LAYOUT
350
62
  3
ACAD_MATERIAL
350
10
  3
ACAD_MLEADERSTYLE
350
66
  3
ACAD_MLINESTYLE
350
5F
  3
ACAD_PLOTSETTINGS
350
61
  3
ACAD_PLOTSTYLENAME
350
E
  3
ACAD_SCALELIST
350
42
  3
ACAD_SECTIONVIEWSTYLE
350
68
  3
ACAD_TABLESTYLE
350
64
  3
ACAD_VISUALSTYLE
350
29
  3
ACDB_RECOMPOSE_DATA
350
165
  3
AcDbVariableDictionary
350
15D
  0
DICTIONARY
  5
63
102
{ACAD_REACTORS
330
C
102
}
330
C
100
AcDbDictionary
281
     1
  0
DICTIONARY
  5
6A
102
{ACAD_REACTORS
330
C
102
}
330
C
100
AcDbDictionary
281
     1
  3
Imperial24
350
6B
  0
DICTIONARY
  5
D
102
{ACAD_REACTORS
330
C
102
}
330
C
100
AcDbDictionary
281
     1
  0
DICTIONARY
  5
62
102
{ACAD_REACTORS
330
C
102
}
330
C
100
AcDbDictionary
281
     1
  3
Layout1
350
6F
  3
Layout2
350
77
  3
Model
350
73
  0
DICTIONARY
  5
10
102
{ACAD_REACTORS
330
C
102
}
330
C
100
AcDbDictionary
281
     1
  3
ByBlock
350
19
  3
ByLayer
350
11
  3
Global
350
21
  0
DICTIONARY
  5
66
102
{ACAD_REACTORS
330
C
102
}
330
C
100
AcDbDictionary
281
     1
  3
Standard
350
67
  0
DICTIONARY
  5
5F
102
{ACAD_REACTORS
330
C
102
}
330
C
100
AcDbDictionary
281
     1
  3
Standard
350
60
  0
DICTIONARY
  5
61
102
{ACAD_REACTORS
330
C
102
}
330
C
100
AcDbDictionary
281
     1
  0
ACDBDICTIONARYWDFLT
  5
E
102
{ACAD_REACTORS
330
C
102
}
330
C
100
AcDbDictionary
281
     1
  3
Normal
350
F
100
AcDbDictionaryWithDefault
340
F
  0
DICTIONARY
  5
42
102
{ACAD_REACTORS
330
C
102
}
330
C
100
AcDbDictionary
281
     1
  3
A0
350
43
  3
A1
350
44
  3
A2
350
45
  3
A3
350
46
  3
A4
350
47
  3
A5
350
48
  3
A6
350
49
  3
A7
350
4A
  3
A8
350
4B
  3
A9
350
4C
  3
B0
350
4D
  3
B1
350
4E
  3
B2
350
4F
  3
B3
350
50
  3
B4
350
51
  3
B5
350
52
  3
B6
350
53
  0
DICTIONARY
  5
68
102
{ACAD_REACTORS
330
C
102
}
330
C
100
AcDbDictionary
281
     1
  3
Imperial24
350
69
  0
DICTIONARY
  5
64
102
{ACAD_REACTORS
330
C
102
}
330
C
100
AcDbDictionary
281
     1
  3
Standard
350
65
  0
DICTIONARY
  5
29
102
{ACAD_REACTORS
330
C
102
}
330
C
100
AcDbDictionary
281
     1
  3
2dWireframe
350
2F
  3
Basic
350
2E
  3
Brighten
350
35
  3
ColorChange
350
39
  3
Conceptual
350
32
  3
Dim
350
34
  3
EdgeColorOff
350
41
  3
Facepattern
350
38
  3
Flat
350
2A
  3
FlatWithEdges
350
2B
  3
Gouraud
350
2C
  3
GouraudWithEdges
350
2D
  3
Hidden
350
31
  3
JitterOff
350
3F
  3
Linepattern
350
37
  3
OverhangOff
350
40
  3
Realistic
350
33
  3
Shaded
350
3E
  3
Shaded with edges
350
3D
  3
Shades of Gray
350
3A
  3
Sketchy
350
3B
  3
Thicken
350
36
  3
Wireframe
350
30
  3
X-Ray
350
3C
  0
XRECORD
  5
165
102
{ACAD_REACTORS
330
C
102
}
330
C
100
AcDbXrecord
280
     1
 90
        1
330
65
  0
DICTIONARY
  5
15D
102
{ACAD_REACTORS
330
C
102
}
330
C
100
AcDbDictionary
281
     1
  3
CANNOSCALE
350
162
  3
CMLEADERSTYLE
350
15F
  3
CTABLESTYLE
350
15E
  3
CVIEWDETAILSTYLE
350
160
  3
CVIEWSECTIONSTYLE
350
161
  0
ACDBDETAILVIEWSTYLE
  5
6B
102
{ACAD_XDICTIONARY
360
19A
102
}
102
{ACAD_REACTORS
330
6A
102
}
330
6A
100
AcDbModelDocViewStyle
 70
     0
  3
Imperial24
290
     0
100
AcDbDetailViewStyle
 70
     0
 71
     0
 90
        3
 71
     1
340
55
 62
   256
 40
0.24
340
0
 62
   256
 40
0.24
300

 40
0.36
280
     3
 71
     2
340
5D
 90
       25
 62
   256
 71
     3
340
55
 62
   256
 40
0.24
 90
        1
 40
0.75
 90
        1
300
%<\AcVar ViewType \f "%tc1">% %<\AcVar ViewDetailId>%\PSCALE %<\AcVar ViewScale \f "%sn">%
 71
     4
340
5D
 90
       25
 62
   256
340
5D
 90
       25
 62
   256
280
     0
  0
LAYOUT
  5
6F
102
{ACAD_REACTORS
330
62
102
}
330
62
100
AcDbPlotSettings
  1

  2

  4

  6

 40
0.0
 41
0.0
 42
0.0
 43
0.0
 44
0.0
 45
0.0
 46
0.0
 47
0.0
 48
0.0
 49
0.0
140
0.0
141
0.0
142
1.0
143
1.0
 70
   688
 72
     0
 73
     0
 74
     5
  7

 75
    16
147
1.0
 76
     0
 77
     2
 78
   300
148
0.0
149
0.0
100
AcDbLayout
  1
Layout1
 70
     1
 71
     1
 10
0.0
 20
0.0
 11
12.0
 21
9.0
 12
0.0
 22
0.0
 32
0.0
 14
0.0
 24
0.0
 34
0.0
 15
0.0
 25
0.0
 35
0.0
146
0.0
 13
0.0
 23
0.0
 33
0.0
 16
1.0
 26
0.0
 36
0.0
 17
0.0
 27
1.0
 37
0.0
 76
     0
330
6C
  0
LAYOUT
  5
77
102
{ACAD_REACTORS
330
62
102
}
330
62
100
AcDbPlotSettings
  1

  2

  4

  6

 40
0.0
 41
0.0
 42
0.0
 43
0.0
 44
0.0
 45
0.0
 46
0.0
 47
0.0
 48
0.0
 49
0.0
140
0.0
141
0.0
142
1.0
143
1.0
 70
   688
 72
     0
 73
     0
 74
     5
  7

 75
    16
147
1.0
 76
     0
 77
     2
 78
   300
148
0.0
149
0.0
100
AcDbLayout
  1
Layout2
 70
     1
 71
     2
 10
0.0
 20
0.0
 11
12.0
 21
9.0
 12
0.0
 22
0.0
 32
0.0
 14
0.0
 24
0.0
 34
0.0
 15
0.0
 25
0.0
 35
0.0
146
0.0
 13
0.0
 23
0.0
 33
0.0
 16
1.0
 26
0.0
 36
0.0
 17
0.0
 27
1.0
 37
0.0
 76
     0
330
74
  0
LAYOUT
  5
73
102
{ACAD_REACTORS
330
62
102
}
330
62
100
AcDbPlotSettings
  1

  2

  4

  6

 40
0.0
 41
0.0
 42
0.0
 43
0.0
 44
0.0
 45
0.0
 46
0.0
 47
0.0
 48
0.0
 49
0.0
140
0.0
141
0.0
142
1.0
143
1.0
 70
  1712
 72
     0
 73
     0
 74
     0
  7

 75
     0
147
1.0
 76
     0
 77
     2
 78
   300
148
0.0
149
0.0
100
AcDbLayout
  1
Model
 70
     1
 71
     0
 10
0.0
 20
0.0
 11
12.0
 21
9.0
 12
0.0
 22
0.0
 32
0.0
 14
0.0
 24
0.0
 34
0.0
 15
0.0
 25
0.0
 35
0.0
146
0.0
 13
0.0
 23
0.0
 33
0.0
 16
1.0
 26
0.0
 36
0.0
 17
0.0
 27
1.0
 37
0.0
 76
     0
330
70
  0
MATERIAL
  5
19
102
{ACAD_XDICTIONARY
360
1A
102
}
102
{ACAD_REACTORS
330
10
102
}
330
10
100
AcDbMaterial
  1
ByBlock
 72
     0
 43
0.0208333333333333
 43
0.0
 43
0.0
 43
0.0
 43
0.0
 43
0.0208333333333333
 43
0.0
 43
0.0
 43
0.0
 43
0.0
 43
1.0
 43
0.0
 43
0.0
 43
0.0
 43
0.0
 43
1.0
 77
     0
 47
0.0208333333333333
 47
0.0
 47
0.0
 47
0.0
 47
0.0
 47
0.0208333333333333
 47
0.0
 47
0.0
 47
0.0
 47
0.0
 47
1.0
 47
0.0
 47
0.0
 47
0.0
 47
0.0
 47
1.0
171
     0
 49
0.0208333333333333
 49
0.0
 49
0.0
 49
0.0
 49
0.0
 49
0.0208333333333333
 49
0.0
 49
0.0
 49
0.0
 49
0.0
 49
1.0
 49
0.0
 49
0.0
 49
0.0
 49
0.0
 49
1.0
175
     0
142
0.0208333333333333
142
0.0
142
0.0
142
0.0
142
0.0
142
0.0208333333333333
142
0.0
142
0.0
142
0.0
142
0.0
142
1.0
142
0.0
142
0.0
142
0.0
142
0.0
142
1.0
179
     0
144
0.0208333333333333
144
0.0
144
0.0
144
0.0
144
0.0
144
0.0208333333333333
144
0.0
144
0.0
144
0.0
144
0.0
144
1.0
144
0.0
144
0.0
144
0.0
144
0.0
144
1.0
147
0.0208333333333333
147
0.0
147
0.0
147
0.0
147
0.0
147
0.0208333333333333
147
0.0
147
0.0
147
0.0
147
0.0
147
1.0
147
0.0
147
0.0
147
0.0
147
0.0
147
1.0
  0
MATERIAL
  5
11
102
{ACAD_XDICTIONARY
360
12
102
}
102
{ACAD_REACTORS
330
10
102
}
330
10
100
AcDbMaterial
  1
ByLayer
 72
     0
 43
0.0208333333333333
 43
0.0
 43
0.0
 43
0.0
 43
0.0
 43
0.0208333333333333
 43
0.0
 43
0.0
 43
0.0
 43
0.0
 43
1.0
 43
0.0
 43
0.0
 43
0.0
 43
0.0
 43
1.0
 77
     0
 47
0.0208333333333333
 47
0.0
 47
0.0
 47
0.0
 47
0.0
 47
0.0208333333333333
 47
0.0
 47
0.0
 47
0.0
 47
0.0
 47
1.0
 47
0.0
 47
0.0
 47
0.0
 47
0.0
 47
1.0
171
     0
 49
0.0208333333333333
 49
0.0
 49
0.0
 49
0.0
 49
0.0
 49
0.0208333333333333
 49
0.0
 49
0.0
 49
0.0
 49
0.0
 49
1.0
 49
0.0
 49
0.0
 49
0.0
 49
0.0
 49
1.0
175
     0
142
0.0208333333333333
142
0.0
142
0.0
142
0.0
142
0.0
142
0.0208333333333333
142
0.0
142
0.0
142
0.0
142
0.0
142
1.0
142
0.0
142
0.0
142
0.0
142
0.0
142
1.0
179
     0
144
0.0208333333333333
144
0.0
144
0.0
144
0.0
144
0.0
144
0.0208333333333333
144
0.0
144
0.0
144
0.0
144
0.0
144
1.0
144
0.0
144
0.0
144
0.0
144
0.0
144
1.0
147
0.0208333333333333
147
0.0
147
0.0
147
0.0
147
0.0
147
0.0208333333333333
147
0.0
147
0.0
147
0.0
147
0.0
147
1.0
147
0.0
147
0.0
147
0.0
147
0.0
147
1.0
  0
MATERIAL
  5
21
102
{ACAD_XDICTIONARY
360
22
102
}
102
{ACAD_REACTORS
330
10
102
}
330
10
100
AcDbMaterial
  1
Global
 72
     0
 43
0.0208333333333333
 43
0.0
 43
0.0
 43
0.0
 43
0.0
 43
0.0208333333333333
 43
0.0
 43
0.0
 43
0.0
 43
0.0
 43
1.0
 43
0.0
 43
0.0
 43
0.0
 43
0.0
 43
1.0
 77
     0
 47
0.0208333333333333
 47
0.0
 47
0.0
 47
0.0
 47
0.0
 47
0.0208333333333333
 47
0.0
 47
0.0
 47
0.0
 47
0.0
 47
1.0
 47
0.0
 47
0.0
 47
0.0
 47
0.0
 47
1.0
171
     0
 49
0.0208333333333333
 49
0.0
 49
0.0
 49
0.0
 49
0.0
 49
0.0208333333333333
 49
0.0
 49
0.0
 49
0.0
 49
0.0
 49
1.0
 49
0.0
 49
0.0
 49
0.0
 49
0.0
 49
1.0
175
     0
142
0.0208333333333333
142
0.0
142
0.0
142
0.0
142
0.0
142
0.0208333333333333
142
0.0
142
0.0
142
0.0
142
0.0
142
1.0
142
0.0
142
0.0
142
0.0
142
0.0
142
1.0
179
     0
144
0.0208333333333333
144
0.0
144
0.0
144
0.0
144
0.0
144
0.0208333333333333
144
0.0
144
0.0
144
0.0
144
0.0
144
1.0
144
0.0
144
0.0
144
0.0
144
0.0
144
1.0
147
0.0208333333333333
147
0.0
147
0.0
147
0.0
147
0.0
147
0.0208333333333333
147
0.0
147
0.0
147
0.0
147
0.0
147
1.0
147
0.0
147
0.0
147
0.0
147
0.0
147
1.0
  0
MLEADERSTYLE
  5
67
102
{ACAD_XDICTIONARY
360
196
102
}
102
{ACAD_REACTORS
330
66
102
}
330
66
100
AcDbMLeaderStyle
179
     2
170
     2
171
     1
172
     0
 90
        2
 40
0.0
 41
0.0
173
     1
 91
-1056964608
340
5B
 92
       -2
290
     1
 42
0.09
291
     1
 43
0.36
  3
Standard
 44
0.18
300

342
55
174
     1
178
     6
175
     1
176
     0
 93
-1056964608
 45
0.18
292
     0
297
     0
 46
0.18
 94
-1056964608
 47
1.0
 49
1.0
140
1.0
293
     1
141
0.0
294
     1
177
     0
142
1.0
295
     0
296
     0
143
0.125
271
     0
272
     9
273
     9
  0
MLINESTYLE
  5
60
102
{ACAD_REACTORS
330
5F
102
}
330
5F
100
AcDbMlineStyle
  2
STANDARD
 70
     0
  3

 62
   256
 51
90.0
 52
90.0
 71
     2
 49
0.5
 62
   256
  6
BYLAYER
 49
-0.5
 62
   256
  6
BYLAYER
  0
ACDBPLACEHOLDER
  5
F
102
{ACAD_REACTORS
330
E
102
}
330
E
  0
SCALE
  5
43
102
{ACAD_REACTORS
330
42
102
}
330
42
100
AcDbScale
 70
     0
300
1:1
140
1.0
141
1.0
290
     1
  0
SCALE
  5
44
102
{ACAD_REACTORS
330
42
102
}
330
42
100
AcDbScale
 70
     0
300
1/128" = 1'-0"
140
0.0078125
141
12.0
290
     0
  0
SCALE
  5
45
102
{ACAD_REACTORS
330
42
102
}
330
42
100
AcDbScale
 70
     0
300
1/64" = 1'-0"
140
0.015625
141
12.0
290
     0
  0
SCALE
  5
46
102
{ACAD_REACTORS
330
42
102
}
330
42
100
AcDbScale
 70
     0
300
1/32" = 1'-0"
140
0.03125
141
12.0
290
     0
  0
SCALE
  5
47
102
{ACAD_REACTORS
330
42
102
}
330
42
100
AcDbScale
 70
     0
300
1/16" = 1'-0"
140
0.0625
141
12.0
290
     0
  0
SCALE
  5
48
102
{ACAD_REACTORS
330
42
102
}
330
42
100
AcDbScale
 70
     0
300
3/32" = 1'-0"
140
0.09375
141
12.0
290
     0
  0
SCALE
  5
49
102
{ACAD_REACTORS
330
42
102
}
330
42
100
AcDbScale
 70
     0
300
1/8" = 1'-0"
140
0.125
141
12.0
290
     0
  0
SCALE
  5
4A
102
{ACAD_REACTORS
330
42
102
}
330
42
100
AcDbScale
 70
     0
300
3/16" = 1'-0"
140
0.1875
141
12.0
290
     0
  0
SCALE
  5
4B
102
{ACAD_REACTORS
330
42
102
}
330
42
100
AcDbScale
 70
     0
300
1/4" = 1'-0"
140
0.25
141
12.0
290
     0
  0
SCALE
  5
4C
102
{ACAD_REACTORS
330
42
102
}
330
42
100
AcDbScale
 70
     0
300
3/8" = 1'-0"
140
0.375
141
12.0
290
     0
  0
SCALE
  5
4D
102
{ACAD_REACTORS
330
42
102
}
330
42
100
AcDbScale
 70
     0
300
1/2" = 1'-0"
140
0.5
141
12.0
290
     0
  0
SCALE
  5
4E
102
{ACAD_REACTORS
330
42
102
}
330
42
100
AcDbScale
 70
     0
300
3/4" = 1'-0"
140
0.75
141
12.0
290
     0
  0
SCALE
  5
4F
102
{ACAD_REACTORS
330
42
102
}
330
42
100
AcDbScale
 70
     0
300
1" = 1'-0"
140
1.0
141
12.0
290
     0
  0
SCALE
  5
50
102
{ACAD_REACTORS
330
42
102
}
330
42
100
AcDbScale
 70
     0
300
1-1/2" = 1'-0"
140
1.5
141
12.0
290
     0
  0
SCALE
  5
51
102
{ACAD_REACTORS
330
42
102
}
330
42
100
AcDbScale
 70
     0
300
3" = 1'-0"
140
3.0
141
12.0
290
     0
  0
SCALE
  5
52
102
{ACAD_REACTORS
330
42
102
}
330
42
100
AcDbScale
 70
     0
300
6" = 1'-0"
140
6.0
141
12.0
290
     0
  0
SCALE
  5
53
102
{ACAD_REACTORS
330
42
102
}
330
42
100
AcDbScale
 70
     0
300
1'-0" = 1'-0"
140
12.0
141
12.0
290
     0
  0
ACDBSECTIONVIEWSTYLE
  5
69
102
{ACAD_XDICTIONARY
360
198
102
}
102
{ACAD_REACTORS
330
68
102
}
330
68
100
AcDbModelDocViewStyle
 70
     0
  3
Imperial24
290
     0
100
AcDbSectionViewStyle
 70
     0
 71
     0
 90
       78
 71
     1
340
55
 62
   256
 40
0.24
340
0
340
0
 62
   256
 40
0.24
300
I, O, Q, S, X, Z
 40
0.48
 90
        3
 40
0.18
 90
        1
 71
     2
340
5D
 90
       25
 62
   256
340
5D
 90
       50
 62
   256
 40
0.24
 40
0.0
 40
0.24
 71
     3
340
55
 62
   256
 40
0.24
 90
        1
 40
0.75
 90
        1
300
%<\AcVar ViewType \f "%tc1">% %<\AcVar ViewSectionStartId>%-%<\AcVar ViewSectionEndId>%\PSCALE %<\AcVar ViewScale \f "%sn">%
 71
     4
 62
   256
 62
   257
300
ANSI31
 40
1.0
 90
        0
290
     0
290
     0
 90
        6
 40
0.0
 40
1.570796326794896
 40
0.2617993877991494
 40
1.308996938995747
 40
-0.2617993877991494
 40
1.832595714594046
  0
TABLESTYLE
  5
65
102
{ACAD_XDICTIONARY
360
163
102
}
102
{ACAD_REACTORS
330
64
102
}
330
64
100
AcDbTableStyle
280
     0
  3
Standard
 70
     0
 71
     0
 40
0.06
 41
0.06
280
     0
281
     0
  7
Standard
140
0.18
170
     2
 62
     0
 63
     7
283
     0
 90
      512
 91
        0
  1

274
    -2
284
     1
 64
     0
275
    -2
285
     1
 65
     0
276
    -2
286
     1
 66
     0
277
    -2
287
     1
 67
     0
278
    -2
288
     1
 68
     0
279
    -2
289
     1
 69
     0
  7
Standard
140
0.25
170
     5
 62
     0
 63
     7
283
     0
 90
      512
 91
        0
  1

274
    -2
284
     1
 64
     0
275
    -2
285
     1
 65
     0
276
    -2
286
     1
 66
     0
277
    -2
287
     1
 67
     0
278
    -2
288
     1
 68
     0
279
    -2
289
     1
 69
     0
  7
Standard
140
0.18
170
     5
 62
     0
 63
     7
283
     0
 90
      512
 91
        0
  1

274
    -2
284
     1
 64
     0
275
    -2
285
     1
 65
     0
276
    -2
286
     1
 66
     0
277
    -2
287
     1
 67
     0
278
    -2
288
     1
 68
     0
279
    -2
289
     1
 69
     0
  0
VISUALSTYLE
  5
2F
102
{ACAD_XDICTIONARY
360
170
102
}
102
{ACAD_REACTORS
330
29
102
}
330
29
100
AcDbVisualStyle
  2
2dWireframe
 70
     4
177
     2
291
     0
 71
     0
176
     1
 72
     2
176
     1
 73
     0
176
     1
 90
        0
176
     1
 40
0.6
176
     1
 41
30.0
176
     1
 63
     7
421
 16777215
176
     1
 74
     1
176
     1
 91
        4
176
     1
 64
     7
176
     1
 65
   257
176
     1
 75
     1
176
     1
175
     1
176
     1
 42
1.0
176
     1
 92
        0
176
     1
 66
   257
176
     1
 43
1.0
176
     1
 76
     1
176
     1
 77
     6
176
     1
 78
     2
176
     1
 67
     7
176
     1
 79
     5
176
     1
170
     0
176
     1
171
     0
176
     1
290
     0
176
     1
 93
        1
176
     1
 44
0.0
176
     1
173
     0
176
     1
1001
ACAD
1000
AcDbSavedByObjectVersion
1070
     0
  0
VISUALSTYLE
  5
2E
102
{ACAD_XDICTIONARY
360
16E
102
}
102
{ACAD_REACTORS
330
29
102
}
330
29
100
AcDbVisualStyle
  2
Basic
 70
     7
177
     2
291
     1
 71
     1
176
     1
 72
     0
176
     1
 73
     1
176
     1
 90
        0
176
     1
 40
0.6
176
     1
 41
30.0
176
     1
 63
     7
421
 16777215
176
     1
 74
     0
176
     1
 91
        4
176
     1
 64
     7
176
     1
 65
   257
176
     1
 75
     1
176
     1
175
     1
176
     1
 42
1.0
176
     1
 92
        8
176
     1
 66
     7
176
     1
 43
1.0
176
     1
 76
     1
176
     1
 77
     6
176
     1
 78
     2
176
     1
 67
     7
176
     1
 79
     5
176
     1
170
     0
176
     1
171
     0
176
     1
290
     0
176
     1
 93
        1
176
     1
 44
0.0
176
     1
173
     0
176
     1
1001
ACAD
1000
AcDbSavedByObjectVersion
1070
     0
  0
VISUALSTYLE
  5
35
102
{ACAD_XDICTIONARY
360
17C
102
}
102
{ACAD_REACTORS
330
29
102
}
330
29
100
AcDbVisualStyle
  2
Brighten
 70
    12
177
     2
291
     1
 71
     2
176
     1
 72
     2
176
     1
 73
     0
176
     1
 90
        0
176
     1
 40
0.6
176
     1
 41
30.0
176
     1
 63
     7
421
 16777215
176
     1
 74
     1
176
     1
 91
        4
176
     1
 64
     7
176
     1
 65
   257
176
     1
 75
     1
176
     1
175
     1
176
     1
 42
1.0
176
     1
 92
        8
176
     1
 66
     7
176
     1
 43
1.0
176
     1
 76
     1
176
     1
 77
     6
176
     1
 78
     2
176
     1
 67
     7
176
     1
 79
     5
176
     1
170
     0
176
     1
171
     0
176
     1
290
     0
176
     1
 93
        1
176
     1
 44
50.0
176
     1
173
     0
176
     1
1001
ACAD
1000
AcDbSavedByObjectVersion
1070
     0
  0
VISUALSTYLE
  5
39
102
{ACAD_XDICTIONARY
360
184
102
}
102
{ACAD_REACTORS
330
29
102
}
330
29
100
AcDbVisualStyle
  2
ColorChange
 70
    16
177
     2
291
     1
 71
     2
176
     1
 72
     2
176
     1
 73
     3
176
     1
 90
        0
176
     1
 40
0.6
176
     1
 41
30.0
176
     1
 63
     8
421
  8421504
176
     1
 74
     1
176
     1
 91
        4
176
     1
 64
     7
176
     1
 65
   257
176
     1
 75
     1
176
     1
175
     1
176
     1
 42
1.0
176
     1
 92
        8
176
     1
 66
     8
424
  8421504
176
     1
 43
1.0
176
     1
 76
     1
176
     1
 77
     6
176
     1
 78
     2
176
     1
 67
     7
176
     1
 79
     5
176
     1
170
     0
176
     1
171
     0
176
     1
290
     0
176
     1
 93
        1
176
     1
 44
0.0
176
     1
173
     0
176
     1
1001
ACAD
1000
AcDbSavedByObjectVersion
1070
     0
  0
VISUALSTYLE
  5
32
102
{ACAD_XDICTIONARY
360
176
102
}
102
{ACAD_REACTORS
330
29
102
}
330
29
100
AcDbVisualStyle
  2
Conceptual
 70
     9
177
     2
291
     0
 71
     3
176
     1
 72
     2
176
     1
 73
     0
176
     1
 90
        0
176
     1
 40
0.6
176
     1
 41
30.0
176
     1
 63
     7
421
 16777215
176
     1
 74
     2
176
     1
 91
        2
176
     1
 64
     7
176
     1
 65
   257
176
     1
 75
     1
176
     1
175
     1
176
     1
 42
179.0
176
     1
 92
        8
176
     1
 66
     7
176
     1
 43
1.0
176
     1
 76
     1
176
     1
 77
     6
176
     1
 78
     2
176
     1
 67
     7
176
     1
 79
     3
176
     1
170
     0
176
     1
171
     0
176
     1
290
     0
176
     1
 93
        1
176
     1
 44
0.0
176
     1
173
     0
176
     1
1001
ACAD
1000
AcDbSavedByObjectVersion
1070
     0
  0
VISUALSTYLE
  5
34
102
{ACAD_XDICTIONARY
360
17A
102
}
102
{ACAD_REACTORS
330
29
102
}
330
29
100
AcDbVisualStyle
  2
Dim
 70
    11
177
     2
291
     1
 71
     2
176
     1
 72
     2
176
     1
 73
     0
176
     1
 90
        0
176
     1
 40
0.6
176
     1
 41
30.0
176
     1
 63
     7
421
 16777215
176
     1
 74
     1
176
     1
 91
        4
176
     1
 64
     7
176
     1
 65
   257
176
     1
 75
     1
176
     1
175
     1
176
     1
 42
1.0
176
     1
 92
        8
176
     1
 66
     7
176
     1
 43
1.0
176
     1
 76
     1
176
     1
 77
     6
176
     1
 78
     2
176
     1
 67
     7
176
     1
 79
     5
176
     1
170
     0
176
     1
171
     0
176
     1
290
     0
176
     1
 93
        1
176
     1
 44
-50.0
176
     1
173
     0
176
     1
1001
ACAD
1000
AcDbSavedByObjectVersion
1070
     0
  0
VISUALSTYLE
  5
41
102
{ACAD_XDICTIONARY
360
194
102
}
102
{ACAD_REACTORS
330
29
102
}
330
29
100
AcDbVisualStyle
  2
EdgeColorOff
 70
    22
177
     2
291
     1
 71
     2
176
     0
 72
     2
176
     0
 73
     0
176
     0
 90
        0
176
     0
 40
0.6
176
     0
 41
30.0
176
     0
 63
     7
421
 16777215
176
     0
 74
     1
176
     0
 91
        4
176
     0
 64
     7
176
     0
 65
   257
176
     0
 75
     1
176
     0
175
     1
176
     0
 42
1.0
176
     0
 92
        8
176
     2
 66
     7
176
     0
 43
1.0
176
     0
 76
     1
176
     0
 77
     6
176
     0
 78
     2
176
     0
 67
     7
176
     0
 79
     5
176
     0
170
     0
176
     0
171
     0
176
     0
290
     0
176
     0
 93
        1
176
     0
 44
0.0
176
     0
173
     0
176
     0
1001
ACAD
1000
AcDbSavedByObjectVersion
1070
     0
  0
VISUALSTYLE
  5
38
102
{ACAD_XDICTIONARY
360
182
102
}
102
{ACAD_REACTORS
330
29
102
}
330
29
100
AcDbVisualStyle
  2
Facepattern
 70
    15
177
     2
291
     1
 71
     2
176
     1
 72
     2
176
     1
 73
     0
176
     1
 90
        0
176
     1
 40
0.6
176
     1
 41
30.0
176
     1
 63
     7
421
 16777215
176
     1
 74
     1
176
     1
 91
        4
176
     1
 64
     7
176
     1
 65
   257
176
     1
 75
     1
176
     1
175
     1
176
     1
 42
1.0
176
     1
 92
        8
176
     1
 66
     7
176
     1
 43
1.0
176
     1
 76
     1
176
     1
 77
     6
176
     1
 78
     2
176
     1
 67
     7
176
     1
 79
     5
176
     1
170
     0
176
     1
171
     0
176
     1
290
     0
176
     1
 93
        1
176
     1
 44
0.0
176
     1
173
     0
176
     1
1001
ACAD
1000
AcDbSavedByObjectVersion
1070
     0
  0
VISUALSTYLE
  5
2A
102
{ACAD_XDICTIONARY
360
166
102
}
102
{ACAD_REACTORS
330
29
102
}
330
29
100
AcDbVisualStyle
  2
Flat
 70
     0
177
     2
291
     1
 71
     2
176
     1
 72
     1
176
     1
 73
     1
176
     1
 90
        2
176
     1
 40
0.6
176
     1
 41
30.0
176
     1
 63
     7
421
 16777215
176
     1
 74
     0
176
     1
 91
        0
176
     1
 64
     7
176
     1
 65
   257
176
     1
 75
     1
176
     1
175
     1
176
     1
 42
1.0
176
     1
 92
        8
176
     1
 66
     7
176
     1
 43
1.0
176
     1
 76
     1
176
     1
 77
     6
176
     1
 78
     2
176
     1
 67
     7
176
     1
 79
     5
176
     1
170
     0
176
     1
171
     0
176
     1
290
     0
176
     1
 93
       13
176
     1
 44
0.0
176
     1
173
     0
176
     1
1001
ACAD
1000
AcDbSavedByObjectVersion
1070
     0
  0
VISUALSTYLE
  5
2B
102
{ACAD_XDICTIONARY
360
168
102
}
102
{ACAD_REACTORS
330
29
102
}
330
29
100
AcDbVisualStyle
  2
FlatWithEdges
 70
     1
177
     2
291
     1
 71
     2
176
     1
 72
     1
176
     1
 73
     1
176
     1
 90
        2
176
     1
 40
0.6
176
     1
 41
30.0
176
     1
 63
     7
421
 16777215
176
     1
 74
     1
176
     1
 91
        0
176
     1
 64
     7
176
     1
 65
   257
176
     1
 75
     1
176
     1
175
     1
176
     1
 42
1.0
176
     1
 92
        0
176
     1
 66
   257
176
     1
 43
1.0
176
     1
 76
     1
176
     1
 77
     6
176
     1
 78
     2
176
     1
 67
     7
176
     1
 79
     5
176
     1
170
     0
176
     1
171
     0
176
     1
290
     0
176
     1
 93
       13
176
     1
 44
0.0
176
     1
173
     0
176
     1
1001
ACAD
1000
AcDbSavedByObjectVersion
1070
     0
  0
VISUALSTYLE
  5
2C
102
{ACAD_XDICTIONARY
360
16A
102
}
102
{ACAD_REACTORS
330
29
102
}
330
29
100
AcDbVisualStyle
  2
Gouraud
 70
     2
177
     2
291
     1
 71
     2
176
     1
 72
     2
176
     1
 73
     1
176
     1
 90
        2
176
     1
 40
0.6
176
     1
 41
30.0
176
     1
 63
     7
421
 16777215
176
     1
 74
     0
176
     1
 91
        0
176
     1
 64
     7
176
     1
 65
   257
176
     1
 75
     1
176
     1
175
     1
176
     1
 42
1.0
176
     1
 92
        0
176
     1
 66
     7
176
     1
 43
1.0
176
     1
 76
     1
176
     1
 77
     6
176
     1
 78
     2
176
     1
 67
     7
176
     1
 79
     5
176
     1
170
     0
176
     1
171
     0
176
     1
290
     0
176
     1
 93
       13
176
     1
 44
0.0
176
     1
173
     0
176
     1
1001
ACAD
1000
AcDbSavedByObjectVersion
1070
     0
  0
VISUALSTYLE
  5
2D
102
{ACAD_XDICTIONARY
360
16C
102
}
102
{ACAD_REACTORS
330
29
102
}
330
29
100
AcDbVisualStyle
  2
GouraudWithEdges
 70
     3
177
     2
291
     1
 71
     2
176
     1
 72
     2
176
     1
 73
     1
176
     1
 90
        2
176
     1
 40
0.6
176
     1
 41
30.0
176
     1
 63
     7
421
 16777215
176
     1
 74
     1
176
     1
 91
        0
176
     1
 64
     7
176
     1
 65
   257
176
     1
 75
     1
176
     1
175
     1
176
     1
 42
1.0
176
     1
 92
        0
176
     1
 66
   257
176
     1
 43
1.0
176
     1
 76
     1
176
     1
 77
     6
176
     1
 78
     2
176
     1
 67
     7
176
     1
 79
     5
176
     1
170
     0
176
     1
171
     0
176
     1
290
     0
176
     1
 93
       13
176
     1
 44
0.0
176
     1
173
     0
176
     1
1001
ACAD
1000
AcDbSavedByObjectVersion
1070
     0
  0
VISUALSTYLE
  5
31
102
{ACAD_XDICTIONARY
360
174
102
}
102
{ACAD_REACTORS
330
29
102
}
330
29
100
AcDbVisualStyle
  2
Hidden
 70
     6
177
     2
291
     0
 71
     1
176
     1
 72
     2
176
     1
 73
     2
176
     1
 90
        0
176
     1
 40
0.6
176
     1
 41
30.0
176
     1
 63
     7
421
 16777215
176
     1
 74
     2
176
     1
 91
        2
176
     1
 64
     7
176
     1
 65
   257
176
     1
 75
     2
176
     1
175
     1
176
     1
 42
40.0
176
     1
 92
        0
176
     1
 66
   257
176
     1
 43
1.0
176
     1
 76
     1
176
     1
 77
     6
176
     1
 78
     2
176
     1
 67
     7
176
     1
 79
     3
176
     1
170
     0
176
     1
171
     0
176
     1
290
     0
176
     1
 93
        1
176
     1
 44
0.0
176
     1
173
     0
176
     1
1001
ACAD
1000
AcDbSavedByObjectVersion
1070
     0
  0
VISUALSTYLE
  5
3F
102
{ACAD_XDICTIONARY
360
190
102
}
102
{ACAD_REACTORS
330
29
102
}
330
29
100
AcDbVisualStyle
  2
JitterOff
 70
    20
177
     2
291
     1
 71
     2
176
     0
 72
     2
176
     0
 73
     0
176
     0
 90
        0
176
     0
 40
0.6
176
     0
 41
30.0
176
     0
 63
     7
421
 16777215
176
     0
 74
     1
176
     0
 91
        4
176
     0
 64
     7
176
     0
 65
   257
176
     0
 75
     1
176
     0
175
     1
176
     0
 42
1.0
176
     0
 92
       10
176
     2
 66
     7
176
     0
 43
1.0
176
     0
 76
     1
176
     0
 77
     6
176
     0
 78
     2
176
     0
 67
     7
176
     0
 79
     5
176
     0
170
     0
176
     0
171
     0
176
     0
290
     0
176
     0
 93
        1
176
     0
 44
0.0
176
     0
173
     0
176
     0
1001
ACAD
1000
AcDbSavedByObjectVersion
1070
     0
  0
VISUALSTYLE
  5
37
102
{ACAD_XDICTIONARY
360
180
102
}
102
{ACAD_REACTORS
330
29
102
}
330
29
100
AcDbVisualStyle
  2
Linepattern
 70
    14
177
     2
291
     1
 71
     2
176
     1
 72
     2
176
     1
 73
     0
176
     1
 90
        0
176
     1
 40
0.6
176
     1
 41
30.0
176
     1
 63
     7
421
 16777215
176
     1
 74
     1
176
     1
 91
        4
176
     1
 64
     7
176
     1
 65
   257
176
     1
 75
     7
176
     1
175
     7
176
     1
 42
1.0
176
     1
 92
        8
176
     1
 66
     7
176
     1
 43
1.0
176
     1
 76
     1
176
     1
 77
     6
176
     1
 78
     2
176
     1
 67
     7
176
     1
 79
     5
176
     1
170
     0
176
     1
171
     0
176
     1
290
     0
176
     1
 93
        1
176
     1
 44
0.0
176
     1
173
     0
176
     1
1001
ACAD
1000
AcDbSavedByObjectVersion
1070
     0
  0
VISUALSTYLE
  5
40
102
{ACAD_XDICTIONARY
360
192
102
}
102
{ACAD_REACTORS
330
29
102
}
330
29
100
AcDbVisualStyle
  2
OverhangOff
 70
    21
177
     2
291
     1
 71
     2
176
     0
 72
     2
176
     0
 73
     0
176
     0
 90
        0
176
     0
 40
0.6
176
     0
 41
30.0
176
     0
 63
     7
421
 16777215
176
     0
 74
     1
176
     0
 91
        4
176
     0
 64
     7
176
     0
 65
   257
176
     0
 75
     1
176
     0
175
     1
176
     0
 42
1.0
176
     0
 92
        9
176
     2
 66
     7
176
     0
 43
1.0
176
     0
 76
     1
176
     0
 77
     6
176
     0
 78
     2
176
     0
 67
     7
176
     0
 79
     5
176
     0
170
     0
176
     0
171
     0
176
     0
290
     0
176
     0
 93
        1
176
     0
 44
0.0
176
     0
173
     0
176
     0
1001
ACAD
1000
AcDbSavedByObjectVersion
1070
     0
  0
VISUALSTYLE
  5
33
102
{ACAD_XDICTIONARY
360
178
102
}
102
{ACAD_REACTORS
330
29
102
}
330
29
100
AcDbVisualStyle
  2
Realistic
 70
     8
177
     2
291
     0
 71
     2
176
     1
 72
     3
176
     1
 73
     0
176
     1
 90
        2
176
     1
 40
0.6
176
     1
 41
30.0
176
     1
 63
     7
421
 16777215
176
     1
 74
     0
176
     1
 91
        0
176
     1
 64
     7
176
     1
 65
   257
176
     1
 75
     1
176
     1
175
     1
176
     1
 42
1.0
176
     1
 92
        8
176
     1
 66
   257
176
     1
 43
1.0
176
     1
 76
     1
176
     1
 77
     6
176
     1
 78
     2
176
     1
 67
     7
176
     1
 79
     3
176
     1
170
     0
176
     1
171
     0
176
     1
290
     0
176
     1
 93
       13
176
     1
 44
0.0
176
     1
173
     0
176
     1
1001
ACAD
1000
AcDbSavedByObjectVersion
1070
     0
  0
VISUALSTYLE
  5
3E
102
{ACAD_XDICTIONARY
360
18E
102
}
102
{ACAD_REACTORS
330
29
102
}
330
29
100
AcDbVisualStyle
  2
Shaded
 70
    27
177
     2
291
     0
 71
     2
176
     1
 72
     2
176
     1
 73
     1
176
     1
 90
        2
176
     1
 40
0.6
176
     1
 41
30.0
176
     1
 63
     7
421
 16777215
176
     1
 74
     0
176
     1
 91
        4
176
     1
 64
     7
176
     1
 65
   257
176
     1
 75
     1
176
     1
175
     1
176
     1
 42
1.0
176
     1
 92
        8
176
     1
 66
   257
176
     1
 43
1.0
176
     1
 76
     1
176
     1
 77
     6
176
     1
 78
     2
176
     1
 67
     8
425
  7895160
176
     1
 79
     3
176
     1
170
     0
176
     1
171
     0
176
     1
290
     0
176
     1
 93
        5
176
     1
 44
0.0
176
     1
173
     0
176
     1
1001
ACAD
1000
AcDbSavedByObjectVersion
1070
     0
  0
VISUALSTYLE
  5
3D
102
{ACAD_XDICTIONARY
360
18C
102
}
102
{ACAD_REACTORS
330
29
102
}
330
29
100
AcDbVisualStyle
  2
Shaded with edges
 70
    26
177
     2
291
     0
 71
     2
176
     1
 72
     2
176
     1
 73
     1
176
     1
 90
        2
176
     1
 40
0.6
176
     1
 41
30.0
176
     1
 63
     7
421
 16777215
176
     1
 74
     1
176
     1
 91
        2
176
     1
 64
     7
176
     1
 65
   257
176
     1
 75
     2
176
     1
175
     1
176
     1
 42
1.0
176
     1
 92
        8
176
     1
 66
   257
176
     1
 43
1.0
176
     1
 76
     1
176
     1
 77
     6
176
     1
 78
     2
176
     1
 67
     7
176
     1
 79
     3
176
     1
170
     0
176
     1
171
     0
176
     1
290
     0
176
     1
 93
        5
176
     1
 44
0.0
176
     1
173
     0
176
     1
1001
ACAD
1000
AcDbSavedByObjectVersion
1070
     0
  0
VISUALSTYLE
  5
3A
102
{ACAD_XDICTIONARY
360
186
102
}
102
{ACAD_REACTORS
330
29
102
}
330
29
100
AcDbVisualStyle
  2
Shades of Gray
 70
    23
177
     2
291
     0
 71
     2
176
     1
 72
     2
176
     1
 73
     3
176
     1
 90
        0
176
     1
 40
0.6
176
     1
 41
30.0
176
     1
 63
     7
421
 16777215
176
     1
 74
     2
176
     1
 91
        2
176
     1
 64
     7
176
     1
 65
     7
176
     1
 75
     1
176
     1
175
     1
176
     1
 42
40.0
176
     1
 92
        8
176
     1
 66
     7
176
     1
 43
1.0
176
     1
 76
     1
176
     1
 77
     6
176
     1
 78
     2
176
     1
 67
     7
176
     1
 79
     3
176
     1
170
     0
176
     1
171
     0
176
     1
290
     0
176
     1
 93
        1
176
     1
 44
0.0
176
     1
173
     0
176
     1
1001
ACAD
1000
AcDbSavedByObjectVersion
1070
     0
  0
VISUALSTYLE
  5
3B
102
{ACAD_XDICTIONARY
360
188
102
}
102
{ACAD_REACTORS
330
29
102
}
330
29
100
AcDbVisualStyle
  2
Sketchy
 70
    24
177
     2
291
     0
 71
     1
176
     1
 72
     2
176
     1
 73
     2
176
     1
 90
        0
176
     1
 40
0.6
176
     1
 41
30.0
176
     1
 63
     7
421
 16777215
176
     1
 74
     2
176
     1
 91
        2
176
     1
 64
     7
176
     1
 65
     7
176
     1
 75
     1
176
     1
175
     1
176
     1
 42
40.0
176
     1
 92
       11
176
     1
 66
     7
176
     1
 43
1.0
176
     1
 76
     1
176
     1
 77
     6
176
     1
 78
     2
176
     1
 67
     7
176
     1
 79
     6
176
     1
170
     0
176
     1
171
     0
176
     1
290
     0
176
     1
 93
        1
176
     1
 44
0.0
176
     1
173
     0
176
     1
1001
ACAD
1000
AcDbSavedByObjectVersion
1070
     0
  0
VISUALSTYLE
  5
36
102
{ACAD_XDICTIONARY
360
17E
102
}
102
{ACAD_REACTORS
330
29
102
}
330
29
100
AcDbVisualStyle
  2
Thicken
 70
    13
177
     2
291
     1
 71
     2
176
     1
 72
     2
176
     1
 73
     0
176
     1
 90
        0
176
     1
 40
0.6
176
     1
 41
30.0
176
     1
 63
     7
421
 16777215
176
     1
 74
     1
176
     1
 91
        4
176
     1
 64
     7
176
     1
 65
   257
176
     1
 75
     1
176
     1
175
     1
176
     1
 42
1.0
176
     1
 92
       12
176
     1
 66
     7
176
     1
 43
1.0
176
     1
 76
     1
176
     1
 77
     6
176
     1
 78
     2
176
     1
 67
     7
176
     1
 79
     5
176
     1
170
     0
176
     1
171
     0
176
     1
290
     0
176
     1
 93
        1
176
     1
 44
0.0
176
     1
173
     0
176
     1
1001
ACAD
1000
AcDbSavedByObjectVersion
1070
     0
  0
VISUALSTYLE
  5
30
102
{ACAD_XDICTIONARY
360
172
102
}
102
{ACAD_REACTORS
330
29
102
}
330
29
100
AcDbVisualStyle
  2
Wireframe
 70
     5
177
     2
291
     0
 71
     0
176
     1
 72
     2
176
     1
 73
     0
176
     1
 90
        0
176
     1
 40
0.6
176
     1
 41
30.0
176
     1
 63
     7
421
 16777215
176
     1
 74
     1
176
     1
 91
        4
176
     1
 64
     7
176
     1
 65
   257
176
     1
 75
     1
176
     1
175
     1
176
     1
 42
1.0
176
     1
 92
        0
176
     1
 66
   257
176
     1
 43
1.0
176
     1
 76
     1
176
     1
 77
     6
176
     1
 78
     2
176
     1
 67
     7
176
     1
 79
     3
176
     1
170
     0
176
     1
171
     0
176
     1
290
     0
176
     1
 93
        1
176
     1
 44
0.0
176
     1
173
     0
176
     1
1001
ACAD
1000
AcDbSavedByObjectVersion
1070
     0
  0
VISUALSTYLE
  5
3C
102
{ACAD_XDICTIONARY
360
18A
102
}
102
{ACAD_REACTORS
330
29
102
}
330
29
100
AcDbVisualStyle
  2
X-Ray
 70
    25
177
     2
291
     0
 71
     2
176
     1
 72
     2
176
     1
 73
     1
176
     1
 90
        1
176
     1
 40
0.5
176
     1
 41
30.0
176
     1
 63
     7
421
 16777215
176
     1
 74
     1
176
     1
 91
        0
176
     1
 64
     7
176
     1
 65
   257
176
     1
 75
     1
176
     1
175
     1
176
     1
 42
1.0
176
     1
 92
        8
176
     1
 66
     7
176
     1
 43
1.0
176
     1
 76
     1
176
     1
 77
     6
176
     1
 78
     2
176
     1
 67
     7
176
     1
 79
     3
176
     1
170
     0
176
     1
171
     0
176
     1
290
     0
176
     1
 93
       13
176
     1
 44
0.0
176
     1
173
     0
176
     1
1001
ACAD
1000
AcDbSavedByObjectVersion
1070
     0
  0
DICTIONARYVAR
  5
162
102
{ACAD_REACTORS
330
15D
102
}
330
15D
100
DictionaryVariables
280
     0
  1
1:1
  0
DICTIONARYVAR
  5
15F
102
{ACAD_REACTORS
330
15D
102
}
330
15D
100
DictionaryVariables
280
     0
  1
STANDARD
  0
DICTIONARYVAR
  5
15E
102
{ACAD_REACTORS
330
15D
102
}
330
15D
100
DictionaryVariables
280
     0
  1
STANDARD
  0
DICTIONARYVAR
  5
160
102
{ACAD_REACTORS
330
15D
102
}
330
15D
100
DictionaryVariables
280
     0
  1
Imperial24
  0
DICTIONARYVAR
  5
161
102
{ACAD_REACTORS
330
15D
102
}
330
15D
100
DictionaryVariables
280
     0
  1
Imperial24
  0
DICTIONARY
  5
19A
330
6B
100
AcDbDictionary
280
     1
281
     1
  3
ACAD_XREC_ROUNDTRIP
360
19B
  0
DICTIONARY
  5
1A
330
19
100
AcDbDictionary
280
     1
281
     1
  3
BUMPTILE
360
1C
  3
DIFFUSETILE
360
1B
  3
OPACITYTILE
360
1F
  3
REFLECTIONTILE
360
1E
  3
REFRACTIONTILE
360
20
  3
SPECULARTILE
360
1D
  0
DICTIONARY
  5
12
330
11
100
AcDbDictionary
280
     1
281
     1
  3
BUMPTILE
360
14
  3
DIFFUSETILE
360
13
  3
OPACITYTILE
360
17
  3
REFLECTIONTILE
360
16
  3
REFRACTIONTILE
360
18
  3
SPECULARTILE
360
15
  0
DICTIONARY
  5
22
330
21
100
AcDbDictionary
280
     1
281
     1
  3
BUMPTILE
360
24
  3
DIFFUSETILE
360
23
  3
OPACITYTILE
360
27
  3
REFLECTIONTILE
360
26
  3
REFRACTIONTILE
360
28
  3
SPECULARTILE
360
25
  0
DICTIONARY
  5
196
330
67
100
AcDbDictionary
280
     1
281
     1
  3
ACAD_XREC_ROUNDTRIP
360
197
  0
DICTIONARY
  5
198
330
69
100
AcDbDictionary
280
     1
281
     1
  3
ACAD_XREC_ROUNDTRIP
360
199
  0
DICTIONARY
  5
163
330
65
100
AcDbDictionary
280
     1
281
     1
  3
ACAD_ROUNDTRIP_2008_TABLESTYLE_CELLSTYLEMAP
360
164
  0
DICTIONARY
  5
170
330
2F
100
AcDbDictionary
280
     1
281
     1
  3
ACAD_XREC_ROUNDTRIP
360
171
  0
DICTIONARY
  5
16E
330
2E
100
AcDbDictionary
280
     1
281
     1
  3
ACAD_XREC_ROUNDTRIP
360
16F
  0
DICTIONARY
  5
17C
330
35
100
AcDbDictionary
280
     1
281
     1
  3
ACAD_XREC_ROUNDTRIP
360
17D
  0
DICTIONARY
  5
184
330
39
100
AcDbDictionary
280
     1
281
     1
  3
ACAD_XREC_ROUNDTRIP
360
185
  0
DICTIONARY
  5
176
330
32
100
AcDbDictionary
280
     1
281
     1
  3
ACAD_XREC_ROUNDTRIP
360
177
  0
DICTIONARY
  5
17A
330
34
100
AcDbDictionary
280
     1
281
     1
  3
ACAD_XREC_ROUNDTRIP
360
17B
  0
DICTIONARY
  5
194
330
41
100
AcDbDictionary
280
     1
281
     1
  3
ACAD_XREC_ROUNDTRIP
360
195
  0
DICTIONARY
  5
182
330
38
100
AcDbDictionary
280
     1
281
     1
  3
ACAD_XREC_ROUNDTRIP
360
183
  0
DICTIONARY
  5
166
330
2A
100
AcDbDictionary
280
     1
281
     1
  3
ACAD_XREC_ROUNDTRIP
360
167
  0
DICTIONARY
  5
168
330
2B
100
AcDbDictionary
280
     1
281
     1
  3
ACAD_XREC_ROUNDTRIP
360
169
  0
DICTIONARY
  5
16A
330
2C
100
AcDbDictionary
280
     1
281
     1
  3
ACAD_XREC_ROUNDTRIP
360
16B
  0
DICTIONARY
  5
16C
330
2D
100
AcDbDictionary
280
     1
281
     1
  3
ACAD_XREC_ROUNDTRIP
360
16D
  0
DICTIONARY
  5
174
330
31
100
AcDbDictionary
280
     1
281
     1
  3
ACAD_XREC_ROUNDTRIP
360
175
  0
DICTIONARY
  5
190
330
3F
100
AcDbDictionary
280
     1
281
     1
  3
ACAD_XREC_ROUNDTRIP
360
191
  0
DICTIONARY
  5
180
330
37
100
AcDbDictionary
280
     1
281
     1
  3
ACAD_XREC_ROUNDTRIP
360
181
  0
DICTIONARY
  5
192
330
40
100
AcDbDictionary
280
     1
281
     1
  3
ACAD_XREC_ROUNDTRIP
360
193
  0
DICTIONARY
  5
178
330
33
100
AcDbDictionary
280
     1
281
     1
  3
ACAD_XREC_ROUNDTRIP
360
179
  0
DICTIONARY
  5
18E
330
3E
100
AcDbDictionary
280
     1
281
     1
  3
ACAD_XREC_ROUNDTRIP
360
18F
  0
DICTIONARY
  5
18C
330
3D
100
AcDbDictionary
280
     1
281
     1
  3
ACAD_XREC_ROUNDTRIP
360
18D
  0
DICTIONARY
  5
186
330
3A
100
AcDbDictionary
280
     1
281
     1
  3
ACAD_XREC_ROUNDTRIP
360
187
  0
DICTIONARY
  5
188
330
3B
100
AcDbDictionary
280
     1
281
     1
  3
ACAD_XREC_ROUNDTRIP
360
189
  0
DICTIONARY
  5
17E
330
36
100
AcDbDictionary
280
     1
281
     1
  3
ACAD_XREC_ROUNDTRIP
360
17F
  0
DICTIONARY
  5
172
330
30
100
AcDbDictionary
280
     1
281
     1
  3
ACAD_XREC_ROUNDTRIP
360
173
  0
DICTIONARY
  5
18A
330
3C
100
AcDbDictionary
280
     1
281
     1
  3
ACAD_XREC_ROUNDTRIP
360
18B
  0
XRECORD
  5
19B
102
{ACAD_REACTORS
330
19A
102
}
330
19A
100
AcDbXrecord
280
     1
102
DISPLAYNAME
  1
Imperial24
102
FLAGS
 90
        0
  0
XRECORD
  5
1C
102
{ACAD_REACTORS
330
1A
102
}
330
1A
100
AcDbXrecord
280
     1
270
     1
271
     1
  0
XRECORD
  5
1B
102
{ACAD_REACTORS
330
1A
102
}
330
1A
100
AcDbXrecord
280
     1
270
     1
271
     1
  0
XRECORD
  5
1F
102
{ACAD_REACTORS
330
1A
102
}
330
1A
100
AcDbXrecord
280
     1
270
     1
271
     1
  0
XRECORD
  5
1E
102
{ACAD_REACTORS
330
1A
102
}
330
1A
100
AcDbXrecord
280
     1
270
     1
271
     1
  0
XRECORD
  5
20
102
{ACAD_REACTORS
330
1A
102
}
330
1A
100
AcDbXrecord
280
     1
270
     1
271
     1
  0
XRECORD
  5
1D
102
{ACAD_REACTORS
330
1A
102
}
330
1A
100
AcDbXrecord
280
     1
270
     1
271
     1
  0
XRECORD
  5
14
102
{ACAD_REACTORS
330
12
102
}
330
12
100
AcDbXrecord
280
     1
270
     1
271
     1
  0
XRECORD
  5
13
102
{ACAD_REACTORS
330
12
102
}
330
12
100
AcDbXrecord
280
     1
270
     1
271
     1
  0
XRECORD
  5
17
102
{ACAD_REACTORS
330
12
102
}
330
12
100
AcDbXrecord
280
     1
270
     1
271
     1
  0
XRECORD
  5
16
102
{ACAD_REACTORS
330
12
102
}
330
12
100
AcDbXrecord
280
     1
270
     1
271
     1
  0
XRECORD
  5
18
102
{ACAD_REACTORS
330
12
102
}
330
12
100
AcDbXrecord
280
     1
270
     1
271
     1
  0
XRECORD
  5
15
102
{ACAD_REACTORS
330
12
102
}
330
12
100
AcDbXrecord
280
     1
270
     1
271
     1
  0
XRECORD
  5
24
102
{ACAD_REACTORS
330
22
102
}
330
22
100
AcDbXrecord
280
     1
270
     1
271
     1
  0
XRECORD
  5
23
102
{ACAD_REACTORS
330
22
102
}
330
22
100
AcDbXrecord
280
     1
270
     1
271
     1
  0
XRECORD
  5
27
102
{ACAD_REACTORS
330
22
102
}
330
22
100
AcDbXrecord
280
     1
270
     1
271
     1
  0
XRECORD
  5
26
102
{ACAD_REACTORS
330
22
102
}
330
22
100
AcDbXrecord
280
     1
270
     1
271
     1
  0
XRECORD
  5
28
102
{ACAD_REACTORS
330
22
102
}
330
22
100
AcDbXrecord
280
     1
270
     1
271
     1
  0
XRECORD
  5
25
102
{ACAD_REACTORS
330
22
102
}
330
22
100
AcDbXrecord
280
     1
270
     1
271
     1
  0
XRECORD
  5
197
102
{ACAD_REACTORS
330
196
102
}
330
196
100
AcDbXrecord
280
     1
102
ACAD_ROUNDTRIP_2012_MLEADER_STYLE
298
     1
  0
XRECORD
  5
199
102
{ACAD_REACTORS
330
198
102
}
330
198
100
AcDbXrecord
280
     1
102
DISPLAYNAME
  1
Imperial24
102
FLAGS
 90
        0
  0
CELLSTYLEMAP
  5
164
102
{ACAD_REACTORS
330
163
102
}
330
163
100
AcDbCellStyleMap
 90
        3
300
CELLSTYLE
  1
TABLEFORMAT_BEGIN
 90
        5
170
     1
 91
        0
 92
    32768
 62
   257
 93
        1
300
CONTENTFORMAT
  1
CONTENTFORMAT_BEGIN
 90
        0
 91
        0
 92
      512
 93
        0
300

 40
0.0
140
1.0
 94
        5
 62
     0
340
55
144
0.25
309
CONTENTFORMAT_END
171
     0
 94
        0
309
TABLEFORMAT_END
  1
CELLSTYLE_BEGIN
 90
        1
 91
        1
300
_TITLE
309
CELLSTYLE_END
300
CELLSTYLE
  1
TABLEFORMAT_BEGIN
 90
        5
170
     1
 91
        0
 92
        0
 62
   257
 93
        1
300
CONTENTFORMAT
  1
CONTENTFORMAT_BEGIN
 90
        0
 91
        0
 92
      512
 93
        0
300

 40
0.0
140
1.0
 94
        5
 62
     0
340
55
144
0.18
309
CONTENTFORMAT_END
171
     0
 94
        0
309
TABLEFORMAT_END
  1
CELLSTYLE_BEGIN
 90
        2
 91
        1
300
_HEADER
309
CELLSTYLE_END
300
CELLSTYLE
  1
TABLEFORMAT_BEGIN
 90
        5
170
     1
 91
        0
 92
        0
 62
   257
 93
        1
300
CONTENTFORMAT
  1
CONTENTFORMAT_BEGIN
 90
        0
 91
        0
 92
      512
 93
        0
300

 40
0.0
140
1.0
 94
        2
 62
     0
340
55
144
0.18
309
CONTENTFORMAT_END
171
     0
 94
        0
309
TABLEFORMAT_END
  1
CELLSTYLE_BEGIN
 90
        3
 91
        2
300
_DATA
309
CELLSTYLE_END
  0
XRECORD
  5
171
102
{ACAD_REACTORS
330
170
102
}
330
170
100
AcDbXrecord
280
     1
102
RTVSPost2010Prop28
280
     1
102
RTVSPost2010PropOp28
 70
     1
102
RTVSPost2010Prop29
280
     1
102
RTVSPost2010PropOp29
 70
     1
102
RTVSPost2010Prop30
280
     0
102
RTVSPost2010PropOp30
 70
     1
102
RTVSPost2010Prop31
280
     0
102
RTVSPost2010PropOp31
 70
     1
102
RTVSPost2010Prop32
280
     0
102
RTVSPost2010PropOp32
 70
     1
102
RTVSPost2010Prop33
280
     0
102
RTVSPost2010PropOp33
 70
     1
102
RTVSPost2010Prop34
280
     0
102
RTVSPost2010PropOp34
 70
     1
102
RTVSPost2010Prop35
280
     0
102
RTVSPost2010PropOp35
 70
     1
102
RTVSPost2010Prop36
280
     0
102
RTVSPost2010PropOp36
 70
     1
102
RTVSPost2010Prop37
 90
       50
102
RTVSPost2010PropOp37
 70
     1
102
RTVSPost2010Prop38
140
0.0
102
RTVSPost2010PropOp38
 70
     1
102
RTVSPost2010Prop39
140
1.0
102
RTVSPost2010PropOp39
 70
     1
102
RTVSPost2010Prop40
 90
        0
102
RTVSPost2010PropOp40
 70
     1
102
RTVSPost2010Prop41ColorIndex
 90
       18
102
RTVSPost2010Prop41ColorRGB
 90
        0
102
RTVSPost2010PropOp41
 70
     1
102
RTVSPost2010Prop42
 90
       50
102
RTVSPost2010PropOp42
 70
     1
102
RTVSPost2010Prop43
 90
        3
102
RTVSPost2010PropOp43
 70
     1
102
RTVSPost2010Prop44ColorIndex
 90
        5
102
RTVSPost2010Prop44ColorRGB
 90
      255
102
RTVSPost2010PropOp44
 70
     1
102
RTVSPost2010Prop45
280
     0
102
RTVSPost2010PropOp45
 70
     1
102
RTVSPost2010Prop46
 90
       50
102
RTVSPost2010PropOp46
 70
     1
102
RTVSPost2010Prop47
 90
       50
102
RTVSPost2010PropOp47
 70
     1
102
RTVSPost2010Prop48
 90
       50
102
RTVSPost2010PropOp48
 70
     1
102
RTVSPost2010Prop49
280
     0
102
RTVSPost2010PropOp49
 70
     1
102
RTVSPost2010Prop50
 90
       50
102
RTVSPost2010PropOp50
 70
     1
102
RTVSPost2010Prop51ColorIndex
 90
      256
102
RTVSPost2010Prop51ColorRGB
 90
-16777216
102
RTVSPost2010PropOp51
 70
     0
102
RTVSPost2010Prop52
140
1.0
102
RTVSPost2010PropOp52
 70
     0
102
RTVSPost2010Prop53
 90
        2
102
RTVSPost2010PropOp53
 70
     1
102
RTVSPost2010Prop54
  1
strokes_ogs.tif
102
RTVSPost2010PropOp54
 70
     1
102
RTVSPost2010Prop55
280
     0
102
RTVSPost2010PropOp55
 70
     1
102
RTVSPost2010Prop56
140
1.0
102
RTVSPost2010PropOp56
 70
     1
102
RTVSPost2010Prop57
140
1.0
102
RTVSPost2010PropOp57
 70
     1
  0
XRECORD
  5
16F
102
{ACAD_REACTORS
330
16E
102
}
330
16E
100
AcDbXrecord
280
     1
102
RTVSPost2010Prop28
280
     0
102
RTVSPost2010PropOp28
 70
     1
102
RTVSPost2010Prop29
280
     1
102
RTVSPost2010PropOp29
 70
     1
102
RTVSPost2010Prop30
280
     1
102
RTVSPost2010PropOp30
 70
     1
102
RTVSPost2010Prop31
280
     0
102
RTVSPost2010PropOp31
 70
     1
102
RTVSPost2010Prop32
280
     0
102
RTVSPost2010PropOp32
 70
     1
102
RTVSPost2010Prop33
280
     0
102
RTVSPost2010PropOp33
 70
     1
102
RTVSPost2010Prop34
280
     0
102
RTVSPost2010PropOp34
 70
     1
102
RTVSPost2010Prop35
280
     0
102
RTVSPost2010PropOp35
 70
     1
102
RTVSPost2010Prop36
280
     0
102
RTVSPost2010PropOp36
 70
     1
102
RTVSPost2010Prop37
 90
       50
102
RTVSPost2010PropOp37
 70
     1
102
RTVSPost2010Prop38
140
0.0
102
RTVSPost2010PropOp38
 70
     1
102
RTVSPost2010Prop39
140
1.0
102
RTVSPost2010PropOp39
 70
     1
102
RTVSPost2010Prop40
 90
        0
102
RTVSPost2010PropOp40
 70
     1
102
RTVSPost2010Prop41ColorIndex
 90
       18
102
RTVSPost2010Prop41ColorRGB
 90
        0
102
RTVSPost2010PropOp41
 70
     1
102
RTVSPost2010Prop42
 90
       50
102
RTVSPost2010PropOp42
 70
     1
102
RTVSPost2010Prop43
 90
        3
102
RTVSPost2010PropOp43
 70
     1
102
RTVSPost2010Prop44ColorIndex
 90
        5
102
RTVSPost2010Prop44ColorRGB
 90
      255
102
RTVSPost2010PropOp44
 70
     1
102
RTVSPost2010Prop45
280
     0
102
RTVSPost2010PropOp45
 70
     1
102
RTVSPost2010Prop46
 90
       50
102
RTVSPost2010PropOp46
 70
     1
102
RTVSPost2010Prop47
 90
       50
102
RTVSPost2010PropOp47
 70
     1
102
RTVSPost2010Prop48
 90
       50
102
RTVSPost2010PropOp48
 70
     1
102
RTVSPost2010Prop49
280
     0
102
RTVSPost2010PropOp49
 70
     1
102
RTVSPost2010Prop50
 90
       50
102
RTVSPost2010PropOp50
 70
     1
102
RTVSPost2010Prop51ColorIndex
 90
      256
102
RTVSPost2010Prop51ColorRGB
 90
-16777216
102
RTVSPost2010PropOp51
 70
     0
102
RTVSPost2010Prop52
140
1.0
102
RTVSPost2010PropOp52
 70
     0
102
RTVSPost2010Prop53
 90
        2
102
RTVSPost2010PropOp53
 70
     1
102
RTVSPost2010Prop54
  1
strokes_ogs.tif
102
RTVSPost2010PropOp54
 70
     1
102
RTVSPost2010Prop55
280
     0
102
RTVSPost2010PropOp55
 70
     1
102
RTVSPost2010Prop56
140
1.0
102
RTVSPost2010PropOp56
 70
     1
102
RTVSPost2010Prop57
140
1.0
102
RTVSPost2010PropOp57
 70
     1
  0
XRECORD
  5
17D
102
{ACAD_REACTORS
330
17C
102
}
330
17C
100
AcDbXrecord
280
     1
102
RTVSPost2010Prop28
280
     0
102
RTVSPost2010PropOp28
 70
     1
102
RTVSPost2010Prop29
280
     1
102
RTVSPost2010PropOp29
 70
     1
102
RTVSPost2010Prop30
280
     1
102
RTVSPost2010PropOp30
 70
     1
102
RTVSPost2010Prop31
280
     0
102
RTVSPost2010PropOp31
 70
     1
102
RTVSPost2010Prop32
280
     0
102
RTVSPost2010PropOp32
 70
     1
102
RTVSPost2010Prop33
280
     0
102
RTVSPost2010PropOp33
 70
     1
102
RTVSPost2010Prop34
280
     0
102
RTVSPost2010PropOp34
 70
     1
102
RTVSPost2010Prop35
280
     0
102
RTVSPost2010PropOp35
 70
     1
102
RTVSPost2010Prop36
280
     0
102
RTVSPost2010PropOp36
 70
     1
102
RTVSPost2010Prop37
 90
       50
102
RTVSPost2010PropOp37
 70
     1
102
RTVSPost2010Prop38
140
0.0
102
RTVSPost2010PropOp38
 70
     1
102
RTVSPost2010Prop39
140
1.0
102
RTVSPost2010PropOp39
 70
     1
102
RTVSPost2010Prop40
 90
        0
102
RTVSPost2010PropOp40
 70
     1
102
RTVSPost2010Prop41ColorIndex
 90
       18
102
RTVSPost2010Prop41ColorRGB
 90
        0
102
RTVSPost2010PropOp41
 70
     1
102
RTVSPost2010Prop42
 90
       50
102
RTVSPost2010PropOp42
 70
     1
102
RTVSPost2010Prop43
 90
        3
102
RTVSPost2010PropOp43
 70
     1
102
RTVSPost2010Prop44ColorIndex
 90
        5
102
RTVSPost2010Prop44ColorRGB
 90
      255
102
RTVSPost2010PropOp44
 70
     1
102
RTVSPost2010Prop45
280
     0
102
RTVSPost2010PropOp45
 70
     1
102
RTVSPost2010Prop46
 90
       50
102
RTVSPost2010PropOp46
 70
     1
102
RTVSPost2010Prop47
 90
       50
102
RTVSPost2010PropOp47
 70
     1
102
RTVSPost2010Prop48
 90
       50
102
RTVSPost2010PropOp48
 70
     1
102
RTVSPost2010Prop49
280
     0
102
RTVSPost2010PropOp49
 70
     1
102
RTVSPost2010Prop50
 90
       50
102
RTVSPost2010PropOp50
 70
     1
102
RTVSPost2010Prop51ColorIndex
 90
      256
102
RTVSPost2010Prop51ColorRGB
 90
-16777216
102
RTVSPost2010PropOp51
 70
     0
102
RTVSPost2010Prop52
140
1.0
102
RTVSPost2010PropOp52
 70
     0
102
RTVSPost2010Prop53
 90
        2
102
RTVSPost2010PropOp53
 70
     1
102
RTVSPost2010Prop54
  1
strokes_ogs.tif
102
RTVSPost2010PropOp54
 70
     1
102
RTVSPost2010Prop55
280
     0
102
RTVSPost2010PropOp55
 70
     1
102
RTVSPost2010Prop56
140
1.0
102
RTVSPost2010PropOp56
 70
     1
102
RTVSPost2010Prop57
140
1.0
102
RTVSPost2010PropOp57
 70
     1
  0
XRECORD
  5
185
102
{ACAD_REACTORS
330
184
102
}
330
184
100
AcDbXrecord
280
     1
102
RTVSPost2010Prop28
280
     0
102
RTVSPost2010PropOp28
 70
     1
102
RTVSPost2010Prop29
280
     1
102
RTVSPost2010PropOp29
 70
     1
102
RTVSPost2010Prop30
280
     1
102
RTVSPost2010PropOp30
 70
     1
102
RTVSPost2010Prop31
280
     0
102
RTVSPost2010PropOp31
 70
     1
102
RTVSPost2010Prop32
280
     0
102
RTVSPost2010PropOp32
 70
     1
102
RTVSPost2010Prop33
280
     0
102
RTVSPost2010PropOp33
 70
     1
102
RTVSPost2010Prop34
280
     0
102
RTVSPost2010PropOp34
 70
     1
102
RTVSPost2010Prop35
280
     0
102
RTVSPost2010PropOp35
 70
     1
102
RTVSPost2010Prop36
280
     0
102
RTVSPost2010PropOp36
 70
     1
102
RTVSPost2010Prop37
 90
       50
102
RTVSPost2010PropOp37
 70
     1
102
RTVSPost2010Prop38
140
0.0
102
RTVSPost2010PropOp38
 70
     1
102
RTVSPost2010Prop39
140
1.0
102
RTVSPost2010PropOp39
 70
     1
102
RTVSPost2010Prop40
 90
        0
102
RTVSPost2010PropOp40
 70
     1
102
RTVSPost2010Prop41ColorIndex
 90
       18
102
RTVSPost2010Prop41ColorRGB
 90
        0
102
RTVSPost2010PropOp41
 70
     1
102
RTVSPost2010Prop42
 90
       50
102
RTVSPost2010PropOp42
 70
     1
102
RTVSPost2010Prop43
 90
        3
102
RTVSPost2010PropOp43
 70
     1
102
RTVSPost2010Prop44ColorIndex
 90
        5
102
RTVSPost2010Prop44ColorRGB
 90
      255
102
RTVSPost2010PropOp44
 70
     1
102
RTVSPost2010Prop45
280
     0
102
RTVSPost2010PropOp45
 70
     1
102
RTVSPost2010Prop46
 90
       50
102
RTVSPost2010PropOp46
 70
     1
102
RTVSPost2010Prop47
 90
       50
102
RTVSPost2010PropOp47
 70
     1
102
RTVSPost2010Prop48
 90
       50
102
RTVSPost2010PropOp48
 70
     1
102
RTVSPost2010Prop49
280
     0
102
RTVSPost2010PropOp49
 70
     1
102
RTVSPost2010Prop50
 90
       50
102
RTVSPost2010PropOp50
 70
     1
102
RTVSPost2010Prop51ColorIndex
 90
      256
102
RTVSPost2010Prop51ColorRGB
 90
-16777216
102
RTVSPost2010PropOp51
 70
     0
102
RTVSPost2010Prop52
140
1.0
102
RTVSPost2010PropOp52
 70
     0
102
RTVSPost2010Prop53
 90
        2
102
RTVSPost2010PropOp53
 70
     1
102
RTVSPost2010Prop54
  1
strokes_ogs.tif
102
RTVSPost2010PropOp54
 70
     1
102
RTVSPost2010Prop55
280
     0
102
RTVSPost2010PropOp55
 70
     1
102
RTVSPost2010Prop56
140
1.0
102
RTVSPost2010PropOp56
 70
     1
102
RTVSPost2010Prop57
140
1.0
102
RTVSPost2010PropOp57
 70
     1
  0
XRECORD
  5
177
102
{ACAD_REACTORS
330
176
102
}
330
176
100
AcDbXrecord
280
     1
102
RTVSPost2010Prop28
280
     0
102
RTVSPost2010PropOp28
 70
     1
102
RTVSPost2010Prop29
280
     1
102
RTVSPost2010PropOp29
 70
     1
102
RTVSPost2010Prop30
280
     1
102
RTVSPost2010PropOp30
 70
     1
102
RTVSPost2010Prop31
280
     0
102
RTVSPost2010PropOp31
 70
     1
102
RTVSPost2010Prop32
280
     0
102
RTVSPost2010PropOp32
 70
     1
102
RTVSPost2010Prop33
280
     0
102
RTVSPost2010PropOp33
 70
     1
102
RTVSPost2010Prop34
280
     0
102
RTVSPost2010PropOp34
 70
     1
102
RTVSPost2010Prop35
280
     0
102
RTVSPost2010PropOp35
 70
     1
102
RTVSPost2010Prop36
280
     0
102
RTVSPost2010PropOp36
 70
     1
102
RTVSPost2010Prop37
 90
       50
102
RTVSPost2010PropOp37
 70
     1
102
RTVSPost2010Prop38
140
0.0
102
RTVSPost2010PropOp38
 70
     1
102
RTVSPost2010Prop39
140
1.0
102
RTVSPost2010PropOp39
 70
     1
102
RTVSPost2010Prop40
 90
        0
102
RTVSPost2010PropOp40
 70
     1
102
RTVSPost2010Prop41ColorIndex
 90
       18
102
RTVSPost2010Prop41ColorRGB
 90
        0
102
RTVSPost2010PropOp41
 70
     1
102
RTVSPost2010Prop42
 90
       50
102
RTVSPost2010PropOp42
 70
     1
102
RTVSPost2010Prop43
 90
        3
102
RTVSPost2010PropOp43
 70
     1
102
RTVSPost2010Prop44ColorIndex
 90
        5
102
RTVSPost2010Prop44ColorRGB
 90
      255
102
RTVSPost2010PropOp44
 70
     1
102
RTVSPost2010Prop45
280
     0
102
RTVSPost2010PropOp45
 70
     1
102
RTVSPost2010Prop46
 90
       50
102
RTVSPost2010PropOp46
 70
     1
102
RTVSPost2010Prop47
 90
       50
102
RTVSPost2010PropOp47
 70
     1
102
RTVSPost2010Prop48
 90
       50
102
RTVSPost2010PropOp48
 70
     1
102
RTVSPost2010Prop49
280
     0
102
RTVSPost2010PropOp49
 70
     1
102
RTVSPost2010Prop50
 90
       50
102
RTVSPost2010PropOp50
 70
     1
102
RTVSPost2010Prop51ColorIndex
 90
      256
102
RTVSPost2010Prop51ColorRGB
 90
-16777216
102
RTVSPost2010PropOp51
 70
     0
102
RTVSPost2010Prop52
140
1.0
102
RTVSPost2010PropOp52
 70
     0
102
RTVSPost2010Prop53
 90
        2
102
RTVSPost2010PropOp53
 70
     1
102
RTVSPost2010Prop54
  1
strokes_ogs.tif
102
RTVSPost2010PropOp54
 70
     1
102
RTVSPost2010Prop55
280
     0
102
RTVSPost2010PropOp55
 70
     1
102
RTVSPost2010Prop56
140
1.0
102
RTVSPost2010PropOp56
 70
     1
102
RTVSPost2010Prop57
140
1.0
102
RTVSPost2010PropOp57
 70
     1
  0
XRECORD
  5
17B
102
{ACAD_REACTORS
330
17A
102
}
330
17A
100
AcDbXrecord
280
     1
102
RTVSPost2010Prop28
280
     0
102
RTVSPost2010PropOp28
 70
     1
102
RTVSPost2010Prop29
280
     1
102
RTVSPost2010PropOp29
 70
     1
102
RTVSPost2010Prop30
280
     1
102
RTVSPost2010PropOp30
 70
     1
102
RTVSPost2010Prop31
280
     0
102
RTVSPost2010PropOp31
 70
     1
102
RTVSPost2010Prop32
280
     0
102
RTVSPost2010PropOp32
 70
     1
102
RTVSPost2010Prop33
280
     0
102
RTVSPost2010PropOp33
 70
     1
102
RTVSPost2010Prop34
280
     0
102
RTVSPost2010PropOp34
 70
     1
102
RTVSPost2010Prop35
280
     0
102
RTVSPost2010PropOp35
 70
     1
102
RTVSPost2010Prop36
280
     0
102
RTVSPost2010PropOp36
 70
     1
102
RTVSPost2010Prop37
 90
       50
102
RTVSPost2010PropOp37
 70
     1
102
RTVSPost2010Prop38
140
0.0
102
RTVSPost2010PropOp38
 70
     1
102
RTVSPost2010Prop39
140
1.0
102
RTVSPost2010PropOp39
 70
     1
102
RTVSPost2010Prop40
 90
        0
102
RTVSPost2010PropOp40
 70
     1
102
RTVSPost2010Prop41ColorIndex
 90
       18
102
RTVSPost2010Prop41ColorRGB
 90
        0
102
RTVSPost2010PropOp41
 70
     1
102
RTVSPost2010Prop42
 90
       50
102
RTVSPost2010PropOp42
 70
     1
102
RTVSPost2010Prop43
 90
        3
102
RTVSPost2010PropOp43
 70
     1
102
RTVSPost2010Prop44ColorIndex
 90
        5
102
RTVSPost2010Prop44ColorRGB
 90
      255
102
RTVSPost2010PropOp44
 70
     1
102
RTVSPost2010Prop45
280
     0
102
RTVSPost2010PropOp45
 70
     1
102
RTVSPost2010Prop46
 90
       50
102
RTVSPost2010PropOp46
 70
     1
102
RTVSPost2010Prop47
 90
       50
102
RTVSPost2010PropOp47
 70
     1
102
RTVSPost2010Prop48
 90
       50
102
RTVSPost2010PropOp48
 70
     1
102
RTVSPost2010Prop49
280
     0
102
RTVSPost2010PropOp49
 70
     1
102
RTVSPost2010Prop50
 90
       50
102
RTVSPost2010PropOp50
 70
     1
102
RTVSPost2010Prop51ColorIndex
 90
      256
102
RTVSPost2010Prop51ColorRGB
 90
-16777216
102
RTVSPost2010PropOp51
 70
     0
102
RTVSPost2010Prop52
140
1.0
102
RTVSPost2010PropOp52
 70
     0
102
RTVSPost2010Prop53
 90
        2
102
RTVSPost2010PropOp53
 70
     1
102
RTVSPost2010Prop54
  1
strokes_ogs.tif
102
RTVSPost2010PropOp54
 70
     1
102
RTVSPost2010Prop55
280
     0
102
RTVSPost2010PropOp55
 70
     1
102
RTVSPost2010Prop56
140
1.0
102
RTVSPost2010PropOp56
 70
     1
102
RTVSPost2010Prop57
140
1.0
102
RTVSPost2010PropOp57
 70
     1
  0
XRECORD
  5
195
102
{ACAD_REACTORS
330
194
102
}
330
194
100
AcDbXrecord
280
     1
102
RTVSPost2010Prop28
280
     0
102
RTVSPost2010PropOp28
 70
     0
102
RTVSPost2010Prop29
280
     1
102
RTVSPost2010PropOp29
 70
     0
102
RTVSPost2010Prop30
280
     1
102
RTVSPost2010PropOp30
 70
     0
102
RTVSPost2010Prop31
280
     0
102
RTVSPost2010PropOp31
 70
     0
102
RTVSPost2010Prop32
280
     0
102
RTVSPost2010PropOp32
 70
     0
102
RTVSPost2010Prop33
280
     0
102
RTVSPost2010PropOp33
 70
     0
102
RTVSPost2010Prop34
280
     0
102
RTVSPost2010PropOp34
 70
     0
102
RTVSPost2010Prop35
280
     0
102
RTVSPost2010PropOp35
 70
     0
102
RTVSPost2010Prop36
280
     0
102
RTVSPost2010PropOp36
 70
     0
102
RTVSPost2010Prop37
 90
       50
102
RTVSPost2010PropOp37
 70
     0
102
RTVSPost2010Prop38
140
0.0
102
RTVSPost2010PropOp38
 70
     0
102
RTVSPost2010Prop39
140
1.0
102
RTVSPost2010PropOp39
 70
     0
102
RTVSPost2010Prop40
 90
        0
102
RTVSPost2010PropOp40
 70
     0
102
RTVSPost2010Prop41ColorIndex
 90
       18
102
RTVSPost2010Prop41ColorRGB
 90
        0
102
RTVSPost2010PropOp41
 70
     0
102
RTVSPost2010Prop42
 90
       50
102
RTVSPost2010PropOp42
 70
     0
102
RTVSPost2010Prop43
 90
        3
102
RTVSPost2010PropOp43
 70
     0
102
RTVSPost2010Prop44ColorIndex
 90
        5
102
RTVSPost2010Prop44ColorRGB
 90
      255
102
RTVSPost2010PropOp44
 70
     0
102
RTVSPost2010Prop45
280
     0
102
RTVSPost2010PropOp45
 70
     0
102
RTVSPost2010Prop46
 90
       50
102
RTVSPost2010PropOp46
 70
     0
102
RTVSPost2010Prop47
 90
       50
102
RTVSPost2010PropOp47
 70
     0
102
RTVSPost2010Prop48
 90
       50
102
RTVSPost2010PropOp48
 70
     0
102
RTVSPost2010Prop49
280
     0
102
RTVSPost2010PropOp49
 70
     0
102
RTVSPost2010Prop50
 90
       50
102
RTVSPost2010PropOp50
 70
     0
102
RTVSPost2010Prop51ColorIndex
 90
      256
102
RTVSPost2010Prop51ColorRGB
 90
-16777216
102
RTVSPost2010PropOp51
 70
     0
102
RTVSPost2010Prop52
140
1.0
102
RTVSPost2010PropOp52
 70
     0
102
RTVSPost2010Prop53
 90
        2
102
RTVSPost2010PropOp53
 70
     0
102
RTVSPost2010Prop54
  1
strokes_ogs.tif
102
RTVSPost2010PropOp54
 70
     0
102
RTVSPost2010Prop55
280
     0
102
RTVSPost2010PropOp55
 70
     0
102
RTVSPost2010Prop56
140
1.0
102
RTVSPost2010PropOp56
 70
     0
102
RTVSPost2010Prop57
140
1.0
102
RTVSPost2010PropOp57
 70
     0
  0
XRECORD
  5
183
102
{ACAD_REACTORS
330
182
102
}
330
182
100
AcDbXrecord
280
     1
102
RTVSPost2010Prop28
280
     0
102
RTVSPost2010PropOp28
 70
     1
102
RTVSPost2010Prop29
280
     1
102
RTVSPost2010PropOp29
 70
     1
102
RTVSPost2010Prop30
280
     1
102
RTVSPost2010PropOp30
 70
     1
102
RTVSPost2010Prop31
280
     0
102
RTVSPost2010PropOp31
 70
     1
102
RTVSPost2010Prop32
280
     0
102
RTVSPost2010PropOp32
 70
     1
102
RTVSPost2010Prop33
280
     0
102
RTVSPost2010PropOp33
 70
     1
102
RTVSPost2010Prop34
280
     0
102
RTVSPost2010PropOp34
 70
     1
102
RTVSPost2010Prop35
280
     0
102
RTVSPost2010PropOp35
 70
     1
102
RTVSPost2010Prop36
280
     0
102
RTVSPost2010PropOp36
 70
     1
102
RTVSPost2010Prop37
 90
       50
102
RTVSPost2010PropOp37
 70
     1
102
RTVSPost2010Prop38
140
0.0
102
RTVSPost2010PropOp38
 70
     1
102
RTVSPost2010Prop39
140
1.0
102
RTVSPost2010PropOp39
 70
     1
102
RTVSPost2010Prop40
 90
        0
102
RTVSPost2010PropOp40
 70
     1
102
RTVSPost2010Prop41ColorIndex
 90
       18
102
RTVSPost2010Prop41ColorRGB
 90
        0
102
RTVSPost2010PropOp41
 70
     1
102
RTVSPost2010Prop42
 90
       50
102
RTVSPost2010PropOp42
 70
     1
102
RTVSPost2010Prop43
 90
        3
102
RTVSPost2010PropOp43
 70
     1
102
RTVSPost2010Prop44ColorIndex
 90
        5
102
RTVSPost2010Prop44ColorRGB
 90
      255
102
RTVSPost2010PropOp44
 70
     1
102
RTVSPost2010Prop45
280
     0
102
RTVSPost2010PropOp45
 70
     1
102
RTVSPost2010Prop46
 90
       50
102
RTVSPost2010PropOp46
 70
     1
102
RTVSPost2010Prop47
 90
       50
102
RTVSPost2010PropOp47
 70
     1
102
RTVSPost2010Prop48
 90
       50
102
RTVSPost2010PropOp48
 70
     1
102
RTVSPost2010Prop49
280
     0
102
RTVSPost2010PropOp49
 70
     1
102
RTVSPost2010Prop50
 90
       50
102
RTVSPost2010PropOp50
 70
     1
102
RTVSPost2010Prop51ColorIndex
 90
      256
102
RTVSPost2010Prop51ColorRGB
 90
-16777216
102
RTVSPost2010PropOp51
 70
     0
102
RTVSPost2010Prop52
140
1.0
102
RTVSPost2010PropOp52
 70
     0
102
RTVSPost2010Prop53
 90
        2
102
RTVSPost2010PropOp53
 70
     1
102
RTVSPost2010Prop54
  1
strokes_ogs.tif
102
RTVSPost2010PropOp54
 70
     1
102
RTVSPost2010Prop55
280
     0
102
RTVSPost2010PropOp55
 70
     1
102
RTVSPost2010Prop56
140
1.0
102
RTVSPost2010PropOp56
 70
     1
102
RTVSPost2010Prop57
140
1.0
102
RTVSPost2010PropOp57
 70
     1
  0
XRECORD
  5
167
102
{ACAD_REACTORS
330
166
102
}
330
166
100
AcDbXrecord
280
     1
102
RTVSPost2010Prop28
280
     0
102
RTVSPost2010PropOp28
 70
     1
102
RTVSPost2010Prop29
280
     1
102
RTVSPost2010PropOp29
 70
     1
102
RTVSPost2010Prop30
280
     1
102
RTVSPost2010PropOp30
 70
     1
102
RTVSPost2010Prop31
280
     0
102
RTVSPost2010PropOp31
 70
     1
102
RTVSPost2010Prop32
280
     0
102
RTVSPost2010PropOp32
 70
     1
102
RTVSPost2010Prop33
280
     0
102
RTVSPost2010PropOp33
 70
     1
102
RTVSPost2010Prop34
280
     0
102
RTVSPost2010PropOp34
 70
     1
102
RTVSPost2010Prop35
280
     0
102
RTVSPost2010PropOp35
 70
     1
102
RTVSPost2010Prop36
280
     0
102
RTVSPost2010PropOp36
 70
     1
102
RTVSPost2010Prop37
 90
       50
102
RTVSPost2010PropOp37
 70
     1
102
RTVSPost2010Prop38
140
0.0
102
RTVSPost2010PropOp38
 70
     1
102
RTVSPost2010Prop39
140
1.0
102
RTVSPost2010PropOp39
 70
     1
102
RTVSPost2010Prop40
 90
        0
102
RTVSPost2010PropOp40
 70
     1
102
RTVSPost2010Prop41ColorIndex
 90
       18
102
RTVSPost2010Prop41ColorRGB
 90
        0
102
RTVSPost2010PropOp41
 70
     1
102
RTVSPost2010Prop42
 90
       50
102
RTVSPost2010PropOp42
 70
     1
102
RTVSPost2010Prop43
 90
        3
102
RTVSPost2010PropOp43
 70
     1
102
RTVSPost2010Prop44ColorIndex
 90
        5
102
RTVSPost2010Prop44ColorRGB
 90
      255
102
RTVSPost2010PropOp44
 70
     1
102
RTVSPost2010Prop45
280
     0
102
RTVSPost2010PropOp45
 70
     1
102
RTVSPost2010Prop46
 90
       50
102
RTVSPost2010PropOp46
 70
     1
102
RTVSPost2010Prop47
 90
       50
102
RTVSPost2010PropOp47
 70
     1
102
RTVSPost2010Prop48
 90
       50
102
RTVSPost2010PropOp48
 70
     1
102
RTVSPost2010Prop49
280
     0
102
RTVSPost2010PropOp49
 70
     1
102
RTVSPost2010Prop50
 90
       50
102
RTVSPost2010PropOp50
 70
     1
102
RTVSPost2010Prop51ColorIndex
 90
      256
102
RTVSPost2010Prop51ColorRGB
 90
-16777216
102
RTVSPost2010PropOp51
 70
     0
102
RTVSPost2010Prop52
140
1.0
102
RTVSPost2010PropOp52
 70
     0
102
RTVSPost2010Prop53
 90
        2
102
RTVSPost2010PropOp53
 70
     1
102
RTVSPost2010Prop54
  1
strokes_ogs.tif
102
RTVSPost2010PropOp54
 70
     1
102
RTVSPost2010Prop55
280
     0
102
RTVSPost2010PropOp55
 70
     1
102
RTVSPost2010Prop56
140
1.0
102
RTVSPost2010PropOp56
 70
     1
102
RTVSPost2010Prop57
140
1.0
102
RTVSPost2010PropOp57
 70
     1
  0
XRECORD
  5
169
102
{ACAD_REACTORS
330
168
102
}
330
168
100
AcDbXrecord
280
     1
102
RTVSPost2010Prop28
280
     0
102
RTVSPost2010PropOp28
 70
     1
102
RTVSPost2010Prop29
280
     1
102
RTVSPost2010PropOp29
 70
     1
102
RTVSPost2010Prop30
280
     1
102
RTVSPost2010PropOp30
 70
     1
102
RTVSPost2010Prop31
280
     0
102
RTVSPost2010PropOp31
 70
     1
102
RTVSPost2010Prop32
280
     0
102
RTVSPost2010PropOp32
 70
     1
102
RTVSPost2010Prop33
280
     0
102
RTVSPost2010PropOp33
 70
     1
102
RTVSPost2010Prop34
280
     0
102
RTVSPost2010PropOp34
 70
     1
102
RTVSPost2010Prop35
280
     0
102
RTVSPost2010PropOp35
 70
     1
102
RTVSPost2010Prop36
280
     0
102
RTVSPost2010PropOp36
 70
     1
102
RTVSPost2010Prop37
 90
       50
102
RTVSPost2010PropOp37
 70
     1
102
RTVSPost2010Prop38
140
0.0
102
RTVSPost2010PropOp38
 70
     1
102
RTVSPost2010Prop39
140
1.0
102
RTVSPost2010PropOp39
 70
     1
102
RTVSPost2010Prop40
 90
        0
102
RTVSPost2010PropOp40
 70
     1
102
RTVSPost2010Prop41ColorIndex
 90
       18
102
RTVSPost2010Prop41ColorRGB
 90
        0
102
RTVSPost2010PropOp41
 70
     1
102
RTVSPost2010Prop42
 90
       50
102
RTVSPost2010PropOp42
 70
     1
102
RTVSPost2010Prop43
 90
        3
102
RTVSPost2010PropOp43
 70
     1
102
RTVSPost2010Prop44ColorIndex
 90
        5
102
RTVSPost2010Prop44ColorRGB
 90
      255
102
RTVSPost2010PropOp44
 70
     1
102
RTVSPost2010Prop45
280
     0
102
RTVSPost2010PropOp45
 70
     1
102
RTVSPost2010Prop46
 90
       50
102
RTVSPost2010PropOp46
 70
     1
102
RTVSPost2010Prop47
 90
       50
102
RTVSPost2010PropOp47
 70
     1
102
RTVSPost2010Prop48
 90
       50
102
RTVSPost2010PropOp48
 70
     1
102
RTVSPost2010Prop49
280
     0
102
RTVSPost2010PropOp49
 70
     1
102
RTVSPost2010Prop50
 90
       50
102
RTVSPost2010PropOp50
 70
     1
102
RTVSPost2010Prop51ColorIndex
 90
      256
102
RTVSPost2010Prop51ColorRGB
 90
-16777216
102
RTVSPost2010PropOp51
 70
     0
102
RTVSPost2010Prop52
140
1.0
102
RTVSPost2010PropOp52
 70
     0
102
RTVSPost2010Prop53
 90
        2
102
RTVSPost2010PropOp53
 70
     1
102
RTVSPost2010Prop54
  1
strokes_ogs.tif
102
RTVSPost2010PropOp54
 70
     1
102
RTVSPost2010Prop55
280
     0
102
RTVSPost2010PropOp55
 70
     1
102
RTVSPost2010Prop56
140
1.0
102
RTVSPost2010PropOp56
 70
     1
102
RTVSPost2010Prop57
140
1.0
102
RTVSPost2010PropOp57
 70
     1
  0
XRECORD
  5
16B
102
{ACAD_REACTORS
330
16A
102
}
330
16A
100
AcDbXrecord
280
     1
102
RTVSPost2010Prop28
280
     0
102
RTVSPost2010PropOp28
 70
     1
102
RTVSPost2010Prop29
280
     1
102
RTVSPost2010PropOp29
 70
     1
102
RTVSPost2010Prop30
280
     1
102
RTVSPost2010PropOp30
 70
     1
102
RTVSPost2010Prop31
280
     0
102
RTVSPost2010PropOp31
 70
     1
102
RTVSPost2010Prop32
280
     0
102
RTVSPost2010PropOp32
 70
     1
102
RTVSPost2010Prop33
280
     0
102
RTVSPost2010PropOp33
 70
     1
102
RTVSPost2010Prop34
280
     0
102
RTVSPost2010PropOp34
 70
     1
102
RTVSPost2010Prop35
280
     0
102
RTVSPost2010PropOp35
 70
     1
102
RTVSPost2010Prop36
280
     0
102
RTVSPost2010PropOp36
 70
     1
102
RTVSPost2010Prop37
 90
       50
102
RTVSPost2010PropOp37
 70
     1
102
RTVSPost2010Prop38
140
0.0
102
RTVSPost2010PropOp38
 70
     1
102
RTVSPost2010Prop39
140
1.0
102
RTVSPost2010PropOp39
 70
     1
102
RTVSPost2010Prop40
 90
        0
102
RTVSPost2010PropOp40
 70
     1
102
RTVSPost2010Prop41ColorIndex
 90
       18
102
RTVSPost2010Prop41ColorRGB
 90
        0
102
RTVSPost2010PropOp41
 70
     1
102
RTVSPost2010Prop42
 90
       50
102
RTVSPost2010PropOp42
 70
     1
102
RTVSPost2010Prop43
 90
        3
102
RTVSPost2010PropOp43
 70
     1
102
RTVSPost2010Prop44ColorIndex
 90
        5
102
RTVSPost2010Prop44ColorRGB
 90
      255
102
RTVSPost2010PropOp44
 70
     1
102
RTVSPost2010Prop45
280
     0
102
RTVSPost2010PropOp45
 70
     1
102
RTVSPost2010Prop46
 90
       50
102
RTVSPost2010PropOp46
 70
     1
102
RTVSPost2010Prop47
 90
       50
102
RTVSPost2010PropOp47
 70
     1
102
RTVSPost2010Prop48
 90
       50
102
RTVSPost2010PropOp48
 70
     1
102
RTVSPost2010Prop49
280
     0
102
RTVSPost2010PropOp49
 70
     1
102
RTVSPost2010Prop50
 90
       50
102
RTVSPost2010PropOp50
 70
     1
102
RTVSPost2010Prop51ColorIndex
 90
      256
102
RTVSPost2010Prop51ColorRGB
 90
-16777216
102
RTVSPost2010PropOp51
 70
     0
102
RTVSPost2010Prop52
140
1.0
102
RTVSPost2010PropOp52
 70
     0
102
RTVSPost2010Prop53
 90
        2
102
RTVSPost2010PropOp53
 70
     1
102
RTVSPost2010Prop54
  1
strokes_ogs.tif
102
RTVSPost2010PropOp54
 70
     1
102
RTVSPost2010Prop55
280
     0
102
RTVSPost2010PropOp55
 70
     1
102
RTVSPost2010Prop56
140
1.0
102
RTVSPost2010PropOp56
 70
     1
102
RTVSPost2010Prop57
140
1.0
102
RTVSPost2010PropOp57
 70
     1
  0
XRECORD
  5
16D
102
{ACAD_REACTORS
330
16C
102
}
330
16C
100
AcDbXrecord
280
     1
102
RTVSPost2010Prop28
280
     0
102
RTVSPost2010PropOp28
 70
     1
102
RTVSPost2010Prop29
280
     1
102
RTVSPost2010PropOp29
 70
     1
102
RTVSPost2010Prop30
280
     1
102
RTVSPost2010PropOp30
 70
     1
102
RTVSPost2010Prop31
280
     0
102
RTVSPost2010PropOp31
 70
     1
102
RTVSPost2010Prop32
280
     0
102
RTVSPost2010PropOp32
 70
     1
102
RTVSPost2010Prop33
280
     0
102
RTVSPost2010PropOp33
 70
     1
102
RTVSPost2010Prop34
280
     0
102
RTVSPost2010PropOp34
 70
     1
102
RTVSPost2010Prop35
280
     0
102
RTVSPost2010PropOp35
 70
     1
102
RTVSPost2010Prop36
280
     0
102
RTVSPost2010PropOp36
 70
     1
102
RTVSPost2010Prop37
 90
       50
102
RTVSPost2010PropOp37
 70
     1
102
RTVSPost2010Prop38
140
0.0
102
RTVSPost2010PropOp38
 70
     1
102
RTVSPost2010Prop39
140
1.0
102
RTVSPost2010PropOp39
 70
     1
102
RTVSPost2010Prop40
 90
        0
102
RTVSPost2010PropOp40
 70
     1
102
RTVSPost2010Prop41ColorIndex
 90
       18
102
RTVSPost2010Prop41ColorRGB
 90
        0
102
RTVSPost2010PropOp41
 70
     1
102
RTVSPost2010Prop42
 90
       50
102
RTVSPost2010PropOp42
 70
     1
102
RTVSPost2010Prop43
 90
        3
102
RTVSPost2010PropOp43
 70
     1
102
RTVSPost2010Prop44ColorIndex
 90
        5
102
RTVSPost2010Prop44ColorRGB
 90
      255
102
RTVSPost2010PropOp44
 70
     1
102
RTVSPost2010Prop45
280
     0
102
RTVSPost2010PropOp45
 70
     1
102
RTVSPost2010Prop46
 90
       50
102
RTVSPost2010PropOp46
 70
     1
102
RTVSPost2010Prop47
 90
       50
102
RTVSPost2010PropOp47
 70
     1
102
RTVSPost2010Prop48
 90
       50
102
RTVSPost2010PropOp48
 70
     1
102
RTVSPost2010Prop49
280
     0
102
RTVSPost2010PropOp49
 70
     1
102
RTVSPost2010Prop50
 90
       50
102
RTVSPost2010PropOp50
 70
     1
102
RTVSPost2010Prop51ColorIndex
 90
      256
102
RTVSPost2010Prop51ColorRGB
 90
-16777216
102
RTVSPost2010PropOp51
 70
     0
102
RTVSPost2010Prop52
140
1.0
102
RTVSPost2010PropOp52
 70
     0
102
RTVSPost2010Prop53
 90
        2
102
RTVSPost2010PropOp53
 70
     1
102
RTVSPost2010Prop54
  1
strokes_ogs.tif
102
RTVSPost2010PropOp54
 70
     1
102
RTVSPost2010Prop55
280
     0
102
RTVSPost2010PropOp55
 70
     1
102
RTVSPost2010Prop56
140
1.0
102
RTVSPost2010PropOp56
 70
     1
102
RTVSPost2010Prop57
140
1.0
102
RTVSPost2010PropOp57
 70
     1
  0
XRECORD
  5
175
102
{ACAD_REACTORS
330
174
102
}
330
174
100
AcDbXrecord
280
     1
102
RTVSPost2010Prop28
280
     0
102
RTVSPost2010PropOp28
 70
     1
102
RTVSPost2010Prop29
280
     1
102
RTVSPost2010PropOp29
 70
     1
102
RTVSPost2010Prop30
280
     1
102
RTVSPost2010PropOp30
 70
     1
102
RTVSPost2010Prop31
280
     0
102
RTVSPost2010PropOp31
 70
     1
102
RTVSPost2010Prop32
280
     0
102
RTVSPost2010PropOp32
 70
     1
102
RTVSPost2010Prop33
280
     0
102
RTVSPost2010PropOp33
 70
     1
102
RTVSPost2010Prop34
280
     0
102
RTVSPost2010PropOp34
 70
     1
102
RTVSPost2010Prop35
280
     0
102
RTVSPost2010PropOp35
 70
     1
102
RTVSPost2010Prop36
280
     0
102
RTVSPost2010PropOp36
 70
     1
102
RTVSPost2010Prop37
 90
       50
102
RTVSPost2010PropOp37
 70
     1
102
RTVSPost2010Prop38
140
0.0
102
RTVSPost2010PropOp38
 70
     1
102
RTVSPost2010Prop39
140
1.0
102
RTVSPost2010PropOp39
 70
     1
102
RTVSPost2010Prop40
 90
        0
102
RTVSPost2010PropOp40
 70
     1
102
RTVSPost2010Prop41ColorIndex
 90
       18
102
RTVSPost2010Prop41ColorRGB
 90
        0
102
RTVSPost2010PropOp41
 70
     1
102
RTVSPost2010Prop42
 90
       50
102
RTVSPost2010PropOp42
 70
     1
102
RTVSPost2010Prop43
 90
        3
102
RTVSPost2010PropOp43
 70
     1
102
RTVSPost2010Prop44ColorIndex
 90
        5
102
RTVSPost2010Prop44ColorRGB
 90
      255
102
RTVSPost2010PropOp44
 70
     1
102
RTVSPost2010Prop45
280
     0
102
RTVSPost2010PropOp45
 70
     1
102
RTVSPost2010Prop46
 90
       50
102
RTVSPost2010PropOp46
 70
     1
102
RTVSPost2010Prop47
 90
       50
102
RTVSPost2010PropOp47
 70
     1
102
RTVSPost2010Prop48
 90
       50
102
RTVSPost2010PropOp48
 70
     1
102
RTVSPost2010Prop49
280
     0
102
RTVSPost2010PropOp49
 70
     1
102
RTVSPost2010Prop50
 90
       50
102
RTVSPost2010PropOp50
 70
     1
102
RTVSPost2010Prop51ColorIndex
 90
      256
102
RTVSPost2010Prop51ColorRGB
 90
-16777216
102
RTVSPost2010PropOp51
 70
     0
102
RTVSPost2010Prop52
140
1.0
102
RTVSPost2010PropOp52
 70
     0
102
RTVSPost2010Prop53
 90
        2
102
RTVSPost2010PropOp53
 70
     1
102
RTVSPost2010Prop54
  1
strokes_ogs.tif
102
RTVSPost2010PropOp54
 70
     1
102
RTVSPost2010Prop55
280
     0
102
RTVSPost2010PropOp55
 70
     1
102
RTVSPost2010Prop56
140
1.0
102
RTVSPost2010PropOp56
 70
     1
102
RTVSPost2010Prop57
140
1.0
102
RTVSPost2010PropOp57
 70
     1
  0
XRECORD
  5
191
102
{ACAD_REACTORS
330
190
102
}
330
190
100
AcDbXrecord
280
     1
102
RTVSPost2010Prop28
280
     0
102
RTVSPost2010PropOp28
 70
     0
102
RTVSPost2010Prop29
280
     1
102
RTVSPost2010PropOp29
 70
     0
102
RTVSPost2010Prop30
280
     1
102
RTVSPost2010PropOp30
 70
     0
102
RTVSPost2010Prop31
280
     0
102
RTVSPost2010PropOp31
 70
     0
102
RTVSPost2010Prop32
280
     0
102
RTVSPost2010PropOp32
 70
     0
102
RTVSPost2010Prop33
280
     0
102
RTVSPost2010PropOp33
 70
     0
102
RTVSPost2010Prop34
280
     0
102
RTVSPost2010PropOp34
 70
     0
102
RTVSPost2010Prop35
280
     0
102
RTVSPost2010PropOp35
 70
     0
102
RTVSPost2010Prop36
280
     0
102
RTVSPost2010PropOp36
 70
     0
102
RTVSPost2010Prop37
 90
       50
102
RTVSPost2010PropOp37
 70
     0
102
RTVSPost2010Prop38
140
0.0
102
RTVSPost2010PropOp38
 70
     0
102
RTVSPost2010Prop39
140
1.0
102
RTVSPost2010PropOp39
 70
     0
102
RTVSPost2010Prop40
 90
        0
102
RTVSPost2010PropOp40
 70
     0
102
RTVSPost2010Prop41ColorIndex
 90
       18
102
RTVSPost2010Prop41ColorRGB
 90
        0
102
RTVSPost2010PropOp41
 70
     0
102
RTVSPost2010Prop42
 90
       50
102
RTVSPost2010PropOp42
 70
     0
102
RTVSPost2010Prop43
 90
        3
102
RTVSPost2010PropOp43
 70
     0
102
RTVSPost2010Prop44ColorIndex
 90
        5
102
RTVSPost2010Prop44ColorRGB
 90
      255
102
RTVSPost2010PropOp44
 70
     0
102
RTVSPost2010Prop45
280
     0
102
RTVSPost2010PropOp45
 70
     0
102
RTVSPost2010Prop46
 90
       50
102
RTVSPost2010PropOp46
 70
     0
102
RTVSPost2010Prop47
 90
       50
102
RTVSPost2010PropOp47
 70
     0
102
RTVSPost2010Prop48
 90
       50
102
RTVSPost2010PropOp48
 70
     0
102
RTVSPost2010Prop49
280
     0
102
RTVSPost2010PropOp49
 70
     0
102
RTVSPost2010Prop50
 90
       50
102
RTVSPost2010PropOp50
 70
     0
102
RTVSPost2010Prop51ColorIndex
 90
      256
102
RTVSPost2010Prop51ColorRGB
 90
-16777216
102
RTVSPost2010PropOp51
 70
     0
102
RTVSPost2010Prop52
140
1.0
102
RTVSPost2010PropOp52
 70
     0
102
RTVSPost2010Prop53
 90
        2
102
RTVSPost2010PropOp53
 70
     0
102
RTVSPost2010Prop54
  1
strokes_ogs.tif
102
RTVSPost2010PropOp54
 70
     0
102
RTVSPost2010Prop55
280
     0
102
RTVSPost2010PropOp55
 70
     0
102
RTVSPost2010Prop56
140
1.0
102
RTVSPost2010PropOp56
 70
     0
102
RTVSPost2010Prop57
140
1.0
102
RTVSPost2010PropOp57
 70
     0
  0
XRECORD
  5
181
102
{ACAD_REACTORS
330
180
102
}
330
180
100
AcDbXrecord
280
     1
102
RTVSPost2010Prop28
280
     0
102
RTVSPost2010PropOp28
 70
     1
102
RTVSPost2010Prop29
280
     1
102
RTVSPost2010PropOp29
 70
     1
102
RTVSPost2010Prop30
280
     1
102
RTVSPost2010PropOp30
 70
     1
102
RTVSPost2010Prop31
280
     0
102
RTVSPost2010PropOp31
 70
     1
102
RTVSPost2010Prop32
280
     0
102
RTVSPost2010PropOp32
 70
     1
102
RTVSPost2010Prop33
280
     0
102
RTVSPost2010PropOp33
 70
     1
102
RTVSPost2010Prop34
280
     0
102
RTVSPost2010PropOp34
 70
     1
102
RTVSPost2010Prop35
280
     0
102
RTVSPost2010PropOp35
 70
     1
102
RTVSPost2010Prop36
280
     0
102
RTVSPost2010PropOp36
 70
     1
102
RTVSPost2010Prop37
 90
       50
102
RTVSPost2010PropOp37
 70
     1
102
RTVSPost2010Prop38
140
0.0
102
RTVSPost2010PropOp38
 70
     1
102
RTVSPost2010Prop39
140
1.0
102
RTVSPost2010PropOp39
 70
     1
102
RTVSPost2010Prop40
 90
        0
102
RTVSPost2010PropOp40
 70
     1
102
RTVSPost2010Prop41ColorIndex
 90
       18
102
RTVSPost2010Prop41ColorRGB
 90
        0
102
RTVSPost2010PropOp41
 70
     1
102
RTVSPost2010Prop42
 90
       50
102
RTVSPost2010PropOp42
 70
     1
102
RTVSPost2010Prop43
 90
        3
102
RTVSPost2010PropOp43
 70
     1
102
RTVSPost2010Prop44ColorIndex
 90
        5
102
RTVSPost2010Prop44ColorRGB
 90
      255
102
RTVSPost2010PropOp44
 70
     1
102
RTVSPost2010Prop45
280
     0
102
RTVSPost2010PropOp45
 70
     1
102
RTVSPost2010Prop46
 90
       50
102
RTVSPost2010PropOp46
 70
     1
102
RTVSPost2010Prop47
 90
       50
102
RTVSPost2010PropOp47
 70
     1
102
RTVSPost2010Prop48
 90
       50
102
RTVSPost2010PropOp48
 70
     1
102
RTVSPost2010Prop49
280
     0
102
RTVSPost2010PropOp49
 70
     1
102
RTVSPost2010Prop50
 90
       50
102
RTVSPost2010PropOp50
 70
     1
102
RTVSPost2010Prop51ColorIndex
 90
      256
102
RTVSPost2010Prop51ColorRGB
 90
-16777216
102
RTVSPost2010PropOp51
 70
     0
102
RTVSPost2010Prop52
140
1.0
102
RTVSPost2010PropOp52
 70
     0
102
RTVSPost2010Prop53
 90
        2
102
RTVSPost2010PropOp53
 70
     1
102
RTVSPost2010Prop54
  1
strokes_ogs.tif
102
RTVSPost2010PropOp54
 70
     1
102
RTVSPost2010Prop55
280
     0
102
RTVSPost2010PropOp55
 70
     1
102
RTVSPost2010Prop56
140
1.0
102
RTVSPost2010PropOp56
 70
     1
102
RTVSPost2010Prop57
140
1.0
102
RTVSPost2010PropOp57
 70
     1
  0
XRECORD
  5
193
102
{ACAD_REACTORS
330
192
102
}
330
192
100
AcDbXrecord
280
     1
102
RTVSPost2010Prop28
280
     0
102
RTVSPost2010PropOp28
 70
     0
102
RTVSPost2010Prop29
280
     1
102
RTVSPost2010PropOp29
 70
     0
102
RTVSPost2010Prop30
280
     1
102
RTVSPost2010PropOp30
 70
     0
102
RTVSPost2010Prop31
280
     0
102
RTVSPost2010PropOp31
 70
     0
102
RTVSPost2010Prop32
280
     0
102
RTVSPost2010PropOp32
 70
     0
102
RTVSPost2010Prop33
280
     0
102
RTVSPost2010PropOp33
 70
     0
102
RTVSPost2010Prop34
280
     0
102
RTVSPost2010PropOp34
 70
     0
102
RTVSPost2010Prop35
280
     0
102
RTVSPost2010PropOp35
 70
     0
102
RTVSPost2010Prop36
280
     0
102
RTVSPost2010PropOp36
 70
     0
102
RTVSPost2010Prop37
 90
       50
102
RTVSPost2010PropOp37
 70
     0
102
RTVSPost2010Prop38
140
0.0
102
RTVSPost2010PropOp38
 70
     0
102
RTVSPost2010Prop39
140
1.0
102
RTVSPost2010PropOp39
 70
     0
102
RTVSPost2010Prop40
 90
        0
102
RTVSPost2010PropOp40
 70
     0
102
RTVSPost2010Prop41ColorIndex
 90
       18
102
RTVSPost2010Prop41ColorRGB
 90
        0
102
RTVSPost2010PropOp41
 70
     0
102
RTVSPost2010Prop42
 90
       50
102
RTVSPost2010PropOp42
 70
     0
102
RTVSPost2010Prop43
 90
        3
102
RTVSPost2010PropOp43
 70
     0
102
RTVSPost2010Prop44ColorIndex
 90
        5
102
RTVSPost2010Prop44ColorRGB
 90
      255
102
RTVSPost2010PropOp44
 70
     0
102
RTVSPost2010Prop45
280
     0
102
RTVSPost2010PropOp45
 70
     0
102
RTVSPost2010Prop46
 90
       50
102
RTVSPost2010PropOp46
 70
     0
102
RTVSPost2010Prop47
 90
       50
102
RTVSPost2010PropOp47
 70
     0
102
RTVSPost2010Prop48
 90
       50
102
RTVSPost2010PropOp48
 70
     0
102
RTVSPost2010Prop49
280
     0
102
RTVSPost2010PropOp49
 70
     0
102
RTVSPost2010Prop50
 90
       50
102
RTVSPost2010PropOp50
 70
     0
102
RTVSPost2010Prop51ColorIndex
 90
      256
102
RTVSPost2010Prop51ColorRGB
 90
-16777216
102
RTVSPost2010PropOp51
 70
     0
102
RTVSPost2010Prop52
140
1.0
102
RTVSPost2010PropOp52
 70
     0
102
RTVSPost2010Prop53
 90
        2
102
RTVSPost2010PropOp53
 70
     0
102
RTVSPost2010Prop54
  1
strokes_ogs.tif
102
RTVSPost2010PropOp54
 70
     0
102
RTVSPost2010Prop55
280
     0
102
RTVSPost2010PropOp55
 70
     0
102
RTVSPost2010Prop56
140
1.0
102
RTVSPost2010PropOp56
 70
     0
102
RTVSPost2010Prop57
140
1.0
102
RTVSPost2010PropOp57
 70
     0
  0
XRECORD
  5
179
102
{ACAD_REACTORS
330
178
102
}
330
178
100
AcDbXrecord
280
     1
102
RTVSPost2010Prop28
280
     0
102
RTVSPost2010PropOp28
 70
     1
102
RTVSPost2010Prop29
280
     1
102
RTVSPost2010PropOp29
 70
     1
102
RTVSPost2010Prop30
280
     1
102
RTVSPost2010PropOp30
 70
     1
102
RTVSPost2010Prop31
280
     0
102
RTVSPost2010PropOp31
 70
     1
102
RTVSPost2010Prop32
280
     0
102
RTVSPost2010PropOp32
 70
     1
102
RTVSPost2010Prop33
280
     0
102
RTVSPost2010PropOp33
 70
     1
102
RTVSPost2010Prop34
280
     0
102
RTVSPost2010PropOp34
 70
     1
102
RTVSPost2010Prop35
280
     0
102
RTVSPost2010PropOp35
 70
     1
102
RTVSPost2010Prop36
280
     0
102
RTVSPost2010PropOp36
 70
     1
102
RTVSPost2010Prop37
 90
       50
102
RTVSPost2010PropOp37
 70
     1
102
RTVSPost2010Prop38
140
0.0
102
RTVSPost2010PropOp38
 70
     1
102
RTVSPost2010Prop39
140
1.0
102
RTVSPost2010PropOp39
 70
     1
102
RTVSPost2010Prop40
 90
        0
102
RTVSPost2010PropOp40
 70
     1
102
RTVSPost2010Prop41ColorIndex
 90
       18
102
RTVSPost2010Prop41ColorRGB
 90
        0
102
RTVSPost2010PropOp41
 70
     1
102
RTVSPost2010Prop42
 90
       50
102
RTVSPost2010PropOp42
 70
     1
102
RTVSPost2010Prop43
 90
        3
102
RTVSPost2010PropOp43
 70
     1
102
RTVSPost2010Prop44ColorIndex
 90
        5
102
RTVSPost2010Prop44ColorRGB
 90
      255
102
RTVSPost2010PropOp44
 70
     1
102
RTVSPost2010Prop45
280
     0
102
RTVSPost2010PropOp45
 70
     1
102
RTVSPost2010Prop46
 90
       50
102
RTVSPost2010PropOp46
 70
     1
102
RTVSPost2010Prop47
 90
       50
102
RTVSPost2010PropOp47
 70
     1
102
RTVSPost2010Prop48
 90
       50
102
RTVSPost2010PropOp48
 70
     1
102
RTVSPost2010Prop49
280
     0
102
RTVSPost2010PropOp49
 70
     1
102
RTVSPost2010Prop50
 90
       50
102
RTVSPost2010PropOp50
 70
     1
102
RTVSPost2010Prop51ColorIndex
 90
      256
102
RTVSPost2010Prop51ColorRGB
 90
-16777216
102
RTVSPost2010PropOp51
 70
     0
102
RTVSPost2010Prop52
140
1.0
102
RTVSPost2010PropOp52
 70
     0
102
RTVSPost2010Prop53
 90
        2
102
RTVSPost2010PropOp53
 70
     1
102
RTVSPost2010Prop54
  1
strokes_ogs.tif
102
RTVSPost2010PropOp54
 70
     1
102
RTVSPost2010Prop55
280
     0
102
RTVSPost2010PropOp55
 70
     1
102
RTVSPost2010Prop56
140
1.0
102
RTVSPost2010PropOp56
 70
     1
102
RTVSPost2010Prop57
140
1.0
102
RTVSPost2010PropOp57
 70
     1
  0
XRECORD
  5
18F
102
{ACAD_REACTORS
330
18E
102
}
330
18E
100
AcDbXrecord
280
     1
102
RTVSPost2010Prop28
280
     0
102
RTVSPost2010PropOp28
 70
     1
102
RTVSPost2010Prop29
280
     1
102
RTVSPost2010PropOp29
 70
     1
102
RTVSPost2010Prop30
280
     1
102
RTVSPost2010PropOp30
 70
     1
102
RTVSPost2010Prop31
280
     0
102
RTVSPost2010PropOp31
 70
     1
102
RTVSPost2010Prop32
280
     0
102
RTVSPost2010PropOp32
 70
     1
102
RTVSPost2010Prop33
280
     0
102
RTVSPost2010PropOp33
 70
     1
102
RTVSPost2010Prop34
280
     0
102
RTVSPost2010PropOp34
 70
     1
102
RTVSPost2010Prop35
280
     0
102
RTVSPost2010PropOp35
 70
     1
102
RTVSPost2010Prop36
280
     0
102
RTVSPost2010PropOp36
 70
     1
102
RTVSPost2010Prop37
 90
       50
102
RTVSPost2010PropOp37
 70
     1
102
RTVSPost2010Prop38
140
0.0
102
RTVSPost2010PropOp38
 70
     1
102
RTVSPost2010Prop39
140
1.0
102
RTVSPost2010PropOp39
 70
     1
102
RTVSPost2010Prop40
 90
        0
102
RTVSPost2010PropOp40
 70
     1
102
RTVSPost2010Prop41ColorIndex
 90
       18
102
RTVSPost2010Prop41ColorRGB
 90
        0
102
RTVSPost2010PropOp41
 70
     1
102
RTVSPost2010Prop42
 90
       50
102
RTVSPost2010PropOp42
 70
     1
102
RTVSPost2010Prop43
 90
        3
102
RTVSPost2010PropOp43
 70
     1
102
RTVSPost2010Prop44ColorIndex
 90
        5
102
RTVSPost2010Prop44ColorRGB
 90
      255
102
RTVSPost2010PropOp44
 70
     1
102
RTVSPost2010Prop45
280
     0
102
RTVSPost2010PropOp45
 70
     1
102
RTVSPost2010Prop46
 90
       50
102
RTVSPost2010PropOp46
 70
     1
102
RTVSPost2010Prop47
 90
       50
102
RTVSPost2010PropOp47
 70
     1
102
RTVSPost2010Prop48
 90
       50
102
RTVSPost2010PropOp48
 70
     1
102
RTVSPost2010Prop49
280
     0
102
RTVSPost2010PropOp49
 70
     1
102
RTVSPost2010Prop50
 90
       50
102
RTVSPost2010PropOp50
 70
     1
102
RTVSPost2010Prop51ColorIndex
 90
      256
102
RTVSPost2010Prop51ColorRGB
 90
-16777216
102
RTVSPost2010PropOp51
 70
     0
102
RTVSPost2010Prop52
140
1.0
102
RTVSPost2010PropOp52
 70
     0
102
RTVSPost2010Prop53
 90
        2
102
RTVSPost2010PropOp53
 70
     1
102
RTVSPost2010Prop54
  1
strokes_ogs.tif
102
RTVSPost2010PropOp54
 70
     1
102
RTVSPost2010Prop55
280
     0
102
RTVSPost2010PropOp55
 70
     1
102
RTVSPost2010Prop56
140
1.0
102
RTVSPost2010PropOp56
 70
     1
102
RTVSPost2010Prop57
140
1.0
102
RTVSPost2010PropOp57
 70
     1
  0
XRECORD
  5
18D
102
{ACAD_REACTORS
330
18C
102
}
330
18C
100
AcDbXrecord
280
     1
102
RTVSPost2010Prop28
280
     0
102
RTVSPost2010PropOp28
 70
     1
102
RTVSPost2010Prop29
280
     1
102
RTVSPost2010PropOp29
 70
     1
102
RTVSPost2010Prop30
280
     1
102
RTVSPost2010PropOp30
 70
     1
102
RTVSPost2010Prop31
280
     0
102
RTVSPost2010PropOp31
 70
     1
102
RTVSPost2010Prop32
280
     0
102
RTVSPost2010PropOp32
 70
     1
102
RTVSPost2010Prop33
280
     0
102
RTVSPost2010PropOp33
 70
     1
102
RTVSPost2010Prop34
280
     0
102
RTVSPost2010PropOp34
 70
     1
102
RTVSPost2010Prop35
280
     0
102
RTVSPost2010PropOp35
 70
     1
102
RTVSPost2010Prop36
280
     0
102
RTVSPost2010PropOp36
 70
     1
102
RTVSPost2010Prop37
 90
       50
102
RTVSPost2010PropOp37
 70
     1
102
RTVSPost2010Prop38
140
0.0
102
RTVSPost2010PropOp38
 70
     1
102
RTVSPost2010Prop39
140
1.0
102
RTVSPost2010PropOp39
 70
     1
102
RTVSPost2010Prop40
 90
        0
102
RTVSPost2010PropOp40
 70
     1
102
RTVSPost2010Prop41ColorIndex
 90
       18
102
RTVSPost2010Prop41ColorRGB
 90
        0
102
RTVSPost2010PropOp41
 70
     1
102
RTVSPost2010Prop42
 90
       50
102
RTVSPost2010PropOp42
 70
     1
102
RTVSPost2010Prop43
 90
        3
102
RTVSPost2010PropOp43
 70
     1
102
RTVSPost2010Prop44ColorIndex
 90
        5
102
RTVSPost2010Prop44ColorRGB
 90
      255
102
RTVSPost2010PropOp44
 70
     1
102
RTVSPost2010Prop45
280
     0
102
RTVSPost2010PropOp45
 70
     1
102
RTVSPost2010Prop46
 90
       50
102
RTVSPost2010PropOp46
 70
     1
102
RTVSPost2010Prop47
 90
       50
102
RTVSPost2010PropOp47
 70
     1
102
RTVSPost2010Prop48
 90
       50
102
RTVSPost2010PropOp48
 70
     1
102
RTVSPost2010Prop49
280
     0
102
RTVSPost2010PropOp49
 70
     1
102
RTVSPost2010Prop50
 90
       50
102
RTVSPost2010PropOp50
 70
     1
102
RTVSPost2010Prop51ColorIndex
 90
      256
102
RTVSPost2010Prop51ColorRGB
 90
-16777216
102
RTVSPost2010PropOp51
 70
     0
102
RTVSPost2010Prop52
140
1.0
102
RTVSPost2010PropOp52
 70
     0
102
RTVSPost2010Prop53
 90
        2
102
RTVSPost2010PropOp53
 70
     1
102
RTVSPost2010Prop54
  1
strokes_ogs.tif
102
RTVSPost2010PropOp54
 70
     1
102
RTVSPost2010Prop55
280
     0
102
RTVSPost2010PropOp55
 70
     1
102
RTVSPost2010Prop56
140
1.0
102
RTVSPost2010PropOp56
 70
     1
102
RTVSPost2010Prop57
140
1.0
102
RTVSPost2010PropOp57
 70
     1
  0
XRECORD
  5
187
102
{ACAD_REACTORS
330
186
102
}
330
186
100
AcDbXrecord
280
     1
102
RTVSPost2010Prop28
280
     0
102
RTVSPost2010PropOp28
 70
     1
102
RTVSPost2010Prop29
280
     1
102
RTVSPost2010PropOp29
 70
     1
102
RTVSPost2010Prop30
280
     1
102
RTVSPost2010PropOp30
 70
     1
102
RTVSPost2010Prop31
280
     0
102
RTVSPost2010PropOp31
 70
     1
102
RTVSPost2010Prop32
280
     0
102
RTVSPost2010PropOp32
 70
     1
102
RTVSPost2010Prop33
280
     0
102
RTVSPost2010PropOp33
 70
     1
102
RTVSPost2010Prop34
280
     0
102
RTVSPost2010PropOp34
 70
     1
102
RTVSPost2010Prop35
280
     0
102
RTVSPost2010PropOp35
 70
     1
102
RTVSPost2010Prop36
280
     0
102
RTVSPost2010PropOp36
 70
     1
102
RTVSPost2010Prop37
 90
       50
102
RTVSPost2010PropOp37
 70
     1
102
RTVSPost2010Prop38
140
0.0
102
RTVSPost2010PropOp38
 70
     1
102
RTVSPost2010Prop39
140
1.0
102
RTVSPost2010PropOp39
 70
     1
102
RTVSPost2010Prop40
 90
        0
102
RTVSPost2010PropOp40
 70
     1
102
RTVSPost2010Prop41ColorIndex
 90
       18
102
RTVSPost2010Prop41ColorRGB
 90
        0
102
RTVSPost2010PropOp41
 70
     1
102
RTVSPost2010Prop42
 90
       50
102
RTVSPost2010PropOp42
 70
     1
102
RTVSPost2010Prop43
 90
        3
102
RTVSPost2010PropOp43
 70
     1
102
RTVSPost2010Prop44ColorIndex
 90
        5
102
RTVSPost2010Prop44ColorRGB
 90
      255
102
RTVSPost2010PropOp44
 70
     1
102
RTVSPost2010Prop45
280
     0
102
RTVSPost2010PropOp45
 70
     1
102
RTVSPost2010Prop46
 90
       50
102
RTVSPost2010PropOp46
 70
     1
102
RTVSPost2010Prop47
 90
       50
102
RTVSPost2010PropOp47
 70
     1
102
RTVSPost2010Prop48
 90
       50
102
RTVSPost2010PropOp48
 70
     1
102
RTVSPost2010Prop49
280
     0
102
RTVSPost2010PropOp49
 70
     1
102
RTVSPost2010Prop50
 90
       50
102
RTVSPost2010PropOp50
 70
     1
102
RTVSPost2010Prop51ColorIndex
 90
      256
102
RTVSPost2010Prop51ColorRGB
 90
-16777216
102
RTVSPost2010PropOp51
 70
     0
102
RTVSPost2010Prop52
140
1.0
102
RTVSPost2010PropOp52
 70
     0
102
RTVSPost2010Prop53
 90
        2
102
RTVSPost2010PropOp53
 70
     1
102
RTVSPost2010Prop54
  1
strokes_ogs.tif
102
RTVSPost2010PropOp54
 70
     1
102
RTVSPost2010Prop55
280
     0
102
RTVSPost2010PropOp55
 70
     1
102
RTVSPost2010Prop56
140
1.0
102
RTVSPost2010PropOp56
 70
     1
102
RTVSPost2010Prop57
140
1.0
102
RTVSPost2010PropOp57
 70
     1
  0
XRECORD
  5
189
102
{ACAD_REACTORS
330
188
102
}
330
188
100
AcDbXrecord
280
     1
102
RTVSPost2010Prop28
280
     0
102
RTVSPost2010PropOp28
 70
     1
102
RTVSPost2010Prop29
280
     1
102
RTVSPost2010PropOp29
 70
     1
102
RTVSPost2010Prop30
280
     1
102
RTVSPost2010PropOp30
 70
     1
102
RTVSPost2010Prop31
280
     0
102
RTVSPost2010PropOp31
 70
     1
102
RTVSPost2010Prop32
280
     0
102
RTVSPost2010PropOp32
 70
     1
102
RTVSPost2010Prop33
280
     0
102
RTVSPost2010PropOp33
 70
     1
102
RTVSPost2010Prop34
280
     0
102
RTVSPost2010PropOp34
 70
     1
102
RTVSPost2010Prop35
280
     0
102
RTVSPost2010PropOp35
 70
     1
102
RTVSPost2010Prop36
280
     0
102
RTVSPost2010PropOp36
 70
     1
102
RTVSPost2010Prop37
 90
       50
102
RTVSPost2010PropOp37
 70
     1
102
RTVSPost2010Prop38
140
0.0
102
RTVSPost2010PropOp38
 70
     1
102
RTVSPost2010Prop39
140
1.0
102
RTVSPost2010PropOp39
 70
     1
102
RTVSPost2010Prop40
 90
        0
102
RTVSPost2010PropOp40
 70
     1
102
RTVSPost2010Prop41ColorIndex
 90
       18
102
RTVSPost2010Prop41ColorRGB
 90
        0
102
RTVSPost2010PropOp41
 70
     1
102
RTVSPost2010Prop42
 90
       50
102
RTVSPost2010PropOp42
 70
     1
102
RTVSPost2010Prop43
 90
        3
102
RTVSPost2010PropOp43
 70
     1
102
RTVSPost2010Prop44ColorIndex
 90
        5
102
RTVSPost2010Prop44ColorRGB
 90
      255
102
RTVSPost2010PropOp44
 70
     1
102
RTVSPost2010Prop45
280
     0
102
RTVSPost2010PropOp45
 70
     1
102
RTVSPost2010Prop46
 90
       50
102
RTVSPost2010PropOp46
 70
     1
102
RTVSPost2010Prop47
 90
       50
102
RTVSPost2010PropOp47
 70
     1
102
RTVSPost2010Prop48
 90
       50
102
RTVSPost2010PropOp48
 70
     1
102
RTVSPost2010Prop49
280
     0
102
RTVSPost2010PropOp49
 70
     1
102
RTVSPost2010Prop50
 90
       50
102
RTVSPost2010PropOp50
 70
     1
102
RTVSPost2010Prop51ColorIndex
 90
      256
102
RTVSPost2010Prop51ColorRGB
 90
-16777216
102
RTVSPost2010PropOp51
 70
     0
102
RTVSPost2010Prop52
140
1.0
102
RTVSPost2010PropOp52
 70
     0
102
RTVSPost2010Prop53
 90
        2
102
RTVSPost2010PropOp53
 70
     1
102
RTVSPost2010Prop54
  1
strokes_ogs.tif
102
RTVSPost2010PropOp54
 70
     1
102
RTVSPost2010Prop55
280
     0
102
RTVSPost2010PropOp55
 70
     1
102
RTVSPost2010Prop56
140
1.0
102
RTVSPost2010PropOp56
 70
     1
102
RTVSPost2010Prop57
140
1.0
102
RTVSPost2010PropOp57
 70
     1
  0
XRECORD
  5
17F
102
{ACAD_REACTORS
330
17E
102
}
330
17E
100
AcDbXrecord
280
     1
102
RTVSPost2010Prop28
280
     0
102
RTVSPost2010PropOp28
 70
     1
102
RTVSPost2010Prop29
280
     1
102
RTVSPost2010PropOp29
 70
     1
102
RTVSPost2010Prop30
280
     1
102
RTVSPost2010PropOp30
 70
     1
102
RTVSPost2010Prop31
280
     0
102
RTVSPost2010PropOp31
 70
     1
102
RTVSPost2010Prop32
280
     0
102
RTVSPost2010PropOp32
 70
     1
102
RTVSPost2010Prop33
280
     0
102
RTVSPost2010PropOp33
 70
     1
102
RTVSPost2010Prop34
280
     0
102
RTVSPost2010PropOp34
 70
     1
102
RTVSPost2010Prop35
280
     0
102
RTVSPost2010PropOp35
 70
     1
102
RTVSPost2010Prop36
280
     0
102
RTVSPost2010PropOp36
 70
     1
102
RTVSPost2010Prop37
 90
       50
102
RTVSPost2010PropOp37
 70
     1
102
RTVSPost2010Prop38
140
0.0
102
RTVSPost2010PropOp38
 70
     1
102
RTVSPost2010Prop39
140
1.0
102
RTVSPost2010PropOp39
 70
     1
102
RTVSPost2010Prop40
 90
        0
102
RTVSPost2010PropOp40
 70
     1
102
RTVSPost2010Prop41ColorIndex
 90
       18
102
RTVSPost2010Prop41ColorRGB
 90
        0
102
RTVSPost2010PropOp41
 70
     1
102
RTVSPost2010Prop42
 90
       50
102
RTVSPost2010PropOp42
 70
     1
102
RTVSPost2010Prop43
 90
        3
102
RTVSPost2010PropOp43
 70
     1
102
RTVSPost2010Prop44ColorIndex
 90
        5
102
RTVSPost2010Prop44ColorRGB
 90
      255
102
RTVSPost2010PropOp44
 70
     1
102
RTVSPost2010Prop45
280
     0
102
RTVSPost2010PropOp45
 70
     1
102
RTVSPost2010Prop46
 90
       50
102
RTVSPost2010PropOp46
 70
     1
102
RTVSPost2010Prop47
 90
       50
102
RTVSPost2010PropOp47
 70
     1
102
RTVSPost2010Prop48
 90
       50
102
RTVSPost2010PropOp48
 70
     1
102
RTVSPost2010Prop49
280
     0
102
RTVSPost2010PropOp49
 70
     1
102
RTVSPost2010Prop50
 90
       50
102
RTVSPost2010PropOp50
 70
     1
102
RTVSPost2010Prop51ColorIndex
 90
      256
102
RTVSPost2010Prop51ColorRGB
 90
-16777216
102
RTVSPost2010PropOp51
 70
     0
102
RTVSPost2010Prop52
140
1.0
102
RTVSPost2010PropOp52
 70
     0
102
RTVSPost2010Prop53
 90
        2
102
RTVSPost2010PropOp53
 70
     1
102
RTVSPost2010Prop54
  1
strokes_ogs.tif
102
RTVSPost2010PropOp54
 70
     1
102
RTVSPost2010Prop55
280
     0
102
RTVSPost2010PropOp55
 70
     1
102
RTVSPost2010Prop56
140
1.0
102
RTVSPost2010PropOp56
 70
     1
102
RTVSPost2010Prop57
140
1.0
102
RTVSPost2010PropOp57
 70
     1
  0
XRECORD
  5
173
102
{ACAD_REACTORS
330
172
102
}
330
172
100
AcDbXrecord
280
     1
102
RTVSPost2010Prop28
280
     0
102
RTVSPost2010PropOp28
 70
     1
102
RTVSPost2010Prop29
280
     1
102
RTVSPost2010PropOp29
 70
     1
102
RTVSPost2010Prop30
280
     1
102
RTVSPost2010PropOp30
 70
     1
102
RTVSPost2010Prop31
280
     0
102
RTVSPost2010PropOp31
 70
     1
102
RTVSPost2010Prop32
280
     0
102
RTVSPost2010PropOp32
 70
     1
102
RTVSPost2010Prop33
280
     0
102
RTVSPost2010PropOp33
 70
     1
102
RTVSPost2010Prop34
280
     0
102
RTVSPost2010PropOp34
 70
     1
102
RTVSPost2010Prop35
280
     0
102
RTVSPost2010PropOp35
 70
     1
102
RTVSPost2010Prop36
280
     0
102
RTVSPost2010PropOp36
 70
     1
102
RTVSPost2010Prop37
 90
       50
102
RTVSPost2010PropOp37
 70
     1
102
RTVSPost2010Prop38
140
0.0
102
RTVSPost2010PropOp38
 70
     1
102
RTVSPost2010Prop39
140
1.0
102
RTVSPost2010PropOp39
 70
     1
102
RTVSPost2010Prop40
 90
        0
102
RTVSPost2010PropOp40
 70
     1
102
RTVSPost2010Prop41ColorIndex
 90
       18
102
RTVSPost2010Prop41ColorRGB
 90
        0
102
RTVSPost2010PropOp41
 70
     1
102
RTVSPost2010Prop42
 90
       50
102
RTVSPost2010PropOp42
 70
     1
102
RTVSPost2010Prop43
 90
        3
102
RTVSPost2010PropOp43
 70
     1
102
RTVSPost2010Prop44ColorIndex
 90
        5
102
RTVSPost2010Prop44ColorRGB
 90
      255
102
RTVSPost2010PropOp44
 70
     1
102
RTVSPost2010Prop45
280
     0
102
RTVSPost2010PropOp45
 70
     1
102
RTVSPost2010Prop46
 90
       50
102
RTVSPost2010PropOp46
 70
     1
102
RTVSPost2010Prop47
 90
       50
102
RTVSPost2010PropOp47
 70
     1
102
RTVSPost2010Prop48
 90
       50
102
RTVSPost2010PropOp48
 70
     1
102
RTVSPost2010Prop49
280
     0
102
RTVSPost2010PropOp49
 70
     1
102
RTVSPost2010Prop50
 90
       50
102
RTVSPost2010PropOp50
 70
     1
102
RTVSPost2010Prop51ColorIndex
 90
      256
102
RTVSPost2010Prop51ColorRGB
 90
-16777216
102
RTVSPost2010PropOp51
 70
     0
102
RTVSPost2010Prop52
140
1.0
102
RTVSPost2010PropOp52
 70
     0
102
RTVSPost2010Prop53
 90
        2
102
RTVSPost2010PropOp53
 70
     1
102
RTVSPost2010Prop54
  1
strokes_ogs.tif
102
RTVSPost2010PropOp54
 70
     1
102
RTVSPost2010Prop55
280
     0
102
RTVSPost2010PropOp55
 70
     1
102
RTVSPost2010Prop56
140
1.0
102
RTVSPost2010PropOp56
 70
     1
102
RTVSPost2010Prop57
140
1.0
102
RTVSPost2010PropOp57
 70
     1
  0
XRECORD
  5
18B
102
{ACAD_REACTORS
330
18A
102
}
330
18A
100
AcDbXrecord
280
     1
102
RTVSPost2010Prop28
280
     0
102
RTVSPost2010PropOp28
 70
     1
102
RTVSPost2010Prop29
280
     1
102
RTVSPost2010PropOp29
 70
     1
102
RTVSPost2010Prop30
280
     1
102
RTVSPost2010PropOp30
 70
     1
102
RTVSPost2010Prop31
280
     0
102
RTVSPost2010PropOp31
 70
     1
102
RTVSPost2010Prop32
280
     0
102
RTVSPost2010PropOp32
 70
     1
102
RTVSPost2010Prop33
280
     0
102
RTVSPost2010PropOp33
 70
     1
102
RTVSPost2010Prop34
280
     0
102
RTVSPost2010PropOp34
 70
     1
102
RTVSPost2010Prop35
280
     0
102
RTVSPost2010PropOp35
 70
     1
102
RTVSPost2010Prop36
280
     0
102
RTVSPost2010PropOp36
 70
     1
102
RTVSPost2010Prop37
 90
       50
102
RTVSPost2010PropOp37
 70
     1
102
RTVSPost2010Prop38
140
0.0
102
RTVSPost2010PropOp38
 70
     1
102
RTVSPost2010Prop39
140
1.0
102
RTVSPost2010PropOp39
 70
     1
102
RTVSPost2010Prop40
 90
        0
102
RTVSPost2010PropOp40
 70
     1
102
RTVSPost2010Prop41ColorIndex
 90
       18
102
RTVSPost2010Prop41ColorRGB
 90
        0
102
RTVSPost2010PropOp41
 70
     1
102
RTVSPost2010Prop42
 90
       50
102
RTVSPost2010PropOp42
 70
     1
102
RTVSPost2010Prop43
 90
        3
102
RTVSPost2010PropOp43
 70
     1
102
RTVSPost2010Prop44ColorIndex
 90
        5
102
RTVSPost2010Prop44ColorRGB
 90
      255
102
RTVSPost2010PropOp44
 70
     1
102
RTVSPost2010Prop45
280
     0
102
RTVSPost2010PropOp45
 70
     1
102
RTVSPost2010Prop46
 90
       50
102
RTVSPost2010PropOp46
 70
     1
102
RTVSPost2010Prop47
 90
       50
102
RTVSPost2010PropOp47
 70
     1
102
RTVSPost2010Prop48
 90
       50
102
RTVSPost2010PropOp48
 70
     1
102
RTVSPost2010Prop49
280
     0
102
RTVSPost2010PropOp49
 70
     1
102
RTVSPost2010Prop50
 90
       50
102
RTVSPost2010PropOp50
 70
     1
102
RTVSPost2010Prop51ColorIndex
 90
      256
102
RTVSPost2010Prop51ColorRGB
 90
-16777216
102
RTVSPost2010PropOp51
 70
     0
102
RTVSPost2010Prop52
140
1.0
102
RTVSPost2010PropOp52
 70
     0
102
RTVSPost2010Prop53
 90
        2
102
RTVSPost2010PropOp53
 70
     1
102
RTVSPost2010Prop54
  1
strokes_ogs.tif
102
RTVSPost2010PropOp54
 70
     1
102
RTVSPost2010Prop55
280
     0
102
RTVSPost2010PropOp55
 70
     1
102
RTVSPost2010Prop56
140
1.0
102
RTVSPost2010PropOp56
 70
     1
102
RTVSPost2010Prop57
140
1.0
102
RTVSPost2010PropOp57
 70
     1
  0
ENDSEC
  0
EOF
