  0
SECTION
  2
HEADER
  9
$ACADVER
  1
AC1024
  9
$ACADMAINTVER
 70
   226
  9
$DWGCODEPAGE
  3
ANSI_932
  9
$INSBASE
 10
0.0
 20
0.0
 30
0.0
  9
$EXTMIN
 10
1.000000000000000E+20
 20
1.000000000000000E+20
 30
1.000000000000000E+20
  9
$EXTMAX
 10
-1.000000000000000E+20
 20
-1.000000000000000E+20
 30
-1.000000000000000E+20
  9
$LIMMIN
 10
0.0
 20
0.0
  9
$LIMMAX
 10
12.0
 20
9.0
  9
$ORTHOMODE
 70
     0
  9
$REGENMODE
 70
     1
  9
$FILLMODE
 70
     1
  9
$QTEXTMODE
 70
     0
  9
$MIRRTEXT
 70
     0
  9
$LTSCALE
 40
1.0
  9
$ATTMODE
 70
     1
  9
$TEXTSIZE
 40
0.2
  9
$TRACEWID
 40
0.05
  9
$TEXTSTYLE
  7
Standard
  9
$CLAYER
  8
0
  9
$CELTYPE
  6
ByLayer
  9
$CECOLOR
 62
   256
  9
$CELTSCALE
 40
1.0
  9
$DISPSILH
 70
     0
  9
$DIMSCALE
 40
1.0
  9
$DIMASZ
 40
0.18
  9
$DIMEXO
 40
0.0625
  9
$DIMDLI
 40
0.38
  9
$DIMRND
 40
0.0
  9
$DIMDLE
 40
0.0
  9
$DIMEXE
 40
0.18
  9
$DIMTP
 40
0.0
  9
$DIMTM
 40
0.0
  9
$DIMTXT
 40
0.18
  9
$DIMCEN
 40
0.09
  9
$DIMTSZ
 40
0.0
  9
$DIMTOL
 70
     0
  9
$DIMLIM
 70
     0
  9
$DIMTIH
 70
     1
  9
$DIMTOH
 70
     1
  9
$DIMSE1
 70
     0
  9
$DIMSE2
 70
     0
  9
$DIMTAD
 70
     0
  9
$DIMZIN
 70
     0
  9
$DIMBLK
  1

  9
$DIMASO
 70
     1
  9
$DIMSHO
 70
     1
  9
$DIMPOST
  1

  9
$DIMAPOST
  1

  9
$DIMALT
 70
     0
  9
$DIMALTD
 70
     2
  9
$DIMALTF
 40
25.4
  9
$DIMLFAC
 40
1.0
  9
$DIMTOFL
 70
     0
  9
$DIMTVP
 40
0.0
  9
$DIMTIX
 70
     0
  9
$DIMSOXD
 70
     0
  9
$DIMSAH
 70
     0
  9
$DIMBLK1
  1

  9
$DIMBLK2
  1

  9
$DIMSTYLE
  2
Standard
  9
$DIMCLRD
 70
     0
  9
$DIMCLRE
 70
     0
  9
$DIMCLRT
 70
     0
  9
$DIMTFAC
 40
1.0
  9
$DIMGAP
 40
0.09
  9
$DIMJUST
 70
     0
  9
$DIMSD1
 70
     0
  9
$DIMSD2
 70
     0
  9
$DIMTOLJ
 70
     1
  9
$DIMTZIN
 70
     0
  9
$DIMALTZ
 70
     0
  9
$DIMALTTZ
 70
     0
  9
$DIMUPT
 70
     0
  9
$DIMDEC
 70
     4
  9
$DIMTDEC
 70
     4
  9
$DIMALTU
 70
     2
  9
$DIMALTTD
 70
     2
  9
$DIMTXSTY
  7
Standard
  9
$DIMAUNIT
 70
     0
  9
$DIMADEC
 70
     0
  9
$DIMALTRND
 40
0.0
  9
$DIMAZIN
 70
     0
  9
$DIMDSEP
 70
    46
  9
$DIMATFIT
 70
     3
  9
$DIMFRAC
 70
     0
  9
$DIMLDRBLK
  1

  9
$DIMLUNIT
 70
     2
  9
$DIMLWD
 70
    -2
  9
$DIMLWE
 70
    -2
  9
$DIMTMOVE
 70
     0
  9
$DIMFXL
 40
1.0
  9
$DIMFXLON
 70
     0
  9
$DIMJOGANG
 40
0.7853981633974483
  9
$DIMTFILL
 70
     0
  9
$DIMTFILLCLR
 70
     0
  9
$DIMARCSYM
 70
     0
  9
$DIMLTYPE
  6

  9
$DIMLTEX1
  6

  9
$DIMLTEX2
  6

  9
$DIMTXTDIRECTION
 70
     0
  9
$LUNITS
 70
     2
  9
$LUPREC
 70
     4
  9
$SKETCHINC
 40
0.1
  9
$FILLETRAD
 40
0.0
  9
$AUNITS
 70
     0
  9
$AUPREC
 70
     0
  9
$MENU
  1
.
  9
$ELEVATION
 40
0.0
  9
$PELEVATION
 40
0.0
  9
$THICKNESS
 40
0.0
  9
$LIMCHECK
 70
     0
  9
$CHAMFERA
 40
0.0
  9
$CHAMFERB
 40
0.0
  9
$CHAMFERC
 40
0.0
  9
$CHAMFERD
 40
0.0
  9
$SKPOLY
 70
     0
  9
$TDCREATE
 40
2459569.503344908
  9
$TDUCREATE
 40
2459569.128344908
  9
$TDUPDATE
 40
2459569.503344908
  9
$TDUUPDATE
 40
2459569.128344908
  9
$TDINDWG
 40
0.0000115741
  9
$TDUSRTIMER
 40
0.0000115741
  9
$USRTIMER
 70
     1
  9
$ANGBASE
 50
0.0
  9
$ANGDIR
 70
     0
  9
$PDMODE
 70
     0
  9
$PDSIZE
 40
0.0
  9
$PLINEWID
 40
0.0
  9
$SPLFRAME
 70
     0
  9
$SPLINETYPE
 70
     6
  9
$SPLINESEGS
 70
     8
  9
$HANDSEED
  5
171
  9
$SURFTAB1
 70
     6
  9
$SURFTAB2
 70
     6
  9
$SURFTYPE
 70
     6
  9
$SURFU
 70
     6
  9
$SURFV
 70
     6
  9
$UCSBASE
  2

  9
$UCSNAME
  2

  9
$UCSORG
 10
0.0
 20
0.0
 30
0.0
  9
$UCSXDIR
 10
1.0
 20
0.0
 30
0.0
  9
$UCSYDIR
 10
0.0
 20
1.0
 30
0.0
  9
$UCSORTHOREF
  2

  9
$UCSORTHOVIEW
 70
     0
  9
$UCSORGTOP
 10
0.0
 20
0.0
 30
0.0
  9
$UCSORGBOTTOM
 10
0.0
 20
0.0
 30
0.0
  9
$UCSORGLEFT
 10
0.0
 20
0.0
 30
0.0
  9
$UCSORGRIGHT
 10
0.0
 20
0.0
 30
0.0
  9
$UCSORGFRONT
 10
0.0
 20
0.0
 30
0.0
  9
$UCSORGBACK
 10
0.0
 20
0.0
 30
0.0
  9
$PUCSBASE
  2

  9
$PUCSNAME
  2

  9
$PUCSORG
 10
0.0
 20
0.0
 30
0.0
  9
$PUCSXDIR
 10
1.0
 20
0.0
 30
0.0
  9
$PUCSYDIR
 10
0.0
 20
1.0
 30
0.0
  9
$PUCSORTHOREF
  2

  9
$PUCSORTHOVIEW
 70
     0
  9
$PUCSORGTOP
 10
0.0
 20
0.0
 30
0.0
  9
$PUCSORGBOTTOM
 10
0.0
 20
0.0
 30
0.0
  9
$PUCSORGLEFT
 10
0.0
 20
0.0
 30
0.0
  9
$PUCSORGRIGHT
 10
0.0
 20
0.0
 30
0.0
  9
$PUCSORGFRONT
 10
0.0
 20
0.0
 30
0.0
  9
$PUCSORGBACK
 10
0.0
 20
0.0
 30
0.0
  9
$USERI1
 70
     0
  9
$USERI2
 70
     0
  9
$USERI3
 70
     0
  9
$USERI4
 70
     0
  9
$USERI5
 70
     0
  9
$USERR1
 40
0.0
  9
$USERR2
 40
0.0
  9
$USERR3
 40
0.0
  9
$USERR4
 40
0.0
  9
$USERR5
 40
0.0
  9
$WORLDVIEW
 70
     1
  9
$SHADEDGE
 70
     3
  9
$SHADEDIF
 70
    70
  9
$TILEMODE
 70
     1
  9
$MAXACTVP
 70
    64
  9
$PINSBASE
 10
0.0
 20
0.0
 30
0.0
  9
$PLIMCHECK
 70
     0
  9
$PEXTMIN
 10
1.000000000000000E+20
 20
1.000000000000000E+20
 30
1.000000000000000E+20
  9
$PEXTMAX
 10
-1.000000000000000E+20
 20
-1.000000000000000E+20
 30
-1.000000000000000E+20
  9
$PLIMMIN
 10
0.0
 20
0.0
  9
$PLIMMAX
 10
12.0
 20
9.0
  9
$UNITMODE
 70
     0
  9
$VISRETAIN
 70
     1
  9
$PLINEGEN
 70
     0
  9
$PSLTSCALE
 70
     1
  9
$TREEDEPTH
 70
  3020
  9
$CMLSTYLE
  2
Standard
  9
$CMLJUST
 70
     0
  9
$CMLSCALE
 40
1.0
  9
$PROXYGRAPHICS
 70
     1
  9
$MEASUREMENT
 70
     0
  9
$CELWEIGHT
370
    -1
  9
$ENDCAPS
280
     0
  9
$JOINSTYLE
280
     0
  9
$LWDISPLAY
290
     1
  9
$INSUNITS
 70
     4
  9
$HYPERLINKBASE
  1

  9
$STYLESHEET
  1

  9
$XEDIT
290
     1
  9
$CEPSNTYPE
380
     0
  9
$PSTYLEMODE
290
     1
  9
$FINGERPRINTGUID
  2
{9DE8819F-A09D-BE49-AD87-B513B857AD68}
  9
$VERSIONGUID
  2
{4A13BD11-8948-4245-A89B-FF161E0C93F8}
  9
$EXTNAMES
290
     1
  9
$PSVPSCALE
 40
0.0
  9
$OLESTARTUP
290
     0
  9
$SORTENTS
280
   127
  9
$INDEXCTL
280
     0
  9
$HIDETEXT
280
     1
  9
$XCLIPFRAME
280
     2
  9
$HALOGAP
280
     0
  9
$OBSCOLOR
 70
   257
  9
$OBSLTYPE
280
     0
  9
$INTERSECTIONDISPLAY
280
     0
  9
$INTERSECTIONCOLOR
 70
   257
  9
$DIMASSOC
280
     2
  9
$PROJECTNAME
  1

  9
$CAMERADISPLAY
290
     0
  9
$LENSLENGTH
 40
50.0
  9
$CAMERAHEIGHT
 40
0.0
  9
$STEPSPERSEC
 40
2.0
  9
$STEPSIZE
 40
6.0
  9
$3DDWFPREC
 40
2.0
  9
$PSOLWIDTH
 40
0.25
  9
$PSOLHEIGHT
 40
4.0
  9
$LOFTANG1
 40
1.570796326794896
  9
$LOFTANG2
 40
1.570796326794896
  9
$LOFTMAG1
 40
0.0
  9
$LOFTMAG2
 40
0.0
  9
$LOFTPARAM
 70
     7
  9
$LOFTNORMALS
280
     1
  9
$LATITUDE
 40
37.795
  9
$LONGITUDE
 40
-122.394
  9
$NORTHDIRECTION
 40
0.0
  9
$TIMEZONE
 70
 -8000
  9
$LIGHTGLYPHDISPLAY
280
     1
  9
$TILEMODELIGHTSYNCH
280
     1
  9
$CMATERIAL
347
11
  9
$SOLIDHIST
280
     0
  9
$SHOWHIST
280
     1
  9
$DWFFRAME
280
     2
  9
$DGNFRAME
280
     0
  9
$REALWORLDSCALE
290
     1
  9
$INTERFERECOLOR
 62
     1
  9
$INTERFEREOBJVS
345
33
  9
$INTERFEREVPVS
346
30
  9
$CSHADOW
280
     0
  9
$SHADOWPLANELOCATION
 40
0.0
  0
ENDSEC
  0
SECTION
  2
CLASSES
  0
CLASS
  1
ACDBDICTIONARYWDFLT
  2
AcDbDictionaryWithDefault
  3
ObjectDBX Classes
 90
        0
 91
        1
280
     0
281
     0
  0
CLASS
  1
MATERIAL
  2
AcDbMaterial
  3
ObjectDBX Classes
 90
     1153
 91
        3
280
     0
281
     0
  0
CLASS
  1
VISUALSTYLE
  2
AcDbVisualStyle
  3
ObjectDBX Classes
 90
     4095
 91
       24
280
     0
281
     0
  0
CLASS
  1
SCALE
  2
AcDbScale
  3
ObjectDBX Classes
 90
     1153
 91
       17
280
     0
281
     0
  0
CLASS
  1
TABLESTYLE
  2
AcDbTableStyle
  3
ObjectDBX Classes
 90
     4095
 91
        1
280
     0
281
     0
  0
CLASS
  1
MLEADERSTYLE
  2
AcDbMLeaderStyle
  3
ACDB_MLEADERSTYLE_CLASS
 90
     4095
 91
        1
280
     0
281
     0
  0
CLASS
  1
ACDBSECTIONVIEWSTYLE
  2
AcDbSectionViewStyle
  3
ObjectDBX Classes
 90
     1025
 91
        1
280
     0
281
     0
  0
CLASS
  1
ACDBDETAILVIEWSTYLE
  2
AcDbDetailViewStyle
  3
ObjectDBX Classes
 90
     1025
 91
        1
280
     0
281
     0
  0
CLASS
  1
DICTIONARYVAR
  2
AcDbDictionaryVar
  3
ObjectDBX Classes
 90
        0
 91
        5
280
     0
281
     0
  0
CLASS
  1
CELLSTYLEMAP
  2
AcDbCellStyleMap
  3
ObjectDBX Classes
 90
     1152
 91
        1
280
     0
281
     0
  0
ENDSEC
  0
SECTION
  2
TABLES
  0
TABLE
  2
VPORT
  5
8
330
0
100
AcDbSymbolTable
 70
     1
  0
VPORT
  5
57
330
8
100
AcDbSymbolTableRecord
100
AcDbViewportTableRecord
  2
*Active
 70
     0
 10
0.0
 20
0.0
 11
1.0
 21
1.0
 12
0.0
 22
0.0
 13
0.0
 23
0.0
 14
1.0
 24
1.0
 15
0.0
 25
0.0
 16
0.0
 26
0.0
 36
1.0
 17
104.9999999737534
 27
-148.4999999628701
 37
0.0
 40
302.939999924255
 41
0.7070707070707534
 42
50.0
 43
0.0
 44
0.0
 50
0.0
 51
0.0
 71
     0
 72
   100
 73
     1
 74
     0
 75
     1
 76
     0
 77
     0
 78
     0
281
     0
 65
     1
110
0.0
120
0.0
130
0.0
111
1.0
121
0.0
131
0.0
112
0.0
122
1.0
132
0.0
 79
     0
146
0.0
 60
     3
 61
     5
292
     1
282
     1
141
0.0
142
0.0
 63
   250
421
  3355443
  0
ENDTAB
  0
TABLE
  2
LTYPE
  5
5
330
0
100
AcDbSymbolTable
 70
     2
  0
LTYPE
  5
5B
330
5
100
AcDbSymbolTableRecord
100
AcDbLinetypeTableRecord
  2
ByBlock
 70
     0
  3

 72
    65
 73
     0
 40
0.0
  0
LTYPE
  5
5C
330
5
100
AcDbSymbolTableRecord
100
AcDbLinetypeTableRecord
  2
ByLayer
 70
     0
  3

 72
    65
 73
     0
 40
0.0
  0
LTYPE
  5
5D
330
5
100
AcDbSymbolTableRecord
100
AcDbLinetypeTableRecord
  2
Continuous
 70
     0
  3
Solid line
 72
    65
 73
     0
 40
0.0
  0
LTYPE
  5
10B
330
5
100
AcDbSymbolTableRecord
100
AcDbLinetypeTableRecord
  2
AI-Linetype-0
 70
     0
  3
Adobe Illustrator Linetype No. 0
 72
    65
 73
     2
 40
1.411111110758333
 49
0.7055555553791667
 74
     0
 49
-0.7055555553791667
 74
     0
  0
ENDTAB
  0
TABLE
  2
LAYER
  5
2
330
0
100
AcDbSymbolTable
 70
     2
  0
LAYER
  5
54
330
2
100
AcDbSymbolTableRecord
100
AcDbLayerTableRecord
  2
0
 70
     0
 62
     7
  6
Continuous
370
    -3
390
F
347
21
  0
LAYER
  5
78
330
2
100
AcDbSymbolTableRecord
100
AcDbLayerTableRecord
  2
レイヤー 1
 70
     0
 62
     7
  6
Continuous
370
     0
390
F
347
21
  0
ENDTAB
  0
TABLE
  2
STYLE
  5
3
330
0
100
AcDbSymbolTable
 70
     2
  0
STYLE
  5
55
330
3
100
AcDbSymbolTableRecord
100
AcDbTextStyleTableRecord
  2
Standard
 70
     0
 40
0.0
 41
1.0
 50
0.0
 71
     0
 42
0.2
  3
txt
  4

  0
STYLE
  5
5A
330
3
100
AcDbSymbolTableRecord
100
AcDbTextStyleTableRecord
  2
Annotative
 70
     0
 40
0.0
 41
1.0
 50
0.0
 71
     0
 42
0.2
  3
txt
  4

1001
AcadAnnotative
1000
AnnotativeData
1002
{
1070
     1
1070
     1
1002
}
  0
ENDTAB
  0
TABLE
  2
VIEW
  5
6
330
0
100
AcDbSymbolTable
 70
     0
  0
ENDTAB
  0
TABLE
  2
UCS
  5
7
330
0
100
AcDbSymbolTable
 70
     0
  0
ENDTAB
  0
TABLE
  2
APPID
  5
9
330
0
100
AcDbSymbolTable
 70
     2
  0
APPID
  5
56
330
9
100
AcDbSymbolTableRecord
100
AcDbRegAppTableRecord
  2
ACAD
 70
     0
  0
APPID
  5
5E
330
9
100
AcDbSymbolTableRecord
100
AcDbRegAppTableRecord
  2
AcadAnnotative
 70
     0
  0
ENDTAB
  0
TABLE
  2
DIMSTYLE
  5
A
330
0
100
AcDbSymbolTable
 70
     2
100
AcDbDimStyleTable
 71
     0
  0
DIMSTYLE
105
58
330
A
100
AcDbSymbolTableRecord
100
AcDbDimStyleTableRecord
  2
Standard
 70
     0
340
55
  0
DIMSTYLE
105
59
330
A
100
AcDbSymbolTableRecord
100
AcDbDimStyleTableRecord
  2
Annotative
 70
     0
340
55
1001
AcadAnnotative
1000
AnnotativeData
1002
{
1070
     1
1070
     1
1002
}
  0
ENDTAB
  0
TABLE
  2
BLOCK_RECORD
  5
1
330
0
100
AcDbSymbolTable
 70
    16
  0
BLOCK_RECORD
  5
70
330
1
100
AcDbSymbolTableRecord
100
AcDbBlockTableRecord
  2
*Model_Space
340
73
 70
     0
280
     1
281
     0
  0
BLOCK_RECORD
  5
6C
330
1
100
AcDbSymbolTableRecord
100
AcDbBlockTableRecord
  2
*Paper_Space
340
6F
 70
     0
280
     1
281
     0
  0
BLOCK_RECORD
  5
74
330
1
100
AcDbSymbolTableRecord
100
AcDbBlockTableRecord
  2
*Paper_Space0
340
77
 70
     0
280
     1
281
     0
  0
BLOCK_RECORD
  5
79
330
1
100
AcDbSymbolTableRecord
100
AcDbBlockTableRecord
  2
Block_0
340
0
102
{BLKREFS
331
7A
102
}
 70
     0
280
     1
281
     0
  0
BLOCK_RECORD
  5
B9
330
1
100
AcDbSymbolTableRecord
100
AcDbBlockTableRecord
  2
Block_1
340
0
102
{BLKREFS
331
BA
102
}
 70
     0
280
     1
281
     0
  0
BLOCK_RECORD
  5
BD
330
1
100
AcDbSymbolTableRecord
100
AcDbBlockTableRecord
  2
Block_2
340
0
102
{BLKREFS
331
BE
102
}
 70
     0
280
     1
281
     0
  0
BLOCK_RECORD
  5
CA
330
1
100
AcDbSymbolTableRecord
100
AcDbBlockTableRecord
  2
Block_3
340
0
102
{BLKREFS
331
CB
102
}
 70
     0
280
     1
281
     0
  0
BLOCK_RECORD
  5
CE
330
1
100
AcDbSymbolTableRecord
100
AcDbBlockTableRecord
  2
Block_4
340
0
102
{BLKREFS
331
CF
102
}
 70
     0
280
     1
281
     0
  0
BLOCK_RECORD
  5
D8
330
1
100
AcDbSymbolTableRecord
100
AcDbBlockTableRecord
  2
Block_5
340
0
102
{BLKREFS
331
D9
102
}
 70
     0
280
     1
281
     0
  0
BLOCK_RECORD
  5
E3
330
1
100
AcDbSymbolTableRecord
100
AcDbBlockTableRecord
  2
Block_6
340
0
102
{BLKREFS
331
E4
102
}
 70
     0
280
     1
281
     0
  0
BLOCK_RECORD
  5
E7
330
1
100
AcDbSymbolTableRecord
100
AcDbBlockTableRecord
  2
Block_7
340
0
102
{BLKREFS
331
E8
102
}
 70
     0
280
     1
281
     0
  0
BLOCK_RECORD
  5
F5
330
1
100
AcDbSymbolTableRecord
100
AcDbBlockTableRecord
  2
Block_8
340
0
102
{BLKREFS
331
F6
102
}
 70
     0
280
     1
281
     0
  0
BLOCK_RECORD
  5
F9
330
1
100
AcDbSymbolTableRecord
100
AcDbBlockTableRecord
  2
Block_9
340
0
102
{BLKREFS
331
FA
102
}
 70
     0
280
     1
281
     0
  0
BLOCK_RECORD
  5
104
330
1
100
AcDbSymbolTableRecord
100
AcDbBlockTableRecord
  2
Block_10
340
0
102
{BLKREFS
331
105
102
}
 70
     0
280
     1
281
     0
  0
BLOCK_RECORD
  5
10C
330
1
100
AcDbSymbolTableRecord
100
AcDbBlockTableRecord
  2
Block_11
340
0
102
{BLKREFS
331
10D
102
}
 70
     0
280
     1
281
     0
  0
BLOCK_RECORD
  5
110
330
1
100
AcDbSymbolTableRecord
100
AcDbBlockTableRecord
  2
Block_12
340
0
102
{BLKREFS
331
111
102
}
 70
     0
280
     1
281
     0
  0
BLOCK_RECORD
  5
117
330
1
100
AcDbSymbolTableRecord
100
AcDbBlockTableRecord
  2
Block_13
340
0
102
{BLKREFS
331
118
102
}
 70
     0
280
     1
281
     0
  0
BLOCK_RECORD
  5
11B
330
1
100
AcDbSymbolTableRecord
100
AcDbBlockTableRecord
  2
Block_14
340
0
102
{BLKREFS
331
11C
102
}
 70
     0
280
     1
281
     0
  0
ENDTAB
  0
ENDSEC
  0
SECTION
  2
BLOCKS
  0
BLOCK
  5
71
330
70
100
AcDbEntity
  8
0
100
AcDbBlockBegin
  2
*Model_Space
 70
     0
 10
0.0
 20
0.0
 30
0.0
  3
*Model_Space
  1

  0
ENDBLK
  5
72
330
70
100
AcDbEntity
  8
0
100
AcDbBlockEnd
  0
BLOCK
  5
6D
330
6C
100
AcDbEntity
 67
     1
  8
0
100
AcDbBlockBegin
  2
*Paper_Space
 70
     0
 10
0.0
 20
0.0
 30
0.0
  3
*Paper_Space
  1

  0
ENDBLK
  5
6E
330
6C
100
AcDbEntity
 67
     1
  8
0
100
AcDbBlockEnd
  0
BLOCK
  5
75
330
74
100
AcDbEntity
 67
     1
  8
0
100
AcDbBlockBegin
  2
*Paper_Space0
 70
     0
 10
0.0
 20
0.0
 30
0.0
  3
*Paper_Space0
  1

  0
ENDBLK
  5
76
330
74
100
AcDbEntity
 67
     1
  8
0
100
AcDbBlockEnd
  0
BLOCK
  5
7B
330
79
100
AcDbEntity
  8
0
100
AcDbBlockBegin
  2
Block_0
 70
     0
 10
0.0
 20
0.0
 30
0.0
  3
Block_0
  1

  0
LINE
  5
7D
330
79
100
AcDbEntity
  8
レイヤー 1
 62
   250
420
  2299925
370
    25
100
AcDbLine
 10
118.9797280555451
 20
-153.2670030260402
 30
0.0
 11
116.4803328415322
 21
-153.2670030260402
 31
0.0
  0
LINE
  5
7E
330
79
100
AcDbEntity
  8
レイヤー 1
 62
   250
420
  2299925
370
    25
100
AcDbLine
 10
96.47878585181418
 20
-144.7669283059435
 30
0.0
 11
96.47878585181418
 21
-145.2671671947071
 31
0.0
  0
LINE
  5
7F
330
79
100
AcDbEntity
  8
レイヤー 1
 62
   250
420
  2299925
370
    25
100
AcDbLine
 10
116.6050397827951
 20
-145.2671671947071
 30
0.0
 11
96.47878585181418
 21
-145.2671671947071
 31
0.0
  0
LINE
  5
80
330
79
100
AcDbEntity
  8
レイヤー 1
 62
   250
420
  2299925
370
    25
100
AcDbLine
 10
118.9797280555451
 20
-152.2669133040687
 30
0.0
 11
117.3512353193136
 21
-152.2669133040687
 31
0.0
  0
LINE
  5
81
330
79
100
AcDbEntity
  8
レイヤー 1
 62
   250
420
  2299925
370
    25
100
AcDbLine
 10
96.47878585181418
 20
-144.7669283059435
 30
0.0
 11
96.99278306092324
 21
-145.1489866391812
 31
0.0
  0
LINE
  5
82
330
79
100
AcDbEntity
  8
レイヤー 1
 62
   250
420
  2299925
370
    25
100
AcDbLine
 10
96.99278306092324
 20
-145.1489866391812
 30
0.0
 11
97.47820527076131
 21
-144.7314388615076
 31
0.0
  0
LINE
  5
83
330
79
100
AcDbEntity
  8
レイヤー 1
 62
   250
420
  2299925
370
    25
100
AcDbLine
 10
97.99220247987037
 20
-145.1134971947457
 30
0.0
 11
98.47762468970843
 21
-144.6956319170722
 31
0.0
  0
LINE
  5
84
330
79
100
AcDbEntity
  8
レイヤー 1
 62
   250
420
  2299925
370
    25
100
AcDbLine
 10
97.47820527076131
 20
-144.7314388615076
 30
0.0
 11
97.99220247987037
 21
-145.1134971947457
 31
0.0
  0
LINE
  5
85
330
79
100
AcDbEntity
  8
レイヤー 1
 62
   250
420
  2299925
370
    25
100
AcDbLine
 10
98.47762468970843
 20
-144.6956319170722
 30
0.0
 11
98.99165717659437
 21
-145.0776902503099
 31
0.0
  0
LINE
  5
86
330
79
100
AcDbEntity
  8
レイヤー 1
 62
   250
420
  2299925
370
    25
100
AcDbLine
 10
98.99165717659437
 20
-145.0776902503099
 30
0.0
 11
99.4770441086559
 21
-144.6601424726368
 31
0.0
  0
LINE
  5
87
330
79
100
AcDbEntity
  8
レイヤー 1
 62
   250
420
  2299925
370
    25
100
AcDbLine
 10
99.4770441086559
 20
-144.6601424726368
 30
0.0
 11
99.99072381777274
 21
-145.0418480280967
 31
0.0
  0
LINE
  5
88
330
79
100
AcDbEntity
  8
レイヤー 1
 62
   250
420
  2299925
370
    25
100
AcDbLine
 10
99.99072381777274
 20
-145.0418480280967
 30
0.0
 11
100.476463527603
 21
-144.6243002504235
 31
0.0
  0
LINE
  5
89
330
79
100
AcDbEntity
  8
レイヤー 1
 62
   250
420
  2299925
370
    25
100
AcDbLine
 10
100.476463527603
 20
-144.6243002504235
 30
0.0
 11
100.9904960144886
 21
-145.0060410836613
 31
0.0
  0
LINE
  5
8A
330
79
100
AcDbEntity
  8
レイヤー 1
 62
   250
420
  2299925
370
    25
100
AcDbLine
 10
100.9904960144886
 20
-145.0060410836613
 30
0.0
 11
101.4755654465579
 21
-144.5884933059881
 31
0.0
  0
LINE
  5
8B
330
79
100
AcDbEntity
  8
レイヤー 1
 62
   250
420
  2299925
370
    25
100
AcDbLine
 10
101.4755654465579
 20
-144.5884933059881
 30
0.0
 11
101.989562655667
 21
-144.9705516392258
 31
0.0
  0
LINE
  5
8C
330
79
100
AcDbEntity
  8
レイヤー 1
 62
   250
420
  2299925
370
    25
100
AcDbLine
 10
101.989562655667
 20
-144.9705516392258
 30
0.0
 11
102.4753376432738
 21
-144.5530038615526
 31
0.0
  0
LINE
  5
8D
330
79
100
AcDbEntity
  8
レイヤー 1
 62
   250
420
  2299925
370
    25
100
AcDbLine
 10
102.4753376432738
 20
-144.5530038615526
 30
0.0
 11
102.9893348523829
 21
-144.9350621947903
 31
0.0
  0
LINE
  5
8E
330
79
100
AcDbEntity
  8
レイヤー 1
 62
   250
420
  2299925
370
    25
100
AcDbLine
 10
102.9893348523829
 20
-144.9350621947903
 30
0.0
 11
103.4744042844522
 21
-144.517161639339
 31
0.0
  0
LINE
  5
8F
330
79
100
AcDbEntity
  8
レイヤー 1
 62
   250
420
  2299925
370
    25
100
AcDbLine
 10
103.9884014935615
 20
-144.899219972577
 30
0.0
 11
104.4741764811681
 21
-144.4816721949035
 31
0.0
  0
LINE
  5
90
330
79
100
AcDbEntity
  8
レイヤー 1
 62
   250
420
  2299925
370
    25
100
AcDbLine
 10
103.4744042844522
 20
-144.517161639339
 30
0.0
 11
103.9884014935615
 21
-144.899219972577
 31
0.0
  0
LINE
  5
91
330
79
100
AcDbEntity
  8
レイヤー 1
 62
   250
420
  2299925
370
    25
100
AcDbLine
 10
104.4741764811681
 20
-144.4816721949035
 30
0.0
 11
104.9881736902771
 21
-144.863413028141
 31
0.0
  0
LINE
  5
92
330
79
100
AcDbEntity
  8
レイヤー 1
 62
   250
420
  2299925
370
    25
100
AcDbLine
 10
104.9881736902771
 20
-144.863413028141
 30
0.0
 11
105.4732431223464
 21
-144.4458652504682
 31
0.0
  0
LINE
  5
93
330
79
100
AcDbEntity
  8
レイヤー 1
 62
   250
420
  2299925
370
    25
100
AcDbLine
 10
105.9872403314555
 20
-144.8275708059284
 30
0.0
 11
106.4726625412936
 21
-144.4100230282549
 31
0.0
  0
LINE
  5
94
330
79
100
AcDbEntity
  8
レイヤー 1
 62
   250
420
  2299925
370
    25
100
AcDbLine
 10
105.4732431223464
 20
-144.4458652504682
 30
0.0
 11
105.9872403314555
 21
-144.8275708059284
 31
0.0
  0
LINE
  5
95
330
79
100
AcDbEntity
  8
レイヤー 1
 62
   250
420
  2299925
370
    25
100
AcDbLine
 10
106.9866597504026
 20
-144.7920813614926
 30
0.0
 11
107.4724347380095
 21
-144.3745335838188
 31
0.0
  0
LINE
  5
96
330
79
100
AcDbEntity
  8
レイヤー 1
 62
   250
420
  2299925
370
    25
100
AcDbLine
 10
106.4726625412936
 20
-144.4100230282549
 30
0.0
 11
106.9866597504026
 21
-144.7920813614926
 31
0.0
  0
LINE
  5
97
330
79
100
AcDbEntity
  8
レイヤー 1
 62
   250
420
  2299925
370
    25
100
AcDbLine
 10
107.4724347380095
 20
-144.3745335838188
 30
0.0
 11
107.9864319471185
 21
-144.7565919170571
 31
0.0
  0
LINE
  5
98
330
79
100
AcDbEntity
  8
レイヤー 1
 62
   250
420
  2299925
370
    25
100
AcDbLine
 10
107.9864319471185
 20
-144.7565919170571
 30
0.0
 11
108.4715013791878
 21
-144.3387266393837
 31
0.0
  0
LINE
  5
99
330
79
100
AcDbEntity
  8
レイヤー 1
 62
   250
420
  2299925
370
    25
100
AcDbLine
 10
108.4715013791878
 20
-144.3387266393837
 30
0.0
 11
108.9855338660738
 21
-144.7207849726217
 31
0.0
  0
LINE
  5
9A
330
79
100
AcDbEntity
  8
レイヤー 1
 62
   250
420
  2299925
370
    25
100
AcDbLine
 10
108.9855338660738
 20
-144.7207849726217
 30
0.0
 11
109.470920798135
 21
-144.3032371949482
 31
0.0
  0
LINE
  5
9B
330
79
100
AcDbEntity
  8
レイヤー 1
 62
   250
420
  2299925
370
    25
100
AcDbLine
 10
109.470920798135
 20
-144.3032371949482
 30
0.0
 11
109.9849532850209
 21
-144.6849427504081
 31
0.0
  0
LINE
  5
9C
330
79
100
AcDbEntity
  8
レイヤー 1
 62
   250
420
  2299925
370
    25
100
AcDbLine
 10
109.9849532850209
 20
-144.6849427504081
 30
0.0
 11
110.4700227170902
 21
-144.267394972735
 31
0.0
  0
LINE
  5
9D
330
79
100
AcDbEntity
  8
レイヤー 1
 62
   250
420
  2299925
370
    25
100
AcDbLine
 10
110.4700227170902
 20
-144.267394972735
 30
0.0
 11
110.9840199261992
 21
-144.6491005281949
 31
0.0
  0
LINE
  5
9E
330
79
100
AcDbEntity
  8
レイヤー 1
 62
   250
420
  2299925
370
    25
100
AcDbLine
 10
110.9840199261992
 20
-144.6491005281949
 30
0.0
 11
111.4697596360292
 21
-144.2315527505217
 31
0.0
  0
LINE
  5
9F
330
79
100
AcDbEntity
  8
レイヤー 1
 62
   250
420
  2299925
370
    25
100
AcDbLine
 10
111.4697596360292
 20
-144.2315527505217
 30
0.0
 11
111.9830865673776
 21
-144.6136463615372
 31
0.0
  0
LINE
  5
A0
330
79
100
AcDbEntity
  8
レイヤー 1
 62
   250
420
  2299925
370
    25
100
AcDbLine
 10
111.9830865673776
 20
-144.6136463615372
 30
0.0
 11
112.4688615549845
 21
-144.1960985838638
 31
0.0
  0
LINE
  5
A1
330
79
100
AcDbEntity
  8
レイヤー 1
 62
   250
420
  2299925
370
    25
100
AcDbLine
 10
112.4688615549845
 20
-144.1960985838638
 30
0.0
 11
112.9828587640935
 21
-144.5781569171018
 31
0.0
  0
LINE
  5
A2
330
79
100
AcDbEntity
  8
レイヤー 1
 62
   250
420
  2299925
370
    25
100
AcDbLine
 10
112.9828587640935
 20
-144.5781569171018
 30
0.0
 11
113.4679281961628
 21
-144.1602563616505
 31
0.0
  0
LINE
  5
A3
330
79
100
AcDbEntity
  8
レイヤー 1
 62
   250
420
  2299925
370
    25
100
AcDbLine
 10
113.4679281961628
 20
-144.1602563616505
 30
0.0
 11
113.9819254052725
 21
-144.5423146948885
 31
0.0
  0
LINE
  5
A4
330
79
100
AcDbEntity
  8
レイヤー 1
 62
   250
420
  2299925
370
    25
100
AcDbLine
 10
113.9819254052725
 20
-144.5423146948885
 30
0.0
 11
114.4677003928787
 21
-144.124766917215
 31
0.0
  0
LINE
  5
A5
330
79
100
AcDbEntity
  8
レイヤー 1
 62
   250
420
  2299925
370
    25
100
AcDbLine
 10
114.4677003928787
 20
-144.124766917215
 30
0.0
 11
114.9816976019878
 21
-144.5064724726753
 31
0.0
  0
LINE
  5
A6
330
79
100
AcDbEntity
  8
レイヤー 1
 62
   250
420
  2299925
370
    25
100
AcDbLine
 10
114.9816976019878
 20
-144.5064724726753
 30
0.0
 11
115.4667670340571
 21
-144.0889246950017
 31
0.0
  0
LINE
  5
A7
330
79
100
AcDbEntity
  8
レイヤー 1
 62
   250
420
  2299925
370
    25
100
AcDbLine
 10
115.4667670340571
 20
-144.0889246950017
 30
0.0
 11
115.980799520943
 21
-144.4706655282398
 31
0.0
  0
LINE
  5
A8
330
79
100
AcDbEntity
  8
レイヤー 1
 62
   250
420
  2299925
370
    25
100
AcDbLine
 10
115.980799520943
 20
-144.4706655282398
 30
0.0
 11
116.466539230773
 21
-144.0531177505663
 31
0.0
  0
LINE
  5
A9
330
79
100
AcDbEntity
  8
レイヤー 1
 62
   250
420
  2299925
370
    25
100
AcDbLine
 10
116.540536439991
 20
-144.0048930283562
 30
0.0
 11
117.4801050382481
 21
-144.0048930283562
 31
0.0
  0
LINE
  5
AA
330
79
100
AcDbEntity
  8
レイヤー 1
 62
   250
420
  2299925
370
    25
100
AcDbLine
 10
116.6050397827951
 20
-145.2671671947071
 30
0.0
 11
116.4803328415322
 21
-153.2670030260402
 31
0.0
  0
LINE
  5
AB
330
79
100
AcDbEntity
  8
レイヤー 1
 62
   250
420
  2299925
370
    25
100
AcDbLine
 10
117.4801050382481
 20
-144.0048930283562
 30
0.0
 11
117.3512353193136
 21
-152.2669133040687
 31
0.0
  0
LINE
  5
AC
330
79
100
AcDbEntity
  8
レイヤー 1
 62
   250
420
  2299925
370
    25
100
AcDbLine
 10
118.9797280555451
 20
-152.2669133040687
 30
0.0
 11
118.9797280555451
 21
-153.2670030260402
 31
0.0
  0
CIRCLE
  5
AD
330
79
100
AcDbEntity
  8
レイヤー 1
 62
   250
420
  2299925
370
     9
100
AcDbCircle
 10
96.47878585181418
 20
-140.0047810849116
 30
0.0
 40
0.0999066653797766
  0
CIRCLE
  5
AE
330
79
100
AcDbEntity
  8
レイヤー 1
 62
   250
420
  2299925
370
     9
100
AcDbCircle
 10
92.47902678718995
 20
-144.7669283059434
 30
0.0
 40
0.0999066653798969
  0
CIRCLE
  5
AF
330
79
100
AcDbEntity
  8
レイヤー 1
 62
   250
420
  2299925
370
     9
100
AcDbCircle
 10
92.47902678718995
 20
-145.2671671947071
 30
0.0
 40
0.0999066653797766
  0
SPLINE
  5
B0
330
79
100
AcDbEntity
  8
レイヤー 1
 62
   250
420
  2299925
370
     9
100
AcDbSpline
210
0.0
220
0.0
230
1.0
 70
     9
 71
     3
 72
    17
 73
    13
 74
     0
 42
0.0000000001
 43
0.0000000001
 40
0.0
 40
0.0
 40
0.0
 40
0.0
 40
1.0
 40
1.0
 40
1.0
 40
2.0
 40
2.0
 40
2.0
 40
3.0
 40
3.0
 40
3.0
 40
4.0
 40
4.0
 40
4.0
 40
4.0
 10
92.57893345130801
 20
-153.2670030260402
 30
0.0
 10
92.57893345130801
 20
-153.2118991371653
 30
0.0
 10
92.53416595244981
 20
-153.1670963593992
 30
0.0
 10
92.47902678718986
 20
-153.1670963593992
 30
0.0
 10
92.42392289970679
 20
-153.1670963593992
 30
0.0
 10
92.37912012307203
 20
-153.2118991371653
 30
0.0
 10
92.37912012307203
 20
-153.2670030260402
 30
0.0
 10
92.37912012307203
 20
-153.3221421926933
 30
0.0
 10
92.42392289970679
 20
-153.36694497046
 30
0.0
 10
92.47902678718986
 20
-153.36694497046
 30
0.0
 10
92.53416595244981
 20
-153.36694497046
 30
0.0
 10
92.57893345130801
 20
-153.3221421926933
 30
0.0
 10
92.57893345130801
 20
-153.2670030260402
 30
0.0
  0
CIRCLE
  5
B1
330
79
100
AcDbEntity
  8
レイヤー 1
 62
   250
420
  2299925
370
     9
100
AcDbCircle
 10
117.4801050382481
 20
-140.0047810849116
 30
0.0
 40
0.0999066653797766
  0
CIRCLE
  5
B2
330
79
100
AcDbEntity
  8
レイヤー 1
 62
   250
420
  2299925
370
     9
100
AcDbCircle
 10
116.4803328415322
 20
-157.2671149694849
 30
0.0
 40
0.0999066653797365
  0
CIRCLE
  5
B3
330
79
100
AcDbEntity
  8
レイヤー 1
 62
   250
420
  2299925
370
     9
100
AcDbCircle
 10
118.9797280555451
 20
-157.2671149694849
 30
0.0
 40
0.0999066653797365
  0
CIRCLE
  5
B4
330
79
100
AcDbEntity
  8
レイヤー 1
 62
   250
420
  2299925
370
     9
100
AcDbCircle
 10
118.9797280555451
 20
-140.0047810849116
 30
0.0
 40
0.0999066653797766
  0
LINE
  5
B5
330
79
100
AcDbEntity
  8
レイヤー 1
 62
   250
420
  2299925
370
     9
100
AcDbLine
 10
92.47902678718986
 20
-144.7669283059435
 30
0.0
 11
92.47902678718986
 21
-139.5093752517023
 31
0.0
  0
LINE
  5
B6
330
79
100
AcDbEntity
  8
レイヤー 1
 62
   250
420
  2299925
370
     9
100
AcDbLine
 10
92.47902678718986
 20
-144.7669283059435
 30
0.0
 11
92.47902678718986
 21
-145.2671671947071
 31
0.0
  0
LINE
  5
B7
330
79
100
AcDbEntity
  8
レイヤー 1
 62
   250
420
  2299925
370
     9
100
AcDbLine
 10
93.93906813882999
 20
-144.7669283059435
 30
0.0
 11
91.47893709048206
 21
-144.7669283059435
 31
0.0
  0
LINE
  5
B8
330
79
100
AcDbEntity
  8
レイヤー 1
 62
   250
420
  2299925
370
     9
100
AcDbLine
 10
93.93906813882999
 20
-145.2671671947071
 30
0.0
 11
91.47893709048206
 21
-145.2671671947071
 31
0.0
  0
INSERT
  5
BA
330
79
100
AcDbEntity
  8
レイヤー 1
100
AcDbBlockReference
  2
Block_1
 10
0.0
 20
0.0
 30
0.0
  0
LINE
  5
C8
330
79
100
AcDbEntity
  8
レイヤー 1
 62
   250
420
  2299925
370
     9
100
AcDbLine
 10
96.47878585181418
 20
-140.0047810849115
 30
0.0
 11
117.4801050382481
 21
-140.0047810849115
 31
0.0
  0
LINE
  5
C9
330
79
100
AcDbEntity
  8
レイヤー 1
 62
   250
420
  2299925
370
     9
100
AcDbLine
 10
96.47878585181418
 20
-142.2268577510228
 30
0.0
 11
96.47878585181418
 21
-139.0050088629393
 31
0.0
  0
INSERT
  5
CB
330
79
100
AcDbEntity
  8
レイヤー 1
100
AcDbBlockReference
  2
Block_3
 10
0.0
 20
0.0
 30
0.0
  0
LINE
  5
D6
330
79
100
AcDbEntity
  8
レイヤー 1
 62
   250
420
  2299925
370
     9
100
AcDbLine
 10
92.47902678718986
 20
-145.2671671947071
 30
0.0
 11
92.47902678718986
 21
-153.2670030260402
 31
0.0
  0
LINE
  5
D7
330
79
100
AcDbEntity
  8
レイヤー 1
 62
   250
420
  2299925
370
     9
100
AcDbLine
 10
113.940615128548
 20
-153.2670030260402
 30
0.0
 11
91.47893709048206
 21
-153.2670030260402
 31
0.0
  0
INSERT
  5
D9
330
79
100
AcDbEntity
  8
レイヤー 1
100
AcDbBlockReference
  2
Block_5
 10
0.0
 20
0.0
 30
0.0
  0
LINE
  5
E0
330
79
100
AcDbEntity
  8
レイヤー 1
 62
   250
420
  2299925
370
     9
100
AcDbLine
 10
117.4801050382481
 20
-140.0047810849115
 30
0.0
 11
118.9797280555451
 21
-140.0047810849115
 31
0.0
  0
LINE
  5
E1
330
79
100
AcDbEntity
  8
レイヤー 1
 62
   250
420
  2299925
370
     9
100
AcDbLine
 10
117.4801050382481
 20
-141.4648224734356
 30
0.0
 11
117.4801050382481
 21
-139.0050088629393
 31
0.0
  0
LINE
  5
E2
330
79
100
AcDbEntity
  8
レイヤー 1
 62
   250
420
  2299925
370
     9
100
AcDbLine
 10
118.9797280555451
 20
-149.7271955269256
 30
0.0
 11
118.9797280555451
 21
-139.0050088629393
 31
0.0
  0
INSERT
  5
E4
330
79
100
AcDbEntity
  8
レイヤー 1
100
AcDbBlockReference
  2
Block_6
 10
0.0
 20
0.0
 30
0.0
  0
LINE
  5
F1
330
79
100
AcDbEntity
  8
レイヤー 1
 62
   250
420
  2299925
370
     9
100
AcDbLine
 10
118.9797280555451
 20
-157.2671149694849
 30
0.0
 11
118.9797280555451
 21
-157.2671149694849
 31
0.0
  0
LINE
  5
F2
330
79
100
AcDbEntity
  8
レイヤー 1
 62
   250
420
  2299925
370
     9
100
AcDbLine
 10
118.9797280555451
 20
-157.2671149694849
 30
0.0
 11
116.4803328415322
 21
-157.2671149694849
 31
0.0
  0
LINE
  5
F3
330
79
100
AcDbEntity
  8
レイヤー 1
 62
   250
420
  2299925
370
     9
100
AcDbLine
 10
118.9797280555451
 20
-155.8070735809612
 30
0.0
 11
118.9797280555451
 21
-158.2672399692352
 31
0.0
  0
LINE
  5
F4
330
79
100
AcDbEntity
  8
レイヤー 1
 62
   250
420
  2299925
370
     9
100
AcDbLine
 10
116.4803328415322
 20
-155.8070735809612
 30
0.0
 11
116.4803328415322
 21
-158.2672399692352
 31
0.0
  0
INSERT
  5
F6
330
79
100
AcDbEntity
  8
レイヤー 1
100
AcDbBlockReference
  2
Block_8
 10
0.0
 20
0.0
 30
0.0
  0
ENDBLK
  5
7C
330
79
100
AcDbEntity
  8
0
100
AcDbBlockEnd
  0
BLOCK
  5
BB
330
B9
100
AcDbEntity
  8
0
100
AcDbBlockBegin
  2
Block_1
 70
     0
 10
0.0
 20
0.0
 30
0.0
  3
Block_1
  1

  0
INSERT
  5
BE
330
B9
100
AcDbEntity
  8
レイヤー 1
100
AcDbBlockReference
  2
Block_2
 10
0.0
 20
0.0
 30
0.0
  0
ENDBLK
  5
BC
330
B9
100
AcDbEntity
  8
0
100
AcDbBlockEnd
  0
BLOCK
  5
BF
330
BD
100
AcDbEntity
  8
0
100
AcDbBlockBegin
  2
Block_2
 70
     0
 10
0.0
 20
0.0
 30
0.0
  3
Block_2
  1

  0
SPLINE
  5
C1
330
BD
100
AcDbEntity
  8
レイヤー 1
100
AcDbSpline
210
0.0
220
0.0
230
1.0
 70
     9
 71
     3
 72
    17
 73
    13
 74
     0
 42
0.0000000001
 43
0.0000000001
 40
0.0
 40
0.0
 40
0.0
 40
0.0
 40
1.0
 40
1.0
 40
1.0
 40
2.0
 40
2.0
 40
2.0
 40
3.0
 40
3.0
 40
3.0
 40
4.0
 40
4.0
 40
4.0
 40
4.0
 10
89.63449433523027
 20
-145.922359175759
 30
0.0
 10
89.63449433523027
 20
-146.1721285984396
 30
0.0
 10
89.91785343889207
 20
-146.2186373874905
 30
0.0
 10
90.26270749696557
 20
-146.2186373874905
 30
0.0
 10
90.5822401032225
 20
-146.2186373874905
 30
0.0
 10
90.89109291347515
 20
-146.1824638848953
 30
0.0
 10
90.89109291347515
 20
-145.922359175759
 30
0.0
 10
90.89109291347515
 20
-145.6748290651438
 30
0.0
 10
90.60962861233024
 20
-145.6260809640275
 30
0.0
 10
90.26270749696557
 20
-145.6260809640275
 30
0.0
 10
89.94334714548292
 20
-145.6260809640275
 30
0.0
 10
89.63449433523027
 20
-145.6643215239138
 30
0.0
 10
89.63449433523027
 20
-145.922359175759
 30
0.0
  0
SPLINE
  5
C2
330
BD
100
AcDbEntity
  8
レイヤー 1
100
AcDbSpline
210
0.0
220
0.0
230
1.0
 70
     9
 71
     3
 72
    29
 73
    25
 74
     0
 42
0.0000000001
 43
0.0000000001
 40
0.0
 40
0.0
 40
0.0
 40
0.0
 40
1.0
 40
1.0
 40
1.0
 40
2.0
 40
2.0
 40
2.0
 40
3.0
 40
3.0
 40
3.0
 40
4.0
 40
4.0
 40
4.0
 40
5.0
 40
5.0
 40
5.0
 40
6.0
 40
6.0
 40
6.0
 40
7.0
 40
7.0
 40
7.0
 40
8.0
 40
8.0
 40
8.0
 40
8.0
 10
90.85715872294544
 20
-145.5246229019869
 30
0.0
 10
91.06662052844862
 20
-145.6324543906752
 30
0.0
 10
91.08574080839176
 20
-145.8059149483575
 30
0.0
 10
91.08574080839176
 20
-145.922359175759
 30
0.0
 10
91.08574080839176
 20
-146.0832451349201
 30
0.0
 10
91.03923201934088
 20
-146.2248385593639
 30
0.0
 10
90.85715872294544
 20
-146.3199231947568
 30
0.0
 10
90.66268308280308
 20
-146.4236205688628
 30
0.0
 10
90.4256605134179
 20
-146.4429131035802
 30
0.0
 10
90.26270749696557
 20
-146.4429131035802
 30
0.0
 10
90.11887476045639
 20
-146.4429131035802
 30
0.0
 10
89.86721053525888
 20
-146.425687626154
 30
0.0
 10
89.66825627098572
 20
-146.3199231947568
 30
0.0
 10
89.46516789213024
 20
-146.2120917060685
 30
0.0
 10
89.4419134976048
 20
-146.0512057469073
 30
0.0
 10
89.4419134976048
 20
-145.922359175759
 30
0.0
 10
89.4419134976048
 20
-145.763540273889
 30
0.0
 10
89.48635522936452
 20
-145.619879792154
 30
0.0
 10
89.66825627098572
 20
-145.5246229019869
 30
0.0
 10
89.86083710861118
 20
-145.4252318972374
 30
0.0
 10
90.08924693928324
 20
-145.401977502712
 30
0.0
 10
90.26270749696557
 20
-145.401977502712
 30
0.0
 10
90.43410099735675
 20
-145.401977502712
 30
0.0
 10
90.66475014009423
 20
-145.422992585172
 30
0.0
 10
90.85715872294544
 20
-145.5246229019869
 30
0.0
  0
HATCH
  5
C3
330
BD
100
AcDbEntity
  8
レイヤー 1
 62
   250
420
  2299925
440
 33554687
100
AcDbHatch
 10
0.0
 20
0.0
 30
0.0
210
0.0
220
0.0
230
1.0
  2
SOLID
 70
     1
 71
     1
 91
        2
 92
        1
 93
        1
 72
     4
 94
        3
 73
     0
 74
     0
 95
       17
 96
       13
 40
0.0
 40
0.0
 40
0.0
 40
0.0
 40
1.0
 40
1.0
 40
1.0
 40
2.0
 40
2.0
 40
2.0
 40
3.0
 40
3.0
 40
3.0
 40
4.0
 40
4.0
 40
4.0
 40
4.0
 10
89.63449433523027
 20
-145.922359175759
 10
89.63449433523027
 20
-146.1721285984396
 10
89.91785343889207
 20
-146.2186373874905
 10
90.26270749696557
 20
-146.2186373874905
 10
90.5822401032225
 20
-146.2186373874905
 10
90.89109291347515
 20
-146.1824638848953
 10
90.89109291347515
 20
-145.922359175759
 10
90.89109291347515
 20
-145.6748290651438
 10
90.60962861233024
 20
-145.6260809640275
 10
90.26270749696557
 20
-145.6260809640275
 10
89.94334714548292
 20
-145.6260809640275
 10
89.63449433523027
 20
-145.6643215239138
 10
89.63449433523027
 20
-145.922359175759
 97
        0
 97
        1
330
C1
 92
        1
 93
        1
 72
     4
 94
        3
 73
     0
 74
     0
 95
       29
 96
       25
 40
0.0
 40
0.0
 40
0.0
 40
0.0
 40
1.0
 40
1.0
 40
1.0
 40
2.0
 40
2.0
 40
2.0
 40
3.0
 40
3.0
 40
3.0
 40
4.0
 40
4.0
 40
4.0
 40
5.0
 40
5.0
 40
5.0
 40
6.0
 40
6.0
 40
6.0
 40
7.0
 40
7.0
 40
7.0
 40
8.0
 40
8.0
 40
8.0
 40
8.0
 10
90.85715872294544
 20
-145.5246229019869
 10
91.06662052844862
 20
-145.6324543906752
 10
91.08574080839176
 20
-145.8059149483575
 10
91.08574080839176
 20
-145.922359175759
 10
91.08574080839176
 20
-146.0832451349201
 10
91.03923201934088
 20
-146.2248385593639
 10
90.85715872294544
 20
-146.3199231947568
 10
90.66268308280308
 20
-146.4236205688628
 10
90.4256605134179
 20
-146.4429131035802
 10
90.26270749696557
 20
-146.4429131035802
 10
90.11887476045639
 20
-146.4429131035802
 10
89.86721053525888
 20
-146.425687626154
 10
89.66825627098572
 20
-146.3199231947568
 10
89.46516789213024
 20
-146.2120917060685
 10
89.4419134976048
 20
-146.0512057469073
 10
89.4419134976048
 20
-145.922359175759
 10
89.4419134976048
 20
-145.763540273889
 10
89.48635522936452
 20
-145.619879792154
 10
89.66825627098572
 20
-145.5246229019869
 10
89.86083710861118
 20
-145.4252318972374
 10
90.08924693928324
 20
-145.401977502712
 10
90.26270749696557
 20
-145.401977502712
 10
90.43410099735675
 20
-145.401977502712
 10
90.66475014009423
 20
-145.422992585172
 10
90.85715872294544
 20
-145.5246229019869
 97
        0
 97
        1
330
C2
 75
     2
 76
     1
 98
        1
 10
0.0
 20
0.0
450
        0
451
        0
460
0.0
461
0.0
452
        0
462
0.0
453
        0
470

  0
SPLINE
  5
C4
330
BD
100
AcDbEntity
  8
レイヤー 1
100
AcDbSpline
210
0.0
220
0.0
230
1.0
 70
    11
 71
     3
 72
    17
 73
    13
 74
     0
 42
0.0000000001
 43
0.0000000001
 40
0.0
 40
0.0
 40
0.0
 40
0.0
 40
1.0
 40
1.0
 40
1.0
 40
2.0
 40
2.0
 40
2.0
 40
3.0
 40
3.0
 40
3.0
 40
4.0
 40
4.0
 40
4.0
 40
4.0
 10
91.03492564998433
 20
-145.185453251464
 30
0.0
 10
91.03492564998433
 20
-145.185453251464
 30
0.0
 10
90.78326142478683
 20
-145.185453251464
 30
0.0
 10
90.78326142478683
 20
-145.185453251464
 30
0.0
 10
90.78326142478683
 20
-145.185453251464
 30
0.0
 10
90.78326142478683
 20
-144.9337890262665
 30
0.0
 10
90.78326142478683
 20
-144.9337890262665
 30
0.0
 10
90.78326142478683
 20
-144.9337890262665
 30
0.0
 10
91.03492564998433
 20
-144.9337890262665
 30
0.0
 10
91.03492564998433
 20
-144.9337890262665
 30
0.0
 10
91.03492564998433
 20
-144.9337890262665
 30
0.0
 10
91.03492564998433
 20
-145.185453251464
 30
0.0
 10
91.03492564998433
 20
-145.185453251464
 30
0.0
  0
HATCH
  5
C5
330
BD
100
AcDbEntity
  8
レイヤー 1
 62
   250
420
  2299925
440
 33554687
100
AcDbHatch
 10
0.0
 20
0.0
 30
0.0
210
0.0
220
0.0
230
1.0
  2
SOLID
 70
     1
 71
     1
 91
        1
 92
        1
 93
        1
 72
     4
 94
        3
 73
     0
 74
     0
 95
       17
 96
       13
 40
0.0
 40
0.0
 40
0.0
 40
0.0
 40
1.0
 40
1.0
 40
1.0
 40
2.0
 40
2.0
 40
2.0
 40
3.0
 40
3.0
 40
3.0
 40
4.0
 40
4.0
 40
4.0
 40
4.0
 10
91.03492564998433
 20
-145.185453251464
 10
91.03492564998433
 20
-145.185453251464
 10
90.78326142478683
 20
-145.185453251464
 10
90.78326142478683
 20
-145.185453251464
 10
90.78326142478683
 20
-145.185453251464
 10
90.78326142478683
 20
-144.9337890262665
 10
90.78326142478683
 20
-144.9337890262665
 10
90.78326142478683
 20
-144.9337890262665
 10
91.03492564998433
 20
-144.9337890262665
 10
91.03492564998433
 20
-144.9337890262665
 10
91.03492564998433
 20
-144.9337890262665
 10
91.03492564998433
 20
-145.185453251464
 10
91.03492564998433
 20
-145.185453251464
 97
        0
 97
        1
330
C4
 75
     2
 76
     1
 98
        1
 10
0.0
 20
0.0
450
        0
451
        0
460
0.0
461
0.0
452
        0
462
0.0
453
        0
470

  0
SPLINE
  5
C6
330
BD
100
AcDbEntity
  8
レイヤー 1
100
AcDbSpline
210
0.0
220
0.0
230
1.0
 70
     9
 71
     3
 72
    53
 73
    49
 74
     0
 42
0.0000000001
 43
0.0000000001
 40
0.0
 40
0.0
 40
0.0
 40
0.0
 40
1.0
 40
1.0
 40
1.0
 40
2.0
 40
2.0
 40
2.0
 40
3.0
 40
3.0
 40
3.0
 40
4.0
 40
4.0
 40
4.0
 40
5.0
 40
5.0
 40
5.0
 40
6.0
 40
6.0
 40
6.0
 40
7.0
 40
7.0
 40
7.0
 40
8.0
 40
8.0
 40
8.0
 40
9.0
 40
9.0
 40
9.0
 40
10.0
 40
10.0
 40
10.0
 40
11.0
 40
11.0
 40
11.0
 40
12.0
 40
12.0
 40
12.0
 40
13.0
 40
13.0
 40
13.0
 40
14.0
 40
14.0
 40
14.0
 40
15.0
 40
15.0
 40
15.0
 40
16.0
 40
16.0
 40
16.0
 40
16.0
 10
91.08574080839176
 20
-144.216175636689
 30
0.0
 10
91.08574080839176
 20
-144.2945515589784
 30
0.0
 10
91.06885984051404
 20
-144.396009621019
 30
0.0
 10
91.00529782881118
 20
-144.4976399378339
 30
0.0
 10
90.89522702805744
 20
-144.6711004955163
 30
0.0
 10
90.7641411448437
 20
-144.6922878327505
 30
0.0
 10
90.65630965615538
 20
-144.7112358579194
 30
0.0
 10
90.65630965615538
 20
-144.7112358579194
 30
0.0
 10
90.65630965615538
 20
-144.489199453895
 30
0.0
 10
90.65630965615538
 20
-144.489199453895
 30
0.0
 10
90.85509166565428
 20
-144.434077926131
 30
0.0
 10
90.88471948682743
 20
-144.3071261574996
 30
0.0
 10
90.88471948682743
 20
-144.2141085793978
 30
0.0
 10
90.88471948682743
 20
-144.074409957471
 30
0.0
 10
90.78532848207798
 20
-143.9221367370229
 30
0.0
 10
90.55261228204935
 20
-143.9221367370229
 30
0.0
 10
90.29664168749528
 20
-143.9221367370229
 30
0.0
 10
90.22687850391898
 20
-144.101970721353
 30
0.0
 10
90.22687850391898
 20
-144.2225490633367
 30
0.0
 10
90.22687850391898
 20
-144.254243941801
 30
0.0
 10
90.22687850391898
 20
-144.396009621019
 30
0.0
 10
90.35589732984158
 20
-144.4848930845385
 30
0.0
 10
90.35589732984158
 20
-144.4848930845385
 30
0.0
 10
90.33677704989845
 20
-144.6604206995119
 30
0.0
 10
90.33677704989845
 20
-144.6604206995119
 30
0.0
 10
90.33677704989845
 20
-144.6604206995119
 30
0.0
 10
89.49066159872108
 20
-144.5398423575282
 30
0.0
 10
89.49066159872108
 20
-144.5398423575282
 30
0.0
 10
89.49066159872108
 20
-144.5398423575282
 30
0.0
 10
89.49066159872108
 20
-143.761423032636
 30
0.0
 10
89.49066159872108
 20
-143.761423032636
 30
0.0
 10
89.49066159872108
 20
-143.761423032636
 30
0.0
 10
89.68530949363771
 20
-143.761423032636
 30
0.0
 10
89.68530949363771
 20
-143.761423032636
 30
0.0
 10
89.68530949363771
 20
-143.761423032636
 30
0.0
 10
89.68530949363771
 20
-144.3770615958502
 30
0.0
 10
89.68530949363771
 20
-144.3770615958502
 30
0.0
 10
89.68530949363771
 20
-144.3770615958502
 30
0.0
 10
90.10836721922638
 20
-144.4425184100699
 30
0.0
 10
90.10836721922638
 20
-144.4425184100699
 30
0.0
 10
90.07443302869667
 20
-144.3811957104325
 30
0.0
 10
90.0342976662935
 20
-144.2986856735607
 30
0.0
 10
90.0342976662935
 20
-144.1803466436424
 30
0.0
 10
90.0342976662935
 20
-143.9264431063795
 30
0.0
 10
90.22050507727128
 20
-143.6894205369943
 30
0.0
 10
90.53349200210622
 20
-143.6894205369943
 30
0.0
 10
90.85095755107198
 20
-143.6894205369943
 30
0.0
 10
91.08574080839176
 20
-143.9136962530841
 30
0.0
 10
91.08574080839176
 20
-144.216175636689
 30
0.0
  0
HATCH
  5
C7
330
BD
100
AcDbEntity
  8
レイヤー 1
 62
   250
420
  2299925
440
 33554687
100
AcDbHatch
 10
0.0
 20
0.0
 30
0.0
210
0.0
220
0.0
230
1.0
  2
SOLID
 70
     1
 71
     1
 91
        1
 92
        1
 93
        1
 72
     4
 94
        3
 73
     0
 74
     0
 95
       53
 96
       49
 40
0.0
 40
0.0
 40
0.0
 40
0.0
 40
1.0
 40
1.0
 40
1.0
 40
2.0
 40
2.0
 40
2.0
 40
3.0
 40
3.0
 40
3.0
 40
4.0
 40
4.0
 40
4.0
 40
5.0
 40
5.0
 40
5.0
 40
6.0
 40
6.0
 40
6.0
 40
7.0
 40
7.0
 40
7.0
 40
8.0
 40
8.0
 40
8.0
 40
9.0
 40
9.0
 40
9.0
 40
10.0
 40
10.0
 40
10.0
 40
11.0
 40
11.0
 40
11.0
 40
12.0
 40
12.0
 40
12.0
 40
13.0
 40
13.0
 40
13.0
 40
14.0
 40
14.0
 40
14.0
 40
15.0
 40
15.0
 40
15.0
 40
16.0
 40
16.0
 40
16.0
 40
16.0
 10
91.08574080839176
 20
-144.216175636689
 10
91.08574080839176
 20
-144.2945515589784
 10
91.06885984051404
 20
-144.396009621019
 10
91.00529782881118
 20
-144.4976399378339
 10
90.89522702805744
 20
-144.6711004955163
 10
90.7641411448437
 20
-144.6922878327505
 10
90.65630965615538
 20
-144.7112358579194
 10
90.65630965615538
 20
-144.7112358579194
 10
90.65630965615538
 20
-144.489199453895
 10
90.65630965615538
 20
-144.489199453895
 10
90.85509166565428
 20
-144.434077926131
 10
90.88471948682743
 20
-144.3071261574996
 10
90.88471948682743
 20
-144.2141085793978
 10
90.88471948682743
 20
-144.074409957471
 10
90.78532848207798
 20
-143.9221367370229
 10
90.55261228204935
 20
-143.9221367370229
 10
90.29664168749528
 20
-143.9221367370229
 10
90.22687850391898
 20
-144.101970721353
 10
90.22687850391898
 20
-144.2225490633367
 10
90.22687850391898
 20
-144.254243941801
 10
90.22687850391898
 20
-144.396009621019
 10
90.35589732984158
 20
-144.4848930845385
 10
90.35589732984158
 20
-144.4848930845385
 10
90.33677704989845
 20
-144.6604206995119
 10
90.33677704989845
 20
-144.6604206995119
 10
90.33677704989845
 20
-144.6604206995119
 10
89.49066159872108
 20
-144.5398423575282
 10
89.49066159872108
 20
-144.5398423575282
 10
89.49066159872108
 20
-144.5398423575282
 10
89.49066159872108
 20
-143.761423032636
 10
89.49066159872108
 20
-143.761423032636
 10
89.49066159872108
 20
-143.761423032636
 10
89.68530949363771
 20
-143.761423032636
 10
89.68530949363771
 20
-143.761423032636
 10
89.68530949363771
 20
-143.761423032636
 10
89.68530949363771
 20
-144.3770615958502
 10
89.68530949363771
 20
-144.3770615958502
 10
89.68530949363771
 20
-144.3770615958502
 10
90.10836721922638
 20
-144.4425184100699
 10
90.10836721922638
 20
-144.4425184100699
 10
90.07443302869667
 20
-144.3811957104325
 10
90.0342976662935
 20
-144.2986856735607
 10
90.0342976662935
 20
-144.1803466436424
 10
90.0342976662935
 20
-143.9264431063795
 10
90.22050507727128
 20
-143.6894205369943
 10
90.53349200210622
 20
-143.6894205369943
 10
90.85095755107198
 20
-143.6894205369943
 10
91.08574080839176
 20
-143.9136962530841
 10
91.08574080839176
 20
-144.216175636689
 97
        0
 97
        1
330
C6
 75
     2
 76
     1
 98
        1
 10
0.0
 20
0.0
450
        0
451
        0
460
0.0
461
0.0
452
        0
462
0.0
453
        0
470

  0
ENDBLK
  5
C0
330
BD
100
AcDbEntity
  8
0
100
AcDbBlockEnd
  0
BLOCK
  5
CC
330
CA
100
AcDbEntity
  8
0
100
AcDbBlockBegin
  2
Block_3
 70
     0
 10
0.0
 20
0.0
 30
0.0
  3
Block_3
  1

  0
INSERT
  5
CF
330
CA
100
AcDbEntity
  8
レイヤー 1
100
AcDbBlockReference
  2
Block_4
 10
0.0
 20
0.0
 30
0.0
  0
ENDBLK
  5
CD
330
CA
100
AcDbEntity
  8
0
100
AcDbBlockEnd
  0
BLOCK
  5
D0
330
CE
100
AcDbEntity
  8
0
100
AcDbBlockBegin
  2
Block_4
 70
     0
 10
0.0
 20
0.0
 30
0.0
  3
Block_4
  1

  0
SPLINE
  5
D2
330
CE
100
AcDbEntity
  8
レイヤー 1
100
AcDbSpline
210
0.0
220
0.0
230
1.0
 70
     9
 71
     3
 72
    44
 73
    40
 74
     0
 42
0.0000000001
 43
0.0000000001
 40
0.0
 40
0.0
 40
0.0
 40
0.0
 40
1.0
 40
1.0
 40
1.0
 40
2.0
 40
2.0
 40
2.0
 40
3.0
 40
3.0
 40
3.0
 40
4.0
 40
4.0
 40
4.0
 40
5.0
 40
5.0
 40
5.0
 40
6.0
 40
6.0
 40
6.0
 40
7.0
 40
7.0
 40
7.0
 40
8.0
 40
8.0
 40
8.0
 40
9.0
 40
9.0
 40
9.0
 40
10.0
 40
10.0
 40
10.0
 40
11.0
 40
11.0
 40
11.0
 40
12.0
 40
12.0
 40
12.0
 40
13.0
 40
13.0
 40
13.0
 40
13.0
 10
106.4076307242661
 20
-137.9660834073487
 30
0.0
 10
106.1899006895983
 20
-138.1247300544445
 30
0.0
 10
106.0968831114966
 20
-138.1987996073774
 30
0.0
 10
106.047962755606
 20
-138.3426323438865
 30
0.0
 10
106.047962755606
 20
-138.3426323438865
 30
0.0
 10
106.8265543352725
 20
-138.3426323438865
 30
0.0
 10
106.8265543352725
 20
-138.3426323438865
 30
0.0
 10
106.8265543352725
 20
-138.3426323438865
 30
0.0
 10
106.8265543352725
 20
-138.5477877800332
 30
0.0
 10
106.8265543352725
 20
-138.5477877800332
 30
0.0
 10
106.8265543352725
 20
-138.5477877800332
 30
0.0
 10
105.7985378424739
 20
-138.5477877800332
 30
0.0
 10
105.7985378424739
 20
-138.5477877800332
 30
0.0
 10
105.8302327209382
 20
-138.1901868686642
 30
0.0
 10
105.895689535158
 20
-138.1119832011491
 30
0.0
 10
106.2808512104089
 20
-137.8136379321264
 30
0.0
 10
106.536821804963
 20
-137.6148559226275
 30
0.0
 10
106.6022786191827
 20
-137.5471597963423
 30
0.0
 10
106.6022786191827
 20
-137.4097004864809
 30
0.0
 10
106.6022786191827
 20
-137.2911892017883
 30
0.0
 10
106.530276123541
 20
-137.1601033185745
 30
0.0
 10
106.3335611713333
 20
-137.1601033185745
 30
0.0
 10
106.0734564621969
 20
-137.1601033185745
 30
0.0
 10
106.0648437234838
 20
-137.3905802065378
 30
0.0
 10
106.0607096089015
 20
-137.5070244339392
 30
0.0
 10
106.0607096089015
 20
-137.5070244339392
 30
0.0
 10
105.8364338928117
 20
-137.5070244339392
 30
0.0
 10
105.8364338928117
 20
-137.5070244339392
 30
0.0
 10
105.8450466315248
 20
-137.3800726653078
 30
0.0
 10
105.8557264275291
 20
-137.2679348072629
 30
0.0
 10
105.9359971523354
 20
-137.1494235225703
 30
0.0
 10
106.0458956983149
 20
-136.9887098181834
 30
0.0
 10
106.2322753640669
 20
-136.9547756276537
 30
0.0
 10
106.3483750819198
 20
-136.9547756276537
 30
0.0
 10
106.6257052684824
 20
-136.9547756276537
 30
0.0
 10
106.8331000166945
 20
-137.1389159813403
 30
0.0
 10
106.8331000166945
 20
-137.411767543772
 30
0.0
 10
106.8331000166945
 20
-137.6401773744441
 30
0.0
 10
106.716655789293
 20
-137.7397406339678
 30
0.0
 10
106.4076307242661
 20
-137.9660834073487
 30
0.0
  0
HATCH
  5
D3
330
CE
100
AcDbEntity
  8
レイヤー 1
 62
   250
420
  2299925
440
 33554687
100
AcDbHatch
 10
0.0
 20
0.0
 30
0.0
210
0.0
220
0.0
230
1.0
  2
SOLID
 70
     1
 71
     1
 91
        1
 92
        1
 93
        1
 72
     4
 94
        3
 73
     0
 74
     0
 95
       44
 96
       40
 40
0.0
 40
0.0
 40
0.0
 40
0.0
 40
1.0
 40
1.0
 40
1.0
 40
2.0
 40
2.0
 40
2.0
 40
3.0
 40
3.0
 40
3.0
 40
4.0
 40
4.0
 40
4.0
 40
5.0
 40
5.0
 40
5.0
 40
6.0
 40
6.0
 40
6.0
 40
7.0
 40
7.0
 40
7.0
 40
8.0
 40
8.0
 40
8.0
 40
9.0
 40
9.0
 40
9.0
 40
10.0
 40
10.0
 40
10.0
 40
11.0
 40
11.0
 40
11.0
 40
12.0
 40
12.0
 40
12.0
 40
13.0
 40
13.0
 40
13.0
 40
13.0
 10
106.4076307242661
 20
-137.9660834073487
 10
106.1899006895983
 20
-138.1247300544445
 10
106.0968831114966
 20
-138.1987996073774
 10
106.047962755606
 20
-138.3426323438865
 10
106.047962755606
 20
-138.3426323438865
 10
106.8265543352725
 20
-138.3426323438865
 10
106.8265543352725
 20
-138.3426323438865
 10
106.8265543352725
 20
-138.3426323438865
 10
106.8265543352725
 20
-138.5477877800332
 10
106.8265543352725
 20
-138.5477877800332
 10
106.8265543352725
 20
-138.5477877800332
 10
105.7985378424739
 20
-138.5477877800332
 10
105.7985378424739
 20
-138.5477877800332
 10
105.8302327209382
 20
-138.1901868686642
 10
105.895689535158
 20
-138.1119832011491
 10
106.2808512104089
 20
-137.8136379321264
 10
106.536821804963
 20
-137.6148559226275
 10
106.6022786191827
 20
-137.5471597963423
 10
106.6022786191827
 20
-137.4097004864809
 10
106.6022786191827
 20
-137.2911892017883
 10
106.530276123541
 20
-137.1601033185745
 10
106.3335611713333
 20
-137.1601033185745
 10
106.0734564621969
 20
-137.1601033185745
 10
106.0648437234838
 20
-137.3905802065378
 10
106.0607096089015
 20
-137.5070244339392
 10
106.0607096089015
 20
-137.5070244339392
 10
105.8364338928117
 20
-137.5070244339392
 10
105.8364338928117
 20
-137.5070244339392
 10
105.8450466315248
 20
-137.3800726653078
 10
105.8557264275291
 20
-137.2679348072629
 10
105.9359971523354
 20
-137.1494235225703
 10
106.0458956983149
 20
-136.9887098181834
 10
106.2322753640669
 20
-136.9547756276537
 10
106.3483750819198
 20
-136.9547756276537
 10
106.6257052684824
 20
-136.9547756276537
 10
106.8331000166945
 20
-137.1389159813403
 10
106.8331000166945
 20
-137.411767543772
 10
106.8331000166945
 20
-137.6401773744441
 10
106.716655789293
 20
-137.7397406339678
 10
106.4076307242661
 20
-137.9660834073487
 97
        0
 97
        1
330
D2
 75
     2
 76
     1
 98
        1
 10
0.0
 20
0.0
450
        0
451
        0
460
0.0
461
0.0
452
        0
462
0.0
453
        0
470

  0
SPLINE
  5
D4
330
CE
100
AcDbEntity
  8
レイヤー 1
100
AcDbSpline
210
0.0
220
0.0
230
1.0
 70
    11
 71
     3
 72
    26
 73
    22
 74
     0
 42
0.0000000001
 43
0.0000000001
 40
0.0
 40
0.0
 40
0.0
 40
0.0
 40
1.0
 40
1.0
 40
1.0
 40
2.0
 40
2.0
 40
2.0
 40
3.0
 40
3.0
 40
3.0
 40
4.0
 40
4.0
 40
4.0
 40
5.0
 40
5.0
 40
5.0
 40
6.0
 40
6.0
 40
6.0
 40
7.0
 40
7.0
 40
7.0
 40
7.0
 10
107.4428819175837
 20
-138.5477877800332
 30
0.0
 10
107.4428819175837
 20
-138.5477877800332
 30
0.0
 10
107.4428819175837
 20
-137.4434624222363
 30
0.0
 10
107.4428819175837
 20
-137.4434624222363
 30
0.0
 10
107.4428819175837
 20
-137.4434624222363
 30
0.0
 10
107.1128417700968
 20
-137.4434624222363
 30
0.0
 10
107.1128417700968
 20
-137.4434624222363
 30
0.0
 10
107.1128417700968
 20
-137.4434624222363
 30
0.0
 10
107.1128417700968
 20
-137.2954955711448
 30
0.0
 10
107.1128417700968
 20
-137.2954955711448
 30
0.0
 10
107.4449489748749
 20
-137.2806816605583
 30
0.0
 10
107.4914577639257
 20
-137.117728644106
 30
0.0
 10
107.5210855850989
 20
-137.0035237287699
 30
0.0
 10
107.5210855850989
 20
-137.0035237287699
 30
0.0
 10
107.6671576336735
 20
-137.0035237287699
 30
0.0
 10
107.6671576336735
 20
-137.0035237287699
 30
0.0
 10
107.6671576336735
 20
-137.0035237287699
 30
0.0
 10
107.6671576336735
 20
-138.5477877800332
 30
0.0
 10
107.6671576336735
 20
-138.5477877800332
 30
0.0
 10
107.6671576336735
 20
-138.5477877800332
 30
0.0
 10
107.4428819175837
 20
-138.5477877800332
 30
0.0
 10
107.4428819175837
 20
-138.5477877800332
 30
0.0
  0
HATCH
  5
D5
330
CE
100
AcDbEntity
  8
レイヤー 1
 62
   250
420
  2299925
440
 33554687
100
AcDbHatch
 10
0.0
 20
0.0
 30
0.0
210
0.0
220
0.0
230
1.0
  2
SOLID
 70
     1
 71
     1
 91
        1
 92
        1
 93
        1
 72
     4
 94
        3
 73
     0
 74
     0
 95
       26
 96
       22
 40
0.0
 40
0.0
 40
0.0
 40
0.0
 40
1.0
 40
1.0
 40
1.0
 40
2.0
 40
2.0
 40
2.0
 40
3.0
 40
3.0
 40
3.0
 40
4.0
 40
4.0
 40
4.0
 40
5.0
 40
5.0
 40
5.0
 40
6.0
 40
6.0
 40
6.0
 40
7.0
 40
7.0
 40
7.0
 40
7.0
 10
107.4428819175837
 20
-138.5477877800332
 10
107.4428819175837
 20
-138.5477877800332
 10
107.4428819175837
 20
-137.4434624222363
 10
107.4428819175837
 20
-137.4434624222363
 10
107.4428819175837
 20
-137.4434624222363
 10
107.1128417700968
 20
-137.4434624222363
 10
107.1128417700968
 20
-137.4434624222363
 10
107.1128417700968
 20
-137.4434624222363
 10
107.1128417700968
 20
-137.2954955711448
 10
107.1128417700968
 20
-137.2954955711448
 10
107.4449489748749
 20
-137.2806816605583
 10
107.4914577639257
 20
-137.117728644106
 10
107.5210855850989
 20
-137.0035237287699
 10
107.5210855850989
 20
-137.0035237287699
 10
107.6671576336735
 20
-137.0035237287699
 10
107.6671576336735
 20
-137.0035237287699
 10
107.6671576336735
 20
-137.0035237287699
 10
107.6671576336735
 20
-138.5477877800332
 10
107.6671576336735
 20
-138.5477877800332
 10
107.6671576336735
 20
-138.5477877800332
 10
107.4428819175837
 20
-138.5477877800332
 10
107.4428819175837
 20
-138.5477877800332
 97
        0
 97
        1
330
D4
 75
     2
 76
     1
 98
        1
 10
0.0
 20
0.0
450
        0
451
        0
460
0.0
461
0.0
452
        0
462
0.0
453
        0
470

  0
ENDBLK
  5
D1
330
CE
100
AcDbEntity
  8
0
100
AcDbBlockEnd
  0
BLOCK
  5
DA
330
D8
100
AcDbEntity
  8
0
100
AcDbBlockBegin
  2
Block_5
 70
     0
 10
0.0
 20
0.0
 30
0.0
  3
Block_5
  1

  0
SPLINE
  5
DC
330
D8
100
AcDbEntity
  8
レイヤー 1
100
AcDbSpline
210
0.0
220
0.0
230
1.0
 70
     9
 71
     3
 72
    17
 73
    13
 74
     0
 42
0.0000000001
 43
0.0000000001
 40
0.0
 40
0.0
 40
0.0
 40
0.0
 40
1.0
 40
1.0
 40
1.0
 40
2.0
 40
2.0
 40
2.0
 40
3.0
 40
3.0
 40
3.0
 40
4.0
 40
4.0
 40
4.0
 40
4.0
 10
91.02493487307709
 20
-149.2649630703226
 30
0.0
 10
91.02493487307709
 20
-149.4086235520575
 30
0.0
 10
91.11157902453113
 20
-149.5612412820541
 30
0.0
 10
91.31466740338662
 20
-149.5612412820541
 30
0.0
 10
91.51982283953325
 20
-149.5612412820541
 30
0.0
 10
91.62145315634811
 20
-149.4341172586484
 30
0.0
 10
91.62145315634811
 20
-149.2649630703226
 30
0.0
 10
91.62145315634811
 20
-149.0789279141191
 30
0.0
 10
91.49880775707321
 20
-148.9686848585911
 30
0.0
 10
91.32104083003431
 20
-148.9686848585911
 30
0.0
 10
91.09883217123572
 20
-148.9686848585911
 30
0.0
 10
91.02493487307709
 20
-149.1316378750435
 30
0.0
 10
91.02493487307709
 20
-149.2649630703226
 30
0.0
  0
SPLINE
  5
DD
330
D8
100
AcDbEntity
  8
レイヤー 1
100
AcDbSpline
210
0.0
220
0.0
230
1.0
 70
     9
 71
     3
 72
    17
 73
    13
 74
     0
 42
0.0000000001
 43
0.0000000001
 40
0.0
 40
0.0
 40
0.0
 40
0.0
 40
1.0
 40
1.0
 40
1.0
 40
2.0
 40
2.0
 40
2.0
 40
3.0
 40
3.0
 40
3.0
 40
4.0
 40
4.0
 40
4.0
 40
4.0
 10
90.36485457810323
 20
-149.2649630703226
 30
0.0
 10
90.36485457810323
 20
-149.4299831440661
 30
0.0
 10
90.45993921349612
 20
-149.5143879834547
 30
0.0
 10
90.59533146606645
 20
-149.5143879834547
 30
0.0
 10
90.71814912011561
 20
-149.5143879834547
 30
0.0
 10
90.83666040480819
 20
-149.4427299973615
 30
0.0
 10
90.83666040480819
 20
-149.2649630703226
 30
0.0
 10
90.83666040480819
 20
-149.0871961432837
 30
0.0
 10
90.71814912011561
 20
-149.015193647642
 30
0.0
 10
90.59533146606645
 20
-149.015193647642
 30
0.0
 10
90.45993921349612
 20
-149.015193647642
 30
0.0
 10
90.36485457810323
 20
-149.1020100538703
 30
0.0
 10
90.36485457810323
 20
-149.2649630703226
 30
0.0
  0
SPLINE
  5
DE
330
D8
100
AcDbEntity
  8
レイヤー 1
100
AcDbSpline
210
0.0
220
0.0
230
1.0
 70
     9
 71
     3
 72
    29
 73
    25
 74
     0
 42
0.0000000001
 43
0.0000000001
 40
0.0
 40
0.0
 40
0.0
 40
0.0
 40
1.0
 40
1.0
 40
1.0
 40
2.0
 40
2.0
 40
2.0
 40
3.0
 40
3.0
 40
3.0
 40
4.0
 40
4.0
 40
4.0
 40
5.0
 40
5.0
 40
5.0
 40
6.0
 40
6.0
 40
6.0
 40
7.0
 40
7.0
 40
7.0
 40
8.0
 40
8.0
 40
8.0
 40
8.0
 10
91.81610105126472
 20
-149.2649630703226
 30
0.0
 10
91.81610105126472
 20
-149.531613460881
 30
0.0
 10
91.678469486629
 20
-149.7851724885953
 30
0.0
 10
91.32948131397318
 20
-149.7851724885953
 30
0.0
 10
91.07351071941913
 20
-149.7851724885953
 30
0.0
 10
90.97825382925197
 20
-149.6435790641516
 30
0.0
 10
90.91693112961452
 20
-149.5378146327544
 30
0.0
 10
90.85767548726822
 20
-149.6625270893205
 30
0.0
 10
90.7434705719322
 20
-149.7386636995445
 30
0.0
 10
90.58275686754528
 20
-149.7386636995445
 30
0.0
 10
90.3076659930481
 20
-149.7386636995445
 30
0.0
 10
90.17227374047775
 20
-149.5398816900456
 30
0.0
 10
90.17227374047775
 20
-149.2649630703226
 30
0.0
 10
90.17227374047775
 20
-148.9814317118866
 30
0.0
 10
90.31610647698695
 20
-148.7910901863265
 30
0.0
 10
90.58275686754528
 20
-148.7910901863265
 30
0.0
 10
90.7434705719322
 20
-148.7910901863265
 30
0.0
 10
90.85767548726822
 20
-148.8692938538417
 30
0.0
 10
90.91693112961452
 20
-148.994178565182
 30
0.0
 10
90.96774628802196
 20
-148.9052951016625
 30
0.0
 10
91.06300317818911
 20
-148.7466484545668
 30
0.0
 10
91.32534719939089
 20
-148.7466484545668
 30
0.0
 10
91.69965682386328
 20
-148.7466484545668
 30
0.0
 10
91.81610105126472
 20
-149.0258734436463
 30
0.0
 10
91.81610105126472
 20
-149.2649630703226
 30
0.0
  0
HATCH
  5
DF
330
D8
100
AcDbEntity
  8
レイヤー 1
 62
   250
420
  2299925
440
 33554687
100
AcDbHatch
 10
0.0
 20
0.0
 30
0.0
210
0.0
220
0.0
230
1.0
  2
SOLID
 70
     1
 71
     1
 91
        3
 92
        1
 93
        1
 72
     4
 94
        3
 73
     0
 74
     0
 95
       17
 96
       13
 40
0.0
 40
0.0
 40
0.0
 40
0.0
 40
1.0
 40
1.0
 40
1.0
 40
2.0
 40
2.0
 40
2.0
 40
3.0
 40
3.0
 40
3.0
 40
4.0
 40
4.0
 40
4.0
 40
4.0
 10
91.02493487307709
 20
-149.2649630703226
 10
91.02493487307709
 20
-149.4086235520575
 10
91.11157902453113
 20
-149.5612412820541
 10
91.31466740338662
 20
-149.5612412820541
 10
91.51982283953325
 20
-149.5612412820541
 10
91.62145315634811
 20
-149.4341172586484
 10
91.62145315634811
 20
-149.2649630703226
 10
91.62145315634811
 20
-149.0789279141191
 10
91.49880775707321
 20
-148.9686848585911
 10
91.32104083003431
 20
-148.9686848585911
 10
91.09883217123572
 20
-148.9686848585911
 10
91.02493487307709
 20
-149.1316378750435
 10
91.02493487307709
 20
-149.2649630703226
 97
        0
 97
        1
330
DC
 92
        1
 93
        1
 72
     4
 94
        3
 73
     0
 74
     0
 95
       17
 96
       13
 40
0.0
 40
0.0
 40
0.0
 40
0.0
 40
1.0
 40
1.0
 40
1.0
 40
2.0
 40
2.0
 40
2.0
 40
3.0
 40
3.0
 40
3.0
 40
4.0
 40
4.0
 40
4.0
 40
4.0
 10
90.36485457810323
 20
-149.2649630703226
 10
90.36485457810323
 20
-149.4299831440661
 10
90.45993921349612
 20
-149.5143879834547
 10
90.59533146606645
 20
-149.5143879834547
 10
90.71814912011561
 20
-149.5143879834547
 10
90.83666040480819
 20
-149.4427299973615
 10
90.83666040480819
 20
-149.2649630703226
 10
90.83666040480819
 20
-149.0871961432837
 10
90.71814912011561
 20
-149.015193647642
 10
90.59533146606645
 20
-149.015193647642
 10
90.45993921349612
 20
-149.015193647642
 10
90.36485457810323
 20
-149.1020100538703
 10
90.36485457810323
 20
-149.2649630703226
 97
        0
 97
        1
330
DD
 92
        1
 93
        1
 72
     4
 94
        3
 73
     0
 74
     0
 95
       29
 96
       25
 40
0.0
 40
0.0
 40
0.0
 40
0.0
 40
1.0
 40
1.0
 40
1.0
 40
2.0
 40
2.0
 40
2.0
 40
3.0
 40
3.0
 40
3.0
 40
4.0
 40
4.0
 40
4.0
 40
5.0
 40
5.0
 40
5.0
 40
6.0
 40
6.0
 40
6.0
 40
7.0
 40
7.0
 40
7.0
 40
8.0
 40
8.0
 40
8.0
 40
8.0
 10
91.81610105126472
 20
-149.2649630703226
 10
91.81610105126472
 20
-149.531613460881
 10
91.678469486629
 20
-149.7851724885953
 10
91.32948131397318
 20
-149.7851724885953
 10
91.07351071941913
 20
-149.7851724885953
 10
90.97825382925197
 20
-149.6435790641516
 10
90.91693112961452
 20
-149.5378146327544
 10
90.85767548726822
 20
-149.6625270893205
 10
90.7434705719322
 20
-149.7386636995445
 10
90.58275686754528
 20
-149.7386636995445
 10
90.3076659930481
 20
-149.7386636995445
 10
90.17227374047775
 20
-149.5398816900456
 10
90.17227374047775
 20
-149.2649630703226
 10
90.17227374047775
 20
-148.9814317118866
 10
90.31610647698695
 20
-148.7910901863265
 10
90.58275686754528
 20
-148.7910901863265
 10
90.7434705719322
 20
-148.7910901863265
 10
90.85767548726822
 20
-148.8692938538417
 10
90.91693112961452
 20
-148.994178565182
 10
90.96774628802196
 20
-148.9052951016625
 10
91.06300317818911
 20
-148.7466484545668
 10
91.32534719939089
 20
-148.7466484545668
 10
91.69965682386328
 20
-148.7466484545668
 10
91.81610105126472
 20
-149.0258734436463
 10
91.81610105126472
 20
-149.2649630703226
 97
        0
 97
        1
330
DE
 75
     2
 76
     1
 98
        1
 10
0.0
 20
0.0
450
        0
451
        0
460
0.0
461
0.0
452
        0
462
0.0
453
        0
470

  0
ENDBLK
  5
DB
330
D8
100
AcDbEntity
  8
0
100
AcDbBlockEnd
  0
BLOCK
  5
E5
330
E3
100
AcDbEntity
  8
0
100
AcDbBlockBegin
  2
Block_6
 70
     0
 10
0.0
 20
0.0
 30
0.0
  3
Block_6
  1

  0
INSERT
  5
E8
330
E3
100
AcDbEntity
  8
レイヤー 1
100
AcDbBlockReference
  2
Block_7
 10
0.0
 20
0.0
 30
0.0
  0
ENDBLK
  5
E6
330
E3
100
AcDbEntity
  8
0
100
AcDbBlockEnd
  0
BLOCK
  5
E9
330
E7
100
AcDbEntity
  8
0
100
AcDbBlockBegin
  2
Block_7
 70
     0
 10
0.0
 20
0.0
 30
0.0
  3
Block_7
  1

  0
SPLINE
  5
EB
330
E7
100
AcDbEntity
  8
レイヤー 1
100
AcDbSpline
210
0.0
220
0.0
230
1.0
 70
    11
 71
     3
 72
    26
 73
    22
 74
     0
 42
0.0000000001
 43
0.0000000001
 40
0.0
 40
0.0
 40
0.0
 40
0.0
 40
1.0
 40
1.0
 40
1.0
 40
2.0
 40
2.0
 40
2.0
 40
3.0
 40
3.0
 40
3.0
 40
4.0
 40
4.0
 40
4.0
 40
5.0
 40
5.0
 40
5.0
 40
6.0
 40
6.0
 40
6.0
 40
7.0
 40
7.0
 40
7.0
 40
7.0
 10
117.3578667241327
 20
-138.548304544356
 30
0.0
 10
117.3578667241327
 20
-138.548304544356
 30
0.0
 10
117.3578667241327
 20
-137.4439791865591
 30
0.0
 10
117.3578667241327
 20
-137.4439791865591
 30
0.0
 10
117.3578667241327
 20
-137.4439791865591
 30
0.0
 10
117.0278265766458
 20
-137.4439791865591
 30
0.0
 10
117.0278265766458
 20
-137.4439791865591
 30
0.0
 10
117.0278265766458
 20
-137.4439791865591
 30
0.0
 10
117.0278265766458
 20
-137.2958400806934
 30
0.0
 10
117.0278265766458
 20
-137.2958400806934
 30
0.0
 10
117.3599337814239
 20
-137.2811984248811
 30
0.0
 10
117.4064425704748
 20
-137.1182454084288
 30
0.0
 10
117.4360703916479
 20
-137.0040404930927
 30
0.0
 10
117.4360703916479
 20
-137.0040404930927
 30
0.0
 10
117.5821424402225
 20
-137.0040404930927
 30
0.0
 10
117.5821424402225
 20
-137.0040404930927
 30
0.0
 10
117.5821424402225
 20
-137.0040404930927
 30
0.0
 10
117.5821424402225
 20
-138.548304544356
 30
0.0
 10
117.5821424402225
 20
-138.548304544356
 30
0.0
 10
117.5821424402225
 20
-138.548304544356
 30
0.0
 10
117.3578667241327
 20
-138.548304544356
 30
0.0
 10
117.3578667241327
 20
-138.548304544356
 30
0.0
  0
HATCH
  5
EC
330
E7
100
AcDbEntity
  8
レイヤー 1
 62
   250
420
  2299925
440
 33554687
100
AcDbHatch
 10
0.0
 20
0.0
 30
0.0
210
0.0
220
0.0
230
1.0
  2
SOLID
 70
     1
 71
     1
 91
        1
 92
        1
 93
        1
 72
     4
 94
        3
 73
     0
 74
     0
 95
       26
 96
       22
 40
0.0
 40
0.0
 40
0.0
 40
0.0
 40
1.0
 40
1.0
 40
1.0
 40
2.0
 40
2.0
 40
2.0
 40
3.0
 40
3.0
 40
3.0
 40
4.0
 40
4.0
 40
4.0
 40
5.0
 40
5.0
 40
5.0
 40
6.0
 40
6.0
 40
6.0
 40
7.0
 40
7.0
 40
7.0
 40
7.0
 10
117.3578667241327
 20
-138.548304544356
 10
117.3578667241327
 20
-138.548304544356
 10
117.3578667241327
 20
-137.4439791865591
 10
117.3578667241327
 20
-137.4439791865591
 10
117.3578667241327
 20
-137.4439791865591
 10
117.0278265766458
 20
-137.4439791865591
 10
117.0278265766458
 20
-137.4439791865591
 10
117.0278265766458
 20
-137.4439791865591
 10
117.0278265766458
 20
-137.2958400806934
 10
117.0278265766458
 20
-137.2958400806934
 10
117.3599337814239
 20
-137.2811984248811
 10
117.4064425704748
 20
-137.1182454084288
 10
117.4360703916479
 20
-137.0040404930927
 10
117.4360703916479
 20
-137.0040404930927
 10
117.5821424402225
 20
-137.0040404930927
 10
117.5821424402225
 20
-137.0040404930927
 10
117.5821424402225
 20
-137.0040404930927
 10
117.5821424402225
 20
-138.548304544356
 10
117.5821424402225
 20
-138.548304544356
 10
117.5821424402225
 20
-138.548304544356
 10
117.3578667241327
 20
-138.548304544356
 10
117.3578667241327
 20
-138.548304544356
 97
        0
 97
        1
330
EB
 75
     2
 76
     1
 98
        1
 10
0.0
 20
0.0
450
        0
451
        0
460
0.0
461
0.0
452
        0
462
0.0
453
        0
470

  0
SPLINE
  5
ED
330
E7
100
AcDbEntity
  8
レイヤー 1
100
AcDbSpline
210
0.0
220
0.0
230
1.0
 70
    11
 71
     3
 72
    17
 73
    13
 74
     0
 42
0.0000000001
 43
0.0000000001
 40
0.0
 40
0.0
 40
0.0
 40
0.0
 40
1.0
 40
1.0
 40
1.0
 40
2.0
 40
2.0
 40
2.0
 40
3.0
 40
3.0
 40
3.0
 40
4.0
 40
4.0
 40
4.0
 40
4.0
 10
118.1433484947697
 20
-138.548304544356
 30
0.0
 10
118.1433484947697
 20
-138.548304544356
 30
0.0
 10
118.1433484947697
 20
-138.2966403191585
 30
0.0
 10
118.1433484947697
 20
-138.2966403191585
 30
0.0
 10
118.1433484947697
 20
-138.2966403191585
 30
0.0
 10
118.3951849747415
 20
-138.2966403191585
 30
0.0
 10
118.3951849747415
 20
-138.2966403191585
 30
0.0
 10
118.3951849747415
 20
-138.2966403191585
 30
0.0
 10
118.3951849747415
 20
-138.548304544356
 30
0.0
 10
118.3951849747415
 20
-138.548304544356
 30
0.0
 10
118.3951849747415
 20
-138.548304544356
 30
0.0
 10
118.1433484947697
 20
-138.548304544356
 30
0.0
 10
118.1433484947697
 20
-138.548304544356
 30
0.0
  0
HATCH
  5
EE
330
E7
100
AcDbEntity
  8
レイヤー 1
 62
   250
420
  2299925
440
 33554687
100
AcDbHatch
 10
0.0
 20
0.0
 30
0.0
210
0.0
220
0.0
230
1.0
  2
SOLID
 70
     1
 71
     1
 91
        1
 92
        1
 93
        1
 72
     4
 94
        3
 73
     0
 74
     0
 95
       17
 96
       13
 40
0.0
 40
0.0
 40
0.0
 40
0.0
 40
1.0
 40
1.0
 40
1.0
 40
2.0
 40
2.0
 40
2.0
 40
3.0
 40
3.0
 40
3.0
 40
4.0
 40
4.0
 40
4.0
 40
4.0
 10
118.1433484947697
 20
-138.548304544356
 10
118.1433484947697
 20
-138.548304544356
 10
118.1433484947697
 20
-138.2966403191585
 10
118.1433484947697
 20
-138.2966403191585
 10
118.1433484947697
 20
-138.2966403191585
 10
118.3951849747415
 20
-138.2966403191585
 10
118.3951849747415
 20
-138.2966403191585
 10
118.3951849747415
 20
-138.2966403191585
 10
118.3951849747415
 20
-138.548304544356
 10
118.3951849747415
 20
-138.548304544356
 10
118.3951849747415
 20
-138.548304544356
 10
118.1433484947697
 20
-138.548304544356
 10
118.1433484947697
 20
-138.548304544356
 97
        0
 97
        1
330
ED
 75
     2
 76
     1
 98
        1
 10
0.0
 20
0.0
450
        0
451
        0
460
0.0
461
0.0
452
        0
462
0.0
453
        0
470

  0
SPLINE
  5
EF
330
E7
100
AcDbEntity
  8
レイヤー 1
100
AcDbSpline
210
0.0
220
0.0
230
1.0
 70
     9
 71
     3
 72
    53
 73
    49
 74
     0
 42
0.0000000001
 43
0.0000000001
 40
0.0
 40
0.0
 40
0.0
 40
0.0
 40
1.0
 40
1.0
 40
1.0
 40
2.0
 40
2.0
 40
2.0
 40
3.0
 40
3.0
 40
3.0
 40
4.0
 40
4.0
 40
4.0
 40
5.0
 40
5.0
 40
5.0
 40
6.0
 40
6.0
 40
6.0
 40
7.0
 40
7.0
 40
7.0
 40
8.0
 40
8.0
 40
8.0
 40
9.0
 40
9.0
 40
9.0
 40
10.0
 40
10.0
 40
10.0
 40
11.0
 40
11.0
 40
11.0
 40
12.0
 40
12.0
 40
12.0
 40
13.0
 40
13.0
 40
13.0
 40
14.0
 40
14.0
 40
14.0
 40
15.0
 40
15.0
 40
15.0
 40
16.0
 40
16.0
 40
16.0
 40
16.0
 10
119.1124538547705
 20
-138.5991197027634
 30
0.0
 10
119.0342501872553
 20
-138.5991197027634
 30
0.0
 10
118.9326198704404
 20
-138.5822387348857
 30
0.0
 10
118.8309895536256
 20
-138.5186767231828
 30
0.0
 10
118.6577012507175
 20
-138.4086059224291
 30
0.0
 10
118.636341658709
 20
-138.2775200392153
 30
0.0
 10
118.6173936335401
 20
-138.169688550527
 30
0.0
 10
118.6173936335401
 20
-138.169688550527
 30
0.0
 10
118.8396022923387
 20
-138.169688550527
 30
0.0
 10
118.8396022923387
 20
-138.169688550527
 30
0.0
 10
118.8943793105542
 20
-138.3684705600259
 30
0.0
 10
119.0215033339599
 20
-138.3980983811991
 30
0.0
 10
119.1145209120616
 20
-138.3980983811991
 30
0.0
 10
119.2540472792142
 20
-138.3980983811991
 30
0.0
 10
119.4063204996623
 20
-138.2987073764496
 30
0.0
 10
119.4063204996623
 20
-138.065991176421
 30
0.0
 10
119.4063204996623
 20
-137.8100205818669
 30
0.0
 10
119.2264865153322
 20
-137.7402573982906
 30
0.0
 10
119.1059081733485
 20
-137.7402573982906
 30
0.0
 10
119.0742132948842
 20
-137.7402573982906
 30
0.0
 10
118.9326198704404
 20
-137.7402573982906
 30
0.0
 10
118.843736406921
 20
-137.8692762242132
 30
0.0
 10
118.843736406921
 20
-137.8692762242132
 30
0.0
 10
118.6680365371733
 20
-137.8501559442701
 30
0.0
 10
118.6680365371733
 20
-137.8501559442701
 30
0.0
 10
118.6680365371733
 20
-137.8501559442701
 30
0.0
 10
118.788614879157
 20
-137.0040404930927
 30
0.0
 10
118.788614879157
 20
-137.0040404930927
 30
0.0
 10
118.788614879157
 20
-137.0040404930927
 30
0.0
 10
119.5672064588235
 20
-137.0040404930927
 30
0.0
 10
119.5672064588235
 20
-137.0040404930927
 30
0.0
 10
119.5672064588235
 20
-137.0040404930927
 30
0.0
 10
119.5672064588235
 20
-137.1986883880093
 30
0.0
 10
119.5672064588235
 20
-137.1986883880093
 30
0.0
 10
119.5672064588235
 20
-137.1986883880093
 30
0.0
 10
118.9515678956093
 20
-137.1986883880093
 30
0.0
 10
118.9515678956093
 20
-137.1986883880093
 30
0.0
 10
118.9515678956093
 20
-137.1986883880093
 30
0.0
 10
118.8861110813896
 20
-137.621746113598
 30
0.0
 10
118.8861110813896
 20
-137.621746113598
 30
0.0
 10
118.947433781027
 20
-137.5878119230683
 30
0.0
 10
119.0297715631245
 20
-137.5476765606651
 30
0.0
 10
119.1482828478171
 20
-137.5476765606651
 30
0.0
 10
119.40218638508
 20
-137.5476765606651
 30
0.0
 10
119.6392089544652
 20
-137.7338839716429
 30
0.0
 10
119.6392089544652
 20
-138.0468708964779
 30
0.0
 10
119.6392089544652
 20
-138.3643364454436
 30
0.0
 10
119.4149332383754
 20
-138.5991197027634
 30
0.0
 10
119.1124538547705
 20
-138.5991197027634
 30
0.0
  0
HATCH
  5
F0
330
E7
100
AcDbEntity
  8
レイヤー 1
 62
   250
420
  2299925
440
 33554687
100
AcDbHatch
 10
0.0
 20
0.0
 30
0.0
210
0.0
220
0.0
230
1.0
  2
SOLID
 70
     1
 71
     1
 91
        1
 92
        1
 93
        1
 72
     4
 94
        3
 73
     0
 74
     0
 95
       53
 96
       49
 40
0.0
 40
0.0
 40
0.0
 40
0.0
 40
1.0
 40
1.0
 40
1.0
 40
2.0
 40
2.0
 40
2.0
 40
3.0
 40
3.0
 40
3.0
 40
4.0
 40
4.0
 40
4.0
 40
5.0
 40
5.0
 40
5.0
 40
6.0
 40
6.0
 40
6.0
 40
7.0
 40
7.0
 40
7.0
 40
8.0
 40
8.0
 40
8.0
 40
9.0
 40
9.0
 40
9.0
 40
10.0
 40
10.0
 40
10.0
 40
11.0
 40
11.0
 40
11.0
 40
12.0
 40
12.0
 40
12.0
 40
13.0
 40
13.0
 40
13.0
 40
14.0
 40
14.0
 40
14.0
 40
15.0
 40
15.0
 40
15.0
 40
16.0
 40
16.0
 40
16.0
 40
16.0
 10
119.1124538547705
 20
-138.5991197027634
 10
119.0342501872553
 20
-138.5991197027634
 10
118.9326198704404
 20
-138.5822387348857
 10
118.8309895536256
 20
-138.5186767231828
 10
118.6577012507175
 20
-138.4086059224291
 10
118.636341658709
 20
-138.2775200392153
 10
118.6173936335401
 20
-138.169688550527
 10
118.6173936335401
 20
-138.169688550527
 10
118.8396022923387
 20
-138.169688550527
 10
118.8396022923387
 20
-138.169688550527
 10
118.8943793105542
 20
-138.3684705600259
 10
119.0215033339599
 20
-138.3980983811991
 10
119.1145209120616
 20
-138.3980983811991
 10
119.2540472792142
 20
-138.3980983811991
 10
119.4063204996623
 20
-138.2987073764496
 10
119.4063204996623
 20
-138.065991176421
 10
119.4063204996623
 20
-137.8100205818669
 10
119.2264865153322
 20
-137.7402573982906
 10
119.1059081733485
 20
-137.7402573982906
 10
119.0742132948842
 20
-137.7402573982906
 10
118.9326198704404
 20
-137.7402573982906
 10
118.843736406921
 20
-137.8692762242132
 10
118.843736406921
 20
-137.8692762242132
 10
118.6680365371733
 20
-137.8501559442701
 10
118.6680365371733
 20
-137.8501559442701
 10
118.6680365371733
 20
-137.8501559442701
 10
118.788614879157
 20
-137.0040404930927
 10
118.788614879157
 20
-137.0040404930927
 10
118.788614879157
 20
-137.0040404930927
 10
119.5672064588235
 20
-137.0040404930927
 10
119.5672064588235
 20
-137.0040404930927
 10
119.5672064588235
 20
-137.0040404930927
 10
119.5672064588235
 20
-137.1986883880093
 10
119.5672064588235
 20
-137.1986883880093
 10
119.5672064588235
 20
-137.1986883880093
 10
118.9515678956093
 20
-137.1986883880093
 10
118.9515678956093
 20
-137.1986883880093
 10
118.9515678956093
 20
-137.1986883880093
 10
118.8861110813896
 20
-137.621746113598
 10
118.8861110813896
 20
-137.621746113598
 10
118.947433781027
 20
-137.5878119230683
 10
119.0297715631245
 20
-137.5476765606651
 10
119.1482828478171
 20
-137.5476765606651
 10
119.40218638508
 20
-137.5476765606651
 10
119.6392089544652
 20
-137.7338839716429
 10
119.6392089544652
 20
-138.0468708964779
 10
119.6392089544652
 20
-138.3643364454436
 10
119.4149332383754
 20
-138.5991197027634
 10
119.1124538547705
 20
-138.5991197027634
 97
        0
 97
        1
330
EF
 75
     2
 76
     1
 98
        1
 10
0.0
 20
0.0
450
        0
451
        0
460
0.0
461
0.0
452
        0
462
0.0
453
        0
470

  0
ENDBLK
  5
EA
330
E7
100
AcDbEntity
  8
0
100
AcDbBlockEnd
  0
BLOCK
  5
F7
330
F5
100
AcDbEntity
  8
0
100
AcDbBlockBegin
  2
Block_8
 70
     0
 10
0.0
 20
0.0
 30
0.0
  3
Block_8
  1

  0
INSERT
  5
FA
330
F5
100
AcDbEntity
  8
レイヤー 1
100
AcDbBlockReference
  2
Block_9
 10
0.0
 20
0.0
 30
0.0
  0
ENDBLK
  5
F8
330
F5
100
AcDbEntity
  8
0
100
AcDbBlockEnd
  0
BLOCK
  5
FB
330
F9
100
AcDbEntity
  8
0
100
AcDbBlockBegin
  2
Block_9
 70
     0
 10
0.0
 20
0.0
 30
0.0
  3
Block_9
  1

  0
SPLINE
  5
FD
330
F9
100
AcDbEntity
  8
レイヤー 1
100
AcDbSpline
210
0.0
220
0.0
230
1.0
 70
     9
 71
     3
 72
    44
 73
    40
 74
     0
 42
0.0000000001
 43
0.0000000001
 40
0.0
 40
0.0
 40
0.0
 40
0.0
 40
1.0
 40
1.0
 40
1.0
 40
2.0
 40
2.0
 40
2.0
 40
3.0
 40
3.0
 40
3.0
 40
4.0
 40
4.0
 40
4.0
 40
5.0
 40
5.0
 40
5.0
 40
6.0
 40
6.0
 40
6.0
 40
7.0
 40
7.0
 40
7.0
 40
8.0
 40
8.0
 40
8.0
 40
9.0
 40
9.0
 40
9.0
 40
10.0
 40
10.0
 40
10.0
 40
11.0
 40
11.0
 40
11.0
 40
12.0
 40
12.0
 40
12.0
 40
13.0
 40
13.0
 40
13.0
 40
13.0
 10
116.9775281825611
 20
-159.6763861362962
 30
0.0
 10
116.7597981478934
 20
-159.8352050381662
 30
0.0
 10
116.6667805697916
 20
-159.9092745910991
 30
0.0
 10
116.6178602139011
 20
-160.052935072834
 30
0.0
 10
116.6178602139011
 20
-160.052935072834
 30
0.0
 10
117.3964517935675
 20
-160.052935072834
 30
0.0
 10
117.3964517935675
 20
-160.052935072834
 30
0.0
 10
117.3964517935675
 20
-160.052935072834
 30
0.0
 10
117.3964517935675
 20
-160.2582627637549
 30
0.0
 10
117.3964517935675
 20
-160.2582627637549
 30
0.0
 10
117.3964517935675
 20
-160.2582627637549
 30
0.0
 10
116.368435300769
 20
-160.2582627637549
 30
0.0
 10
116.368435300769
 20
-160.2582627637549
 30
0.0
 10
116.4001301792333
 20
-159.9006618523859
 30
0.0
 10
116.465586993453
 20
-159.8224581848708
 30
0.0
 10
116.850748668704
 20
-159.5241129158481
 30
0.0
 10
117.106719263258
 20
-159.3253309063492
 30
0.0
 10
117.1721760774778
 20
-159.2574625252898
 30
0.0
 10
117.1721760774778
 20
-159.1200032154283
 30
0.0
 10
117.1721760774778
 20
-159.0014919307357
 30
0.0
 10
117.1001735818361
 20
-158.8705783022962
 30
0.0
 10
116.9034586296283
 20
-158.8705783022962
 30
0.0
 10
116.6433539204919
 20
-158.8705783022962
 30
0.0
 10
116.6347411817788
 20
-159.1010551902594
 30
0.0
 10
116.6306070671965
 20
-159.2174994176609
 30
0.0
 10
116.6306070671965
 20
-159.2174994176609
 30
0.0
 10
116.4063313511067
 20
-159.2174994176609
 30
0.0
 10
116.4063313511067
 20
-159.2174994176609
 30
0.0
 10
116.4149440898199
 20
-159.0903753942552
 30
0.0
 10
116.4256238858241
 20
-158.9784097909846
 30
0.0
 10
116.5058946106305
 20
-158.859898506292
 30
0.0
 10
116.6157931566099
 20
-158.6990125471308
 30
0.0
 10
116.8021728223619
 20
-158.6652506113753
 30
0.0
 10
116.9182725402149
 20
-158.6652506113753
 30
0.0
 10
117.1956027267775
 20
-158.6652506113753
 30
0.0
 10
117.4029974749895
 20
-158.8492187102877
 30
0.0
 10
117.4029974749895
 20
-159.1220702727195
 30
0.0
 10
117.4029974749895
 20
-159.3508246129401
 30
0.0
 10
117.2865532475881
 20
-159.4500433629152
 30
0.0
 10
116.9775281825611
 20
-159.6763861362962
 30
0.0
  0
HATCH
  5
FE
330
F9
100
AcDbEntity
  8
レイヤー 1
 62
   250
420
  2299925
440
 33554687
100
AcDbHatch
 10
0.0
 20
0.0
 30
0.0
210
0.0
220
0.0
230
1.0
  2
SOLID
 70
     1
 71
     1
 91
        1
 92
        1
 93
        1
 72
     4
 94
        3
 73
     0
 74
     0
 95
       44
 96
       40
 40
0.0
 40
0.0
 40
0.0
 40
0.0
 40
1.0
 40
1.0
 40
1.0
 40
2.0
 40
2.0
 40
2.0
 40
3.0
 40
3.0
 40
3.0
 40
4.0
 40
4.0
 40
4.0
 40
5.0
 40
5.0
 40
5.0
 40
6.0
 40
6.0
 40
6.0
 40
7.0
 40
7.0
 40
7.0
 40
8.0
 40
8.0
 40
8.0
 40
9.0
 40
9.0
 40
9.0
 40
10.0
 40
10.0
 40
10.0
 40
11.0
 40
11.0
 40
11.0
 40
12.0
 40
12.0
 40
12.0
 40
13.0
 40
13.0
 40
13.0
 40
13.0
 10
116.9775281825611
 20
-159.6763861362962
 10
116.7597981478934
 20
-159.8352050381662
 10
116.6667805697916
 20
-159.9092745910991
 10
116.6178602139011
 20
-160.052935072834
 10
116.6178602139011
 20
-160.052935072834
 10
117.3964517935675
 20
-160.052935072834
 10
117.3964517935675
 20
-160.052935072834
 10
117.3964517935675
 20
-160.052935072834
 10
117.3964517935675
 20
-160.2582627637549
 10
117.3964517935675
 20
-160.2582627637549
 10
117.3964517935675
 20
-160.2582627637549
 10
116.368435300769
 20
-160.2582627637549
 10
116.368435300769
 20
-160.2582627637549
 10
116.4001301792333
 20
-159.9006618523859
 10
116.465586993453
 20
-159.8224581848708
 10
116.850748668704
 20
-159.5241129158481
 10
117.106719263258
 20
-159.3253309063492
 10
117.1721760774778
 20
-159.2574625252898
 10
117.1721760774778
 20
-159.1200032154283
 10
117.1721760774778
 20
-159.0014919307357
 10
117.1001735818361
 20
-158.8705783022962
 10
116.9034586296283
 20
-158.8705783022962
 10
116.6433539204919
 20
-158.8705783022962
 10
116.6347411817788
 20
-159.1010551902594
 10
116.6306070671965
 20
-159.2174994176609
 10
116.6306070671965
 20
-159.2174994176609
 10
116.4063313511067
 20
-159.2174994176609
 10
116.4063313511067
 20
-159.2174994176609
 10
116.4149440898199
 20
-159.0903753942552
 10
116.4256238858241
 20
-158.9784097909846
 10
116.5058946106305
 20
-158.859898506292
 10
116.6157931566099
 20
-158.6990125471308
 10
116.8021728223619
 20
-158.6652506113753
 10
116.9182725402149
 20
-158.6652506113753
 10
117.1956027267775
 20
-158.6652506113753
 10
117.4029974749895
 20
-158.8492187102877
 10
117.4029974749895
 20
-159.1220702727195
 10
117.4029974749895
 20
-159.3508246129401
 10
117.2865532475881
 20
-159.4500433629152
 10
116.9775281825611
 20
-159.6763861362962
 97
        0
 97
        1
330
FD
 75
     2
 76
     1
 98
        1
 10
0.0
 20
0.0
450
        0
451
        0
460
0.0
461
0.0
452
        0
462
0.0
453
        0
470

  0
SPLINE
  5
FF
330
F9
100
AcDbEntity
  8
レイヤー 1
100
AcDbSpline
210
0.0
220
0.0
230
1.0
 70
    11
 71
     3
 72
    17
 73
    13
 74
     0
 42
0.0000000001
 43
0.0000000001
 40
0.0
 40
0.0
 40
0.0
 40
0.0
 40
1.0
 40
1.0
 40
1.0
 40
2.0
 40
2.0
 40
2.0
 40
3.0
 40
3.0
 40
3.0
 40
4.0
 40
4.0
 40
4.0
 40
4.0
 10
117.6214165287543
 20
-160.2582627637549
 30
0.0
 10
117.6214165287543
 20
-160.2582627637549
 30
0.0
 10
117.6214165287543
 20
-160.0064262837831
 30
0.0
 10
117.6214165287543
 20
-160.0064262837831
 30
0.0
 10
117.6214165287543
 20
-160.0064262837831
 30
0.0
 10
117.8732530087261
 20
-160.0064262837831
 30
0.0
 10
117.8732530087261
 20
-160.0064262837831
 30
0.0
 10
117.8732530087261
 20
-160.0064262837831
 30
0.0
 10
117.8732530087261
 20
-160.2582627637549
 30
0.0
 10
117.8732530087261
 20
-160.2582627637549
 30
0.0
 10
117.8732530087261
 20
-160.2582627637549
 30
0.0
 10
117.6214165287543
 20
-160.2582627637549
 30
0.0
 10
117.6214165287543
 20
-160.2582627637549
 30
0.0
  0
HATCH
  5
100
330
F9
100
AcDbEntity
  8
レイヤー 1
 62
   250
420
  2299925
440
 33554687
100
AcDbHatch
 10
0.0
 20
0.0
 30
0.0
210
0.0
220
0.0
230
1.0
  2
SOLID
 70
     1
 71
     1
 91
        1
 92
        1
 93
        1
 72
     4
 94
        3
 73
     0
 74
     0
 95
       17
 96
       13
 40
0.0
 40
0.0
 40
0.0
 40
0.0
 40
1.0
 40
1.0
 40
1.0
 40
2.0
 40
2.0
 40
2.0
 40
3.0
 40
3.0
 40
3.0
 40
4.0
 40
4.0
 40
4.0
 40
4.0
 10
117.6214165287543
 20
-160.2582627637549
 10
117.6214165287543
 20
-160.2582627637549
 10
117.6214165287543
 20
-160.0064262837831
 10
117.6214165287543
 20
-160.0064262837831
 10
117.6214165287543
 20
-160.0064262837831
 10
117.8732530087261
 20
-160.0064262837831
 10
117.8732530087261
 20
-160.0064262837831
 10
117.8732530087261
 20
-160.0064262837831
 10
117.8732530087261
 20
-160.2582627637549
 10
117.8732530087261
 20
-160.2582627637549
 10
117.8732530087261
 20
-160.2582627637549
 10
117.6214165287543
 20
-160.2582627637549
 10
117.6214165287543
 20
-160.2582627637549
 97
        0
 97
        1
330
FF
 75
     2
 76
     1
 98
        1
 10
0.0
 20
0.0
450
        0
451
        0
460
0.0
461
0.0
452
        0
462
0.0
453
        0
470

  0
SPLINE
  5
101
330
F9
100
AcDbEntity
  8
レイヤー 1
100
AcDbSpline
210
0.0
220
0.0
230
1.0
 70
     9
 71
     3
 72
    53
 73
    49
 74
     0
 42
0.0000000001
 43
0.0000000001
 40
0.0
 40
0.0
 40
0.0
 40
0.0
 40
1.0
 40
1.0
 40
1.0
 40
2.0
 40
2.0
 40
2.0
 40
3.0
 40
3.0
 40
3.0
 40
4.0
 40
4.0
 40
4.0
 40
5.0
 40
5.0
 40
5.0
 40
6.0
 40
6.0
 40
6.0
 40
7.0
 40
7.0
 40
7.0
 40
8.0
 40
8.0
 40
8.0
 40
9.0
 40
9.0
 40
9.0
 40
10.0
 40
10.0
 40
10.0
 40
11.0
 40
11.0
 40
11.0
 40
12.0
 40
12.0
 40
12.0
 40
13.0
 40
13.0
 40
13.0
 40
14.0
 40
14.0
 40
14.0
 40
15.0
 40
15.0
 40
15.0
 40
16.0
 40
16.0
 40
16.0
 40
16.0
 10
118.5905218887551
 20
-160.308905667388
 30
0.0
 10
118.5123182212399
 20
-160.308905667388
 30
0.0
 10
118.4106879044251
 20
-160.2920246995103
 30
0.0
 10
118.3090575876102
 20
-160.2286349425817
 30
0.0
 10
118.1357692847021
 20
-160.1187363966022
 30
0.0
 10
118.1144096926936
 20
-159.9874782586142
 30
0.0
 10
118.0954616675247
 20
-159.8796467699259
 30
0.0
 10
118.0954616675247
 20
-159.8796467699259
 30
0.0
 10
118.3176703263233
 20
-159.8796467699259
 30
0.0
 10
118.3176703263233
 20
-159.8796467699259
 30
0.0
 10
118.3724473445388
 20
-160.0784287794248
 30
0.0
 10
118.4995713679445
 20
-160.108056600598
 30
0.0
 10
118.5925889460463
 20
-160.108056600598
 30
0.0
 10
118.7321153131989
 20
-160.108056600598
 30
0.0
 10
118.884388533647
 20
-160.0084933410743
 30
0.0
 10
118.884388533647
 20
-159.7759493958199
 30
0.0
 10
118.884388533647
 20
-159.5199788012658
 30
0.0
 10
118.7045545493169
 20
-159.4500433629152
 30
0.0
 10
118.5839762073332
 20
-159.4500433629152
 30
0.0
 10
118.5522813288689
 20
-159.4500433629152
 30
0.0
 10
118.4106879044251
 20
-159.4500433629152
 30
0.0
 10
118.3218044409056
 20
-159.5792344436121
 30
0.0
 10
118.3218044409056
 20
-159.5792344436121
 30
0.0
 10
118.1461045711579
 20
-159.5602864184432
 30
0.0
 10
118.1461045711579
 20
-159.5602864184432
 30
0.0
 10
118.1461045711579
 20
-159.5602864184432
 30
0.0
 10
118.2666829131416
 20
-158.7138264577174
 30
0.0
 10
118.2666829131416
 20
-158.7138264577174
 30
0.0
 10
118.2666829131416
 20
-158.7138264577174
 30
0.0
 10
119.0452744928081
 20
-158.7138264577174
 30
0.0
 10
119.0452744928081
 20
-158.7138264577174
 30
0.0
 10
119.0452744928081
 20
-158.7138264577174
 30
0.0
 10
119.0452744928081
 20
-158.908474352634
 30
0.0
 10
119.0452744928081
 20
-158.908474352634
 30
0.0
 10
119.0452744928081
 20
-158.908474352634
 30
0.0
 10
118.429635929594
 20
-158.908474352634
 30
0.0
 10
118.429635929594
 20
-158.908474352634
 30
0.0
 10
118.429635929594
 20
-158.908474352634
 30
0.0
 10
118.3641791153742
 20
-159.3315320782227
 30
0.0
 10
118.3641791153742
 20
-159.3315320782227
 30
0.0
 10
118.4255018150117
 20
-159.2977701424672
 30
0.0
 10
118.5078395971091
 20
-159.2574625252898
 30
0.0
 10
118.6263508818017
 20
-159.2574625252898
 30
0.0
 10
118.8802544190646
 20
-159.2574625252898
 30
0.0
 10
119.1172769884498
 20
-159.4438421910418
 30
0.0
 10
119.1172769884498
 20
-159.757001370651
 30
0.0
 10
119.1172769884498
 20
-160.0742946648425
 30
0.0
 10
118.8930012723601
 20
-160.308905667388
 30
0.0
 10
118.5905218887551
 20
-160.308905667388
 30
0.0
  0
HATCH
  5
102
330
F9
100
AcDbEntity
  8
レイヤー 1
 62
   250
420
  2299925
440
 33554687
100
AcDbHatch
 10
0.0
 20
0.0
 30
0.0
210
0.0
220
0.0
230
1.0
  2
SOLID
 70
     1
 71
     1
 91
        1
 92
        1
 93
        1
 72
     4
 94
        3
 73
     0
 74
     0
 95
       53
 96
       49
 40
0.0
 40
0.0
 40
0.0
 40
0.0
 40
1.0
 40
1.0
 40
1.0
 40
2.0
 40
2.0
 40
2.0
 40
3.0
 40
3.0
 40
3.0
 40
4.0
 40
4.0
 40
4.0
 40
5.0
 40
5.0
 40
5.0
 40
6.0
 40
6.0
 40
6.0
 40
7.0
 40
7.0
 40
7.0
 40
8.0
 40
8.0
 40
8.0
 40
9.0
 40
9.0
 40
9.0
 40
10.0
 40
10.0
 40
10.0
 40
11.0
 40
11.0
 40
11.0
 40
12.0
 40
12.0
 40
12.0
 40
13.0
 40
13.0
 40
13.0
 40
14.0
 40
14.0
 40
14.0
 40
15.0
 40
15.0
 40
15.0
 40
16.0
 40
16.0
 40
16.0
 40
16.0
 10
118.5905218887551
 20
-160.308905667388
 10
118.5123182212399
 20
-160.308905667388
 10
118.4106879044251
 20
-160.2920246995103
 10
118.3090575876102
 20
-160.2286349425817
 10
118.1357692847021
 20
-160.1187363966022
 10
118.1144096926936
 20
-159.9874782586142
 10
118.0954616675247
 20
-159.8796467699259
 10
118.0954616675247
 20
-159.8796467699259
 10
118.3176703263233
 20
-159.8796467699259
 10
118.3176703263233
 20
-159.8796467699259
 10
118.3724473445388
 20
-160.0784287794248
 10
118.4995713679445
 20
-160.108056600598
 10
118.5925889460463
 20
-160.108056600598
 10
118.7321153131989
 20
-160.108056600598
 10
118.884388533647
 20
-160.0084933410743
 10
118.884388533647
 20
-159.7759493958199
 10
118.884388533647
 20
-159.5199788012658
 10
118.7045545493169
 20
-159.4500433629152
 10
118.5839762073332
 20
-159.4500433629152
 10
118.5522813288689
 20
-159.4500433629152
 10
118.4106879044251
 20
-159.4500433629152
 10
118.3218044409056
 20
-159.5792344436121
 10
118.3218044409056
 20
-159.5792344436121
 10
118.1461045711579
 20
-159.5602864184432
 10
118.1461045711579
 20
-159.5602864184432
 10
118.1461045711579
 20
-159.5602864184432
 10
118.2666829131416
 20
-158.7138264577174
 10
118.2666829131416
 20
-158.7138264577174
 10
118.2666829131416
 20
-158.7138264577174
 10
119.0452744928081
 20
-158.7138264577174
 10
119.0452744928081
 20
-158.7138264577174
 10
119.0452744928081
 20
-158.7138264577174
 10
119.0452744928081
 20
-158.908474352634
 10
119.0452744928081
 20
-158.908474352634
 10
119.0452744928081
 20
-158.908474352634
 10
118.429635929594
 20
-158.908474352634
 10
118.429635929594
 20
-158.908474352634
 10
118.429635929594
 20
-158.908474352634
 10
118.3641791153742
 20
-159.3315320782227
 10
118.3641791153742
 20
-159.3315320782227
 10
118.4255018150117
 20
-159.2977701424672
 10
118.5078395971091
 20
-159.2574625252898
 10
118.6263508818017
 20
-159.2574625252898
 10
118.8802544190646
 20
-159.2574625252898
 10
119.1172769884498
 20
-159.4438421910418
 10
119.1172769884498
 20
-159.757001370651
 10
119.1172769884498
 20
-160.0742946648425
 10
118.8930012723601
 20
-160.308905667388
 10
118.5905218887551
 20
-160.308905667388
 97
        0
 97
        1
330
101
 75
     2
 76
     1
 98
        1
 10
0.0
 20
0.0
450
        0
451
        0
460
0.0
461
0.0
452
        0
462
0.0
453
        0
470

  0
ENDBLK
  5
FC
330
F9
100
AcDbEntity
  8
0
100
AcDbBlockEnd
  0
BLOCK
  5
106
330
104
100
AcDbEntity
  8
0
100
AcDbBlockBegin
  2
Block_10
 70
     0
 10
0.0
 20
0.0
 30
0.0
  3
Block_10
  1

  0
SPLINE
  5
108
330
104
100
AcDbEntity
  8
レイヤー 1
100
AcDbSpline
210
0.0
220
0.0
230
1.0
 70
    11
 71
     3
 72
    26
 73
    22
 74
     0
 42
0.0000000001
 43
0.0000000001
 40
0.0
 40
0.0
 40
0.0
 40
0.0
 40
1.0
 40
1.0
 40
1.0
 40
2.0
 40
2.0
 40
2.0
 40
3.0
 40
3.0
 40
3.0
 40
4.0
 40
4.0
 40
4.0
 40
5.0
 40
5.0
 40
5.0
 40
6.0
 40
6.0
 40
6.0
 40
7.0
 40
7.0
 40
7.0
 40
7.0
 10
112.2346652280177
 20
-150.0308077966937
 30
0.0
 10
112.2346652280177
 20
-150.0308077966937
 30
0.0
 10
112.2346652280177
 20
-148.9266546936711
 30
0.0
 10
112.2346652280177
 20
-148.9266546936711
 30
0.0
 10
112.2346652280177
 20
-148.9266546936711
 30
0.0
 10
111.9046250805308
 20
-148.9266546936711
 30
0.0
 10
111.9046250805308
 20
-148.9266546936711
 30
0.0
 10
111.9046250805308
 20
-148.9266546936711
 30
0.0
 10
111.9046250805308
 20
-148.7783433330311
 30
0.0
 10
111.9046250805308
 20
-148.7783433330311
 30
0.0
 10
112.2367322853089
 20
-148.7637016772188
 30
0.0
 10
112.2832410743597
 20
-148.6007486607665
 30
0.0
 10
112.3128688955329
 20
-148.4865437454304
 30
0.0
 10
112.3128688955329
 20
-148.4865437454304
 30
0.0
 10
112.4589409441075
 20
-148.4865437454304
 30
0.0
 10
112.4589409441075
 20
-148.4865437454304
 30
0.0
 10
112.4589409441075
 20
-148.4865437454304
 30
0.0
 10
112.4589409441075
 20
-150.0308077966937
 30
0.0
 10
112.4589409441075
 20
-150.0308077966937
 30
0.0
 10
112.4589409441075
 20
-150.0308077966937
 30
0.0
 10
112.2346652280177
 20
-150.0308077966937
 30
0.0
 10
112.2346652280177
 20
-150.0308077966937
 30
0.0
  0
HATCH
  5
109
330
104
100
AcDbEntity
  8
レイヤー 1
 62
   250
420
  2299925
440
 33554687
100
AcDbHatch
 10
0.0
 20
0.0
 30
0.0
210
0.0
220
0.0
230
1.0
  2
SOLID
 70
     1
 71
     1
 91
        1
 92
        1
 93
        1
 72
     4
 94
        3
 73
     0
 74
     0
 95
       26
 96
       22
 40
0.0
 40
0.0
 40
0.0
 40
0.0
 40
1.0
 40
1.0
 40
1.0
 40
2.0
 40
2.0
 40
2.0
 40
3.0
 40
3.0
 40
3.0
 40
4.0
 40
4.0
 40
4.0
 40
5.0
 40
5.0
 40
5.0
 40
6.0
 40
6.0
 40
6.0
 40
7.0
 40
7.0
 40
7.0
 40
7.0
 10
112.2346652280177
 20
-150.0308077966937
 10
112.2346652280177
 20
-150.0308077966937
 10
112.2346652280177
 20
-148.9266546936711
 10
112.2346652280177
 20
-148.9266546936711
 10
112.2346652280177
 20
-148.9266546936711
 10
111.9046250805308
 20
-148.9266546936711
 10
111.9046250805308
 20
-148.9266546936711
 10
111.9046250805308
 20
-148.9266546936711
 10
111.9046250805308
 20
-148.7783433330311
 10
111.9046250805308
 20
-148.7783433330311
 10
112.2367322853089
 20
-148.7637016772188
 10
112.2832410743597
 20
-148.6007486607665
 10
112.3128688955329
 20
-148.4865437454304
 10
112.3128688955329
 20
-148.4865437454304
 10
112.4589409441075
 20
-148.4865437454304
 10
112.4589409441075
 20
-148.4865437454304
 10
112.4589409441075
 20
-148.4865437454304
 10
112.4589409441075
 20
-150.0308077966937
 10
112.4589409441075
 20
-150.0308077966937
 10
112.4589409441075
 20
-150.0308077966937
 10
112.2346652280177
 20
-150.0308077966937
 10
112.2346652280177
 20
-150.0308077966937
 97
        0
 97
        1
330
108
 75
     2
 76
     1
 98
        1
 10
0.0
 20
0.0
450
        0
451
        0
460
0.0
461
0.0
452
        0
462
0.0
453
        0
470

  0
ENDBLK
  5
107
330
104
100
AcDbEntity
  8
0
100
AcDbBlockEnd
  0
BLOCK
  5
10E
330
10C
100
AcDbEntity
  8
0
100
AcDbBlockBegin
  2
Block_11
 70
     0
 10
0.0
 20
0.0
 30
0.0
  3
Block_11
  1

  0
INSERT
  5
111
330
10C
100
AcDbEntity
  8
レイヤー 1
100
AcDbBlockReference
  2
Block_12
 10
0.0
 20
0.0
 30
0.0
  0
INSERT
  5
118
330
10C
100
AcDbEntity
  8
レイヤー 1
100
AcDbBlockReference
  2
Block_13
 10
0.0
 20
0.0
 30
0.0
  0
ENDBLK
  5
10F
330
10C
100
AcDbEntity
  8
0
100
AcDbBlockEnd
  0
BLOCK
  5
112
330
110
100
AcDbEntity
  8
0
100
AcDbBlockBegin
  2
Block_12
 70
     0
 10
0.0
 20
0.0
 30
0.0
  3
Block_12
  1

  0
LINE
  5
114
330
110
100
AcDbEntity
  8
レイヤー 1
 62
    18
420
        0
370
     9
100
AcDbLine
 10
101.4085376704902
 20
-146.45588719441
 30
0.0
 11
101.9573540453776
 21
-147.2920058053121
 31
0.0
  0
LINE
  5
115
330
110
100
AcDbEntity
  8
レイヤー 1
 62
    18
420
        0
370
     9
100
AcDbLine
 10
101.4085376704902
 20
-146.45588719441
 30
0.0
 11
102.6871830431852
 21
-150.325753582331
 31
0.0
  0
LINE
  5
116
330
110
100
AcDbEntity
  8
レイヤー 1
 62
    18
420
        0
370
     9
100
AcDbLine
 10
101.4085376704902
 20
-146.45588719441
 30
0.0
 11
101.4658993356934
 21
-147.4542835830493
 31
0.0
  0
ENDBLK
  5
113
330
110
100
AcDbEntity
  8
0
100
AcDbBlockEnd
  0
BLOCK
  5
119
330
117
100
AcDbEntity
  8
0
100
AcDbBlockBegin
  2
Block_13
 70
     0
 10
0.0
 20
0.0
 30
0.0
  3
Block_13
  1

  0
INSERT
  5
11C
330
117
100
AcDbEntity
  8
レイヤー 1
100
AcDbBlockReference
  2
Block_14
 10
0.0
 20
0.0
 30
0.0
  0
ENDBLK
  5
11A
330
117
100
AcDbEntity
  8
0
100
AcDbBlockEnd
  0
BLOCK
  5
11D
330
11B
100
AcDbEntity
  8
0
100
AcDbBlockBegin
  2
Block_14
 70
     0
 10
0.0
 20
0.0
 30
0.0
  3
Block_14
  1

  0
SPLINE
  5
11F
330
11B
100
AcDbEntity
  8
レイヤー 1
100
AcDbSpline
210
0.0
220
0.0
230
1.0
 70
     9
 71
     3
 72
    17
 73
    13
 74
     0
 42
0.0000000001
 43
0.0000000001
 40
0.0
 40
0.0
 40
0.0
 40
0.0
 40
1.0
 40
1.0
 40
1.0
 40
2.0
 40
2.0
 40
2.0
 40
3.0
 40
3.0
 40
3.0
 40
4.0
 40
4.0
 40
4.0
 40
4.0
 10
98.99636906162244
 20
-151.8070990288885
 30
0.0
 10
98.97948809374472
 20
-151.8367268500616
 30
0.0
 10
98.92867293533727
 20
-151.9297444281634
 30
0.0
 10
98.91816539410726
 20
-151.9486924533323
 30
0.0
 10
99.10850691966732
 20
-152.0079480956786
 30
0.0
 10
99.12969425690162
 20
-152.0144937771005
 30
0.0
 10
99.20169675254333
 20
-152.041710031434
 30
0.0
 10
99.25664602553306
 20
-151.9552381347542
 30
0.0
 10
99.2799004200585
 20
-151.8811685818214
 30
0.0
 10
99.29471433064508
 20
-151.8070990288885
 30
0.0
 10
99.29471433064508
 20
-151.8070990288885
 30
0.0
 10
98.99636906162244
 20
-151.8070990288885
 30
0.0
 10
98.99636906162244
 20
-151.8070990288885
 30
0.0
  0
SPLINE
  5
120
330
11B
100
AcDbEntity
  8
レイヤー 1
100
AcDbSpline
210
0.0
220
0.0
230
1.0
 70
    11
 71
     3
 72
    20
 73
    16
 74
     0
 42
0.0000000001
 43
0.0000000001
 40
0.0
 40
0.0
 40
0.0
 40
0.0
 40
1.0
 40
1.0
 40
1.0
 40
2.0
 40
2.0
 40
2.0
 40
3.0
 40
3.0
 40
3.0
 40
4.0
 40
4.0
 40
4.0
 40
5.0
 40
5.0
 40
5.0
 40
5.0
 10
98.93297930469385
 20
-150.9565049535803
 30
0.0
 10
98.93297930469385
 20
-150.9565049535803
 30
0.0
 10
98.90128442622955
 20
-150.9565049535803
 30
0.0
 10
98.90128442622955
 20
-150.9565049535803
 30
0.0
 10
98.94779321528041
 20
-151.056068213104
 30
0.0
 10
98.97948809374472
 20
-151.1363389379104
 30
0.0
 10
99.01342228427443
 20
-151.2634629613161
 30
0.0
 10
99.01342228427443
 20
-151.2634629613161
 30
0.0
 10
99.22064477771222
 20
-151.2634629613161
 30
0.0
 10
99.22064477771222
 20
-151.2634629613161
 30
0.0
 10
99.2523396561765
 20
-151.1704453832143
 30
0.0
 10
99.27559405070194
 20
-151.0856960342772
 30
0.0
 10
99.29902070000164
 20
-150.9565049535803
 30
0.0
 10
99.29902070000164
 20
-150.9565049535803
 30
0.0
 10
98.93297930469385
 20
-150.9565049535803
 30
0.0
 10
98.93297930469385
 20
-150.9565049535803
 30
0.0
  0
SPLINE
  5
121
330
11B
100
AcDbEntity
  8
レイヤー 1
100
AcDbSpline
210
0.0
220
0.0
230
1.0
 70
     9
 71
     3
 72
   242
 73
   238
 74
     0
 42
0.0000000001
 43
0.0000000001
 40
0.0
 40
0.0
 40
0.0
 40
0.0
 40
1.0
 40
1.0
 40
1.0
 40
2.0
 40
2.0
 40
2.0
 40
3.0
 40
3.0
 40
3.0
 40
4.0
 40
4.0
 40
4.0
 40
5.0
 40
5.0
 40
5.0
 40
6.0
 40
6.0
 40
6.0
 40
7.0
 40
7.0
 40
7.0
 40
8.0
 40
8.0
 40
8.0
 40
9.0
 40
9.0
 40
9.0
 40
10.0
 40
10.0
 40
10.0
 40
11.0
 40
11.0
 40
11.0
 40
12.0
 40
12.0
 40
12.0
 40
13.0
 40
13.0
 40
13.0
 40
14.0
 40
14.0
 40
14.0
 40
15.0
 40
15.0
 40
15.0
 40
16.0
 40
16.0
 40
16.0
 40
17.0
 40
17.0
 40
17.0
 40
18.0
 40
18.0
 40
18.0
 40
19.0
 40
19.0
 40
19.0
 40
20.0
 40
20.0
 40
20.0
 40
21.0
 40
21.0
 40
21.0
 40
22.0
 40
22.0
 40
22.0
 40
23.0
 40
23.0
 40
23.0
 40
24.0
 40
24.0
 40
24.0
 40
25.0
 40
25.0
 40
25.0
 40
26.0
 40
26.0
 40
26.0
 40
27.0
 40
27.0
 40
27.0
 40
28.0
 40
28.0
 40
28.0
 40
29.0
 40
29.0
 40
29.0
 40
30.0
 40
30.0
 40
30.0
 40
31.0
 40
31.0
 40
31.0
 40
32.0
 40
32.0
 40
32.0
 40
33.0
 40
33.0
 40
33.0
 40
34.0
 40
34.0
 40
34.0
 40
35.0
 40
35.0
 40
35.0
 40
36.0
 40
36.0
 40
36.0
 40
37.0
 40
37.0
 40
37.0
 40
38.0
 40
38.0
 40
38.0
 40
39.0
 40
39.0
 40
39.0
 40
40.0
 40
40.0
 40
40.0
 40
41.0
 40
41.0
 40
41.0
 40
42.0
 40
42.0
 40
42.0
 40
43.0
 40
43.0
 40
43.0
 40
44.0
 40
44.0
 40
44.0
 40
45.0
 40
45.0
 40
45.0
 40
46.0
 40
46.0
 40
46.0
 40
47.0
 40
47.0
 40
47.0
 40
48.0
 40
48.0
 40
48.0
 40
49.0
 40
49.0
 40
49.0
 40
50.0
 40
50.0
 40
50.0
 40
51.0
 40
51.0
 40
51.0
 40
52.0
 40
52.0
 40
52.0
 40
53.0
 40
53.0
 40
53.0
 40
54.0
 40
54.0
 40
54.0
 40
55.0
 40
55.0
 40
55.0
 40
56.0
 40
56.0
 40
56.0
 40
57.0
 40
57.0
 40
57.0
 40
58.0
 40
58.0
 40
58.0
 40
59.0
 40
59.0
 40
59.0
 40
60.0
 40
60.0
 40
60.0
 40
61.0
 40
61.0
 40
61.0
 40
62.0
 40
62.0
 40
62.0
 40
63.0
 40
63.0
 40
63.0
 40
64.0
 40
64.0
 40
64.0
 40
65.0
 40
65.0
 40
65.0
 40
66.0
 40
66.0
 40
66.0
 40
67.0
 40
67.0
 40
67.0
 40
68.0
 40
68.0
 40
68.0
 40
69.0
 40
69.0
 40
69.0
 40
70.0
 40
70.0
 40
70.0
 40
71.0
 40
71.0
 40
71.0
 40
72.0
 40
72.0
 40
72.0
 40
73.0
 40
73.0
 40
73.0
 40
74.0
 40
74.0
 40
74.0
 40
75.0
 40
75.0
 40
75.0
 40
76.0
 40
76.0
 40
76.0
 40
77.0
 40
77.0
 40
77.0
 40
78.0
 40
78.0
 40
78.0
 40
79.0
 40
79.0
 40
79.0
 40
79.0
 10
99.56119246642915
 20
-151.4219373536375
 30
0.0
 10
99.56119246642915
 20
-151.4219373536375
 30
0.0
 10
99.30746118394051
 20
-151.4219373536375
 30
0.0
 10
99.30746118394051
 20
-151.4219373536375
 30
0.0
 10
99.30746118394051
 20
-151.4219373536375
 30
0.0
 10
99.03030325215215
 20
-151.4219373536375
 30
0.0
 10
99.03030325215215
 20
-151.4219373536375
 30
0.0
 10
99.03030325215215
 20
-151.4219373536375
 30
0.0
 10
99.15725502078361
 20
-151.4643120281061
 30
0.0
 10
99.15725502078361
 20
-151.4643120281061
 30
0.0
 10
99.16776256201362
 20
-151.4684461426884
 30
0.0
 10
99.18050941530905
 20
-151.4749918241104
 30
0.0
 10
99.18050941530905
 20
-151.4877386774058
 30
0.0
 10
99.18050941530905
 20
-151.5087537598659
 30
0.0
 10
99.14881453684474
 20
-151.5149549317393
 30
0.0
 10
99.12762719961046
 20
-151.5194335558701
 30
0.0
 10
99.11694740360619
 20
-151.5425156956213
 30
0.0
 10
99.08731958243304
 20
-151.6083170193896
 30
0.0
 10
99.06837155726416
 20
-151.6527587511493
 30
0.0
 10
99.06837155726416
 20
-151.6527587511493
 30
0.0
 10
99.3391560624048
 20
-151.6527587511493
 30
0.0
 10
99.3391560624048
 20
-151.6527587511493
 30
0.0
 10
99.4301065832154
 20
-151.6527587511493
 30
0.0
 10
99.62682153542317
 20
-151.6482801270185
 30
0.0
 10
99.76858721464118
 20
-151.6400118978539
 30
0.0
 10
99.76858721464118
 20
-151.6400118978539
 30
0.0
 10
99.76858721464118
 20
-151.8177788248928
 30
0.0
 10
99.76858721464118
 20
-151.8177788248928
 30
0.0
 10
99.68607717776947
 20
-151.813300200762
 30
0.0
 10
99.66488984053517
 20
-151.813300200762
 30
0.0
 10
99.48505585620514
 20
-151.8091660861796
 30
0.0
 10
99.45336097774083
 20
-151.9635063639188
 30
0.0
 10
99.40891924598112
 20
-152.0441215982737
 30
0.0
 10
99.36447751422139
 20
-152.1137125270757
 30
0.0
 10
99.48505585620514
 20
-152.172968169422
 30
0.0
 10
99.5908202876023
 20
-152.2408365504815
 30
0.0
 10
99.69451766170832
 20
-152.3231743325789
 30
0.0
 10
99.69451766170832
 20
-152.3231743325789
 30
0.0
 10
99.57600637701574
 20
-152.4902614636135
 30
0.0
 10
99.57600637701574
 20
-152.4902614636135
 30
0.0
 10
99.55275198249029
 20
-152.4713134384446
 30
0.0
 10
99.54017738396913
 20
-152.4627006997315
 30
0.0
 10
99.42803952592425
 20
-152.3782958603429
 30
0.0
 10
99.37929142480797
 20
-152.3400553004566
 30
0.0
 10
99.32003578246167
 20
-152.30422630741
 30
0.0
 10
99.23976505765535
 20
-152.2597845756503
 30
0.0
 10
99.02823619486099
 20
-152.4458197318538
 30
0.0
 10
98.82290850394012
 20
-152.4692463811535
 30
0.0
 10
98.5331759736306
 20
-152.4988742023267
 30
0.0
 10
98.5331759736306
 20
-152.4988742023267
 30
0.0
 10
98.4294785995246
 20
-152.3190402179966
 30
0.0
 10
98.4294785995246
 20
-152.3190402179966
 30
0.0
 10
98.7467718937161
 20
-152.3149061034143
 30
0.0
 10
98.92229950868957
 20
-152.2894123968234
 30
0.0
 10
99.07474498391188
 20
-152.179513850844
 30
0.0
 10
98.95623369921928
 20
-152.1285264376623
 30
0.0
 10
98.86735023569983
 20
-152.1009656737803
 30
0.0
 10
98.83134898787897
 20
-152.0885633300334
 30
0.0
 10
98.8124009627101
 20
-152.1157795843669
 30
0.0
 10
98.79758705212353
 20
-152.1350721190843
 30
0.0
 10
98.77002628824152
 20
-152.1688340548397
 30
0.0
 10
98.77002628824152
 20
-152.1688340548397
 30
0.0
 10
98.57331133603375
 20
-152.0861517631937
 30
0.0
 10
98.57331133603375
 20
-152.0861517631937
 30
0.0
 10
98.6558213729055
 20
-152.0058810383874
 30
0.0
 10
98.71714407254295
 20
-151.9107964029945
 30
0.0
 10
98.7743326575981
 20
-151.8091660861796
 30
0.0
 10
98.58381887726377
 20
-151.813300200762
 30
0.0
 10
98.56280379480374
 20
-151.813300200762
 30
0.0
 10
98.48029375793203
 20
-151.8177788248928
 30
0.0
 10
98.48029375793203
 20
-151.8177788248928
 30
0.0
 10
98.48029375793203
 20
-151.6400118978539
 30
0.0
 10
98.48029375793203
 20
-151.6400118978539
 30
0.0
 10
98.61982012508462
 20
-151.6462130697273
 30
0.0
 10
98.82928193058782
 20
-151.6503471843096
 30
0.0
 10
98.85460338240442
 20
-151.6503471843096
 30
0.0
 10
98.8716566050564
 20
-151.6165852485542
 30
0.0
 10
98.92660587804613
 20
-151.4960069065704
 30
0.0
 10
98.94572615798928
 20
-151.4219373536375
 30
0.0
 10
98.92660587804613
 20
-151.4219373536375
 30
0.0
 10
98.74883895100724
 20
-151.4284830350595
 30
0.0
 10
98.55419105609064
 20
-151.441229888355
 30
0.0
 10
98.55419105609064
 20
-151.441229888355
 30
0.0
 10
98.55419105609064
 20
-151.5742105740856
 30
0.0
 10
98.55419105609064
 20
-151.5742105740856
 30
0.0
 10
98.5056152097486
 20
-151.5997042806764
 30
0.0
 10
98.4463595674023
 20
-151.6313991591407
 30
0.0
 10
98.31303437212314
 20
-151.697200482909
 30
0.0
 10
98.31303437212314
 20
-151.697200482909
 30
0.0
 10
98.31303437212314
 20
-151.8429280219351
 30
0.0
 10
98.31303437212314
 20
-151.8429280219351
 30
0.0
 10
98.31303437212314
 20
-151.8429280219351
 30
0.0
 10
98.31303437212314
 20
-152.3104274792835
 30
0.0
 10
98.31303437212314
 20
-152.3104274792835
 30
0.0
 10
98.31303437212314
 20
-152.4375515026892
 30
0.0
 10
98.27720537907653
 20
-152.4968071450355
 30
0.0
 10
97.99367402064047
 20
-152.4881944063224
 30
0.0
 10
97.99367402064047
 20
-152.4881944063224
 30
0.0
 10
97.88997664653445
 20
-152.2807996581103
 30
0.0
 10
97.88997664653445
 20
-152.2807996581103
 30
0.0
 10
97.95353865823733
 20
-152.2935465114058
 30
0.0
 10
98.00211450457934
 20
-152.2980251355366
 30
0.0
 10
98.04224986698251
 20
-152.2980251355366
 30
0.0
 10
98.11855873198078
 20
-152.2980251355366
 30
0.0
 10
98.1290662732108
 20
-152.2745984862369
 30
0.0
 10
98.1290662732108
 20
-152.2091416720171
 30
0.0
 10
98.1290662732108
 20
-152.2091416720171
 30
0.0
 10
98.1290662732108
 20
-151.7795382650065
 30
0.0
 10
98.1290662732108
 20
-151.7795382650065
 30
0.0
 10
98.0317423257525
 20
-151.8198458821839
 30
0.0
 10
98.01486135787477
 20
-151.8260470540574
 30
0.0
 10
97.96835256882388
 20
-151.8449950792262
 30
0.0
 10
97.96404619946734
 20
-151.8663546712348
 30
0.0
 10
97.95973983011077
 20
-151.8959824924079
 30
0.0
 10
97.9407918049419
 20
-151.8959824924079
 30
0.0
 10
97.93235132100303
 20
-151.8959824924079
 30
0.0
 10
97.92167152499876
 20
-151.8915038682771
 30
0.0
 10
97.91547035312531
 20
-151.8684217285259
 30
0.0
 10
97.91547035312531
 20
-151.8684217285259
 30
0.0
 10
97.86258813742671
 20
-151.6758408909005
 30
0.0
 10
97.86258813742671
 20
-151.6758408909005
 30
0.0
 10
98.00848793122705
 20
-151.6293321018496
 30
0.0
 10
98.07411700022107
 20
-151.6062499620984
 30
0.0
 10
98.1290662732108
 20
-151.5848903700899
 30
0.0
 10
98.1290662732108
 20
-151.5848903700899
 30
0.0
 10
98.1290662732108
 20
-151.1725124405055
 30
0.0
 10
98.1290662732108
 20
-151.1725124405055
 30
0.0
 10
98.1290662732108
 20
-151.1725124405055
 30
0.0
 10
98.0761840575122
 20
-151.1725124405055
 30
0.0
 10
98.0761840575122
 20
-151.1725124405055
 30
0.0
 10
98.0761840575122
 20
-151.1725124405055
 30
0.0
 10
97.99798038999703
 20
-151.1725124405055
 30
0.0
 10
97.99798038999703
 20
-151.1725124405055
 30
0.0
 10
97.93028426371188
 20
-151.1725124405055
 30
0.0
 10
97.92167152499876
 20
-151.1725124405055
 30
0.0
 10
97.88584253195216
 20
-151.1787136123789
 30
0.0
 10
97.88584253195216
 20
-151.1787136123789
 30
0.0
 10
97.88584253195216
 20
-150.9840657174623
 30
0.0
 10
97.88584253195216
 20
-150.9840657174623
 30
0.0
 10
97.91323104105989
 20
-150.9906113988843
 30
0.0
 10
97.92167152499876
 20
-150.9906113988843
 30
0.0
 10
97.99160696334933
 20
-150.9906113988843
 30
0.0
 10
97.99160696334933
 20
-150.9906113988843
 30
0.0
 10
98.12475990385422
 20
-150.9906113988843
 30
0.0
 10
98.12475990385422
 20
-150.9906113988843
 30
0.0
 10
98.12475990385422
 20
-150.9206759605337
 30
0.0
 10
98.12475990385422
 20
-150.8379936688877
 30
0.0
 10
98.12269284656309
 20
-150.8338595543054
 30
0.0
 10
98.11425236262422
 20
-150.6540255699754
 30
0.0
 10
98.11425236262422
 20
-150.6350775448065
 30
0.0
 10
98.11218530533308
 20
-150.5885687557556
 30
0.0
 10
98.11218530533308
 20
-150.5885687557556
 30
0.0
 10
98.32784828270971
 20
-150.5968369849202
 30
0.0
 10
98.32784828270971
 20
-150.5968369849202
 30
0.0
 10
98.33852807871398
 20
-150.5968369849202
 30
0.0
 10
98.35971541594828
 20
-150.5992485517599
 30
0.0
 10
98.35971541594828
 20
-150.6161295196376
 30
0.0
 10
98.35971541594828
 20
-150.6350775448065
 30
0.0
 10
98.34490150536169
 20
-150.6457573408108
 30
0.0
 10
98.31940779877086
 20
-150.6647053659796
 30
0.0
 10
98.31940779877086
 20
-150.7153482696128
 30
0.0
 10
98.31303437212314
 20
-150.9441026098334
 30
0.0
 10
98.31527368418855
 20
-150.9906113988843
 30
0.0
 10
98.44429251011115
 20
-150.9906113988843
 30
0.0
 10
98.45703936340658
 20
-150.9906113988843
 30
0.0
 10
98.55419105609064
 20
-150.9819986601711
 30
0.0
 10
98.55419105609064
 20
-150.9819986601711
 30
0.0
 10
98.55419105609064
 20
-151.1766465550878
 30
0.0
 10
98.55419105609064
 20
-151.1766465550878
 30
0.0
 10
98.51612275097862
 20
-151.1745794977966
 30
0.0
 10
98.44842662469346
 20
-151.1704453832143
 30
0.0
 10
98.31303437212314
 20
-151.1725124405055
 30
0.0
 10
98.31303437212314
 20
-151.1725124405055
 30
0.0
 10
98.31303437212314
 20
-151.510820817157
 30
0.0
 10
98.31303437212314
 20
-151.510820817157
 30
0.0
 10
98.36815589988713
 20
-151.4877386774058
 30
0.0
 10
98.43361271410689
 20
-151.4601779135238
 30
0.0
 10
98.48236081522315
 20
-151.4367512642241
 30
0.0
 10
98.48236081522315
 20
-151.4367512642241
 30
0.0
 10
98.48236081522315
 20
-151.2589843371852
 30
0.0
 10
98.48236081522315
 20
-151.2589843371852
 30
0.0
 10
98.5965657305592
 20
-151.2717311904807
 30
0.0
 10
98.7150770152518
 20
-151.2717311904807
 30
0.0
 10
98.83134898787897
 20
-151.2717311904807
 30
0.0
 10
98.80809459335353
 20
-151.1766465550878
 30
0.0
 10
98.78070608424581
 20
-151.0939642634418
 30
0.0
 10
98.71714407254295
 20
-150.9609835777111
 30
0.0
 10
98.67270234078322
 20
-150.9630506350023
 30
0.0
 10
98.59019230391147
 20
-150.9671847495846
 30
0.0
 10
98.55212399879947
 20
-150.9692518068757
 30
0.0
 10
98.55212399879947
 20
-150.9692518068757
 30
0.0
 10
98.55212399879947
 20
-150.7894178225457
 30
0.0
 10
98.55212399879947
 20
-150.7894178225457
 30
0.0
 10
98.67700871013978
 20
-150.7980305612588
 30
0.0
 10
98.8504692678221
 20
-150.8021646758411
 30
0.0
 10
98.93297930469385
 20
-150.8021646758411
 30
0.0
 10
98.93297930469385
 20
-150.8021646758411
 30
0.0
 10
99.01548934156558
 20
-150.8021646758411
 30
0.0
 10
99.01548934156558
 20
-150.8021646758411
 30
0.0
 10
99.01548934156558
 20
-150.6392116593888
 30
0.0
 10
99.01548934156558
 20
-150.628876372933
 30
0.0
 10
99.01342228427443
 20
-150.5737548451691
 30
0.0
 10
99.01342228427443
 20
-150.5737548451691
 30
0.0
 10
99.23752574558994
 20
-150.5992485517599
 30
0.0
 10
99.23752574558994
 20
-150.5992485517599
 30
0.0
 10
99.2418321149465
 20
-150.5992485517599
 30
0.0
 10
99.26301945218078
 20
-150.601315609051
 30
0.0
 10
99.26301945218078
 20
-150.6181965769288
 30
0.0
 10
99.26301945218078
 20
-150.6330104875154
 30
0.0
 10
99.2523396561765
 20
-150.64127871668
 30
0.0
 10
99.22495114706876
 20
-150.6560926272665
 30
0.0
 10
99.21857772042105
 20
-150.7218939510348
 30
0.0
 10
99.21651066312991
 20
-150.7429090334948
 30
0.0
 10
99.21651066312991
 20
-150.8021646758411
 30
0.0
 10
99.21651066312991
 20
-150.8021646758411
 30
0.0
 10
99.3115952985228
 20
-150.8021646758411
 30
0.0
 10
99.3115952985228
 20
-150.8021646758411
 30
0.0
 10
99.39410533539453
 20
-150.8021646758411
 30
0.0
 10
99.56756589307687
 20
-150.7980305612588
 30
0.0
 10
99.69245060441718
 20
-150.7894178225457
 30
0.0
 10
99.69245060441718
 20
-150.7894178225457
 30
0.0
 10
99.69245060441718
 20
-150.9692518068757
 30
0.0
 10
99.69245060441718
 20
-150.9692518068757
 30
0.0
 10
99.66282278324403
 20
-150.9671847495846
 30
0.0
 10
99.54431149855142
 20
-150.9630506350023
 30
0.0
 10
99.50417613614826
 20
-150.9609835777111
 30
0.0
 10
99.4893622255617
 20
-151.0116264813443
 30
0.0
 10
99.45542803503199
 20
-151.1235920846149
 30
0.0
 10
99.38997122081223
 20
-151.2634629613161
 30
0.0
 10
99.43217364050655
 20
-151.2634629613161
 30
0.0
 10
99.7093315722949
 20
-151.2441704265986
 30
0.0
 10
99.77065427193235
 20
-151.2421033693075
 30
0.0
 10
99.77065427193235
 20
-151.2421033693075
 30
0.0
 10
99.77065427193235
 20
-151.4264159777684
 30
0.0
 10
99.77065427193235
 20
-151.4264159777684
 30
0.0
 10
99.7410264507592
 20
-151.4264159777684
 30
0.0
 10
99.72414548288147
 20
-151.4219373536375
 30
0.0
 10
99.56119246642915
 20
-151.4219373536375
 30
0.0
  0
HATCH
  5
122
330
11B
100
AcDbEntity
  8
レイヤー 1
 62
    18
420
        0
440
 33554687
100
AcDbHatch
 10
0.0
 20
0.0
 30
0.0
210
0.0
220
0.0
230
1.0
  2
SOLID
 70
     1
 71
     1
 91
        3
 92
        1
 93
        1
 72
     4
 94
        3
 73
     0
 74
     0
 95
       17
 96
       13
 40
0.0
 40
0.0
 40
0.0
 40
0.0
 40
1.0
 40
1.0
 40
1.0
 40
2.0
 40
2.0
 40
2.0
 40
3.0
 40
3.0
 40
3.0
 40
4.0
 40
4.0
 40
4.0
 40
4.0
 10
98.99636906162244
 20
-151.8070990288885
 10
98.97948809374472
 20
-151.8367268500616
 10
98.92867293533727
 20
-151.9297444281634
 10
98.91816539410726
 20
-151.9486924533323
 10
99.10850691966732
 20
-152.0079480956786
 10
99.12969425690162
 20
-152.0144937771005
 10
99.20169675254333
 20
-152.041710031434
 10
99.25664602553306
 20
-151.9552381347542
 10
99.2799004200585
 20
-151.8811685818214
 10
99.29471433064508
 20
-151.8070990288885
 10
99.29471433064508
 20
-151.8070990288885
 10
98.99636906162244
 20
-151.8070990288885
 10
98.99636906162244
 20
-151.8070990288885
 97
        0
 97
        1
330
11F
 92
        1
 93
        1
 72
     4
 94
        3
 73
     0
 74
     0
 95
       20
 96
       16
 40
0.0
 40
0.0
 40
0.0
 40
0.0
 40
1.0
 40
1.0
 40
1.0
 40
2.0
 40
2.0
 40
2.0
 40
3.0
 40
3.0
 40
3.0
 40
4.0
 40
4.0
 40
4.0
 40
5.0
 40
5.0
 40
5.0
 40
5.0
 10
98.93297930469385
 20
-150.9565049535803
 10
98.93297930469385
 20
-150.9565049535803
 10
98.90128442622955
 20
-150.9565049535803
 10
98.90128442622955
 20
-150.9565049535803
 10
98.94779321528041
 20
-151.056068213104
 10
98.97948809374472
 20
-151.1363389379104
 10
99.01342228427443
 20
-151.2634629613161
 10
99.01342228427443
 20
-151.2634629613161
 10
99.22064477771222
 20
-151.2634629613161
 10
99.22064477771222
 20
-151.2634629613161
 10
99.2523396561765
 20
-151.1704453832143
 10
99.27559405070194
 20
-151.0856960342772
 10
99.29902070000164
 20
-150.9565049535803
 10
99.29902070000164
 20
-150.9565049535803
 10
98.93297930469385
 20
-150.9565049535803
 10
98.93297930469385
 20
-150.9565049535803
 97
        0
 97
        1
330
120
 92
        1
 93
        1
 72
     4
 94
        3
 73
     0
 74
     0
 95
      242
 96
      238
 40
0.0
 40
0.0
 40
0.0
 40
0.0
 40
1.0
 40
1.0
 40
1.0
 40
2.0
 40
2.0
 40
2.0
 40
3.0
 40
3.0
 40
3.0
 40
4.0
 40
4.0
 40
4.0
 40
5.0
 40
5.0
 40
5.0
 40
6.0
 40
6.0
 40
6.0
 40
7.0
 40
7.0
 40
7.0
 40
8.0
 40
8.0
 40
8.0
 40
9.0
 40
9.0
 40
9.0
 40
10.0
 40
10.0
 40
10.0
 40
11.0
 40
11.0
 40
11.0
 40
12.0
 40
12.0
 40
12.0
 40
13.0
 40
13.0
 40
13.0
 40
14.0
 40
14.0
 40
14.0
 40
15.0
 40
15.0
 40
15.0
 40
16.0
 40
16.0
 40
16.0
 40
17.0
 40
17.0
 40
17.0
 40
18.0
 40
18.0
 40
18.0
 40
19.0
 40
19.0
 40
19.0
 40
20.0
 40
20.0
 40
20.0
 40
21.0
 40
21.0
 40
21.0
 40
22.0
 40
22.0
 40
22.0
 40
23.0
 40
23.0
 40
23.0
 40
24.0
 40
24.0
 40
24.0
 40
25.0
 40
25.0
 40
25.0
 40
26.0
 40
26.0
 40
26.0
 40
27.0
 40
27.0
 40
27.0
 40
28.0
 40
28.0
 40
28.0
 40
29.0
 40
29.0
 40
29.0
 40
30.0
 40
30.0
 40
30.0
 40
31.0
 40
31.0
 40
31.0
 40
32.0
 40
32.0
 40
32.0
 40
33.0
 40
33.0
 40
33.0
 40
34.0
 40
34.0
 40
34.0
 40
35.0
 40
35.0
 40
35.0
 40
36.0
 40
36.0
 40
36.0
 40
37.0
 40
37.0
 40
37.0
 40
38.0
 40
38.0
 40
38.0
 40
39.0
 40
39.0
 40
39.0
 40
40.0
 40
40.0
 40
40.0
 40
41.0
 40
41.0
 40
41.0
 40
42.0
 40
42.0
 40
42.0
 40
43.0
 40
43.0
 40
43.0
 40
44.0
 40
44.0
 40
44.0
 40
45.0
 40
45.0
 40
45.0
 40
46.0
 40
46.0
 40
46.0
 40
47.0
 40
47.0
 40
47.0
 40
48.0
 40
48.0
 40
48.0
 40
49.0
 40
49.0
 40
49.0
 40
50.0
 40
50.0
 40
50.0
 40
51.0
 40
51.0
 40
51.0
 40
52.0
 40
52.0
 40
52.0
 40
53.0
 40
53.0
 40
53.0
 40
54.0
 40
54.0
 40
54.0
 40
55.0
 40
55.0
 40
55.0
 40
56.0
 40
56.0
 40
56.0
 40
57.0
 40
57.0
 40
57.0
 40
58.0
 40
58.0
 40
58.0
 40
59.0
 40
59.0
 40
59.0
 40
60.0
 40
60.0
 40
60.0
 40
61.0
 40
61.0
 40
61.0
 40
62.0
 40
62.0
 40
62.0
 40
63.0
 40
63.0
 40
63.0
 40
64.0
 40
64.0
 40
64.0
 40
65.0
 40
65.0
 40
65.0
 40
66.0
 40
66.0
 40
66.0
 40
67.0
 40
67.0
 40
67.0
 40
68.0
 40
68.0
 40
68.0
 40
69.0
 40
69.0
 40
69.0
 40
70.0
 40
70.0
 40
70.0
 40
71.0
 40
71.0
 40
71.0
 40
72.0
 40
72.0
 40
72.0
 40
73.0
 40
73.0
 40
73.0
 40
74.0
 40
74.0
 40
74.0
 40
75.0
 40
75.0
 40
75.0
 40
76.0
 40
76.0
 40
76.0
 40
77.0
 40
77.0
 40
77.0
 40
78.0
 40
78.0
 40
78.0
 40
79.0
 40
79.0
 40
79.0
 40
79.0
 10
99.56119246642915
 20
-151.4219373536375
 10
99.56119246642915
 20
-151.4219373536375
 10
99.30746118394051
 20
-151.4219373536375
 10
99.30746118394051
 20
-151.4219373536375
 10
99.30746118394051
 20
-151.4219373536375
 10
99.03030325215215
 20
-151.4219373536375
 10
99.03030325215215
 20
-151.4219373536375
 10
99.03030325215215
 20
-151.4219373536375
 10
99.15725502078361
 20
-151.4643120281061
 10
99.15725502078361
 20
-151.4643120281061
 10
99.16776256201362
 20
-151.4684461426884
 10
99.18050941530905
 20
-151.4749918241104
 10
99.18050941530905
 20
-151.4877386774058
 10
99.18050941530905
 20
-151.5087537598659
 10
99.14881453684474
 20
-151.5149549317393
 10
99.12762719961046
 20
-151.5194335558701
 10
99.11694740360619
 20
-151.5425156956213
 10
99.08731958243304
 20
-151.6083170193896
 10
99.06837155726416
 20
-151.6527587511493
 10
99.06837155726416
 20
-151.6527587511493
 10
99.3391560624048
 20
-151.6527587511493
 10
99.3391560624048
 20
-151.6527587511493
 10
99.4301065832154
 20
-151.6527587511493
 10
99.62682153542317
 20
-151.6482801270185
 10
99.76858721464118
 20
-151.6400118978539
 10
99.76858721464118
 20
-151.6400118978539
 10
99.76858721464118
 20
-151.8177788248928
 10
99.76858721464118
 20
-151.8177788248928
 10
99.68607717776947
 20
-151.813300200762
 10
99.66488984053517
 20
-151.813300200762
 10
99.48505585620514
 20
-151.8091660861796
 10
99.45336097774083
 20
-151.9635063639188
 10
99.40891924598112
 20
-152.0441215982737
 10
99.36447751422139
 20
-152.1137125270757
 10
99.48505585620514
 20
-152.172968169422
 10
99.5908202876023
 20
-152.2408365504815
 10
99.69451766170832
 20
-152.3231743325789
 10
99.69451766170832
 20
-152.3231743325789
 10
99.57600637701574
 20
-152.4902614636135
 10
99.57600637701574
 20
-152.4902614636135
 10
99.55275198249029
 20
-152.4713134384446
 10
99.54017738396913
 20
-152.4627006997315
 10
99.42803952592425
 20
-152.3782958603429
 10
99.37929142480797
 20
-152.3400553004566
 10
99.32003578246167
 20
-152.30422630741
 10
99.23976505765535
 20
-152.2597845756503
 10
99.02823619486099
 20
-152.4458197318538
 10
98.82290850394012
 20
-152.4692463811535
 10
98.5331759736306
 20
-152.4988742023267
 10
98.5331759736306
 20
-152.4988742023267
 10
98.4294785995246
 20
-152.3190402179966
 10
98.4294785995246
 20
-152.3190402179966
 10
98.7467718937161
 20
-152.3149061034143
 10
98.92229950868957
 20
-152.2894123968234
 10
99.07474498391188
 20
-152.179513850844
 10
98.95623369921928
 20
-152.1285264376623
 10
98.86735023569983
 20
-152.1009656737803
 10
98.83134898787897
 20
-152.0885633300334
 10
98.8124009627101
 20
-152.1157795843669
 10
98.79758705212353
 20
-152.1350721190843
 10
98.77002628824152
 20
-152.1688340548397
 10
98.77002628824152
 20
-152.1688340548397
 10
98.57331133603375
 20
-152.0861517631937
 10
98.57331133603375
 20
-152.0861517631937
 10
98.6558213729055
 20
-152.0058810383874
 10
98.71714407254295
 20
-151.9107964029945
 10
98.7743326575981
 20
-151.8091660861796
 10
98.58381887726377
 20
-151.813300200762
 10
98.56280379480374
 20
-151.813300200762
 10
98.48029375793203
 20
-151.8177788248928
 10
98.48029375793203
 20
-151.8177788248928
 10
98.48029375793203
 20
-151.6400118978539
 10
98.48029375793203
 20
-151.6400118978539
 10
98.61982012508462
 20
-151.6462130697273
 10
98.82928193058782
 20
-151.6503471843096
 10
98.85460338240442
 20
-151.6503471843096
 10
98.8716566050564
 20
-151.6165852485542
 10
98.92660587804613
 20
-151.4960069065704
 10
98.94572615798928
 20
-151.4219373536375
 10
98.92660587804613
 20
-151.4219373536375
 10
98.74883895100724
 20
-151.4284830350595
 10
98.55419105609064
 20
-151.441229888355
 10
98.55419105609064
 20
-151.441229888355
 10
98.55419105609064
 20
-151.5742105740856
 10
98.55419105609064
 20
-151.5742105740856
 10
98.5056152097486
 20
-151.5997042806764
 10
98.4463595674023
 20
-151.6313991591407
 10
98.31303437212314
 20
-151.697200482909
 10
98.31303437212314
 20
-151.697200482909
 10
98.31303437212314
 20
-151.8429280219351
 10
98.31303437212314
 20
-151.8429280219351
 10
98.31303437212314
 20
-151.8429280219351
 10
98.31303437212314
 20
-152.3104274792835
 10
98.31303437212314
 20
-152.3104274792835
 10
98.31303437212314
 20
-152.4375515026892
 10
98.27720537907653
 20
-152.4968071450355
 10
97.99367402064047
 20
-152.4881944063224
 10
97.99367402064047
 20
-152.4881944063224
 10
97.88997664653445
 20
-152.2807996581103
 10
97.88997664653445
 20
-152.2807996581103
 10
97.95353865823733
 20
-152.2935465114058
 10
98.00211450457934
 20
-152.2980251355366
 10
98.04224986698251
 20
-152.2980251355366
 10
98.11855873198078
 20
-152.2980251355366
 10
98.1290662732108
 20
-152.2745984862369
 10
98.1290662732108
 20
-152.2091416720171
 10
98.1290662732108
 20
-152.2091416720171
 10
98.1290662732108
 20
-151.7795382650065
 10
98.1290662732108
 20
-151.7795382650065
 10
98.0317423257525
 20
-151.8198458821839
 10
98.01486135787477
 20
-151.8260470540574
 10
97.96835256882388
 20
-151.8449950792262
 10
97.96404619946734
 20
-151.8663546712348
 10
97.95973983011077
 20
-151.8959824924079
 10
97.9407918049419
 20
-151.8959824924079
 10
97.93235132100303
 20
-151.8959824924079
 10
97.92167152499876
 20
-151.8915038682771
 10
97.91547035312531
 20
-151.8684217285259
 10
97.91547035312531
 20
-151.8684217285259
 10
97.86258813742671
 20
-151.6758408909005
 10
97.86258813742671
 20
-151.6758408909005
 10
98.00848793122705
 20
-151.6293321018496
 10
98.07411700022107
 20
-151.6062499620984
 10
98.1290662732108
 20
-151.5848903700899
 10
98.1290662732108
 20
-151.5848903700899
 10
98.1290662732108
 20
-151.1725124405055
 10
98.1290662732108
 20
-151.1725124405055
 10
98.1290662732108
 20
-151.1725124405055
 10
98.0761840575122
 20
-151.1725124405055
 10
98.0761840575122
 20
-151.1725124405055
 10
98.0761840575122
 20
-151.1725124405055
 10
97.99798038999703
 20
-151.1725124405055
 10
97.99798038999703
 20
-151.1725124405055
 10
97.93028426371188
 20
-151.1725124405055
 10
97.92167152499876
 20
-151.1725124405055
 10
97.88584253195216
 20
-151.1787136123789
 10
97.88584253195216
 20
-151.1787136123789
 10
97.88584253195216
 20
-150.9840657174623
 10
97.88584253195216
 20
-150.9840657174623
 10
97.91323104105989
 20
-150.9906113988843
 10
97.92167152499876
 20
-150.9906113988843
 10
97.99160696334933
 20
-150.9906113988843
 10
97.99160696334933
 20
-150.9906113988843
 10
98.12475990385422
 20
-150.9906113988843
 10
98.12475990385422
 20
-150.9906113988843
 10
98.12475990385422
 20
-150.9206759605337
 10
98.12475990385422
 20
-150.8379936688877
 10
98.12269284656309
 20
-150.8338595543054
 10
98.11425236262422
 20
-150.6540255699754
 10
98.11425236262422
 20
-150.6350775448065
 10
98.11218530533308
 20
-150.5885687557556
 10
98.11218530533308
 20
-150.5885687557556
 10
98.32784828270971
 20
-150.5968369849202
 10
98.32784828270971
 20
-150.5968369849202
 10
98.33852807871398
 20
-150.5968369849202
 10
98.35971541594828
 20
-150.5992485517599
 10
98.35971541594828
 20
-150.6161295196376
 10
98.35971541594828
 20
-150.6350775448065
 10
98.34490150536169
 20
-150.6457573408108
 10
98.31940779877086
 20
-150.6647053659796
 10
98.31940779877086
 20
-150.7153482696128
 10
98.31303437212314
 20
-150.9441026098334
 10
98.31527368418855
 20
-150.9906113988843
 10
98.44429251011115
 20
-150.9906113988843
 10
98.45703936340658
 20
-150.9906113988843
 10
98.55419105609064
 20
-150.9819986601711
 10
98.55419105609064
 20
-150.9819986601711
 10
98.55419105609064
 20
-151.1766465550878
 10
98.55419105609064
 20
-151.1766465550878
 10
98.51612275097862
 20
-151.1745794977966
 10
98.44842662469346
 20
-151.1704453832143
 10
98.31303437212314
 20
-151.1725124405055
 10
98.31303437212314
 20
-151.1725124405055
 10
98.31303437212314
 20
-151.510820817157
 10
98.31303437212314
 20
-151.510820817157
 10
98.36815589988713
 20
-151.4877386774058
 10
98.43361271410689
 20
-151.4601779135238
 10
98.48236081522315
 20
-151.4367512642241
 10
98.48236081522315
 20
-151.4367512642241
 10
98.48236081522315
 20
-151.2589843371852
 10
98.48236081522315
 20
-151.2589843371852
 10
98.5965657305592
 20
-151.2717311904807
 10
98.7150770152518
 20
-151.2717311904807
 10
98.83134898787897
 20
-151.2717311904807
 10
98.80809459335353
 20
-151.1766465550878
 10
98.78070608424581
 20
-151.0939642634418
 10
98.71714407254295
 20
-150.9609835777111
 10
98.67270234078322
 20
-150.9630506350023
 10
98.59019230391147
 20
-150.9671847495846
 10
98.55212399879947
 20
-150.9692518068757
 10
98.55212399879947
 20
-150.9692518068757
 10
98.55212399879947
 20
-150.7894178225457
 10
98.55212399879947
 20
-150.7894178225457
 10
98.67700871013978
 20
-150.7980305612588
 10
98.8504692678221
 20
-150.8021646758411
 10
98.93297930469385
 20
-150.8021646758411
 10
98.93297930469385
 20
-150.8021646758411
 10
99.01548934156558
 20
-150.8021646758411
 10
99.01548934156558
 20
-150.8021646758411
 10
99.01548934156558
 20
-150.6392116593888
 10
99.01548934156558
 20
-150.628876372933
 10
99.01342228427443
 20
-150.5737548451691
 10
99.01342228427443
 20
-150.5737548451691
 10
99.23752574558994
 20
-150.5992485517599
 10
99.23752574558994
 20
-150.5992485517599
 10
99.2418321149465
 20
-150.5992485517599
 10
99.26301945218078
 20
-150.601315609051
 10
99.26301945218078
 20
-150.6181965769288
 10
99.26301945218078
 20
-150.6330104875154
 10
99.2523396561765
 20
-150.64127871668
 10
99.22495114706876
 20
-150.6560926272665
 10
99.21857772042105
 20
-150.7218939510348
 10
99.21651066312991
 20
-150.7429090334948
 10
99.21651066312991
 20
-150.8021646758411
 10
99.21651066312991
 20
-150.8021646758411
 10
99.3115952985228
 20
-150.8021646758411
 10
99.3115952985228
 20
-150.8021646758411
 10
99.39410533539453
 20
-150.8021646758411
 10
99.56756589307687
 20
-150.7980305612588
 10
99.69245060441718
 20
-150.7894178225457
 10
99.69245060441718
 20
-150.7894178225457
 10
99.69245060441718
 20
-150.9692518068757
 10
99.69245060441718
 20
-150.9692518068757
 10
99.66282278324403
 20
-150.9671847495846
 10
99.54431149855142
 20
-150.9630506350023
 10
99.50417613614826
 20
-150.9609835777111
 10
99.4893622255617
 20
-151.0116264813443
 10
99.45542803503199
 20
-151.1235920846149
 10
99.38997122081223
 20
-151.2634629613161
 10
99.43217364050655
 20
-151.2634629613161
 10
99.7093315722949
 20
-151.2441704265986
 10
99.77065427193235
 20
-151.2421033693075
 10
99.77065427193235
 20
-151.2421033693075
 10
99.77065427193235
 20
-151.4264159777684
 10
99.77065427193235
 20
-151.4264159777684
 10
99.7410264507592
 20
-151.4264159777684
 10
99.72414548288147
 20
-151.4219373536375
 10
99.56119246642915
 20
-151.4219373536375
 97
        0
 97
        1
330
121
 75
     2
 76
     1
 98
        1
 10
0.0
 20
0.0
450
        0
451
        0
460
0.0
461
0.0
452
        0
462
0.0
453
        0
470

  0
SPLINE
  5
123
330
11B
100
AcDbEntity
  8
レイヤー 1
100
AcDbSpline
210
0.0
220
0.0
230
1.0
 70
    11
 71
     3
 72
    17
 73
    13
 74
     0
 42
0.0000000001
 43
0.0000000001
 40
0.0
 40
0.0
 40
0.0
 40
0.0
 40
1.0
 40
1.0
 40
1.0
 40
2.0
 40
2.0
 40
2.0
 40
3.0
 40
3.0
 40
3.0
 40
4.0
 40
4.0
 40
4.0
 40
4.0
 10
101.4177544234303
 20
-152.221544015764
 30
0.0
 10
101.4177544234303
 20
-152.221544015764
 30
0.0
 10
100.7111653394055
 20
-152.221544015764
 30
0.0
 10
100.7111653394055
 20
-152.221544015764
 30
0.0
 10
100.7111653394055
 20
-152.221544015764
 30
0.0
 10
100.7111653394055
 20
-152.3359211858743
 30
0.0
 10
100.7111653394055
 20
-152.3359211858743
 30
0.0
 10
100.7111653394055
 20
-152.3359211858743
 30
0.0
 10
101.4177544234303
 20
-152.3359211858743
 30
0.0
 10
101.4177544234303
 20
-152.3359211858743
 30
0.0
 10
101.4177544234303
 20
-152.3359211858743
 30
0.0
 10
101.4177544234303
 20
-152.221544015764
 30
0.0
 10
101.4177544234303
 20
-152.221544015764
 30
0.0
  0
SPLINE
  5
124
330
11B
100
AcDbEntity
  8
レイヤー 1
100
AcDbSpline
210
0.0
220
0.0
230
1.0
 70
    11
 71
     3
 72
    17
 73
    13
 74
     0
 42
0.0000000001
 43
0.0000000001
 40
0.0
 40
0.0
 40
0.0
 40
0.0
 40
1.0
 40
1.0
 40
1.0
 40
2.0
 40
2.0
 40
2.0
 40
3.0
 40
3.0
 40
3.0
 40
4.0
 40
4.0
 40
4.0
 40
4.0
 10
101.4177544234303
 20
-151.9783202745054
 30
0.0
 10
101.4177544234303
 20
-151.9783202745054
 30
0.0
 10
100.7111653394055
 20
-151.9783202745054
 30
0.0
 10
100.7111653394055
 20
-151.9783202745054
 30
0.0
 10
100.7111653394055
 20
-151.9783202745054
 30
0.0
 10
100.7111653394055
 20
-152.0926974446157
 30
0.0
 10
100.7111653394055
 20
-152.0926974446157
 30
0.0
 10
100.7111653394055
 20
-152.0926974446157
 30
0.0
 10
101.4177544234303
 20
-152.0926974446157
 30
0.0
 10
101.4177544234303
 20
-152.0926974446157
 30
0.0
 10
101.4177544234303
 20
-152.0926974446157
 30
0.0
 10
101.4177544234303
 20
-151.9783202745054
 30
0.0
 10
101.4177544234303
 20
-151.9783202745054
 30
0.0
  0
SPLINE
  5
125
330
11B
100
AcDbEntity
  8
レイヤー 1
100
AcDbSpline
210
0.0
220
0.0
230
1.0
 70
    11
 71
     3
 72
    17
 73
    13
 74
     0
 42
0.0000000001
 43
0.0000000001
 40
0.0
 40
0.0
 40
0.0
 40
0.0
 40
1.0
 40
1.0
 40
1.0
 40
2.0
 40
2.0
 40
2.0
 40
3.0
 40
3.0
 40
3.0
 40
4.0
 40
4.0
 40
4.0
 40
4.0
 10
101.4177544234303
 20
-151.7457763292511
 30
0.0
 10
101.4177544234303
 20
-151.7457763292511
 30
0.0
 10
100.7111653394055
 20
-151.7457763292511
 30
0.0
 10
100.7111653394055
 20
-151.7457763292511
 30
0.0
 10
100.7111653394055
 20
-151.7457763292511
 30
0.0
 10
100.7111653394055
 20
-151.8536078179393
 30
0.0
 10
100.7111653394055
 20
-151.8536078179393
 30
0.0
 10
100.7111653394055
 20
-151.8536078179393
 30
0.0
 10
101.4177544234303
 20
-151.8536078179393
 30
0.0
 10
101.4177544234303
 20
-151.8536078179393
 30
0.0
 10
101.4177544234303
 20
-151.8536078179393
 30
0.0
 10
101.4177544234303
 20
-151.7457763292511
 30
0.0
 10
101.4177544234303
 20
-151.7457763292511
 30
0.0
  0
SPLINE
  5
126
330
11B
100
AcDbEntity
  8
レイヤー 1
100
AcDbSpline
210
0.0
220
0.0
230
1.0
 70
     9
 71
     3
 72
   203
 73
   199
 74
     0
 42
0.0000000001
 43
0.0000000001
 40
0.0
 40
0.0
 40
0.0
 40
0.0
 40
1.0
 40
1.0
 40
1.0
 40
2.0
 40
2.0
 40
2.0
 40
3.0
 40
3.0
 40
3.0
 40
4.0
 40
4.0
 40
4.0
 40
5.0
 40
5.0
 40
5.0
 40
6.0
 40
6.0
 40
6.0
 40
7.0
 40
7.0
 40
7.0
 40
8.0
 40
8.0
 40
8.0
 40
9.0
 40
9.0
 40
9.0
 40
10.0
 40
10.0
 40
10.0
 40
11.0
 40
11.0
 40
11.0
 40
12.0
 40
12.0
 40
12.0
 40
13.0
 40
13.0
 40
13.0
 40
14.0
 40
14.0
 40
14.0
 40
15.0
 40
15.0
 40
15.0
 40
16.0
 40
16.0
 40
16.0
 40
17.0
 40
17.0
 40
17.0
 40
18.0
 40
18.0
 40
18.0
 40
19.0
 40
19.0
 40
19.0
 40
20.0
 40
20.0
 40
20.0
 40
21.0
 40
21.0
 40
21.0
 40
22.0
 40
22.0
 40
22.0
 40
23.0
 40
23.0
 40
23.0
 40
24.0
 40
24.0
 40
24.0
 40
25.0
 40
25.0
 40
25.0
 40
26.0
 40
26.0
 40
26.0
 40
27.0
 40
27.0
 40
27.0
 40
28.0
 40
28.0
 40
28.0
 40
29.0
 40
29.0
 40
29.0
 40
30.0
 40
30.0
 40
30.0
 40
31.0
 40
31.0
 40
31.0
 40
32.0
 40
32.0
 40
32.0
 40
33.0
 40
33.0
 40
33.0
 40
34.0
 40
34.0
 40
34.0
 40
35.0
 40
35.0
 40
35.0
 40
36.0
 40
36.0
 40
36.0
 40
37.0
 40
37.0
 40
37.0
 40
38.0
 40
38.0
 40
38.0
 40
39.0
 40
39.0
 40
39.0
 40
40.0
 40
40.0
 40
40.0
 40
41.0
 40
41.0
 40
41.0
 40
42.0
 40
42.0
 40
42.0
 40
43.0
 40
43.0
 40
43.0
 40
44.0
 40
44.0
 40
44.0
 40
45.0
 40
45.0
 40
45.0
 40
46.0
 40
46.0
 40
46.0
 40
47.0
 40
47.0
 40
47.0
 40
48.0
 40
48.0
 40
48.0
 40
49.0
 40
49.0
 40
49.0
 40
50.0
 40
50.0
 40
50.0
 40
51.0
 40
51.0
 40
51.0
 40
52.0
 40
52.0
 40
52.0
 40
53.0
 40
53.0
 40
53.0
 40
54.0
 40
54.0
 40
54.0
 40
55.0
 40
55.0
 40
55.0
 40
56.0
 40
56.0
 40
56.0
 40
57.0
 40
57.0
 40
57.0
 40
58.0
 40
58.0
 40
58.0
 40
59.0
 40
59.0
 40
59.0
 40
60.0
 40
60.0
 40
60.0
 40
61.0
 40
61.0
 40
61.0
 40
62.0
 40
62.0
 40
62.0
 40
63.0
 40
63.0
 40
63.0
 40
64.0
 40
64.0
 40
64.0
 40
65.0
 40
65.0
 40
65.0
 40
66.0
 40
66.0
 40
66.0
 40
66.0
 10
101.2527343496868
 20
-151.489805734697
 30
0.0
 10
101.2527343496868
 20
-151.489805734697
 30
0.0
 10
100.6942843715278
 20
-151.489805734697
 30
0.0
 10
100.6942843715278
 20
-151.489805734697
 30
0.0
 10
100.6836045755235
 20
-151.5342474664567
 30
0.0
 10
100.6751640915847
 20
-151.565942344921
 30
0.0
 10
100.6624172382892
 20
-151.6038383952587
 30
0.0
 10
100.6879109448801
 20
-151.6038383952587
 30
0.0
 10
100.7027248554667
 20
-151.6062499620984
 30
0.0
 10
100.7090982821144
 20
-151.6062499620984
 30
0.0
 10
100.7090982821144
 20
-151.6062499620984
 30
0.0
 10
100.8973727503833
 20
-151.6062499620984
 30
0.0
 10
100.8973727503833
 20
-151.6062499620984
 30
0.0
 10
100.8973727503833
 20
-151.6062499620984
 30
0.0
 10
101.2716823748557
 20
-151.6062499620984
 30
0.0
 10
101.2716823748557
 20
-151.6062499620984
 30
0.0
 10
101.3224975332631
 20
-151.6062499620984
 30
0.0
 10
101.6060288916992
 20
-151.593503108803
 30
0.0
 10
101.6377237701635
 20
-151.593503108803
 30
0.0
 10
101.6356567128723
 20
-151.6207193631364
 30
0.0
 10
101.6334174008069
 20
-151.6400118978539
 30
0.0
 10
101.6334174008069
 20
-151.669639719027
 30
0.0
 10
101.6313503435158
 20
-151.7013345974913
 30
0.0
 10
101.6313503435158
 20
-151.8367268500616
 30
0.0
 10
101.6313503435158
 20
-151.8642876139436
 30
0.0
 10
101.6313503435158
 20
-151.8642876139436
 30
0.0
 10
101.6313503435158
 20
-152.1095784124934
 30
0.0
 10
101.6313503435158
 20
-152.1095784124934
 30
0.0
 10
101.6313503435158
 20
-152.1540201442531
 30
0.0
 10
101.6356567128723
 20
-152.3507350964609
 30
0.0
 10
101.6397908274546
 20
-152.503008316909
 30
0.0
 10
101.6397908274546
 20
-152.503008316909
 30
0.0
 10
101.4134480540737
 20
-152.503008316909
 30
0.0
 10
101.4134480540737
 20
-152.503008316909
 30
0.0
 10
101.4134480540737
 20
-152.503008316909
 30
0.0
 10
101.4156873661391
 20
-152.4692463811535
 30
0.0
 10
101.4156873661391
 20
-152.4692463811535
 30
0.0
 10
101.4156873661391
 20
-152.4692463811535
 30
0.0
 10
100.7132323966967
 20
-152.4692463811535
 30
0.0
 10
100.7132323966967
 20
-152.4692463811535
 30
0.0
 10
100.7132323966967
 20
-152.4692463811535
 30
0.0
 10
100.7152994539878
 20
-152.503008316909
 30
0.0
 10
100.7152994539878
 20
-152.503008316909
 30
0.0
 10
100.7152994539878
 20
-152.503008316909
 30
0.0
 10
100.4973971645458
 20
-152.503008316909
 30
0.0
 10
100.4973971645458
 20
-152.503008316909
 30
0.0
 10
100.5017035339023
 20
-152.447886789145
 30
0.0
 10
100.5017035339023
 20
-152.4354844453981
 30
0.0
 10
100.50807696055
 20
-152.3211072752878
 30
0.0
 10
100.5101440178412
 20
-152.2935465114058
 30
0.0
 10
100.5122110751323
 20
-152.1602213161266
 30
0.0
 10
100.5122110751323
 20
-152.1412732909577
 30
0.0
 10
100.5122110751323
 20
-152.1412732909577
 30
0.0
 10
100.5122110751323
 20
-151.9383571668765
 30
0.0
 10
100.5122110751323
 20
-151.9383571668765
 30
0.0
 10
100.3726847079797
 20
-152.1877820800086
 30
0.0
 10
100.2033582648797
 20
-152.3190402179966
 30
0.0
 10
100.0975938334825
 20
-152.3844970322164
 30
0.0
 10
100.0975938334825
 20
-152.3844970322164
 30
0.0
 10
99.92413327580022
 20
-152.2449706650637
 30
0.0
 10
99.92413327580022
 20
-152.2449706650637
 30
0.0
 10
100.0130167393196
 20
-152.1943277614306
 30
0.0
 10
100.1568494758288
 20
-152.1075113552023
 30
0.0
 10
100.2943087856903
 20
-151.9128634602856
 30
0.0
 10
100.3854315612751
 20
-151.7857394368799
 30
0.0
 10
100.4508883754949
 20
-151.642078955145
 30
0.0
 10
100.4848225660246
 20
-151.489805734697
 30
0.0
 10
100.2562404805783
 20
-151.4918727919881
 30
0.0
 10
100.0764064962482
 20
-151.4980739638616
 30
0.0
 10
99.98132186085538
 20
-151.5001410211527
 30
0.0
 10
99.98132186085538
 20
-151.5001410211527
 30
0.0
 10
99.98132186085538
 20
-151.3227186036624
 30
0.0
 10
99.98132186085538
 20
-151.3227186036624
 30
0.0
 10
100.1780368130631
 20
-151.3289197755358
 30
0.0
 10
100.4615681714992
 20
-151.3330538901181
 30
0.0
 10
100.6117743346561
 20
-151.3330538901181
 30
0.0
 10
100.6117743346561
 20
-151.3330538901181
 30
0.0
 10
100.8253702547416
 20
-151.3330538901181
 30
0.0
 10
100.8253702547416
 20
-151.3330538901181
 30
0.0
 10
100.8253702547416
 20
-151.3330538901181
 30
0.0
 10
100.8253702547416
 20
-151.2252224014298
 30
0.0
 10
100.8253702547416
 20
-151.2252224014298
 30
0.0
 10
100.8253702547416
 20
-151.2252224014298
 30
0.0
 10
100.6794704609412
 20
-151.2252224014298
 30
0.0
 10
100.6794704609412
 20
-151.2252224014298
 30
0.0
 10
100.5101440178412
 20
-151.2252224014298
 30
0.0
 10
100.3409898295154
 20
-151.2293565160121
 30
0.0
 10
100.1737304437065
 20
-151.2359021974341
 30
0.0
 10
100.1737304437065
 20
-151.2359021974341
 30
0.0
 10
100.1737304437065
 20
-151.0646809518171
 30
0.0
 10
100.1737304437065
 20
-151.0646809518171
 30
0.0
 10
100.32824297622
 20
-151.0750162382729
 30
0.0
 10
100.5144503871978
 20
-151.0750162382729
 30
0.0
 10
100.6794704609412
 20
-151.0750162382729
 30
0.0
 10
100.6794704609412
 20
-151.0750162382729
 30
0.0
 10
100.8253702547416
 20
-151.0750162382729
 30
0.0
 10
100.8253702547416
 20
-151.0750162382729
 30
0.0
 10
100.8253702547416
 20
-151.0750162382729
 30
0.0
 10
100.8253702547416
 20
-150.9565049535803
 30
0.0
 10
100.8253702547416
 20
-150.9565049535803
 30
0.0
 10
100.8253702547416
 20
-150.9565049535803
 30
0.0
 10
100.6942843715278
 20
-150.9565049535803
 30
0.0
 10
100.6942843715278
 20
-150.9565049535803
 30
0.0
 10
100.6476033277027
 20
-150.9565049535803
 30
0.0
 10
100.4445149488472
 20
-150.9651176922934
 30
0.0
 10
100.4023125291529
 20
-150.9651176922934
 30
0.0
 10
100.1992241502974
 20
-150.9692518068757
 30
0.0
 10
100.1230875400734
 20
-150.9713188641669
 30
0.0
 10
100.0447116177839
 20
-150.973385921458
 30
0.0
 10
100.0447116177839
 20
-150.973385921458
 30
0.0
 10
100.0447116177839
 20
-150.7894178225457
 30
0.0
 10
100.0447116177839
 20
-150.7894178225457
 30
0.0
 10
100.15891653312
 20
-150.7980305612588
 30
0.0
 10
100.2033582648797
 20
-150.7980305612588
 30
0.0
 10
100.5862806280652
 20
-150.8062987904234
 30
0.0
 10
100.5228908711366
 20
-150.7112141550305
 30
0.0
 10
100.4953301072546
 20
-150.6836533911485
 30
0.0
 10
100.4593288594338
 20
-150.6478243981019
 30
0.0
 10
100.4593288594338
 20
-150.6478243981019
 30
0.0
 10
100.6350287291815
 20
-150.5651421064559
 30
0.0
 10
100.6350287291815
 20
-150.5651421064559
 30
0.0
 10
100.6751640915847
 20
-150.601315609051
 30
0.0
 10
100.7196058233444
 20
-150.6436902835196
 30
0.0
 10
100.7936753762773
 20
-150.7535888294991
 30
0.0
 10
100.7936753762773
 20
-150.7535888294991
 30
0.0
 10
100.6794704609412
 20
-150.8083658477145
 30
0.0
 10
100.6794704609412
 20
-150.8083658477145
 30
0.0
 10
100.6794704609412
 20
-150.8083658477145
 30
0.0
 10
100.6899780021712
 20
-150.8083658477145
 30
0.0
 10
100.6899780021712
 20
-150.8083658477145
 30
0.0
 10
100.6899780021712
 20
-150.8083658477145
 30
0.0
 10
101.2124267325094
 20
-150.8083658477145
 30
0.0
 10
101.2124267325094
 20
-150.8083658477145
 30
0.0
 10
101.2124267325094
 20
-150.8083658477145
 30
0.0
 10
101.1173420971165
 20
-150.7642686255034
 30
0.0
 10
101.1173420971165
 20
-150.7642686255034
 30
0.0
 10
101.1449028609985
 20
-150.7260280656171
 30
0.0
 10
101.2019191912794
 20
-150.6457573408108
 30
0.0
 10
101.2167331018659
 20
-150.5716877878779
 30
0.0
 10
101.2167331018659
 20
-150.5716877878779
 30
0.0
 10
101.4303290219514
 20
-150.6350775448065
 30
0.0
 10
101.4303290219514
 20
-150.6350775448065
 30
0.0
 10
101.4389417606645
 20
-150.6371446020976
 30
0.0
 10
101.4599568431246
 20
-150.6478243981019
 30
0.0
 10
101.4599568431246
 20
-150.6688394805619
 30
0.0
 10
101.4599568431246
 20
-150.7070800404482
 30
0.0
 10
101.3945000289048
 20
-150.7070800404482
 30
0.0
 10
101.3753797489617
 20
-150.7070800404482
 30
0.0
 10
101.3648722077317
 20
-150.7260280656171
 30
0.0
 10
101.3416178132062
 20
-150.7663356827945
 30
0.0
 10
101.3119899920331
 20
-150.8062987904234
 30
0.0
 10
101.7117933230963
 20
-150.8000976185499
 30
0.0
 10
101.7414211442695
 20
-150.7980305612588
 30
0.0
 10
101.8175577544935
 20
-150.7914848798368
 30
0.0
 10
101.8175577544935
 20
-150.7914848798368
 30
0.0
 10
101.8175577544935
 20
-150.973385921458
 30
0.0
 10
101.8175577544935
 20
-150.973385921458
 30
0.0
 10
101.7984374745504
 20
-150.973385921458
 30
0.0
 10
101.7731160227338
 20
-150.9713188641669
 30
0.0
 10
101.5531466760006
 20
-150.9630506350023
 30
0.0
 10
101.5023315175932
 20
-150.9609835777111
 30
0.0
 10
101.2823621708599
 20
-150.9565049535803
 30
0.0
 10
101.2379204391002
 20
-150.9565049535803
 30
0.0
 10
101.2379204391002
 20
-150.9565049535803
 30
0.0
 10
101.0220852069493
 20
-150.9565049535803
 30
0.0
 10
101.0220852069493
 20
-150.9565049535803
 30
0.0
 10
101.0220852069493
 20
-150.9565049535803
 30
0.0
 10
101.0220852069493
 20
-151.0750162382729
 30
0.0
 10
101.0220852069493
 20
-151.0750162382729
 30
0.0
 10
101.0220852069493
 20
-151.0750162382729
 30
0.0
 10
101.1955457646317
 20
-151.0750162382729
 30
0.0
 10
101.1955457646317
 20
-151.0750162382729
 30
0.0
 10
101.358498781084
 20
-151.0750162382729
 30
0.0
 10
101.548840306644
 20
-151.0750162382729
 30
0.0
 10
101.7054198964486
 20
-151.0646809518171
 30
0.0
 10
101.7054198964486
 20
-151.0646809518171
 30
0.0
 10
101.7054198964486
 20
-151.2359021974341
 30
0.0
 10
101.7054198964486
 20
-151.2359021974341
 30
0.0
 10
101.4959580909454
 20
-151.2272894587209
 30
0.0
 10
101.2992431387377
 20
-151.2252224014298
 30
0.0
 10
101.1955457646317
 20
-151.2252224014298
 30
0.0
 10
101.1955457646317
 20
-151.2252224014298
 30
0.0
 10
101.0220852069493
 20
-151.2252224014298
 30
0.0
 10
101.0220852069493
 20
-151.2252224014298
 30
0.0
 10
101.0220852069493
 20
-151.2252224014298
 30
0.0
 10
101.0220852069493
 20
-151.3330538901181
 30
0.0
 10
101.0220852069493
 20
-151.3330538901181
 30
0.0
 10
101.0220852069493
 20
-151.3330538901181
 30
0.0
 10
101.2527343496868
 20
-151.3330538901181
 30
0.0
 10
101.2527343496868
 20
-151.3330538901181
 30
0.0
 10
101.386059544966
 20
-151.3330538901181
 30
0.0
 10
101.6737250179843
 20
-151.3289197755358
 30
0.0
 10
101.8831868234875
 20
-151.3227186036624
 30
0.0
 10
101.8831868234875
 20
-151.3227186036624
 30
0.0
 10
101.8831868234875
 20
-151.5001410211527
 30
0.0
 10
101.8831868234875
 20
-151.5001410211527
 30
0.0
 10
101.6906059858621
 20
-151.4939398492793
 30
0.0
 10
101.3774468062528
 20
-151.489805734697
 30
0.0
 10
101.2527343496868
 20
-151.489805734697
 30
0.0
  0
HATCH
  5
127
330
11B
100
AcDbEntity
  8
レイヤー 1
 62
    18
420
        0
440
 33554687
100
AcDbHatch
 10
0.0
 20
0.0
 30
0.0
210
0.0
220
0.0
230
1.0
  2
SOLID
 70
     1
 71
     1
 91
        4
 92
        1
 93
        1
 72
     4
 94
        3
 73
     0
 74
     0
 95
       17
 96
       13
 40
0.0
 40
0.0
 40
0.0
 40
0.0
 40
1.0
 40
1.0
 40
1.0
 40
2.0
 40
2.0
 40
2.0
 40
3.0
 40
3.0
 40
3.0
 40
4.0
 40
4.0
 40
4.0
 40
4.0
 10
101.4177544234303
 20
-152.221544015764
 10
101.4177544234303
 20
-152.221544015764
 10
100.7111653394055
 20
-152.221544015764
 10
100.7111653394055
 20
-152.221544015764
 10
100.7111653394055
 20
-152.221544015764
 10
100.7111653394055
 20
-152.3359211858743
 10
100.7111653394055
 20
-152.3359211858743
 10
100.7111653394055
 20
-152.3359211858743
 10
101.4177544234303
 20
-152.3359211858743
 10
101.4177544234303
 20
-152.3359211858743
 10
101.4177544234303
 20
-152.3359211858743
 10
101.4177544234303
 20
-152.221544015764
 10
101.4177544234303
 20
-152.221544015764
 97
        0
 97
        1
330
123
 92
        1
 93
        1
 72
     4
 94
        3
 73
     0
 74
     0
 95
       17
 96
       13
 40
0.0
 40
0.0
 40
0.0
 40
0.0
 40
1.0
 40
1.0
 40
1.0
 40
2.0
 40
2.0
 40
2.0
 40
3.0
 40
3.0
 40
3.0
 40
4.0
 40
4.0
 40
4.0
 40
4.0
 10
101.4177544234303
 20
-151.9783202745054
 10
101.4177544234303
 20
-151.9783202745054
 10
100.7111653394055
 20
-151.9783202745054
 10
100.7111653394055
 20
-151.9783202745054
 10
100.7111653394055
 20
-151.9783202745054
 10
100.7111653394055
 20
-152.0926974446157
 10
100.7111653394055
 20
-152.0926974446157
 10
100.7111653394055
 20
-152.0926974446157
 10
101.4177544234303
 20
-152.0926974446157
 10
101.4177544234303
 20
-152.0926974446157
 10
101.4177544234303
 20
-152.0926974446157
 10
101.4177544234303
 20
-151.9783202745054
 10
101.4177544234303
 20
-151.9783202745054
 97
        0
 97
        1
330
124
 92
        1
 93
        1
 72
     4
 94
        3
 73
     0
 74
     0
 95
       17
 96
       13
 40
0.0
 40
0.0
 40
0.0
 40
0.0
 40
1.0
 40
1.0
 40
1.0
 40
2.0
 40
2.0
 40
2.0
 40
3.0
 40
3.0
 40
3.0
 40
4.0
 40
4.0
 40
4.0
 40
4.0
 10
101.4177544234303
 20
-151.7457763292511
 10
101.4177544234303
 20
-151.7457763292511
 10
100.7111653394055
 20
-151.7457763292511
 10
100.7111653394055
 20
-151.7457763292511
 10
100.7111653394055
 20
-151.7457763292511
 10
100.7111653394055
 20
-151.8536078179393
 10
100.7111653394055
 20
-151.8536078179393
 10
100.7111653394055
 20
-151.8536078179393
 10
101.4177544234303
 20
-151.8536078179393
 10
101.4177544234303
 20
-151.8536078179393
 10
101.4177544234303
 20
-151.8536078179393
 10
101.4177544234303
 20
-151.7457763292511
 10
101.4177544234303
 20
-151.7457763292511
 97
        0
 97
        1
330
125
 92
        1
 93
        1
 72
     4
 94
        3
 73
     0
 74
     0
 95
      203
 96
      199
 40
0.0
 40
0.0
 40
0.0
 40
0.0
 40
1.0
 40
1.0
 40
1.0
 40
2.0
 40
2.0
 40
2.0
 40
3.0
 40
3.0
 40
3.0
 40
4.0
 40
4.0
 40
4.0
 40
5.0
 40
5.0
 40
5.0
 40
6.0
 40
6.0
 40
6.0
 40
7.0
 40
7.0
 40
7.0
 40
8.0
 40
8.0
 40
8.0
 40
9.0
 40
9.0
 40
9.0
 40
10.0
 40
10.0
 40
10.0
 40
11.0
 40
11.0
 40
11.0
 40
12.0
 40
12.0
 40
12.0
 40
13.0
 40
13.0
 40
13.0
 40
14.0
 40
14.0
 40
14.0
 40
15.0
 40
15.0
 40
15.0
 40
16.0
 40
16.0
 40
16.0
 40
17.0
 40
17.0
 40
17.0
 40
18.0
 40
18.0
 40
18.0
 40
19.0
 40
19.0
 40
19.0
 40
20.0
 40
20.0
 40
20.0
 40
21.0
 40
21.0
 40
21.0
 40
22.0
 40
22.0
 40
22.0
 40
23.0
 40
23.0
 40
23.0
 40
24.0
 40
24.0
 40
24.0
 40
25.0
 40
25.0
 40
25.0
 40
26.0
 40
26.0
 40
26.0
 40
27.0
 40
27.0
 40
27.0
 40
28.0
 40
28.0
 40
28.0
 40
29.0
 40
29.0
 40
29.0
 40
30.0
 40
30.0
 40
30.0
 40
31.0
 40
31.0
 40
31.0
 40
32.0
 40
32.0
 40
32.0
 40
33.0
 40
33.0
 40
33.0
 40
34.0
 40
34.0
 40
34.0
 40
35.0
 40
35.0
 40
35.0
 40
36.0
 40
36.0
 40
36.0
 40
37.0
 40
37.0
 40
37.0
 40
38.0
 40
38.0
 40
38.0
 40
39.0
 40
39.0
 40
39.0
 40
40.0
 40
40.0
 40
40.0
 40
41.0
 40
41.0
 40
41.0
 40
42.0
 40
42.0
 40
42.0
 40
43.0
 40
43.0
 40
43.0
 40
44.0
 40
44.0
 40
44.0
 40
45.0
 40
45.0
 40
45.0
 40
46.0
 40
46.0
 40
46.0
 40
47.0
 40
47.0
 40
47.0
 40
48.0
 40
48.0
 40
48.0
 40
49.0
 40
49.0
 40
49.0
 40
50.0
 40
50.0
 40
50.0
 40
51.0
 40
51.0
 40
51.0
 40
52.0
 40
52.0
 40
52.0
 40
53.0
 40
53.0
 40
53.0
 40
54.0
 40
54.0
 40
54.0
 40
55.0
 40
55.0
 40
55.0
 40
56.0
 40
56.0
 40
56.0
 40
57.0
 40
57.0
 40
57.0
 40
58.0
 40
58.0
 40
58.0
 40
59.0
 40
59.0
 40
59.0
 40
60.0
 40
60.0
 40
60.0
 40
61.0
 40
61.0
 40
61.0
 40
62.0
 40
62.0
 40
62.0
 40
63.0
 40
63.0
 40
63.0
 40
64.0
 40
64.0
 40
64.0
 40
65.0
 40
65.0
 40
65.0
 40
66.0
 40
66.0
 40
66.0
 40
66.0
 10
101.2527343496868
 20
-151.489805734697
 10
101.2527343496868
 20
-151.489805734697
 10
100.6942843715278
 20
-151.489805734697
 10
100.6942843715278
 20
-151.489805734697
 10
100.6836045755235
 20
-151.5342474664567
 10
100.6751640915847
 20
-151.565942344921
 10
100.6624172382892
 20
-151.6038383952587
 10
100.6879109448801
 20
-151.6038383952587
 10
100.7027248554667
 20
-151.6062499620984
 10
100.7090982821144
 20
-151.6062499620984
 10
100.7090982821144
 20
-151.6062499620984
 10
100.8973727503833
 20
-151.6062499620984
 10
100.8973727503833
 20
-151.6062499620984
 10
100.8973727503833
 20
-151.6062499620984
 10
101.2716823748557
 20
-151.6062499620984
 10
101.2716823748557
 20
-151.6062499620984
 10
101.3224975332631
 20
-151.6062499620984
 10
101.6060288916992
 20
-151.593503108803
 10
101.6377237701635
 20
-151.593503108803
 10
101.6356567128723
 20
-151.6207193631364
 10
101.6334174008069
 20
-151.6400118978539
 10
101.6334174008069
 20
-151.669639719027
 10
101.6313503435158
 20
-151.7013345974913
 10
101.6313503435158
 20
-151.8367268500616
 10
101.6313503435158
 20
-151.8642876139436
 10
101.6313503435158
 20
-151.8642876139436
 10
101.6313503435158
 20
-152.1095784124934
 10
101.6313503435158
 20
-152.1095784124934
 10
101.6313503435158
 20
-152.1540201442531
 10
101.6356567128723
 20
-152.3507350964609
 10
101.6397908274546
 20
-152.503008316909
 10
101.6397908274546
 20
-152.503008316909
 10
101.4134480540737
 20
-152.503008316909
 10
101.4134480540737
 20
-152.503008316909
 10
101.4134480540737
 20
-152.503008316909
 10
101.4156873661391
 20
-152.4692463811535
 10
101.4156873661391
 20
-152.4692463811535
 10
101.4156873661391
 20
-152.4692463811535
 10
100.7132323966967
 20
-152.4692463811535
 10
100.7132323966967
 20
-152.4692463811535
 10
100.7132323966967
 20
-152.4692463811535
 10
100.7152994539878
 20
-152.503008316909
 10
100.7152994539878
 20
-152.503008316909
 10
100.7152994539878
 20
-152.503008316909
 10
100.4973971645458
 20
-152.503008316909
 10
100.4973971645458
 20
-152.503008316909
 10
100.5017035339023
 20
-152.447886789145
 10
100.5017035339023
 20
-152.4354844453981
 10
100.50807696055
 20
-152.3211072752878
 10
100.5101440178412
 20
-152.2935465114058
 10
100.5122110751323
 20
-152.1602213161266
 10
100.5122110751323
 20
-152.1412732909577
 10
100.5122110751323
 20
-152.1412732909577
 10
100.5122110751323
 20
-151.9383571668765
 10
100.5122110751323
 20
-151.9383571668765
 10
100.3726847079797
 20
-152.1877820800086
 10
100.2033582648797
 20
-152.3190402179966
 10
100.0975938334825
 20
-152.3844970322164
 10
100.0975938334825
 20
-152.3844970322164
 10
99.92413327580022
 20
-152.2449706650637
 10
99.92413327580022
 20
-152.2449706650637
 10
100.0130167393196
 20
-152.1943277614306
 10
100.1568494758288
 20
-152.1075113552023
 10
100.2943087856903
 20
-151.9128634602856
 10
100.3854315612751
 20
-151.7857394368799
 10
100.4508883754949
 20
-151.642078955145
 10
100.4848225660246
 20
-151.489805734697
 10
100.2562404805783
 20
-151.4918727919881
 10
100.0764064962482
 20
-151.4980739638616
 10
99.98132186085538
 20
-151.5001410211527
 10
99.98132186085538
 20
-151.5001410211527
 10
99.98132186085538
 20
-151.3227186036624
 10
99.98132186085538
 20
-151.3227186036624
 10
100.1780368130631
 20
-151.3289197755358
 10
100.4615681714992
 20
-151.3330538901181
 10
100.6117743346561
 20
-151.3330538901181
 10
100.6117743346561
 20
-151.3330538901181
 10
100.8253702547416
 20
-151.3330538901181
 10
100.8253702547416
 20
-151.3330538901181
 10
100.8253702547416
 20
-151.3330538901181
 10
100.8253702547416
 20
-151.2252224014298
 10
100.8253702547416
 20
-151.2252224014298
 10
100.8253702547416
 20
-151.2252224014298
 10
100.6794704609412
 20
-151.2252224014298
 10
100.6794704609412
 20
-151.2252224014298
 10
100.5101440178412
 20
-151.2252224014298
 10
100.3409898295154
 20
-151.2293565160121
 10
100.1737304437065
 20
-151.2359021974341
 10
100.1737304437065
 20
-151.2359021974341
 10
100.1737304437065
 20
-151.0646809518171
 10
100.1737304437065
 20
-151.0646809518171
 10
100.32824297622
 20
-151.0750162382729
 10
100.5144503871978
 20
-151.0750162382729
 10
100.6794704609412
 20
-151.0750162382729
 10
100.6794704609412
 20
-151.0750162382729
 10
100.8253702547416
 20
-151.0750162382729
 10
100.8253702547416
 20
-151.0750162382729
 10
100.8253702547416
 20
-151.0750162382729
 10
100.8253702547416
 20
-150.9565049535803
 10
100.8253702547416
 20
-150.9565049535803
 10
100.8253702547416
 20
-150.9565049535803
 10
100.6942843715278
 20
-150.9565049535803
 10
100.6942843715278
 20
-150.9565049535803
 10
100.6476033277027
 20
-150.9565049535803
 10
100.4445149488472
 20
-150.9651176922934
 10
100.4023125291529
 20
-150.9651176922934
 10
100.1992241502974
 20
-150.9692518068757
 10
100.1230875400734
 20
-150.9713188641669
 10
100.0447116177839
 20
-150.973385921458
 10
100.0447116177839
 20
-150.973385921458
 10
100.0447116177839
 20
-150.7894178225457
 10
100.0447116177839
 20
-150.7894178225457
 10
100.15891653312
 20
-150.7980305612588
 10
100.2033582648797
 20
-150.7980305612588
 10
100.5862806280652
 20
-150.8062987904234
 10
100.5228908711366
 20
-150.7112141550305
 10
100.4953301072546
 20
-150.6836533911485
 10
100.4593288594338
 20
-150.6478243981019
 10
100.4593288594338
 20
-150.6478243981019
 10
100.6350287291815
 20
-150.5651421064559
 10
100.6350287291815
 20
-150.5651421064559
 10
100.6751640915847
 20
-150.601315609051
 10
100.7196058233444
 20
-150.6436902835196
 10
100.7936753762773
 20
-150.7535888294991
 10
100.7936753762773
 20
-150.7535888294991
 10
100.6794704609412
 20
-150.8083658477145
 10
100.6794704609412
 20
-150.8083658477145
 10
100.6794704609412
 20
-150.8083658477145
 10
100.6899780021712
 20
-150.8083658477145
 10
100.6899780021712
 20
-150.8083658477145
 10
100.6899780021712
 20
-150.8083658477145
 10
101.2124267325094
 20
-150.8083658477145
 10
101.2124267325094
 20
-150.8083658477145
 10
101.2124267325094
 20
-150.8083658477145
 10
101.1173420971165
 20
-150.7642686255034
 10
101.1173420971165
 20
-150.7642686255034
 10
101.1449028609985
 20
-150.7260280656171
 10
101.2019191912794
 20
-150.6457573408108
 10
101.2167331018659
 20
-150.5716877878779
 10
101.2167331018659
 20
-150.5716877878779
 10
101.4303290219514
 20
-150.6350775448065
 10
101.4303290219514
 20
-150.6350775448065
 10
101.4389417606645
 20
-150.6371446020976
 10
101.4599568431246
 20
-150.6478243981019
 10
101.4599568431246
 20
-150.6688394805619
 10
101.4599568431246
 20
-150.7070800404482
 10
101.3945000289048
 20
-150.7070800404482
 10
101.3753797489617
 20
-150.7070800404482
 10
101.3648722077317
 20
-150.7260280656171
 10
101.3416178132062
 20
-150.7663356827945
 10
101.3119899920331
 20
-150.8062987904234
 10
101.7117933230963
 20
-150.8000976185499
 10
101.7414211442695
 20
-150.7980305612588
 10
101.8175577544935
 20
-150.7914848798368
 10
101.8175577544935
 20
-150.7914848798368
 10
101.8175577544935
 20
-150.973385921458
 10
101.8175577544935
 20
-150.973385921458
 10
101.7984374745504
 20
-150.973385921458
 10
101.7731160227338
 20
-150.9713188641669
 10
101.5531466760006
 20
-150.9630506350023
 10
101.5023315175932
 20
-150.9609835777111
 10
101.2823621708599
 20
-150.9565049535803
 10
101.2379204391002
 20
-150.9565049535803
 10
101.2379204391002
 20
-150.9565049535803
 10
101.0220852069493
 20
-150.9565049535803
 10
101.0220852069493
 20
-150.9565049535803
 10
101.0220852069493
 20
-150.9565049535803
 10
101.0220852069493
 20
-151.0750162382729
 10
101.0220852069493
 20
-151.0750162382729
 10
101.0220852069493
 20
-151.0750162382729
 10
101.1955457646317
 20
-151.0750162382729
 10
101.1955457646317
 20
-151.0750162382729
 10
101.358498781084
 20
-151.0750162382729
 10
101.548840306644
 20
-151.0750162382729
 10
101.7054198964486
 20
-151.0646809518171
 10
101.7054198964486
 20
-151.0646809518171
 10
101.7054198964486
 20
-151.2359021974341
 10
101.7054198964486
 20
-151.2359021974341
 10
101.4959580909454
 20
-151.2272894587209
 10
101.2992431387377
 20
-151.2252224014298
 10
101.1955457646317
 20
-151.2252224014298
 10
101.1955457646317
 20
-151.2252224014298
 10
101.0220852069493
 20
-151.2252224014298
 10
101.0220852069493
 20
-151.2252224014298
 10
101.0220852069493
 20
-151.2252224014298
 10
101.0220852069493
 20
-151.3330538901181
 10
101.0220852069493
 20
-151.3330538901181
 10
101.0220852069493
 20
-151.3330538901181
 10
101.2527343496868
 20
-151.3330538901181
 10
101.2527343496868
 20
-151.3330538901181
 10
101.386059544966
 20
-151.3330538901181
 10
101.6737250179843
 20
-151.3289197755358
 10
101.8831868234875
 20
-151.3227186036624
 10
101.8831868234875
 20
-151.3227186036624
 10
101.8831868234875
 20
-151.5001410211527
 10
101.8831868234875
 20
-151.5001410211527
 10
101.6906059858621
 20
-151.4939398492793
 10
101.3774468062528
 20
-151.489805734697
 10
101.2527343496868
 20
-151.489805734697
 97
        0
 97
        1
330
126
 75
     2
 76
     1
 98
        1
 10
0.0
 20
0.0
450
        0
451
        0
460
0.0
461
0.0
452
        0
462
0.0
453
        0
470

  0
SPLINE
  5
128
330
11B
100
AcDbEntity
  8
レイヤー 1
100
AcDbSpline
210
0.0
220
0.0
230
1.0
 70
     9
 71
     3
 72
    29
 73
    25
 74
     0
 42
0.0000000001
 43
0.0000000001
 40
0.0
 40
0.0
 40
0.0
 40
0.0
 40
1.0
 40
1.0
 40
1.0
 40
2.0
 40
2.0
 40
2.0
 40
3.0
 40
3.0
 40
3.0
 40
4.0
 40
4.0
 40
4.0
 40
5.0
 40
5.0
 40
5.0
 40
6.0
 40
6.0
 40
6.0
 40
7.0
 40
7.0
 40
7.0
 40
8.0
 40
8.0
 40
8.0
 40
8.0
 10
103.1282443318568
 20
-150.9375569284114
 30
0.0
 10
103.1282443318568
 20
-150.9375569284114
 30
0.0
 10
102.7749497898444
 20
-150.9375569284114
 30
0.0
 10
102.7749497898444
 20
-150.9375569284114
 30
0.0
 10
102.6628119317996
 20
-150.9375569284114
 30
0.0
 10
102.5231133098727
 20
-150.9441026098334
 30
0.0
 10
102.4152818211844
 20
-150.9565049535803
 30
0.0
 10
102.4152818211844
 20
-150.9565049535803
 30
0.0
 10
102.4152818211844
 20
-150.7218939510348
 30
0.0
 10
102.4152818211844
 20
-150.7218939510348
 30
0.0
 10
102.5337931058769
 20
-150.7367078616214
 30
0.0
 10
102.7177612047893
 20
-150.7408419762036
 30
0.0
 10
102.7749497898444
 20
-150.7408419762036
 30
0.0
 10
102.7749497898444
 20
-150.7408419762036
 30
0.0
 10
103.1282443318568
 20
-150.7408419762036
 30
0.0
 10
103.1282443318568
 20
-150.7408419762036
 30
0.0
 10
103.1471923570257
 20
-150.7408419762036
 30
0.0
 10
103.3502807358812
 20
-150.7408419762036
 30
0.0
 10
103.4920464150992
 20
-150.7218939510348
 30
0.0
 10
103.4920464150992
 20
-150.7218939510348
 30
0.0
 10
103.4920464150992
 20
-150.9565049535803
 30
0.0
 10
103.4920464150992
 20
-150.9565049535803
 30
0.0
 10
103.3354668252946
 20
-150.9375569284114
 30
0.0
 10
103.1451252997345
 20
-150.9375569284114
 30
0.0
 10
103.1282443318568
 20
-150.9375569284114
 30
0.0
  0
SPLINE
  5
129
330
11B
100
AcDbEntity
  8
レイヤー 1
100
AcDbSpline
210
0.0
220
0.0
230
1.0
 70
     9
 71
     3
 72
    47
 73
    43
 74
     0
 42
0.0000000001
 43
0.0000000001
 40
0.0
 40
0.0
 40
0.0
 40
0.0
 40
1.0
 40
1.0
 40
1.0
 40
2.0
 40
2.0
 40
2.0
 40
3.0
 40
3.0
 40
3.0
 40
4.0
 40
4.0
 40
4.0
 40
5.0
 40
5.0
 40
5.0
 40
6.0
 40
6.0
 40
6.0
 40
7.0
 40
7.0
 40
7.0
 40
8.0
 40
8.0
 40
8.0
 40
9.0
 40
9.0
 40
9.0
 40
10.0
 40
10.0
 40
10.0
 40
11.0
 40
11.0
 40
11.0
 40
12.0
 40
12.0
 40
12.0
 40
13.0
 40
13.0
 40
13.0
 40
14.0
 40
14.0
 40
14.0
 40
14.0
 10
103.2297023938974
 20
-151.4663790853973
 30
0.0
 10
103.2297023938974
 20
-151.4663790853973
 30
0.0
 10
103.1282443318568
 20
-151.4663790853973
 30
0.0
 10
103.1282443318568
 20
-151.4663790853973
 30
0.0
 10
103.1282443318568
 20
-151.5531954916256
 30
0.0
 10
103.1070569946225
 20
-151.9424912814588
 30
0.0
 10
102.9103420424148
 20
-152.1622883734177
 30
0.0
 10
102.7578965671924
 20
-152.331787071292
 30
0.0
 10
102.5506740737547
 20
-152.4013780000941
 30
0.0
 10
102.4660969795918
 20
-152.4289387639761
 30
0.0
 10
102.4660969795918
 20
-152.4289387639761
 30
0.0
 10
102.2714490846752
 20
-152.2618516329415
 30
0.0
 10
102.2714490846752
 20
-152.2618516329415
 30
0.0
 10
102.3687730321335
 20
-152.2491047796461
 30
0.0
 10
102.544300647107
 20
-152.2260226398949
 30
0.0
 10
102.7325751153759
 20
-152.0375759168517
 30
0.0
 10
102.8066446683087
 20
-151.96557342121
 30
0.0
 10
102.9103420424148
 20
-151.8260470540574
 30
0.0
 10
102.9103420424148
 20
-151.4663790853973
 30
0.0
 10
102.9103420424148
 20
-151.4663790853973
 30
0.0
 10
102.6796928996773
 20
-151.4663790853973
 30
0.0
 10
102.6796928996773
 20
-151.4663790853973
 30
0.0
 10
102.4934854886995
 20
-151.4663790853973
 30
0.0
 10
102.3072780777218
 20
-151.4708577095281
 30
0.0
 10
102.1212429215183
 20
-151.4856716201147
 30
0.0
 10
102.1212429215183
 20
-151.4856716201147
 30
0.0
 10
102.1212429215183
 20
-151.2655300186072
 30
0.0
 10
102.1212429215183
 20
-151.2655300186072
 30
0.0
 10
102.3095173897872
 20
-151.2803439291938
 30
0.0
 10
102.5951158055144
 20
-151.2844780437761
 30
0.0
 10
102.6796928996773
 20
-151.2844780437761
 30
0.0
 10
102.6796928996773
 20
-151.2844780437761
 30
0.0
 10
103.2297023938974
 20
-151.2844780437761
 30
0.0
 10
103.2297023938974
 20
-151.2844780437761
 30
0.0
 10
103.2488226738406
 20
-151.2844780437761
 30
0.0
 10
103.5661159680321
 20
-151.2844780437761
 30
0.0
 10
103.7945257987041
 20
-151.2655300186072
 30
0.0
 10
103.7945257987041
 20
-151.2655300186072
 30
0.0
 10
103.7945257987041
 20
-151.4856716201147
 30
0.0
 10
103.7945257987041
 20
-151.4856716201147
 30
0.0
 10
103.6062513304352
 20
-151.4708577095281
 30
0.0
 10
103.4179768621663
 20
-151.4663790853973
 30
0.0
 10
103.2297023938974
 20
-151.4663790853973
 30
0.0
  0
HATCH
  5
12A
330
11B
100
AcDbEntity
  8
レイヤー 1
 62
    18
420
        0
440
 33554687
100
AcDbHatch
 10
0.0
 20
0.0
 30
0.0
210
0.0
220
0.0
230
1.0
  2
SOLID
 70
     1
 71
     1
 91
        2
 92
        1
 93
        1
 72
     4
 94
        3
 73
     0
 74
     0
 95
       29
 96
       25
 40
0.0
 40
0.0
 40
0.0
 40
0.0
 40
1.0
 40
1.0
 40
1.0
 40
2.0
 40
2.0
 40
2.0
 40
3.0
 40
3.0
 40
3.0
 40
4.0
 40
4.0
 40
4.0
 40
5.0
 40
5.0
 40
5.0
 40
6.0
 40
6.0
 40
6.0
 40
7.0
 40
7.0
 40
7.0
 40
8.0
 40
8.0
 40
8.0
 40
8.0
 10
103.1282443318568
 20
-150.9375569284114
 10
103.1282443318568
 20
-150.9375569284114
 10
102.7749497898444
 20
-150.9375569284114
 10
102.7749497898444
 20
-150.9375569284114
 10
102.6628119317996
 20
-150.9375569284114
 10
102.5231133098727
 20
-150.9441026098334
 10
102.4152818211844
 20
-150.9565049535803
 10
102.4152818211844
 20
-150.9565049535803
 10
102.4152818211844
 20
-150.7218939510348
 10
102.4152818211844
 20
-150.7218939510348
 10
102.5337931058769
 20
-150.7367078616214
 10
102.7177612047893
 20
-150.7408419762036
 10
102.7749497898444
 20
-150.7408419762036
 10
102.7749497898444
 20
-150.7408419762036
 10
103.1282443318568
 20
-150.7408419762036
 10
103.1282443318568
 20
-150.7408419762036
 10
103.1471923570257
 20
-150.7408419762036
 10
103.3502807358812
 20
-150.7408419762036
 10
103.4920464150992
 20
-150.7218939510348
 10
103.4920464150992
 20
-150.7218939510348
 10
103.4920464150992
 20
-150.9565049535803
 10
103.4920464150992
 20
-150.9565049535803
 10
103.3354668252946
 20
-150.9375569284114
 10
103.1451252997345
 20
-150.9375569284114
 10
103.1282443318568
 20
-150.9375569284114
 97
        0
 97
        1
330
128
 92
        1
 93
        1
 72
     4
 94
        3
 73
     0
 74
     0
 95
       47
 96
       43
 40
0.0
 40
0.0
 40
0.0
 40
0.0
 40
1.0
 40
1.0
 40
1.0
 40
2.0
 40
2.0
 40
2.0
 40
3.0
 40
3.0
 40
3.0
 40
4.0
 40
4.0
 40
4.0
 40
5.0
 40
5.0
 40
5.0
 40
6.0
 40
6.0
 40
6.0
 40
7.0
 40
7.0
 40
7.0
 40
8.0
 40
8.0
 40
8.0
 40
9.0
 40
9.0
 40
9.0
 40
10.0
 40
10.0
 40
10.0
 40
11.0
 40
11.0
 40
11.0
 40
12.0
 40
12.0
 40
12.0
 40
13.0
 40
13.0
 40
13.0
 40
14.0
 40
14.0
 40
14.0
 40
14.0
 10
103.2297023938974
 20
-151.4663790853973
 10
103.2297023938974
 20
-151.4663790853973
 10
103.1282443318568
 20
-151.4663790853973
 10
103.1282443318568
 20
-151.4663790853973
 10
103.1282443318568
 20
-151.5531954916256
 10
103.1070569946225
 20
-151.9424912814588
 10
102.9103420424148
 20
-152.1622883734177
 10
102.7578965671924
 20
-152.331787071292
 10
102.5506740737547
 20
-152.4013780000941
 10
102.4660969795918
 20
-152.4289387639761
 10
102.4660969795918
 20
-152.4289387639761
 10
102.2714490846752
 20
-152.2618516329415
 10
102.2714490846752
 20
-152.2618516329415
 10
102.3687730321335
 20
-152.2491047796461
 10
102.544300647107
 20
-152.2260226398949
 10
102.7325751153759
 20
-152.0375759168517
 10
102.8066446683087
 20
-151.96557342121
 10
102.9103420424148
 20
-151.8260470540574
 10
102.9103420424148
 20
-151.4663790853973
 10
102.9103420424148
 20
-151.4663790853973
 10
102.6796928996773
 20
-151.4663790853973
 10
102.6796928996773
 20
-151.4663790853973
 10
102.4934854886995
 20
-151.4663790853973
 10
102.3072780777218
 20
-151.4708577095281
 10
102.1212429215183
 20
-151.4856716201147
 10
102.1212429215183
 20
-151.4856716201147
 10
102.1212429215183
 20
-151.2655300186072
 10
102.1212429215183
 20
-151.2655300186072
 10
102.3095173897872
 20
-151.2803439291938
 10
102.5951158055144
 20
-151.2844780437761
 10
102.6796928996773
 20
-151.2844780437761
 10
102.6796928996773
 20
-151.2844780437761
 10
103.2297023938974
 20
-151.2844780437761
 10
103.2297023938974
 20
-151.2844780437761
 10
103.2488226738406
 20
-151.2844780437761
 10
103.5661159680321
 20
-151.2844780437761
 10
103.7945257987041
 20
-151.2655300186072
 10
103.7945257987041
 20
-151.2655300186072
 10
103.7945257987041
 20
-151.4856716201147
 10
103.7945257987041
 20
-151.4856716201147
 10
103.6062513304352
 20
-151.4708577095281
 10
103.4179768621663
 20
-151.4663790853973
 10
103.2297023938974
 20
-151.4663790853973
 97
        0
 97
        1
330
129
 75
     2
 76
     1
 98
        1
 10
0.0
 20
0.0
450
        0
451
        0
460
0.0
461
0.0
452
        0
462
0.0
453
        0
470

  0
SPLINE
  5
12B
330
11B
100
AcDbEntity
  8
レイヤー 1
100
AcDbSpline
210
0.0
220
0.0
230
1.0
 70
     9
 71
     3
 72
    29
 73
    25
 74
     0
 42
0.0000000001
 43
0.0000000001
 40
0.0
 40
0.0
 40
0.0
 40
0.0
 40
1.0
 40
1.0
 40
1.0
 40
2.0
 40
2.0
 40
2.0
 40
3.0
 40
3.0
 40
3.0
 40
4.0
 40
4.0
 40
4.0
 40
5.0
 40
5.0
 40
5.0
 40
6.0
 40
6.0
 40
6.0
 40
7.0
 40
7.0
 40
7.0
 40
8.0
 40
8.0
 40
8.0
 40
8.0
 10
105.07541230012
 20
-151.6293321018496
 30
0.0
 10
105.07541230012
 20
-151.6293321018496
 30
0.0
 10
104.5910318748939
 20
-151.6293321018496
 30
0.0
 10
104.5910318748939
 20
-151.6293321018496
 30
0.0
 10
104.5634711110119
 20
-151.6293321018496
 30
0.0
 10
104.2461778168204
 20
-151.6293321018496
 30
0.0
 10
104.034648954026
 20
-151.6548258084404
 30
0.0
 10
104.034648954026
 20
-151.6548258084404
 30
0.0
 10
104.034648954026
 20
-151.4240044109287
 30
0.0
 10
104.034648954026
 20
-151.4240044109287
 30
0.0
 10
104.1932956011218
 20
-151.4474310602284
 30
0.0
 10
104.3836371266819
 20
-151.4494981175196
 30
0.0
 10
104.5910318748939
 20
-151.4494981175196
 30
0.0
 10
104.5910318748939
 20
-151.4494981175196
 30
0.0
 10
105.07541230012
 20
-151.4494981175196
 30
0.0
 10
105.07541230012
 20
-151.4494981175196
 30
0.0
 10
105.2616197110978
 20
-151.4494981175196
 30
0.0
 10
105.4478271220755
 20
-151.4474310602284
 30
0.0
 10
105.6317952209879
 20
-151.4240044109287
 30
0.0
 10
105.6317952209879
 20
-151.4240044109287
 30
0.0
 10
105.6317952209879
 20
-151.6548258084404
 30
0.0
 10
105.6317952209879
 20
-151.6548258084404
 30
0.0
 10
105.4478271220755
 20
-151.6313991591407
 30
0.0
 10
105.2002970114603
 20
-151.6293321018496
 30
0.0
 10
105.07541230012
 20
-151.6293321018496
 30
0.0
  0
HATCH
  5
12C
330
11B
100
AcDbEntity
  8
レイヤー 1
 62
    18
420
        0
440
 33554687
100
AcDbHatch
 10
0.0
 20
0.0
 30
0.0
210
0.0
220
0.0
230
1.0
  2
SOLID
 70
     1
 71
     1
 91
        1
 92
        1
 93
        1
 72
     4
 94
        3
 73
     0
 74
     0
 95
       29
 96
       25
 40
0.0
 40
0.0
 40
0.0
 40
0.0
 40
1.0
 40
1.0
 40
1.0
 40
2.0
 40
2.0
 40
2.0
 40
3.0
 40
3.0
 40
3.0
 40
4.0
 40
4.0
 40
4.0
 40
5.0
 40
5.0
 40
5.0
 40
6.0
 40
6.0
 40
6.0
 40
7.0
 40
7.0
 40
7.0
 40
8.0
 40
8.0
 40
8.0
 40
8.0
 10
105.07541230012
 20
-151.6293321018496
 10
105.07541230012
 20
-151.6293321018496
 10
104.5910318748939
 20
-151.6293321018496
 10
104.5910318748939
 20
-151.6293321018496
 10
104.5634711110119
 20
-151.6293321018496
 10
104.2461778168204
 20
-151.6293321018496
 10
104.034648954026
 20
-151.6548258084404
 10
104.034648954026
 20
-151.6548258084404
 10
104.034648954026
 20
-151.4240044109287
 10
104.034648954026
 20
-151.4240044109287
 10
104.1932956011218
 20
-151.4474310602284
 10
104.3836371266819
 20
-151.4494981175196
 10
104.5910318748939
 20
-151.4494981175196
 10
104.5910318748939
 20
-151.4494981175196
 10
105.07541230012
 20
-151.4494981175196
 10
105.07541230012
 20
-151.4494981175196
 10
105.2616197110978
 20
-151.4494981175196
 10
105.4478271220755
 20
-151.4474310602284
 10
105.6317952209879
 20
-151.4240044109287
 10
105.6317952209879
 20
-151.4240044109287
 10
105.6317952209879
 20
-151.6548258084404
 10
105.6317952209879
 20
-151.6548258084404
 10
105.4478271220755
 20
-151.6313991591407
 10
105.2002970114603
 20
-151.6293321018496
 10
105.07541230012
 20
-151.6293321018496
 97
        0
 97
        1
330
12B
 75
     2
 76
     1
 98
        1
 10
0.0
 20
0.0
450
        0
451
        0
460
0.0
461
0.0
452
        0
462
0.0
453
        0
470

  0
SPLINE
  5
12D
330
11B
100
AcDbEntity
  8
レイヤー 1
100
AcDbSpline
210
0.0
220
0.0
230
1.0
 70
     9
 71
     3
 72
    47
 73
    43
 74
     0
 42
0.0000000001
 43
0.0000000001
 40
0.0
 40
0.0
 40
0.0
 40
0.0
 40
1.0
 40
1.0
 40
1.0
 40
2.0
 40
2.0
 40
2.0
 40
3.0
 40
3.0
 40
3.0
 40
4.0
 40
4.0
 40
4.0
 40
5.0
 40
5.0
 40
5.0
 40
6.0
 40
6.0
 40
6.0
 40
7.0
 40
7.0
 40
7.0
 40
8.0
 40
8.0
 40
8.0
 40
9.0
 40
9.0
 40
9.0
 40
10.0
 40
10.0
 40
10.0
 40
11.0
 40
11.0
 40
11.0
 40
12.0
 40
12.0
 40
12.0
 40
13.0
 40
13.0
 40
13.0
 40
14.0
 40
14.0
 40
14.0
 40
14.0
 10
107.2957763403635
 20
-151.035053130644
 30
0.0
 10
107.225840902013
 20
-151.3141058649492
 30
0.0
 10
107.1497042917889
 20
-151.6186523058453
 30
0.0
 10
106.8365451121797
 20
-151.9507595106234
 30
0.0
 10
106.5995225427945
 20
-152.200528933304
 30
0.0
 10
106.3542317442448
 20
-152.3000921928277
 30
0.0
 10
106.2484673128476
 20
-152.3421223577478
 30
0.0
 10
106.2484673128476
 20
-152.3421223577478
 30
0.0
 10
106.053819417931
 20
-152.1602213161266
 30
0.0
 10
106.053819417931
 20
-152.1602213161266
 30
0.0
 10
106.2398545741345
 20
-152.1137125270757
 30
0.0
 10
106.6019341096342
 20
-152.020694948974
 30
0.0
 10
106.8978678118172
 20
-151.5256347277436
 30
0.0
 10
107.0587537709783
 20
-151.2589843371852
 30
0.0
 10
107.0715006242738
 20
-151.0856960342772
 30
0.0
 10
107.0797688534384
 20
-150.9947455134666
 30
0.0
 10
107.0797688534384
 20
-150.9947455134666
 30
0.0
 10
106.5743733457522
 20
-150.9947455134666
 30
0.0
 10
106.5743733457522
 20
-150.9947455134666
 30
0.0
 10
106.4558620610596
 20
-150.9947455134666
 30
0.0
 10
106.0348713927621
 20
-151.0136935386355
 30
0.0
 10
105.882598172314
 20
-151.0243733346397
 30
0.0
 10
105.882598172314
 20
-151.0243733346397
 30
0.0
 10
105.882598172314
 20
-150.8149115291366
 30
0.0
 10
105.882598172314
 20
-150.8149115291366
 30
0.0
 10
106.0241915967578
 20
-150.827658382432
 30
0.0
 10
106.3015217833204
 20
-150.8317924970143
 30
0.0
 10
106.4176215011733
 20
-150.8317924970143
 30
0.0
 10
106.4176215011733
 20
-150.8317924970143
 30
0.0
 10
106.7731553552511
 20
-150.8317924970143
 30
0.0
 10
106.7731553552511
 20
-150.8317924970143
 30
0.0
 10
106.8007161191331
 20
-150.8317924970143
 30
0.0
 10
106.9612575687458
 20
-150.8297254397231
 30
0.0
 10
107.0715006242738
 20
-150.8149115291366
 30
0.0
 10
107.1286892093289
 20
-150.8083658477145
 30
0.0
 10
107.1455701772066
 20
-150.7894178225457
 30
0.0
 10
107.1686523169578
 20
-150.7663356827945
 30
0.0
 10
107.1686523169578
 20
-150.7663356827945
 30
0.0
 10
107.357099040001
 20
-150.9165418459514
 30
0.0
 10
107.357099040001
 20
-150.9165418459514
 30
0.0
 10
107.3422851294144
 20
-150.9461696671245
 30
0.0
 10
107.3316053334101
 20
-150.9651176922934
 30
0.0
 10
107.2957763403635
 20
-151.035053130644
 30
0.0
  0
HATCH
  5
12E
330
11B
100
AcDbEntity
  8
レイヤー 1
 62
    18
420
        0
440
 33554687
100
AcDbHatch
 10
0.0
 20
0.0
 30
0.0
210
0.0
220
0.0
230
1.0
  2
SOLID
 70
     1
 71
     1
 91
        1
 92
        1
 93
        1
 72
     4
 94
        3
 73
     0
 74
     0
 95
       47
 96
       43
 40
0.0
 40
0.0
 40
0.0
 40
0.0
 40
1.0
 40
1.0
 40
1.0
 40
2.0
 40
2.0
 40
2.0
 40
3.0
 40
3.0
 40
3.0
 40
4.0
 40
4.0
 40
4.0
 40
5.0
 40
5.0
 40
5.0
 40
6.0
 40
6.0
 40
6.0
 40
7.0
 40
7.0
 40
7.0
 40
8.0
 40
8.0
 40
8.0
 40
9.0
 40
9.0
 40
9.0
 40
10.0
 40
10.0
 40
10.0
 40
11.0
 40
11.0
 40
11.0
 40
12.0
 40
12.0
 40
12.0
 40
13.0
 40
13.0
 40
13.0
 40
14.0
 40
14.0
 40
14.0
 40
14.0
 10
107.2957763403635
 20
-151.035053130644
 10
107.225840902013
 20
-151.3141058649492
 10
107.1497042917889
 20
-151.6186523058453
 10
106.8365451121797
 20
-151.9507595106234
 10
106.5995225427945
 20
-152.200528933304
 10
106.3542317442448
 20
-152.3000921928277
 10
106.2484673128476
 20
-152.3421223577478
 10
106.2484673128476
 20
-152.3421223577478
 10
106.053819417931
 20
-152.1602213161266
 10
106.053819417931
 20
-152.1602213161266
 10
106.2398545741345
 20
-152.1137125270757
 10
106.6019341096342
 20
-152.020694948974
 10
106.8978678118172
 20
-151.5256347277436
 10
107.0587537709783
 20
-151.2589843371852
 10
107.0715006242738
 20
-151.0856960342772
 10
107.0797688534384
 20
-150.9947455134666
 10
107.0797688534384
 20
-150.9947455134666
 10
106.5743733457522
 20
-150.9947455134666
 10
106.5743733457522
 20
-150.9947455134666
 10
106.4558620610596
 20
-150.9947455134666
 10
106.0348713927621
 20
-151.0136935386355
 10
105.882598172314
 20
-151.0243733346397
 10
105.882598172314
 20
-151.0243733346397
 10
105.882598172314
 20
-150.8149115291366
 10
105.882598172314
 20
-150.8149115291366
 10
106.0241915967578
 20
-150.827658382432
 10
106.3015217833204
 20
-150.8317924970143
 10
106.4176215011733
 20
-150.8317924970143
 10
106.4176215011733
 20
-150.8317924970143
 10
106.7731553552511
 20
-150.8317924970143
 10
106.7731553552511
 20
-150.8317924970143
 10
106.8007161191331
 20
-150.8317924970143
 10
106.9612575687458
 20
-150.8297254397231
 10
107.0715006242738
 20
-150.8149115291366
 10
107.1286892093289
 20
-150.8083658477145
 10
107.1455701772066
 20
-150.7894178225457
 10
107.1686523169578
 20
-150.7663356827945
 10
107.1686523169578
 20
-150.7663356827945
 10
107.357099040001
 20
-150.9165418459514
 10
107.357099040001
 20
-150.9165418459514
 10
107.3422851294144
 20
-150.9461696671245
 10
107.3316053334101
 20
-150.9651176922934
 10
107.2957763403635
 20
-151.035053130644
 97
        0
 97
        1
330
12D
 75
     2
 76
     1
 98
        1
 10
0.0
 20
0.0
450
        0
451
        0
460
0.0
461
0.0
452
        0
462
0.0
453
        0
470

  0
SPLINE
  5
12F
330
11B
100
AcDbEntity
  8
レイヤー 1
100
AcDbSpline
210
0.0
220
0.0
230
1.0
 70
    11
 71
     3
 72
    17
 73
    13
 74
     0
 42
0.0000000001
 43
0.0000000001
 40
0.0
 40
0.0
 40
0.0
 40
0.0
 40
1.0
 40
1.0
 40
1.0
 40
2.0
 40
2.0
 40
2.0
 40
3.0
 40
3.0
 40
3.0
 40
4.0
 40
4.0
 40
4.0
 40
4.0
 10
107.6857611492938
 20
-150.8169785864277
 30
0.0
 10
107.6857611492938
 20
-150.876234228774
 30
0.0
 10
107.7326144478932
 20
-150.9227430178248
 30
0.0
 10
107.791525580691
 20
-150.9227430178248
 30
0.0
 10
107.8507812230373
 20
-150.9227430178248
 30
0.0
 10
107.8997015789278
 20
-150.876234228774
 30
0.0
 10
107.8997015789278
 20
-150.8169785864277
 30
0.0
 10
107.8997015789278
 20
-150.7577229440814
 30
0.0
 10
107.8507812230373
 20
-150.7091470977394
 30
0.0
 10
107.791525580691
 20
-150.7091470977394
 30
0.0
 10
107.7326144478932
 20
-150.7091470977394
 30
0.0
 10
107.6857611492938
 20
-150.7577229440814
 30
0.0
 10
107.6857611492938
 20
-150.8169785864277
 30
0.0
  0
SPLINE
  5
130
330
11B
100
AcDbEntity
  8
レイヤー 1
100
AcDbSpline
210
0.0
220
0.0
230
1.0
 70
     9
 71
     3
 72
    17
 73
    13
 74
     0
 42
0.0000000001
 43
0.0000000001
 40
0.0
 40
0.0
 40
0.0
 40
0.0
 40
1.0
 40
1.0
 40
1.0
 40
2.0
 40
2.0
 40
2.0
 40
3.0
 40
3.0
 40
3.0
 40
4.0
 40
4.0
 40
4.0
 40
4.0
 10
108.0009873861942
 20
-150.8169785864277
 30
0.0
 10
108.0009873861942
 20
-150.931355756538
 30
0.0
 10
107.9079698080924
 20
-151.0264403919309
 30
0.0
 10
107.791525580691
 20
-151.0264403919309
 30
0.0
 10
107.6774929201292
 20
-151.0264403919309
 30
0.0
 10
107.5824082847363
 20
-150.931355756538
 30
0.0
 10
107.5824082847363
 20
-150.8169785864277
 30
0.0
 10
107.5824082847363
 20
-150.7005343590262
 30
0.0
 10
107.6774929201292
 20
-150.6075167809245
 30
0.0
 10
107.791525580691
 20
-150.6075167809245
 30
0.0
 10
107.9059027508013
 20
-150.6075167809245
 30
0.0
 10
108.0009873861942
 20
-150.7005343590262
 30
0.0
 10
108.0009873861942
 20
-150.8169785864277
 30
0.0
  0
HATCH
  5
131
330
11B
100
AcDbEntity
  8
レイヤー 1
 62
    18
420
        0
440
 33554687
100
AcDbHatch
 10
0.0
 20
0.0
 30
0.0
210
0.0
220
0.0
230
1.0
  2
SOLID
 70
     1
 71
     1
 91
        2
 92
        1
 93
        1
 72
     4
 94
        3
 73
     0
 74
     0
 95
       17
 96
       13
 40
0.0
 40
0.0
 40
0.0
 40
0.0
 40
1.0
 40
1.0
 40
1.0
 40
2.0
 40
2.0
 40
2.0
 40
3.0
 40
3.0
 40
3.0
 40
4.0
 40
4.0
 40
4.0
 40
4.0
 10
107.6857611492938
 20
-150.8169785864277
 10
107.6857611492938
 20
-150.876234228774
 10
107.7326144478932
 20
-150.9227430178248
 10
107.791525580691
 20
-150.9227430178248
 10
107.8507812230373
 20
-150.9227430178248
 10
107.8997015789278
 20
-150.876234228774
 10
107.8997015789278
 20
-150.8169785864277
 10
107.8997015789278
 20
-150.7577229440814
 10
107.8507812230373
 20
-150.7091470977394
 10
107.791525580691
 20
-150.7091470977394
 10
107.7326144478932
 20
-150.7091470977394
 10
107.6857611492938
 20
-150.7577229440814
 10
107.6857611492938
 20
-150.8169785864277
 97
        0
 97
        1
330
12F
 92
        1
 93
        1
 72
     4
 94
        3
 73
     0
 74
     0
 95
       17
 96
       13
 40
0.0
 40
0.0
 40
0.0
 40
0.0
 40
1.0
 40
1.0
 40
1.0
 40
2.0
 40
2.0
 40
2.0
 40
3.0
 40
3.0
 40
3.0
 40
4.0
 40
4.0
 40
4.0
 40
4.0
 10
108.0009873861942
 20
-150.8169785864277
 10
108.0009873861942
 20
-150.931355756538
 10
107.9079698080924
 20
-151.0264403919309
 10
107.791525580691
 20
-151.0264403919309
 10
107.6774929201292
 20
-151.0264403919309
 10
107.5824082847363
 20
-150.931355756538
 10
107.5824082847363
 20
-150.8169785864277
 10
107.5824082847363
 20
-150.7005343590262
 10
107.6774929201292
 20
-150.6075167809245
 10
107.791525580691
 20
-150.6075167809245
 10
107.9059027508013
 20
-150.6075167809245
 10
108.0009873861942
 20
-150.7005343590262
 10
108.0009873861942
 20
-150.8169785864277
 97
        0
 97
        1
330
130
 75
     2
 76
     1
 98
        1
 10
0.0
 20
0.0
450
        0
451
        0
460
0.0
461
0.0
452
        0
462
0.0
453
        0
470

  0
ENDBLK
  5
11E
330
11B
100
AcDbEntity
  8
0
100
AcDbBlockEnd
  0
ENDSEC
  0
SECTION
  2
ENTITIES
  0
INSERT
  5
7A
330
70
100
AcDbEntity
  8
レイヤー 1
100
AcDbBlockReference
  2
Block_0
 10
0.0
 20
0.0
 30
0.0
  0
LINE
  5
103
330
70
100
AcDbEntity
  8
レイヤー 1
 62
   250
420
  2299925
370
     9
100
AcDbLine
 10
110.2736313332117
 20
-150.7982641377687
 30
0.0
 11
118.2731494624603
 21
-150.7982641377687
 31
0.0
  0
INSERT
  5
105
330
70
100
AcDbEntity
  8
レイヤー 1
100
AcDbBlockReference
  2
Block_10
 10
0.0
 20
0.0
 30
0.0
  0
LINE
  5
10A
330
70
100
AcDbEntity
  8
レイヤー 1
  6
AI-Linetype-0
 62
   154
420
    23468
370
    25
100
AcDbLine
 10
96.49324974033406
 20
-146.3189388611108
 30
0.0
 11
106.4933353185439
 21
-146.3189388611108
 31
0.0
  0
INSERT
  5
10D
330
70
100
AcDbEntity
  8
レイヤー 1
100
AcDbBlockReference
  2
Block_11
 10
0.0
 20
0.0
 30
0.0
  0
ENDSEC
  0
SECTION
  2
OBJECTS
  0
DICTIONARY
  5
C
330
0
100
AcDbDictionary
281
     1
  3
ACAD_COLOR
350
63
  3
ACAD_DETAILVIEWSTYLE
350
6A
  3
ACAD_GROUP
350
D
  3
ACAD_LAYOUT
350
62
  3
ACAD_MATERIAL
350
10
  3
ACAD_MLEADERSTYLE
350
66
  3
ACAD_MLINESTYLE
350
5F
  3
ACAD_PLOTSETTINGS
350
61
  3
ACAD_PLOTSTYLENAME
350
E
  3
ACAD_SCALELIST
350
42
  3
ACAD_SECTIONVIEWSTYLE
350
68
  3
ACAD_TABLESTYLE
350
64
  3
ACAD_VISUALSTYLE
350
29
  3
ACDB_RECOMPOSE_DATA
350
13A
  3
AcDbVariableDictionary
350
132
  0
DICTIONARY
  5
63
102
{ACAD_REACTORS
330
C
102
}
330
C
100
AcDbDictionary
281
     1
  0
DICTIONARY
  5
6A
102
{ACAD_REACTORS
330
C
102
}
330
C
100
AcDbDictionary
281
     1
  3
Imperial24
350
6B
  0
DICTIONARY
  5
D
102
{ACAD_REACTORS
330
C
102
}
330
C
100
AcDbDictionary
281
     1
  0
DICTIONARY
  5
62
102
{ACAD_REACTORS
330
C
102
}
330
C
100
AcDbDictionary
281
     1
  3
Layout1
350
6F
  3
Layout2
350
77
  3
Model
350
73
  0
DICTIONARY
  5
10
102
{ACAD_REACTORS
330
C
102
}
330
C
100
AcDbDictionary
281
     1
  3
ByBlock
350
19
  3
ByLayer
350
11
  3
Global
350
21
  0
DICTIONARY
  5
66
102
{ACAD_REACTORS
330
C
102
}
330
C
100
AcDbDictionary
281
     1
  3
Standard
350
67
  0
DICTIONARY
  5
5F
102
{ACAD_REACTORS
330
C
102
}
330
C
100
AcDbDictionary
281
     1
  3
Standard
350
60
  0
DICTIONARY
  5
61
102
{ACAD_REACTORS
330
C
102
}
330
C
100
AcDbDictionary
281
     1
  0
ACDBDICTIONARYWDFLT
  5
E
102
{ACAD_REACTORS
330
C
102
}
330
C
100
AcDbDictionary
281
     1
  3
Normal
350
F
100
AcDbDictionaryWithDefault
340
F
  0
DICTIONARY
  5
42
102
{ACAD_REACTORS
330
C
102
}
330
C
100
AcDbDictionary
281
     1
  3
A0
350
43
  3
A1
350
44
  3
A2
350
45
  3
A3
350
46
  3
A4
350
47
  3
A5
350
48
  3
A6
350
49
  3
A7
350
4A
  3
A8
350
4B
  3
A9
350
4C
  3
B0
350
4D
  3
B1
350
4E
  3
B2
350
4F
  3
B3
350
50
  3
B4
350
51
  3
B5
350
52
  3
B6
350
53
  0
DICTIONARY
  5
68
102
{ACAD_REACTORS
330
C
102
}
330
C
100
AcDbDictionary
281
     1
  3
Imperial24
350
69
  0
DICTIONARY
  5
64
102
{ACAD_REACTORS
330
C
102
}
330
C
100
AcDbDictionary
281
     1
  3
Standard
350
65
  0
DICTIONARY
  5
29
102
{ACAD_REACTORS
330
C
102
}
330
C
100
AcDbDictionary
281
     1
  3
2dWireframe
350
2F
  3
Basic
350
2E
  3
Brighten
350
35
  3
ColorChange
350
39
  3
Conceptual
350
32
  3
Dim
350
34
  3
EdgeColorOff
350
41
  3
Facepattern
350
38
  3
Flat
350
2A
  3
FlatWithEdges
350
2B
  3
Gouraud
350
2C
  3
GouraudWithEdges
350
2D
  3
Hidden
350
31
  3
JitterOff
350
3F
  3
Linepattern
350
37
  3
OverhangOff
350
40
  3
Realistic
350
33
  3
Shaded
350
3E
  3
Shaded with edges
350
3D
  3
Shades of Gray
350
3A
  3
Sketchy
350
3B
  3
Thicken
350
36
  3
Wireframe
350
30
  3
X-Ray
350
3C
  0
XRECORD
  5
13A
102
{ACAD_REACTORS
330
C
102
}
330
C
100
AcDbXrecord
280
     1
 90
        1
330
65
  0
DICTIONARY
  5
132
102
{ACAD_REACTORS
330
C
102
}
330
C
100
AcDbDictionary
281
     1
  3
CANNOSCALE
350
137
  3
CMLEADERSTYLE
350
134
  3
CTABLESTYLE
350
133
  3
CVIEWDETAILSTYLE
350
135
  3
CVIEWSECTIONSTYLE
350
136
  0
ACDBDETAILVIEWSTYLE
  5
6B
102
{ACAD_XDICTIONARY
360
16F
102
}
102
{ACAD_REACTORS
330
6A
102
}
330
6A
100
AcDbModelDocViewStyle
 70
     0
  3
Imperial24
290
     0
100
AcDbDetailViewStyle
 70
     0
 71
     0
 90
        3
 71
     1
340
55
 62
   256
 40
0.24
340
0
 62
   256
 40
0.24
300

 40
0.36
280
     3
 71
     2
340
5D
 90
       25
 62
   256
 71
     3
340
55
 62
   256
 40
0.24
 90
        1
 40
0.75
 90
        1
300
%<\AcVar ViewType \f "%tc1">% %<\AcVar ViewDetailId>%\PSCALE %<\AcVar ViewScale \f "%sn">%
 71
     4
340
5D
 90
       25
 62
   256
340
5D
 90
       25
 62
   256
280
     0
  0
LAYOUT
  5
6F
102
{ACAD_REACTORS
330
62
102
}
330
62
100
AcDbPlotSettings
  1

  2

  4

  6

 40
0.0
 41
0.0
 42
0.0
 43
0.0
 44
0.0
 45
0.0
 46
0.0
 47
0.0
 48
0.0
 49
0.0
140
0.0
141
0.0
142
1.0
143
1.0
 70
   688
 72
     0
 73
     0
 74
     5
  7

 75
    16
147
1.0
 76
     0
 77
     2
 78
   300
148
0.0
149
0.0
100
AcDbLayout
  1
Layout1
 70
     1
 71
     1
 10
0.0
 20
0.0
 11
12.0
 21
9.0
 12
0.0
 22
0.0
 32
0.0
 14
0.0
 24
0.0
 34
0.0
 15
0.0
 25
0.0
 35
0.0
146
0.0
 13
0.0
 23
0.0
 33
0.0
 16
1.0
 26
0.0
 36
0.0
 17
0.0
 27
1.0
 37
0.0
 76
     0
330
6C
  0
LAYOUT
  5
77
102
{ACAD_REACTORS
330
62
102
}
330
62
100
AcDbPlotSettings
  1

  2

  4

  6

 40
0.0
 41
0.0
 42
0.0
 43
0.0
 44
0.0
 45
0.0
 46
0.0
 47
0.0
 48
0.0
 49
0.0
140
0.0
141
0.0
142
1.0
143
1.0
 70
   688
 72
     0
 73
     0
 74
     5
  7

 75
    16
147
1.0
 76
     0
 77
     2
 78
   300
148
0.0
149
0.0
100
AcDbLayout
  1
Layout2
 70
     1
 71
     2
 10
0.0
 20
0.0
 11
12.0
 21
9.0
 12
0.0
 22
0.0
 32
0.0
 14
0.0
 24
0.0
 34
0.0
 15
0.0
 25
0.0
 35
0.0
146
0.0
 13
0.0
 23
0.0
 33
0.0
 16
1.0
 26
0.0
 36
0.0
 17
0.0
 27
1.0
 37
0.0
 76
     0
330
74
  0
LAYOUT
  5
73
102
{ACAD_REACTORS
330
62
102
}
330
62
100
AcDbPlotSettings
  1

  2

  4

  6

 40
0.0
 41
0.0
 42
0.0
 43
0.0
 44
0.0
 45
0.0
 46
0.0
 47
0.0
 48
0.0
 49
0.0
140
0.0
141
0.0
142
1.0
143
1.0
 70
  1712
 72
     0
 73
     0
 74
     0
  7

 75
     0
147
1.0
 76
     0
 77
     2
 78
   300
148
0.0
149
0.0
100
AcDbLayout
  1
Model
 70
     1
 71
     0
 10
0.0
 20
0.0
 11
12.0
 21
9.0
 12
0.0
 22
0.0
 32
0.0
 14
0.0
 24
0.0
 34
0.0
 15
0.0
 25
0.0
 35
0.0
146
0.0
 13
0.0
 23
0.0
 33
0.0
 16
1.0
 26
0.0
 36
0.0
 17
0.0
 27
1.0
 37
0.0
 76
     0
330
70
  0
MATERIAL
  5
19
102
{ACAD_XDICTIONARY
360
1A
102
}
102
{ACAD_REACTORS
330
10
102
}
330
10
100
AcDbMaterial
  1
ByBlock
 72
     0
 43
0.0208333333333333
 43
0.0
 43
0.0
 43
0.0
 43
0.0
 43
0.0208333333333333
 43
0.0
 43
0.0
 43
0.0
 43
0.0
 43
1.0
 43
0.0
 43
0.0
 43
0.0
 43
0.0
 43
1.0
 77
     0
 47
0.0208333333333333
 47
0.0
 47
0.0
 47
0.0
 47
0.0
 47
0.0208333333333333
 47
0.0
 47
0.0
 47
0.0
 47
0.0
 47
1.0
 47
0.0
 47
0.0
 47
0.0
 47
0.0
 47
1.0
171
     0
 49
0.0208333333333333
 49
0.0
 49
0.0
 49
0.0
 49
0.0
 49
0.0208333333333333
 49
0.0
 49
0.0
 49
0.0
 49
0.0
 49
1.0
 49
0.0
 49
0.0
 49
0.0
 49
0.0
 49
1.0
175
     0
142
0.0208333333333333
142
0.0
142
0.0
142
0.0
142
0.0
142
0.0208333333333333
142
0.0
142
0.0
142
0.0
142
0.0
142
1.0
142
0.0
142
0.0
142
0.0
142
0.0
142
1.0
179
     0
144
0.0208333333333333
144
0.0
144
0.0
144
0.0
144
0.0
144
0.0208333333333333
144
0.0
144
0.0
144
0.0
144
0.0
144
1.0
144
0.0
144
0.0
144
0.0
144
0.0
144
1.0
147
0.0208333333333333
147
0.0
147
0.0
147
0.0
147
0.0
147
0.0208333333333333
147
0.0
147
0.0
147
0.0
147
0.0
147
1.0
147
0.0
147
0.0
147
0.0
147
0.0
147
1.0
  0
MATERIAL
  5
11
102
{ACAD_XDICTIONARY
360
12
102
}
102
{ACAD_REACTORS
330
10
102
}
330
10
100
AcDbMaterial
  1
ByLayer
 72
     0
 43
0.0208333333333333
 43
0.0
 43
0.0
 43
0.0
 43
0.0
 43
0.0208333333333333
 43
0.0
 43
0.0
 43
0.0
 43
0.0
 43
1.0
 43
0.0
 43
0.0
 43
0.0
 43
0.0
 43
1.0
 77
     0
 47
0.0208333333333333
 47
0.0
 47
0.0
 47
0.0
 47
0.0
 47
0.0208333333333333
 47
0.0
 47
0.0
 47
0.0
 47
0.0
 47
1.0
 47
0.0
 47
0.0
 47
0.0
 47
0.0
 47
1.0
171
     0
 49
0.0208333333333333
 49
0.0
 49
0.0
 49
0.0
 49
0.0
 49
0.0208333333333333
 49
0.0
 49
0.0
 49
0.0
 49
0.0
 49
1.0
 49
0.0
 49
0.0
 49
0.0
 49
0.0
 49
1.0
175
     0
142
0.0208333333333333
142
0.0
142
0.0
142
0.0
142
0.0
142
0.0208333333333333
142
0.0
142
0.0
142
0.0
142
0.0
142
1.0
142
0.0
142
0.0
142
0.0
142
0.0
142
1.0
179
     0
144
0.0208333333333333
144
0.0
144
0.0
144
0.0
144
0.0
144
0.0208333333333333
144
0.0
144
0.0
144
0.0
144
0.0
144
1.0
144
0.0
144
0.0
144
0.0
144
0.0
144
1.0
147
0.0208333333333333
147
0.0
147
0.0
147
0.0
147
0.0
147
0.0208333333333333
147
0.0
147
0.0
147
0.0
147
0.0
147
1.0
147
0.0
147
0.0
147
0.0
147
0.0
147
1.0
  0
MATERIAL
  5
21
102
{ACAD_XDICTIONARY
360
22
102
}
102
{ACAD_REACTORS
330
10
102
}
330
10
100
AcDbMaterial
  1
Global
 72
     0
 43
0.0208333333333333
 43
0.0
 43
0.0
 43
0.0
 43
0.0
 43
0.0208333333333333
 43
0.0
 43
0.0
 43
0.0
 43
0.0
 43
1.0
 43
0.0
 43
0.0
 43
0.0
 43
0.0
 43
1.0
 77
     0
 47
0.0208333333333333
 47
0.0
 47
0.0
 47
0.0
 47
0.0
 47
0.0208333333333333
 47
0.0
 47
0.0
 47
0.0
 47
0.0
 47
1.0
 47
0.0
 47
0.0
 47
0.0
 47
0.0
 47
1.0
171
     0
 49
0.0208333333333333
 49
0.0
 49
0.0
 49
0.0
 49
0.0
 49
0.0208333333333333
 49
0.0
 49
0.0
 49
0.0
 49
0.0
 49
1.0
 49
0.0
 49
0.0
 49
0.0
 49
0.0
 49
1.0
175
     0
142
0.0208333333333333
142
0.0
142
0.0
142
0.0
142
0.0
142
0.0208333333333333
142
0.0
142
0.0
142
0.0
142
0.0
142
1.0
142
0.0
142
0.0
142
0.0
142
0.0
142
1.0
179
     0
144
0.0208333333333333
144
0.0
144
0.0
144
0.0
144
0.0
144
0.0208333333333333
144
0.0
144
0.0
144
0.0
144
0.0
144
1.0
144
0.0
144
0.0
144
0.0
144
0.0
144
1.0
147
0.0208333333333333
147
0.0
147
0.0
147
0.0
147
0.0
147
0.0208333333333333
147
0.0
147
0.0
147
0.0
147
0.0
147
1.0
147
0.0
147
0.0
147
0.0
147
0.0
147
1.0
  0
MLEADERSTYLE
  5
67
102
{ACAD_XDICTIONARY
360
16B
102
}
102
{ACAD_REACTORS
330
66
102
}
330
66
100
AcDbMLeaderStyle
179
     2
170
     2
171
     1
172
     0
 90
        2
 40
0.0
 41
0.0
173
     1
 91
-1056964608
340
5B
 92
       -2
290
     1
 42
0.09
291
     1
 43
0.36
  3
Standard
 44
0.18
300

342
55
174
     1
178
     6
175
     1
176
     0
 93
-1056964608
 45
0.18
292
     0
297
     0
 46
0.18
 94
-1056964608
 47
1.0
 49
1.0
140
1.0
293
     1
141
0.0
294
     1
177
     0
142
1.0
295
     0
296
     0
143
0.125
271
     0
272
     9
273
     9
  0
MLINESTYLE
  5
60
102
{ACAD_REACTORS
330
5F
102
}
330
5F
100
AcDbMlineStyle
  2
STANDARD
 70
     0
  3

 62
   256
 51
90.0
 52
90.0
 71
     2
 49
0.5
 62
   256
  6
BYLAYER
 49
-0.5
 62
   256
  6
BYLAYER
  0
ACDBPLACEHOLDER
  5
F
102
{ACAD_REACTORS
330
E
102
}
330
E
  0
SCALE
  5
43
102
{ACAD_REACTORS
330
42
102
}
330
42
100
AcDbScale
 70
     0
300
1:1
140
1.0
141
1.0
290
     1
  0
SCALE
  5
44
102
{ACAD_REACTORS
330
42
102
}
330
42
100
AcDbScale
 70
     0
300
1/128" = 1'-0"
140
0.0078125
141
12.0
290
     0
  0
SCALE
  5
45
102
{ACAD_REACTORS
330
42
102
}
330
42
100
AcDbScale
 70
     0
300
1/64" = 1'-0"
140
0.015625
141
12.0
290
     0
  0
SCALE
  5
46
102
{ACAD_REACTORS
330
42
102
}
330
42
100
AcDbScale
 70
     0
300
1/32" = 1'-0"
140
0.03125
141
12.0
290
     0
  0
SCALE
  5
47
102
{ACAD_REACTORS
330
42
102
}
330
42
100
AcDbScale
 70
     0
300
1/16" = 1'-0"
140
0.0625
141
12.0
290
     0
  0
SCALE
  5
48
102
{ACAD_REACTORS
330
42
102
}
330
42
100
AcDbScale
 70
     0
300
3/32" = 1'-0"
140
0.09375
141
12.0
290
     0
  0
SCALE
  5
49
102
{ACAD_REACTORS
330
42
102
}
330
42
100
AcDbScale
 70
     0
300
1/8" = 1'-0"
140
0.125
141
12.0
290
     0
  0
SCALE
  5
4A
102
{ACAD_REACTORS
330
42
102
}
330
42
100
AcDbScale
 70
     0
300
3/16" = 1'-0"
140
0.1875
141
12.0
290
     0
  0
SCALE
  5
4B
102
{ACAD_REACTORS
330
42
102
}
330
42
100
AcDbScale
 70
     0
300
1/4" = 1'-0"
140
0.25
141
12.0
290
     0
  0
SCALE
  5
4C
102
{ACAD_REACTORS
330
42
102
}
330
42
100
AcDbScale
 70
     0
300
3/8" = 1'-0"
140
0.375
141
12.0
290
     0
  0
SCALE
  5
4D
102
{ACAD_REACTORS
330
42
102
}
330
42
100
AcDbScale
 70
     0
300
1/2" = 1'-0"
140
0.5
141
12.0
290
     0
  0
SCALE
  5
4E
102
{ACAD_REACTORS
330
42
102
}
330
42
100
AcDbScale
 70
     0
300
3/4" = 1'-0"
140
0.75
141
12.0
290
     0
  0
SCALE
  5
4F
102
{ACAD_REACTORS
330
42
102
}
330
42
100
AcDbScale
 70
     0
300
1" = 1'-0"
140
1.0
141
12.0
290
     0
  0
SCALE
  5
50
102
{ACAD_REACTORS
330
42
102
}
330
42
100
AcDbScale
 70
     0
300
1-1/2" = 1'-0"
140
1.5
141
12.0
290
     0
  0
SCALE
  5
51
102
{ACAD_REACTORS
330
42
102
}
330
42
100
AcDbScale
 70
     0
300
3" = 1'-0"
140
3.0
141
12.0
290
     0
  0
SCALE
  5
52
102
{ACAD_REACTORS
330
42
102
}
330
42
100
AcDbScale
 70
     0
300
6" = 1'-0"
140
6.0
141
12.0
290
     0
  0
SCALE
  5
53
102
{ACAD_REACTORS
330
42
102
}
330
42
100
AcDbScale
 70
     0
300
1'-0" = 1'-0"
140
12.0
141
12.0
290
     0
  0
ACDBSECTIONVIEWSTYLE
  5
69
102
{ACAD_XDICTIONARY
360
16D
102
}
102
{ACAD_REACTORS
330
68
102
}
330
68
100
AcDbModelDocViewStyle
 70
     0
  3
Imperial24
290
     0
100
AcDbSectionViewStyle
 70
     0
 71
     0
 90
       78
 71
     1
340
55
 62
   256
 40
0.24
340
0
340
0
 62
   256
 40
0.24
300
I, O, Q, S, X, Z
 40
0.48
 90
        3
 40
0.18
 90
        1
 71
     2
340
5D
 90
       25
 62
   256
340
5D
 90
       50
 62
   256
 40
0.24
 40
0.0
 40
0.24
 71
     3
340
55
 62
   256
 40
0.24
 90
        1
 40
0.75
 90
        1
300
%<\AcVar ViewType \f "%tc1">% %<\AcVar ViewSectionStartId>%-%<\AcVar ViewSectionEndId>%\PSCALE %<\AcVar ViewScale \f "%sn">%
 71
     4
 62
   256
 62
   257
300
ANSI31
 40
1.0
 90
        0
290
     0
290
     0
 90
        6
 40
0.0
 40
1.570796326794896
 40
0.2617993877991494
 40
1.308996938995747
 40
-0.2617993877991494
 40
1.832595714594046
  0
TABLESTYLE
  5
65
102
{ACAD_XDICTIONARY
360
138
102
}
102
{ACAD_REACTORS
330
64
102
}
330
64
100
AcDbTableStyle
280
     0
  3
Standard
 70
     0
 71
     0
 40
0.06
 41
0.06
280
     0
281
     0
  7
Standard
140
0.18
170
     2
 62
     0
 63
     7
283
     0
 90
      512
 91
        0
  1

274
    -2
284
     1
 64
     0
275
    -2
285
     1
 65
     0
276
    -2
286
     1
 66
     0
277
    -2
287
     1
 67
     0
278
    -2
288
     1
 68
     0
279
    -2
289
     1
 69
     0
  7
Standard
140
0.25
170
     5
 62
     0
 63
     7
283
     0
 90
      512
 91
        0
  1

274
    -2
284
     1
 64
     0
275
    -2
285
     1
 65
     0
276
    -2
286
     1
 66
     0
277
    -2
287
     1
 67
     0
278
    -2
288
     1
 68
     0
279
    -2
289
     1
 69
     0
  7
Standard
140
0.18
170
     5
 62
     0
 63
     7
283
     0
 90
      512
 91
        0
  1

274
    -2
284
     1
 64
     0
275
    -2
285
     1
 65
     0
276
    -2
286
     1
 66
     0
277
    -2
287
     1
 67
     0
278
    -2
288
     1
 68
     0
279
    -2
289
     1
 69
     0
  0
VISUALSTYLE
  5
2F
102
{ACAD_XDICTIONARY
360
145
102
}
102
{ACAD_REACTORS
330
29
102
}
330
29
100
AcDbVisualStyle
  2
2dWireframe
 70
     4
177
     2
291
     0
 71
     0
176
     1
 72
     2
176
     1
 73
     0
176
     1
 90
        0
176
     1
 40
0.6
176
     1
 41
30.0
176
     1
 63
     7
421
 16777215
176
     1
 74
     1
176
     1
 91
        4
176
     1
 64
     7
176
     1
 65
   257
176
     1
 75
     1
176
     1
175
     1
176
     1
 42
1.0
176
     1
 92
        0
176
     1
 66
   257
176
     1
 43
1.0
176
     1
 76
     1
176
     1
 77
     6
176
     1
 78
     2
176
     1
 67
     7
176
     1
 79
     5
176
     1
170
     0
176
     1
171
     0
176
     1
290
     0
176
     1
 93
        1
176
     1
 44
0.0
176
     1
173
     0
176
     1
1001
ACAD
1000
AcDbSavedByObjectVersion
1070
     0
  0
VISUALSTYLE
  5
2E
102
{ACAD_XDICTIONARY
360
143
102
}
102
{ACAD_REACTORS
330
29
102
}
330
29
100
AcDbVisualStyle
  2
Basic
 70
     7
177
     2
291
     1
 71
     1
176
     1
 72
     0
176
     1
 73
     1
176
     1
 90
        0
176
     1
 40
0.6
176
     1
 41
30.0
176
     1
 63
     7
421
 16777215
176
     1
 74
     0
176
     1
 91
        4
176
     1
 64
     7
176
     1
 65
   257
176
     1
 75
     1
176
     1
175
     1
176
     1
 42
1.0
176
     1
 92
        8
176
     1
 66
     7
176
     1
 43
1.0
176
     1
 76
     1
176
     1
 77
     6
176
     1
 78
     2
176
     1
 67
     7
176
     1
 79
     5
176
     1
170
     0
176
     1
171
     0
176
     1
290
     0
176
     1
 93
        1
176
     1
 44
0.0
176
     1
173
     0
176
     1
1001
ACAD
1000
AcDbSavedByObjectVersion
1070
     0
  0
VISUALSTYLE
  5
35
102
{ACAD_XDICTIONARY
360
151
102
}
102
{ACAD_REACTORS
330
29
102
}
330
29
100
AcDbVisualStyle
  2
Brighten
 70
    12
177
     2
291
     1
 71
     2
176
     1
 72
     2
176
     1
 73
     0
176
     1
 90
        0
176
     1
 40
0.6
176
     1
 41
30.0
176
     1
 63
     7
421
 16777215
176
     1
 74
     1
176
     1
 91
        4
176
     1
 64
     7
176
     1
 65
   257
176
     1
 75
     1
176
     1
175
     1
176
     1
 42
1.0
176
     1
 92
        8
176
     1
 66
     7
176
     1
 43
1.0
176
     1
 76
     1
176
     1
 77
     6
176
     1
 78
     2
176
     1
 67
     7
176
     1
 79
     5
176
     1
170
     0
176
     1
171
     0
176
     1
290
     0
176
     1
 93
        1
176
     1
 44
50.0
176
     1
173
     0
176
     1
1001
ACAD
1000
AcDbSavedByObjectVersion
1070
     0
  0
VISUALSTYLE
  5
39
102
{ACAD_XDICTIONARY
360
159
102
}
102
{ACAD_REACTORS
330
29
102
}
330
29
100
AcDbVisualStyle
  2
ColorChange
 70
    16
177
     2
291
     1
 71
     2
176
     1
 72
     2
176
     1
 73
     3
176
     1
 90
        0
176
     1
 40
0.6
176
     1
 41
30.0
176
     1
 63
     8
421
  8421504
176
     1
 74
     1
176
     1
 91
        4
176
     1
 64
     7
176
     1
 65
   257
176
     1
 75
     1
176
     1
175
     1
176
     1
 42
1.0
176
     1
 92
        8
176
     1
 66
     8
424
  8421504
176
     1
 43
1.0
176
     1
 76
     1
176
     1
 77
     6
176
     1
 78
     2
176
     1
 67
     7
176
     1
 79
     5
176
     1
170
     0
176
     1
171
     0
176
     1
290
     0
176
     1
 93
        1
176
     1
 44
0.0
176
     1
173
     0
176
     1
1001
ACAD
1000
AcDbSavedByObjectVersion
1070
     0
  0
VISUALSTYLE
  5
32
102
{ACAD_XDICTIONARY
360
14B
102
}
102
{ACAD_REACTORS
330
29
102
}
330
29
100
AcDbVisualStyle
  2
Conceptual
 70
     9
177
     2
291
     0
 71
     3
176
     1
 72
     2
176
     1
 73
     0
176
     1
 90
        0
176
     1
 40
0.6
176
     1
 41
30.0
176
     1
 63
     7
421
 16777215
176
     1
 74
     2
176
     1
 91
        2
176
     1
 64
     7
176
     1
 65
   257
176
     1
 75
     1
176
     1
175
     1
176
     1
 42
179.0
176
     1
 92
        8
176
     1
 66
     7
176
     1
 43
1.0
176
     1
 76
     1
176
     1
 77
     6
176
     1
 78
     2
176
     1
 67
     7
176
     1
 79
     3
176
     1
170
     0
176
     1
171
     0
176
     1
290
     0
176
     1
 93
        1
176
     1
 44
0.0
176
     1
173
     0
176
     1
1001
ACAD
1000
AcDbSavedByObjectVersion
1070
     0
  0
VISUALSTYLE
  5
34
102
{ACAD_XDICTIONARY
360
14F
102
}
102
{ACAD_REACTORS
330
29
102
}
330
29
100
AcDbVisualStyle
  2
Dim
 70
    11
177
     2
291
     1
 71
     2
176
     1
 72
     2
176
     1
 73
     0
176
     1
 90
        0
176
     1
 40
0.6
176
     1
 41
30.0
176
     1
 63
     7
421
 16777215
176
     1
 74
     1
176
     1
 91
        4
176
     1
 64
     7
176
     1
 65
   257
176
     1
 75
     1
176
     1
175
     1
176
     1
 42
1.0
176
     1
 92
        8
176
     1
 66
     7
176
     1
 43
1.0
176
     1
 76
     1
176
     1
 77
     6
176
     1
 78
     2
176
     1
 67
     7
176
     1
 79
     5
176
     1
170
     0
176
     1
171
     0
176
     1
290
     0
176
     1
 93
        1
176
     1
 44
-50.0
176
     1
173
     0
176
     1
1001
ACAD
1000
AcDbSavedByObjectVersion
1070
     0
  0
VISUALSTYLE
  5
41
102
{ACAD_XDICTIONARY
360
169
102
}
102
{ACAD_REACTORS
330
29
102
}
330
29
100
AcDbVisualStyle
  2
EdgeColorOff
 70
    22
177
     2
291
     1
 71
     2
176
     0
 72
     2
176
     0
 73
     0
176
     0
 90
        0
176
     0
 40
0.6
176
     0
 41
30.0
176
     0
 63
     7
421
 16777215
176
     0
 74
     1
176
     0
 91
        4
176
     0
 64
     7
176
     0
 65
   257
176
     0
 75
     1
176
     0
175
     1
176
     0
 42
1.0
176
     0
 92
        8
176
     2
 66
     7
176
     0
 43
1.0
176
     0
 76
     1
176
     0
 77
     6
176
     0
 78
     2
176
     0
 67
     7
176
     0
 79
     5
176
     0
170
     0
176
     0
171
     0
176
     0
290
     0
176
     0
 93
        1
176
     0
 44
0.0
176
     0
173
     0
176
     0
1001
ACAD
1000
AcDbSavedByObjectVersion
1070
     0
  0
VISUALSTYLE
  5
38
102
{ACAD_XDICTIONARY
360
157
102
}
102
{ACAD_REACTORS
330
29
102
}
330
29
100
AcDbVisualStyle
  2
Facepattern
 70
    15
177
     2
291
     1
 71
     2
176
     1
 72
     2
176
     1
 73
     0
176
     1
 90
        0
176
     1
 40
0.6
176
     1
 41
30.0
176
     1
 63
     7
421
 16777215
176
     1
 74
     1
176
     1
 91
        4
176
     1
 64
     7
176
     1
 65
   257
176
     1
 75
     1
176
     1
175
     1
176
     1
 42
1.0
176
     1
 92
        8
176
     1
 66
     7
176
     1
 43
1.0
176
     1
 76
     1
176
     1
 77
     6
176
     1
 78
     2
176
     1
 67
     7
176
     1
 79
     5
176
     1
170
     0
176
     1
171
     0
176
     1
290
     0
176
     1
 93
        1
176
     1
 44
0.0
176
     1
173
     0
176
     1
1001
ACAD
1000
AcDbSavedByObjectVersion
1070
     0
  0
VISUALSTYLE
  5
2A
102
{ACAD_XDICTIONARY
360
13B
102
}
102
{ACAD_REACTORS
330
29
102
}
330
29
100
AcDbVisualStyle
  2
Flat
 70
     0
177
     2
291
     1
 71
     2
176
     1
 72
     1
176
     1
 73
     1
176
     1
 90
        2
176
     1
 40
0.6
176
     1
 41
30.0
176
     1
 63
     7
421
 16777215
176
     1
 74
     0
176
     1
 91
        0
176
     1
 64
     7
176
     1
 65
   257
176
     1
 75
     1
176
     1
175
     1
176
     1
 42
1.0
176
     1
 92
        8
176
     1
 66
     7
176
     1
 43
1.0
176
     1
 76
     1
176
     1
 77
     6
176
     1
 78
     2
176
     1
 67
     7
176
     1
 79
     5
176
     1
170
     0
176
     1
171
     0
176
     1
290
     0
176
     1
 93
       13
176
     1
 44
0.0
176
     1
173
     0
176
     1
1001
ACAD
1000
AcDbSavedByObjectVersion
1070
     0
  0
VISUALSTYLE
  5
2B
102
{ACAD_XDICTIONARY
360
13D
102
}
102
{ACAD_REACTORS
330
29
102
}
330
29
100
AcDbVisualStyle
  2
FlatWithEdges
 70
     1
177
     2
291
     1
 71
     2
176
     1
 72
     1
176
     1
 73
     1
176
     1
 90
        2
176
     1
 40
0.6
176
     1
 41
30.0
176
     1
 63
     7
421
 16777215
176
     1
 74
     1
176
     1
 91
        0
176
     1
 64
     7
176
     1
 65
   257
176
     1
 75
     1
176
     1
175
     1
176
     1
 42
1.0
176
     1
 92
        0
176
     1
 66
   257
176
     1
 43
1.0
176
     1
 76
     1
176
     1
 77
     6
176
     1
 78
     2
176
     1
 67
     7
176
     1
 79
     5
176
     1
170
     0
176
     1
171
     0
176
     1
290
     0
176
     1
 93
       13
176
     1
 44
0.0
176
     1
173
     0
176
     1
1001
ACAD
1000
AcDbSavedByObjectVersion
1070
     0
  0
VISUALSTYLE
  5
2C
102
{ACAD_XDICTIONARY
360
13F
102
}
102
{ACAD_REACTORS
330
29
102
}
330
29
100
AcDbVisualStyle
  2
Gouraud
 70
     2
177
     2
291
     1
 71
     2
176
     1
 72
     2
176
     1
 73
     1
176
     1
 90
        2
176
     1
 40
0.6
176
     1
 41
30.0
176
     1
 63
     7
421
 16777215
176
     1
 74
     0
176
     1
 91
        0
176
     1
 64
     7
176
     1
 65
   257
176
     1
 75
     1
176
     1
175
     1
176
     1
 42
1.0
176
     1
 92
        0
176
     1
 66
     7
176
     1
 43
1.0
176
     1
 76
     1
176
     1
 77
     6
176
     1
 78
     2
176
     1
 67
     7
176
     1
 79
     5
176
     1
170
     0
176
     1
171
     0
176
     1
290
     0
176
     1
 93
       13
176
     1
 44
0.0
176
     1
173
     0
176
     1
1001
ACAD
1000
AcDbSavedByObjectVersion
1070
     0
  0
VISUALSTYLE
  5
2D
102
{ACAD_XDICTIONARY
360
141
102
}
102
{ACAD_REACTORS
330
29
102
}
330
29
100
AcDbVisualStyle
  2
GouraudWithEdges
 70
     3
177
     2
291
     1
 71
     2
176
     1
 72
     2
176
     1
 73
     1
176
     1
 90
        2
176
     1
 40
0.6
176
     1
 41
30.0
176
     1
 63
     7
421
 16777215
176
     1
 74
     1
176
     1
 91
        0
176
     1
 64
     7
176
     1
 65
   257
176
     1
 75
     1
176
     1
175
     1
176
     1
 42
1.0
176
     1
 92
        0
176
     1
 66
   257
176
     1
 43
1.0
176
     1
 76
     1
176
     1
 77
     6
176
     1
 78
     2
176
     1
 67
     7
176
     1
 79
     5
176
     1
170
     0
176
     1
171
     0
176
     1
290
     0
176
     1
 93
       13
176
     1
 44
0.0
176
     1
173
     0
176
     1
1001
ACAD
1000
AcDbSavedByObjectVersion
1070
     0
  0
VISUALSTYLE
  5
31
102
{ACAD_XDICTIONARY
360
149
102
}
102
{ACAD_REACTORS
330
29
102
}
330
29
100
AcDbVisualStyle
  2
Hidden
 70
     6
177
     2
291
     0
 71
     1
176
     1
 72
     2
176
     1
 73
     2
176
     1
 90
        0
176
     1
 40
0.6
176
     1
 41
30.0
176
     1
 63
     7
421
 16777215
176
     1
 74
     2
176
     1
 91
        2
176
     1
 64
     7
176
     1
 65
   257
176
     1
 75
     2
176
     1
175
     1
176
     1
 42
40.0
176
     1
 92
        0
176
     1
 66
   257
176
     1
 43
1.0
176
     1
 76
     1
176
     1
 77
     6
176
     1
 78
     2
176
     1
 67
     7
176
     1
 79
     3
176
     1
170
     0
176
     1
171
     0
176
     1
290
     0
176
     1
 93
        1
176
     1
 44
0.0
176
     1
173
     0
176
     1
1001
ACAD
1000
AcDbSavedByObjectVersion
1070
     0
  0
VISUALSTYLE
  5
3F
102
{ACAD_XDICTIONARY
360
165
102
}
102
{ACAD_REACTORS
330
29
102
}
330
29
100
AcDbVisualStyle
  2
JitterOff
 70
    20
177
     2
291
     1
 71
     2
176
     0
 72
     2
176
     0
 73
     0
176
     0
 90
        0
176
     0
 40
0.6
176
     0
 41
30.0
176
     0
 63
     7
421
 16777215
176
     0
 74
     1
176
     0
 91
        4
176
     0
 64
     7
176
     0
 65
   257
176
     0
 75
     1
176
     0
175
     1
176
     0
 42
1.0
176
     0
 92
       10
176
     2
 66
     7
176
     0
 43
1.0
176
     0
 76
     1
176
     0
 77
     6
176
     0
 78
     2
176
     0
 67
     7
176
     0
 79
     5
176
     0
170
     0
176
     0
171
     0
176
     0
290
     0
176
     0
 93
        1
176
     0
 44
0.0
176
     0
173
     0
176
     0
1001
ACAD
1000
AcDbSavedByObjectVersion
1070
     0
  0
VISUALSTYLE
  5
37
102
{ACAD_XDICTIONARY
360
155
102
}
102
{ACAD_REACTORS
330
29
102
}
330
29
100
AcDbVisualStyle
  2
Linepattern
 70
    14
177
     2
291
     1
 71
     2
176
     1
 72
     2
176
     1
 73
     0
176
     1
 90
        0
176
     1
 40
0.6
176
     1
 41
30.0
176
     1
 63
     7
421
 16777215
176
     1
 74
     1
176
     1
 91
        4
176
     1
 64
     7
176
     1
 65
   257
176
     1
 75
     7
176
     1
175
     7
176
     1
 42
1.0
176
     1
 92
        8
176
     1
 66
     7
176
     1
 43
1.0
176
     1
 76
     1
176
     1
 77
     6
176
     1
 78
     2
176
     1
 67
     7
176
     1
 79
     5
176
     1
170
     0
176
     1
171
     0
176
     1
290
     0
176
     1
 93
        1
176
     1
 44
0.0
176
     1
173
     0
176
     1
1001
ACAD
1000
AcDbSavedByObjectVersion
1070
     0
  0
VISUALSTYLE
  5
40
102
{ACAD_XDICTIONARY
360
167
102
}
102
{ACAD_REACTORS
330
29
102
}
330
29
100
AcDbVisualStyle
  2
OverhangOff
 70
    21
177
     2
291
     1
 71
     2
176
     0
 72
     2
176
     0
 73
     0
176
     0
 90
        0
176
     0
 40
0.6
176
     0
 41
30.0
176
     0
 63
     7
421
 16777215
176
     0
 74
     1
176
     0
 91
        4
176
     0
 64
     7
176
     0
 65
   257
176
     0
 75
     1
176
     0
175
     1
176
     0
 42
1.0
176
     0
 92
        9
176
     2
 66
     7
176
     0
 43
1.0
176
     0
 76
     1
176
     0
 77
     6
176
     0
 78
     2
176
     0
 67
     7
176
     0
 79
     5
176
     0
170
     0
176
     0
171
     0
176
     0
290
     0
176
     0
 93
        1
176
     0
 44
0.0
176
     0
173
     0
176
     0
1001
ACAD
1000
AcDbSavedByObjectVersion
1070
     0
  0
VISUALSTYLE
  5
33
102
{ACAD_XDICTIONARY
360
14D
102
}
102
{ACAD_REACTORS
330
29
102
}
330
29
100
AcDbVisualStyle
  2
Realistic
 70
     8
177
     2
291
     0
 71
     2
176
     1
 72
     3
176
     1
 73
     0
176
     1
 90
        2
176
     1
 40
0.6
176
     1
 41
30.0
176
     1
 63
     7
421
 16777215
176
     1
 74
     0
176
     1
 91
        0
176
     1
 64
     7
176
     1
 65
   257
176
     1
 75
     1
176
     1
175
     1
176
     1
 42
1.0
176
     1
 92
        8
176
     1
 66
   257
176
     1
 43
1.0
176
     1
 76
     1
176
     1
 77
     6
176
     1
 78
     2
176
     1
 67
     7
176
     1
 79
     3
176
     1
170
     0
176
     1
171
     0
176
     1
290
     0
176
     1
 93
       13
176
     1
 44
0.0
176
     1
173
     0
176
     1
1001
ACAD
1000
AcDbSavedByObjectVersion
1070
     0
  0
VISUALSTYLE
  5
3E
102
{ACAD_XDICTIONARY
360
163
102
}
102
{ACAD_REACTORS
330
29
102
}
330
29
100
AcDbVisualStyle
  2
Shaded
 70
    27
177
     2
291
     0
 71
     2
176
     1
 72
     2
176
     1
 73
     1
176
     1
 90
        2
176
     1
 40
0.6
176
     1
 41
30.0
176
     1
 63
     7
421
 16777215
176
     1
 74
     0
176
     1
 91
        4
176
     1
 64
     7
176
     1
 65
   257
176
     1
 75
     1
176
     1
175
     1
176
     1
 42
1.0
176
     1
 92
        8
176
     1
 66
   257
176
     1
 43
1.0
176
     1
 76
     1
176
     1
 77
     6
176
     1
 78
     2
176
     1
 67
     8
425
  7895160
176
     1
 79
     3
176
     1
170
     0
176
     1
171
     0
176
     1
290
     0
176
     1
 93
        5
176
     1
 44
0.0
176
     1
173
     0
176
     1
1001
ACAD
1000
AcDbSavedByObjectVersion
1070
     0
  0
VISUALSTYLE
  5
3D
102
{ACAD_XDICTIONARY
360
161
102
}
102
{ACAD_REACTORS
330
29
102
}
330
29
100
AcDbVisualStyle
  2
Shaded with edges
 70
    26
177
     2
291
     0
 71
     2
176
     1
 72
     2
176
     1
 73
     1
176
     1
 90
        2
176
     1
 40
0.6
176
     1
 41
30.0
176
     1
 63
     7
421
 16777215
176
     1
 74
     1
176
     1
 91
        2
176
     1
 64
     7
176
     1
 65
   257
176
     1
 75
     2
176
     1
175
     1
176
     1
 42
1.0
176
     1
 92
        8
176
     1
 66
   257
176
     1
 43
1.0
176
     1
 76
     1
176
     1
 77
     6
176
     1
 78
     2
176
     1
 67
     7
176
     1
 79
     3
176
     1
170
     0
176
     1
171
     0
176
     1
290
     0
176
     1
 93
        5
176
     1
 44
0.0
176
     1
173
     0
176
     1
1001
ACAD
1000
AcDbSavedByObjectVersion
1070
     0
  0
VISUALSTYLE
  5
3A
102
{ACAD_XDICTIONARY
360
15B
102
}
102
{ACAD_REACTORS
330
29
102
}
330
29
100
AcDbVisualStyle
  2
Shades of Gray
 70
    23
177
     2
291
     0
 71
     2
176
     1
 72
     2
176
     1
 73
     3
176
     1
 90
        0
176
     1
 40
0.6
176
     1
 41
30.0
176
     1
 63
     7
421
 16777215
176
     1
 74
     2
176
     1
 91
        2
176
     1
 64
     7
176
     1
 65
     7
176
     1
 75
     1
176
     1
175
     1
176
     1
 42
40.0
176
     1
 92
        8
176
     1
 66
     7
176
     1
 43
1.0
176
     1
 76
     1
176
     1
 77
     6
176
     1
 78
     2
176
     1
 67
     7
176
     1
 79
     3
176
     1
170
     0
176
     1
171
     0
176
     1
290
     0
176
     1
 93
        1
176
     1
 44
0.0
176
     1
173
     0
176
     1
1001
ACAD
1000
AcDbSavedByObjectVersion
1070
     0
  0
VISUALSTYLE
  5
3B
102
{ACAD_XDICTIONARY
360
15D
102
}
102
{ACAD_REACTORS
330
29
102
}
330
29
100
AcDbVisualStyle
  2
Sketchy
 70
    24
177
     2
291
     0
 71
     1
176
     1
 72
     2
176
     1
 73
     2
176
     1
 90
        0
176
     1
 40
0.6
176
     1
 41
30.0
176
     1
 63
     7
421
 16777215
176
     1
 74
     2
176
     1
 91
        2
176
     1
 64
     7
176
     1
 65
     7
176
     1
 75
     1
176
     1
175
     1
176
     1
 42
40.0
176
     1
 92
       11
176
     1
 66
     7
176
     1
 43
1.0
176
     1
 76
     1
176
     1
 77
     6
176
     1
 78
     2
176
     1
 67
     7
176
     1
 79
     6
176
     1
170
     0
176
     1
171
     0
176
     1
290
     0
176
     1
 93
        1
176
     1
 44
0.0
176
     1
173
     0
176
     1
1001
ACAD
1000
AcDbSavedByObjectVersion
1070
     0
  0
VISUALSTYLE
  5
36
102
{ACAD_XDICTIONARY
360
153
102
}
102
{ACAD_REACTORS
330
29
102
}
330
29
100
AcDbVisualStyle
  2
Thicken
 70
    13
177
     2
291
     1
 71
     2
176
     1
 72
     2
176
     1
 73
     0
176
     1
 90
        0
176
     1
 40
0.6
176
     1
 41
30.0
176
     1
 63
     7
421
 16777215
176
     1
 74
     1
176
     1
 91
        4
176
     1
 64
     7
176
     1
 65
   257
176
     1
 75
     1
176
     1
175
     1
176
     1
 42
1.0
176
     1
 92
       12
176
     1
 66
     7
176
     1
 43
1.0
176
     1
 76
     1
176
     1
 77
     6
176
     1
 78
     2
176
     1
 67
     7
176
     1
 79
     5
176
     1
170
     0
176
     1
171
     0
176
     1
290
     0
176
     1
 93
        1
176
     1
 44
0.0
176
     1
173
     0
176
     1
1001
ACAD
1000
AcDbSavedByObjectVersion
1070
     0
  0
VISUALSTYLE
  5
30
102
{ACAD_XDICTIONARY
360
147
102
}
102
{ACAD_REACTORS
330
29
102
}
330
29
100
AcDbVisualStyle
  2
Wireframe
 70
     5
177
     2
291
     0
 71
     0
176
     1
 72
     2
176
     1
 73
     0
176
     1
 90
        0
176
     1
 40
0.6
176
     1
 41
30.0
176
     1
 63
     7
421
 16777215
176
     1
 74
     1
176
     1
 91
        4
176
     1
 64
     7
176
     1
 65
   257
176
     1
 75
     1
176
     1
175
     1
176
     1
 42
1.0
176
     1
 92
        0
176
     1
 66
   257
176
     1
 43
1.0
176
     1
 76
     1
176
     1
 77
     6
176
     1
 78
     2
176
     1
 67
     7
176
     1
 79
     3
176
     1
170
     0
176
     1
171
     0
176
     1
290
     0
176
     1
 93
        1
176
     1
 44
0.0
176
     1
173
     0
176
     1
1001
ACAD
1000
AcDbSavedByObjectVersion
1070
     0
  0
VISUALSTYLE
  5
3C
102
{ACAD_XDICTIONARY
360
15F
102
}
102
{ACAD_REACTORS
330
29
102
}
330
29
100
AcDbVisualStyle
  2
X-Ray
 70
    25
177
     2
291
     0
 71
     2
176
     1
 72
     2
176
     1
 73
     1
176
     1
 90
        1
176
     1
 40
0.5
176
     1
 41
30.0
176
     1
 63
     7
421
 16777215
176
     1
 74
     1
176
     1
 91
        0
176
     1
 64
     7
176
     1
 65
   257
176
     1
 75
     1
176
     1
175
     1
176
     1
 42
1.0
176
     1
 92
        8
176
     1
 66
     7
176
     1
 43
1.0
176
     1
 76
     1
176
     1
 77
     6
176
     1
 78
     2
176
     1
 67
     7
176
     1
 79
     3
176
     1
170
     0
176
     1
171
     0
176
     1
290
     0
176
     1
 93
       13
176
     1
 44
0.0
176
     1
173
     0
176
     1
1001
ACAD
1000
AcDbSavedByObjectVersion
1070
     0
  0
DICTIONARYVAR
  5
137
102
{ACAD_REACTORS
330
132
102
}
330
132
100
DictionaryVariables
280
     0
  1
1:1
  0
DICTIONARYVAR
  5
134
102
{ACAD_REACTORS
330
132
102
}
330
132
100
DictionaryVariables
280
     0
  1
STANDARD
  0
DICTIONARYVAR
  5
133
102
{ACAD_REACTORS
330
132
102
}
330
132
100
DictionaryVariables
280
     0
  1
STANDARD
  0
DICTIONARYVAR
  5
135
102
{ACAD_REACTORS
330
132
102
}
330
132
100
DictionaryVariables
280
     0
  1
Imperial24
  0
DICTIONARYVAR
  5
136
102
{ACAD_REACTORS
330
132
102
}
330
132
100
DictionaryVariables
280
     0
  1
Imperial24
  0
DICTIONARY
  5
16F
330
6B
100
AcDbDictionary
280
     1
281
     1
  3
ACAD_XREC_ROUNDTRIP
360
170
  0
DICTIONARY
  5
1A
330
19
100
AcDbDictionary
280
     1
281
     1
  3
BUMPTILE
360
1C
  3
DIFFUSETILE
360
1B
  3
OPACITYTILE
360
1F
  3
REFLECTIONTILE
360
1E
  3
REFRACTIONTILE
360
20
  3
SPECULARTILE
360
1D
  0
DICTIONARY
  5
12
330
11
100
AcDbDictionary
280
     1
281
     1
  3
BUMPTILE
360
14
  3
DIFFUSETILE
360
13
  3
OPACITYTILE
360
17
  3
REFLECTIONTILE
360
16
  3
REFRACTIONTILE
360
18
  3
SPECULARTILE
360
15
  0
DICTIONARY
  5
22
330
21
100
AcDbDictionary
280
     1
281
     1
  3
BUMPTILE
360
24
  3
DIFFUSETILE
360
23
  3
OPACITYTILE
360
27
  3
REFLECTIONTILE
360
26
  3
REFRACTIONTILE
360
28
  3
SPECULARTILE
360
25
  0
DICTIONARY
  5
16B
330
67
100
AcDbDictionary
280
     1
281
     1
  3
ACAD_XREC_ROUNDTRIP
360
16C
  0
DICTIONARY
  5
16D
330
69
100
AcDbDictionary
280
     1
281
     1
  3
ACAD_XREC_ROUNDTRIP
360
16E
  0
DICTIONARY
  5
138
330
65
100
AcDbDictionary
280
     1
281
     1
  3
ACAD_ROUNDTRIP_2008_TABLESTYLE_CELLSTYLEMAP
360
139
  0
DICTIONARY
  5
145
330
2F
100
AcDbDictionary
280
     1
281
     1
  3
ACAD_XREC_ROUNDTRIP
360
146
  0
DICTIONARY
  5
143
330
2E
100
AcDbDictionary
280
     1
281
     1
  3
ACAD_XREC_ROUNDTRIP
360
144
  0
DICTIONARY
  5
151
330
35
100
AcDbDictionary
280
     1
281
     1
  3
ACAD_XREC_ROUNDTRIP
360
152
  0
DICTIONARY
  5
159
330
39
100
AcDbDictionary
280
     1
281
     1
  3
ACAD_XREC_ROUNDTRIP
360
15A
  0
DICTIONARY
  5
14B
330
32
100
AcDbDictionary
280
     1
281
     1
  3
ACAD_XREC_ROUNDTRIP
360
14C
  0
DICTIONARY
  5
14F
330
34
100
AcDbDictionary
280
     1
281
     1
  3
ACAD_XREC_ROUNDTRIP
360
150
  0
DICTIONARY
  5
169
330
41
100
AcDbDictionary
280
     1
281
     1
  3
ACAD_XREC_ROUNDTRIP
360
16A
  0
DICTIONARY
  5
157
330
38
100
AcDbDictionary
280
     1
281
     1
  3
ACAD_XREC_ROUNDTRIP
360
158
  0
DICTIONARY
  5
13B
330
2A
100
AcDbDictionary
280
     1
281
     1
  3
ACAD_XREC_ROUNDTRIP
360
13C
  0
DICTIONARY
  5
13D
330
2B
100
AcDbDictionary
280
     1
281
     1
  3
ACAD_XREC_ROUNDTRIP
360
13E
  0
DICTIONARY
  5
13F
330
2C
100
AcDbDictionary
280
     1
281
     1
  3
ACAD_XREC_ROUNDTRIP
360
140
  0
DICTIONARY
  5
141
330
2D
100
AcDbDictionary
280
     1
281
     1
  3
ACAD_XREC_ROUNDTRIP
360
142
  0
DICTIONARY
  5
149
330
31
100
AcDbDictionary
280
     1
281
     1
  3
ACAD_XREC_ROUNDTRIP
360
14A
  0
DICTIONARY
  5
165
330
3F
100
AcDbDictionary
280
     1
281
     1
  3
ACAD_XREC_ROUNDTRIP
360
166
  0
DICTIONARY
  5
155
330
37
100
AcDbDictionary
280
     1
281
     1
  3
ACAD_XREC_ROUNDTRIP
360
156
  0
DICTIONARY
  5
167
330
40
100
AcDbDictionary
280
     1
281
     1
  3
ACAD_XREC_ROUNDTRIP
360
168
  0
DICTIONARY
  5
14D
330
33
100
AcDbDictionary
280
     1
281
     1
  3
ACAD_XREC_ROUNDTRIP
360
14E
  0
DICTIONARY
  5
163
330
3E
100
AcDbDictionary
280
     1
281
     1
  3
ACAD_XREC_ROUNDTRIP
360
164
  0
DICTIONARY
  5
161
330
3D
100
AcDbDictionary
280
     1
281
     1
  3
ACAD_XREC_ROUNDTRIP
360
162
  0
DICTIONARY
  5
15B
330
3A
100
AcDbDictionary
280
     1
281
     1
  3
ACAD_XREC_ROUNDTRIP
360
15C
  0
DICTIONARY
  5
15D
330
3B
100
AcDbDictionary
280
     1
281
     1
  3
ACAD_XREC_ROUNDTRIP
360
15E
  0
DICTIONARY
  5
153
330
36
100
AcDbDictionary
280
     1
281
     1
  3
ACAD_XREC_ROUNDTRIP
360
154
  0
DICTIONARY
  5
147
330
30
100
AcDbDictionary
280
     1
281
     1
  3
ACAD_XREC_ROUNDTRIP
360
148
  0
DICTIONARY
  5
15F
330
3C
100
AcDbDictionary
280
     1
281
     1
  3
ACAD_XREC_ROUNDTRIP
360
160
  0
XRECORD
  5
170
102
{ACAD_REACTORS
330
16F
102
}
330
16F
100
AcDbXrecord
280
     1
102
DISPLAYNAME
  1
Imperial24
102
FLAGS
 90
        0
  0
XRECORD
  5
1C
102
{ACAD_REACTORS
330
1A
102
}
330
1A
100
AcDbXrecord
280
     1
270
     1
271
     1
  0
XRECORD
  5
1B
102
{ACAD_REACTORS
330
1A
102
}
330
1A
100
AcDbXrecord
280
     1
270
     1
271
     1
  0
XRECORD
  5
1F
102
{ACAD_REACTORS
330
1A
102
}
330
1A
100
AcDbXrecord
280
     1
270
     1
271
     1
  0
XRECORD
  5
1E
102
{ACAD_REACTORS
330
1A
102
}
330
1A
100
AcDbXrecord
280
     1
270
     1
271
     1
  0
XRECORD
  5
20
102
{ACAD_REACTORS
330
1A
102
}
330
1A
100
AcDbXrecord
280
     1
270
     1
271
     1
  0
XRECORD
  5
1D
102
{ACAD_REACTORS
330
1A
102
}
330
1A
100
AcDbXrecord
280
     1
270
     1
271
     1
  0
XRECORD
  5
14
102
{ACAD_REACTORS
330
12
102
}
330
12
100
AcDbXrecord
280
     1
270
     1
271
     1
  0
XRECORD
  5
13
102
{ACAD_REACTORS
330
12
102
}
330
12
100
AcDbXrecord
280
     1
270
     1
271
     1
  0
XRECORD
  5
17
102
{ACAD_REACTORS
330
12
102
}
330
12
100
AcDbXrecord
280
     1
270
     1
271
     1
  0
XRECORD
  5
16
102
{ACAD_REACTORS
330
12
102
}
330
12
100
AcDbXrecord
280
     1
270
     1
271
     1
  0
XRECORD
  5
18
102
{ACAD_REACTORS
330
12
102
}
330
12
100
AcDbXrecord
280
     1
270
     1
271
     1
  0
XRECORD
  5
15
102
{ACAD_REACTORS
330
12
102
}
330
12
100
AcDbXrecord
280
     1
270
     1
271
     1
  0
XRECORD
  5
24
102
{ACAD_REACTORS
330
22
102
}
330
22
100
AcDbXrecord
280
     1
270
     1
271
     1
  0
XRECORD
  5
23
102
{ACAD_REACTORS
330
22
102
}
330
22
100
AcDbXrecord
280
     1
270
     1
271
     1
  0
XRECORD
  5
27
102
{ACAD_REACTORS
330
22
102
}
330
22
100
AcDbXrecord
280
     1
270
     1
271
     1
  0
XRECORD
  5
26
102
{ACAD_REACTORS
330
22
102
}
330
22
100
AcDbXrecord
280
     1
270
     1
271
     1
  0
XRECORD
  5
28
102
{ACAD_REACTORS
330
22
102
}
330
22
100
AcDbXrecord
280
     1
270
     1
271
     1
  0
XRECORD
  5
25
102
{ACAD_REACTORS
330
22
102
}
330
22
100
AcDbXrecord
280
     1
270
     1
271
     1
  0
XRECORD
  5
16C
102
{ACAD_REACTORS
330
16B
102
}
330
16B
100
AcDbXrecord
280
     1
102
ACAD_ROUNDTRIP_2012_MLEADER_STYLE
298
     1
  0
XRECORD
  5
16E
102
{ACAD_REACTORS
330
16D
102
}
330
16D
100
AcDbXrecord
280
     1
102
DISPLAYNAME
  1
Imperial24
102
FLAGS
 90
        0
  0
CELLSTYLEMAP
  5
139
102
{ACAD_REACTORS
330
138
102
}
330
138
100
AcDbCellStyleMap
 90
        3
300
CELLSTYLE
  1
TABLEFORMAT_BEGIN
 90
        5
170
     1
 91
        0
 92
    32768
 62
   257
 93
        1
300
CONTENTFORMAT
  1
CONTENTFORMAT_BEGIN
 90
        0
 91
        0
 92
      512
 93
        0
300

 40
0.0
140
1.0
 94
        5
 62
     0
340
55
144
0.25
309
CONTENTFORMAT_END
171
     0
 94
        0
309
TABLEFORMAT_END
  1
CELLSTYLE_BEGIN
 90
        1
 91
        1
300
_TITLE
309
CELLSTYLE_END
300
CELLSTYLE
  1
TABLEFORMAT_BEGIN
 90
        5
170
     1
 91
        0
 92
        0
 62
   257
 93
        1
300
CONTENTFORMAT
  1
CONTENTFORMAT_BEGIN
 90
        0
 91
        0
 92
      512
 93
        0
300

 40
0.0
140
1.0
 94
        5
 62
     0
340
55
144
0.18
309
CONTENTFORMAT_END
171
     0
 94
        0
309
TABLEFORMAT_END
  1
CELLSTYLE_BEGIN
 90
        2
 91
        1
300
_HEADER
309
CELLSTYLE_END
300
CELLSTYLE
  1
TABLEFORMAT_BEGIN
 90
        5
170
     1
 91
        0
 92
        0
 62
   257
 93
        1
300
CONTENTFORMAT
  1
CONTENTFORMAT_BEGIN
 90
        0
 91
        0
 92
      512
 93
        0
300

 40
0.0
140
1.0
 94
        2
 62
     0
340
55
144
0.18
309
CONTENTFORMAT_END
171
     0
 94
        0
309
TABLEFORMAT_END
  1
CELLSTYLE_BEGIN
 90
        3
 91
        2
300
_DATA
309
CELLSTYLE_END
  0
XRECORD
  5
146
102
{ACAD_REACTORS
330
145
102
}
330
145
100
AcDbXrecord
280
     1
102
RTVSPost2010Prop28
280
     1
102
RTVSPost2010PropOp28
 70
     1
102
RTVSPost2010Prop29
280
     1
102
RTVSPost2010PropOp29
 70
     1
102
RTVSPost2010Prop30
280
     0
102
RTVSPost2010PropOp30
 70
     1
102
RTVSPost2010Prop31
280
     0
102
RTVSPost2010PropOp31
 70
     1
102
RTVSPost2010Prop32
280
     0
102
RTVSPost2010PropOp32
 70
     1
102
RTVSPost2010Prop33
280
     0
102
RTVSPost2010PropOp33
 70
     1
102
RTVSPost2010Prop34
280
     0
102
RTVSPost2010PropOp34
 70
     1
102
RTVSPost2010Prop35
280
     0
102
RTVSPost2010PropOp35
 70
     1
102
RTVSPost2010Prop36
280
     0
102
RTVSPost2010PropOp36
 70
     1
102
RTVSPost2010Prop37
 90
       50
102
RTVSPost2010PropOp37
 70
     1
102
RTVSPost2010Prop38
140
0.0
102
RTVSPost2010PropOp38
 70
     1
102
RTVSPost2010Prop39
140
1.0
102
RTVSPost2010PropOp39
 70
     1
102
RTVSPost2010Prop40
 90
        0
102
RTVSPost2010PropOp40
 70
     1
102
RTVSPost2010Prop41ColorIndex
 90
       18
102
RTVSPost2010Prop41ColorRGB
 90
        0
102
RTVSPost2010PropOp41
 70
     1
102
RTVSPost2010Prop42
 90
       50
102
RTVSPost2010PropOp42
 70
     1
102
RTVSPost2010Prop43
 90
        3
102
RTVSPost2010PropOp43
 70
     1
102
RTVSPost2010Prop44ColorIndex
 90
        5
102
RTVSPost2010Prop44ColorRGB
 90
      255
102
RTVSPost2010PropOp44
 70
     1
102
RTVSPost2010Prop45
280
     0
102
RTVSPost2010PropOp45
 70
     1
102
RTVSPost2010Prop46
 90
       50
102
RTVSPost2010PropOp46
 70
     1
102
RTVSPost2010Prop47
 90
       50
102
RTVSPost2010PropOp47
 70
     1
102
RTVSPost2010Prop48
 90
       50
102
RTVSPost2010PropOp48
 70
     1
102
RTVSPost2010Prop49
280
     0
102
RTVSPost2010PropOp49
 70
     1
102
RTVSPost2010Prop50
 90
       50
102
RTVSPost2010PropOp50
 70
     1
102
RTVSPost2010Prop51ColorIndex
 90
      256
102
RTVSPost2010Prop51ColorRGB
 90
-16777216
102
RTVSPost2010PropOp51
 70
     0
102
RTVSPost2010Prop52
140
1.0
102
RTVSPost2010PropOp52
 70
     0
102
RTVSPost2010Prop53
 90
        2
102
RTVSPost2010PropOp53
 70
     1
102
RTVSPost2010Prop54
  1
strokes_ogs.tif
102
RTVSPost2010PropOp54
 70
     1
102
RTVSPost2010Prop55
280
     0
102
RTVSPost2010PropOp55
 70
     1
102
RTVSPost2010Prop56
140
1.0
102
RTVSPost2010PropOp56
 70
     1
102
RTVSPost2010Prop57
140
1.0
102
RTVSPost2010PropOp57
 70
     1
  0
XRECORD
  5
144
102
{ACAD_REACTORS
330
143
102
}
330
143
100
AcDbXrecord
280
     1
102
RTVSPost2010Prop28
280
     0
102
RTVSPost2010PropOp28
 70
     1
102
RTVSPost2010Prop29
280
     1
102
RTVSPost2010PropOp29
 70
     1
102
RTVSPost2010Prop30
280
     1
102
RTVSPost2010PropOp30
 70
     1
102
RTVSPost2010Prop31
280
     0
102
RTVSPost2010PropOp31
 70
     1
102
RTVSPost2010Prop32
280
     0
102
RTVSPost2010PropOp32
 70
     1
102
RTVSPost2010Prop33
280
     0
102
RTVSPost2010PropOp33
 70
     1
102
RTVSPost2010Prop34
280
     0
102
RTVSPost2010PropOp34
 70
     1
102
RTVSPost2010Prop35
280
     0
102
RTVSPost2010PropOp35
 70
     1
102
RTVSPost2010Prop36
280
     0
102
RTVSPost2010PropOp36
 70
     1
102
RTVSPost2010Prop37
 90
       50
102
RTVSPost2010PropOp37
 70
     1
102
RTVSPost2010Prop38
140
0.0
102
RTVSPost2010PropOp38
 70
     1
102
RTVSPost2010Prop39
140
1.0
102
RTVSPost2010PropOp39
 70
     1
102
RTVSPost2010Prop40
 90
        0
102
RTVSPost2010PropOp40
 70
     1
102
RTVSPost2010Prop41ColorIndex
 90
       18
102
RTVSPost2010Prop41ColorRGB
 90
        0
102
RTVSPost2010PropOp41
 70
     1
102
RTVSPost2010Prop42
 90
       50
102
RTVSPost2010PropOp42
 70
     1
102
RTVSPost2010Prop43
 90
        3
102
RTVSPost2010PropOp43
 70
     1
102
RTVSPost2010Prop44ColorIndex
 90
        5
102
RTVSPost2010Prop44ColorRGB
 90
      255
102
RTVSPost2010PropOp44
 70
     1
102
RTVSPost2010Prop45
280
     0
102
RTVSPost2010PropOp45
 70
     1
102
RTVSPost2010Prop46
 90
       50
102
RTVSPost2010PropOp46
 70
     1
102
RTVSPost2010Prop47
 90
       50
102
RTVSPost2010PropOp47
 70
     1
102
RTVSPost2010Prop48
 90
       50
102
RTVSPost2010PropOp48
 70
     1
102
RTVSPost2010Prop49
280
     0
102
RTVSPost2010PropOp49
 70
     1
102
RTVSPost2010Prop50
 90
       50
102
RTVSPost2010PropOp50
 70
     1
102
RTVSPost2010Prop51ColorIndex
 90
      256
102
RTVSPost2010Prop51ColorRGB
 90
-16777216
102
RTVSPost2010PropOp51
 70
     0
102
RTVSPost2010Prop52
140
1.0
102
RTVSPost2010PropOp52
 70
     0
102
RTVSPost2010Prop53
 90
        2
102
RTVSPost2010PropOp53
 70
     1
102
RTVSPost2010Prop54
  1
strokes_ogs.tif
102
RTVSPost2010PropOp54
 70
     1
102
RTVSPost2010Prop55
280
     0
102
RTVSPost2010PropOp55
 70
     1
102
RTVSPost2010Prop56
140
1.0
102
RTVSPost2010PropOp56
 70
     1
102
RTVSPost2010Prop57
140
1.0
102
RTVSPost2010PropOp57
 70
     1
  0
XRECORD
  5
152
102
{ACAD_REACTORS
330
151
102
}
330
151
100
AcDbXrecord
280
     1
102
RTVSPost2010Prop28
280
     0
102
RTVSPost2010PropOp28
 70
     1
102
RTVSPost2010Prop29
280
     1
102
RTVSPost2010PropOp29
 70
     1
102
RTVSPost2010Prop30
280
     1
102
RTVSPost2010PropOp30
 70
     1
102
RTVSPost2010Prop31
280
     0
102
RTVSPost2010PropOp31
 70
     1
102
RTVSPost2010Prop32
280
     0
102
RTVSPost2010PropOp32
 70
     1
102
RTVSPost2010Prop33
280
     0
102
RTVSPost2010PropOp33
 70
     1
102
RTVSPost2010Prop34
280
     0
102
RTVSPost2010PropOp34
 70
     1
102
RTVSPost2010Prop35
280
     0
102
RTVSPost2010PropOp35
 70
     1
102
RTVSPost2010Prop36
280
     0
102
RTVSPost2010PropOp36
 70
     1
102
RTVSPost2010Prop37
 90
       50
102
RTVSPost2010PropOp37
 70
     1
102
RTVSPost2010Prop38
140
0.0
102
RTVSPost2010PropOp38
 70
     1
102
RTVSPost2010Prop39
140
1.0
102
RTVSPost2010PropOp39
 70
     1
102
RTVSPost2010Prop40
 90
        0
102
RTVSPost2010PropOp40
 70
     1
102
RTVSPost2010Prop41ColorIndex
 90
       18
102
RTVSPost2010Prop41ColorRGB
 90
        0
102
RTVSPost2010PropOp41
 70
     1
102
RTVSPost2010Prop42
 90
       50
102
RTVSPost2010PropOp42
 70
     1
102
RTVSPost2010Prop43
 90
        3
102
RTVSPost2010PropOp43
 70
     1
102
RTVSPost2010Prop44ColorIndex
 90
        5
102
RTVSPost2010Prop44ColorRGB
 90
      255
102
RTVSPost2010PropOp44
 70
     1
102
RTVSPost2010Prop45
280
     0
102
RTVSPost2010PropOp45
 70
     1
102
RTVSPost2010Prop46
 90
       50
102
RTVSPost2010PropOp46
 70
     1
102
RTVSPost2010Prop47
 90
       50
102
RTVSPost2010PropOp47
 70
     1
102
RTVSPost2010Prop48
 90
       50
102
RTVSPost2010PropOp48
 70
     1
102
RTVSPost2010Prop49
280
     0
102
RTVSPost2010PropOp49
 70
     1
102
RTVSPost2010Prop50
 90
       50
102
RTVSPost2010PropOp50
 70
     1
102
RTVSPost2010Prop51ColorIndex
 90
      256
102
RTVSPost2010Prop51ColorRGB
 90
-16777216
102
RTVSPost2010PropOp51
 70
     0
102
RTVSPost2010Prop52
140
1.0
102
RTVSPost2010PropOp52
 70
     0
102
RTVSPost2010Prop53
 90
        2
102
RTVSPost2010PropOp53
 70
     1
102
RTVSPost2010Prop54
  1
strokes_ogs.tif
102
RTVSPost2010PropOp54
 70
     1
102
RTVSPost2010Prop55
280
     0
102
RTVSPost2010PropOp55
 70
     1
102
RTVSPost2010Prop56
140
1.0
102
RTVSPost2010PropOp56
 70
     1
102
RTVSPost2010Prop57
140
1.0
102
RTVSPost2010PropOp57
 70
     1
  0
XRECORD
  5
15A
102
{ACAD_REACTORS
330
159
102
}
330
159
100
AcDbXrecord
280
     1
102
RTVSPost2010Prop28
280
     0
102
RTVSPost2010PropOp28
 70
     1
102
RTVSPost2010Prop29
280
     1
102
RTVSPost2010PropOp29
 70
     1
102
RTVSPost2010Prop30
280
     1
102
RTVSPost2010PropOp30
 70
     1
102
RTVSPost2010Prop31
280
     0
102
RTVSPost2010PropOp31
 70
     1
102
RTVSPost2010Prop32
280
     0
102
RTVSPost2010PropOp32
 70
     1
102
RTVSPost2010Prop33
280
     0
102
RTVSPost2010PropOp33
 70
     1
102
RTVSPost2010Prop34
280
     0
102
RTVSPost2010PropOp34
 70
     1
102
RTVSPost2010Prop35
280
     0
102
RTVSPost2010PropOp35
 70
     1
102
RTVSPost2010Prop36
280
     0
102
RTVSPost2010PropOp36
 70
     1
102
RTVSPost2010Prop37
 90
       50
102
RTVSPost2010PropOp37
 70
     1
102
RTVSPost2010Prop38
140
0.0
102
RTVSPost2010PropOp38
 70
     1
102
RTVSPost2010Prop39
140
1.0
102
RTVSPost2010PropOp39
 70
     1
102
RTVSPost2010Prop40
 90
        0
102
RTVSPost2010PropOp40
 70
     1
102
RTVSPost2010Prop41ColorIndex
 90
       18
102
RTVSPost2010Prop41ColorRGB
 90
        0
102
RTVSPost2010PropOp41
 70
     1
102
RTVSPost2010Prop42
 90
       50
102
RTVSPost2010PropOp42
 70
     1
102
RTVSPost2010Prop43
 90
        3
102
RTVSPost2010PropOp43
 70
     1
102
RTVSPost2010Prop44ColorIndex
 90
        5
102
RTVSPost2010Prop44ColorRGB
 90
      255
102
RTVSPost2010PropOp44
 70
     1
102
RTVSPost2010Prop45
280
     0
102
RTVSPost2010PropOp45
 70
     1
102
RTVSPost2010Prop46
 90
       50
102
RTVSPost2010PropOp46
 70
     1
102
RTVSPost2010Prop47
 90
       50
102
RTVSPost2010PropOp47
 70
     1
102
RTVSPost2010Prop48
 90
       50
102
RTVSPost2010PropOp48
 70
     1
102
RTVSPost2010Prop49
280
     0
102
RTVSPost2010PropOp49
 70
     1
102
RTVSPost2010Prop50
 90
       50
102
RTVSPost2010PropOp50
 70
     1
102
RTVSPost2010Prop51ColorIndex
 90
      256
102
RTVSPost2010Prop51ColorRGB
 90
-16777216
102
RTVSPost2010PropOp51
 70
     0
102
RTVSPost2010Prop52
140
1.0
102
RTVSPost2010PropOp52
 70
     0
102
RTVSPost2010Prop53
 90
        2
102
RTVSPost2010PropOp53
 70
     1
102
RTVSPost2010Prop54
  1
strokes_ogs.tif
102
RTVSPost2010PropOp54
 70
     1
102
RTVSPost2010Prop55
280
     0
102
RTVSPost2010PropOp55
 70
     1
102
RTVSPost2010Prop56
140
1.0
102
RTVSPost2010PropOp56
 70
     1
102
RTVSPost2010Prop57
140
1.0
102
RTVSPost2010PropOp57
 70
     1
  0
XRECORD
  5
14C
102
{ACAD_REACTORS
330
14B
102
}
330
14B
100
AcDbXrecord
280
     1
102
RTVSPost2010Prop28
280
     0
102
RTVSPost2010PropOp28
 70
     1
102
RTVSPost2010Prop29
280
     1
102
RTVSPost2010PropOp29
 70
     1
102
RTVSPost2010Prop30
280
     1
102
RTVSPost2010PropOp30
 70
     1
102
RTVSPost2010Prop31
280
     0
102
RTVSPost2010PropOp31
 70
     1
102
RTVSPost2010Prop32
280
     0
102
RTVSPost2010PropOp32
 70
     1
102
RTVSPost2010Prop33
280
     0
102
RTVSPost2010PropOp33
 70
     1
102
RTVSPost2010Prop34
280
     0
102
RTVSPost2010PropOp34
 70
     1
102
RTVSPost2010Prop35
280
     0
102
RTVSPost2010PropOp35
 70
     1
102
RTVSPost2010Prop36
280
     0
102
RTVSPost2010PropOp36
 70
     1
102
RTVSPost2010Prop37
 90
       50
102
RTVSPost2010PropOp37
 70
     1
102
RTVSPost2010Prop38
140
0.0
102
RTVSPost2010PropOp38
 70
     1
102
RTVSPost2010Prop39
140
1.0
102
RTVSPost2010PropOp39
 70
     1
102
RTVSPost2010Prop40
 90
        0
102
RTVSPost2010PropOp40
 70
     1
102
RTVSPost2010Prop41ColorIndex
 90
       18
102
RTVSPost2010Prop41ColorRGB
 90
        0
102
RTVSPost2010PropOp41
 70
     1
102
RTVSPost2010Prop42
 90
       50
102
RTVSPost2010PropOp42
 70
     1
102
RTVSPost2010Prop43
 90
        3
102
RTVSPost2010PropOp43
 70
     1
102
RTVSPost2010Prop44ColorIndex
 90
        5
102
RTVSPost2010Prop44ColorRGB
 90
      255
102
RTVSPost2010PropOp44
 70
     1
102
RTVSPost2010Prop45
280
     0
102
RTVSPost2010PropOp45
 70
     1
102
RTVSPost2010Prop46
 90
       50
102
RTVSPost2010PropOp46
 70
     1
102
RTVSPost2010Prop47
 90
       50
102
RTVSPost2010PropOp47
 70
     1
102
RTVSPost2010Prop48
 90
       50
102
RTVSPost2010PropOp48
 70
     1
102
RTVSPost2010Prop49
280
     0
102
RTVSPost2010PropOp49
 70
     1
102
RTVSPost2010Prop50
 90
       50
102
RTVSPost2010PropOp50
 70
     1
102
RTVSPost2010Prop51ColorIndex
 90
      256
102
RTVSPost2010Prop51ColorRGB
 90
-16777216
102
RTVSPost2010PropOp51
 70
     0
102
RTVSPost2010Prop52
140
1.0
102
RTVSPost2010PropOp52
 70
     0
102
RTVSPost2010Prop53
 90
        2
102
RTVSPost2010PropOp53
 70
     1
102
RTVSPost2010Prop54
  1
strokes_ogs.tif
102
RTVSPost2010PropOp54
 70
     1
102
RTVSPost2010Prop55
280
     0
102
RTVSPost2010PropOp55
 70
     1
102
RTVSPost2010Prop56
140
1.0
102
RTVSPost2010PropOp56
 70
     1
102
RTVSPost2010Prop57
140
1.0
102
RTVSPost2010PropOp57
 70
     1
  0
XRECORD
  5
150
102
{ACAD_REACTORS
330
14F
102
}
330
14F
100
AcDbXrecord
280
     1
102
RTVSPost2010Prop28
280
     0
102
RTVSPost2010PropOp28
 70
     1
102
RTVSPost2010Prop29
280
     1
102
RTVSPost2010PropOp29
 70
     1
102
RTVSPost2010Prop30
280
     1
102
RTVSPost2010PropOp30
 70
     1
102
RTVSPost2010Prop31
280
     0
102
RTVSPost2010PropOp31
 70
     1
102
RTVSPost2010Prop32
280
     0
102
RTVSPost2010PropOp32
 70
     1
102
RTVSPost2010Prop33
280
     0
102
RTVSPost2010PropOp33
 70
     1
102
RTVSPost2010Prop34
280
     0
102
RTVSPost2010PropOp34
 70
     1
102
RTVSPost2010Prop35
280
     0
102
RTVSPost2010PropOp35
 70
     1
102
RTVSPost2010Prop36
280
     0
102
RTVSPost2010PropOp36
 70
     1
102
RTVSPost2010Prop37
 90
       50
102
RTVSPost2010PropOp37
 70
     1
102
RTVSPost2010Prop38
140
0.0
102
RTVSPost2010PropOp38
 70
     1
102
RTVSPost2010Prop39
140
1.0
102
RTVSPost2010PropOp39
 70
     1
102
RTVSPost2010Prop40
 90
        0
102
RTVSPost2010PropOp40
 70
     1
102
RTVSPost2010Prop41ColorIndex
 90
       18
102
RTVSPost2010Prop41ColorRGB
 90
        0
102
RTVSPost2010PropOp41
 70
     1
102
RTVSPost2010Prop42
 90
       50
102
RTVSPost2010PropOp42
 70
     1
102
RTVSPost2010Prop43
 90
        3
102
RTVSPost2010PropOp43
 70
     1
102
RTVSPost2010Prop44ColorIndex
 90
        5
102
RTVSPost2010Prop44ColorRGB
 90
      255
102
RTVSPost2010PropOp44
 70
     1
102
RTVSPost2010Prop45
280
     0
102
RTVSPost2010PropOp45
 70
     1
102
RTVSPost2010Prop46
 90
       50
102
RTVSPost2010PropOp46
 70
     1
102
RTVSPost2010Prop47
 90
       50
102
RTVSPost2010PropOp47
 70
     1
102
RTVSPost2010Prop48
 90
       50
102
RTVSPost2010PropOp48
 70
     1
102
RTVSPost2010Prop49
280
     0
102
RTVSPost2010PropOp49
 70
     1
102
RTVSPost2010Prop50
 90
       50
102
RTVSPost2010PropOp50
 70
     1
102
RTVSPost2010Prop51ColorIndex
 90
      256
102
RTVSPost2010Prop51ColorRGB
 90
-16777216
102
RTVSPost2010PropOp51
 70
     0
102
RTVSPost2010Prop52
140
1.0
102
RTVSPost2010PropOp52
 70
     0
102
RTVSPost2010Prop53
 90
        2
102
RTVSPost2010PropOp53
 70
     1
102
RTVSPost2010Prop54
  1
strokes_ogs.tif
102
RTVSPost2010PropOp54
 70
     1
102
RTVSPost2010Prop55
280
     0
102
RTVSPost2010PropOp55
 70
     1
102
RTVSPost2010Prop56
140
1.0
102
RTVSPost2010PropOp56
 70
     1
102
RTVSPost2010Prop57
140
1.0
102
RTVSPost2010PropOp57
 70
     1
  0
XRECORD
  5
16A
102
{ACAD_REACTORS
330
169
102
}
330
169
100
AcDbXrecord
280
     1
102
RTVSPost2010Prop28
280
     0
102
RTVSPost2010PropOp28
 70
     0
102
RTVSPost2010Prop29
280
     1
102
RTVSPost2010PropOp29
 70
     0
102
RTVSPost2010Prop30
280
     1
102
RTVSPost2010PropOp30
 70
     0
102
RTVSPost2010Prop31
280
     0
102
RTVSPost2010PropOp31
 70
     0
102
RTVSPost2010Prop32
280
     0
102
RTVSPost2010PropOp32
 70
     0
102
RTVSPost2010Prop33
280
     0
102
RTVSPost2010PropOp33
 70
     0
102
RTVSPost2010Prop34
280
     0
102
RTVSPost2010PropOp34
 70
     0
102
RTVSPost2010Prop35
280
     0
102
RTVSPost2010PropOp35
 70
     0
102
RTVSPost2010Prop36
280
     0
102
RTVSPost2010PropOp36
 70
     0
102
RTVSPost2010Prop37
 90
       50
102
RTVSPost2010PropOp37
 70
     0
102
RTVSPost2010Prop38
140
0.0
102
RTVSPost2010PropOp38
 70
     0
102
RTVSPost2010Prop39
140
1.0
102
RTVSPost2010PropOp39
 70
     0
102
RTVSPost2010Prop40
 90
        0
102
RTVSPost2010PropOp40
 70
     0
102
RTVSPost2010Prop41ColorIndex
 90
       18
102
RTVSPost2010Prop41ColorRGB
 90
        0
102
RTVSPost2010PropOp41
 70
     0
102
RTVSPost2010Prop42
 90
       50
102
RTVSPost2010PropOp42
 70
     0
102
RTVSPost2010Prop43
 90
        3
102
RTVSPost2010PropOp43
 70
     0
102
RTVSPost2010Prop44ColorIndex
 90
        5
102
RTVSPost2010Prop44ColorRGB
 90
      255
102
RTVSPost2010PropOp44
 70
     0
102
RTVSPost2010Prop45
280
     0
102
RTVSPost2010PropOp45
 70
     0
102
RTVSPost2010Prop46
 90
       50
102
RTVSPost2010PropOp46
 70
     0
102
RTVSPost2010Prop47
 90
       50
102
RTVSPost2010PropOp47
 70
     0
102
RTVSPost2010Prop48
 90
       50
102
RTVSPost2010PropOp48
 70
     0
102
RTVSPost2010Prop49
280
     0
102
RTVSPost2010PropOp49
 70
     0
102
RTVSPost2010Prop50
 90
       50
102
RTVSPost2010PropOp50
 70
     0
102
RTVSPost2010Prop51ColorIndex
 90
      256
102
RTVSPost2010Prop51ColorRGB
 90
-16777216
102
RTVSPost2010PropOp51
 70
     0
102
RTVSPost2010Prop52
140
1.0
102
RTVSPost2010PropOp52
 70
     0
102
RTVSPost2010Prop53
 90
        2
102
RTVSPost2010PropOp53
 70
     0
102
RTVSPost2010Prop54
  1
strokes_ogs.tif
102
RTVSPost2010PropOp54
 70
     0
102
RTVSPost2010Prop55
280
     0
102
RTVSPost2010PropOp55
 70
     0
102
RTVSPost2010Prop56
140
1.0
102
RTVSPost2010PropOp56
 70
     0
102
RTVSPost2010Prop57
140
1.0
102
RTVSPost2010PropOp57
 70
     0
  0
XRECORD
  5
158
102
{ACAD_REACTORS
330
157
102
}
330
157
100
AcDbXrecord
280
     1
102
RTVSPost2010Prop28
280
     0
102
RTVSPost2010PropOp28
 70
     1
102
RTVSPost2010Prop29
280
     1
102
RTVSPost2010PropOp29
 70
     1
102
RTVSPost2010Prop30
280
     1
102
RTVSPost2010PropOp30
 70
     1
102
RTVSPost2010Prop31
280
     0
102
RTVSPost2010PropOp31
 70
     1
102
RTVSPost2010Prop32
280
     0
102
RTVSPost2010PropOp32
 70
     1
102
RTVSPost2010Prop33
280
     0
102
RTVSPost2010PropOp33
 70
     1
102
RTVSPost2010Prop34
280
     0
102
RTVSPost2010PropOp34
 70
     1
102
RTVSPost2010Prop35
280
     0
102
RTVSPost2010PropOp35
 70
     1
102
RTVSPost2010Prop36
280
     0
102
RTVSPost2010PropOp36
 70
     1
102
RTVSPost2010Prop37
 90
       50
102
RTVSPost2010PropOp37
 70
     1
102
RTVSPost2010Prop38
140
0.0
102
RTVSPost2010PropOp38
 70
     1
102
RTVSPost2010Prop39
140
1.0
102
RTVSPost2010PropOp39
 70
     1
102
RTVSPost2010Prop40
 90
        0
102
RTVSPost2010PropOp40
 70
     1
102
RTVSPost2010Prop41ColorIndex
 90
       18
102
RTVSPost2010Prop41ColorRGB
 90
        0
102
RTVSPost2010PropOp41
 70
     1
102
RTVSPost2010Prop42
 90
       50
102
RTVSPost2010PropOp42
 70
     1
102
RTVSPost2010Prop43
 90
        3
102
RTVSPost2010PropOp43
 70
     1
102
RTVSPost2010Prop44ColorIndex
 90
        5
102
RTVSPost2010Prop44ColorRGB
 90
      255
102
RTVSPost2010PropOp44
 70
     1
102
RTVSPost2010Prop45
280
     0
102
RTVSPost2010PropOp45
 70
     1
102
RTVSPost2010Prop46
 90
       50
102
RTVSPost2010PropOp46
 70
     1
102
RTVSPost2010Prop47
 90
       50
102
RTVSPost2010PropOp47
 70
     1
102
RTVSPost2010Prop48
 90
       50
102
RTVSPost2010PropOp48
 70
     1
102
RTVSPost2010Prop49
280
     0
102
RTVSPost2010PropOp49
 70
     1
102
RTVSPost2010Prop50
 90
       50
102
RTVSPost2010PropOp50
 70
     1
102
RTVSPost2010Prop51ColorIndex
 90
      256
102
RTVSPost2010Prop51ColorRGB
 90
-16777216
102
RTVSPost2010PropOp51
 70
     0
102
RTVSPost2010Prop52
140
1.0
102
RTVSPost2010PropOp52
 70
     0
102
RTVSPost2010Prop53
 90
        2
102
RTVSPost2010PropOp53
 70
     1
102
RTVSPost2010Prop54
  1
strokes_ogs.tif
102
RTVSPost2010PropOp54
 70
     1
102
RTVSPost2010Prop55
280
     0
102
RTVSPost2010PropOp55
 70
     1
102
RTVSPost2010Prop56
140
1.0
102
RTVSPost2010PropOp56
 70
     1
102
RTVSPost2010Prop57
140
1.0
102
RTVSPost2010PropOp57
 70
     1
  0
XRECORD
  5
13C
102
{ACAD_REACTORS
330
13B
102
}
330
13B
100
AcDbXrecord
280
     1
102
RTVSPost2010Prop28
280
     0
102
RTVSPost2010PropOp28
 70
     1
102
RTVSPost2010Prop29
280
     1
102
RTVSPost2010PropOp29
 70
     1
102
RTVSPost2010Prop30
280
     1
102
RTVSPost2010PropOp30
 70
     1
102
RTVSPost2010Prop31
280
     0
102
RTVSPost2010PropOp31
 70
     1
102
RTVSPost2010Prop32
280
     0
102
RTVSPost2010PropOp32
 70
     1
102
RTVSPost2010Prop33
280
     0
102
RTVSPost2010PropOp33
 70
     1
102
RTVSPost2010Prop34
280
     0
102
RTVSPost2010PropOp34
 70
     1
102
RTVSPost2010Prop35
280
     0
102
RTVSPost2010PropOp35
 70
     1
102
RTVSPost2010Prop36
280
     0
102
RTVSPost2010PropOp36
 70
     1
102
RTVSPost2010Prop37
 90
       50
102
RTVSPost2010PropOp37
 70
     1
102
RTVSPost2010Prop38
140
0.0
102
RTVSPost2010PropOp38
 70
     1
102
RTVSPost2010Prop39
140
1.0
102
RTVSPost2010PropOp39
 70
     1
102
RTVSPost2010Prop40
 90
        0
102
RTVSPost2010PropOp40
 70
     1
102
RTVSPost2010Prop41ColorIndex
 90
       18
102
RTVSPost2010Prop41ColorRGB
 90
        0
102
RTVSPost2010PropOp41
 70
     1
102
RTVSPost2010Prop42
 90
       50
102
RTVSPost2010PropOp42
 70
     1
102
RTVSPost2010Prop43
 90
        3
102
RTVSPost2010PropOp43
 70
     1
102
RTVSPost2010Prop44ColorIndex
 90
        5
102
RTVSPost2010Prop44ColorRGB
 90
      255
102
RTVSPost2010PropOp44
 70
     1
102
RTVSPost2010Prop45
280
     0
102
RTVSPost2010PropOp45
 70
     1
102
RTVSPost2010Prop46
 90
       50
102
RTVSPost2010PropOp46
 70
     1
102
RTVSPost2010Prop47
 90
       50
102
RTVSPost2010PropOp47
 70
     1
102
RTVSPost2010Prop48
 90
       50
102
RTVSPost2010PropOp48
 70
     1
102
RTVSPost2010Prop49
280
     0
102
RTVSPost2010PropOp49
 70
     1
102
RTVSPost2010Prop50
 90
       50
102
RTVSPost2010PropOp50
 70
     1
102
RTVSPost2010Prop51ColorIndex
 90
      256
102
RTVSPost2010Prop51ColorRGB
 90
-16777216
102
RTVSPost2010PropOp51
 70
     0
102
RTVSPost2010Prop52
140
1.0
102
RTVSPost2010PropOp52
 70
     0
102
RTVSPost2010Prop53
 90
        2
102
RTVSPost2010PropOp53
 70
     1
102
RTVSPost2010Prop54
  1
strokes_ogs.tif
102
RTVSPost2010PropOp54
 70
     1
102
RTVSPost2010Prop55
280
     0
102
RTVSPost2010PropOp55
 70
     1
102
RTVSPost2010Prop56
140
1.0
102
RTVSPost2010PropOp56
 70
     1
102
RTVSPost2010Prop57
140
1.0
102
RTVSPost2010PropOp57
 70
     1
  0
XRECORD
  5
13E
102
{ACAD_REACTORS
330
13D
102
}
330
13D
100
AcDbXrecord
280
     1
102
RTVSPost2010Prop28
280
     0
102
RTVSPost2010PropOp28
 70
     1
102
RTVSPost2010Prop29
280
     1
102
RTVSPost2010PropOp29
 70
     1
102
RTVSPost2010Prop30
280
     1
102
RTVSPost2010PropOp30
 70
     1
102
RTVSPost2010Prop31
280
     0
102
RTVSPost2010PropOp31
 70
     1
102
RTVSPost2010Prop32
280
     0
102
RTVSPost2010PropOp32
 70
     1
102
RTVSPost2010Prop33
280
     0
102
RTVSPost2010PropOp33
 70
     1
102
RTVSPost2010Prop34
280
     0
102
RTVSPost2010PropOp34
 70
     1
102
RTVSPost2010Prop35
280
     0
102
RTVSPost2010PropOp35
 70
     1
102
RTVSPost2010Prop36
280
     0
102
RTVSPost2010PropOp36
 70
     1
102
RTVSPost2010Prop37
 90
       50
102
RTVSPost2010PropOp37
 70
     1
102
RTVSPost2010Prop38
140
0.0
102
RTVSPost2010PropOp38
 70
     1
102
RTVSPost2010Prop39
140
1.0
102
RTVSPost2010PropOp39
 70
     1
102
RTVSPost2010Prop40
 90
        0
102
RTVSPost2010PropOp40
 70
     1
102
RTVSPost2010Prop41ColorIndex
 90
       18
102
RTVSPost2010Prop41ColorRGB
 90
        0
102
RTVSPost2010PropOp41
 70
     1
102
RTVSPost2010Prop42
 90
       50
102
RTVSPost2010PropOp42
 70
     1
102
RTVSPost2010Prop43
 90
        3
102
RTVSPost2010PropOp43
 70
     1
102
RTVSPost2010Prop44ColorIndex
 90
        5
102
RTVSPost2010Prop44ColorRGB
 90
      255
102
RTVSPost2010PropOp44
 70
     1
102
RTVSPost2010Prop45
280
     0
102
RTVSPost2010PropOp45
 70
     1
102
RTVSPost2010Prop46
 90
       50
102
RTVSPost2010PropOp46
 70
     1
102
RTVSPost2010Prop47
 90
       50
102
RTVSPost2010PropOp47
 70
     1
102
RTVSPost2010Prop48
 90
       50
102
RTVSPost2010PropOp48
 70
     1
102
RTVSPost2010Prop49
280
     0
102
RTVSPost2010PropOp49
 70
     1
102
RTVSPost2010Prop50
 90
       50
102
RTVSPost2010PropOp50
 70
     1
102
RTVSPost2010Prop51ColorIndex
 90
      256
102
RTVSPost2010Prop51ColorRGB
 90
-16777216
102
RTVSPost2010PropOp51
 70
     0
102
RTVSPost2010Prop52
140
1.0
102
RTVSPost2010PropOp52
 70
     0
102
RTVSPost2010Prop53
 90
        2
102
RTVSPost2010PropOp53
 70
     1
102
RTVSPost2010Prop54
  1
strokes_ogs.tif
102
RTVSPost2010PropOp54
 70
     1
102
RTVSPost2010Prop55
280
     0
102
RTVSPost2010PropOp55
 70
     1
102
RTVSPost2010Prop56
140
1.0
102
RTVSPost2010PropOp56
 70
     1
102
RTVSPost2010Prop57
140
1.0
102
RTVSPost2010PropOp57
 70
     1
  0
XRECORD
  5
140
102
{ACAD_REACTORS
330
13F
102
}
330
13F
100
AcDbXrecord
280
     1
102
RTVSPost2010Prop28
280
     0
102
RTVSPost2010PropOp28
 70
     1
102
RTVSPost2010Prop29
280
     1
102
RTVSPost2010PropOp29
 70
     1
102
RTVSPost2010Prop30
280
     1
102
RTVSPost2010PropOp30
 70
     1
102
RTVSPost2010Prop31
280
     0
102
RTVSPost2010PropOp31
 70
     1
102
RTVSPost2010Prop32
280
     0
102
RTVSPost2010PropOp32
 70
     1
102
RTVSPost2010Prop33
280
     0
102
RTVSPost2010PropOp33
 70
     1
102
RTVSPost2010Prop34
280
     0
102
RTVSPost2010PropOp34
 70
     1
102
RTVSPost2010Prop35
280
     0
102
RTVSPost2010PropOp35
 70
     1
102
RTVSPost2010Prop36
280
     0
102
RTVSPost2010PropOp36
 70
     1
102
RTVSPost2010Prop37
 90
       50
102
RTVSPost2010PropOp37
 70
     1
102
RTVSPost2010Prop38
140
0.0
102
RTVSPost2010PropOp38
 70
     1
102
RTVSPost2010Prop39
140
1.0
102
RTVSPost2010PropOp39
 70
     1
102
RTVSPost2010Prop40
 90
        0
102
RTVSPost2010PropOp40
 70
     1
102
RTVSPost2010Prop41ColorIndex
 90
       18
102
RTVSPost2010Prop41ColorRGB
 90
        0
102
RTVSPost2010PropOp41
 70
     1
102
RTVSPost2010Prop42
 90
       50
102
RTVSPost2010PropOp42
 70
     1
102
RTVSPost2010Prop43
 90
        3
102
RTVSPost2010PropOp43
 70
     1
102
RTVSPost2010Prop44ColorIndex
 90
        5
102
RTVSPost2010Prop44ColorRGB
 90
      255
102
RTVSPost2010PropOp44
 70
     1
102
RTVSPost2010Prop45
280
     0
102
RTVSPost2010PropOp45
 70
     1
102
RTVSPost2010Prop46
 90
       50
102
RTVSPost2010PropOp46
 70
     1
102
RTVSPost2010Prop47
 90
       50
102
RTVSPost2010PropOp47
 70
     1
102
RTVSPost2010Prop48
 90
       50
102
RTVSPost2010PropOp48
 70
     1
102
RTVSPost2010Prop49
280
     0
102
RTVSPost2010PropOp49
 70
     1
102
RTVSPost2010Prop50
 90
       50
102
RTVSPost2010PropOp50
 70
     1
102
RTVSPost2010Prop51ColorIndex
 90
      256
102
RTVSPost2010Prop51ColorRGB
 90
-16777216
102
RTVSPost2010PropOp51
 70
     0
102
RTVSPost2010Prop52
140
1.0
102
RTVSPost2010PropOp52
 70
     0
102
RTVSPost2010Prop53
 90
        2
102
RTVSPost2010PropOp53
 70
     1
102
RTVSPost2010Prop54
  1
strokes_ogs.tif
102
RTVSPost2010PropOp54
 70
     1
102
RTVSPost2010Prop55
280
     0
102
RTVSPost2010PropOp55
 70
     1
102
RTVSPost2010Prop56
140
1.0
102
RTVSPost2010PropOp56
 70
     1
102
RTVSPost2010Prop57
140
1.0
102
RTVSPost2010PropOp57
 70
     1
  0
XRECORD
  5
142
102
{ACAD_REACTORS
330
141
102
}
330
141
100
AcDbXrecord
280
     1
102
RTVSPost2010Prop28
280
     0
102
RTVSPost2010PropOp28
 70
     1
102
RTVSPost2010Prop29
280
     1
102
RTVSPost2010PropOp29
 70
     1
102
RTVSPost2010Prop30
280
     1
102
RTVSPost2010PropOp30
 70
     1
102
RTVSPost2010Prop31
280
     0
102
RTVSPost2010PropOp31
 70
     1
102
RTVSPost2010Prop32
280
     0
102
RTVSPost2010PropOp32
 70
     1
102
RTVSPost2010Prop33
280
     0
102
RTVSPost2010PropOp33
 70
     1
102
RTVSPost2010Prop34
280
     0
102
RTVSPost2010PropOp34
 70
     1
102
RTVSPost2010Prop35
280
     0
102
RTVSPost2010PropOp35
 70
     1
102
RTVSPost2010Prop36
280
     0
102
RTVSPost2010PropOp36
 70
     1
102
RTVSPost2010Prop37
 90
       50
102
RTVSPost2010PropOp37
 70
     1
102
RTVSPost2010Prop38
140
0.0
102
RTVSPost2010PropOp38
 70
     1
102
RTVSPost2010Prop39
140
1.0
102
RTVSPost2010PropOp39
 70
     1
102
RTVSPost2010Prop40
 90
        0
102
RTVSPost2010PropOp40
 70
     1
102
RTVSPost2010Prop41ColorIndex
 90
       18
102
RTVSPost2010Prop41ColorRGB
 90
        0
102
RTVSPost2010PropOp41
 70
     1
102
RTVSPost2010Prop42
 90
       50
102
RTVSPost2010PropOp42
 70
     1
102
RTVSPost2010Prop43
 90
        3
102
RTVSPost2010PropOp43
 70
     1
102
RTVSPost2010Prop44ColorIndex
 90
        5
102
RTVSPost2010Prop44ColorRGB
 90
      255
102
RTVSPost2010PropOp44
 70
     1
102
RTVSPost2010Prop45
280
     0
102
RTVSPost2010PropOp45
 70
     1
102
RTVSPost2010Prop46
 90
       50
102
RTVSPost2010PropOp46
 70
     1
102
RTVSPost2010Prop47
 90
       50
102
RTVSPost2010PropOp47
 70
     1
102
RTVSPost2010Prop48
 90
       50
102
RTVSPost2010PropOp48
 70
     1
102
RTVSPost2010Prop49
280
     0
102
RTVSPost2010PropOp49
 70
     1
102
RTVSPost2010Prop50
 90
       50
102
RTVSPost2010PropOp50
 70
     1
102
RTVSPost2010Prop51ColorIndex
 90
      256
102
RTVSPost2010Prop51ColorRGB
 90
-16777216
102
RTVSPost2010PropOp51
 70
     0
102
RTVSPost2010Prop52
140
1.0
102
RTVSPost2010PropOp52
 70
     0
102
RTVSPost2010Prop53
 90
        2
102
RTVSPost2010PropOp53
 70
     1
102
RTVSPost2010Prop54
  1
strokes_ogs.tif
102
RTVSPost2010PropOp54
 70
     1
102
RTVSPost2010Prop55
280
     0
102
RTVSPost2010PropOp55
 70
     1
102
RTVSPost2010Prop56
140
1.0
102
RTVSPost2010PropOp56
 70
     1
102
RTVSPost2010Prop57
140
1.0
102
RTVSPost2010PropOp57
 70
     1
  0
XRECORD
  5
14A
102
{ACAD_REACTORS
330
149
102
}
330
149
100
AcDbXrecord
280
     1
102
RTVSPost2010Prop28
280
     0
102
RTVSPost2010PropOp28
 70
     1
102
RTVSPost2010Prop29
280
     1
102
RTVSPost2010PropOp29
 70
     1
102
RTVSPost2010Prop30
280
     1
102
RTVSPost2010PropOp30
 70
     1
102
RTVSPost2010Prop31
280
     0
102
RTVSPost2010PropOp31
 70
     1
102
RTVSPost2010Prop32
280
     0
102
RTVSPost2010PropOp32
 70
     1
102
RTVSPost2010Prop33
280
     0
102
RTVSPost2010PropOp33
 70
     1
102
RTVSPost2010Prop34
280
     0
102
RTVSPost2010PropOp34
 70
     1
102
RTVSPost2010Prop35
280
     0
102
RTVSPost2010PropOp35
 70
     1
102
RTVSPost2010Prop36
280
     0
102
RTVSPost2010PropOp36
 70
     1
102
RTVSPost2010Prop37
 90
       50
102
RTVSPost2010PropOp37
 70
     1
102
RTVSPost2010Prop38
140
0.0
102
RTVSPost2010PropOp38
 70
     1
102
RTVSPost2010Prop39
140
1.0
102
RTVSPost2010PropOp39
 70
     1
102
RTVSPost2010Prop40
 90
        0
102
RTVSPost2010PropOp40
 70
     1
102
RTVSPost2010Prop41ColorIndex
 90
       18
102
RTVSPost2010Prop41ColorRGB
 90
        0
102
RTVSPost2010PropOp41
 70
     1
102
RTVSPost2010Prop42
 90
       50
102
RTVSPost2010PropOp42
 70
     1
102
RTVSPost2010Prop43
 90
        3
102
RTVSPost2010PropOp43
 70
     1
102
RTVSPost2010Prop44ColorIndex
 90
        5
102
RTVSPost2010Prop44ColorRGB
 90
      255
102
RTVSPost2010PropOp44
 70
     1
102
RTVSPost2010Prop45
280
     0
102
RTVSPost2010PropOp45
 70
     1
102
RTVSPost2010Prop46
 90
       50
102
RTVSPost2010PropOp46
 70
     1
102
RTVSPost2010Prop47
 90
       50
102
RTVSPost2010PropOp47
 70
     1
102
RTVSPost2010Prop48
 90
       50
102
RTVSPost2010PropOp48
 70
     1
102
RTVSPost2010Prop49
280
     0
102
RTVSPost2010PropOp49
 70
     1
102
RTVSPost2010Prop50
 90
       50
102
RTVSPost2010PropOp50
 70
     1
102
RTVSPost2010Prop51ColorIndex
 90
      256
102
RTVSPost2010Prop51ColorRGB
 90
-16777216
102
RTVSPost2010PropOp51
 70
     0
102
RTVSPost2010Prop52
140
1.0
102
RTVSPost2010PropOp52
 70
     0
102
RTVSPost2010Prop53
 90
        2
102
RTVSPost2010PropOp53
 70
     1
102
RTVSPost2010Prop54
  1
strokes_ogs.tif
102
RTVSPost2010PropOp54
 70
     1
102
RTVSPost2010Prop55
280
     0
102
RTVSPost2010PropOp55
 70
     1
102
RTVSPost2010Prop56
140
1.0
102
RTVSPost2010PropOp56
 70
     1
102
RTVSPost2010Prop57
140
1.0
102
RTVSPost2010PropOp57
 70
     1
  0
XRECORD
  5
166
102
{ACAD_REACTORS
330
165
102
}
330
165
100
AcDbXrecord
280
     1
102
RTVSPost2010Prop28
280
     0
102
RTVSPost2010PropOp28
 70
     0
102
RTVSPost2010Prop29
280
     1
102
RTVSPost2010PropOp29
 70
     0
102
RTVSPost2010Prop30
280
     1
102
RTVSPost2010PropOp30
 70
     0
102
RTVSPost2010Prop31
280
     0
102
RTVSPost2010PropOp31
 70
     0
102
RTVSPost2010Prop32
280
     0
102
RTVSPost2010PropOp32
 70
     0
102
RTVSPost2010Prop33
280
     0
102
RTVSPost2010PropOp33
 70
     0
102
RTVSPost2010Prop34
280
     0
102
RTVSPost2010PropOp34
 70
     0
102
RTVSPost2010Prop35
280
     0
102
RTVSPost2010PropOp35
 70
     0
102
RTVSPost2010Prop36
280
     0
102
RTVSPost2010PropOp36
 70
     0
102
RTVSPost2010Prop37
 90
       50
102
RTVSPost2010PropOp37
 70
     0
102
RTVSPost2010Prop38
140
0.0
102
RTVSPost2010PropOp38
 70
     0
102
RTVSPost2010Prop39
140
1.0
102
RTVSPost2010PropOp39
 70
     0
102
RTVSPost2010Prop40
 90
        0
102
RTVSPost2010PropOp40
 70
     0
102
RTVSPost2010Prop41ColorIndex
 90
       18
102
RTVSPost2010Prop41ColorRGB
 90
        0
102
RTVSPost2010PropOp41
 70
     0
102
RTVSPost2010Prop42
 90
       50
102
RTVSPost2010PropOp42
 70
     0
102
RTVSPost2010Prop43
 90
        3
102
RTVSPost2010PropOp43
 70
     0
102
RTVSPost2010Prop44ColorIndex
 90
        5
102
RTVSPost2010Prop44ColorRGB
 90
      255
102
RTVSPost2010PropOp44
 70
     0
102
RTVSPost2010Prop45
280
     0
102
RTVSPost2010PropOp45
 70
     0
102
RTVSPost2010Prop46
 90
       50
102
RTVSPost2010PropOp46
 70
     0
102
RTVSPost2010Prop47
 90
       50
102
RTVSPost2010PropOp47
 70
     0
102
RTVSPost2010Prop48
 90
       50
102
RTVSPost2010PropOp48
 70
     0
102
RTVSPost2010Prop49
280
     0
102
RTVSPost2010PropOp49
 70
     0
102
RTVSPost2010Prop50
 90
       50
102
RTVSPost2010PropOp50
 70
     0
102
RTVSPost2010Prop51ColorIndex
 90
      256
102
RTVSPost2010Prop51ColorRGB
 90
-16777216
102
RTVSPost2010PropOp51
 70
     0
102
RTVSPost2010Prop52
140
1.0
102
RTVSPost2010PropOp52
 70
     0
102
RTVSPost2010Prop53
 90
        2
102
RTVSPost2010PropOp53
 70
     0
102
RTVSPost2010Prop54
  1
strokes_ogs.tif
102
RTVSPost2010PropOp54
 70
     0
102
RTVSPost2010Prop55
280
     0
102
RTVSPost2010PropOp55
 70
     0
102
RTVSPost2010Prop56
140
1.0
102
RTVSPost2010PropOp56
 70
     0
102
RTVSPost2010Prop57
140
1.0
102
RTVSPost2010PropOp57
 70
     0
  0
XRECORD
  5
156
102
{ACAD_REACTORS
330
155
102
}
330
155
100
AcDbXrecord
280
     1
102
RTVSPost2010Prop28
280
     0
102
RTVSPost2010PropOp28
 70
     1
102
RTVSPost2010Prop29
280
     1
102
RTVSPost2010PropOp29
 70
     1
102
RTVSPost2010Prop30
280
     1
102
RTVSPost2010PropOp30
 70
     1
102
RTVSPost2010Prop31
280
     0
102
RTVSPost2010PropOp31
 70
     1
102
RTVSPost2010Prop32
280
     0
102
RTVSPost2010PropOp32
 70
     1
102
RTVSPost2010Prop33
280
     0
102
RTVSPost2010PropOp33
 70
     1
102
RTVSPost2010Prop34
280
     0
102
RTVSPost2010PropOp34
 70
     1
102
RTVSPost2010Prop35
280
     0
102
RTVSPost2010PropOp35
 70
     1
102
RTVSPost2010Prop36
280
     0
102
RTVSPost2010PropOp36
 70
     1
102
RTVSPost2010Prop37
 90
       50
102
RTVSPost2010PropOp37
 70
     1
102
RTVSPost2010Prop38
140
0.0
102
RTVSPost2010PropOp38
 70
     1
102
RTVSPost2010Prop39
140
1.0
102
RTVSPost2010PropOp39
 70
     1
102
RTVSPost2010Prop40
 90
        0
102
RTVSPost2010PropOp40
 70
     1
102
RTVSPost2010Prop41ColorIndex
 90
       18
102
RTVSPost2010Prop41ColorRGB
 90
        0
102
RTVSPost2010PropOp41
 70
     1
102
RTVSPost2010Prop42
 90
       50
102
RTVSPost2010PropOp42
 70
     1
102
RTVSPost2010Prop43
 90
        3
102
RTVSPost2010PropOp43
 70
     1
102
RTVSPost2010Prop44ColorIndex
 90
        5
102
RTVSPost2010Prop44ColorRGB
 90
      255
102
RTVSPost2010PropOp44
 70
     1
102
RTVSPost2010Prop45
280
     0
102
RTVSPost2010PropOp45
 70
     1
102
RTVSPost2010Prop46
 90
       50
102
RTVSPost2010PropOp46
 70
     1
102
RTVSPost2010Prop47
 90
       50
102
RTVSPost2010PropOp47
 70
     1
102
RTVSPost2010Prop48
 90
       50
102
RTVSPost2010PropOp48
 70
     1
102
RTVSPost2010Prop49
280
     0
102
RTVSPost2010PropOp49
 70
     1
102
RTVSPost2010Prop50
 90
       50
102
RTVSPost2010PropOp50
 70
     1
102
RTVSPost2010Prop51ColorIndex
 90
      256
102
RTVSPost2010Prop51ColorRGB
 90
-16777216
102
RTVSPost2010PropOp51
 70
     0
102
RTVSPost2010Prop52
140
1.0
102
RTVSPost2010PropOp52
 70
     0
102
RTVSPost2010Prop53
 90
        2
102
RTVSPost2010PropOp53
 70
     1
102
RTVSPost2010Prop54
  1
strokes_ogs.tif
102
RTVSPost2010PropOp54
 70
     1
102
RTVSPost2010Prop55
280
     0
102
RTVSPost2010PropOp55
 70
     1
102
RTVSPost2010Prop56
140
1.0
102
RTVSPost2010PropOp56
 70
     1
102
RTVSPost2010Prop57
140
1.0
102
RTVSPost2010PropOp57
 70
     1
  0
XRECORD
  5
168
102
{ACAD_REACTORS
330
167
102
}
330
167
100
AcDbXrecord
280
     1
102
RTVSPost2010Prop28
280
     0
102
RTVSPost2010PropOp28
 70
     0
102
RTVSPost2010Prop29
280
     1
102
RTVSPost2010PropOp29
 70
     0
102
RTVSPost2010Prop30
280
     1
102
RTVSPost2010PropOp30
 70
     0
102
RTVSPost2010Prop31
280
     0
102
RTVSPost2010PropOp31
 70
     0
102
RTVSPost2010Prop32
280
     0
102
RTVSPost2010PropOp32
 70
     0
102
RTVSPost2010Prop33
280
     0
102
RTVSPost2010PropOp33
 70
     0
102
RTVSPost2010Prop34
280
     0
102
RTVSPost2010PropOp34
 70
     0
102
RTVSPost2010Prop35
280
     0
102
RTVSPost2010PropOp35
 70
     0
102
RTVSPost2010Prop36
280
     0
102
RTVSPost2010PropOp36
 70
     0
102
RTVSPost2010Prop37
 90
       50
102
RTVSPost2010PropOp37
 70
     0
102
RTVSPost2010Prop38
140
0.0
102
RTVSPost2010PropOp38
 70
     0
102
RTVSPost2010Prop39
140
1.0
102
RTVSPost2010PropOp39
 70
     0
102
RTVSPost2010Prop40
 90
        0
102
RTVSPost2010PropOp40
 70
     0
102
RTVSPost2010Prop41ColorIndex
 90
       18
102
RTVSPost2010Prop41ColorRGB
 90
        0
102
RTVSPost2010PropOp41
 70
     0
102
RTVSPost2010Prop42
 90
       50
102
RTVSPost2010PropOp42
 70
     0
102
RTVSPost2010Prop43
 90
        3
102
RTVSPost2010PropOp43
 70
     0
102
RTVSPost2010Prop44ColorIndex
 90
        5
102
RTVSPost2010Prop44ColorRGB
 90
      255
102
RTVSPost2010PropOp44
 70
     0
102
RTVSPost2010Prop45
280
     0
102
RTVSPost2010PropOp45
 70
     0
102
RTVSPost2010Prop46
 90
       50
102
RTVSPost2010PropOp46
 70
     0
102
RTVSPost2010Prop47
 90
       50
102
RTVSPost2010PropOp47
 70
     0
102
RTVSPost2010Prop48
 90
       50
102
RTVSPost2010PropOp48
 70
     0
102
RTVSPost2010Prop49
280
     0
102
RTVSPost2010PropOp49
 70
     0
102
RTVSPost2010Prop50
 90
       50
102
RTVSPost2010PropOp50
 70
     0
102
RTVSPost2010Prop51ColorIndex
 90
      256
102
RTVSPost2010Prop51ColorRGB
 90
-16777216
102
RTVSPost2010PropOp51
 70
     0
102
RTVSPost2010Prop52
140
1.0
102
RTVSPost2010PropOp52
 70
     0
102
RTVSPost2010Prop53
 90
        2
102
RTVSPost2010PropOp53
 70
     0
102
RTVSPost2010Prop54
  1
strokes_ogs.tif
102
RTVSPost2010PropOp54
 70
     0
102
RTVSPost2010Prop55
280
     0
102
RTVSPost2010PropOp55
 70
     0
102
RTVSPost2010Prop56
140
1.0
102
RTVSPost2010PropOp56
 70
     0
102
RTVSPost2010Prop57
140
1.0
102
RTVSPost2010PropOp57
 70
     0
  0
XRECORD
  5
14E
102
{ACAD_REACTORS
330
14D
102
}
330
14D
100
AcDbXrecord
280
     1
102
RTVSPost2010Prop28
280
     0
102
RTVSPost2010PropOp28
 70
     1
102
RTVSPost2010Prop29
280
     1
102
RTVSPost2010PropOp29
 70
     1
102
RTVSPost2010Prop30
280
     1
102
RTVSPost2010PropOp30
 70
     1
102
RTVSPost2010Prop31
280
     0
102
RTVSPost2010PropOp31
 70
     1
102
RTVSPost2010Prop32
280
     0
102
RTVSPost2010PropOp32
 70
     1
102
RTVSPost2010Prop33
280
     0
102
RTVSPost2010PropOp33
 70
     1
102
RTVSPost2010Prop34
280
     0
102
RTVSPost2010PropOp34
 70
     1
102
RTVSPost2010Prop35
280
     0
102
RTVSPost2010PropOp35
 70
     1
102
RTVSPost2010Prop36
280
     0
102
RTVSPost2010PropOp36
 70
     1
102
RTVSPost2010Prop37
 90
       50
102
RTVSPost2010PropOp37
 70
     1
102
RTVSPost2010Prop38
140
0.0
102
RTVSPost2010PropOp38
 70
     1
102
RTVSPost2010Prop39
140
1.0
102
RTVSPost2010PropOp39
 70
     1
102
RTVSPost2010Prop40
 90
        0
102
RTVSPost2010PropOp40
 70
     1
102
RTVSPost2010Prop41ColorIndex
 90
       18
102
RTVSPost2010Prop41ColorRGB
 90
        0
102
RTVSPost2010PropOp41
 70
     1
102
RTVSPost2010Prop42
 90
       50
102
RTVSPost2010PropOp42
 70
     1
102
RTVSPost2010Prop43
 90
        3
102
RTVSPost2010PropOp43
 70
     1
102
RTVSPost2010Prop44ColorIndex
 90
        5
102
RTVSPost2010Prop44ColorRGB
 90
      255
102
RTVSPost2010PropOp44
 70
     1
102
RTVSPost2010Prop45
280
     0
102
RTVSPost2010PropOp45
 70
     1
102
RTVSPost2010Prop46
 90
       50
102
RTVSPost2010PropOp46
 70
     1
102
RTVSPost2010Prop47
 90
       50
102
RTVSPost2010PropOp47
 70
     1
102
RTVSPost2010Prop48
 90
       50
102
RTVSPost2010PropOp48
 70
     1
102
RTVSPost2010Prop49
280
     0
102
RTVSPost2010PropOp49
 70
     1
102
RTVSPost2010Prop50
 90
       50
102
RTVSPost2010PropOp50
 70
     1
102
RTVSPost2010Prop51ColorIndex
 90
      256
102
RTVSPost2010Prop51ColorRGB
 90
-16777216
102
RTVSPost2010PropOp51
 70
     0
102
RTVSPost2010Prop52
140
1.0
102
RTVSPost2010PropOp52
 70
     0
102
RTVSPost2010Prop53
 90
        2
102
RTVSPost2010PropOp53
 70
     1
102
RTVSPost2010Prop54
  1
strokes_ogs.tif
102
RTVSPost2010PropOp54
 70
     1
102
RTVSPost2010Prop55
280
     0
102
RTVSPost2010PropOp55
 70
     1
102
RTVSPost2010Prop56
140
1.0
102
RTVSPost2010PropOp56
 70
     1
102
RTVSPost2010Prop57
140
1.0
102
RTVSPost2010PropOp57
 70
     1
  0
XRECORD
  5
164
102
{ACAD_REACTORS
330
163
102
}
330
163
100
AcDbXrecord
280
     1
102
RTVSPost2010Prop28
280
     0
102
RTVSPost2010PropOp28
 70
     1
102
RTVSPost2010Prop29
280
     1
102
RTVSPost2010PropOp29
 70
     1
102
RTVSPost2010Prop30
280
     1
102
RTVSPost2010PropOp30
 70
     1
102
RTVSPost2010Prop31
280
     0
102
RTVSPost2010PropOp31
 70
     1
102
RTVSPost2010Prop32
280
     0
102
RTVSPost2010PropOp32
 70
     1
102
RTVSPost2010Prop33
280
     0
102
RTVSPost2010PropOp33
 70
     1
102
RTVSPost2010Prop34
280
     0
102
RTVSPost2010PropOp34
 70
     1
102
RTVSPost2010Prop35
280
     0
102
RTVSPost2010PropOp35
 70
     1
102
RTVSPost2010Prop36
280
     0
102
RTVSPost2010PropOp36
 70
     1
102
RTVSPost2010Prop37
 90
       50
102
RTVSPost2010PropOp37
 70
     1
102
RTVSPost2010Prop38
140
0.0
102
RTVSPost2010PropOp38
 70
     1
102
RTVSPost2010Prop39
140
1.0
102
RTVSPost2010PropOp39
 70
     1
102
RTVSPost2010Prop40
 90
        0
102
RTVSPost2010PropOp40
 70
     1
102
RTVSPost2010Prop41ColorIndex
 90
       18
102
RTVSPost2010Prop41ColorRGB
 90
        0
102
RTVSPost2010PropOp41
 70
     1
102
RTVSPost2010Prop42
 90
       50
102
RTVSPost2010PropOp42
 70
     1
102
RTVSPost2010Prop43
 90
        3
102
RTVSPost2010PropOp43
 70
     1
102
RTVSPost2010Prop44ColorIndex
 90
        5
102
RTVSPost2010Prop44ColorRGB
 90
      255
102
RTVSPost2010PropOp44
 70
     1
102
RTVSPost2010Prop45
280
     0
102
RTVSPost2010PropOp45
 70
     1
102
RTVSPost2010Prop46
 90
       50
102
RTVSPost2010PropOp46
 70
     1
102
RTVSPost2010Prop47
 90
       50
102
RTVSPost2010PropOp47
 70
     1
102
RTVSPost2010Prop48
 90
       50
102
RTVSPost2010PropOp48
 70
     1
102
RTVSPost2010Prop49
280
     0
102
RTVSPost2010PropOp49
 70
     1
102
RTVSPost2010Prop50
 90
       50
102
RTVSPost2010PropOp50
 70
     1
102
RTVSPost2010Prop51ColorIndex
 90
      256
102
RTVSPost2010Prop51ColorRGB
 90
-16777216
102
RTVSPost2010PropOp51
 70
     0
102
RTVSPost2010Prop52
140
1.0
102
RTVSPost2010PropOp52
 70
     0
102
RTVSPost2010Prop53
 90
        2
102
RTVSPost2010PropOp53
 70
     1
102
RTVSPost2010Prop54
  1
strokes_ogs.tif
102
RTVSPost2010PropOp54
 70
     1
102
RTVSPost2010Prop55
280
     0
102
RTVSPost2010PropOp55
 70
     1
102
RTVSPost2010Prop56
140
1.0
102
RTVSPost2010PropOp56
 70
     1
102
RTVSPost2010Prop57
140
1.0
102
RTVSPost2010PropOp57
 70
     1
  0
XRECORD
  5
162
102
{ACAD_REACTORS
330
161
102
}
330
161
100
AcDbXrecord
280
     1
102
RTVSPost2010Prop28
280
     0
102
RTVSPost2010PropOp28
 70
     1
102
RTVSPost2010Prop29
280
     1
102
RTVSPost2010PropOp29
 70
     1
102
RTVSPost2010Prop30
280
     1
102
RTVSPost2010PropOp30
 70
     1
102
RTVSPost2010Prop31
280
     0
102
RTVSPost2010PropOp31
 70
     1
102
RTVSPost2010Prop32
280
     0
102
RTVSPost2010PropOp32
 70
     1
102
RTVSPost2010Prop33
280
     0
102
RTVSPost2010PropOp33
 70
     1
102
RTVSPost2010Prop34
280
     0
102
RTVSPost2010PropOp34
 70
     1
102
RTVSPost2010Prop35
280
     0
102
RTVSPost2010PropOp35
 70
     1
102
RTVSPost2010Prop36
280
     0
102
RTVSPost2010PropOp36
 70
     1
102
RTVSPost2010Prop37
 90
       50
102
RTVSPost2010PropOp37
 70
     1
102
RTVSPost2010Prop38
140
0.0
102
RTVSPost2010PropOp38
 70
     1
102
RTVSPost2010Prop39
140
1.0
102
RTVSPost2010PropOp39
 70
     1
102
RTVSPost2010Prop40
 90
        0
102
RTVSPost2010PropOp40
 70
     1
102
RTVSPost2010Prop41ColorIndex
 90
       18
102
RTVSPost2010Prop41ColorRGB
 90
        0
102
RTVSPost2010PropOp41
 70
     1
102
RTVSPost2010Prop42
 90
       50
102
RTVSPost2010PropOp42
 70
     1
102
RTVSPost2010Prop43
 90
        3
102
RTVSPost2010PropOp43
 70
     1
102
RTVSPost2010Prop44ColorIndex
 90
        5
102
RTVSPost2010Prop44ColorRGB
 90
      255
102
RTVSPost2010PropOp44
 70
     1
102
RTVSPost2010Prop45
280
     0
102
RTVSPost2010PropOp45
 70
     1
102
RTVSPost2010Prop46
 90
       50
102
RTVSPost2010PropOp46
 70
     1
102
RTVSPost2010Prop47
 90
       50
102
RTVSPost2010PropOp47
 70
     1
102
RTVSPost2010Prop48
 90
       50
102
RTVSPost2010PropOp48
 70
     1
102
RTVSPost2010Prop49
280
     0
102
RTVSPost2010PropOp49
 70
     1
102
RTVSPost2010Prop50
 90
       50
102
RTVSPost2010PropOp50
 70
     1
102
RTVSPost2010Prop51ColorIndex
 90
      256
102
RTVSPost2010Prop51ColorRGB
 90
-16777216
102
RTVSPost2010PropOp51
 70
     0
102
RTVSPost2010Prop52
140
1.0
102
RTVSPost2010PropOp52
 70
     0
102
RTVSPost2010Prop53
 90
        2
102
RTVSPost2010PropOp53
 70
     1
102
RTVSPost2010Prop54
  1
strokes_ogs.tif
102
RTVSPost2010PropOp54
 70
     1
102
RTVSPost2010Prop55
280
     0
102
RTVSPost2010PropOp55
 70
     1
102
RTVSPost2010Prop56
140
1.0
102
RTVSPost2010PropOp56
 70
     1
102
RTVSPost2010Prop57
140
1.0
102
RTVSPost2010PropOp57
 70
     1
  0
XRECORD
  5
15C
102
{ACAD_REACTORS
330
15B
102
}
330
15B
100
AcDbXrecord
280
     1
102
RTVSPost2010Prop28
280
     0
102
RTVSPost2010PropOp28
 70
     1
102
RTVSPost2010Prop29
280
     1
102
RTVSPost2010PropOp29
 70
     1
102
RTVSPost2010Prop30
280
     1
102
RTVSPost2010PropOp30
 70
     1
102
RTVSPost2010Prop31
280
     0
102
RTVSPost2010PropOp31
 70
     1
102
RTVSPost2010Prop32
280
     0
102
RTVSPost2010PropOp32
 70
     1
102
RTVSPost2010Prop33
280
     0
102
RTVSPost2010PropOp33
 70
     1
102
RTVSPost2010Prop34
280
     0
102
RTVSPost2010PropOp34
 70
     1
102
RTVSPost2010Prop35
280
     0
102
RTVSPost2010PropOp35
 70
     1
102
RTVSPost2010Prop36
280
     0
102
RTVSPost2010PropOp36
 70
     1
102
RTVSPost2010Prop37
 90
       50
102
RTVSPost2010PropOp37
 70
     1
102
RTVSPost2010Prop38
140
0.0
102
RTVSPost2010PropOp38
 70
     1
102
RTVSPost2010Prop39
140
1.0
102
RTVSPost2010PropOp39
 70
     1
102
RTVSPost2010Prop40
 90
        0
102
RTVSPost2010PropOp40
 70
     1
102
RTVSPost2010Prop41ColorIndex
 90
       18
102
RTVSPost2010Prop41ColorRGB
 90
        0
102
RTVSPost2010PropOp41
 70
     1
102
RTVSPost2010Prop42
 90
       50
102
RTVSPost2010PropOp42
 70
     1
102
RTVSPost2010Prop43
 90
        3
102
RTVSPost2010PropOp43
 70
     1
102
RTVSPost2010Prop44ColorIndex
 90
        5
102
RTVSPost2010Prop44ColorRGB
 90
      255
102
RTVSPost2010PropOp44
 70
     1
102
RTVSPost2010Prop45
280
     0
102
RTVSPost2010PropOp45
 70
     1
102
RTVSPost2010Prop46
 90
       50
102
RTVSPost2010PropOp46
 70
     1
102
RTVSPost2010Prop47
 90
       50
102
RTVSPost2010PropOp47
 70
     1
102
RTVSPost2010Prop48
 90
       50
102
RTVSPost2010PropOp48
 70
     1
102
RTVSPost2010Prop49
280
     0
102
RTVSPost2010PropOp49
 70
     1
102
RTVSPost2010Prop50
 90
       50
102
RTVSPost2010PropOp50
 70
     1
102
RTVSPost2010Prop51ColorIndex
 90
      256
102
RTVSPost2010Prop51ColorRGB
 90
-16777216
102
RTVSPost2010PropOp51
 70
     0
102
RTVSPost2010Prop52
140
1.0
102
RTVSPost2010PropOp52
 70
     0
102
RTVSPost2010Prop53
 90
        2
102
RTVSPost2010PropOp53
 70
     1
102
RTVSPost2010Prop54
  1
strokes_ogs.tif
102
RTVSPost2010PropOp54
 70
     1
102
RTVSPost2010Prop55
280
     0
102
RTVSPost2010PropOp55
 70
     1
102
RTVSPost2010Prop56
140
1.0
102
RTVSPost2010PropOp56
 70
     1
102
RTVSPost2010Prop57
140
1.0
102
RTVSPost2010PropOp57
 70
     1
  0
XRECORD
  5
15E
102
{ACAD_REACTORS
330
15D
102
}
330
15D
100
AcDbXrecord
280
     1
102
RTVSPost2010Prop28
280
     0
102
RTVSPost2010PropOp28
 70
     1
102
RTVSPost2010Prop29
280
     1
102
RTVSPost2010PropOp29
 70
     1
102
RTVSPost2010Prop30
280
     1
102
RTVSPost2010PropOp30
 70
     1
102
RTVSPost2010Prop31
280
     0
102
RTVSPost2010PropOp31
 70
     1
102
RTVSPost2010Prop32
280
     0
102
RTVSPost2010PropOp32
 70
     1
102
RTVSPost2010Prop33
280
     0
102
RTVSPost2010PropOp33
 70
     1
102
RTVSPost2010Prop34
280
     0
102
RTVSPost2010PropOp34
 70
     1
102
RTVSPost2010Prop35
280
     0
102
RTVSPost2010PropOp35
 70
     1
102
RTVSPost2010Prop36
280
     0
102
RTVSPost2010PropOp36
 70
     1
102
RTVSPost2010Prop37
 90
       50
102
RTVSPost2010PropOp37
 70
     1
102
RTVSPost2010Prop38
140
0.0
102
RTVSPost2010PropOp38
 70
     1
102
RTVSPost2010Prop39
140
1.0
102
RTVSPost2010PropOp39
 70
     1
102
RTVSPost2010Prop40
 90
        0
102
RTVSPost2010PropOp40
 70
     1
102
RTVSPost2010Prop41ColorIndex
 90
       18
102
RTVSPost2010Prop41ColorRGB
 90
        0
102
RTVSPost2010PropOp41
 70
     1
102
RTVSPost2010Prop42
 90
       50
102
RTVSPost2010PropOp42
 70
     1
102
RTVSPost2010Prop43
 90
        3
102
RTVSPost2010PropOp43
 70
     1
102
RTVSPost2010Prop44ColorIndex
 90
        5
102
RTVSPost2010Prop44ColorRGB
 90
      255
102
RTVSPost2010PropOp44
 70
     1
102
RTVSPost2010Prop45
280
     0
102
RTVSPost2010PropOp45
 70
     1
102
RTVSPost2010Prop46
 90
       50
102
RTVSPost2010PropOp46
 70
     1
102
RTVSPost2010Prop47
 90
       50
102
RTVSPost2010PropOp47
 70
     1
102
RTVSPost2010Prop48
 90
       50
102
RTVSPost2010PropOp48
 70
     1
102
RTVSPost2010Prop49
280
     0
102
RTVSPost2010PropOp49
 70
     1
102
RTVSPost2010Prop50
 90
       50
102
RTVSPost2010PropOp50
 70
     1
102
RTVSPost2010Prop51ColorIndex
 90
      256
102
RTVSPost2010Prop51ColorRGB
 90
-16777216
102
RTVSPost2010PropOp51
 70
     0
102
RTVSPost2010Prop52
140
1.0
102
RTVSPost2010PropOp52
 70
     0
102
RTVSPost2010Prop53
 90
        2
102
RTVSPost2010PropOp53
 70
     1
102
RTVSPost2010Prop54
  1
strokes_ogs.tif
102
RTVSPost2010PropOp54
 70
     1
102
RTVSPost2010Prop55
280
     0
102
RTVSPost2010PropOp55
 70
     1
102
RTVSPost2010Prop56
140
1.0
102
RTVSPost2010PropOp56
 70
     1
102
RTVSPost2010Prop57
140
1.0
102
RTVSPost2010PropOp57
 70
     1
  0
XRECORD
  5
154
102
{ACAD_REACTORS
330
153
102
}
330
153
100
AcDbXrecord
280
     1
102
RTVSPost2010Prop28
280
     0
102
RTVSPost2010PropOp28
 70
     1
102
RTVSPost2010Prop29
280
     1
102
RTVSPost2010PropOp29
 70
     1
102
RTVSPost2010Prop30
280
     1
102
RTVSPost2010PropOp30
 70
     1
102
RTVSPost2010Prop31
280
     0
102
RTVSPost2010PropOp31
 70
     1
102
RTVSPost2010Prop32
280
     0
102
RTVSPost2010PropOp32
 70
     1
102
RTVSPost2010Prop33
280
     0
102
RTVSPost2010PropOp33
 70
     1
102
RTVSPost2010Prop34
280
     0
102
RTVSPost2010PropOp34
 70
     1
102
RTVSPost2010Prop35
280
     0
102
RTVSPost2010PropOp35
 70
     1
102
RTVSPost2010Prop36
280
     0
102
RTVSPost2010PropOp36
 70
     1
102
RTVSPost2010Prop37
 90
       50
102
RTVSPost2010PropOp37
 70
     1
102
RTVSPost2010Prop38
140
0.0
102
RTVSPost2010PropOp38
 70
     1
102
RTVSPost2010Prop39
140
1.0
102
RTVSPost2010PropOp39
 70
     1
102
RTVSPost2010Prop40
 90
        0
102
RTVSPost2010PropOp40
 70
     1
102
RTVSPost2010Prop41ColorIndex
 90
       18
102
RTVSPost2010Prop41ColorRGB
 90
        0
102
RTVSPost2010PropOp41
 70
     1
102
RTVSPost2010Prop42
 90
       50
102
RTVSPost2010PropOp42
 70
     1
102
RTVSPost2010Prop43
 90
        3
102
RTVSPost2010PropOp43
 70
     1
102
RTVSPost2010Prop44ColorIndex
 90
        5
102
RTVSPost2010Prop44ColorRGB
 90
      255
102
RTVSPost2010PropOp44
 70
     1
102
RTVSPost2010Prop45
280
     0
102
RTVSPost2010PropOp45
 70
     1
102
RTVSPost2010Prop46
 90
       50
102
RTVSPost2010PropOp46
 70
     1
102
RTVSPost2010Prop47
 90
       50
102
RTVSPost2010PropOp47
 70
     1
102
RTVSPost2010Prop48
 90
       50
102
RTVSPost2010PropOp48
 70
     1
102
RTVSPost2010Prop49
280
     0
102
RTVSPost2010PropOp49
 70
     1
102
RTVSPost2010Prop50
 90
       50
102
RTVSPost2010PropOp50
 70
     1
102
RTVSPost2010Prop51ColorIndex
 90
      256
102
RTVSPost2010Prop51ColorRGB
 90
-16777216
102
RTVSPost2010PropOp51
 70
     0
102
RTVSPost2010Prop52
140
1.0
102
RTVSPost2010PropOp52
 70
     0
102
RTVSPost2010Prop53
 90
        2
102
RTVSPost2010PropOp53
 70
     1
102
RTVSPost2010Prop54
  1
strokes_ogs.tif
102
RTVSPost2010PropOp54
 70
     1
102
RTVSPost2010Prop55
280
     0
102
RTVSPost2010PropOp55
 70
     1
102
RTVSPost2010Prop56
140
1.0
102
RTVSPost2010PropOp56
 70
     1
102
RTVSPost2010Prop57
140
1.0
102
RTVSPost2010PropOp57
 70
     1
  0
XRECORD
  5
148
102
{ACAD_REACTORS
330
147
102
}
330
147
100
AcDbXrecord
280
     1
102
RTVSPost2010Prop28
280
     0
102
RTVSPost2010PropOp28
 70
     1
102
RTVSPost2010Prop29
280
     1
102
RTVSPost2010PropOp29
 70
     1
102
RTVSPost2010Prop30
280
     1
102
RTVSPost2010PropOp30
 70
     1
102
RTVSPost2010Prop31
280
     0
102
RTVSPost2010PropOp31
 70
     1
102
RTVSPost2010Prop32
280
     0
102
RTVSPost2010PropOp32
 70
     1
102
RTVSPost2010Prop33
280
     0
102
RTVSPost2010PropOp33
 70
     1
102
RTVSPost2010Prop34
280
     0
102
RTVSPost2010PropOp34
 70
     1
102
RTVSPost2010Prop35
280
     0
102
RTVSPost2010PropOp35
 70
     1
102
RTVSPost2010Prop36
280
     0
102
RTVSPost2010PropOp36
 70
     1
102
RTVSPost2010Prop37
 90
       50
102
RTVSPost2010PropOp37
 70
     1
102
RTVSPost2010Prop38
140
0.0
102
RTVSPost2010PropOp38
 70
     1
102
RTVSPost2010Prop39
140
1.0
102
RTVSPost2010PropOp39
 70
     1
102
RTVSPost2010Prop40
 90
        0
102
RTVSPost2010PropOp40
 70
     1
102
RTVSPost2010Prop41ColorIndex
 90
       18
102
RTVSPost2010Prop41ColorRGB
 90
        0
102
RTVSPost2010PropOp41
 70
     1
102
RTVSPost2010Prop42
 90
       50
102
RTVSPost2010PropOp42
 70
     1
102
RTVSPost2010Prop43
 90
        3
102
RTVSPost2010PropOp43
 70
     1
102
RTVSPost2010Prop44ColorIndex
 90
        5
102
RTVSPost2010Prop44ColorRGB
 90
      255
102
RTVSPost2010PropOp44
 70
     1
102
RTVSPost2010Prop45
280
     0
102
RTVSPost2010PropOp45
 70
     1
102
RTVSPost2010Prop46
 90
       50
102
RTVSPost2010PropOp46
 70
     1
102
RTVSPost2010Prop47
 90
       50
102
RTVSPost2010PropOp47
 70
     1
102
RTVSPost2010Prop48
 90
       50
102
RTVSPost2010PropOp48
 70
     1
102
RTVSPost2010Prop49
280
     0
102
RTVSPost2010PropOp49
 70
     1
102
RTVSPost2010Prop50
 90
       50
102
RTVSPost2010PropOp50
 70
     1
102
RTVSPost2010Prop51ColorIndex
 90
      256
102
RTVSPost2010Prop51ColorRGB
 90
-16777216
102
RTVSPost2010PropOp51
 70
     0
102
RTVSPost2010Prop52
140
1.0
102
RTVSPost2010PropOp52
 70
     0
102
RTVSPost2010Prop53
 90
        2
102
RTVSPost2010PropOp53
 70
     1
102
RTVSPost2010Prop54
  1
strokes_ogs.tif
102
RTVSPost2010PropOp54
 70
     1
102
RTVSPost2010Prop55
280
     0
102
RTVSPost2010PropOp55
 70
     1
102
RTVSPost2010Prop56
140
1.0
102
RTVSPost2010PropOp56
 70
     1
102
RTVSPost2010Prop57
140
1.0
102
RTVSPost2010PropOp57
 70
     1
  0
XRECORD
  5
160
102
{ACAD_REACTORS
330
15F
102
}
330
15F
100
AcDbXrecord
280
     1
102
RTVSPost2010Prop28
280
     0
102
RTVSPost2010PropOp28
 70
     1
102
RTVSPost2010Prop29
280
     1
102
RTVSPost2010PropOp29
 70
     1
102
RTVSPost2010Prop30
280
     1
102
RTVSPost2010PropOp30
 70
     1
102
RTVSPost2010Prop31
280
     0
102
RTVSPost2010PropOp31
 70
     1
102
RTVSPost2010Prop32
280
     0
102
RTVSPost2010PropOp32
 70
     1
102
RTVSPost2010Prop33
280
     0
102
RTVSPost2010PropOp33
 70
     1
102
RTVSPost2010Prop34
280
     0
102
RTVSPost2010PropOp34
 70
     1
102
RTVSPost2010Prop35
280
     0
102
RTVSPost2010PropOp35
 70
     1
102
RTVSPost2010Prop36
280
     0
102
RTVSPost2010PropOp36
 70
     1
102
RTVSPost2010Prop37
 90
       50
102
RTVSPost2010PropOp37
 70
     1
102
RTVSPost2010Prop38
140
0.0
102
RTVSPost2010PropOp38
 70
     1
102
RTVSPost2010Prop39
140
1.0
102
RTVSPost2010PropOp39
 70
     1
102
RTVSPost2010Prop40
 90
        0
102
RTVSPost2010PropOp40
 70
     1
102
RTVSPost2010Prop41ColorIndex
 90
       18
102
RTVSPost2010Prop41ColorRGB
 90
        0
102
RTVSPost2010PropOp41
 70
     1
102
RTVSPost2010Prop42
 90
       50
102
RTVSPost2010PropOp42
 70
     1
102
RTVSPost2010Prop43
 90
        3
102
RTVSPost2010PropOp43
 70
     1
102
RTVSPost2010Prop44ColorIndex
 90
        5
102
RTVSPost2010Prop44ColorRGB
 90
      255
102
RTVSPost2010PropOp44
 70
     1
102
RTVSPost2010Prop45
280
     0
102
RTVSPost2010PropOp45
 70
     1
102
RTVSPost2010Prop46
 90
       50
102
RTVSPost2010PropOp46
 70
     1
102
RTVSPost2010Prop47
 90
       50
102
RTVSPost2010PropOp47
 70
     1
102
RTVSPost2010Prop48
 90
       50
102
RTVSPost2010PropOp48
 70
     1
102
RTVSPost2010Prop49
280
     0
102
RTVSPost2010PropOp49
 70
     1
102
RTVSPost2010Prop50
 90
       50
102
RTVSPost2010PropOp50
 70
     1
102
RTVSPost2010Prop51ColorIndex
 90
      256
102
RTVSPost2010Prop51ColorRGB
 90
-16777216
102
RTVSPost2010PropOp51
 70
     0
102
RTVSPost2010Prop52
140
1.0
102
RTVSPost2010PropOp52
 70
     0
102
RTVSPost2010Prop53
 90
        2
102
RTVSPost2010PropOp53
 70
     1
102
RTVSPost2010Prop54
  1
strokes_ogs.tif
102
RTVSPost2010PropOp54
 70
     1
102
RTVSPost2010Prop55
280
     0
102
RTVSPost2010PropOp55
 70
     1
102
RTVSPost2010Prop56
140
1.0
102
RTVSPost2010PropOp56
 70
     1
102
RTVSPost2010Prop57
140
1.0
102
RTVSPost2010PropOp57
 70
     1
  0
ENDSEC
  0
EOF
