  0
SECTION
  2
HEADER
  9
$ACADVER
  1
AC1024
  9
$ACADMAINTVER
 70
   226
  9
$DWGCODEPAGE
  3
ANSI_932
  9
$INSBASE
 10
0.0
 20
0.0
 30
0.0
  9
$EXTMIN
 10
1.000000000000000E+20
 20
1.000000000000000E+20
 30
1.000000000000000E+20
  9
$EXTMAX
 10
-1.000000000000000E+20
 20
-1.000000000000000E+20
 30
-1.000000000000000E+20
  9
$LIMMIN
 10
0.0
 20
0.0
  9
$LIMMAX
 10
12.0
 20
9.0
  9
$ORTHOMODE
 70
     0
  9
$REGENMODE
 70
     1
  9
$FILLMODE
 70
     1
  9
$QTEXTMODE
 70
     0
  9
$MIRRTEXT
 70
     0
  9
$LTSCALE
 40
1.0
  9
$ATTMODE
 70
     1
  9
$TEXTSIZE
 40
0.2
  9
$TRACEWID
 40
0.05
  9
$TEXTSTYLE
  7
Standard
  9
$CLAYER
  8
0
  9
$CELTYPE
  6
ByLayer
  9
$CECOLOR
 62
   256
  9
$CELTSCALE
 40
1.0
  9
$DISPSILH
 70
     0
  9
$DIMSCALE
 40
1.0
  9
$DIMASZ
 40
0.18
  9
$DIMEXO
 40
0.0625
  9
$DIMDLI
 40
0.38
  9
$DIMRND
 40
0.0
  9
$DIMDLE
 40
0.0
  9
$DIMEXE
 40
0.18
  9
$DIMTP
 40
0.0
  9
$DIMTM
 40
0.0
  9
$DIMTXT
 40
0.18
  9
$DIMCEN
 40
0.09
  9
$DIMTSZ
 40
0.0
  9
$DIMTOL
 70
     0
  9
$DIMLIM
 70
     0
  9
$DIMTIH
 70
     1
  9
$DIMTOH
 70
     1
  9
$DIMSE1
 70
     0
  9
$DIMSE2
 70
     0
  9
$DIMTAD
 70
     0
  9
$DIMZIN
 70
     0
  9
$DIMBLK
  1

  9
$DIMASO
 70
     1
  9
$DIMSHO
 70
     1
  9
$DIMPOST
  1

  9
$DIMAPOST
  1

  9
$DIMALT
 70
     0
  9
$DIMALTD
 70
     2
  9
$DIMALTF
 40
25.4
  9
$DIMLFAC
 40
1.0
  9
$DIMTOFL
 70
     0
  9
$DIMTVP
 40
0.0
  9
$DIMTIX
 70
     0
  9
$DIMSOXD
 70
     0
  9
$DIMSAH
 70
     0
  9
$DIMBLK1
  1

  9
$DIMBLK2
  1

  9
$DIMSTYLE
  2
Standard
  9
$DIMCLRD
 70
     0
  9
$DIMCLRE
 70
     0
  9
$DIMCLRT
 70
     0
  9
$DIMTFAC
 40
1.0
  9
$DIMGAP
 40
0.09
  9
$DIMJUST
 70
     0
  9
$DIMSD1
 70
     0
  9
$DIMSD2
 70
     0
  9
$DIMTOLJ
 70
     1
  9
$DIMTZIN
 70
     0
  9
$DIMALTZ
 70
     0
  9
$DIMALTTZ
 70
     0
  9
$DIMUPT
 70
     0
  9
$DIMDEC
 70
     4
  9
$DIMTDEC
 70
     4
  9
$DIMALTU
 70
     2
  9
$DIMALTTD
 70
     2
  9
$DIMTXSTY
  7
Standard
  9
$DIMAUNIT
 70
     0
  9
$DIMADEC
 70
     0
  9
$DIMALTRND
 40
0.0
  9
$DIMAZIN
 70
     0
  9
$DIMDSEP
 70
    46
  9
$DIMATFIT
 70
     3
  9
$DIMFRAC
 70
     0
  9
$DIMLDRBLK
  1

  9
$DIMLUNIT
 70
     2
  9
$DIMLWD
 70
    -2
  9
$DIMLWE
 70
    -2
  9
$DIMTMOVE
 70
     0
  9
$DIMFXL
 40
1.0
  9
$DIMFXLON
 70
     0
  9
$DIMJOGANG
 40
0.7853981633974483
  9
$DIMTFILL
 70
     0
  9
$DIMTFILLCLR
 70
     0
  9
$DIMARCSYM
 70
     0
  9
$DIMLTYPE
  6

  9
$DIMLTEX1
  6

  9
$DIMLTEX2
  6

  9
$DIMTXTDIRECTION
 70
     0
  9
$LUNITS
 70
     2
  9
$LUPREC
 70
     4
  9
$SKETCHINC
 40
0.1
  9
$FILLETRAD
 40
0.0
  9
$AUNITS
 70
     0
  9
$AUPREC
 70
     0
  9
$MENU
  1
.
  9
$ELEVATION
 40
0.0
  9
$PELEVATION
 40
0.0
  9
$THICKNESS
 40
0.0
  9
$LIMCHECK
 70
     0
  9
$CHAMFERA
 40
0.0
  9
$CHAMFERB
 40
0.0
  9
$CHAMFERC
 40
0.0
  9
$CHAMFERD
 40
0.0
  9
$SKPOLY
 70
     0
  9
$TDCREATE
 40
2459569.503333334
  9
$TDUCREATE
 40
2459569.128333333
  9
$TDUPDATE
 40
2459569.503333334
  9
$TDUUPDATE
 40
2459569.128333333
  9
$TDINDWG
 40
0.0000000000
  9
$TDUSRTIMER
 40
0.0000000000
  9
$USRTIMER
 70
     1
  9
$ANGBASE
 50
0.0
  9
$ANGDIR
 70
     0
  9
$PDMODE
 70
     0
  9
$PDSIZE
 40
0.0
  9
$PLINEWID
 40
0.0
  9
$SPLFRAME
 70
     0
  9
$SPLINETYPE
 70
     6
  9
$SPLINESEGS
 70
     8
  9
$HANDSEED
  5
1A2
  9
$SURFTAB1
 70
     6
  9
$SURFTAB2
 70
     6
  9
$SURFTYPE
 70
     6
  9
$SURFU
 70
     6
  9
$SURFV
 70
     6
  9
$UCSBASE
  2

  9
$UCSNAME
  2

  9
$UCSORG
 10
0.0
 20
0.0
 30
0.0
  9
$UCSXDIR
 10
1.0
 20
0.0
 30
0.0
  9
$UCSYDIR
 10
0.0
 20
1.0
 30
0.0
  9
$UCSORTHOREF
  2

  9
$UCSORTHOVIEW
 70
     0
  9
$UCSORGTOP
 10
0.0
 20
0.0
 30
0.0
  9
$UCSORGBOTTOM
 10
0.0
 20
0.0
 30
0.0
  9
$UCSORGLEFT
 10
0.0
 20
0.0
 30
0.0
  9
$UCSORGRIGHT
 10
0.0
 20
0.0
 30
0.0
  9
$UCSORGFRONT
 10
0.0
 20
0.0
 30
0.0
  9
$UCSORGBACK
 10
0.0
 20
0.0
 30
0.0
  9
$PUCSBASE
  2

  9
$PUCSNAME
  2

  9
$PUCSORG
 10
0.0
 20
0.0
 30
0.0
  9
$PUCSXDIR
 10
1.0
 20
0.0
 30
0.0
  9
$PUCSYDIR
 10
0.0
 20
1.0
 30
0.0
  9
$PUCSORTHOREF
  2

  9
$PUCSORTHOVIEW
 70
     0
  9
$PUCSORGTOP
 10
0.0
 20
0.0
 30
0.0
  9
$PUCSORGBOTTOM
 10
0.0
 20
0.0
 30
0.0
  9
$PUCSORGLEFT
 10
0.0
 20
0.0
 30
0.0
  9
$PUCSORGRIGHT
 10
0.0
 20
0.0
 30
0.0
  9
$PUCSORGFRONT
 10
0.0
 20
0.0
 30
0.0
  9
$PUCSORGBACK
 10
0.0
 20
0.0
 30
0.0
  9
$USERI1
 70
     0
  9
$USERI2
 70
     0
  9
$USERI3
 70
     0
  9
$USERI4
 70
     0
  9
$USERI5
 70
     0
  9
$USERR1
 40
0.0
  9
$USERR2
 40
0.0
  9
$USERR3
 40
0.0
  9
$USERR4
 40
0.0
  9
$USERR5
 40
0.0
  9
$WORLDVIEW
 70
     1
  9
$SHADEDGE
 70
     3
  9
$SHADEDIF
 70
    70
  9
$TILEMODE
 70
     1
  9
$MAXACTVP
 70
    64
  9
$PINSBASE
 10
0.0
 20
0.0
 30
0.0
  9
$PLIMCHECK
 70
     0
  9
$PEXTMIN
 10
1.000000000000000E+20
 20
1.000000000000000E+20
 30
1.000000000000000E+20
  9
$PEXTMAX
 10
-1.000000000000000E+20
 20
-1.000000000000000E+20
 30
-1.000000000000000E+20
  9
$PLIMMIN
 10
0.0
 20
0.0
  9
$PLIMMAX
 10
12.0
 20
9.0
  9
$UNITMODE
 70
     0
  9
$VISRETAIN
 70
     1
  9
$PLINEGEN
 70
     0
  9
$PSLTSCALE
 70
     1
  9
$TREEDEPTH
 70
  3020
  9
$CMLSTYLE
  2
Standard
  9
$CMLJUST
 70
     0
  9
$CMLSCALE
 40
1.0
  9
$PROXYGRAPHICS
 70
     1
  9
$MEASUREMENT
 70
     0
  9
$CELWEIGHT
370
    -1
  9
$ENDCAPS
280
     0
  9
$JOINSTYLE
280
     0
  9
$LWDISPLAY
290
     1
  9
$INSUNITS
 70
     4
  9
$HYPERLINKBASE
  1

  9
$STYLESHEET
  1

  9
$XEDIT
290
     1
  9
$CEPSNTYPE
380
     0
  9
$PSTYLEMODE
290
     1
  9
$FINGERPRINTGUID
  2
{CED1EABB-808D-F440-9207-EE4BA663658F}
  9
$VERSIONGUID
  2
{D677A3C4-A05A-AB41-A1CB-DE68610A01E1}
  9
$EXTNAMES
290
     1
  9
$PSVPSCALE
 40
0.0
  9
$OLESTARTUP
290
     0
  9
$SORTENTS
280
   127
  9
$INDEXCTL
280
     0
  9
$HIDETEXT
280
     1
  9
$XCLIPFRAME
280
     2
  9
$HALOGAP
280
     0
  9
$OBSCOLOR
 70
   257
  9
$OBSLTYPE
280
     0
  9
$INTERSECTIONDISPLAY
280
     0
  9
$INTERSECTIONCOLOR
 70
   257
  9
$DIMASSOC
280
     2
  9
$PROJECTNAME
  1

  9
$CAMERADISPLAY
290
     0
  9
$LENSLENGTH
 40
50.0
  9
$CAMERAHEIGHT
 40
0.0
  9
$STEPSPERSEC
 40
2.0
  9
$STEPSIZE
 40
6.0
  9
$3DDWFPREC
 40
2.0
  9
$PSOLWIDTH
 40
0.25
  9
$PSOLHEIGHT
 40
4.0
  9
$LOFTANG1
 40
1.570796326794896
  9
$LOFTANG2
 40
1.570796326794896
  9
$LOFTMAG1
 40
0.0
  9
$LOFTMAG2
 40
0.0
  9
$LOFTPARAM
 70
     7
  9
$LOFTNORMALS
280
     1
  9
$LATITUDE
 40
37.795
  9
$LONGITUDE
 40
-122.394
  9
$NORTHDIRECTION
 40
0.0
  9
$TIMEZONE
 70
 -8000
  9
$LIGHTGLYPHDISPLAY
280
     1
  9
$TILEMODELIGHTSYNCH
280
     1
  9
$CMATERIAL
347
11
  9
$SOLIDHIST
280
     0
  9
$SHOWHIST
280
     1
  9
$DWFFRAME
280
     2
  9
$DGNFRAME
280
     0
  9
$REALWORLDSCALE
290
     1
  9
$INTERFERECOLOR
 62
     1
  9
$INTERFEREOBJVS
345
33
  9
$INTERFEREVPVS
346
30
  9
$CSHADOW
280
     0
  9
$SHADOWPLANELOCATION
 40
0.0
  0
ENDSEC
  0
SECTION
  2
CLASSES
  0
CLASS
  1
ACDBDICTIONARYWDFLT
  2
AcDbDictionaryWithDefault
  3
ObjectDBX Classes
 90
        0
 91
        1
280
     0
281
     0
  0
CLASS
  1
MATERIAL
  2
AcDbMaterial
  3
ObjectDBX Classes
 90
     1153
 91
        3
280
     0
281
     0
  0
CLASS
  1
VISUALSTYLE
  2
AcDbVisualStyle
  3
ObjectDBX Classes
 90
     4095
 91
       24
280
     0
281
     0
  0
CLASS
  1
SCALE
  2
AcDbScale
  3
ObjectDBX Classes
 90
     1153
 91
       17
280
     0
281
     0
  0
CLASS
  1
TABLESTYLE
  2
AcDbTableStyle
  3
ObjectDBX Classes
 90
     4095
 91
        1
280
     0
281
     0
  0
CLASS
  1
MLEADERSTYLE
  2
AcDbMLeaderStyle
  3
ACDB_MLEADERSTYLE_CLASS
 90
     4095
 91
        1
280
     0
281
     0
  0
CLASS
  1
ACDBSECTIONVIEWSTYLE
  2
AcDbSectionViewStyle
  3
ObjectDBX Classes
 90
     1025
 91
        1
280
     0
281
     0
  0
CLASS
  1
ACDBDETAILVIEWSTYLE
  2
AcDbDetailViewStyle
  3
ObjectDBX Classes
 90
     1025
 91
        1
280
     0
281
     0
  0
CLASS
  1
DICTIONARYVAR
  2
AcDbDictionaryVar
  3
ObjectDBX Classes
 90
        0
 91
        5
280
     0
281
     0
  0
CLASS
  1
CELLSTYLEMAP
  2
AcDbCellStyleMap
  3
ObjectDBX Classes
 90
     1152
 91
        1
280
     0
281
     0
  0
ENDSEC
  0
SECTION
  2
TABLES
  0
TABLE
  2
VPORT
  5
8
330
0
100
AcDbSymbolTable
 70
     1
  0
VPORT
  5
57
330
8
100
AcDbSymbolTableRecord
100
AcDbViewportTableRecord
  2
*Active
 70
     0
 10
0.0
 20
0.0
 11
1.0
 21
1.0
 12
0.0
 22
0.0
 13
0.0
 23
0.0
 14
1.0
 24
1.0
 15
0.0
 25
0.0
 16
0.0
 26
0.0
 36
1.0
 17
104.9999999737534
 27
-148.4999999628701
 37
0.0
 40
302.939999924255
 41
0.7070707070707534
 42
50.0
 43
0.0
 44
0.0
 50
0.0
 51
0.0
 71
     0
 72
   100
 73
     1
 74
     0
 75
     1
 76
     0
 77
     0
 78
     0
281
     0
 65
     1
110
0.0
120
0.0
130
0.0
111
1.0
121
0.0
131
0.0
112
0.0
122
1.0
132
0.0
 79
     0
146
0.0
 60
     3
 61
     5
292
     1
282
     1
141
0.0
142
0.0
 63
   250
421
  3355443
  0
ENDTAB
  0
TABLE
  2
LTYPE
  5
5
330
0
100
AcDbSymbolTable
 70
     3
  0
LTYPE
  5
5B
330
5
100
AcDbSymbolTableRecord
100
AcDbLinetypeTableRecord
  2
ByBlock
 70
     0
  3

 72
    65
 73
     0
 40
0.0
  0
LTYPE
  5
5C
330
5
100
AcDbSymbolTableRecord
100
AcDbLinetypeTableRecord
  2
ByLayer
 70
     0
  3

 72
    65
 73
     0
 40
0.0
  0
LTYPE
  5
5D
330
5
100
AcDbSymbolTableRecord
100
AcDbLinetypeTableRecord
  2
Continuous
 70
     0
  3
Solid line
 72
    65
 73
     0
 40
0.0
  0
LTYPE
  5
DA
330
5
100
AcDbSymbolTableRecord
100
AcDbLinetypeTableRecord
  2
AI-Linetype-0
 70
     0
  3
Adobe Illustrator Linetype No. 0
 72
    65
 73
     2
 40
1.411111110758333
 49
0.7055555553791667
 74
     0
 49
-0.7055555553791667
 74
     0
  0
LTYPE
  5
DC
330
5
100
AcDbSymbolTableRecord
100
AcDbLinetypeTableRecord
  2
AI-Linetype-1
 70
     0
  3
Adobe Illustrator Linetype No. 1
 72
    65
 73
     2
 40
1.411111110758333
 49
0.7055555553791667
 74
     0
 49
-0.7055555553791667
 74
     0
  0
ENDTAB
  0
TABLE
  2
LAYER
  5
2
330
0
100
AcDbSymbolTable
 70
     2
  0
LAYER
  5
54
330
2
100
AcDbSymbolTableRecord
100
AcDbLayerTableRecord
  2
0
 70
     0
 62
     7
  6
Continuous
370
    -3
390
F
347
21
  0
LAYER
  5
78
330
2
100
AcDbSymbolTableRecord
100
AcDbLayerTableRecord
  2
レイヤー 1
 70
     0
 62
     7
  6
Continuous
370
     0
390
F
347
21
  0
ENDTAB
  0
TABLE
  2
STYLE
  5
3
330
0
100
AcDbSymbolTable
 70
     2
  0
STYLE
  5
55
330
3
100
AcDbSymbolTableRecord
100
AcDbTextStyleTableRecord
  2
Standard
 70
     0
 40
0.0
 41
1.0
 50
0.0
 71
     0
 42
0.2
  3
txt
  4

  0
STYLE
  5
5A
330
3
100
AcDbSymbolTableRecord
100
AcDbTextStyleTableRecord
  2
Annotative
 70
     0
 40
0.0
 41
1.0
 50
0.0
 71
     0
 42
0.2
  3
txt
  4

1001
AcadAnnotative
1000
AnnotativeData
1002
{
1070
     1
1070
     1
1002
}
  0
ENDTAB
  0
TABLE
  2
VIEW
  5
6
330
0
100
AcDbSymbolTable
 70
     0
  0
ENDTAB
  0
TABLE
  2
UCS
  5
7
330
0
100
AcDbSymbolTable
 70
     0
  0
ENDTAB
  0
TABLE
  2
APPID
  5
9
330
0
100
AcDbSymbolTable
 70
     2
  0
APPID
  5
56
330
9
100
AcDbSymbolTableRecord
100
AcDbRegAppTableRecord
  2
ACAD
 70
     0
  0
APPID
  5
5E
330
9
100
AcDbSymbolTableRecord
100
AcDbRegAppTableRecord
  2
AcadAnnotative
 70
     0
  0
ENDTAB
  0
TABLE
  2
DIMSTYLE
  5
A
330
0
100
AcDbSymbolTable
 70
     2
100
AcDbDimStyleTable
 71
     0
  0
DIMSTYLE
105
58
330
A
100
AcDbSymbolTableRecord
100
AcDbDimStyleTableRecord
  2
Standard
 70
     0
340
55
  0
DIMSTYLE
105
59
330
A
100
AcDbSymbolTableRecord
100
AcDbDimStyleTableRecord
  2
Annotative
 70
     0
340
55
1001
AcadAnnotative
1000
AnnotativeData
1002
{
1070
     1
1070
     1
1002
}
  0
ENDTAB
  0
TABLE
  2
BLOCK_RECORD
  5
1
330
0
100
AcDbSymbolTable
 70
    17
  0
BLOCK_RECORD
  5
70
330
1
100
AcDbSymbolTableRecord
100
AcDbBlockTableRecord
  2
*Model_Space
340
73
 70
     0
280
     1
281
     0
  0
BLOCK_RECORD
  5
6C
330
1
100
AcDbSymbolTableRecord
100
AcDbBlockTableRecord
  2
*Paper_Space
340
6F
 70
     0
280
     1
281
     0
  0
BLOCK_RECORD
  5
74
330
1
100
AcDbSymbolTableRecord
100
AcDbBlockTableRecord
  2
*Paper_Space0
340
77
 70
     0
280
     1
281
     0
  0
BLOCK_RECORD
  5
79
330
1
100
AcDbSymbolTableRecord
100
AcDbBlockTableRecord
  2
Block_0
340
0
102
{BLKREFS
331
7A
102
}
 70
     0
280
     1
281
     0
  0
BLOCK_RECORD
  5
8A
330
1
100
AcDbSymbolTableRecord
100
AcDbBlockTableRecord
  2
Block_1
340
0
102
{BLKREFS
331
8B
102
}
 70
     0
280
     1
281
     0
  0
BLOCK_RECORD
  5
8E
330
1
100
AcDbSymbolTableRecord
100
AcDbBlockTableRecord
  2
Block_2
340
0
102
{BLKREFS
331
8F
102
}
 70
     0
280
     1
281
     0
  0
BLOCK_RECORD
  5
9B
330
1
100
AcDbSymbolTableRecord
100
AcDbBlockTableRecord
  2
Block_3
340
0
102
{BLKREFS
331
9C
102
}
 70
     0
280
     1
281
     0
  0
BLOCK_RECORD
  5
9F
330
1
100
AcDbSymbolTableRecord
100
AcDbBlockTableRecord
  2
Block_4
340
0
102
{BLKREFS
331
A0
102
}
 70
     0
280
     1
281
     0
  0
BLOCK_RECORD
  5
A9
330
1
100
AcDbSymbolTableRecord
100
AcDbBlockTableRecord
  2
Block_5
340
0
102
{BLKREFS
331
AA
102
}
 70
     0
280
     1
281
     0
  0
BLOCK_RECORD
  5
B3
330
1
100
AcDbSymbolTableRecord
100
AcDbBlockTableRecord
  2
Block_6
340
0
102
{BLKREFS
331
B4
102
}
 70
     0
280
     1
281
     0
  0
BLOCK_RECORD
  5
B7
330
1
100
AcDbSymbolTableRecord
100
AcDbBlockTableRecord
  2
Block_7
340
0
102
{BLKREFS
331
B8
102
}
 70
     0
280
     1
281
     0
  0
BLOCK_RECORD
  5
C2
330
1
100
AcDbSymbolTableRecord
100
AcDbBlockTableRecord
  2
Block_8
340
0
102
{BLKREFS
331
C3
102
}
 70
     0
280
     1
281
     0
  0
BLOCK_RECORD
  5
CB
330
1
100
AcDbSymbolTableRecord
100
AcDbBlockTableRecord
  2
Block_9
340
0
102
{BLKREFS
331
CC
102
}
 70
     0
280
     1
281
     0
  0
BLOCK_RECORD
  5
D3
330
1
100
AcDbSymbolTableRecord
100
AcDbBlockTableRecord
  2
Block_10
340
0
102
{BLKREFS
331
D4
102
}
 70
     0
280
     1
281
     0
  0
BLOCK_RECORD
  5
DD
330
1
100
AcDbSymbolTableRecord
100
AcDbBlockTableRecord
  2
Block_11
340
0
102
{BLKREFS
331
DE
102
}
 70
     0
280
     1
281
     0
  0
BLOCK_RECORD
  5
E1
330
1
100
AcDbSymbolTableRecord
100
AcDbBlockTableRecord
  2
Block_12
340
0
102
{BLKREFS
331
E2
102
}
 70
     0
280
     1
281
     0
  0
BLOCK_RECORD
  5
E8
330
1
100
AcDbSymbolTableRecord
100
AcDbBlockTableRecord
  2
Block_13
340
0
102
{BLKREFS
331
E9
102
}
 70
     0
280
     1
281
     0
  0
BLOCK_RECORD
  5
EC
330
1
100
AcDbSymbolTableRecord
100
AcDbBlockTableRecord
  2
Block_14
340
0
102
{BLKREFS
331
ED
102
}
 70
     0
280
     1
281
     0
  0
BLOCK_RECORD
  5
103
330
1
100
AcDbSymbolTableRecord
100
AcDbBlockTableRecord
  2
Block_15
340
0
102
{BLKREFS
331
104
102
}
 70
     0
280
     1
281
     0
  0
ENDTAB
  0
ENDSEC
  0
SECTION
  2
BLOCKS
  0
BLOCK
  5
71
330
70
100
AcDbEntity
  8
0
100
AcDbBlockBegin
  2
*Model_Space
 70
     0
 10
0.0
 20
0.0
 30
0.0
  3
*Model_Space
  1

  0
ENDBLK
  5
72
330
70
100
AcDbEntity
  8
0
100
AcDbBlockEnd
  0
BLOCK
  5
6D
330
6C
100
AcDbEntity
 67
     1
  8
0
100
AcDbBlockBegin
  2
*Paper_Space
 70
     0
 10
0.0
 20
0.0
 30
0.0
  3
*Paper_Space
  1

  0
ENDBLK
  5
6E
330
6C
100
AcDbEntity
 67
     1
  8
0
100
AcDbBlockEnd
  0
BLOCK
  5
75
330
74
100
AcDbEntity
 67
     1
  8
0
100
AcDbBlockBegin
  2
*Paper_Space0
 70
     0
 10
0.0
 20
0.0
 30
0.0
  3
*Paper_Space0
  1

  0
ENDBLK
  5
76
330
74
100
AcDbEntity
 67
     1
  8
0
100
AcDbBlockEnd
  0
BLOCK
  5
7B
330
79
100
AcDbEntity
  8
0
100
AcDbBlockBegin
  2
Block_0
 70
     0
 10
0.0
 20
0.0
 30
0.0
  3
Block_0
  1

  0
CIRCLE
  5
7D
330
79
100
AcDbEntity
  8
レイヤー 1
 62
   250
420
  2299925
370
     9
100
AcDbCircle
 10
80.66376810693402
 20
-140.952247386758
 30
0.0
 40
0.099906665379937
  0
SPLINE
  5
7E
330
79
100
AcDbEntity
  8
レイヤー 1
 62
   250
420
  2299925
370
     9
100
AcDbSpline
210
0.0
220
0.0
230
1.0
 70
     9
 71
     3
 72
    17
 73
    13
 74
     0
 42
0.0000000001
 43
0.0000000001
 40
0.0
 40
0.0
 40
0.0
 40
0.0
 40
1.0
 40
1.0
 40
1.0
 40
2.0
 40
2.0
 40
2.0
 40
3.0
 40
3.0
 40
3.0
 40
4.0
 40
4.0
 40
4.0
 40
4.0
 10
76.76391570642763
 20
-145.7140771077899
 30
0.0
 10
76.76391570642763
 20
-145.6589379411368
 30
0.0
 10
76.71914820756973
 20
-145.6141704411483
 30
0.0
 10
76.66365626454133
 20
-145.6141704411483
 30
0.0
 10
76.60855237705762
 20
-145.6141704411483
 30
0.0
 10
76.56374960042317
 20
-145.6589379411368
 30
0.0
 10
76.56374960042317
 20
-145.7140771077899
 30
0.0
 10
76.56374960042317
 20
-145.7691809966648
 30
0.0
 10
76.60855237705762
 20
-145.8139837744315
 30
0.0
 10
76.66365626454133
 20
-145.8139837744315
 30
0.0
 10
76.71914820756973
 20
-145.8139837744315
 30
0.0
 10
76.76391570642763
 20
-145.7691809966648
 30
0.0
 10
76.76391570642763
 20
-145.7140771077899
 30
0.0
  0
SPLINE
  5
7F
330
79
100
AcDbEntity
  8
レイヤー 1
 62
   250
420
  2299925
370
     9
100
AcDbSpline
210
0.0
220
0.0
230
1.0
 70
     9
 71
     3
 72
    17
 73
    13
 74
     0
 42
0.0000000001
 43
0.0000000001
 40
0.0
 40
0.0
 40
0.0
 40
0.0
 40
1.0
 40
1.0
 40
1.0
 40
2.0
 40
2.0
 40
2.0
 40
3.0
 40
3.0
 40
3.0
 40
4.0
 40
4.0
 40
4.0
 40
4.0
 10
76.76391570642763
 20
-146.2142807187761
 30
0.0
 10
76.76391570642763
 20
-146.1591768299012
 30
0.0
 10
76.71914820756973
 20
-146.1143740521344
 30
0.0
 10
76.66365626454133
 20
-146.1143740521344
 30
0.0
 10
76.60855237705762
 20
-146.1143740521344
 30
0.0
 10
76.56374960042317
 20
-146.1591768299012
 30
0.0
 10
76.56374960042317
 20
-146.2142807187761
 30
0.0
 10
76.56374960042317
 20
-146.2694198854292
 30
0.0
 10
76.60855237705762
 20
-146.3141873854177
 30
0.0
 10
76.66365626454133
 20
-146.3141873854177
 30
0.0
 10
76.71914820756973
 20
-146.3141873854177
 30
0.0
 10
76.76391570642763
 20
-146.2694198854292
 30
0.0
 10
76.76391570642763
 20
-146.2142807187761
 30
0.0
  0
SPLINE
  5
80
330
79
100
AcDbEntity
  8
レイヤー 1
 62
   250
420
  2299925
370
     9
100
AcDbSpline
210
0.0
220
0.0
230
1.0
 70
     9
 71
     3
 72
    17
 73
    13
 74
     0
 42
0.0000000001
 43
0.0000000001
 40
0.0
 40
0.0
 40
0.0
 40
0.0
 40
1.0
 40
1.0
 40
1.0
 40
2.0
 40
2.0
 40
2.0
 40
3.0
 40
3.0
 40
3.0
 40
4.0
 40
4.0
 40
4.0
 40
4.0
 10
76.76391570642763
 20
-154.2145046056647
 30
0.0
 10
76.76391570642763
 20
-154.1593654390116
 30
0.0
 10
76.71914820756973
 20
-154.1145979390231
 30
0.0
 10
76.66365626454133
 20
-154.1145979390231
 30
0.0
 10
76.60855237705762
 20
-154.1145979390231
 30
0.0
 10
76.56374960042317
 20
-154.1593654390116
 30
0.0
 10
76.56374960042317
 20
-154.2145046056647
 30
0.0
 10
76.56374960042317
 20
-154.2696084945396
 30
0.0
 10
76.60855237705762
 20
-154.3144112723064
 30
0.0
 10
76.66365626454133
 20
-154.3144112723064
 30
0.0
 10
76.71914820756973
 20
-154.3144112723064
 30
0.0
 10
76.76391570642763
 20
-154.2696084945396
 30
0.0
 10
76.76391570642763
 20
-154.2145046056647
 30
0.0
  0
SPLINE
  5
81
330
79
100
AcDbEntity
  8
レイヤー 1
 62
   250
420
  2299925
370
     9
100
AcDbSpline
210
0.0
220
0.0
230
1.0
 70
     9
 71
     3
 72
    17
 73
    13
 74
     0
 42
0.0000000001
 43
0.0000000001
 40
0.0
 40
0.0
 40
0.0
 40
0.0
 40
1.0
 40
1.0
 40
1.0
 40
2.0
 40
2.0
 40
2.0
 40
3.0
 40
3.0
 40
3.0
 40
4.0
 40
4.0
 40
4.0
 40
4.0
 10
101.7648175686014
 20
-140.9522473867579
 30
0.0
 10
101.7648175686014
 20
-140.897143497883
 30
0.0
 10
101.7200147919667
 20
-140.8523407201163
 30
0.0
 10
101.6649109044836
 20
-140.8523407201163
 30
0.0
 10
101.609101461463
 20
-140.8523407201163
 30
0.0
 10
101.5642986848282
 20
-140.897143497883
 30
0.0
 10
101.5642986848282
 20
-140.9522473867579
 30
0.0
 10
101.5642986848282
 20
-141.007386553411
 30
0.0
 10
101.609101461463
 20
-141.0521540534002
 30
0.0
 10
101.6649109044836
 20
-141.0521540534002
 30
0.0
 10
101.7200147919667
 20
-141.0521540534002
 30
0.0
 10
101.7648175686014
 20
-141.007386553411
 30
0.0
 10
101.7648175686014
 20
-140.9522473867579
 30
0.0
  0
CIRCLE
  5
82
330
79
100
AcDbEntity
  8
レイヤー 1
 62
   250
420
  2299925
370
     9
100
AcDbCircle
 10
124.6657392065722
 20
-140.952247386758
 30
0.0
 40
0.0999066653798167
  0
SPLINE
  5
83
330
79
100
AcDbEntity
  8
レイヤー 1
 62
   250
420
  2299925
370
     9
100
AcDbSpline
210
0.0
220
0.0
230
1.0
 70
     9
 71
     3
 72
    17
 73
    13
 74
     0
 42
0.0000000001
 43
0.0000000001
 40
0.0
 40
0.0
 40
0.0
 40
0.0
 40
1.0
 40
1.0
 40
1.0
 40
2.0
 40
2.0
 40
2.0
 40
3.0
 40
3.0
 40
3.0
 40
4.0
 40
4.0
 40
4.0
 40
4.0
 10
103.7643266842564
 20
-140.9522473867579
 30
0.0
 10
103.7643266842564
 20
-140.897143497883
 30
0.0
 10
103.7195591853985
 20
-140.8523407201163
 30
0.0
 10
103.6644230156474
 20
-140.8523407201163
 30
0.0
 10
103.6093161326555
 20
-140.8523407201163
 30
0.0
 10
103.5645133560207
 20
-140.897143497883
 30
0.0
 10
103.5645133560207
 20
-140.9522473867579
 30
0.0
 10
103.5645133560207
 20
-141.007386553411
 30
0.0
 10
103.6093161326555
 20
-141.0521540534002
 30
0.0
 10
103.6644230156474
 20
-141.0521540534002
 30
0.0
 10
103.7195591853985
 20
-141.0521540534002
 30
0.0
 10
103.7643266842564
 20
-141.007386553411
 30
0.0
 10
103.7643266842564
 20
-140.9522473867579
 30
0.0
  0
CIRCLE
  5
84
330
79
100
AcDbEntity
  8
レイヤー 1
 62
   250
420
  2299925
370
     9
100
AcDbCircle
 10
100.6644331522302
 20
-158.2142637713316
 30
0.0
 40
0.0999066653797766
  0
SPLINE
  5
85
330
79
100
AcDbEntity
  8
レイヤー 1
 62
   250
420
  2299925
370
     9
100
AcDbSpline
210
0.0
220
0.0
230
1.0
 70
     9
 71
     3
 72
    17
 73
    13
 74
     0
 42
0.0000000001
 43
0.0000000001
 40
0.0
 40
0.0
 40
0.0
 40
0.0
 40
1.0
 40
1.0
 40
1.0
 40
2.0
 40
2.0
 40
2.0
 40
3.0
 40
3.0
 40
3.0
 40
4.0
 40
4.0
 40
4.0
 40
4.0
 10
104.7648044365102
 20
-158.2142637713316
 30
0.0
 10
104.7648044365102
 20
-158.1591246046786
 30
0.0
 10
104.7200016598751
 20
-158.11435710469
 30
0.0
 10
104.6649007931748
 20
-158.11435710469
 30
0.0
 10
104.6090883293714
 20
-158.11435710469
 30
0.0
 10
104.5649911082742
 20
-158.1591246046786
 30
0.0
 10
104.5649911082742
 20
-158.2142637713316
 30
0.0
 10
104.5649911082742
 20
-158.2693676602066
 30
0.0
 10
104.6090883293714
 20
-158.3141704379732
 30
0.0
 10
104.6649007931748
 20
-158.3141704379732
 30
0.0
 10
104.7200016598751
 20
-158.3141704379732
 30
0.0
 10
104.7648044365102
 20
-158.2693676602066
 30
0.0
 10
104.7648044365102
 20
-158.2142637713316
 30
0.0
  0
LINE
  5
86
330
79
100
AcDbEntity
  8
レイヤー 1
 62
   250
420
  2299925
370
     9
100
AcDbLine
 10
76.66365626454133
 20
-145.7140771077899
 30
0.0
 11
76.66365626454133
 21
-144.9457976635377
 31
0.0
  0
LINE
  5
87
330
79
100
AcDbEntity
  8
レイヤー 1
 62
   250
420
  2299925
370
     9
100
AcDbLine
 10
76.66365626454133
 20
-145.7140771077899
 30
0.0
 11
76.66365626454133
 21
-146.2142807187761
 31
0.0
  0
LINE
  5
88
330
79
100
AcDbEntity
  8
レイヤー 1
 62
   250
420
  2299925
370
     9
100
AcDbLine
 10
78.12369761618113
 20
-145.7140771077899
 30
0.0
 11
75.6635665678332
 21
-145.7140771077899
 31
0.0
  0
LINE
  5
89
330
79
100
AcDbEntity
  8
レイヤー 1
 62
   250
420
  2299925
370
     9
100
AcDbLine
 10
78.12369761618113
 20
-146.2142807187761
 30
0.0
 11
75.6635665678332
 21
-146.2142807187761
 31
0.0
  0
INSERT
  5
8B
330
79
100
AcDbEntity
  8
レイヤー 1
100
AcDbBlockReference
  2
Block_1
 10
0.0
 20
0.0
 30
0.0
  0
LINE
  5
99
330
79
100
AcDbEntity
  8
レイヤー 1
 62
   250
420
  2299925
370
     9
100
AcDbLine
 10
80.66376810693411
 20
-140.9522473867579
 30
0.0
 11
101.6649109044836
 21
-140.9522473867579
 31
0.0
  0
LINE
  5
9A
330
79
100
AcDbEntity
  8
レイヤー 1
 62
   250
420
  2299925
370
     9
100
AcDbLine
 10
80.66376810693411
 20
-143.1743240528692
 30
0.0
 11
80.66376810693411
 21
-139.952475164786
 31
0.0
  0
INSERT
  5
9C
330
79
100
AcDbEntity
  8
レイヤー 1
100
AcDbBlockReference
  2
Block_3
 10
0.0
 20
0.0
 30
0.0
  0
LINE
  5
A7
330
79
100
AcDbEntity
  8
レイヤー 1
 62
   250
420
  2299925
370
     9
100
AcDbLine
 10
76.66365626454133
 20
-146.2142807187761
 30
0.0
 11
76.66365626454133
 21
-154.2145046056647
 31
0.0
  0
LINE
  5
A8
330
79
100
AcDbEntity
  8
レイヤー 1
 62
   250
420
  2299925
370
     9
100
AcDbLine
 10
98.12471543924599
 20
-154.2145046056647
 30
0.0
 11
75.6635665678332
 21
-154.2145046056647
 31
0.0
  0
INSERT
  5
AA
330
79
100
AcDbEntity
  8
レイヤー 1
100
AcDbBlockReference
  2
Block_5
 10
0.0
 20
0.0
 30
0.0
  0
LINE
  5
B1
330
79
100
AcDbEntity
  8
レイヤー 1
 62
   250
420
  2299925
370
     9
100
AcDbLine
 10
124.6657392065722
 20
-140.9522473867579
 30
0.0
 11
103.6644230156474
 21
-140.9522473867579
 31
0.0
  0
LINE
  5
B2
330
79
100
AcDbEntity
  8
レイヤー 1
 62
   250
420
  2299925
370
     9
100
AcDbLine
 10
124.6657392065722
 20
-143.1743240528692
 30
0.0
 11
124.6657392065722
 21
-139.952475164786
 31
0.0
  0
INSERT
  5
B4
330
79
100
AcDbEntity
  8
レイヤー 1
100
AcDbBlockReference
  2
Block_6
 10
0.0
 20
0.0
 30
0.0
  0
LINE
  5
BF
330
79
100
AcDbEntity
  8
レイヤー 1
 62
   250
420
  2299925
370
     9
100
AcDbLine
 10
101.6649109044836
 20
-140.9522473867579
 30
0.0
 11
103.6644230156474
 21
-140.9522473867579
 31
0.0
  0
LINE
  5
C0
330
79
100
AcDbEntity
  8
レイヤー 1
 62
   250
420
  2299925
370
     9
100
AcDbLine
 10
101.6649109044836
 20
-142.4122887752822
 30
0.0
 11
101.6649109044836
 21
-139.952475164786
 31
0.0
  0
LINE
  5
C1
330
79
100
AcDbEntity
  8
レイヤー 1
 62
   250
420
  2299925
370
     9
100
AcDbLine
 10
103.6644230156474
 20
-142.4122887752822
 30
0.0
 11
103.6644230156474
 21
-139.952475164786
 31
0.0
  0
INSERT
  5
C3
330
79
100
AcDbEntity
  8
レイヤー 1
100
AcDbBlockReference
  2
Block_8
 10
0.0
 20
0.0
 30
0.0
  0
LINE
  5
C8
330
79
100
AcDbEntity
  8
レイヤー 1
 62
   250
420
  2299925
370
     9
100
AcDbLine
 10
104.6649007931748
 20
-158.2142637713316
 30
0.0
 11
100.6644331522301
 21
-158.2142637713316
 31
0.0
  0
LINE
  5
C9
330
79
100
AcDbEntity
  8
レイヤー 1
 62
   250
420
  2299925
370
     9
100
AcDbLine
 10
104.6649007931748
 20
-156.7542223828079
 30
0.0
 11
104.6649007931748
 21
-159.2147062710815
 31
0.0
  0
LINE
  5
CA
330
79
100
AcDbEntity
  8
レイヤー 1
 62
   250
420
  2299925
370
     9
100
AcDbLine
 10
100.6644331522301
 20
-156.7542223828079
 30
0.0
 11
100.6644331522301
 21
-159.2147062710815
 31
0.0
  0
INSERT
  5
CC
330
79
100
AcDbEntity
  8
レイヤー 1
100
AcDbBlockReference
  2
Block_9
 10
0.0
 20
0.0
 30
0.0
  0
ENDBLK
  5
7C
330
79
100
AcDbEntity
  8
0
100
AcDbBlockEnd
  0
BLOCK
  5
8C
330
8A
100
AcDbEntity
  8
0
100
AcDbBlockBegin
  2
Block_1
 70
     0
 10
0.0
 20
0.0
 30
0.0
  3
Block_1
  1

  0
INSERT
  5
8F
330
8A
100
AcDbEntity
  8
レイヤー 1
100
AcDbBlockReference
  2
Block_2
 10
0.0
 20
0.0
 30
0.0
  0
ENDBLK
  5
8D
330
8A
100
AcDbEntity
  8
0
100
AcDbBlockEnd
  0
BLOCK
  5
90
330
8E
100
AcDbEntity
  8
0
100
AcDbBlockBegin
  2
Block_2
 70
     0
 10
0.0
 20
0.0
 30
0.0
  3
Block_2
  1

  0
SPLINE
  5
92
330
8E
100
AcDbEntity
  8
レイヤー 1
100
AcDbSpline
210
0.0
220
0.0
230
1.0
 70
     9
 71
     3
 72
    17
 73
    13
 74
     0
 42
0.0000000001
 43
0.0000000001
 40
0.0
 40
0.0
 40
0.0
 40
0.0
 40
1.0
 40
1.0
 40
1.0
 40
2.0
 40
2.0
 40
2.0
 40
3.0
 40
3.0
 40
3.0
 40
4.0
 40
4.0
 40
4.0
 40
4.0
 10
74.55014375306385
 20
-146.7479763087991
 30
0.0
 10
74.55014375306385
 20
-146.9977457314797
 30
0.0
 10
74.83350285672566
 20
-147.0442545205306
 30
0.0
 10
75.17835691479916
 20
-147.0442545205306
 30
0.0
 10
75.49788952105608
 20
-147.0442545205306
 30
0.0
 10
75.80674233130874
 20
-147.0080810179355
 30
0.0
 10
75.80674233130874
 20
-146.7479763087991
 30
0.0
 10
75.80674233130874
 20
-146.5004461981839
 30
0.0
 10
75.52527803016381
 20
-146.4516980970676
 30
0.0
 10
75.17835691479916
 20
-146.4516980970676
 30
0.0
 10
74.85899656331651
 20
-146.4516980970676
 30
0.0
 10
74.55014375306385
 20
-146.4899386569539
 30
0.0
 10
74.55014375306385
 20
-146.7479763087991
 30
0.0
  0
SPLINE
  5
93
330
8E
100
AcDbEntity
  8
レイヤー 1
100
AcDbSpline
210
0.0
220
0.0
230
1.0
 70
     9
 71
     3
 72
    29
 73
    25
 74
     0
 42
0.0000000001
 43
0.0000000001
 40
0.0
 40
0.0
 40
0.0
 40
0.0
 40
1.0
 40
1.0
 40
1.0
 40
2.0
 40
2.0
 40
2.0
 40
3.0
 40
3.0
 40
3.0
 40
4.0
 40
4.0
 40
4.0
 40
5.0
 40
5.0
 40
5.0
 40
6.0
 40
6.0
 40
6.0
 40
7.0
 40
7.0
 40
7.0
 40
8.0
 40
8.0
 40
8.0
 40
8.0
 10
75.77280814077901
 20
-146.350240035027
 30
0.0
 10
75.98226994628221
 20
-146.4580715237153
 30
0.0
 10
76.00139022622535
 20
-146.6315320813976
 30
0.0
 10
76.00139022622535
 20
-146.7479763087991
 30
0.0
 10
76.00139022622535
 20
-146.9088622679603
 30
0.0
 10
75.95488143717448
 20
-147.050455692404
 30
0.0
 10
75.77280814077901
 20
-147.1455403277969
 30
0.0
 10
75.57833250063668
 20
-147.249237701903
 30
0.0
 10
75.34130993125149
 20
-147.2685302366203
 30
0.0
 10
75.17835691479916
 20
-147.2685302366203
 30
0.0
 10
75.03452417828999
 20
-147.2685302366203
 30
0.0
 10
74.78285995309248
 20
-147.2513047591941
 30
0.0
 10
74.5839056888193
 20
-147.1455403277969
 30
0.0
 10
74.38081730996383
 20
-147.0377088391086
 30
0.0
 10
74.35756291543839
 20
-146.8768228799475
 30
0.0
 10
74.35756291543839
 20
-146.7479763087991
 30
0.0
 10
74.35756291543839
 20
-146.5891574069291
 30
0.0
 10
74.40200464719811
 20
-146.4454969251942
 30
0.0
 10
74.5839056888193
 20
-146.350240035027
 30
0.0
 10
74.77648652644477
 20
-146.2508490302776
 30
0.0
 10
75.00489635711684
 20
-146.2275946357521
 30
0.0
 10
75.17835691479916
 20
-146.2275946357521
 30
0.0
 10
75.34975041519034
 20
-146.2275946357521
 30
0.0
 10
75.58039955792782
 20
-146.2486097182121
 30
0.0
 10
75.77280814077901
 20
-146.350240035027
 30
0.0
  0
HATCH
  5
94
330
8E
100
AcDbEntity
  8
レイヤー 1
 62
   250
420
  2299925
440
 33554687
100
AcDbHatch
 10
0.0
 20
0.0
 30
0.0
210
0.0
220
0.0
230
1.0
  2
SOLID
 70
     1
 71
     1
 91
        2
 92
        1
 93
        1
 72
     4
 94
        3
 73
     0
 74
     0
 95
       17
 96
       13
 40
0.0
 40
0.0
 40
0.0
 40
0.0
 40
1.0
 40
1.0
 40
1.0
 40
2.0
 40
2.0
 40
2.0
 40
3.0
 40
3.0
 40
3.0
 40
4.0
 40
4.0
 40
4.0
 40
4.0
 10
74.55014375306385
 20
-146.7479763087991
 10
74.55014375306385
 20
-146.9977457314797
 10
74.83350285672566
 20
-147.0442545205306
 10
75.17835691479916
 20
-147.0442545205306
 10
75.49788952105608
 20
-147.0442545205306
 10
75.80674233130874
 20
-147.0080810179355
 10
75.80674233130874
 20
-146.7479763087991
 10
75.80674233130874
 20
-146.5004461981839
 10
75.52527803016381
 20
-146.4516980970676
 10
75.17835691479916
 20
-146.4516980970676
 10
74.85899656331651
 20
-146.4516980970676
 10
74.55014375306385
 20
-146.4899386569539
 10
74.55014375306385
 20
-146.7479763087991
 97
        0
 97
        1
330
92
 92
        1
 93
        1
 72
     4
 94
        3
 73
     0
 74
     0
 95
       29
 96
       25
 40
0.0
 40
0.0
 40
0.0
 40
0.0
 40
1.0
 40
1.0
 40
1.0
 40
2.0
 40
2.0
 40
2.0
 40
3.0
 40
3.0
 40
3.0
 40
4.0
 40
4.0
 40
4.0
 40
5.0
 40
5.0
 40
5.0
 40
6.0
 40
6.0
 40
6.0
 40
7.0
 40
7.0
 40
7.0
 40
8.0
 40
8.0
 40
8.0
 40
8.0
 10
75.77280814077901
 20
-146.350240035027
 10
75.98226994628221
 20
-146.4580715237153
 10
76.00139022622535
 20
-146.6315320813976
 10
76.00139022622535
 20
-146.7479763087991
 10
76.00139022622535
 20
-146.9088622679603
 10
75.95488143717448
 20
-147.050455692404
 10
75.77280814077901
 20
-147.1455403277969
 10
75.57833250063668
 20
-147.249237701903
 10
75.34130993125149
 20
-147.2685302366203
 10
75.17835691479916
 20
-147.2685302366203
 10
75.03452417828999
 20
-147.2685302366203
 10
74.78285995309248
 20
-147.2513047591941
 10
74.5839056888193
 20
-147.1455403277969
 10
74.38081730996383
 20
-147.0377088391086
 10
74.35756291543839
 20
-146.8768228799475
 10
74.35756291543839
 20
-146.7479763087991
 10
74.35756291543839
 20
-146.5891574069291
 10
74.40200464719811
 20
-146.4454969251942
 10
74.5839056888193
 20
-146.350240035027
 10
74.77648652644477
 20
-146.2508490302776
 10
75.00489635711684
 20
-146.2275946357521
 10
75.17835691479916
 20
-146.2275946357521
 10
75.34975041519034
 20
-146.2275946357521
 10
75.58039955792782
 20
-146.2486097182121
 10
75.77280814077901
 20
-146.350240035027
 97
        0
 97
        1
330
93
 75
     2
 76
     1
 98
        1
 10
0.0
 20
0.0
450
        0
451
        0
460
0.0
461
0.0
452
        0
462
0.0
453
        0
470

  0
SPLINE
  5
95
330
8E
100
AcDbEntity
  8
レイヤー 1
100
AcDbSpline
210
0.0
220
0.0
230
1.0
 70
    11
 71
     3
 72
    17
 73
    13
 74
     0
 42
0.0000000001
 43
0.0000000001
 40
0.0
 40
0.0
 40
0.0
 40
0.0
 40
1.0
 40
1.0
 40
1.0
 40
2.0
 40
2.0
 40
2.0
 40
3.0
 40
3.0
 40
3.0
 40
4.0
 40
4.0
 40
4.0
 40
4.0
 10
75.95057506781791
 20
-146.0110703845042
 30
0.0
 10
75.95057506781791
 20
-146.0110703845042
 30
0.0
 10
75.69891084262042
 20
-146.0110703845042
 30
0.0
 10
75.69891084262042
 20
-146.0110703845042
 30
0.0
 10
75.69891084262042
 20
-146.0110703845042
 30
0.0
 10
75.69891084262042
 20
-145.7594061593066
 30
0.0
 10
75.69891084262042
 20
-145.7594061593066
 30
0.0
 10
75.69891084262042
 20
-145.7594061593066
 30
0.0
 10
75.95057506781791
 20
-145.7594061593066
 30
0.0
 10
75.95057506781791
 20
-145.7594061593066
 30
0.0
 10
75.95057506781791
 20
-145.7594061593066
 30
0.0
 10
75.95057506781791
 20
-146.0110703845042
 30
0.0
 10
75.95057506781791
 20
-146.0110703845042
 30
0.0
  0
HATCH
  5
96
330
8E
100
AcDbEntity
  8
レイヤー 1
 62
   250
420
  2299925
440
 33554687
100
AcDbHatch
 10
0.0
 20
0.0
 30
0.0
210
0.0
220
0.0
230
1.0
  2
SOLID
 70
     1
 71
     1
 91
        1
 92
        1
 93
        1
 72
     4
 94
        3
 73
     0
 74
     0
 95
       17
 96
       13
 40
0.0
 40
0.0
 40
0.0
 40
0.0
 40
1.0
 40
1.0
 40
1.0
 40
2.0
 40
2.0
 40
2.0
 40
3.0
 40
3.0
 40
3.0
 40
4.0
 40
4.0
 40
4.0
 40
4.0
 10
75.95057506781791
 20
-146.0110703845042
 10
75.95057506781791
 20
-146.0110703845042
 10
75.69891084262042
 20
-146.0110703845042
 10
75.69891084262042
 20
-146.0110703845042
 10
75.69891084262042
 20
-146.0110703845042
 10
75.69891084262042
 20
-145.7594061593066
 10
75.69891084262042
 20
-145.7594061593066
 10
75.69891084262042
 20
-145.7594061593066
 10
75.95057506781791
 20
-145.7594061593066
 10
75.95057506781791
 20
-145.7594061593066
 10
75.95057506781791
 20
-145.7594061593066
 10
75.95057506781791
 20
-146.0110703845042
 10
75.95057506781791
 20
-146.0110703845042
 97
        0
 97
        1
330
95
 75
     2
 76
     1
 98
        1
 10
0.0
 20
0.0
450
        0
451
        0
460
0.0
461
0.0
452
        0
462
0.0
453
        0
470

  0
SPLINE
  5
97
330
8E
100
AcDbEntity
  8
レイヤー 1
100
AcDbSpline
210
0.0
220
0.0
230
1.0
 70
     9
 71
     3
 72
    53
 73
    49
 74
     0
 42
0.0000000001
 43
0.0000000001
 40
0.0
 40
0.0
 40
0.0
 40
0.0
 40
1.0
 40
1.0
 40
1.0
 40
2.0
 40
2.0
 40
2.0
 40
3.0
 40
3.0
 40
3.0
 40
4.0
 40
4.0
 40
4.0
 40
5.0
 40
5.0
 40
5.0
 40
6.0
 40
6.0
 40
6.0
 40
7.0
 40
7.0
 40
7.0
 40
8.0
 40
8.0
 40
8.0
 40
9.0
 40
9.0
 40
9.0
 40
10.0
 40
10.0
 40
10.0
 40
11.0
 40
11.0
 40
11.0
 40
12.0
 40
12.0
 40
12.0
 40
13.0
 40
13.0
 40
13.0
 40
14.0
 40
14.0
 40
14.0
 40
15.0
 40
15.0
 40
15.0
 40
16.0
 40
16.0
 40
16.0
 40
16.0
 10
76.00139022622535
 20
-145.0417927697291
 30
0.0
 10
76.00139022622535
 20
-145.1201686920185
 30
0.0
 10
75.98450925834763
 20
-145.2216267540592
 30
0.0
 10
75.92094724664477
 20
-145.323257070874
 30
0.0
 10
75.81087644589104
 20
-145.4967176285564
 30
0.0
 10
75.67979056267728
 20
-145.5179049657907
 30
0.0
 10
75.57195907398896
 20
-145.5368529909595
 30
0.0
 10
75.57195907398896
 20
-145.5368529909595
 30
0.0
 10
75.57195907398896
 20
-145.3148165869352
 30
0.0
 10
75.57195907398896
 20
-145.3148165869352
 30
0.0
 10
75.77074108348788
 20
-145.2596950591712
 30
0.0
 10
75.80036890466103
 20
-145.1327432905397
 30
0.0
 10
75.80036890466103
 20
-145.039725712438
 30
0.0
 10
75.80036890466103
 20
-144.9000270905111
 30
0.0
 10
75.70097789991156
 20
-144.747753870063
 30
0.0
 10
75.46826169988294
 20
-144.747753870063
 30
0.0
 10
75.21229110532887
 20
-144.747753870063
 30
0.0
 10
75.14252792175255
 20
-144.9275878543931
 30
0.0
 10
75.14252792175255
 20
-145.0481661963768
 30
0.0
 10
75.14252792175255
 20
-145.0798610748411
 30
0.0
 10
75.14252792175255
 20
-145.2216267540592
 30
0.0
 10
75.27154674767517
 20
-145.3105102175786
 30
0.0
 10
75.27154674767517
 20
-145.3105102175786
 30
0.0
 10
75.25242646773204
 20
-145.4860378325521
 30
0.0
 10
75.25242646773204
 20
-145.4860378325521
 30
0.0
 10
75.25242646773204
 20
-145.4860378325521
 30
0.0
 10
74.40631101655468
 20
-145.3654594905683
 30
0.0
 10
74.40631101655468
 20
-145.3654594905683
 30
0.0
 10
74.40631101655468
 20
-145.3654594905683
 30
0.0
 10
74.40631101655468
 20
-144.5870401656762
 30
0.0
 10
74.40631101655468
 20
-144.5870401656762
 30
0.0
 10
74.40631101655468
 20
-144.5870401656762
 30
0.0
 10
74.6009589114713
 20
-144.5870401656762
 30
0.0
 10
74.6009589114713
 20
-144.5870401656762
 30
0.0
 10
74.6009589114713
 20
-144.5870401656762
 30
0.0
 10
74.6009589114713
 20
-145.2026787288903
 30
0.0
 10
74.6009589114713
 20
-145.2026787288903
 30
0.0
 10
74.6009589114713
 20
-145.2026787288903
 30
0.0
 10
75.02401663705997
 20
-145.26813554311
 30
0.0
 10
75.02401663705997
 20
-145.26813554311
 30
0.0
 10
74.99008244653026
 20
-145.2068128434726
 30
0.0
 10
74.9499470841271
 20
-145.1243028066008
 30
0.0
 10
74.9499470841271
 20
-145.0059637766825
 30
0.0
 10
74.9499470841271
 20
-144.7520602394196
 30
0.0
 10
75.13615449510485
 20
-144.5150376700344
 30
0.0
 10
75.44914141993981
 20
-144.5150376700344
 30
0.0
 10
75.76660696890558
 20
-144.5150376700344
 30
0.0
 10
76.00139022622535
 20
-144.7393133861242
 30
0.0
 10
76.00139022622535
 20
-145.0417927697291
 30
0.0
  0
HATCH
  5
98
330
8E
100
AcDbEntity
  8
レイヤー 1
 62
   250
420
  2299925
440
 33554687
100
AcDbHatch
 10
0.0
 20
0.0
 30
0.0
210
0.0
220
0.0
230
1.0
  2
SOLID
 70
     1
 71
     1
 91
        1
 92
        1
 93
        1
 72
     4
 94
        3
 73
     0
 74
     0
 95
       53
 96
       49
 40
0.0
 40
0.0
 40
0.0
 40
0.0
 40
1.0
 40
1.0
 40
1.0
 40
2.0
 40
2.0
 40
2.0
 40
3.0
 40
3.0
 40
3.0
 40
4.0
 40
4.0
 40
4.0
 40
5.0
 40
5.0
 40
5.0
 40
6.0
 40
6.0
 40
6.0
 40
7.0
 40
7.0
 40
7.0
 40
8.0
 40
8.0
 40
8.0
 40
9.0
 40
9.0
 40
9.0
 40
10.0
 40
10.0
 40
10.0
 40
11.0
 40
11.0
 40
11.0
 40
12.0
 40
12.0
 40
12.0
 40
13.0
 40
13.0
 40
13.0
 40
14.0
 40
14.0
 40
14.0
 40
15.0
 40
15.0
 40
15.0
 40
16.0
 40
16.0
 40
16.0
 40
16.0
 10
76.00139022622535
 20
-145.0417927697291
 10
76.00139022622535
 20
-145.1201686920185
 10
75.98450925834763
 20
-145.2216267540592
 10
75.92094724664477
 20
-145.323257070874
 10
75.81087644589104
 20
-145.4967176285564
 10
75.67979056267728
 20
-145.5179049657907
 10
75.57195907398896
 20
-145.5368529909595
 10
75.57195907398896
 20
-145.5368529909595
 10
75.57195907398896
 20
-145.3148165869352
 10
75.57195907398896
 20
-145.3148165869352
 10
75.77074108348788
 20
-145.2596950591712
 10
75.80036890466103
 20
-145.1327432905397
 10
75.80036890466103
 20
-145.039725712438
 10
75.80036890466103
 20
-144.9000270905111
 10
75.70097789991156
 20
-144.747753870063
 10
75.46826169988294
 20
-144.747753870063
 10
75.21229110532887
 20
-144.747753870063
 10
75.14252792175255
 20
-144.9275878543931
 10
75.14252792175255
 20
-145.0481661963768
 10
75.14252792175255
 20
-145.0798610748411
 10
75.14252792175255
 20
-145.2216267540592
 10
75.27154674767517
 20
-145.3105102175786
 10
75.27154674767517
 20
-145.3105102175786
 10
75.25242646773204
 20
-145.4860378325521
 10
75.25242646773204
 20
-145.4860378325521
 10
75.25242646773204
 20
-145.4860378325521
 10
74.40631101655468
 20
-145.3654594905683
 10
74.40631101655468
 20
-145.3654594905683
 10
74.40631101655468
 20
-145.3654594905683
 10
74.40631101655468
 20
-144.5870401656762
 10
74.40631101655468
 20
-144.5870401656762
 10
74.40631101655468
 20
-144.5870401656762
 10
74.6009589114713
 20
-144.5870401656762
 10
74.6009589114713
 20
-144.5870401656762
 10
74.6009589114713
 20
-144.5870401656762
 10
74.6009589114713
 20
-145.2026787288903
 10
74.6009589114713
 20
-145.2026787288903
 10
74.6009589114713
 20
-145.2026787288903
 10
75.02401663705997
 20
-145.26813554311
 10
75.02401663705997
 20
-145.26813554311
 10
74.99008244653026
 20
-145.2068128434726
 10
74.9499470841271
 20
-145.1243028066008
 10
74.9499470841271
 20
-145.0059637766825
 10
74.9499470841271
 20
-144.7520602394196
 10
75.13615449510485
 20
-144.5150376700344
 10
75.44914141993981
 20
-144.5150376700344
 10
75.76660696890558
 20
-144.5150376700344
 10
76.00139022622535
 20
-144.7393133861242
 10
76.00139022622535
 20
-145.0417927697291
 97
        0
 97
        1
330
97
 75
     2
 76
     1
 98
        1
 10
0.0
 20
0.0
450
        0
451
        0
460
0.0
461
0.0
452
        0
462
0.0
453
        0
470

  0
ENDBLK
  5
91
330
8E
100
AcDbEntity
  8
0
100
AcDbBlockEnd
  0
BLOCK
  5
9D
330
9B
100
AcDbEntity
  8
0
100
AcDbBlockBegin
  2
Block_3
 70
     0
 10
0.0
 20
0.0
 30
0.0
  3
Block_3
  1

  0
INSERT
  5
A0
330
9B
100
AcDbEntity
  8
レイヤー 1
100
AcDbBlockReference
  2
Block_4
 10
0.0
 20
0.0
 30
0.0
  0
ENDBLK
  5
9E
330
9B
100
AcDbEntity
  8
0
100
AcDbBlockEnd
  0
BLOCK
  5
A1
330
9F
100
AcDbEntity
  8
0
100
AcDbBlockBegin
  2
Block_4
 70
     0
 10
0.0
 20
0.0
 30
0.0
  3
Block_4
  1

  0
SPLINE
  5
A3
330
9F
100
AcDbEntity
  8
レイヤー 1
100
AcDbSpline
210
0.0
220
0.0
230
1.0
 70
     9
 71
     3
 72
    44
 73
    40
 74
     0
 42
0.0000000001
 43
0.0000000001
 40
0.0
 40
0.0
 40
0.0
 40
0.0
 40
1.0
 40
1.0
 40
1.0
 40
2.0
 40
2.0
 40
2.0
 40
3.0
 40
3.0
 40
3.0
 40
4.0
 40
4.0
 40
4.0
 40
5.0
 40
5.0
 40
5.0
 40
6.0
 40
6.0
 40
6.0
 40
7.0
 40
7.0
 40
7.0
 40
8.0
 40
8.0
 40
8.0
 40
9.0
 40
9.0
 40
9.0
 40
10.0
 40
10.0
 40
10.0
 40
11.0
 40
11.0
 40
11.0
 40
12.0
 40
12.0
 40
12.0
 40
13.0
 40
13.0
 40
13.0
 40
13.0
 10
90.59291989922677
 20
-139.6567640167351
 30
0.0
 10
90.37501760978472
 20
-139.8154106638308
 30
0.0
 10
90.2818277769087
 20
-139.8894802167637
 30
0.0
 10
90.23325193056669
 20
-140.0333129532729
 30
0.0
 10
90.23325193056669
 20
-140.0333129532729
 30
0.0
 10
91.0116712554589
 20
-140.0333129532729
 30
0.0
 10
91.0116712554589
 20
-140.0333129532729
 30
0.0
 10
91.0116712554589
 20
-140.0333129532729
 30
0.0
 10
91.0116712554589
 20
-140.2384683894195
 30
0.0
 10
91.0116712554589
 20
-140.2384683894195
 30
0.0
 10
91.0116712554589
 20
-140.2384683894195
 30
0.0
 10
89.98365476266034
 20
-140.2384683894195
 30
0.0
 10
89.98365476266034
 20
-140.2384683894195
 30
0.0
 10
90.01534964112464
 20
-139.8808674780506
 30
0.0
 10
90.08097871011864
 20
-139.8026638105354
 30
0.0
 10
90.46596813059531
 20
-139.5043185415128
 30
0.0
 10
90.72193872514938
 20
-139.3055365320139
 30
0.0
 10
90.78739553936912
 20
-139.2378404057287
 30
0.0
 10
90.78739553936912
 20
-139.1003810958673
 30
0.0
 10
90.78739553936912
 20
-138.9818698111747
 30
0.0
 10
90.71556529850168
 20
-138.8507839279609
 30
0.0
 10
90.51885034629391
 20
-138.8507839279609
 30
0.0
 10
90.25857338238328
 20
-138.8507839279609
 30
0.0
 10
90.25013289844443
 20
-139.0812608159241
 30
0.0
 10
90.24582652908785
 20
-139.1977050433256
 30
0.0
 10
90.24582652908785
 20
-139.1977050433256
 30
0.0
 10
90.02172306777236
 20
-139.1977050433256
 30
0.0
 10
90.02172306777236
 20
-139.1977050433256
 30
0.0
 10
90.03016355171121
 20
-139.0707532746941
 30
0.0
 10
90.04067109294123
 20
-138.9586154166492
 30
0.0
 10
90.12111407252181
 20
-138.8401041319566
 30
0.0
 10
90.23101261850127
 20
-138.6793904275697
 30
0.0
 10
90.41722002947903
 20
-138.64545623704
 30
0.0
 10
90.53366425688047
 20
-138.64545623704
 30
0.0
 10
90.81082218866882
 20
-138.64545623704
 30
0.0
 10
91.0180446821066
 20
-138.8295965907266
 30
0.0
 10
91.0180446821066
 20
-139.1024481531584
 30
0.0
 10
91.0180446821066
 20
-139.3308579838305
 30
0.0
 10
90.90177270947942
 20
-139.4304212433542
 30
0.0
 10
90.59291989922677
 20
-139.6567640167351
 30
0.0
  0
HATCH
  5
A4
330
9F
100
AcDbEntity
  8
レイヤー 1
 62
   250
420
  2299925
440
 33554687
100
AcDbHatch
 10
0.0
 20
0.0
 30
0.0
210
0.0
220
0.0
230
1.0
  2
SOLID
 70
     1
 71
     1
 91
        1
 92
        1
 93
        1
 72
     4
 94
        3
 73
     0
 74
     0
 95
       44
 96
       40
 40
0.0
 40
0.0
 40
0.0
 40
0.0
 40
1.0
 40
1.0
 40
1.0
 40
2.0
 40
2.0
 40
2.0
 40
3.0
 40
3.0
 40
3.0
 40
4.0
 40
4.0
 40
4.0
 40
5.0
 40
5.0
 40
5.0
 40
6.0
 40
6.0
 40
6.0
 40
7.0
 40
7.0
 40
7.0
 40
8.0
 40
8.0
 40
8.0
 40
9.0
 40
9.0
 40
9.0
 40
10.0
 40
10.0
 40
10.0
 40
11.0
 40
11.0
 40
11.0
 40
12.0
 40
12.0
 40
12.0
 40
13.0
 40
13.0
 40
13.0
 40
13.0
 10
90.59291989922677
 20
-139.6567640167351
 10
90.37501760978472
 20
-139.8154106638308
 10
90.2818277769087
 20
-139.8894802167637
 10
90.23325193056669
 20
-140.0333129532729
 10
90.23325193056669
 20
-140.0333129532729
 10
91.0116712554589
 20
-140.0333129532729
 10
91.0116712554589
 20
-140.0333129532729
 10
91.0116712554589
 20
-140.0333129532729
 10
91.0116712554589
 20
-140.2384683894195
 10
91.0116712554589
 20
-140.2384683894195
 10
91.0116712554589
 20
-140.2384683894195
 10
89.98365476266034
 20
-140.2384683894195
 10
89.98365476266034
 20
-140.2384683894195
 10
90.01534964112464
 20
-139.8808674780506
 10
90.08097871011864
 20
-139.8026638105354
 10
90.46596813059531
 20
-139.5043185415128
 10
90.72193872514938
 20
-139.3055365320139
 10
90.78739553936912
 20
-139.2378404057287
 10
90.78739553936912
 20
-139.1003810958673
 10
90.78739553936912
 20
-138.9818698111747
 10
90.71556529850168
 20
-138.8507839279609
 10
90.51885034629391
 20
-138.8507839279609
 10
90.25857338238328
 20
-138.8507839279609
 10
90.25013289844443
 20
-139.0812608159241
 10
90.24582652908785
 20
-139.1977050433256
 10
90.24582652908785
 20
-139.1977050433256
 10
90.02172306777236
 20
-139.1977050433256
 10
90.02172306777236
 20
-139.1977050433256
 10
90.03016355171121
 20
-139.0707532746941
 10
90.04067109294123
 20
-138.9586154166492
 10
90.12111407252181
 20
-138.8401041319566
 10
90.23101261850127
 20
-138.6793904275697
 10
90.41722002947903
 20
-138.64545623704
 10
90.53366425688047
 20
-138.64545623704
 10
90.81082218866882
 20
-138.64545623704
 10
91.0180446821066
 20
-138.8295965907266
 10
91.0180446821066
 20
-139.1024481531584
 10
91.0180446821066
 20
-139.3308579838305
 10
90.90177270947942
 20
-139.4304212433542
 10
90.59291989922677
 20
-139.6567640167351
 97
        0
 97
        1
330
A3
 75
     2
 76
     1
 98
        1
 10
0.0
 20
0.0
450
        0
451
        0
460
0.0
461
0.0
452
        0
462
0.0
453
        0
470

  0
SPLINE
  5
A5
330
9F
100
AcDbEntity
  8
レイヤー 1
100
AcDbSpline
210
0.0
220
0.0
230
1.0
 70
    11
 71
     3
 72
    26
 73
    22
 74
     0
 42
0.0000000001
 43
0.0000000001
 40
0.0
 40
0.0
 40
0.0
 40
0.0
 40
1.0
 40
1.0
 40
1.0
 40
2.0
 40
2.0
 40
2.0
 40
3.0
 40
3.0
 40
3.0
 40
4.0
 40
4.0
 40
4.0
 40
5.0
 40
5.0
 40
5.0
 40
6.0
 40
6.0
 40
6.0
 40
7.0
 40
7.0
 40
7.0
 40
7.0
 10
91.6279988377701
 20
-140.2384683894195
 30
0.0
 10
91.6279988377701
 20
-140.2384683894195
 30
0.0
 10
91.6279988377701
 20
-139.1341430316227
 30
0.0
 10
91.6279988377701
 20
-139.1341430316227
 30
0.0
 10
91.6279988377701
 20
-139.1341430316227
 30
0.0
 10
91.29795869028315
 20
-139.1341430316227
 30
0.0
 10
91.29795869028315
 20
-139.1341430316227
 30
0.0
 10
91.29795869028315
 20
-139.1341430316227
 30
0.0
 10
91.29795869028315
 20
-138.9861761805312
 30
0.0
 10
91.29795869028315
 20
-138.9861761805312
 30
0.0
 10
91.63006589506123
 20
-138.9713622699447
 30
0.0
 10
91.67657468411212
 20
-138.8084092534923
 30
0.0
 10
91.70620250528527
 20
-138.6942043381563
 30
0.0
 10
91.70620250528527
 20
-138.6942043381563
 30
0.0
 10
91.85227455385986
 20
-138.6942043381563
 30
0.0
 10
91.85227455385986
 20
-138.6942043381563
 30
0.0
 10
91.85227455385986
 20
-138.6942043381563
 30
0.0
 10
91.85227455385986
 20
-140.2384683894195
 30
0.0
 10
91.85227455385986
 20
-140.2384683894195
 30
0.0
 10
91.85227455385986
 20
-140.2384683894195
 30
0.0
 10
91.6279988377701
 20
-140.2384683894195
 30
0.0
 10
91.6279988377701
 20
-140.2384683894195
 30
0.0
  0
HATCH
  5
A6
330
9F
100
AcDbEntity
  8
レイヤー 1
 62
   250
420
  2299925
440
 33554687
100
AcDbHatch
 10
0.0
 20
0.0
 30
0.0
210
0.0
220
0.0
230
1.0
  2
SOLID
 70
     1
 71
     1
 91
        1
 92
        1
 93
        1
 72
     4
 94
        3
 73
     0
 74
     0
 95
       26
 96
       22
 40
0.0
 40
0.0
 40
0.0
 40
0.0
 40
1.0
 40
1.0
 40
1.0
 40
2.0
 40
2.0
 40
2.0
 40
3.0
 40
3.0
 40
3.0
 40
4.0
 40
4.0
 40
4.0
 40
5.0
 40
5.0
 40
5.0
 40
6.0
 40
6.0
 40
6.0
 40
7.0
 40
7.0
 40
7.0
 40
7.0
 10
91.6279988377701
 20
-140.2384683894195
 10
91.6279988377701
 20
-140.2384683894195
 10
91.6279988377701
 20
-139.1341430316227
 10
91.6279988377701
 20
-139.1341430316227
 10
91.6279988377701
 20
-139.1341430316227
 10
91.29795869028315
 20
-139.1341430316227
 10
91.29795869028315
 20
-139.1341430316227
 10
91.29795869028315
 20
-139.1341430316227
 10
91.29795869028315
 20
-138.9861761805312
 10
91.29795869028315
 20
-138.9861761805312
 10
91.63006589506123
 20
-138.9713622699447
 10
91.67657468411212
 20
-138.8084092534923
 10
91.70620250528527
 20
-138.6942043381563
 10
91.70620250528527
 20
-138.6942043381563
 10
91.85227455385986
 20
-138.6942043381563
 10
91.85227455385986
 20
-138.6942043381563
 10
91.85227455385986
 20
-138.6942043381563
 10
91.85227455385986
 20
-140.2384683894195
 10
91.85227455385986
 20
-140.2384683894195
 10
91.85227455385986
 20
-140.2384683894195
 10
91.6279988377701
 20
-140.2384683894195
 10
91.6279988377701
 20
-140.2384683894195
 97
        0
 97
        1
330
A5
 75
     2
 76
     1
 98
        1
 10
0.0
 20
0.0
450
        0
451
        0
460
0.0
461
0.0
452
        0
462
0.0
453
        0
470

  0
ENDBLK
  5
A2
330
9F
100
AcDbEntity
  8
0
100
AcDbBlockEnd
  0
BLOCK
  5
AB
330
A9
100
AcDbEntity
  8
0
100
AcDbBlockBegin
  2
Block_5
 70
     0
 10
0.0
 20
0.0
 30
0.0
  3
Block_5
  1

  0
SPLINE
  5
AD
330
A9
100
AcDbEntity
  8
レイヤー 1
100
AcDbSpline
210
0.0
220
0.0
230
1.0
 70
     9
 71
     3
 72
    17
 73
    13
 74
     0
 42
0.0000000001
 43
0.0000000001
 40
0.0
 40
0.0
 40
0.0
 40
0.0
 40
1.0
 40
1.0
 40
1.0
 40
2.0
 40
2.0
 40
2.0
 40
3.0
 40
3.0
 40
3.0
 40
4.0
 40
4.0
 40
4.0
 40
4.0
 10
75.2098795384892
 20
-150.2120198192178
 30
0.0
 10
75.2098795384892
 20
-150.3556803009527
 30
0.0
 10
75.29652368994323
 20
-150.5082980309493
 30
0.0
 10
75.49961206879871
 20
-150.5082980309493
 30
0.0
 10
75.70476750494534
 20
-150.5082980309493
 30
0.0
 10
75.80639782176021
 20
-150.3811740075436
 30
0.0
 10
75.80639782176021
 20
-150.2120198192178
 30
0.0
 10
75.80639782176021
 20
-150.0259846630143
 30
0.0
 10
75.68375242248531
 20
-149.9157416074863
 30
0.0
 10
75.50598549544642
 20
-149.9157416074863
 30
0.0
 10
75.2837768366478
 20
-149.9157416074863
 30
0.0
 10
75.2098795384892
 20
-150.0786946239387
 30
0.0
 10
75.2098795384892
 20
-150.2120198192178
 30
0.0
  0
SPLINE
  5
AE
330
A9
100
AcDbEntity
  8
レイヤー 1
100
AcDbSpline
210
0.0
220
0.0
230
1.0
 70
     9
 71
     3
 72
    17
 73
    13
 74
     0
 42
0.0000000001
 43
0.0000000001
 40
0.0
 40
0.0
 40
0.0
 40
0.0
 40
1.0
 40
1.0
 40
1.0
 40
2.0
 40
2.0
 40
2.0
 40
3.0
 40
3.0
 40
3.0
 40
4.0
 40
4.0
 40
4.0
 40
4.0
 10
74.54979924351533
 20
-150.2120198192178
 30
0.0
 10
74.54979924351533
 20
-150.3770398929613
 30
0.0
 10
74.64488387890823
 20
-150.4617892418984
 30
0.0
 10
74.78027613147855
 20
-150.4617892418984
 30
0.0
 10
74.9030937855277
 20
-150.4617892418984
 30
0.0
 10
75.0216050702203
 20
-150.3897867462567
 30
0.0
 10
75.0216050702203
 20
-150.2120198192178
 30
0.0
 10
75.0216050702203
 20
-150.0342528921789
 30
0.0
 10
74.9030937855277
 20
-149.9622503965372
 30
0.0
 10
74.78027613147855
 20
-149.9622503965372
 30
0.0
 10
74.64488387890823
 20
-149.9622503965372
 30
0.0
 10
74.54979924351533
 20
-150.0490668027655
 30
0.0
 10
74.54979924351533
 20
-150.2120198192178
 30
0.0
  0
SPLINE
  5
AF
330
A9
100
AcDbEntity
  8
レイヤー 1
100
AcDbSpline
210
0.0
220
0.0
230
1.0
 70
     9
 71
     3
 72
    29
 73
    25
 74
     0
 42
0.0000000001
 43
0.0000000001
 40
0.0
 40
0.0
 40
0.0
 40
0.0
 40
1.0
 40
1.0
 40
1.0
 40
2.0
 40
2.0
 40
2.0
 40
3.0
 40
3.0
 40
3.0
 40
4.0
 40
4.0
 40
4.0
 40
5.0
 40
5.0
 40
5.0
 40
6.0
 40
6.0
 40
6.0
 40
7.0
 40
7.0
 40
7.0
 40
8.0
 40
8.0
 40
8.0
 40
8.0
 10
76.00104571667682
 20
-150.2120198192178
 30
0.0
 10
76.00104571667682
 20
-150.4786702097761
 30
0.0
 10
75.86341415204109
 20
-150.7325737470391
 30
0.0
 10
75.51442597938528
 20
-150.7325737470391
 30
0.0
 10
75.25845538483122
 20
-150.7325737470391
 30
0.0
 10
75.16319849466405
 20
-150.5906358130468
 30
0.0
 10
75.10187579502662
 20
-150.4848713816496
 30
0.0
 10
75.04262015268031
 20
-150.6095838382156
 30
0.0
 10
74.92841523734428
 20
-150.6857204484397
 30
0.0
 10
74.76770153295738
 20
-150.6857204484397
 30
0.0
 10
74.49261065846018
 20
-150.6857204484397
 30
0.0
 10
74.35721840588986
 20
-150.4869384389407
 30
0.0
 10
74.35721840588986
 20
-150.2120198192178
 30
0.0
 10
74.35721840588986
 20
-149.9284884607817
 30
0.0
 10
74.50105114239905
 20
-149.7379746804474
 30
0.0
 10
74.76770153295738
 20
-149.7379746804474
 30
0.0
 10
74.92841523734428
 20
-149.7379746804474
 30
0.0
 10
75.04262015268031
 20
-149.8165228575111
 30
0.0
 10
75.10187579502662
 20
-149.9412353140772
 30
0.0
 10
75.15269095343405
 20
-149.8523518505577
 30
0.0
 10
75.24794784360121
 20
-149.6935329486877
 30
0.0
 10
75.51029186480298
 20
-149.6935329486877
 30
0.0
 10
75.88460148927538
 20
-149.6935329486877
 30
0.0
 10
76.00104571667682
 20
-149.9729301925415
 30
0.0
 10
76.00104571667682
 20
-150.2120198192178
 30
0.0
  0
HATCH
  5
B0
330
A9
100
AcDbEntity
  8
レイヤー 1
 62
   250
420
  2299925
440
 33554687
100
AcDbHatch
 10
0.0
 20
0.0
 30
0.0
210
0.0
220
0.0
230
1.0
  2
SOLID
 70
     1
 71
     1
 91
        3
 92
        1
 93
        1
 72
     4
 94
        3
 73
     0
 74
     0
 95
       17
 96
       13
 40
0.0
 40
0.0
 40
0.0
 40
0.0
 40
1.0
 40
1.0
 40
1.0
 40
2.0
 40
2.0
 40
2.0
 40
3.0
 40
3.0
 40
3.0
 40
4.0
 40
4.0
 40
4.0
 40
4.0
 10
75.2098795384892
 20
-150.2120198192178
 10
75.2098795384892
 20
-150.3556803009527
 10
75.29652368994323
 20
-150.5082980309493
 10
75.49961206879871
 20
-150.5082980309493
 10
75.70476750494534
 20
-150.5082980309493
 10
75.80639782176021
 20
-150.3811740075436
 10
75.80639782176021
 20
-150.2120198192178
 10
75.80639782176021
 20
-150.0259846630143
 10
75.68375242248531
 20
-149.9157416074863
 10
75.50598549544642
 20
-149.9157416074863
 10
75.2837768366478
 20
-149.9157416074863
 10
75.2098795384892
 20
-150.0786946239387
 10
75.2098795384892
 20
-150.2120198192178
 97
        0
 97
        1
330
AD
 92
        1
 93
        1
 72
     4
 94
        3
 73
     0
 74
     0
 95
       17
 96
       13
 40
0.0
 40
0.0
 40
0.0
 40
0.0
 40
1.0
 40
1.0
 40
1.0
 40
2.0
 40
2.0
 40
2.0
 40
3.0
 40
3.0
 40
3.0
 40
4.0
 40
4.0
 40
4.0
 40
4.0
 10
74.54979924351533
 20
-150.2120198192178
 10
74.54979924351533
 20
-150.3770398929613
 10
74.64488387890823
 20
-150.4617892418984
 10
74.78027613147855
 20
-150.4617892418984
 10
74.9030937855277
 20
-150.4617892418984
 10
75.0216050702203
 20
-150.3897867462567
 10
75.0216050702203
 20
-150.2120198192178
 10
75.0216050702203
 20
-150.0342528921789
 10
74.9030937855277
 20
-149.9622503965372
 10
74.78027613147855
 20
-149.9622503965372
 10
74.64488387890823
 20
-149.9622503965372
 10
74.54979924351533
 20
-150.0490668027655
 10
74.54979924351533
 20
-150.2120198192178
 97
        0
 97
        1
330
AE
 92
        1
 93
        1
 72
     4
 94
        3
 73
     0
 74
     0
 95
       29
 96
       25
 40
0.0
 40
0.0
 40
0.0
 40
0.0
 40
1.0
 40
1.0
 40
1.0
 40
2.0
 40
2.0
 40
2.0
 40
3.0
 40
3.0
 40
3.0
 40
4.0
 40
4.0
 40
4.0
 40
5.0
 40
5.0
 40
5.0
 40
6.0
 40
6.0
 40
6.0
 40
7.0
 40
7.0
 40
7.0
 40
8.0
 40
8.0
 40
8.0
 40
8.0
 10
76.00104571667682
 20
-150.2120198192178
 10
76.00104571667682
 20
-150.4786702097761
 10
75.86341415204109
 20
-150.7325737470391
 10
75.51442597938528
 20
-150.7325737470391
 10
75.25845538483122
 20
-150.7325737470391
 10
75.16319849466405
 20
-150.5906358130468
 10
75.10187579502662
 20
-150.4848713816496
 10
75.04262015268031
 20
-150.6095838382156
 10
74.92841523734428
 20
-150.6857204484397
 10
74.76770153295738
 20
-150.6857204484397
 10
74.49261065846018
 20
-150.6857204484397
 10
74.35721840588986
 20
-150.4869384389407
 10
74.35721840588986
 20
-150.2120198192178
 10
74.35721840588986
 20
-149.9284884607817
 10
74.50105114239905
 20
-149.7379746804474
 10
74.76770153295738
 20
-149.7379746804474
 10
74.92841523734428
 20
-149.7379746804474
 10
75.04262015268031
 20
-149.8165228575111
 10
75.10187579502662
 20
-149.9412353140772
 10
75.15269095343405
 20
-149.8523518505577
 10
75.24794784360121
 20
-149.6935329486877
 10
75.51029186480298
 20
-149.6935329486877
 10
75.88460148927538
 20
-149.6935329486877
 10
76.00104571667682
 20
-149.9729301925415
 10
76.00104571667682
 20
-150.2120198192178
 97
        0
 97
        1
330
AF
 75
     2
 76
     1
 98
        1
 10
0.0
 20
0.0
450
        0
451
        0
460
0.0
461
0.0
452
        0
462
0.0
453
        0
470

  0
ENDBLK
  5
AC
330
A9
100
AcDbEntity
  8
0
100
AcDbBlockEnd
  0
BLOCK
  5
B5
330
B3
100
AcDbEntity
  8
0
100
AcDbBlockBegin
  2
Block_6
 70
     0
 10
0.0
 20
0.0
 30
0.0
  3
Block_6
  1

  0
INSERT
  5
B8
330
B3
100
AcDbEntity
  8
レイヤー 1
100
AcDbBlockReference
  2
Block_7
 10
0.0
 20
0.0
 30
0.0
  0
ENDBLK
  5
B6
330
B3
100
AcDbEntity
  8
0
100
AcDbBlockEnd
  0
BLOCK
  5
B9
330
B7
100
AcDbEntity
  8
0
100
AcDbBlockBegin
  2
Block_7
 70
     0
 10
0.0
 20
0.0
 30
0.0
  3
Block_7
  1

  0
SPLINE
  5
BB
330
B7
100
AcDbEntity
  8
レイヤー 1
100
AcDbSpline
210
0.0
220
0.0
230
1.0
 70
     9
 71
     3
 72
    44
 73
    40
 74
     0
 42
0.0000000001
 43
0.0000000001
 40
0.0
 40
0.0
 40
0.0
 40
0.0
 40
1.0
 40
1.0
 40
1.0
 40
2.0
 40
2.0
 40
2.0
 40
3.0
 40
3.0
 40
3.0
 40
4.0
 40
4.0
 40
4.0
 40
5.0
 40
5.0
 40
5.0
 40
6.0
 40
6.0
 40
6.0
 40
7.0
 40
7.0
 40
7.0
 40
8.0
 40
8.0
 40
8.0
 40
9.0
 40
9.0
 40
9.0
 40
10.0
 40
10.0
 40
10.0
 40
11.0
 40
11.0
 40
11.0
 40
12.0
 40
12.0
 40
12.0
 40
13.0
 40
13.0
 40
13.0
 40
13.0
 10
113.5940999064973
 20
-139.6567640167351
 30
0.0
 10
113.3763698718295
 20
-139.8154106638308
 30
0.0
 10
113.2833522937277
 20
-139.8894802167637
 30
0.0
 10
113.2344319378372
 20
-140.0333129532729
 30
0.0
 10
113.2344319378372
 20
-140.0333129532729
 30
0.0
 10
114.0130235175037
 20
-140.0333129532729
 30
0.0
 10
114.0130235175037
 20
-140.0333129532729
 30
0.0
 10
114.0130235175037
 20
-140.0333129532729
 30
0.0
 10
114.0130235175037
 20
-140.2384683894195
 30
0.0
 10
114.0130235175037
 20
-140.2384683894195
 30
0.0
 10
114.0130235175037
 20
-140.2384683894195
 30
0.0
 10
112.9850070247051
 20
-140.2384683894195
 30
0.0
 10
112.9850070247051
 20
-140.2384683894195
 30
0.0
 10
113.0167019031694
 20
-139.8808674780506
 30
0.0
 10
113.0821587173892
 20
-139.8026638105354
 30
0.0
 10
113.4673203926401
 20
-139.5043185415128
 30
0.0
 10
113.7232909871942
 20
-139.3055365320139
 30
0.0
 10
113.7887478014139
 20
-139.2378404057287
 30
0.0
 10
113.7887478014139
 20
-139.1003810958673
 30
0.0
 10
113.7887478014139
 20
-138.9818698111747
 30
0.0
 10
113.7167453057722
 20
-138.8507839279609
 30
0.0
 10
113.5200303535644
 20
-138.8507839279609
 30
0.0
 10
113.2599256444281
 20
-138.8507839279609
 30
0.0
 10
113.2513129057149
 20
-139.0812608159241
 30
0.0
 10
113.2471787911326
 20
-139.1977050433256
 30
0.0
 10
113.2471787911326
 20
-139.1977050433256
 30
0.0
 10
113.0229030750429
 20
-139.1977050433256
 30
0.0
 10
113.0229030750429
 20
-139.1977050433256
 30
0.0
 10
113.031515813756
 20
-139.0707532746941
 30
0.0
 10
113.0421956097602
 20
-138.9586154166492
 30
0.0
 10
113.1224663345666
 20
-138.8401041319566
 30
0.0
 10
113.2323648805461
 20
-138.6793904275697
 30
0.0
 10
113.4187445462981
 20
-138.64545623704
 30
0.0
 10
113.534844264151
 20
-138.64545623704
 30
0.0
 10
113.8121744507136
 20
-138.64545623704
 30
0.0
 10
114.0195691989256
 20
-138.8295965907266
 30
0.0
 10
114.0195691989256
 20
-139.1024481531584
 30
0.0
 10
114.0195691989256
 20
-139.3308579838305
 30
0.0
 10
113.9031249715242
 20
-139.4304212433542
 30
0.0
 10
113.5940999064973
 20
-139.6567640167351
 30
0.0
  0
HATCH
  5
BC
330
B7
100
AcDbEntity
  8
レイヤー 1
 62
   250
420
  2299925
440
 33554687
100
AcDbHatch
 10
0.0
 20
0.0
 30
0.0
210
0.0
220
0.0
230
1.0
  2
SOLID
 70
     1
 71
     1
 91
        1
 92
        1
 93
        1
 72
     4
 94
        3
 73
     0
 74
     0
 95
       44
 96
       40
 40
0.0
 40
0.0
 40
0.0
 40
0.0
 40
1.0
 40
1.0
 40
1.0
 40
2.0
 40
2.0
 40
2.0
 40
3.0
 40
3.0
 40
3.0
 40
4.0
 40
4.0
 40
4.0
 40
5.0
 40
5.0
 40
5.0
 40
6.0
 40
6.0
 40
6.0
 40
7.0
 40
7.0
 40
7.0
 40
8.0
 40
8.0
 40
8.0
 40
9.0
 40
9.0
 40
9.0
 40
10.0
 40
10.0
 40
10.0
 40
11.0
 40
11.0
 40
11.0
 40
12.0
 40
12.0
 40
12.0
 40
13.0
 40
13.0
 40
13.0
 40
13.0
 10
113.5940999064973
 20
-139.6567640167351
 10
113.3763698718295
 20
-139.8154106638308
 10
113.2833522937277
 20
-139.8894802167637
 10
113.2344319378372
 20
-140.0333129532729
 10
113.2344319378372
 20
-140.0333129532729
 10
114.0130235175037
 20
-140.0333129532729
 10
114.0130235175037
 20
-140.0333129532729
 10
114.0130235175037
 20
-140.0333129532729
 10
114.0130235175037
 20
-140.2384683894195
 10
114.0130235175037
 20
-140.2384683894195
 10
114.0130235175037
 20
-140.2384683894195
 10
112.9850070247051
 20
-140.2384683894195
 10
112.9850070247051
 20
-140.2384683894195
 10
113.0167019031694
 20
-139.8808674780506
 10
113.0821587173892
 20
-139.8026638105354
 10
113.4673203926401
 20
-139.5043185415128
 10
113.7232909871942
 20
-139.3055365320139
 10
113.7887478014139
 20
-139.2378404057287
 10
113.7887478014139
 20
-139.1003810958673
 10
113.7887478014139
 20
-138.9818698111747
 10
113.7167453057722
 20
-138.8507839279609
 10
113.5200303535644
 20
-138.8507839279609
 10
113.2599256444281
 20
-138.8507839279609
 10
113.2513129057149
 20
-139.0812608159241
 10
113.2471787911326
 20
-139.1977050433256
 10
113.2471787911326
 20
-139.1977050433256
 10
113.0229030750429
 20
-139.1977050433256
 10
113.0229030750429
 20
-139.1977050433256
 10
113.031515813756
 20
-139.0707532746941
 10
113.0421956097602
 20
-138.9586154166492
 10
113.1224663345666
 20
-138.8401041319566
 10
113.2323648805461
 20
-138.6793904275697
 10
113.4187445462981
 20
-138.64545623704
 10
113.534844264151
 20
-138.64545623704
 10
113.8121744507136
 20
-138.64545623704
 10
114.0195691989256
 20
-138.8295965907266
 10
114.0195691989256
 20
-139.1024481531584
 10
114.0195691989256
 20
-139.3308579838305
 10
113.9031249715242
 20
-139.4304212433542
 10
113.5940999064973
 20
-139.6567640167351
 97
        0
 97
        1
330
BB
 75
     2
 76
     1
 98
        1
 10
0.0
 20
0.0
450
        0
451
        0
460
0.0
461
0.0
452
        0
462
0.0
453
        0
470

  0
SPLINE
  5
BD
330
B7
100
AcDbEntity
  8
レイヤー 1
100
AcDbSpline
210
0.0
220
0.0
230
1.0
 70
    11
 71
     3
 72
    26
 73
    22
 74
     0
 42
0.0000000001
 43
0.0000000001
 40
0.0
 40
0.0
 40
0.0
 40
0.0
 40
1.0
 40
1.0
 40
1.0
 40
2.0
 40
2.0
 40
2.0
 40
3.0
 40
3.0
 40
3.0
 40
4.0
 40
4.0
 40
4.0
 40
5.0
 40
5.0
 40
5.0
 40
6.0
 40
6.0
 40
6.0
 40
7.0
 40
7.0
 40
7.0
 40
7.0
 10
114.6293510998149
 20
-140.2384683894195
 30
0.0
 10
114.6293510998149
 20
-140.2384683894195
 30
0.0
 10
114.6293510998149
 20
-139.1341430316227
 30
0.0
 10
114.6293510998149
 20
-139.1341430316227
 30
0.0
 10
114.6293510998149
 20
-139.1341430316227
 30
0.0
 10
114.2993109523279
 20
-139.1341430316227
 30
0.0
 10
114.2993109523279
 20
-139.1341430316227
 30
0.0
 10
114.2993109523279
 20
-139.1341430316227
 30
0.0
 10
114.2993109523279
 20
-138.9861761805312
 30
0.0
 10
114.2993109523279
 20
-138.9861761805312
 30
0.0
 10
114.631418157106
 20
-138.9713622699447
 30
0.0
 10
114.6779269461569
 20
-138.8084092534923
 30
0.0
 10
114.70755476733
 20
-138.6942043381563
 30
0.0
 10
114.70755476733
 20
-138.6942043381563
 30
0.0
 10
114.8536268159046
 20
-138.6942043381563
 30
0.0
 10
114.8536268159046
 20
-138.6942043381563
 30
0.0
 10
114.8536268159046
 20
-138.6942043381563
 30
0.0
 10
114.8536268159046
 20
-140.2384683894195
 30
0.0
 10
114.8536268159046
 20
-140.2384683894195
 30
0.0
 10
114.8536268159046
 20
-140.2384683894195
 30
0.0
 10
114.6293510998149
 20
-140.2384683894195
 30
0.0
 10
114.6293510998149
 20
-140.2384683894195
 30
0.0
  0
HATCH
  5
BE
330
B7
100
AcDbEntity
  8
レイヤー 1
 62
   250
420
  2299925
440
 33554687
100
AcDbHatch
 10
0.0
 20
0.0
 30
0.0
210
0.0
220
0.0
230
1.0
  2
SOLID
 70
     1
 71
     1
 91
        1
 92
        1
 93
        1
 72
     4
 94
        3
 73
     0
 74
     0
 95
       26
 96
       22
 40
0.0
 40
0.0
 40
0.0
 40
0.0
 40
1.0
 40
1.0
 40
1.0
 40
2.0
 40
2.0
 40
2.0
 40
3.0
 40
3.0
 40
3.0
 40
4.0
 40
4.0
 40
4.0
 40
5.0
 40
5.0
 40
5.0
 40
6.0
 40
6.0
 40
6.0
 40
7.0
 40
7.0
 40
7.0
 40
7.0
 10
114.6293510998149
 20
-140.2384683894195
 10
114.6293510998149
 20
-140.2384683894195
 10
114.6293510998149
 20
-139.1341430316227
 10
114.6293510998149
 20
-139.1341430316227
 10
114.6293510998149
 20
-139.1341430316227
 10
114.2993109523279
 20
-139.1341430316227
 10
114.2993109523279
 20
-139.1341430316227
 10
114.2993109523279
 20
-139.1341430316227
 10
114.2993109523279
 20
-138.9861761805312
 10
114.2993109523279
 20
-138.9861761805312
 10
114.631418157106
 20
-138.9713622699447
 10
114.6779269461569
 20
-138.8084092534923
 10
114.70755476733
 20
-138.6942043381563
 10
114.70755476733
 20
-138.6942043381563
 10
114.8536268159046
 20
-138.6942043381563
 10
114.8536268159046
 20
-138.6942043381563
 10
114.8536268159046
 20
-138.6942043381563
 10
114.8536268159046
 20
-140.2384683894195
 10
114.8536268159046
 20
-140.2384683894195
 10
114.8536268159046
 20
-140.2384683894195
 10
114.6293510998149
 20
-140.2384683894195
 10
114.6293510998149
 20
-140.2384683894195
 97
        0
 97
        1
330
BD
 75
     2
 76
     1
 98
        1
 10
0.0
 20
0.0
450
        0
451
        0
460
0.0
461
0.0
452
        0
462
0.0
453
        0
470

  0
ENDBLK
  5
BA
330
B7
100
AcDbEntity
  8
0
100
AcDbBlockEnd
  0
BLOCK
  5
C4
330
C2
100
AcDbEntity
  8
0
100
AcDbBlockBegin
  2
Block_8
 70
     0
 10
0.0
 20
0.0
 30
0.0
  3
Block_8
  1

  0
SPLINE
  5
C6
330
C2
100
AcDbEntity
  8
レイヤー 1
100
AcDbSpline
210
0.0
220
0.0
230
1.0
 70
     9
 71
     3
 72
    44
 73
    40
 74
     0
 42
0.0000000001
 43
0.0000000001
 40
0.0
 40
0.0
 40
0.0
 40
0.0
 40
1.0
 40
1.0
 40
1.0
 40
2.0
 40
2.0
 40
2.0
 40
3.0
 40
3.0
 40
3.0
 40
4.0
 40
4.0
 40
4.0
 40
5.0
 40
5.0
 40
5.0
 40
6.0
 40
6.0
 40
6.0
 40
7.0
 40
7.0
 40
7.0
 40
8.0
 40
8.0
 40
8.0
 40
9.0
 40
9.0
 40
9.0
 40
10.0
 40
10.0
 40
10.0
 40
11.0
 40
11.0
 40
11.0
 40
12.0
 40
12.0
 40
12.0
 40
13.0
 40
13.0
 40
13.0
 40
13.0
 10
102.7599636244836
 20
-139.6571085262836
 30
0.0
 10
102.5420613350416
 20
-139.8157551733794
 30
0.0
 10
102.4488715021655
 20
-139.8898247263122
 30
0.0
 10
102.4002956558235
 20
-140.0336574628214
 30
0.0
 10
102.4002956558235
 20
-140.0336574628214
 30
0.0
 10
103.1787149807157
 20
-140.0336574628214
 30
0.0
 10
103.1787149807157
 20
-140.0336574628214
 30
0.0
 10
103.1787149807157
 20
-140.0336574628214
 30
0.0
 10
103.1787149807157
 20
-140.2388128989681
 30
0.0
 10
103.1787149807157
 20
-140.2388128989681
 30
0.0
 10
103.1787149807157
 20
-140.2388128989681
 30
0.0
 10
102.1506984879172
 20
-140.2388128989681
 30
0.0
 10
102.1506984879172
 20
-140.2388128989681
 30
0.0
 10
102.1823933663815
 20
-139.8812119875991
 30
0.0
 10
102.2480224353755
 20
-139.803008320084
 30
0.0
 10
102.6330118558522
 20
-139.5046630510613
 30
0.0
 10
102.8889824504062
 20
-139.3058810415624
 30
0.0
 10
102.9544392646259
 20
-139.2381849152772
 30
0.0
 10
102.9544392646259
 20
-139.1007256054158
 30
0.0
 10
102.9544392646259
 20
-138.9822143207232
 30
0.0
 10
102.8826090237585
 20
-138.8511284375094
 30
0.0
 10
102.6858940715507
 20
-138.8511284375094
 30
0.0
 10
102.4256171076401
 20
-138.8511284375094
 30
0.0
 10
102.4171766237012
 20
-139.0816053254726
 30
0.0
 10
102.4128702543447
 20
-139.1980495528741
 30
0.0
 10
102.4128702543447
 20
-139.1980495528741
 30
0.0
 10
102.1887667930292
 20
-139.1980495528741
 30
0.0
 10
102.1887667930292
 20
-139.1980495528741
 30
0.0
 10
102.197207276968
 20
-139.0710977842426
 30
0.0
 10
102.2077148181981
 20
-138.9589599261977
 30
0.0
 10
102.2881577977786
 20
-138.8404486415051
 30
0.0
 10
102.3980563437581
 20
-138.6797349371182
 30
0.0
 10
102.5842637547359
 20
-138.6458007465885
 30
0.0
 10
102.7007079821373
 20
-138.6458007465885
 30
0.0
 10
102.9778659139257
 20
-138.6458007465885
 30
0.0
 10
103.1850884073634
 20
-138.8299411002751
 30
0.0
 10
103.1850884073634
 20
-139.1027926627069
 30
0.0
 10
103.1850884073634
 20
-139.331202493379
 30
0.0
 10
103.0688164347363
 20
-139.4307657529027
 30
0.0
 10
102.7599636244836
 20
-139.6571085262836
 30
0.0
  0
HATCH
  5
C7
330
C2
100
AcDbEntity
  8
レイヤー 1
 62
   250
420
  2299925
440
 33554687
100
AcDbHatch
 10
0.0
 20
0.0
 30
0.0
210
0.0
220
0.0
230
1.0
  2
SOLID
 70
     1
 71
     1
 91
        1
 92
        1
 93
        1
 72
     4
 94
        3
 73
     0
 74
     0
 95
       44
 96
       40
 40
0.0
 40
0.0
 40
0.0
 40
0.0
 40
1.0
 40
1.0
 40
1.0
 40
2.0
 40
2.0
 40
2.0
 40
3.0
 40
3.0
 40
3.0
 40
4.0
 40
4.0
 40
4.0
 40
5.0
 40
5.0
 40
5.0
 40
6.0
 40
6.0
 40
6.0
 40
7.0
 40
7.0
 40
7.0
 40
8.0
 40
8.0
 40
8.0
 40
9.0
 40
9.0
 40
9.0
 40
10.0
 40
10.0
 40
10.0
 40
11.0
 40
11.0
 40
11.0
 40
12.0
 40
12.0
 40
12.0
 40
13.0
 40
13.0
 40
13.0
 40
13.0
 10
102.7599636244836
 20
-139.6571085262836
 10
102.5420613350416
 20
-139.8157551733794
 10
102.4488715021655
 20
-139.8898247263122
 10
102.4002956558235
 20
-140.0336574628214
 10
102.4002956558235
 20
-140.0336574628214
 10
103.1787149807157
 20
-140.0336574628214
 10
103.1787149807157
 20
-140.0336574628214
 10
103.1787149807157
 20
-140.0336574628214
 10
103.1787149807157
 20
-140.2388128989681
 10
103.1787149807157
 20
-140.2388128989681
 10
103.1787149807157
 20
-140.2388128989681
 10
102.1506984879172
 20
-140.2388128989681
 10
102.1506984879172
 20
-140.2388128989681
 10
102.1823933663815
 20
-139.8812119875991
 10
102.2480224353755
 20
-139.803008320084
 10
102.6330118558522
 20
-139.5046630510613
 10
102.8889824504062
 20
-139.3058810415624
 10
102.9544392646259
 20
-139.2381849152772
 10
102.9544392646259
 20
-139.1007256054158
 10
102.9544392646259
 20
-138.9822143207232
 10
102.8826090237585
 20
-138.8511284375094
 10
102.6858940715507
 20
-138.8511284375094
 10
102.4256171076401
 20
-138.8511284375094
 10
102.4171766237012
 20
-139.0816053254726
 10
102.4128702543447
 20
-139.1980495528741
 10
102.4128702543447
 20
-139.1980495528741
 10
102.1887667930292
 20
-139.1980495528741
 10
102.1887667930292
 20
-139.1980495528741
 10
102.197207276968
 20
-139.0710977842426
 10
102.2077148181981
 20
-138.9589599261977
 10
102.2881577977786
 20
-138.8404486415051
 10
102.3980563437581
 20
-138.6797349371182
 10
102.5842637547359
 20
-138.6458007465885
 10
102.7007079821373
 20
-138.6458007465885
 10
102.9778659139257
 20
-138.6458007465885
 10
103.1850884073634
 20
-138.8299411002751
 10
103.1850884073634
 20
-139.1027926627069
 10
103.1850884073634
 20
-139.331202493379
 10
103.0688164347363
 20
-139.4307657529027
 10
102.7599636244836
 20
-139.6571085262836
 97
        0
 97
        1
330
C6
 75
     2
 76
     1
 98
        1
 10
0.0
 20
0.0
450
        0
451
        0
460
0.0
461
0.0
452
        0
462
0.0
453
        0
470

  0
ENDBLK
  5
C5
330
C2
100
AcDbEntity
  8
0
100
AcDbBlockEnd
  0
BLOCK
  5
CD
330
CB
100
AcDbEntity
  8
0
100
AcDbBlockBegin
  2
Block_9
 70
     0
 10
0.0
 20
0.0
 30
0.0
  3
Block_9
  1

  0
SPLINE
  5
CF
330
CB
100
AcDbEntity
  8
レイヤー 1
100
AcDbSpline
210
0.0
220
0.0
230
1.0
 70
    11
 71
     3
 72
    14
 73
    10
 74
     0
 42
0.0000000001
 43
0.0000000001
 40
0.0
 40
0.0
 40
0.0
 40
0.0
 40
1.0
 40
1.0
 40
1.0
 40
2.0
 40
2.0
 40
2.0
 40
3.0
 40
3.0
 40
3.0
 40
3.0
 10
102.7809787069436
 20
-156.2991590321057
 30
0.0
 10
102.7809787069436
 20
-156.2991590321057
 30
0.0
 10
102.3241590455995
 20
-156.9551052124973
 30
0.0
 10
102.3241590455995
 20
-156.9551052124973
 30
0.0
 10
102.3241590455995
 20
-156.9551052124973
 30
0.0
 10
102.7809787069436
 20
-156.9551052124973
 30
0.0
 10
102.7809787069436
 20
-156.9551052124973
 30
0.0
 10
102.7809787069436
 20
-156.9551052124973
 30
0.0
 10
102.7809787069436
 20
-156.2991590321057
 30
0.0
 10
102.7809787069436
 20
-156.2991590321057
 30
0.0
  0
SPLINE
  5
D0
330
CB
100
AcDbEntity
  8
レイヤー 1
100
AcDbSpline
210
0.0
220
0.0
230
1.0
 70
    11
 71
     3
 72
    38
 73
    34
 74
     0
 42
0.0000000001
 43
0.0000000001
 40
0.0
 40
0.0
 40
0.0
 40
0.0
 40
1.0
 40
1.0
 40
1.0
 40
2.0
 40
2.0
 40
2.0
 40
3.0
 40
3.0
 40
3.0
 40
4.0
 40
4.0
 40
4.0
 40
5.0
 40
5.0
 40
5.0
 40
6.0
 40
6.0
 40
6.0
 40
7.0
 40
7.0
 40
7.0
 40
8.0
 40
8.0
 40
8.0
 40
9.0
 40
9.0
 40
9.0
 40
10.0
 40
10.0
 40
10.0
 40
11.0
 40
11.0
 40
11.0
 40
11.0
 10
102.9988809963857
 20
-157.1538872219962
 30
0.0
 10
102.9988809963857
 20
-157.1538872219962
 30
0.0
 10
102.9988809963857
 20
-157.5008083373609
 30
0.0
 10
102.9988809963857
 20
-157.5008083373609
 30
0.0
 10
102.9988809963857
 20
-157.5008083373609
 30
0.0
 10
102.7809787069436
 20
-157.5008083373609
 30
0.0
 10
102.7809787069436
 20
-157.5008083373609
 30
0.0
 10
102.7809787069436
 20
-157.5008083373609
 30
0.0
 10
102.7809787069436
 20
-157.1538872219962
 30
0.0
 10
102.7809787069436
 20
-157.1538872219962
 30
0.0
 10
102.7809787069436
 20
-157.1538872219962
 30
0.0
 10
102.1252047813263
 20
-157.1538872219962
 30
0.0
 10
102.1252047813263
 20
-157.1538872219962
 30
0.0
 10
102.1252047813263
 20
-157.1538872219962
 30
0.0
 10
102.1252047813263
 20
-156.9296115059065
 30
0.0
 10
102.1252047813263
 20
-156.9296115059065
 30
0.0
 10
102.1252047813263
 20
-156.9296115059065
 30
0.0
 10
102.8042331014691
 20
-155.9563720313234
 30
0.0
 10
102.8042331014691
 20
-155.9563720313234
 30
0.0
 10
102.8042331014691
 20
-155.9563720313234
 30
0.0
 10
102.9988809963857
 20
-155.9563720313234
 30
0.0
 10
102.9988809963857
 20
-155.9563720313234
 30
0.0
 10
102.9988809963857
 20
-155.9563720313234
 30
0.0
 10
102.9988809963857
 20
-156.9551052124973
 30
0.0
 10
102.9988809963857
 20
-156.9551052124973
 30
0.0
 10
102.9988809963857
 20
-156.9551052124973
 30
0.0
 10
103.2062757445977
 20
-156.9551052124973
 30
0.0
 10
103.2062757445977
 20
-156.9551052124973
 30
0.0
 10
103.2062757445977
 20
-156.9551052124973
 30
0.0
 10
103.2062757445977
 20
-157.1538872219962
 30
0.0
 10
103.2062757445977
 20
-157.1538872219962
 30
0.0
 10
103.2062757445977
 20
-157.1538872219962
 30
0.0
 10
102.9988809963857
 20
-157.1538872219962
 30
0.0
 10
102.9988809963857
 20
-157.1538872219962
 30
0.0
  0
HATCH
  5
D1
330
CB
100
AcDbEntity
  8
レイヤー 1
 62
   250
420
  2299925
440
 33554687
100
AcDbHatch
 10
0.0
 20
0.0
 30
0.0
210
0.0
220
0.0
230
1.0
  2
SOLID
 70
     1
 71
     1
 91
        2
 92
        1
 93
        1
 72
     4
 94
        3
 73
     0
 74
     0
 95
       14
 96
       10
 40
0.0
 40
0.0
 40
0.0
 40
0.0
 40
1.0
 40
1.0
 40
1.0
 40
2.0
 40
2.0
 40
2.0
 40
3.0
 40
3.0
 40
3.0
 40
3.0
 10
102.7809787069436
 20
-156.2991590321057
 10
102.7809787069436
 20
-156.2991590321057
 10
102.3241590455995
 20
-156.9551052124973
 10
102.3241590455995
 20
-156.9551052124973
 10
102.3241590455995
 20
-156.9551052124973
 10
102.7809787069436
 20
-156.9551052124973
 10
102.7809787069436
 20
-156.9551052124973
 10
102.7809787069436
 20
-156.9551052124973
 10
102.7809787069436
 20
-156.2991590321057
 10
102.7809787069436
 20
-156.2991590321057
 97
        0
 97
        1
330
CF
 92
        1
 93
        1
 72
     4
 94
        3
 73
     0
 74
     0
 95
       38
 96
       34
 40
0.0
 40
0.0
 40
0.0
 40
0.0
 40
1.0
 40
1.0
 40
1.0
 40
2.0
 40
2.0
 40
2.0
 40
3.0
 40
3.0
 40
3.0
 40
4.0
 40
4.0
 40
4.0
 40
5.0
 40
5.0
 40
5.0
 40
6.0
 40
6.0
 40
6.0
 40
7.0
 40
7.0
 40
7.0
 40
8.0
 40
8.0
 40
8.0
 40
9.0
 40
9.0
 40
9.0
 40
10.0
 40
10.0
 40
10.0
 40
11.0
 40
11.0
 40
11.0
 40
11.0
 10
102.9988809963857
 20
-157.1538872219962
 10
102.9988809963857
 20
-157.1538872219962
 10
102.9988809963857
 20
-157.5008083373609
 10
102.9988809963857
 20
-157.5008083373609
 10
102.9988809963857
 20
-157.5008083373609
 10
102.7809787069436
 20
-157.5008083373609
 10
102.7809787069436
 20
-157.5008083373609
 10
102.7809787069436
 20
-157.5008083373609
 10
102.7809787069436
 20
-157.1538872219962
 10
102.7809787069436
 20
-157.1538872219962
 10
102.7809787069436
 20
-157.1538872219962
 10
102.1252047813263
 20
-157.1538872219962
 10
102.1252047813263
 20
-157.1538872219962
 10
102.1252047813263
 20
-157.1538872219962
 10
102.1252047813263
 20
-156.9296115059065
 10
102.1252047813263
 20
-156.9296115059065
 10
102.1252047813263
 20
-156.9296115059065
 10
102.8042331014691
 20
-155.9563720313234
 10
102.8042331014691
 20
-155.9563720313234
 10
102.8042331014691
 20
-155.9563720313234
 10
102.9988809963857
 20
-155.9563720313234
 10
102.9988809963857
 20
-155.9563720313234
 10
102.9988809963857
 20
-155.9563720313234
 10
102.9988809963857
 20
-156.9551052124973
 10
102.9988809963857
 20
-156.9551052124973
 10
102.9988809963857
 20
-156.9551052124973
 10
103.2062757445977
 20
-156.9551052124973
 10
103.2062757445977
 20
-156.9551052124973
 10
103.2062757445977
 20
-156.9551052124973
 10
103.2062757445977
 20
-157.1538872219962
 10
103.2062757445977
 20
-157.1538872219962
 10
103.2062757445977
 20
-157.1538872219962
 10
102.9988809963857
 20
-157.1538872219962
 10
102.9988809963857
 20
-157.1538872219962
 97
        0
 97
        1
330
D0
 75
     2
 76
     1
 98
        1
 10
0.0
 20
0.0
450
        0
451
        0
460
0.0
461
0.0
452
        0
462
0.0
453
        0
470

  0
ENDBLK
  5
CE
330
CB
100
AcDbEntity
  8
0
100
AcDbBlockEnd
  0
BLOCK
  5
D5
330
D3
100
AcDbEntity
  8
0
100
AcDbBlockBegin
  2
Block_10
 70
     0
 10
0.0
 20
0.0
 30
0.0
  3
Block_10
  1

  0
SPLINE
  5
D7
330
D3
100
AcDbEntity
  8
レイヤー 1
100
AcDbSpline
210
0.0
220
0.0
230
1.0
 70
    11
 71
     3
 72
    26
 73
    22
 74
     0
 42
0.0000000001
 43
0.0000000001
 40
0.0
 40
0.0
 40
0.0
 40
0.0
 40
1.0
 40
1.0
 40
1.0
 40
2.0
 40
2.0
 40
2.0
 40
3.0
 40
3.0
 40
3.0
 40
4.0
 40
4.0
 40
4.0
 40
5.0
 40
5.0
 40
5.0
 40
6.0
 40
6.0
 40
6.0
 40
7.0
 40
7.0
 40
7.0
 40
7.0
 10
107.7498399253195
 20
-150.221321577028
 30
0.0
 10
107.7498399253195
 20
-150.221321577028
 30
0.0
 10
107.7498399253195
 20
-149.1171684740054
 30
0.0
 10
107.7498399253195
 20
-149.1171684740054
 30
0.0
 10
107.7498399253195
 20
-149.1171684740054
 30
0.0
 10
107.4197997778325
 20
-149.1171684740054
 30
0.0
 10
107.4197997778325
 20
-149.1171684740054
 30
0.0
 10
107.4197997778325
 20
-149.1171684740054
 30
0.0
 10
107.4197997778325
 20
-148.9690293681397
 30
0.0
 10
107.4197997778325
 20
-148.9690293681397
 30
0.0
 10
107.7519069826106
 20
-148.9542154575531
 30
0.0
 10
107.7984157716615
 20
-148.7914346958751
 30
0.0
 10
107.8280435928346
 20
-148.677229780539
 30
0.0
 10
107.8280435928346
 20
-148.677229780539
 30
0.0
 10
107.9741156414092
 20
-148.677229780539
 30
0.0
 10
107.9741156414092
 20
-148.677229780539
 30
0.0
 10
107.9741156414092
 20
-148.677229780539
 30
0.0
 10
107.9741156414092
 20
-150.221321577028
 30
0.0
 10
107.9741156414092
 20
-150.221321577028
 30
0.0
 10
107.9741156414092
 20
-150.221321577028
 30
0.0
 10
107.7498399253195
 20
-150.221321577028
 30
0.0
 10
107.7498399253195
 20
-150.221321577028
 30
0.0
  0
HATCH
  5
D8
330
D3
100
AcDbEntity
  8
レイヤー 1
 62
   250
420
  2299925
440
 33554687
100
AcDbHatch
 10
0.0
 20
0.0
 30
0.0
210
0.0
220
0.0
230
1.0
  2
SOLID
 70
     1
 71
     1
 91
        1
 92
        1
 93
        1
 72
     4
 94
        3
 73
     0
 74
     0
 95
       26
 96
       22
 40
0.0
 40
0.0
 40
0.0
 40
0.0
 40
1.0
 40
1.0
 40
1.0
 40
2.0
 40
2.0
 40
2.0
 40
3.0
 40
3.0
 40
3.0
 40
4.0
 40
4.0
 40
4.0
 40
5.0
 40
5.0
 40
5.0
 40
6.0
 40
6.0
 40
6.0
 40
7.0
 40
7.0
 40
7.0
 40
7.0
 10
107.7498399253195
 20
-150.221321577028
 10
107.7498399253195
 20
-150.221321577028
 10
107.7498399253195
 20
-149.1171684740054
 10
107.7498399253195
 20
-149.1171684740054
 10
107.7498399253195
 20
-149.1171684740054
 10
107.4197997778325
 20
-149.1171684740054
 10
107.4197997778325
 20
-149.1171684740054
 10
107.4197997778325
 20
-149.1171684740054
 10
107.4197997778325
 20
-148.9690293681397
 10
107.4197997778325
 20
-148.9690293681397
 10
107.7519069826106
 20
-148.9542154575531
 10
107.7984157716615
 20
-148.7914346958751
 10
107.8280435928346
 20
-148.677229780539
 10
107.8280435928346
 20
-148.677229780539
 10
107.9741156414092
 20
-148.677229780539
 10
107.9741156414092
 20
-148.677229780539
 10
107.9741156414092
 20
-148.677229780539
 10
107.9741156414092
 20
-150.221321577028
 10
107.9741156414092
 20
-150.221321577028
 10
107.9741156414092
 20
-150.221321577028
 10
107.7498399253195
 20
-150.221321577028
 10
107.7498399253195
 20
-150.221321577028
 97
        0
 97
        1
330
D7
 75
     2
 76
     1
 98
        1
 10
0.0
 20
0.0
450
        0
451
        0
460
0.0
461
0.0
452
        0
462
0.0
453
        0
470

  0
ENDBLK
  5
D6
330
D3
100
AcDbEntity
  8
0
100
AcDbBlockEnd
  0
BLOCK
  5
DF
330
DD
100
AcDbEntity
  8
0
100
AcDbBlockBegin
  2
Block_11
 70
     0
 10
0.0
 20
0.0
 30
0.0
  3
Block_11
  1

  0
INSERT
  5
E2
330
DD
100
AcDbEntity
  8
レイヤー 1
100
AcDbBlockReference
  2
Block_12
 10
0.0
 20
0.0
 30
0.0
  0
INSERT
  5
E9
330
DD
100
AcDbEntity
  8
レイヤー 1
100
AcDbBlockReference
  2
Block_13
 10
0.0
 20
0.0
 30
0.0
  0
ENDBLK
  5
E0
330
DD
100
AcDbEntity
  8
0
100
AcDbBlockEnd
  0
BLOCK
  5
E3
330
E1
100
AcDbEntity
  8
0
100
AcDbBlockBegin
  2
Block_12
 70
     0
 10
0.0
 20
0.0
 30
0.0
  3
Block_12
  1

  0
LINE
  5
E5
330
E1
100
AcDbEntity
  8
レイヤー 1
 62
    18
420
        0
370
     9
100
AcDbLine
 10
119.2514118447032
 20
-147.0087362741332
 30
0.0
 11
120.062730157338
 21
-147.593712385098
 31
0.0
  0
LINE
  5
E6
330
E1
100
AcDbEntity
  8
レイヤー 1
 62
    18
420
        0
370
     9
100
AcDbLine
 10
119.2514118447032
 20
-147.0087362741332
 30
0.0
 11
121.8290531678309
 21
-150.1658151622325
 31
0.0
  0
LINE
  5
E7
330
E1
100
AcDbEntity
  8
レイヤー 1
 62
    18
420
        0
370
     9
100
AcDbLine
 10
119.2514118447032
 20
-147.0087362741332
 30
0.0
 11
119.6617276675685
 21
-147.9209843294607
 31
0.0
  0
ENDBLK
  5
E4
330
E1
100
AcDbEntity
  8
0
100
AcDbBlockEnd
  0
BLOCK
  5
EA
330
E8
100
AcDbEntity
  8
0
100
AcDbBlockBegin
  2
Block_13
 70
     0
 10
0.0
 20
0.0
 30
0.0
  3
Block_13
  1

  0
INSERT
  5
ED
330
E8
100
AcDbEntity
  8
レイヤー 1
100
AcDbBlockReference
  2
Block_14
 10
0.0
 20
0.0
 30
0.0
  0
ENDBLK
  5
EB
330
E8
100
AcDbEntity
  8
0
100
AcDbBlockEnd
  0
BLOCK
  5
EE
330
EC
100
AcDbEntity
  8
0
100
AcDbBlockBegin
  2
Block_14
 70
     0
 10
0.0
 20
0.0
 30
0.0
  3
Block_14
  1

  0
SPLINE
  5
F0
330
EC
100
AcDbEntity
  8
レイヤー 1
100
AcDbSpline
210
0.0
220
0.0
230
1.0
 70
     9
 71
     3
 72
    17
 73
    13
 74
     0
 42
0.0000000001
 43
0.0000000001
 40
0.0
 40
0.0
 40
0.0
 40
0.0
 40
1.0
 40
1.0
 40
1.0
 40
2.0
 40
2.0
 40
2.0
 40
3.0
 40
3.0
 40
3.0
 40
4.0
 40
4.0
 40
4.0
 40
4.0
 10
123.4956488406538
 20
-150.6133734432494
 30
0.0
 10
123.4787678727761
 20
-150.6430012644226
 30
0.0
 10
123.4281249691429
 20
-150.7360188425243
 30
0.0
 10
123.4174451731387
 20
-150.7549668676932
 30
0.0
 10
123.607958953473
 20
-150.8142225100395
 30
0.0
 10
123.628974035933
 20
-150.8207681914614
 30
0.0
 10
123.7009765315747
 20
-150.8479844457949
 30
0.0
 10
123.7557535497902
 20
-150.7615125491152
 30
0.0
 10
123.7791801990899
 20
-150.6874429961823
 30
0.0
 10
123.7939941096765
 20
-150.6133734432494
 30
0.0
 10
123.7939941096765
 20
-150.6133734432494
 30
0.0
 10
123.4956488406538
 20
-150.6133734432494
 30
0.0
 10
123.4956488406538
 20
-150.6133734432494
 30
0.0
  0
SPLINE
  5
F1
330
EC
100
AcDbEntity
  8
レイヤー 1
100
AcDbSpline
210
0.0
220
0.0
230
1.0
 70
    11
 71
     3
 72
    20
 73
    16
 74
     0
 42
0.0000000001
 43
0.0000000001
 40
0.0
 40
0.0
 40
0.0
 40
0.0
 40
1.0
 40
1.0
 40
1.0
 40
2.0
 40
2.0
 40
2.0
 40
3.0
 40
3.0
 40
3.0
 40
4.0
 40
4.0
 40
4.0
 40
5.0
 40
5.0
 40
5.0
 40
5.0
 10
123.4322590837253
 20
-149.7627793679412
 30
0.0
 10
123.4322590837253
 20
-149.7627793679412
 30
0.0
 10
123.4005642052609
 20
-149.7627793679412
 30
0.0
 10
123.4005642052609
 20
-149.7627793679412
 30
0.0
 10
123.4470729943118
 20
-149.862342627465
 30
0.0
 10
123.4787678727761
 20
-149.9426133522713
 30
0.0
 10
123.5125298085316
 20
-150.069737375677
 30
0.0
 10
123.5125298085316
 20
-150.069737375677
 30
0.0
 10
123.7199245567436
 20
-150.069737375677
 30
0.0
 10
123.7199245567436
 20
-150.069737375677
 30
0.0
 10
123.7516194352079
 20
-149.9767197975752
 30
0.0
 10
123.7750460845076
 20
-149.8919704486381
 30
0.0
 10
123.7981282242588
 20
-149.7627793679412
 30
0.0
 10
123.7981282242588
 20
-149.7627793679412
 30
0.0
 10
123.4322590837253
 20
-149.7627793679412
 30
0.0
 10
123.4322590837253
 20
-149.7627793679412
 30
0.0
  0
SPLINE
  5
F2
330
EC
100
AcDbEntity
  8
レイヤー 1
100
AcDbSpline
210
0.0
220
0.0
230
1.0
 70
     9
 71
     3
 72
   242
 73
   238
 74
     0
 42
0.0000000001
 43
0.0000000001
 40
0.0
 40
0.0
 40
0.0
 40
0.0
 40
1.0
 40
1.0
 40
1.0
 40
2.0
 40
2.0
 40
2.0
 40
3.0
 40
3.0
 40
3.0
 40
4.0
 40
4.0
 40
4.0
 40
5.0
 40
5.0
 40
5.0
 40
6.0
 40
6.0
 40
6.0
 40
7.0
 40
7.0
 40
7.0
 40
8.0
 40
8.0
 40
8.0
 40
9.0
 40
9.0
 40
9.0
 40
10.0
 40
10.0
 40
10.0
 40
11.0
 40
11.0
 40
11.0
 40
12.0
 40
12.0
 40
12.0
 40
13.0
 40
13.0
 40
13.0
 40
14.0
 40
14.0
 40
14.0
 40
15.0
 40
15.0
 40
15.0
 40
16.0
 40
16.0
 40
16.0
 40
17.0
 40
17.0
 40
17.0
 40
18.0
 40
18.0
 40
18.0
 40
19.0
 40
19.0
 40
19.0
 40
20.0
 40
20.0
 40
20.0
 40
21.0
 40
21.0
 40
21.0
 40
22.0
 40
22.0
 40
22.0
 40
23.0
 40
23.0
 40
23.0
 40
24.0
 40
24.0
 40
24.0
 40
25.0
 40
25.0
 40
25.0
 40
26.0
 40
26.0
 40
26.0
 40
27.0
 40
27.0
 40
27.0
 40
28.0
 40
28.0
 40
28.0
 40
29.0
 40
29.0
 40
29.0
 40
30.0
 40
30.0
 40
30.0
 40
31.0
 40
31.0
 40
31.0
 40
32.0
 40
32.0
 40
32.0
 40
33.0
 40
33.0
 40
33.0
 40
34.0
 40
34.0
 40
34.0
 40
35.0
 40
35.0
 40
35.0
 40
36.0
 40
36.0
 40
36.0
 40
37.0
 40
37.0
 40
37.0
 40
38.0
 40
38.0
 40
38.0
 40
39.0
 40
39.0
 40
39.0
 40
40.0
 40
40.0
 40
40.0
 40
41.0
 40
41.0
 40
41.0
 40
42.0
 40
42.0
 40
42.0
 40
43.0
 40
43.0
 40
43.0
 40
44.0
 40
44.0
 40
44.0
 40
45.0
 40
45.0
 40
45.0
 40
46.0
 40
46.0
 40
46.0
 40
47.0
 40
47.0
 40
47.0
 40
48.0
 40
48.0
 40
48.0
 40
49.0
 40
49.0
 40
49.0
 40
50.0
 40
50.0
 40
50.0
 40
51.0
 40
51.0
 40
51.0
 40
52.0
 40
52.0
 40
52.0
 40
53.0
 40
53.0
 40
53.0
 40
54.0
 40
54.0
 40
54.0
 40
55.0
 40
55.0
 40
55.0
 40
56.0
 40
56.0
 40
56.0
 40
57.0
 40
57.0
 40
57.0
 40
58.0
 40
58.0
 40
58.0
 40
59.0
 40
59.0
 40
59.0
 40
60.0
 40
60.0
 40
60.0
 40
61.0
 40
61.0
 40
61.0
 40
62.0
 40
62.0
 40
62.0
 40
63.0
 40
63.0
 40
63.0
 40
64.0
 40
64.0
 40
64.0
 40
65.0
 40
65.0
 40
65.0
 40
66.0
 40
66.0
 40
66.0
 40
67.0
 40
67.0
 40
67.0
 40
68.0
 40
68.0
 40
68.0
 40
69.0
 40
69.0
 40
69.0
 40
70.0
 40
70.0
 40
70.0
 40
71.0
 40
71.0
 40
71.0
 40
72.0
 40
72.0
 40
72.0
 40
73.0
 40
73.0
 40
73.0
 40
74.0
 40
74.0
 40
74.0
 40
75.0
 40
75.0
 40
75.0
 40
76.0
 40
76.0
 40
76.0
 40
77.0
 40
77.0
 40
77.0
 40
78.0
 40
78.0
 40
78.0
 40
79.0
 40
79.0
 40
79.0
 40
79.0
 10
124.0606445002348
 20
-150.2282117679985
 30
0.0
 10
124.0606445002348
 20
-150.2282117679985
 30
0.0
 10
123.8067409629719
 20
-150.2282117679985
 30
0.0
 10
123.8067409629719
 20
-150.2282117679985
 30
0.0
 10
123.8067409629719
 20
-150.2282117679985
 30
0.0
 10
123.5294107764093
 20
-150.2282117679985
 30
0.0
 10
123.5294107764093
 20
-150.2282117679985
 30
0.0
 10
123.5294107764093
 20
-150.2282117679985
 30
0.0
 10
123.656534799815
 20
-150.2705864424671
 30
0.0
 10
123.656534799815
 20
-150.2705864424671
 30
0.0
 10
123.6672145958193
 20
-150.2747205570494
 30
0.0
 10
123.6796169395662
 20
-150.2812662384713
 30
0.0
 10
123.6796169395662
 20
-150.2940130917667
 30
0.0
 10
123.6796169395662
 20
-150.3150281742268
 30
0.0
 10
123.6479220611019
 20
-150.3212293461002
 30
0.0
 10
123.6269069786419
 20
-150.3257079702311
 30
0.0
 10
123.6162271826376
 20
-150.3487901099822
 30
0.0
 10
123.5865993614644
 20
-150.4145914337505
 30
0.0
 10
123.5676513362956
 20
-150.4590331655102
 30
0.0
 10
123.5676513362956
 20
-150.4590331655102
 30
0.0
 10
123.8384358414362
 20
-150.4590331655102
 30
0.0
 10
123.8384358414362
 20
-150.4590331655102
 30
0.0
 10
123.9293863622468
 20
-150.4590331655102
 30
0.0
 10
124.1261013144546
 20
-150.4545545413794
 30
0.0
 10
124.2676947388983
 20
-150.4462863122148
 30
0.0
 10
124.2676947388983
 20
-150.4462863122148
 30
0.0
 10
124.2676947388983
 20
-150.6240532392537
 30
0.0
 10
124.2676947388983
 20
-150.6240532392537
 30
0.0
 10
124.1853569568009
 20
-150.6195746151229
 30
0.0
 10
124.1643418743408
 20
-150.6195746151229
 30
0.0
 10
123.9845078900108
 20
-150.6154405005406
 30
0.0
 10
123.9528130115465
 20
-150.7697807782798
 30
0.0
 10
123.9083712797868
 20
-150.8503960126346
 30
0.0
 10
123.863929548027
 20
-150.9199869414367
 30
0.0
 10
123.9845078900108
 20
-150.9792425837829
 30
0.0
 10
124.090272321408
 20
-151.0471109648424
 30
0.0
 10
124.193969695514
 20
-151.1294487469398
 30
0.0
 10
124.193969695514
 20
-151.1294487469398
 30
0.0
 10
124.0754584108214
 20
-151.2965358779745
 30
0.0
 10
124.0754584108214
 20
-151.2965358779745
 30
0.0
 10
124.0520317615217
 20
-151.2775878528056
 30
0.0
 10
124.0392849082263
 20
-151.2689751140925
 30
0.0
 10
123.9273193049557
 20
-151.1845702747038
 30
0.0
 10
123.8787434586136
 20
-151.1463297148176
 30
0.0
 10
123.8194878162673
 20
-151.110500721771
 30
0.0
 10
123.7388725819125
 20
-151.0660589900112
 30
0.0
 10
123.5273437191181
 20
-151.2520941462147
 30
0.0
 10
123.3223605377458
 20
-151.2755207955144
 30
0.0
 10
123.0322834978877
 20
-151.3051486166876
 30
0.0
 10
123.0322834978877
 20
-151.3051486166876
 30
0.0
 10
122.9285861237817
 20
-151.1253146323575
 30
0.0
 10
122.9285861237817
 20
-151.1253146323575
 30
0.0
 10
123.2462239275218
 20
-151.1211805177752
 30
0.0
 10
123.421579287721
 20
-151.0956868111844
 30
0.0
 10
123.573852508169
 20
-150.9857882652049
 30
0.0
 10
123.4553412234764
 20
-150.9348008520232
 30
0.0
 10
123.3668022695055
 20
-150.9072400881412
 30
0.0
 10
123.3306287669104
 20
-150.8948377443943
 30
0.0
 10
123.3116807417415
 20
-150.9220539987278
 30
0.0
 10
123.2968668311549
 20
-150.9413465334452
 30
0.0
 10
123.2693060672729
 20
-150.9751084692006
 30
0.0
 10
123.2693060672729
 20
-150.9751084692006
 30
0.0
 10
123.0725911150652
 20
-150.8924261775547
 30
0.0
 10
123.0725911150652
 20
-150.8924261775547
 30
0.0
 10
123.1552734067112
 20
-150.8121554527483
 30
0.0
 10
123.2165961063486
 20
-150.7170708173554
 30
0.0
 10
123.2734401818552
 20
-150.6154405005406
 30
0.0
 10
123.0832709110694
 20
-150.6195746151229
 30
0.0
 10
123.0619113190609
 20
-150.6195746151229
 30
0.0
 10
122.9795735369634
 20
-150.6240532392537
 30
0.0
 10
122.9795735369634
 20
-150.6240532392537
 30
0.0
 10
122.9795735369634
 20
-150.4462863122148
 30
0.0
 10
122.9795735369634
 20
-150.4462863122148
 30
0.0
 10
123.119099904116
 20
-150.4524874840882
 30
0.0
 10
123.3285617096192
 20
-150.4566215986706
 30
0.0
 10
123.3540554162101
 20
-150.4566215986706
 30
0.0
 10
123.3709363840878
 20
-150.4228596629151
 30
0.0
 10
123.4260579118518
 20
-150.3022813209313
 30
0.0
 10
123.4450059370207
 20
-150.2282117679985
 30
0.0
 10
123.4260579118518
 20
-150.2282117679985
 30
0.0
 10
123.2482909848129
 20
-150.2347574494204
 30
0.0
 10
123.0536430898963
 20
-150.2475043027159
 30
0.0
 10
123.0536430898963
 20
-150.2475043027159
 30
0.0
 10
123.0536430898963
 20
-150.3804849884465
 30
0.0
 10
123.0536430898963
 20
-150.3804849884465
 30
0.0
 10
123.0050672435543
 20
-150.4059786950374
 30
0.0
 10
122.945811601208
 20
-150.4376735735017
 30
0.0
 10
122.8124864059288
 20
-150.5034748972699
 30
0.0
 10
122.8124864059288
 20
-150.5034748972699
 30
0.0
 10
122.8124864059288
 20
-150.649202436296
 30
0.0
 10
122.8124864059288
 20
-150.649202436296
 30
0.0
 10
122.8124864059288
 20
-150.649202436296
 30
0.0
 10
122.8124864059288
 20
-151.1167018936444
 30
0.0
 10
122.8124864059288
 20
-151.1167018936444
 30
0.0
 10
122.8124864059288
 20
-151.2438259170501
 30
0.0
 10
122.7763129033337
 20
-151.3030815593964
 30
0.0
 10
122.4927815448976
 20
-151.2944688206833
 30
0.0
 10
122.4927815448976
 20
-151.2944688206833
 30
0.0
 10
122.3894286803401
 20
-151.0870740724713
 30
0.0
 10
122.3894286803401
 20
-151.0870740724713
 30
0.0
 10
122.4528184372687
 20
-151.0998209257667
 30
0.0
 10
122.5013942836107
 20
-151.103955040349
 30
0.0
 10
122.5417019007882
 20
-151.103955040349
 30
0.0
 10
122.6178385110122
 20
-151.103955040349
 30
0.0
 10
122.6281737974679
 20
-151.0808729005978
 30
0.0
 10
122.6281737974679
 20
-151.0154160863781
 30
0.0
 10
122.6281737974679
 20
-151.0154160863781
 30
0.0
 10
122.6281737974679
 20
-150.5858126793674
 30
0.0
 10
122.6281737974679
 20
-150.5858126793674
 30
0.0
 10
122.5310221047839
 20
-150.6261202965448
 30
0.0
 10
122.5141411369062
 20
-150.6323214684183
 30
0.0
 10
122.4676323478553
 20
-150.6512694935872
 30
0.0
 10
122.463498233273
 20
-150.6726290855957
 30
0.0
 10
122.4590196091422
 20
-150.7022569067689
 30
0.0
 10
122.4400715839733
 20
-150.7022569067689
 30
0.0
 10
122.4314588452602
 20
-150.7022569067689
 30
0.0
 10
122.4211235588044
 20
-150.6981227921866
 30
0.0
 10
122.4145778773825
 20
-150.6746961428869
 30
0.0
 10
122.4145778773825
 20
-150.6746961428869
 30
0.0
 10
122.3618679164581
 20
-150.4821153052614
 30
0.0
 10
122.3618679164581
 20
-150.4821153052614
 30
0.0
 10
122.5075954554842
 20
-150.4356065162105
 30
0.0
 10
122.5733967792525
 20
-150.4125243764593
 30
0.0
 10
122.6281737974679
 20
-150.3911647844508
 30
0.0
 10
122.6281737974679
 20
-150.3911647844508
 30
0.0
 10
122.6281737974679
 20
-149.9787868548664
 30
0.0
 10
122.6281737974679
 20
-149.9787868548664
 30
0.0
 10
122.6281737974679
 20
-149.9787868548664
 30
0.0
 10
122.5754638365436
 20
-149.9787868548664
 30
0.0
 10
122.5754638365436
 20
-149.9787868548664
 30
0.0
 10
122.5754638365436
 20
-149.9787868548664
 30
0.0
 10
122.4972601690284
 20
-149.9787868548664
 30
0.0
 10
122.4972601690284
 20
-149.9787868548664
 30
0.0
 10
122.429391787969
 20
-149.9787868548664
 30
0.0
 10
122.4211235588044
 20
-149.9787868548664
 30
0.0
 10
122.3849500562093
 20
-149.9849880267398
 30
0.0
 10
122.3849500562093
 20
-149.9849880267398
 30
0.0
 10
122.3849500562093
 20
-149.7903401318232
 30
0.0
 10
122.3849500562093
 20
-149.7903401318232
 30
0.0
 10
122.4125108200913
 20
-149.7968858132452
 30
0.0
 10
122.4211235588044
 20
-149.7968858132452
 30
0.0
 10
122.4907144876065
 20
-149.7968858132452
 30
0.0
 10
122.4907144876065
 20
-149.7968858132452
 30
0.0
 10
122.6240396828856
 20
-149.7968858132452
 30
0.0
 10
122.6240396828856
 20
-149.7968858132452
 30
0.0
 10
122.6240396828856
 20
-149.7269503748946
 30
0.0
 10
122.6240396828856
 20
-149.6442680832487
 30
0.0
 10
122.6219726255945
 20
-149.6401339686663
 30
0.0
 10
122.6137043964299
 20
-149.4602999843363
 30
0.0
 10
122.6137043964299
 20
-149.4413519591674
 30
0.0
 10
122.6112928295902
 20
-149.3948431701166
 30
0.0
 10
122.6112928295902
 20
-149.3948431701166
 30
0.0
 10
122.8273003165154
 20
-149.4031113992812
 30
0.0
 10
122.8273003165154
 20
-149.4031113992812
 30
0.0
 10
122.8376356029711
 20
-149.4031113992812
 30
0.0
 10
122.8589951949797
 20
-149.4055229661208
 30
0.0
 10
122.8589951949797
 20
-149.4224039339985
 30
0.0
 10
122.8589951949797
 20
-149.4413519591674
 30
0.0
 10
122.8441812843931
 20
-149.4520317551717
 30
0.0
 10
122.8186875778022
 20
-149.4709797803406
 30
0.0
 10
122.8186875778022
 20
-149.5216226839737
 30
0.0
 10
122.8124864059288
 20
-149.7500325146458
 30
0.0
 10
122.81455346322
 20
-149.7968858132452
 30
0.0
 10
122.9434000343683
 20
-149.7968858132452
 30
0.0
 10
122.9561468876637
 20
-149.7968858132452
 30
0.0
 10
123.0536430898963
 20
-149.7882730745321
 30
0.0
 10
123.0536430898963
 20
-149.7882730745321
 30
0.0
 10
123.0536430898963
 20
-149.9829209694487
 30
0.0
 10
123.0536430898963
 20
-149.9829209694487
 30
0.0
 10
123.01540253001
 20
-149.9808539121576
 30
0.0
 10
122.9478786584991
 20
-149.9767197975752
 30
0.0
 10
122.8124864059288
 20
-149.9787868548664
 30
0.0
 10
122.8124864059288
 20
-149.9787868548664
 30
0.0
 10
122.8124864059288
 20
-150.3170952315179
 30
0.0
 10
122.8124864059288
 20
-150.3170952315179
 30
0.0
 10
122.8672634241443
 20
-150.2940130917667
 30
0.0
 10
122.9330647479125
 20
-150.2664523278848
 30
0.0
 10
122.9816405942546
 20
-150.243025678585
 30
0.0
 10
122.9816405942546
 20
-150.243025678585
 30
0.0
 10
122.9816405942546
 20
-150.0652587515462
 30
0.0
 10
122.9816405942546
 20
-150.0652587515462
 30
0.0
 10
123.0960177643649
 20
-150.0780056048416
 30
0.0
 10
123.2141845395089
 20
-150.0780056048416
 30
0.0
 10
123.3306287669104
 20
-150.0780056048416
 30
0.0
 10
123.3075466271592
 20
-149.9829209694487
 30
0.0
 10
123.2799858632772
 20
-149.9002386778027
 30
0.0
 10
123.2165961063486
 20
-149.7672579920721
 30
0.0
 10
123.1721543745889
 20
-149.7693250493632
 30
0.0
 10
123.0894720829429
 20
-149.7734591639455
 30
0.0
 10
123.0515760326051
 20
-149.7755262212367
 30
0.0
 10
123.0515760326051
 20
-149.7755262212367
 30
0.0
 10
123.0515760326051
 20
-149.5956922369066
 30
0.0
 10
123.0515760326051
 20
-149.5956922369066
 30
0.0
 10
123.1762884891712
 20
-149.6043049756197
 30
0.0
 10
123.3495767920792
 20
-149.608439090202
 30
0.0
 10
123.4322590837253
 20
-149.608439090202
 30
0.0
 10
123.4322590837253
 20
-149.608439090202
 30
0.0
 10
123.5145968658227
 20
-149.608439090202
 30
0.0
 10
123.5145968658227
 20
-149.608439090202
 30
0.0
 10
123.5145968658227
 20
-149.4454860737497
 30
0.0
 10
123.5145968658227
 20
-149.435150787294
 30
0.0
 10
123.5125298085316
 20
-149.38002925953
 30
0.0
 10
123.5125298085316
 20
-149.38002925953
 30
0.0
 10
123.7368055246213
 20
-149.4055229661208
 30
0.0
 10
123.7368055246213
 20
-149.4055229661208
 30
0.0
 10
123.7409396392036
 20
-149.4055229661208
 30
0.0
 10
123.7622992312122
 20
-149.407590023412
 30
0.0
 10
123.7622992312122
 20
-149.4244709912897
 30
0.0
 10
123.7622992312122
 20
-149.4392849018763
 30
0.0
 10
123.7516194352079
 20
-149.4475531310409
 30
0.0
 10
123.7240586713259
 20
-149.4623670416274
 30
0.0
 10
123.7178574994525
 20
-149.5281683653957
 30
0.0
 10
123.7157904421613
 20
-149.5491834478557
 30
0.0
 10
123.7157904421613
 20
-149.608439090202
 30
0.0
 10
123.7157904421613
 20
-149.608439090202
 30
0.0
 10
123.8108750775542
 20
-149.608439090202
 30
0.0
 10
123.8108750775542
 20
-149.608439090202
 30
0.0
 10
123.8935573692002
 20
-149.608439090202
 30
0.0
 10
124.0668456721083
 20
-149.6043049756197
 30
0.0
 10
124.1915581286743
 20
-149.5956922369066
 30
0.0
 10
124.1915581286743
 20
-149.5956922369066
 30
0.0
 10
124.1915581286743
 20
-149.7755262212367
 30
0.0
 10
124.1915581286743
 20
-149.7755262212367
 30
0.0
 10
124.1619303075012
 20
-149.7734591639455
 30
0.0
 10
124.0437635323571
 20
-149.7693250493632
 30
0.0
 10
124.0034559151797
 20
-149.7672579920721
 30
0.0
 10
123.9886420045931
 20
-149.8179008957052
 30
0.0
 10
123.9548800688377
 20
-149.9298664989759
 30
0.0
 10
123.8890787450694
 20
-150.069737375677
 30
0.0
 10
123.9314534195379
 20
-150.069737375677
 30
0.0
 10
124.2087836061006
 20
-150.0504448409596
 30
0.0
 10
124.270106305738
 20
-150.0483777836684
 30
0.0
 10
124.270106305738
 20
-150.0483777836684
 30
0.0
 10
124.270106305738
 20
-150.2326903921293
 30
0.0
 10
124.270106305738
 20
-150.2326903921293
 30
0.0
 10
124.2404784845649
 20
-150.2326903921293
 30
0.0
 10
124.2235975166871
 20
-150.2282117679985
 30
0.0
 10
124.0606445002348
 20
-150.2282117679985
 30
0.0
  0
HATCH
  5
F3
330
EC
100
AcDbEntity
  8
レイヤー 1
 62
    18
420
        0
440
 33554687
100
AcDbHatch
 10
0.0
 20
0.0
 30
0.0
210
0.0
220
0.0
230
1.0
  2
SOLID
 70
     1
 71
     1
 91
        3
 92
        1
 93
        1
 72
     4
 94
        3
 73
     0
 74
     0
 95
       17
 96
       13
 40
0.0
 40
0.0
 40
0.0
 40
0.0
 40
1.0
 40
1.0
 40
1.0
 40
2.0
 40
2.0
 40
2.0
 40
3.0
 40
3.0
 40
3.0
 40
4.0
 40
4.0
 40
4.0
 40
4.0
 10
123.4956488406538
 20
-150.6133734432494
 10
123.4787678727761
 20
-150.6430012644226
 10
123.4281249691429
 20
-150.7360188425243
 10
123.4174451731387
 20
-150.7549668676932
 10
123.607958953473
 20
-150.8142225100395
 10
123.628974035933
 20
-150.8207681914614
 10
123.7009765315747
 20
-150.8479844457949
 10
123.7557535497902
 20
-150.7615125491152
 10
123.7791801990899
 20
-150.6874429961823
 10
123.7939941096765
 20
-150.6133734432494
 10
123.7939941096765
 20
-150.6133734432494
 10
123.4956488406538
 20
-150.6133734432494
 10
123.4956488406538
 20
-150.6133734432494
 97
        0
 97
        1
330
F0
 92
        1
 93
        1
 72
     4
 94
        3
 73
     0
 74
     0
 95
       20
 96
       16
 40
0.0
 40
0.0
 40
0.0
 40
0.0
 40
1.0
 40
1.0
 40
1.0
 40
2.0
 40
2.0
 40
2.0
 40
3.0
 40
3.0
 40
3.0
 40
4.0
 40
4.0
 40
4.0
 40
5.0
 40
5.0
 40
5.0
 40
5.0
 10
123.4322590837253
 20
-149.7627793679412
 10
123.4322590837253
 20
-149.7627793679412
 10
123.4005642052609
 20
-149.7627793679412
 10
123.4005642052609
 20
-149.7627793679412
 10
123.4470729943118
 20
-149.862342627465
 10
123.4787678727761
 20
-149.9426133522713
 10
123.5125298085316
 20
-150.069737375677
 10
123.5125298085316
 20
-150.069737375677
 10
123.7199245567436
 20
-150.069737375677
 10
123.7199245567436
 20
-150.069737375677
 10
123.7516194352079
 20
-149.9767197975752
 10
123.7750460845076
 20
-149.8919704486381
 10
123.7981282242588
 20
-149.7627793679412
 10
123.7981282242588
 20
-149.7627793679412
 10
123.4322590837253
 20
-149.7627793679412
 10
123.4322590837253
 20
-149.7627793679412
 97
        0
 97
        1
330
F1
 92
        1
 93
        1
 72
     4
 94
        3
 73
     0
 74
     0
 95
      242
 96
      238
 40
0.0
 40
0.0
 40
0.0
 40
0.0
 40
1.0
 40
1.0
 40
1.0
 40
2.0
 40
2.0
 40
2.0
 40
3.0
 40
3.0
 40
3.0
 40
4.0
 40
4.0
 40
4.0
 40
5.0
 40
5.0
 40
5.0
 40
6.0
 40
6.0
 40
6.0
 40
7.0
 40
7.0
 40
7.0
 40
8.0
 40
8.0
 40
8.0
 40
9.0
 40
9.0
 40
9.0
 40
10.0
 40
10.0
 40
10.0
 40
11.0
 40
11.0
 40
11.0
 40
12.0
 40
12.0
 40
12.0
 40
13.0
 40
13.0
 40
13.0
 40
14.0
 40
14.0
 40
14.0
 40
15.0
 40
15.0
 40
15.0
 40
16.0
 40
16.0
 40
16.0
 40
17.0
 40
17.0
 40
17.0
 40
18.0
 40
18.0
 40
18.0
 40
19.0
 40
19.0
 40
19.0
 40
20.0
 40
20.0
 40
20.0
 40
21.0
 40
21.0
 40
21.0
 40
22.0
 40
22.0
 40
22.0
 40
23.0
 40
23.0
 40
23.0
 40
24.0
 40
24.0
 40
24.0
 40
25.0
 40
25.0
 40
25.0
 40
26.0
 40
26.0
 40
26.0
 40
27.0
 40
27.0
 40
27.0
 40
28.0
 40
28.0
 40
28.0
 40
29.0
 40
29.0
 40
29.0
 40
30.0
 40
30.0
 40
30.0
 40
31.0
 40
31.0
 40
31.0
 40
32.0
 40
32.0
 40
32.0
 40
33.0
 40
33.0
 40
33.0
 40
34.0
 40
34.0
 40
34.0
 40
35.0
 40
35.0
 40
35.0
 40
36.0
 40
36.0
 40
36.0
 40
37.0
 40
37.0
 40
37.0
 40
38.0
 40
38.0
 40
38.0
 40
39.0
 40
39.0
 40
39.0
 40
40.0
 40
40.0
 40
40.0
 40
41.0
 40
41.0
 40
41.0
 40
42.0
 40
42.0
 40
42.0
 40
43.0
 40
43.0
 40
43.0
 40
44.0
 40
44.0
 40
44.0
 40
45.0
 40
45.0
 40
45.0
 40
46.0
 40
46.0
 40
46.0
 40
47.0
 40
47.0
 40
47.0
 40
48.0
 40
48.0
 40
48.0
 40
49.0
 40
49.0
 40
49.0
 40
50.0
 40
50.0
 40
50.0
 40
51.0
 40
51.0
 40
51.0
 40
52.0
 40
52.0
 40
52.0
 40
53.0
 40
53.0
 40
53.0
 40
54.0
 40
54.0
 40
54.0
 40
55.0
 40
55.0
 40
55.0
 40
56.0
 40
56.0
 40
56.0
 40
57.0
 40
57.0
 40
57.0
 40
58.0
 40
58.0
 40
58.0
 40
59.0
 40
59.0
 40
59.0
 40
60.0
 40
60.0
 40
60.0
 40
61.0
 40
61.0
 40
61.0
 40
62.0
 40
62.0
 40
62.0
 40
63.0
 40
63.0
 40
63.0
 40
64.0
 40
64.0
 40
64.0
 40
65.0
 40
65.0
 40
65.0
 40
66.0
 40
66.0
 40
66.0
 40
67.0
 40
67.0
 40
67.0
 40
68.0
 40
68.0
 40
68.0
 40
69.0
 40
69.0
 40
69.0
 40
70.0
 40
70.0
 40
70.0
 40
71.0
 40
71.0
 40
71.0
 40
72.0
 40
72.0
 40
72.0
 40
73.0
 40
73.0
 40
73.0
 40
74.0
 40
74.0
 40
74.0
 40
75.0
 40
75.0
 40
75.0
 40
76.0
 40
76.0
 40
76.0
 40
77.0
 40
77.0
 40
77.0
 40
78.0
 40
78.0
 40
78.0
 40
79.0
 40
79.0
 40
79.0
 40
79.0
 10
124.0606445002348
 20
-150.2282117679985
 10
124.0606445002348
 20
-150.2282117679985
 10
123.8067409629719
 20
-150.2282117679985
 10
123.8067409629719
 20
-150.2282117679985
 10
123.8067409629719
 20
-150.2282117679985
 10
123.5294107764093
 20
-150.2282117679985
 10
123.5294107764093
 20
-150.2282117679985
 10
123.5294107764093
 20
-150.2282117679985
 10
123.656534799815
 20
-150.2705864424671
 10
123.656534799815
 20
-150.2705864424671
 10
123.6672145958193
 20
-150.2747205570494
 10
123.6796169395662
 20
-150.2812662384713
 10
123.6796169395662
 20
-150.2940130917667
 10
123.6796169395662
 20
-150.3150281742268
 10
123.6479220611019
 20
-150.3212293461002
 10
123.6269069786419
 20
-150.3257079702311
 10
123.6162271826376
 20
-150.3487901099822
 10
123.5865993614644
 20
-150.4145914337505
 10
123.5676513362956
 20
-150.4590331655102
 10
123.5676513362956
 20
-150.4590331655102
 10
123.8384358414362
 20
-150.4590331655102
 10
123.8384358414362
 20
-150.4590331655102
 10
123.9293863622468
 20
-150.4590331655102
 10
124.1261013144546
 20
-150.4545545413794
 10
124.2676947388983
 20
-150.4462863122148
 10
124.2676947388983
 20
-150.4462863122148
 10
124.2676947388983
 20
-150.6240532392537
 10
124.2676947388983
 20
-150.6240532392537
 10
124.1853569568009
 20
-150.6195746151229
 10
124.1643418743408
 20
-150.6195746151229
 10
123.9845078900108
 20
-150.6154405005406
 10
123.9528130115465
 20
-150.7697807782798
 10
123.9083712797868
 20
-150.8503960126346
 10
123.863929548027
 20
-150.9199869414367
 10
123.9845078900108
 20
-150.9792425837829
 10
124.090272321408
 20
-151.0471109648424
 10
124.193969695514
 20
-151.1294487469398
 10
124.193969695514
 20
-151.1294487469398
 10
124.0754584108214
 20
-151.2965358779745
 10
124.0754584108214
 20
-151.2965358779745
 10
124.0520317615217
 20
-151.2775878528056
 10
124.0392849082263
 20
-151.2689751140925
 10
123.9273193049557
 20
-151.1845702747038
 10
123.8787434586136
 20
-151.1463297148176
 10
123.8194878162673
 20
-151.110500721771
 10
123.7388725819125
 20
-151.0660589900112
 10
123.5273437191181
 20
-151.2520941462147
 10
123.3223605377458
 20
-151.2755207955144
 10
123.0322834978877
 20
-151.3051486166876
 10
123.0322834978877
 20
-151.3051486166876
 10
122.9285861237817
 20
-151.1253146323575
 10
122.9285861237817
 20
-151.1253146323575
 10
123.2462239275218
 20
-151.1211805177752
 10
123.421579287721
 20
-151.0956868111844
 10
123.573852508169
 20
-150.9857882652049
 10
123.4553412234764
 20
-150.9348008520232
 10
123.3668022695055
 20
-150.9072400881412
 10
123.3306287669104
 20
-150.8948377443943
 10
123.3116807417415
 20
-150.9220539987278
 10
123.2968668311549
 20
-150.9413465334452
 10
123.2693060672729
 20
-150.9751084692006
 10
123.2693060672729
 20
-150.9751084692006
 10
123.0725911150652
 20
-150.8924261775547
 10
123.0725911150652
 20
-150.8924261775547
 10
123.1552734067112
 20
-150.8121554527483
 10
123.2165961063486
 20
-150.7170708173554
 10
123.2734401818552
 20
-150.6154405005406
 10
123.0832709110694
 20
-150.6195746151229
 10
123.0619113190609
 20
-150.6195746151229
 10
122.9795735369634
 20
-150.6240532392537
 10
122.9795735369634
 20
-150.6240532392537
 10
122.9795735369634
 20
-150.4462863122148
 10
122.9795735369634
 20
-150.4462863122148
 10
123.119099904116
 20
-150.4524874840882
 10
123.3285617096192
 20
-150.4566215986706
 10
123.3540554162101
 20
-150.4566215986706
 10
123.3709363840878
 20
-150.4228596629151
 10
123.4260579118518
 20
-150.3022813209313
 10
123.4450059370207
 20
-150.2282117679985
 10
123.4260579118518
 20
-150.2282117679985
 10
123.2482909848129
 20
-150.2347574494204
 10
123.0536430898963
 20
-150.2475043027159
 10
123.0536430898963
 20
-150.2475043027159
 10
123.0536430898963
 20
-150.3804849884465
 10
123.0536430898963
 20
-150.3804849884465
 10
123.0050672435543
 20
-150.4059786950374
 10
122.945811601208
 20
-150.4376735735017
 10
122.8124864059288
 20
-150.5034748972699
 10
122.8124864059288
 20
-150.5034748972699
 10
122.8124864059288
 20
-150.649202436296
 10
122.8124864059288
 20
-150.649202436296
 10
122.8124864059288
 20
-150.649202436296
 10
122.8124864059288
 20
-151.1167018936444
 10
122.8124864059288
 20
-151.1167018936444
 10
122.8124864059288
 20
-151.2438259170501
 10
122.7763129033337
 20
-151.3030815593964
 10
122.4927815448976
 20
-151.2944688206833
 10
122.4927815448976
 20
-151.2944688206833
 10
122.3894286803401
 20
-151.0870740724713
 10
122.3894286803401
 20
-151.0870740724713
 10
122.4528184372687
 20
-151.0998209257667
 10
122.5013942836107
 20
-151.103955040349
 10
122.5417019007882
 20
-151.103955040349
 10
122.6178385110122
 20
-151.103955040349
 10
122.6281737974679
 20
-151.0808729005978
 10
122.6281737974679
 20
-151.0154160863781
 10
122.6281737974679
 20
-151.0154160863781
 10
122.6281737974679
 20
-150.5858126793674
 10
122.6281737974679
 20
-150.5858126793674
 10
122.5310221047839
 20
-150.6261202965448
 10
122.5141411369062
 20
-150.6323214684183
 10
122.4676323478553
 20
-150.6512694935872
 10
122.463498233273
 20
-150.6726290855957
 10
122.4590196091422
 20
-150.7022569067689
 10
122.4400715839733
 20
-150.7022569067689
 10
122.4314588452602
 20
-150.7022569067689
 10
122.4211235588044
 20
-150.6981227921866
 10
122.4145778773825
 20
-150.6746961428869
 10
122.4145778773825
 20
-150.6746961428869
 10
122.3618679164581
 20
-150.4821153052614
 10
122.3618679164581
 20
-150.4821153052614
 10
122.5075954554842
 20
-150.4356065162105
 10
122.5733967792525
 20
-150.4125243764593
 10
122.6281737974679
 20
-150.3911647844508
 10
122.6281737974679
 20
-150.3911647844508
 10
122.6281737974679
 20
-149.9787868548664
 10
122.6281737974679
 20
-149.9787868548664
 10
122.6281737974679
 20
-149.9787868548664
 10
122.5754638365436
 20
-149.9787868548664
 10
122.5754638365436
 20
-149.9787868548664
 10
122.5754638365436
 20
-149.9787868548664
 10
122.4972601690284
 20
-149.9787868548664
 10
122.4972601690284
 20
-149.9787868548664
 10
122.429391787969
 20
-149.9787868548664
 10
122.4211235588044
 20
-149.9787868548664
 10
122.3849500562093
 20
-149.9849880267398
 10
122.3849500562093
 20
-149.9849880267398
 10
122.3849500562093
 20
-149.7903401318232
 10
122.3849500562093
 20
-149.7903401318232
 10
122.4125108200913
 20
-149.7968858132452
 10
122.4211235588044
 20
-149.7968858132452
 10
122.4907144876065
 20
-149.7968858132452
 10
122.4907144876065
 20
-149.7968858132452
 10
122.6240396828856
 20
-149.7968858132452
 10
122.6240396828856
 20
-149.7968858132452
 10
122.6240396828856
 20
-149.7269503748946
 10
122.6240396828856
 20
-149.6442680832487
 10
122.6219726255945
 20
-149.6401339686663
 10
122.6137043964299
 20
-149.4602999843363
 10
122.6137043964299
 20
-149.4413519591674
 10
122.6112928295902
 20
-149.3948431701166
 10
122.6112928295902
 20
-149.3948431701166
 10
122.8273003165154
 20
-149.4031113992812
 10
122.8273003165154
 20
-149.4031113992812
 10
122.8376356029711
 20
-149.4031113992812
 10
122.8589951949797
 20
-149.4055229661208
 10
122.8589951949797
 20
-149.4224039339985
 10
122.8589951949797
 20
-149.4413519591674
 10
122.8441812843931
 20
-149.4520317551717
 10
122.8186875778022
 20
-149.4709797803406
 10
122.8186875778022
 20
-149.5216226839737
 10
122.8124864059288
 20
-149.7500325146458
 10
122.81455346322
 20
-149.7968858132452
 10
122.9434000343683
 20
-149.7968858132452
 10
122.9561468876637
 20
-149.7968858132452
 10
123.0536430898963
 20
-149.7882730745321
 10
123.0536430898963
 20
-149.7882730745321
 10
123.0536430898963
 20
-149.9829209694487
 10
123.0536430898963
 20
-149.9829209694487
 10
123.01540253001
 20
-149.9808539121576
 10
122.9478786584991
 20
-149.9767197975752
 10
122.8124864059288
 20
-149.9787868548664
 10
122.8124864059288
 20
-149.9787868548664
 10
122.8124864059288
 20
-150.3170952315179
 10
122.8124864059288
 20
-150.3170952315179
 10
122.8672634241443
 20
-150.2940130917667
 10
122.9330647479125
 20
-150.2664523278848
 10
122.9816405942546
 20
-150.243025678585
 10
122.9816405942546
 20
-150.243025678585
 10
122.9816405942546
 20
-150.0652587515462
 10
122.9816405942546
 20
-150.0652587515462
 10
123.0960177643649
 20
-150.0780056048416
 10
123.2141845395089
 20
-150.0780056048416
 10
123.3306287669104
 20
-150.0780056048416
 10
123.3075466271592
 20
-149.9829209694487
 10
123.2799858632772
 20
-149.9002386778027
 10
123.2165961063486
 20
-149.7672579920721
 10
123.1721543745889
 20
-149.7693250493632
 10
123.0894720829429
 20
-149.7734591639455
 10
123.0515760326051
 20
-149.7755262212367
 10
123.0515760326051
 20
-149.7755262212367
 10
123.0515760326051
 20
-149.5956922369066
 10
123.0515760326051
 20
-149.5956922369066
 10
123.1762884891712
 20
-149.6043049756197
 10
123.3495767920792
 20
-149.608439090202
 10
123.4322590837253
 20
-149.608439090202
 10
123.4322590837253
 20
-149.608439090202
 10
123.5145968658227
 20
-149.608439090202
 10
123.5145968658227
 20
-149.608439090202
 10
123.5145968658227
 20
-149.4454860737497
 10
123.5145968658227
 20
-149.435150787294
 10
123.5125298085316
 20
-149.38002925953
 10
123.5125298085316
 20
-149.38002925953
 10
123.7368055246213
 20
-149.4055229661208
 10
123.7368055246213
 20
-149.4055229661208
 10
123.7409396392036
 20
-149.4055229661208
 10
123.7622992312122
 20
-149.407590023412
 10
123.7622992312122
 20
-149.4244709912897
 10
123.7622992312122
 20
-149.4392849018763
 10
123.7516194352079
 20
-149.4475531310409
 10
123.7240586713259
 20
-149.4623670416274
 10
123.7178574994525
 20
-149.5281683653957
 10
123.7157904421613
 20
-149.5491834478557
 10
123.7157904421613
 20
-149.608439090202
 10
123.7157904421613
 20
-149.608439090202
 10
123.8108750775542
 20
-149.608439090202
 10
123.8108750775542
 20
-149.608439090202
 10
123.8935573692002
 20
-149.608439090202
 10
124.0668456721083
 20
-149.6043049756197
 10
124.1915581286743
 20
-149.5956922369066
 10
124.1915581286743
 20
-149.5956922369066
 10
124.1915581286743
 20
-149.7755262212367
 10
124.1915581286743
 20
-149.7755262212367
 10
124.1619303075012
 20
-149.7734591639455
 10
124.0437635323571
 20
-149.7693250493632
 10
124.0034559151797
 20
-149.7672579920721
 10
123.9886420045931
 20
-149.8179008957052
 10
123.9548800688377
 20
-149.9298664989759
 10
123.8890787450694
 20
-150.069737375677
 10
123.9314534195379
 20
-150.069737375677
 10
124.2087836061006
 20
-150.0504448409596
 10
124.270106305738
 20
-150.0483777836684
 10
124.270106305738
 20
-150.0483777836684
 10
124.270106305738
 20
-150.2326903921293
 10
124.270106305738
 20
-150.2326903921293
 10
124.2404784845649
 20
-150.2326903921293
 10
124.2235975166871
 20
-150.2282117679985
 10
124.0606445002348
 20
-150.2282117679985
 97
        0
 97
        1
330
F2
 75
     2
 76
     1
 98
        1
 10
0.0
 20
0.0
450
        0
451
        0
460
0.0
461
0.0
452
        0
462
0.0
453
        0
470

  0
SPLINE
  5
F4
330
EC
100
AcDbEntity
  8
レイヤー 1
100
AcDbSpline
210
0.0
220
0.0
230
1.0
 70
    11
 71
     3
 72
    17
 73
    13
 74
     0
 42
0.0000000001
 43
0.0000000001
 40
0.0
 40
0.0
 40
0.0
 40
0.0
 40
1.0
 40
1.0
 40
1.0
 40
2.0
 40
2.0
 40
2.0
 40
3.0
 40
3.0
 40
3.0
 40
4.0
 40
4.0
 40
4.0
 40
4.0
 10
125.9168619476874
 20
-151.027818430125
 30
0.0
 10
125.9168619476874
 20
-151.027818430125
 30
0.0
 10
125.2102728636627
 20
-151.027818430125
 30
0.0
 10
125.2102728636627
 20
-151.027818430125
 30
0.0
 10
125.2102728636627
 20
-151.027818430125
 30
0.0
 10
125.2102728636627
 20
-151.1421956002353
 30
0.0
 10
125.2102728636627
 20
-151.1421956002353
 30
0.0
 10
125.2102728636627
 20
-151.1421956002353
 30
0.0
 10
125.9168619476874
 20
-151.1421956002353
 30
0.0
 10
125.9168619476874
 20
-151.1421956002353
 30
0.0
 10
125.9168619476874
 20
-151.1421956002353
 30
0.0
 10
125.9168619476874
 20
-151.027818430125
 30
0.0
 10
125.9168619476874
 20
-151.027818430125
 30
0.0
  0
SPLINE
  5
F5
330
EC
100
AcDbEntity
  8
レイヤー 1
100
AcDbSpline
210
0.0
220
0.0
230
1.0
 70
    11
 71
     3
 72
    17
 73
    13
 74
     0
 42
0.0000000001
 43
0.0000000001
 40
0.0
 40
0.0
 40
0.0
 40
0.0
 40
1.0
 40
1.0
 40
1.0
 40
2.0
 40
2.0
 40
2.0
 40
3.0
 40
3.0
 40
3.0
 40
4.0
 40
4.0
 40
4.0
 40
4.0
 10
125.9168619476874
 20
-150.7845946888663
 30
0.0
 10
125.9168619476874
 20
-150.7845946888663
 30
0.0
 10
125.2102728636627
 20
-150.7845946888663
 30
0.0
 10
125.2102728636627
 20
-150.7845946888663
 30
0.0
 10
125.2102728636627
 20
-150.7845946888663
 30
0.0
 10
125.2102728636627
 20
-150.8989718589766
 30
0.0
 10
125.2102728636627
 20
-150.8989718589766
 30
0.0
 10
125.2102728636627
 20
-150.8989718589766
 30
0.0
 10
125.9168619476874
 20
-150.8989718589766
 30
0.0
 10
125.9168619476874
 20
-150.8989718589766
 30
0.0
 10
125.9168619476874
 20
-150.8989718589766
 30
0.0
 10
125.9168619476874
 20
-150.7845946888663
 30
0.0
 10
125.9168619476874
 20
-150.7845946888663
 30
0.0
  0
SPLINE
  5
F6
330
EC
100
AcDbEntity
  8
レイヤー 1
100
AcDbSpline
210
0.0
220
0.0
230
1.0
 70
    11
 71
     3
 72
    17
 73
    13
 74
     0
 42
0.0000000001
 43
0.0000000001
 40
0.0
 40
0.0
 40
0.0
 40
0.0
 40
1.0
 40
1.0
 40
1.0
 40
2.0
 40
2.0
 40
2.0
 40
3.0
 40
3.0
 40
3.0
 40
4.0
 40
4.0
 40
4.0
 40
4.0
 10
125.9168619476874
 20
-150.552050743612
 30
0.0
 10
125.9168619476874
 20
-150.552050743612
 30
0.0
 10
125.2102728636627
 20
-150.552050743612
 30
0.0
 10
125.2102728636627
 20
-150.552050743612
 30
0.0
 10
125.2102728636627
 20
-150.552050743612
 30
0.0
 10
125.2102728636627
 20
-150.6598822323003
 30
0.0
 10
125.2102728636627
 20
-150.6598822323003
 30
0.0
 10
125.2102728636627
 20
-150.6598822323003
 30
0.0
 10
125.9168619476874
 20
-150.6598822323003
 30
0.0
 10
125.9168619476874
 20
-150.6598822323003
 30
0.0
 10
125.9168619476874
 20
-150.6598822323003
 30
0.0
 10
125.9168619476874
 20
-150.552050743612
 30
0.0
 10
125.9168619476874
 20
-150.552050743612
 30
0.0
  0
SPLINE
  5
F7
330
EC
100
AcDbEntity
  8
レイヤー 1
100
AcDbSpline
210
0.0
220
0.0
230
1.0
 70
     9
 71
     3
 72
   203
 73
   199
 74
     0
 42
0.0000000001
 43
0.0000000001
 40
0.0
 40
0.0
 40
0.0
 40
0.0
 40
1.0
 40
1.0
 40
1.0
 40
2.0
 40
2.0
 40
2.0
 40
3.0
 40
3.0
 40
3.0
 40
4.0
 40
4.0
 40
4.0
 40
5.0
 40
5.0
 40
5.0
 40
6.0
 40
6.0
 40
6.0
 40
7.0
 40
7.0
 40
7.0
 40
8.0
 40
8.0
 40
8.0
 40
9.0
 40
9.0
 40
9.0
 40
10.0
 40
10.0
 40
10.0
 40
11.0
 40
11.0
 40
11.0
 40
12.0
 40
12.0
 40
12.0
 40
13.0
 40
13.0
 40
13.0
 40
14.0
 40
14.0
 40
14.0
 40
15.0
 40
15.0
 40
15.0
 40
16.0
 40
16.0
 40
16.0
 40
17.0
 40
17.0
 40
17.0
 40
18.0
 40
18.0
 40
18.0
 40
19.0
 40
19.0
 40
19.0
 40
20.0
 40
20.0
 40
20.0
 40
21.0
 40
21.0
 40
21.0
 40
22.0
 40
22.0
 40
22.0
 40
23.0
 40
23.0
 40
23.0
 40
24.0
 40
24.0
 40
24.0
 40
25.0
 40
25.0
 40
25.0
 40
26.0
 40
26.0
 40
26.0
 40
27.0
 40
27.0
 40
27.0
 40
28.0
 40
28.0
 40
28.0
 40
29.0
 40
29.0
 40
29.0
 40
30.0
 40
30.0
 40
30.0
 40
31.0
 40
31.0
 40
31.0
 40
32.0
 40
32.0
 40
32.0
 40
33.0
 40
33.0
 40
33.0
 40
34.0
 40
34.0
 40
34.0
 40
35.0
 40
35.0
 40
35.0
 40
36.0
 40
36.0
 40
36.0
 40
37.0
 40
37.0
 40
37.0
 40
38.0
 40
38.0
 40
38.0
 40
39.0
 40
39.0
 40
39.0
 40
40.0
 40
40.0
 40
40.0
 40
41.0
 40
41.0
 40
41.0
 40
42.0
 40
42.0
 40
42.0
 40
43.0
 40
43.0
 40
43.0
 40
44.0
 40
44.0
 40
44.0
 40
45.0
 40
45.0
 40
45.0
 40
46.0
 40
46.0
 40
46.0
 40
47.0
 40
47.0
 40
47.0
 40
48.0
 40
48.0
 40
48.0
 40
49.0
 40
49.0
 40
49.0
 40
50.0
 40
50.0
 40
50.0
 40
51.0
 40
51.0
 40
51.0
 40
52.0
 40
52.0
 40
52.0
 40
53.0
 40
53.0
 40
53.0
 40
54.0
 40
54.0
 40
54.0
 40
55.0
 40
55.0
 40
55.0
 40
56.0
 40
56.0
 40
56.0
 40
57.0
 40
57.0
 40
57.0
 40
58.0
 40
58.0
 40
58.0
 40
59.0
 40
59.0
 40
59.0
 40
60.0
 40
60.0
 40
60.0
 40
61.0
 40
61.0
 40
61.0
 40
62.0
 40
62.0
 40
62.0
 40
63.0
 40
63.0
 40
63.0
 40
64.0
 40
64.0
 40
64.0
 40
65.0
 40
65.0
 40
65.0
 40
66.0
 40
66.0
 40
66.0
 40
66.0
 10
125.751841873944
 20
-150.2960801490579
 30
0.0
 10
125.751841873944
 20
-150.2960801490579
 30
0.0
 10
125.193391895785
 20
-150.2960801490579
 30
0.0
 10
125.193391895785
 20
-150.2960801490579
 30
0.0
 10
125.1830566093292
 20
-150.3405218808176
 30
0.0
 10
125.1744438706161
 20
-150.3722167592819
 30
0.0
 10
125.1616970173207
 20
-150.4101128096197
 30
0.0
 10
125.1871907239115
 20
-150.4101128096197
 30
0.0
 10
125.2020046344981
 20
-150.4125243764593
 30
0.0
 10
125.2082058063715
 20
-150.4125243764593
 30
0.0
 10
125.2082058063715
 20
-150.4125243764593
 30
0.0
 10
125.3966525294147
 20
-150.4125243764593
 30
0.0
 10
125.3966525294147
 20
-150.4125243764593
 30
0.0
 10
125.3966525294147
 20
-150.4125243764593
 30
0.0
 10
125.7711344086614
 20
-150.4125243764593
 30
0.0
 10
125.7711344086614
 20
-150.4125243764593
 30
0.0
 10
125.8217773122945
 20
-150.4125243764593
 30
0.0
 10
126.1053086707306
 20
-150.3997775231639
 30
0.0
 10
126.1370035491949
 20
-150.3997775231639
 30
0.0
 10
126.1349364919037
 20
-150.4273382870459
 30
0.0
 10
126.1328694346126
 20
-150.4462863122148
 30
0.0
 10
126.1328694346126
 20
-150.4759141333879
 30
0.0
 10
126.1308023773215
 20
-150.5076090118523
 30
0.0
 10
126.1308023773215
 20
-150.6430012644226
 30
0.0
 10
126.1308023773215
 20
-150.6705620283046
 30
0.0
 10
126.1308023773215
 20
-150.6705620283046
 30
0.0
 10
126.1308023773215
 20
-150.9158528268543
 30
0.0
 10
126.1308023773215
 20
-150.9158528268543
 30
0.0
 10
126.1308023773215
 20
-150.9602945586141
 30
0.0
 10
126.1349364919037
 20
-151.1570095108218
 30
0.0
 10
126.1390706064861
 20
-151.3092827312699
 30
0.0
 10
126.1390706064861
 20
-151.3092827312699
 30
0.0
 10
125.9127278331051
 20
-151.3092827312699
 30
0.0
 10
125.9127278331051
 20
-151.3092827312699
 30
0.0
 10
125.9127278331051
 20
-151.3092827312699
 30
0.0
 10
125.9147948903963
 20
-151.2755207955144
 30
0.0
 10
125.9147948903963
 20
-151.2755207955144
 30
0.0
 10
125.9147948903963
 20
-151.2755207955144
 30
0.0
 10
125.2126844305024
 20
-151.2755207955144
 30
0.0
 10
125.2126844305024
 20
-151.2755207955144
 30
0.0
 10
125.2126844305024
 20
-151.2755207955144
 30
0.0
 10
125.2147514877935
 20
-151.3092827312699
 30
0.0
 10
125.2147514877935
 20
-151.3092827312699
 30
0.0
 10
125.2147514877935
 20
-151.3092827312699
 30
0.0
 10
124.9966769435772
 20
-151.3092827312699
 30
0.0
 10
124.9966769435772
 20
-151.3092827312699
 30
0.0
 10
125.001155567708
 20
-151.2541612035059
 30
0.0
 10
125.001155567708
 20
-151.241758859759
 30
0.0
 10
125.0073567395815
 20
-151.1273816896487
 30
0.0
 10
125.0094237968726
 20
-151.0998209257667
 30
0.0
 10
125.0114908541638
 20
-150.9664957304875
 30
0.0
 10
125.0114908541638
 20
-150.9475477053186
 30
0.0
 10
125.0114908541638
 20
-150.9475477053186
 30
0.0
 10
125.0114908541638
 20
-150.7446315812374
 30
0.0
 10
125.0114908541638
 20
-150.7446315812374
 30
0.0
 10
124.8719644870112
 20
-150.9940564943695
 30
0.0
 10
124.7028102986854
 20
-151.1253146323575
 30
0.0
 10
124.5970458672882
 20
-151.1907714465773
 30
0.0
 10
124.5970458672882
 20
-151.1907714465773
 30
0.0
 10
124.4234130548316
 20
-151.0512450794247
 30
0.0
 10
124.4234130548316
 20
-151.0512450794247
 30
0.0
 10
124.5122965183511
 20
-151.0006021757915
 30
0.0
 10
124.6563015096345
 20
-150.9137857695632
 30
0.0
 10
124.793760819496
 20
-150.7191378746466
 30
0.0
 10
124.8847113403066
 20
-150.5920138512409
 30
0.0
 10
124.9501681545263
 20
-150.448353369506
 30
0.0
 10
124.9839300902818
 20
-150.2960801490579
 30
0.0
 10
124.7555202596097
 20
-150.2981472063491
 30
0.0
 10
124.5756862752797
 20
-150.3043483782225
 30
0.0
 10
124.4806016398868
 20
-150.3064154355137
 30
0.0
 10
124.4806016398868
 20
-150.3064154355137
 30
0.0
 10
124.4806016398868
 20
-150.1289930180233
 30
0.0
 10
124.4806016398868
 20
-150.1289930180233
 30
0.0
 10
124.6773165920946
 20
-150.1351941898967
 30
0.0
 10
124.9608479505306
 20
-150.139328304479
 30
0.0
 10
125.1110541136875
 20
-150.139328304479
 30
0.0
 10
125.1110541136875
 20
-150.139328304479
 30
0.0
 10
125.324650033773
 20
-150.139328304479
 30
0.0
 10
125.324650033773
 20
-150.139328304479
 30
0.0
 10
125.324650033773
 20
-150.139328304479
 30
0.0
 10
125.324650033773
 20
-150.0314968157907
 30
0.0
 10
125.324650033773
 20
-150.0314968157907
 30
0.0
 10
125.324650033773
 20
-150.0314968157907
 30
0.0
 10
125.1785779851984
 20
-150.0314968157907
 30
0.0
 10
125.1785779851984
 20
-150.0314968157907
 30
0.0
 10
125.0094237968726
 20
-150.0314968157907
 30
0.0
 10
124.8402696085469
 20
-150.035630930373
 30
0.0
 10
124.6731824775122
 20
-150.042176611795
 30
0.0
 10
124.6731824775122
 20
-150.042176611795
 30
0.0
 10
124.6731824775122
 20
-149.8709553661781
 30
0.0
 10
124.6731824775122
 20
-149.8709553661781
 30
0.0
 10
124.8275227552514
 20
-149.8812906526338
 30
0.0
 10
125.0135579114549
 20
-149.8812906526338
 30
0.0
 10
125.1785779851984
 20
-149.8812906526338
 30
0.0
 10
125.1785779851984
 20
-149.8812906526338
 30
0.0
 10
125.324650033773
 20
-149.8812906526338
 30
0.0
 10
125.324650033773
 20
-149.8812906526338
 30
0.0
 10
125.324650033773
 20
-149.8812906526338
 30
0.0
 10
125.324650033773
 20
-149.7627793679412
 30
0.0
 10
125.324650033773
 20
-149.7627793679412
 30
0.0
 10
125.324650033773
 20
-149.7627793679412
 30
0.0
 10
125.193391895785
 20
-149.7627793679412
 30
0.0
 10
125.193391895785
 20
-149.7627793679412
 30
0.0
 10
125.1468831067341
 20
-149.7627793679412
 30
0.0
 10
124.9439669826529
 20
-149.7713921066544
 30
0.0
 10
124.9015923081843
 20
-149.7713921066544
 30
0.0
 10
124.6983316745546
 20
-149.7755262212367
 30
0.0
 10
124.6221950643305
 20
-149.7775932785278
 30
0.0
 10
124.5439913968154
 20
-149.779660335819
 30
0.0
 10
124.5439913968154
 20
-149.779660335819
 30
0.0
 10
124.5439913968154
 20
-149.5956922369066
 30
0.0
 10
124.5439913968154
 20
-149.5956922369066
 30
0.0
 10
124.6583685669257
 20
-149.6043049756197
 30
0.0
 10
124.7028102986854
 20
-149.6043049756197
 30
0.0
 10
125.0855604070966
 20
-149.6125732047843
 30
0.0
 10
125.022170650168
 20
-149.5174885693915
 30
0.0
 10
124.9946098862861
 20
-149.4899278055094
 30
0.0
 10
124.9587808932395
 20
-149.4540988124628
 30
0.0
 10
124.9587808932395
 20
-149.4540988124628
 30
0.0
 10
125.1341362534387
 20
-149.3714165208168
 30
0.0
 10
125.1341362534387
 20
-149.3714165208168
 30
0.0
 10
125.1744438706161
 20
-149.407590023412
 30
0.0
 10
125.2188856023758
 20
-149.4499646978806
 30
0.0
 10
125.2929551553087
 20
-149.55986324386
 30
0.0
 10
125.2929551553087
 20
-149.55986324386
 30
0.0
 10
125.1785779851984
 20
-149.614984771624
 30
0.0
 10
125.1785779851984
 20
-149.614984771624
 30
0.0
 10
125.1785779851984
 20
-149.614984771624
 30
0.0
 10
125.1892577812027
 20
-149.614984771624
 30
0.0
 10
125.1892577812027
 20
-149.614984771624
 30
0.0
 10
125.1892577812027
 20
-149.614984771624
 30
0.0
 10
125.7118787663151
 20
-149.614984771624
 30
0.0
 10
125.7118787663151
 20
-149.614984771624
 30
0.0
 10
125.7118787663151
 20
-149.614984771624
 30
0.0
 10
125.6164496213737
 20
-149.5705430398643
 30
0.0
 10
125.6164496213737
 20
-149.5705430398643
 30
0.0
 10
125.6440103852556
 20
-149.532302479978
 30
0.0
 10
125.7011989703108
 20
-149.4520317551717
 30
0.0
 10
125.7160128808974
 20
-149.3779622022388
 30
0.0
 10
125.7160128808974
 20
-149.3779622022388
 30
0.0
 10
125.9296088009828
 20
-149.4413519591674
 30
0.0
 10
125.9296088009828
 20
-149.4413519591674
 30
0.0
 10
125.938221539696
 20
-149.4434190164586
 30
0.0
 10
125.959236622156
 20
-149.4540988124628
 30
0.0
 10
125.959236622156
 20
-149.4751138949229
 30
0.0
 10
125.959236622156
 20
-149.5133544548091
 30
0.0
 10
125.8937798079363
 20
-149.5133544548091
 30
0.0
 10
125.8748317827674
 20
-149.5133544548091
 30
0.0
 10
125.8641519867631
 20
-149.532302479978
 30
0.0
 10
125.8407253374634
 20
-149.5726100971554
 30
0.0
 10
125.8110975162903
 20
-149.6125732047843
 30
0.0
 10
126.2110731021278
 20
-149.6063720329109
 30
0.0
 10
126.2407009233009
 20
-149.6043049756197
 30
0.0
 10
126.3168375335249
 20
-149.5977592941978
 30
0.0
 10
126.3168375335249
 20
-149.5977592941978
 30
0.0
 10
126.3168375335249
 20
-149.779660335819
 30
0.0
 10
126.3168375335249
 20
-149.779660335819
 30
0.0
 10
126.2978895083561
 20
-149.779660335819
 30
0.0
 10
126.2723958017652
 20
-149.7775932785278
 30
0.0
 10
126.0522542002578
 20
-149.7693250493632
 30
0.0
 10
126.0016112966246
 20
-149.7672579920721
 30
0.0
 10
125.7814696951171
 20
-149.7627793679412
 30
0.0
 10
125.7370279633574
 20
-149.7627793679412
 30
0.0
 10
125.7370279633574
 20
-149.7627793679412
 30
0.0
 10
125.5213649859808
 20
-149.7627793679412
 30
0.0
 10
125.5213649859808
 20
-149.7627793679412
 30
0.0
 10
125.5213649859808
 20
-149.7627793679412
 30
0.0
 10
125.5213649859808
 20
-149.8812906526338
 30
0.0
 10
125.5213649859808
 20
-149.8812906526338
 30
0.0
 10
125.5213649859808
 20
-149.8812906526338
 30
0.0
 10
125.6949977984374
 20
-149.8812906526338
 30
0.0
 10
125.6949977984374
 20
-149.8812906526338
 30
0.0
 10
125.8576063053411
 20
-149.8812906526338
 30
0.0
 10
126.0481200856754
 20
-149.8812906526338
 30
0.0
 10
126.2048719302543
 20
-149.8709553661781
 30
0.0
 10
126.2048719302543
 20
-149.8709553661781
 30
0.0
 10
126.2048719302543
 20
-150.042176611795
 30
0.0
 10
126.2048719302543
 20
-150.042176611795
 30
0.0
 10
125.9954101247511
 20
-150.0335638730819
 30
0.0
 10
125.7986951725434
 20
-150.0314968157907
 30
0.0
 10
125.6949977984374
 20
-150.0314968157907
 30
0.0
 10
125.6949977984374
 20
-150.0314968157907
 30
0.0
 10
125.5213649859808
 20
-150.0314968157907
 30
0.0
 10
125.5213649859808
 20
-150.0314968157907
 30
0.0
 10
125.5213649859808
 20
-150.0314968157907
 30
0.0
 10
125.5213649859808
 20
-150.139328304479
 30
0.0
 10
125.5213649859808
 20
-150.139328304479
 30
0.0
 10
125.5213649859808
 20
-150.139328304479
 30
0.0
 10
125.751841873944
 20
-150.139328304479
 30
0.0
 10
125.751841873944
 20
-150.139328304479
 30
0.0
 10
125.8851670692231
 20
-150.139328304479
 30
0.0
 10
126.1728325422415
 20
-150.1351941898967
 30
0.0
 10
126.3822943477447
 20
-150.1289930180233
 30
0.0
 10
126.3822943477447
 20
-150.1289930180233
 30
0.0
 10
126.3822943477447
 20
-150.3064154355137
 30
0.0
 10
126.3822943477447
 20
-150.3064154355137
 30
0.0
 10
126.1900580196678
 20
-150.3002142636402
 30
0.0
 10
125.8768988400585
 20
-150.2960801490579
 30
0.0
 10
125.751841873944
 20
-150.2960801490579
 30
0.0
  0
HATCH
  5
F8
330
EC
100
AcDbEntity
  8
レイヤー 1
 62
    18
420
        0
440
 33554687
100
AcDbHatch
 10
0.0
 20
0.0
 30
0.0
210
0.0
220
0.0
230
1.0
  2
SOLID
 70
     1
 71
     1
 91
        4
 92
        1
 93
        1
 72
     4
 94
        3
 73
     0
 74
     0
 95
       17
 96
       13
 40
0.0
 40
0.0
 40
0.0
 40
0.0
 40
1.0
 40
1.0
 40
1.0
 40
2.0
 40
2.0
 40
2.0
 40
3.0
 40
3.0
 40
3.0
 40
4.0
 40
4.0
 40
4.0
 40
4.0
 10
125.9168619476874
 20
-151.027818430125
 10
125.9168619476874
 20
-151.027818430125
 10
125.2102728636627
 20
-151.027818430125
 10
125.2102728636627
 20
-151.027818430125
 10
125.2102728636627
 20
-151.027818430125
 10
125.2102728636627
 20
-151.1421956002353
 10
125.2102728636627
 20
-151.1421956002353
 10
125.2102728636627
 20
-151.1421956002353
 10
125.9168619476874
 20
-151.1421956002353
 10
125.9168619476874
 20
-151.1421956002353
 10
125.9168619476874
 20
-151.1421956002353
 10
125.9168619476874
 20
-151.027818430125
 10
125.9168619476874
 20
-151.027818430125
 97
        0
 97
        1
330
F4
 92
        1
 93
        1
 72
     4
 94
        3
 73
     0
 74
     0
 95
       17
 96
       13
 40
0.0
 40
0.0
 40
0.0
 40
0.0
 40
1.0
 40
1.0
 40
1.0
 40
2.0
 40
2.0
 40
2.0
 40
3.0
 40
3.0
 40
3.0
 40
4.0
 40
4.0
 40
4.0
 40
4.0
 10
125.9168619476874
 20
-150.7845946888663
 10
125.9168619476874
 20
-150.7845946888663
 10
125.2102728636627
 20
-150.7845946888663
 10
125.2102728636627
 20
-150.7845946888663
 10
125.2102728636627
 20
-150.7845946888663
 10
125.2102728636627
 20
-150.8989718589766
 10
125.2102728636627
 20
-150.8989718589766
 10
125.2102728636627
 20
-150.8989718589766
 10
125.9168619476874
 20
-150.8989718589766
 10
125.9168619476874
 20
-150.8989718589766
 10
125.9168619476874
 20
-150.8989718589766
 10
125.9168619476874
 20
-150.7845946888663
 10
125.9168619476874
 20
-150.7845946888663
 97
        0
 97
        1
330
F5
 92
        1
 93
        1
 72
     4
 94
        3
 73
     0
 74
     0
 95
       17
 96
       13
 40
0.0
 40
0.0
 40
0.0
 40
0.0
 40
1.0
 40
1.0
 40
1.0
 40
2.0
 40
2.0
 40
2.0
 40
3.0
 40
3.0
 40
3.0
 40
4.0
 40
4.0
 40
4.0
 40
4.0
 10
125.9168619476874
 20
-150.552050743612
 10
125.9168619476874
 20
-150.552050743612
 10
125.2102728636627
 20
-150.552050743612
 10
125.2102728636627
 20
-150.552050743612
 10
125.2102728636627
 20
-150.552050743612
 10
125.2102728636627
 20
-150.6598822323003
 10
125.2102728636627
 20
-150.6598822323003
 10
125.2102728636627
 20
-150.6598822323003
 10
125.9168619476874
 20
-150.6598822323003
 10
125.9168619476874
 20
-150.6598822323003
 10
125.9168619476874
 20
-150.6598822323003
 10
125.9168619476874
 20
-150.552050743612
 10
125.9168619476874
 20
-150.552050743612
 97
        0
 97
        1
330
F6
 92
        1
 93
        1
 72
     4
 94
        3
 73
     0
 74
     0
 95
      203
 96
      199
 40
0.0
 40
0.0
 40
0.0
 40
0.0
 40
1.0
 40
1.0
 40
1.0
 40
2.0
 40
2.0
 40
2.0
 40
3.0
 40
3.0
 40
3.0
 40
4.0
 40
4.0
 40
4.0
 40
5.0
 40
5.0
 40
5.0
 40
6.0
 40
6.0
 40
6.0
 40
7.0
 40
7.0
 40
7.0
 40
8.0
 40
8.0
 40
8.0
 40
9.0
 40
9.0
 40
9.0
 40
10.0
 40
10.0
 40
10.0
 40
11.0
 40
11.0
 40
11.0
 40
12.0
 40
12.0
 40
12.0
 40
13.0
 40
13.0
 40
13.0
 40
14.0
 40
14.0
 40
14.0
 40
15.0
 40
15.0
 40
15.0
 40
16.0
 40
16.0
 40
16.0
 40
17.0
 40
17.0
 40
17.0
 40
18.0
 40
18.0
 40
18.0
 40
19.0
 40
19.0
 40
19.0
 40
20.0
 40
20.0
 40
20.0
 40
21.0
 40
21.0
 40
21.0
 40
22.0
 40
22.0
 40
22.0
 40
23.0
 40
23.0
 40
23.0
 40
24.0
 40
24.0
 40
24.0
 40
25.0
 40
25.0
 40
25.0
 40
26.0
 40
26.0
 40
26.0
 40
27.0
 40
27.0
 40
27.0
 40
28.0
 40
28.0
 40
28.0
 40
29.0
 40
29.0
 40
29.0
 40
30.0
 40
30.0
 40
30.0
 40
31.0
 40
31.0
 40
31.0
 40
32.0
 40
32.0
 40
32.0
 40
33.0
 40
33.0
 40
33.0
 40
34.0
 40
34.0
 40
34.0
 40
35.0
 40
35.0
 40
35.0
 40
36.0
 40
36.0
 40
36.0
 40
37.0
 40
37.0
 40
37.0
 40
38.0
 40
38.0
 40
38.0
 40
39.0
 40
39.0
 40
39.0
 40
40.0
 40
40.0
 40
40.0
 40
41.0
 40
41.0
 40
41.0
 40
42.0
 40
42.0
 40
42.0
 40
43.0
 40
43.0
 40
43.0
 40
44.0
 40
44.0
 40
44.0
 40
45.0
 40
45.0
 40
45.0
 40
46.0
 40
46.0
 40
46.0
 40
47.0
 40
47.0
 40
47.0
 40
48.0
 40
48.0
 40
48.0
 40
49.0
 40
49.0
 40
49.0
 40
50.0
 40
50.0
 40
50.0
 40
51.0
 40
51.0
 40
51.0
 40
52.0
 40
52.0
 40
52.0
 40
53.0
 40
53.0
 40
53.0
 40
54.0
 40
54.0
 40
54.0
 40
55.0
 40
55.0
 40
55.0
 40
56.0
 40
56.0
 40
56.0
 40
57.0
 40
57.0
 40
57.0
 40
58.0
 40
58.0
 40
58.0
 40
59.0
 40
59.0
 40
59.0
 40
60.0
 40
60.0
 40
60.0
 40
61.0
 40
61.0
 40
61.0
 40
62.0
 40
62.0
 40
62.0
 40
63.0
 40
63.0
 40
63.0
 40
64.0
 40
64.0
 40
64.0
 40
65.0
 40
65.0
 40
65.0
 40
66.0
 40
66.0
 40
66.0
 40
66.0
 10
125.751841873944
 20
-150.2960801490579
 10
125.751841873944
 20
-150.2960801490579
 10
125.193391895785
 20
-150.2960801490579
 10
125.193391895785
 20
-150.2960801490579
 10
125.1830566093292
 20
-150.3405218808176
 10
125.1744438706161
 20
-150.3722167592819
 10
125.1616970173207
 20
-150.4101128096197
 10
125.1871907239115
 20
-150.4101128096197
 10
125.2020046344981
 20
-150.4125243764593
 10
125.2082058063715
 20
-150.4125243764593
 10
125.2082058063715
 20
-150.4125243764593
 10
125.3966525294147
 20
-150.4125243764593
 10
125.3966525294147
 20
-150.4125243764593
 10
125.3966525294147
 20
-150.4125243764593
 10
125.7711344086614
 20
-150.4125243764593
 10
125.7711344086614
 20
-150.4125243764593
 10
125.8217773122945
 20
-150.4125243764593
 10
126.1053086707306
 20
-150.3997775231639
 10
126.1370035491949
 20
-150.3997775231639
 10
126.1349364919037
 20
-150.4273382870459
 10
126.1328694346126
 20
-150.4462863122148
 10
126.1328694346126
 20
-150.4759141333879
 10
126.1308023773215
 20
-150.5076090118523
 10
126.1308023773215
 20
-150.6430012644226
 10
126.1308023773215
 20
-150.6705620283046
 10
126.1308023773215
 20
-150.6705620283046
 10
126.1308023773215
 20
-150.9158528268543
 10
126.1308023773215
 20
-150.9158528268543
 10
126.1308023773215
 20
-150.9602945586141
 10
126.1349364919037
 20
-151.1570095108218
 10
126.1390706064861
 20
-151.3092827312699
 10
126.1390706064861
 20
-151.3092827312699
 10
125.9127278331051
 20
-151.3092827312699
 10
125.9127278331051
 20
-151.3092827312699
 10
125.9127278331051
 20
-151.3092827312699
 10
125.9147948903963
 20
-151.2755207955144
 10
125.9147948903963
 20
-151.2755207955144
 10
125.9147948903963
 20
-151.2755207955144
 10
125.2126844305024
 20
-151.2755207955144
 10
125.2126844305024
 20
-151.2755207955144
 10
125.2126844305024
 20
-151.2755207955144
 10
125.2147514877935
 20
-151.3092827312699
 10
125.2147514877935
 20
-151.3092827312699
 10
125.2147514877935
 20
-151.3092827312699
 10
124.9966769435772
 20
-151.3092827312699
 10
124.9966769435772
 20
-151.3092827312699
 10
125.001155567708
 20
-151.2541612035059
 10
125.001155567708
 20
-151.241758859759
 10
125.0073567395815
 20
-151.1273816896487
 10
125.0094237968726
 20
-151.0998209257667
 10
125.0114908541638
 20
-150.9664957304875
 10
125.0114908541638
 20
-150.9475477053186
 10
125.0114908541638
 20
-150.9475477053186
 10
125.0114908541638
 20
-150.7446315812374
 10
125.0114908541638
 20
-150.7446315812374
 10
124.8719644870112
 20
-150.9940564943695
 10
124.7028102986854
 20
-151.1253146323575
 10
124.5970458672882
 20
-151.1907714465773
 10
124.5970458672882
 20
-151.1907714465773
 10
124.4234130548316
 20
-151.0512450794247
 10
124.4234130548316
 20
-151.0512450794247
 10
124.5122965183511
 20
-151.0006021757915
 10
124.6563015096345
 20
-150.9137857695632
 10
124.793760819496
 20
-150.7191378746466
 10
124.8847113403066
 20
-150.5920138512409
 10
124.9501681545263
 20
-150.448353369506
 10
124.9839300902818
 20
-150.2960801490579
 10
124.7555202596097
 20
-150.2981472063491
 10
124.5756862752797
 20
-150.3043483782225
 10
124.4806016398868
 20
-150.3064154355137
 10
124.4806016398868
 20
-150.3064154355137
 10
124.4806016398868
 20
-150.1289930180233
 10
124.4806016398868
 20
-150.1289930180233
 10
124.6773165920946
 20
-150.1351941898967
 10
124.9608479505306
 20
-150.139328304479
 10
125.1110541136875
 20
-150.139328304479
 10
125.1110541136875
 20
-150.139328304479
 10
125.324650033773
 20
-150.139328304479
 10
125.324650033773
 20
-150.139328304479
 10
125.324650033773
 20
-150.139328304479
 10
125.324650033773
 20
-150.0314968157907
 10
125.324650033773
 20
-150.0314968157907
 10
125.324650033773
 20
-150.0314968157907
 10
125.1785779851984
 20
-150.0314968157907
 10
125.1785779851984
 20
-150.0314968157907
 10
125.0094237968726
 20
-150.0314968157907
 10
124.8402696085469
 20
-150.035630930373
 10
124.6731824775122
 20
-150.042176611795
 10
124.6731824775122
 20
-150.042176611795
 10
124.6731824775122
 20
-149.8709553661781
 10
124.6731824775122
 20
-149.8709553661781
 10
124.8275227552514
 20
-149.8812906526338
 10
125.0135579114549
 20
-149.8812906526338
 10
125.1785779851984
 20
-149.8812906526338
 10
125.1785779851984
 20
-149.8812906526338
 10
125.324650033773
 20
-149.8812906526338
 10
125.324650033773
 20
-149.8812906526338
 10
125.324650033773
 20
-149.8812906526338
 10
125.324650033773
 20
-149.7627793679412
 10
125.324650033773
 20
-149.7627793679412
 10
125.324650033773
 20
-149.7627793679412
 10
125.193391895785
 20
-149.7627793679412
 10
125.193391895785
 20
-149.7627793679412
 10
125.1468831067341
 20
-149.7627793679412
 10
124.9439669826529
 20
-149.7713921066544
 10
124.9015923081843
 20
-149.7713921066544
 10
124.6983316745546
 20
-149.7755262212367
 10
124.6221950643305
 20
-149.7775932785278
 10
124.5439913968154
 20
-149.779660335819
 10
124.5439913968154
 20
-149.779660335819
 10
124.5439913968154
 20
-149.5956922369066
 10
124.5439913968154
 20
-149.5956922369066
 10
124.6583685669257
 20
-149.6043049756197
 10
124.7028102986854
 20
-149.6043049756197
 10
125.0855604070966
 20
-149.6125732047843
 10
125.022170650168
 20
-149.5174885693915
 10
124.9946098862861
 20
-149.4899278055094
 10
124.9587808932395
 20
-149.4540988124628
 10
124.9587808932395
 20
-149.4540988124628
 10
125.1341362534387
 20
-149.3714165208168
 10
125.1341362534387
 20
-149.3714165208168
 10
125.1744438706161
 20
-149.407590023412
 10
125.2188856023758
 20
-149.4499646978806
 10
125.2929551553087
 20
-149.55986324386
 10
125.2929551553087
 20
-149.55986324386
 10
125.1785779851984
 20
-149.614984771624
 10
125.1785779851984
 20
-149.614984771624
 10
125.1785779851984
 20
-149.614984771624
 10
125.1892577812027
 20
-149.614984771624
 10
125.1892577812027
 20
-149.614984771624
 10
125.1892577812027
 20
-149.614984771624
 10
125.7118787663151
 20
-149.614984771624
 10
125.7118787663151
 20
-149.614984771624
 10
125.7118787663151
 20
-149.614984771624
 10
125.6164496213737
 20
-149.5705430398643
 10
125.6164496213737
 20
-149.5705430398643
 10
125.6440103852556
 20
-149.532302479978
 10
125.7011989703108
 20
-149.4520317551717
 10
125.7160128808974
 20
-149.3779622022388
 10
125.7160128808974
 20
-149.3779622022388
 10
125.9296088009828
 20
-149.4413519591674
 10
125.9296088009828
 20
-149.4413519591674
 10
125.938221539696
 20
-149.4434190164586
 10
125.959236622156
 20
-149.4540988124628
 10
125.959236622156
 20
-149.4751138949229
 10
125.959236622156
 20
-149.5133544548091
 10
125.8937798079363
 20
-149.5133544548091
 10
125.8748317827674
 20
-149.5133544548091
 10
125.8641519867631
 20
-149.532302479978
 10
125.8407253374634
 20
-149.5726100971554
 10
125.8110975162903
 20
-149.6125732047843
 10
126.2110731021278
 20
-149.6063720329109
 10
126.2407009233009
 20
-149.6043049756197
 10
126.3168375335249
 20
-149.5977592941978
 10
126.3168375335249
 20
-149.5977592941978
 10
126.3168375335249
 20
-149.779660335819
 10
126.3168375335249
 20
-149.779660335819
 10
126.2978895083561
 20
-149.779660335819
 10
126.2723958017652
 20
-149.7775932785278
 10
126.0522542002578
 20
-149.7693250493632
 10
126.0016112966246
 20
-149.7672579920721
 10
125.7814696951171
 20
-149.7627793679412
 10
125.7370279633574
 20
-149.7627793679412
 10
125.7370279633574
 20
-149.7627793679412
 10
125.5213649859808
 20
-149.7627793679412
 10
125.5213649859808
 20
-149.7627793679412
 10
125.5213649859808
 20
-149.7627793679412
 10
125.5213649859808
 20
-149.8812906526338
 10
125.5213649859808
 20
-149.8812906526338
 10
125.5213649859808
 20
-149.8812906526338
 10
125.6949977984374
 20
-149.8812906526338
 10
125.6949977984374
 20
-149.8812906526338
 10
125.8576063053411
 20
-149.8812906526338
 10
126.0481200856754
 20
-149.8812906526338
 10
126.2048719302543
 20
-149.8709553661781
 10
126.2048719302543
 20
-149.8709553661781
 10
126.2048719302543
 20
-150.042176611795
 10
126.2048719302543
 20
-150.042176611795
 10
125.9954101247511
 20
-150.0335638730819
 10
125.7986951725434
 20
-150.0314968157907
 10
125.6949977984374
 20
-150.0314968157907
 10
125.6949977984374
 20
-150.0314968157907
 10
125.5213649859808
 20
-150.0314968157907
 10
125.5213649859808
 20
-150.0314968157907
 10
125.5213649859808
 20
-150.0314968157907
 10
125.5213649859808
 20
-150.139328304479
 10
125.5213649859808
 20
-150.139328304479
 10
125.5213649859808
 20
-150.139328304479
 10
125.751841873944
 20
-150.139328304479
 10
125.751841873944
 20
-150.139328304479
 10
125.8851670692231
 20
-150.139328304479
 10
126.1728325422415
 20
-150.1351941898967
 10
126.3822943477447
 20
-150.1289930180233
 10
126.3822943477447
 20
-150.1289930180233
 10
126.3822943477447
 20
-150.3064154355137
 10
126.3822943477447
 20
-150.3064154355137
 10
126.1900580196678
 20
-150.3002142636402
 10
125.8768988400585
 20
-150.2960801490579
 10
125.751841873944
 20
-150.2960801490579
 97
        0
 97
        1
330
F7
 75
     2
 76
     1
 98
        1
 10
0.0
 20
0.0
450
        0
451
        0
460
0.0
461
0.0
452
        0
462
0.0
453
        0
470

  0
SPLINE
  5
F9
330
EC
100
AcDbEntity
  8
レイヤー 1
100
AcDbSpline
210
0.0
220
0.0
230
1.0
 70
     9
 71
     3
 72
    29
 73
    25
 74
     0
 42
0.0000000001
 43
0.0000000001
 40
0.0
 40
0.0
 40
0.0
 40
0.0
 40
1.0
 40
1.0
 40
1.0
 40
2.0
 40
2.0
 40
2.0
 40
3.0
 40
3.0
 40
3.0
 40
4.0
 40
4.0
 40
4.0
 40
5.0
 40
5.0
 40
5.0
 40
6.0
 40
6.0
 40
6.0
 40
7.0
 40
7.0
 40
7.0
 40
8.0
 40
8.0
 40
8.0
 40
8.0
 10
127.627351856114
 20
-149.7438313427724
 30
0.0
 10
127.627351856114
 20
-149.7438313427724
 30
0.0
 10
127.2742295688759
 20
-149.7438313427724
 30
0.0
 10
127.2742295688759
 20
-149.7438313427724
 30
0.0
 10
127.1619194560567
 20
-149.7438313427724
 30
0.0
 10
127.0223930889041
 20
-149.7500325146458
 30
0.0
 10
126.9145616002158
 20
-149.7627793679412
 30
0.0
 10
126.9145616002158
 20
-149.7627793679412
 30
0.0
 10
126.9145616002158
 20
-149.5281683653957
 30
0.0
 10
126.9145616002158
 20
-149.5281683653957
 30
0.0
 10
127.0330728849084
 20
-149.5429822759823
 30
0.0
 10
127.2170409838207
 20
-149.5471163905646
 30
0.0
 10
127.2742295688759
 20
-149.5471163905646
 30
0.0
 10
127.2742295688759
 20
-149.5471163905646
 30
0.0
 10
127.627351856114
 20
-149.5471163905646
 30
0.0
 10
127.627351856114
 20
-149.5471163905646
 30
0.0
 10
127.6466443908314
 20
-149.5471163905646
 30
0.0
 10
127.8495605149126
 20
-149.5471163905646
 30
0.0
 10
127.9911539393564
 20
-149.5281683653957
 30
0.0
 10
127.9911539393564
 20
-149.5281683653957
 30
0.0
 10
127.9911539393564
 20
-149.7627793679412
 30
0.0
 10
127.9911539393564
 20
-149.7627793679412
 30
0.0
 10
127.834746604326
 20
-149.7438313427724
 30
0.0
 10
127.6442328239917
 20
-149.7438313427724
 30
0.0
 10
127.627351856114
 20
-149.7438313427724
 30
0.0
  0
SPLINE
  5
FA
330
EC
100
AcDbEntity
  8
レイヤー 1
100
AcDbSpline
210
0.0
220
0.0
230
1.0
 70
     9
 71
     3
 72
    47
 73
    43
 74
     0
 42
0.0000000001
 43
0.0000000001
 40
0.0
 40
0.0
 40
0.0
 40
0.0
 40
1.0
 40
1.0
 40
1.0
 40
2.0
 40
2.0
 40
2.0
 40
3.0
 40
3.0
 40
3.0
 40
4.0
 40
4.0
 40
4.0
 40
5.0
 40
5.0
 40
5.0
 40
6.0
 40
6.0
 40
6.0
 40
7.0
 40
7.0
 40
7.0
 40
8.0
 40
8.0
 40
8.0
 40
9.0
 40
9.0
 40
9.0
 40
10.0
 40
10.0
 40
10.0
 40
11.0
 40
11.0
 40
11.0
 40
12.0
 40
12.0
 40
12.0
 40
13.0
 40
13.0
 40
13.0
 40
14.0
 40
14.0
 40
14.0
 40
14.0
 10
127.7289821729288
 20
-150.2726534997582
 30
0.0
 10
127.7289821729288
 20
-150.2726534997582
 30
0.0
 10
127.627351856114
 20
-150.2726534997582
 30
0.0
 10
127.627351856114
 20
-150.2726534997582
 30
0.0
 10
127.627351856114
 20
-150.3594699059865
 30
0.0
 10
127.606336773654
 20
-150.7487656958197
 30
0.0
 10
127.4096218214462
 20
-150.9689072973272
 30
0.0
 10
127.2573486009981
 20
-151.138061485653
 30
0.0
 10
127.0499538527861
 20
-151.207652414455
 30
0.0
 10
126.965204503849
 20
-151.235213178337
 30
0.0
 10
126.965204503849
 20
-151.235213178337
 30
0.0
 10
126.7705566089323
 20
-151.0681260473024
 30
0.0
 10
126.7705566089323
 20
-151.0681260473024
 30
0.0
 10
126.8680528111649
 20
-151.055379194007
 30
0.0
 10
127.0434081713641
 20
-151.0322970542558
 30
0.0
 10
127.2318548944073
 20
-150.8438503312126
 30
0.0
 10
127.3059244473402
 20
-150.7718478355709
 30
0.0
 10
127.4096218214462
 20
-150.6323214684183
 30
0.0
 10
127.4096218214462
 20
-150.2726534997582
 30
0.0
 10
127.4096218214462
 20
-150.2726534997582
 30
0.0
 10
127.1788004239345
 20
-150.2726534997582
 30
0.0
 10
127.1788004239345
 20
-150.2726534997582
 30
0.0
 10
126.992765267731
 20
-150.2726534997582
 30
0.0
 10
126.8067301115275
 20
-150.277132123889
 30
0.0
 10
126.6203504457754
 20
-150.2916015249271
 30
0.0
 10
126.6203504457754
 20
-150.2916015249271
 30
0.0
 10
126.6203504457754
 20
-150.0718044329682
 30
0.0
 10
126.6203504457754
 20
-150.0718044329682
 30
0.0
 10
126.8087971688186
 20
-150.0866183435547
 30
0.0
 10
127.0943955845458
 20
-150.090752458137
 30
0.0
 10
127.1788004239345
 20
-150.090752458137
 30
0.0
 10
127.1788004239345
 20
-150.090752458137
 30
0.0
 10
127.7289821729288
 20
-150.090752458137
 30
0.0
 10
127.7289821729288
 20
-150.090752458137
 30
0.0
 10
127.7479301980977
 20
-150.090752458137
 30
0.0
 10
128.0652234922892
 20
-150.090752458137
 30
0.0
 10
128.2939778325098
 20
-150.0718044329682
 30
0.0
 10
128.2939778325098
 20
-150.0718044329682
 30
0.0
 10
128.2939778325098
 20
-150.2916015249271
 30
0.0
 10
128.2939778325098
 20
-150.2916015249271
 30
0.0
 10
128.1055311094666
 20
-150.277132123889
 30
0.0
 10
127.917428895972
 20
-150.2726534997582
 30
0.0
 10
127.7289821729288
 20
-150.2726534997582
 30
0.0
  0
HATCH
  5
FB
330
EC
100
AcDbEntity
  8
レイヤー 1
 62
    18
420
        0
440
 33554687
100
AcDbHatch
 10
0.0
 20
0.0
 30
0.0
210
0.0
220
0.0
230
1.0
  2
SOLID
 70
     1
 71
     1
 91
        2
 92
        1
 93
        1
 72
     4
 94
        3
 73
     0
 74
     0
 95
       29
 96
       25
 40
0.0
 40
0.0
 40
0.0
 40
0.0
 40
1.0
 40
1.0
 40
1.0
 40
2.0
 40
2.0
 40
2.0
 40
3.0
 40
3.0
 40
3.0
 40
4.0
 40
4.0
 40
4.0
 40
5.0
 40
5.0
 40
5.0
 40
6.0
 40
6.0
 40
6.0
 40
7.0
 40
7.0
 40
7.0
 40
8.0
 40
8.0
 40
8.0
 40
8.0
 10
127.627351856114
 20
-149.7438313427724
 10
127.627351856114
 20
-149.7438313427724
 10
127.2742295688759
 20
-149.7438313427724
 10
127.2742295688759
 20
-149.7438313427724
 10
127.1619194560567
 20
-149.7438313427724
 10
127.0223930889041
 20
-149.7500325146458
 10
126.9145616002158
 20
-149.7627793679412
 10
126.9145616002158
 20
-149.7627793679412
 10
126.9145616002158
 20
-149.5281683653957
 10
126.9145616002158
 20
-149.5281683653957
 10
127.0330728849084
 20
-149.5429822759823
 10
127.2170409838207
 20
-149.5471163905646
 10
127.2742295688759
 20
-149.5471163905646
 10
127.2742295688759
 20
-149.5471163905646
 10
127.627351856114
 20
-149.5471163905646
 10
127.627351856114
 20
-149.5471163905646
 10
127.6466443908314
 20
-149.5471163905646
 10
127.8495605149126
 20
-149.5471163905646
 10
127.9911539393564
 20
-149.5281683653957
 10
127.9911539393564
 20
-149.5281683653957
 10
127.9911539393564
 20
-149.7627793679412
 10
127.9911539393564
 20
-149.7627793679412
 10
127.834746604326
 20
-149.7438313427724
 10
127.6442328239917
 20
-149.7438313427724
 10
127.627351856114
 20
-149.7438313427724
 97
        0
 97
        1
330
F9
 92
        1
 93
        1
 72
     4
 94
        3
 73
     0
 74
     0
 95
       47
 96
       43
 40
0.0
 40
0.0
 40
0.0
 40
0.0
 40
1.0
 40
1.0
 40
1.0
 40
2.0
 40
2.0
 40
2.0
 40
3.0
 40
3.0
 40
3.0
 40
4.0
 40
4.0
 40
4.0
 40
5.0
 40
5.0
 40
5.0
 40
6.0
 40
6.0
 40
6.0
 40
7.0
 40
7.0
 40
7.0
 40
8.0
 40
8.0
 40
8.0
 40
9.0
 40
9.0
 40
9.0
 40
10.0
 40
10.0
 40
10.0
 40
11.0
 40
11.0
 40
11.0
 40
12.0
 40
12.0
 40
12.0
 40
13.0
 40
13.0
 40
13.0
 40
14.0
 40
14.0
 40
14.0
 40
14.0
 10
127.7289821729288
 20
-150.2726534997582
 10
127.7289821729288
 20
-150.2726534997582
 10
127.627351856114
 20
-150.2726534997582
 10
127.627351856114
 20
-150.2726534997582
 10
127.627351856114
 20
-150.3594699059865
 10
127.606336773654
 20
-150.7487656958197
 10
127.4096218214462
 20
-150.9689072973272
 10
127.2573486009981
 20
-151.138061485653
 10
127.0499538527861
 20
-151.207652414455
 10
126.965204503849
 20
-151.235213178337
 10
126.965204503849
 20
-151.235213178337
 10
126.7705566089323
 20
-151.0681260473024
 10
126.7705566089323
 20
-151.0681260473024
 10
126.8680528111649
 20
-151.055379194007
 10
127.0434081713641
 20
-151.0322970542558
 10
127.2318548944073
 20
-150.8438503312126
 10
127.3059244473402
 20
-150.7718478355709
 10
127.4096218214462
 20
-150.6323214684183
 10
127.4096218214462
 20
-150.2726534997582
 10
127.4096218214462
 20
-150.2726534997582
 10
127.1788004239345
 20
-150.2726534997582
 10
127.1788004239345
 20
-150.2726534997582
 10
126.992765267731
 20
-150.2726534997582
 10
126.8067301115275
 20
-150.277132123889
 10
126.6203504457754
 20
-150.2916015249271
 10
126.6203504457754
 20
-150.2916015249271
 10
126.6203504457754
 20
-150.0718044329682
 10
126.6203504457754
 20
-150.0718044329682
 10
126.8087971688186
 20
-150.0866183435547
 10
127.0943955845458
 20
-150.090752458137
 10
127.1788004239345
 20
-150.090752458137
 10
127.1788004239345
 20
-150.090752458137
 10
127.7289821729288
 20
-150.090752458137
 10
127.7289821729288
 20
-150.090752458137
 10
127.7479301980977
 20
-150.090752458137
 10
128.0652234922892
 20
-150.090752458137
 10
128.2939778325098
 20
-150.0718044329682
 10
128.2939778325098
 20
-150.0718044329682
 10
128.2939778325098
 20
-150.2916015249271
 10
128.2939778325098
 20
-150.2916015249271
 10
128.1055311094666
 20
-150.277132123889
 10
127.917428895972
 20
-150.2726534997582
 10
127.7289821729288
 20
-150.2726534997582
 97
        0
 97
        1
330
FA
 75
     2
 76
     1
 98
        1
 10
0.0
 20
0.0
450
        0
451
        0
460
0.0
461
0.0
452
        0
462
0.0
453
        0
470

  0
SPLINE
  5
FC
330
EC
100
AcDbEntity
  8
レイヤー 1
100
AcDbSpline
210
0.0
220
0.0
230
1.0
 70
     9
 71
     3
 72
    29
 73
    25
 74
     0
 42
0.0000000001
 43
0.0000000001
 40
0.0
 40
0.0
 40
0.0
 40
0.0
 40
1.0
 40
1.0
 40
1.0
 40
2.0
 40
2.0
 40
2.0
 40
3.0
 40
3.0
 40
3.0
 40
4.0
 40
4.0
 40
4.0
 40
5.0
 40
5.0
 40
5.0
 40
6.0
 40
6.0
 40
6.0
 40
7.0
 40
7.0
 40
7.0
 40
8.0
 40
8.0
 40
8.0
 40
8.0
 10
129.5748643339257
 20
-150.4356065162105
 30
0.0
 10
129.5748643339257
 20
-150.4356065162105
 30
0.0
 10
129.0904839086996
 20
-150.4356065162105
 30
0.0
 10
129.0904839086996
 20
-150.4356065162105
 30
0.0
 10
129.0629231448176
 20
-150.4356065162105
 30
0.0
 10
128.7456298506261
 20
-150.4356065162105
 30
0.0
 10
128.5341009878317
 20
-150.4611002228014
 30
0.0
 10
128.5341009878317
 20
-150.4611002228014
 30
0.0
 10
128.5341009878317
 20
-150.2302788252896
 30
0.0
 10
128.5341009878317
 20
-150.2302788252896
 30
0.0
 10
128.6925753801532
 20
-150.2537054745893
 30
0.0
 10
128.8830891604876
 20
-150.2557725318805
 30
0.0
 10
129.0904839086996
 20
-150.2557725318805
 30
0.0
 10
129.0904839086996
 20
-150.2557725318805
 30
0.0
 10
129.5748643339257
 20
-150.2557725318805
 30
0.0
 10
129.5748643339257
 20
-150.2557725318805
 30
0.0
 10
129.7608994901292
 20
-150.2557725318805
 30
0.0
 10
129.9469346463327
 20
-150.2537054745893
 30
0.0
 10
130.1312472547936
 20
-150.2302788252896
 30
0.0
 10
130.1312472547936
 20
-150.2302788252896
 30
0.0
 10
130.1312472547936
 20
-150.4611002228014
 30
0.0
 10
130.1312472547936
 20
-150.4611002228014
 30
0.0
 10
129.9469346463327
 20
-150.4376735735017
 30
0.0
 10
129.6995767904918
 20
-150.4356065162105
 30
0.0
 10
129.5748643339257
 20
-150.4356065162105
 30
0.0
  0
HATCH
  5
FD
330
EC
100
AcDbEntity
  8
レイヤー 1
 62
    18
420
        0
440
 33554687
100
AcDbHatch
 10
0.0
 20
0.0
 30
0.0
210
0.0
220
0.0
230
1.0
  2
SOLID
 70
     1
 71
     1
 91
        1
 92
        1
 93
        1
 72
     4
 94
        3
 73
     0
 74
     0
 95
       29
 96
       25
 40
0.0
 40
0.0
 40
0.0
 40
0.0
 40
1.0
 40
1.0
 40
1.0
 40
2.0
 40
2.0
 40
2.0
 40
3.0
 40
3.0
 40
3.0
 40
4.0
 40
4.0
 40
4.0
 40
5.0
 40
5.0
 40
5.0
 40
6.0
 40
6.0
 40
6.0
 40
7.0
 40
7.0
 40
7.0
 40
8.0
 40
8.0
 40
8.0
 40
8.0
 10
129.5748643339257
 20
-150.4356065162105
 10
129.5748643339257
 20
-150.4356065162105
 10
129.0904839086996
 20
-150.4356065162105
 10
129.0904839086996
 20
-150.4356065162105
 10
129.0629231448176
 20
-150.4356065162105
 10
128.7456298506261
 20
-150.4356065162105
 10
128.5341009878317
 20
-150.4611002228014
 10
128.5341009878317
 20
-150.4611002228014
 10
128.5341009878317
 20
-150.2302788252896
 10
128.5341009878317
 20
-150.2302788252896
 10
128.6925753801532
 20
-150.2537054745893
 10
128.8830891604876
 20
-150.2557725318805
 10
129.0904839086996
 20
-150.2557725318805
 10
129.0904839086996
 20
-150.2557725318805
 10
129.5748643339257
 20
-150.2557725318805
 10
129.5748643339257
 20
-150.2557725318805
 10
129.7608994901292
 20
-150.2557725318805
 10
129.9469346463327
 20
-150.2537054745893
 10
130.1312472547936
 20
-150.2302788252896
 10
130.1312472547936
 20
-150.2302788252896
 10
130.1312472547936
 20
-150.4611002228014
 10
130.1312472547936
 20
-150.4611002228014
 10
129.9469346463327
 20
-150.4376735735017
 10
129.6995767904918
 20
-150.4356065162105
 10
129.5748643339257
 20
-150.4356065162105
 97
        0
 97
        1
330
FC
 75
     2
 76
     1
 98
        1
 10
0.0
 20
0.0
450
        0
451
        0
460
0.0
461
0.0
452
        0
462
0.0
453
        0
470

  0
SPLINE
  5
FE
330
EC
100
AcDbEntity
  8
レイヤー 1
100
AcDbSpline
210
0.0
220
0.0
230
1.0
 70
     9
 71
     3
 72
    47
 73
    43
 74
     0
 42
0.0000000001
 43
0.0000000001
 40
0.0
 40
0.0
 40
0.0
 40
0.0
 40
1.0
 40
1.0
 40
1.0
 40
2.0
 40
2.0
 40
2.0
 40
3.0
 40
3.0
 40
3.0
 40
4.0
 40
4.0
 40
4.0
 40
5.0
 40
5.0
 40
5.0
 40
6.0
 40
6.0
 40
6.0
 40
7.0
 40
7.0
 40
7.0
 40
8.0
 40
8.0
 40
8.0
 40
9.0
 40
9.0
 40
9.0
 40
10.0
 40
10.0
 40
10.0
 40
11.0
 40
11.0
 40
11.0
 40
12.0
 40
12.0
 40
12.0
 40
13.0
 40
13.0
 40
13.0
 40
14.0
 40
14.0
 40
14.0
 40
14.0
 10
131.7948838646207
 20
-149.8413275450049
 30
0.0
 10
131.7252929358187
 20
-150.1203802793102
 30
0.0
 10
131.6488118160461
 20
-150.4249267202063
 30
0.0
 10
131.3359971459854
 20
-150.7570339249843
 30
0.0
 10
131.0989745766002
 20
-151.0068033476649
 30
0.0
 10
130.8536837780505
 20
-151.1063666071887
 30
0.0
 10
130.7479193466533
 20
-151.1483967721087
 30
0.0
 10
130.7479193466533
 20
-151.1483967721087
 30
0.0
 10
130.5532714517367
 20
-150.9664957304875
 30
0.0
 10
130.5532714517367
 20
-150.9664957304875
 30
0.0
 10
130.7393066079402
 20
-150.9199869414367
 30
0.0
 10
131.1010416338914
 20
-150.8269693633349
 30
0.0
 10
131.3973198456229
 20
-150.3319091421045
 30
0.0
 10
131.5578612952355
 20
-150.0652587515462
 30
0.0
 10
131.5706081485309
 20
-149.8919704486381
 30
0.0
 10
131.579220887244
 20
-149.8010199278275
 30
0.0
 10
131.579220887244
 20
-149.8010199278275
 30
0.0
 10
131.0734808700094
 20
-149.8010199278275
 30
0.0
 10
131.0734808700094
 20
-149.8010199278275
 30
0.0
 10
130.9549695853168
 20
-149.8010199278275
 30
0.0
 10
130.5339789170192
 20
-149.8199679529964
 30
0.0
 10
130.3817056965712
 20
-149.8306477490007
 30
0.0
 10
130.3817056965712
 20
-149.8306477490007
 30
0.0
 10
130.3817056965712
 20
-149.6211859434975
 30
0.0
 10
130.3817056965712
 20
-149.6211859434975
 30
0.0
 10
130.5236436305635
 20
-149.6339327967929
 30
0.0
 10
130.8006293075776
 20
-149.6380669113752
 30
0.0
 10
130.9170735349791
 20
-149.6380669113752
 30
0.0
 10
130.9170735349791
 20
-149.6380669113752
 30
0.0
 10
131.2722628795083
 20
-149.6380669113752
 30
0.0
 10
131.2722628795083
 20
-149.6380669113752
 30
0.0
 10
131.2998236433903
 20
-149.6380669113752
 30
0.0
 10
131.4607096025515
 20
-149.6359998540841
 30
0.0
 10
131.5706081485309
 20
-149.6211859434975
 30
0.0
 10
131.6277967335861
 20
-149.614984771624
 30
0.0
 10
131.6446777014638
 20
-149.5956922369066
 30
0.0
 10
131.6681043507635
 20
-149.5726100971554
 30
0.0
 10
131.6681043507635
 20
-149.5726100971554
 30
0.0
 10
131.8562065642582
 20
-149.7228162603123
 30
0.0
 10
131.8562065642582
 20
-149.7228162603123
 30
0.0
 10
131.8413926536716
 20
-149.7524440814855
 30
0.0
 10
131.8310573672158
 20
-149.7713921066544
 30
0.0
 10
131.7948838646207
 20
-149.8413275450049
 30
0.0
  0
HATCH
  5
FF
330
EC
100
AcDbEntity
  8
レイヤー 1
 62
    18
420
        0
440
 33554687
100
AcDbHatch
 10
0.0
 20
0.0
 30
0.0
210
0.0
220
0.0
230
1.0
  2
SOLID
 70
     1
 71
     1
 91
        1
 92
        1
 93
        1
 72
     4
 94
        3
 73
     0
 74
     0
 95
       47
 96
       43
 40
0.0
 40
0.0
 40
0.0
 40
0.0
 40
1.0
 40
1.0
 40
1.0
 40
2.0
 40
2.0
 40
2.0
 40
3.0
 40
3.0
 40
3.0
 40
4.0
 40
4.0
 40
4.0
 40
5.0
 40
5.0
 40
5.0
 40
6.0
 40
6.0
 40
6.0
 40
7.0
 40
7.0
 40
7.0
 40
8.0
 40
8.0
 40
8.0
 40
9.0
 40
9.0
 40
9.0
 40
10.0
 40
10.0
 40
10.0
 40
11.0
 40
11.0
 40
11.0
 40
12.0
 40
12.0
 40
12.0
 40
13.0
 40
13.0
 40
13.0
 40
14.0
 40
14.0
 40
14.0
 40
14.0
 10
131.7948838646207
 20
-149.8413275450049
 10
131.7252929358187
 20
-150.1203802793102
 10
131.6488118160461
 20
-150.4249267202063
 10
131.3359971459854
 20
-150.7570339249843
 10
131.0989745766002
 20
-151.0068033476649
 10
130.8536837780505
 20
-151.1063666071887
 10
130.7479193466533
 20
-151.1483967721087
 10
130.7479193466533
 20
-151.1483967721087
 10
130.5532714517367
 20
-150.9664957304875
 10
130.5532714517367
 20
-150.9664957304875
 10
130.7393066079402
 20
-150.9199869414367
 10
131.1010416338914
 20
-150.8269693633349
 10
131.3973198456229
 20
-150.3319091421045
 10
131.5578612952355
 20
-150.0652587515462
 10
131.5706081485309
 20
-149.8919704486381
 10
131.579220887244
 20
-149.8010199278275
 10
131.579220887244
 20
-149.8010199278275
 10
131.0734808700094
 20
-149.8010199278275
 10
131.0734808700094
 20
-149.8010199278275
 10
130.9549695853168
 20
-149.8010199278275
 10
130.5339789170192
 20
-149.8199679529964
 10
130.3817056965712
 20
-149.8306477490007
 10
130.3817056965712
 20
-149.8306477490007
 10
130.3817056965712
 20
-149.6211859434975
 10
130.3817056965712
 20
-149.6211859434975
 10
130.5236436305635
 20
-149.6339327967929
 10
130.8006293075776
 20
-149.6380669113752
 10
130.9170735349791
 20
-149.6380669113752
 10
130.9170735349791
 20
-149.6380669113752
 10
131.2722628795083
 20
-149.6380669113752
 10
131.2722628795083
 20
-149.6380669113752
 10
131.2998236433903
 20
-149.6380669113752
 10
131.4607096025515
 20
-149.6359998540841
 10
131.5706081485309
 20
-149.6211859434975
 10
131.6277967335861
 20
-149.614984771624
 10
131.6446777014638
 20
-149.5956922369066
 10
131.6681043507635
 20
-149.5726100971554
 10
131.6681043507635
 20
-149.5726100971554
 10
131.8562065642582
 20
-149.7228162603123
 10
131.8562065642582
 20
-149.7228162603123
 10
131.8413926536716
 20
-149.7524440814855
 10
131.8310573672158
 20
-149.7713921066544
 10
131.7948838646207
 20
-149.8413275450049
 97
        0
 97
        1
330
FE
 75
     2
 76
     1
 98
        1
 10
0.0
 20
0.0
450
        0
451
        0
460
0.0
461
0.0
452
        0
462
0.0
453
        0
470

  0
SPLINE
  5
100
330
EC
100
AcDbEntity
  8
レイヤー 1
100
AcDbSpline
210
0.0
220
0.0
230
1.0
 70
    11
 71
     3
 72
    17
 73
    13
 74
     0
 42
0.0000000001
 43
0.0000000001
 40
0.0
 40
0.0
 40
0.0
 40
0.0
 40
1.0
 40
1.0
 40
1.0
 40
2.0
 40
2.0
 40
2.0
 40
3.0
 40
3.0
 40
3.0
 40
4.0
 40
4.0
 40
4.0
 40
4.0
 10
132.1852131830995
 20
-149.6232530007886
 30
0.0
 10
132.1852131830995
 20
-149.6825086431349
 30
0.0
 10
132.2317219721504
 20
-149.7290174321858
 30
0.0
 10
132.2909776144967
 20
-149.7290174321858
 30
0.0
 10
132.350233256843
 20
-149.7290174321858
 30
0.0
 10
132.398809103185
 20
-149.6825086431349
 30
0.0
 10
132.398809103185
 20
-149.6232530007886
 30
0.0
 10
132.398809103185
 20
-149.5639973584423
 30
0.0
 10
132.350233256843
 20
-149.5154215121003
 30
0.0
 10
132.2909776144967
 20
-149.5154215121003
 30
0.0
 10
132.2317219721504
 20
-149.5154215121003
 30
0.0
 10
132.1852131830995
 20
-149.5639973584423
 30
0.0
 10
132.1852131830995
 20
-149.6232530007886
 30
0.0
  0
SPLINE
  5
101
330
EC
100
AcDbEntity
  8
レイヤー 1
100
AcDbSpline
210
0.0
220
0.0
230
1.0
 70
     9
 71
     3
 72
    17
 73
    13
 74
     0
 42
0.0000000001
 43
0.0000000001
 40
0.0
 40
0.0
 40
0.0
 40
0.0
 40
1.0
 40
1.0
 40
1.0
 40
2.0
 40
2.0
 40
2.0
 40
3.0
 40
3.0
 40
3.0
 40
4.0
 40
4.0
 40
4.0
 40
4.0
 10
132.5004394199999
 20
-149.6232530007886
 30
0.0
 10
132.5004394199999
 20
-149.7376301708989
 30
0.0
 10
132.4074218418981
 20
-149.8327148062918
 30
0.0
 10
132.2909776144967
 20
-149.8327148062918
 30
0.0
 10
132.1766004443864
 20
-149.8327148062918
 30
0.0
 10
132.0815158089935
 20
-149.7376301708989
 30
0.0
 10
132.0815158089935
 20
-149.6232530007886
 30
0.0
 10
132.0815158089935
 20
-149.5068087733872
 30
0.0
 10
132.1766004443864
 20
-149.4137911952854
 30
0.0
 10
132.2909776144967
 20
-149.4137911952854
 30
0.0
 10
132.405354784607
 20
-149.4137911952854
 30
0.0
 10
132.5004394199999
 20
-149.5068087733872
 30
0.0
 10
132.5004394199999
 20
-149.6232530007886
 30
0.0
  0
HATCH
  5
102
330
EC
100
AcDbEntity
  8
レイヤー 1
 62
    18
420
        0
440
 33554687
100
AcDbHatch
 10
0.0
 20
0.0
 30
0.0
210
0.0
220
0.0
230
1.0
  2
SOLID
 70
     1
 71
     1
 91
        2
 92
        1
 93
        1
 72
     4
 94
        3
 73
     0
 74
     0
 95
       17
 96
       13
 40
0.0
 40
0.0
 40
0.0
 40
0.0
 40
1.0
 40
1.0
 40
1.0
 40
2.0
 40
2.0
 40
2.0
 40
3.0
 40
3.0
 40
3.0
 40
4.0
 40
4.0
 40
4.0
 40
4.0
 10
132.1852131830995
 20
-149.6232530007886
 10
132.1852131830995
 20
-149.6825086431349
 10
132.2317219721504
 20
-149.7290174321858
 10
132.2909776144967
 20
-149.7290174321858
 10
132.350233256843
 20
-149.7290174321858
 10
132.398809103185
 20
-149.6825086431349
 10
132.398809103185
 20
-149.6232530007886
 10
132.398809103185
 20
-149.5639973584423
 10
132.350233256843
 20
-149.5154215121003
 10
132.2909776144967
 20
-149.5154215121003
 10
132.2317219721504
 20
-149.5154215121003
 10
132.1852131830995
 20
-149.5639973584423
 10
132.1852131830995
 20
-149.6232530007886
 97
        0
 97
        1
330
100
 92
        1
 93
        1
 72
     4
 94
        3
 73
     0
 74
     0
 95
       17
 96
       13
 40
0.0
 40
0.0
 40
0.0
 40
0.0
 40
1.0
 40
1.0
 40
1.0
 40
2.0
 40
2.0
 40
2.0
 40
3.0
 40
3.0
 40
3.0
 40
4.0
 40
4.0
 40
4.0
 40
4.0
 10
132.5004394199999
 20
-149.6232530007886
 10
132.5004394199999
 20
-149.7376301708989
 10
132.4074218418981
 20
-149.8327148062918
 10
132.2909776144967
 20
-149.8327148062918
 10
132.1766004443864
 20
-149.8327148062918
 10
132.0815158089935
 20
-149.7376301708989
 10
132.0815158089935
 20
-149.6232530007886
 10
132.0815158089935
 20
-149.5068087733872
 10
132.1766004443864
 20
-149.4137911952854
 10
132.2909776144967
 20
-149.4137911952854
 10
132.405354784607
 20
-149.4137911952854
 10
132.5004394199999
 20
-149.5068087733872
 10
132.5004394199999
 20
-149.6232530007886
 97
        0
 97
        1
330
101
 75
     2
 76
     1
 98
        1
 10
0.0
 20
0.0
450
        0
451
        0
460
0.0
461
0.0
452
        0
462
0.0
453
        0
470

  0
ENDBLK
  5
EF
330
EC
100
AcDbEntity
  8
0
100
AcDbBlockEnd
  0
BLOCK
  5
105
330
103
100
AcDbEntity
  8
0
100
AcDbBlockBegin
  2
Block_15
 70
     0
 10
0.0
 20
0.0
 30
0.0
  3
Block_15
  1

  0
LINE
  5
107
330
103
100
AcDbEntity
  8
レイヤー 1
 62
    18
420
        0
370
    25
100
AcDbLine
 10
104.6648999061209
 20
-154.214503988374
 30
0.0
 11
100.6651892506147
 21
-154.214503988374
 31
0.0
  0
LINE
  5
108
330
103
100
AcDbEntity
  8
レイヤー 1
 62
    18
420
        0
370
    25
100
AcDbLine
 10
80.66346647341939
 20
-145.7143939904988
 30
0.0
 11
80.66346647341939
 21
-146.2146328792625
 31
0.0
  0
LINE
  5
109
330
103
100
AcDbEntity
  8
レイヤー 1
 62
    18
420
        0
370
    25
100
AcDbLine
 10
100.6651892506147
 20
-146.2146328792625
 30
0.0
 11
80.66346647341939
 21
-146.2146328792625
 31
0.0
  0
LINE
  5
10A
330
103
100
AcDbEntity
  8
レイヤー 1
 62
    18
420
        0
370
    25
100
AcDbLine
 10
80.66346647341939
 20
-145.7143939904988
 30
0.0
 11
81.17746369551291
 21
-146.0964523237368
 31
0.0
  0
LINE
  5
10B
330
103
100
AcDbEntity
  8
レイヤー 1
 62
    18
420
        0
370
    25
100
AcDbLine
 10
81.17746369551291
 20
-146.0964523237368
 30
0.0
 11
81.66288591761352
 21
-145.6789398238408
 31
0.0
  0
LINE
  5
10C
330
103
100
AcDbEntity
  8
レイヤー 1
 62
    18
420
        0
370
    25
100
AcDbLine
 10
82.17688313970704
 20
-146.0609981570788
 30
0.0
 11
82.66248175069717
 21
-145.6430976016275
 31
0.0
  0
LINE
  5
10D
330
103
100
AcDbEntity
  8
レイヤー 1
 62
    18
420
        0
370
    25
100
AcDbLine
 10
81.66288591761352
 20
-145.6789398238408
 30
0.0
 11
82.17688313970704
 21
-146.0609981570788
 31
0.0
  0
LINE
  5
10E
330
103
100
AcDbEntity
  8
レイヤー 1
 62
    18
420
        0
370
    25
100
AcDbLine
 10
82.66248175069717
 20
-145.6430976016275
 30
0.0
 11
83.17647897279071
 21
-146.0251559348659
 31
0.0
  0
LINE
  5
10F
330
103
100
AcDbEntity
  8
レイヤー 1
 62
    18
420
        0
370
    25
100
AcDbLine
 10
83.17647897279071
 20
-146.0251559348659
 30
0.0
 11
83.66154841711388
 21
-145.6076081571921
 31
0.0
  0
LINE
  5
110
330
103
100
AcDbEntity
  8
レイヤー 1
 62
    18
420
        0
370
    25
100
AcDbLine
 10
83.66154841711388
 20
-145.6076081571921
 30
0.0
 11
84.17558091698557
 21
-145.9893137126523
 31
0.0
  0
LINE
  5
111
330
103
100
AcDbEntity
  8
レイヤー 1
 62
    18
420
        0
370
    25
100
AcDbLine
 10
84.17558091698557
 20
-145.9893137126523
 30
0.0
 11
84.66132063908609
 21
-145.5717659349788
 31
0.0
  0
LINE
  5
112
330
103
100
AcDbEntity
  8
レイヤー 1
 62
    18
420
        0
370
    25
100
AcDbLine
 10
84.66132063908609
 20
-145.5717659349788
 30
0.0
 11
85.17531786117995
 21
-145.9535067682166
 31
0.0
  0
LINE
  5
113
330
103
100
AcDbEntity
  8
レイヤー 1
 62
    18
420
        0
370
    25
100
AcDbLine
 10
85.17531786117995
 20
-145.9535067682166
 30
0.0
 11
85.66038730550312
 21
-145.5359589905431
 31
0.0
  0
LINE
  5
114
330
103
100
AcDbEntity
  8
レイヤー 1
 62
    18
420
        0
370
    25
100
AcDbLine
 10
85.66038730550312
 20
-145.5359589905431
 30
0.0
 11
86.17441980537448
 21
-145.9180173237811
 31
0.0
  0
LINE
  5
115
330
103
100
AcDbEntity
  8
レイヤー 1
 62
    18
420
        0
370
    25
100
AcDbLine
 10
86.17441980537448
 20
-145.9180173237811
 30
0.0
 11
86.66015952747534
 21
-145.5004695461082
 31
0.0
  0
LINE
  5
116
330
103
100
AcDbEntity
  8
レイヤー 1
 62
    18
420
        0
370
    25
100
AcDbLine
 10
86.66015952747534
 20
-145.5004695461082
 30
0.0
 11
87.1734864717915
 21
-145.8825278793456
 31
0.0
  0
LINE
  5
117
330
103
100
AcDbEntity
  8
レイヤー 1
 62
    18
420
        0
370
    25
100
AcDbLine
 10
87.1734864717915
 20
-145.8825278793456
 30
0.0
 11
87.6592614716702
 21
-145.4646273238943
 31
0.0
  0
LINE
  5
118
330
103
100
AcDbEntity
  8
レイヤー 1
 62
    18
420
        0
370
    25
100
AcDbLine
 10
88.17325869376372
 20
-145.8466856571324
 30
0.0
 11
88.6583281380869
 21
-145.4291378794589
 31
0.0
  0
LINE
  5
119
330
103
100
AcDbEntity
  8
レイヤー 1
 62
    18
420
        0
370
    25
100
AcDbLine
 10
87.6592614716702
 20
-145.4646273238943
 30
0.0
 11
88.17325869376372
 21
-145.8466856571324
 31
0.0
  0
LINE
  5
11A
330
103
100
AcDbEntity
  8
レイヤー 1
 62
    18
420
        0
370
    25
100
AcDbLine
 10
88.6583281380869
 20
-145.4291378794589
 30
0.0
 11
89.17232536018106
 21
-145.8108787126972
 31
0.0
  0
LINE
  5
11B
330
103
100
AcDbEntity
  8
レイヤー 1
 62
    18
420
        0
370
    25
100
AcDbLine
 10
89.17232536018106
 20
-145.8108787126972
 30
0.0
 11
89.65810036005912
 21
-145.3933309350238
 31
0.0
  0
LINE
  5
11C
330
103
100
AcDbEntity
  8
レイヤー 1
 62
    18
420
        0
370
    25
100
AcDbLine
 10
90.17209758215296
 20
-145.7750364904834
 30
0.0
 11
90.65716702647613
 21
-145.3574887128099
 31
0.0
  0
LINE
  5
11D
330
103
100
AcDbEntity
  8
レイヤー 1
 62
    18
420
        0
370
    25
100
AcDbLine
 10
89.65810036005912
 20
-145.3933309350238
 30
0.0
 11
90.17209758215296
 21
-145.7750364904834
 31
0.0
  0
LINE
  5
11E
330
103
100
AcDbEntity
  8
レイヤー 1
 62
    18
420
        0
370
    25
100
AcDbLine
 10
91.17116424856998
 20
-145.7395470460479
 30
0.0
 11
91.65693924844868
 21
-145.3219992683754
 31
0.0
  0
LINE
  5
11F
330
103
100
AcDbEntity
  8
レイヤー 1
 62
    18
420
        0
370
    25
100
AcDbLine
 10
90.65716702647613
 20
-145.3574887128099
 30
0.0
 11
91.17116424856998
 21
-145.7395470460479
 31
0.0
  0
LINE
  5
120
330
103
100
AcDbEntity
  8
レイヤー 1
 62
    18
420
        0
370
    25
100
AcDbLine
 10
91.65693924844868
 20
-145.3219992683754
 30
0.0
 11
92.17093647054188
 21
-145.7040576016124
 31
0.0
  0
LINE
  5
121
330
103
100
AcDbEntity
  8
レイヤー 1
 62
    18
420
        0
370
    25
100
AcDbLine
 10
92.17093647054188
 20
-145.7040576016124
 30
0.0
 11
92.65600591486505
 21
-145.2861923239393
 31
0.0
  0
LINE
  5
122
330
103
100
AcDbEntity
  8
レイヤー 1
 62
    18
420
        0
370
    25
100
AcDbLine
 10
92.65600591486505
 20
-145.2861923239393
 30
0.0
 11
93.17003749738786
 21
-145.6682506571767
 31
0.0
  0
LINE
  5
123
330
103
100
AcDbEntity
  8
レイヤー 1
 62
    18
420
        0
370
    25
100
AcDbLine
 10
93.17003749738786
 20
-145.6682506571767
 30
0.0
 11
93.65510692945715
 21
-145.2507028795032
 31
0.0
  0
LINE
  5
124
330
103
100
AcDbEntity
  8
レイヤー 1
 62
    18
420
        0
370
    25
100
AcDbLine
 10
93.65510692945715
 20
-145.2507028795032
 30
0.0
 11
94.16910413856619
 21
-145.6324084349641
 31
0.0
  0
LINE
  5
125
330
103
100
AcDbEntity
  8
レイヤー 1
 62
    18
420
        0
370
    25
100
AcDbLine
 10
94.16910413856619
 20
-145.6324084349641
 30
0.0
 11
94.65484480325461
 21
-145.2148606572906
 31
0.0
  0
LINE
  5
126
330
103
100
AcDbEntity
  8
レイヤー 1
 62
    18
420
        0
370
    25
100
AcDbLine
 10
94.65484480325461
 20
-145.2148606572906
 30
0.0
 11
95.16887633528211
 21
-145.5966014905284
 31
0.0
  0
LINE
  5
127
330
103
100
AcDbEntity
  8
レイヤー 1
 62
    18
420
        0
370
    25
100
AcDbLine
 10
95.16887633528211
 20
-145.5966014905284
 30
0.0
 11
95.65394576735108
 21
-145.1790537128548
 31
0.0
  0
LINE
  5
128
330
103
100
AcDbEntity
  8
レイヤー 1
 62
    18
420
        0
370
    25
100
AcDbLine
 10
95.65394576735108
 20
-145.1790537128548
 30
0.0
 11
96.16794297646078
 21
-145.5611120460922
 31
0.0
  0
LINE
  5
129
330
103
100
AcDbEntity
  8
レイヤー 1
 62
    18
420
        0
370
    25
100
AcDbLine
 10
96.16794297646078
 20
-145.5611120460922
 30
0.0
 11
96.65371796406731
 21
-145.1435642684193
 31
0.0
  0
LINE
  5
12A
330
103
100
AcDbEntity
  8
レイヤー 1
 62
    18
420
        0
370
    25
100
AcDbLine
 10
96.65371796406731
 20
-145.1435642684193
 30
0.0
 11
97.16771517317638
 21
-145.5256226016573
 31
0.0
  0
LINE
  5
12B
330
103
100
AcDbEntity
  8
レイヤー 1
 62
    18
420
        0
370
    25
100
AcDbLine
 10
97.16771517317638
 20
-145.5256226016573
 30
0.0
 11
97.65278460524568
 21
-145.1077220462061
 31
0.0
  0
LINE
  5
12C
330
103
100
AcDbEntity
  8
レイヤー 1
 62
    18
420
        0
370
    25
100
AcDbLine
 10
97.65278460524568
 20
-145.1077220462061
 30
0.0
 11
98.16678181435472
 21
-145.4897803794435
 31
0.0
  0
LINE
  5
12D
330
103
100
AcDbEntity
  8
レイヤー 1
 62
    18
420
        0
370
    25
100
AcDbLine
 10
98.16678181435472
 20
-145.4897803794435
 30
0.0
 11
98.65255680196158
 21
-145.07223260177
 31
0.0
  0
LINE
  5
12E
330
103
100
AcDbEntity
  8
レイヤー 1
 62
    18
420
        0
370
    25
100
AcDbLine
 10
98.65255680196158
 20
-145.07223260177
 30
0.0
 11
99.16655401107096
 21
-145.4539734350084
 31
0.0
  0
LINE
  5
12F
330
103
100
AcDbEntity
  8
レイヤー 1
 62
    18
420
        0
370
    25
100
AcDbLine
 10
99.16655401107096
 20
-145.4539734350084
 30
0.0
 11
99.65162344313993
 21
-145.0364256573349
 31
0.0
  0
LINE
  5
130
330
103
100
AcDbEntity
  8
レイヤー 1
 62
    18
420
        0
370
    25
100
AcDbLine
 10
99.65162344313993
 20
-145.0364256573349
 30
0.0
 11
100.165620652249
 21
-145.4181312127951
 31
0.0
  0
LINE
  5
131
330
103
100
AcDbEntity
  8
レイヤー 1
 62
    18
420
        0
370
    25
100
AcDbLine
 10
100.165620652249
 20
-145.4181312127951
 30
0.0
 11
100.6513956398558
 21
-145.0005834351216
 31
0.0
  0
LINE
  5
132
330
103
100
AcDbEntity
  8
レイヤー 1
 62
    18
420
        0
370
    25
100
AcDbLine
 10
100.6513956398558
 20
-145.0005834351216
 30
0.0
 11
101.664926169554
 21
-144.9523587129118
 31
0.0
  0
LINE
  5
133
330
103
100
AcDbEntity
  8
レイヤー 1
 62
    18
420
        0
370
    25
100
AcDbLine
 10
101.664926169554
 20
-144.9523587129118
 30
0.0
 11
101.664926169554
 21
-153.2143789886237
 31
0.0
  0
LINE
  5
134
330
103
100
AcDbEntity
  8
レイヤー 1
 62
    18
420
        0
370
    25
100
AcDbLine
 10
100.6651892506147
 20
-146.2146328792625
 30
0.0
 11
100.6651892506147
 21
-154.214503988374
 31
0.0
  0
LINE
  5
135
330
103
100
AcDbEntity
  8
レイヤー 1
 62
    18
420
        0
370
    25
100
AcDbLine
 10
103.6651642454465
 20
-153.2143789886237
 30
0.0
 11
101.664926169554
 21
-153.2143789886237
 31
0.0
  0
LINE
  5
136
330
103
100
AcDbEntity
  8
レイヤー 1
 62
    18
420
        0
370
    25
100
AcDbLine
 10
114.6722175133614
 20
-145.3574887128099
 30
0.0
 11
114.1589258597899
 21
-145.7395470460479
 31
0.0
  0
LINE
  5
137
330
103
100
AcDbEntity
  8
レイヤー 1
 62
    18
420
        0
370
    25
100
AcDbLine
 10
119.6697026636427
 20
-145.5359589905431
 30
0.0
 11
119.1556701767568
 21
-145.9180173237811
 31
0.0
  0
LINE
  5
138
330
103
100
AcDbEntity
  8
レイヤー 1
 62
    18
420
        0
370
    25
100
AcDbLine
 10
115.1579925009683
 20
-145.7750364904834
 30
0.0
 11
114.6722175133614
 21
-145.3574887128099
 31
0.0
  0
LINE
  5
139
330
103
100
AcDbEntity
  8
レイヤー 1
 62
    18
420
        0
370
    25
100
AcDbLine
 10
116.1570591421466
 20
-145.8108787126972
 30
0.0
 11
115.6719897100773
 21
-145.3933309350238
 31
0.0
  0
LINE
  5
13A
330
103
100
AcDbEntity
  8
レイヤー 1
 62
    18
420
        0
370
    25
100
AcDbLine
 10
114.1589258597899
 20
-145.7395470460479
 30
0.0
 11
113.6731508721831
 21
-145.3219992683754
 31
0.0
  0
LINE
  5
13B
330
103
100
AcDbEntity
  8
レイヤー 1
 62
    18
420
        0
370
    25
100
AcDbLine
 10
115.6719897100773
 20
-145.3933309350238
 30
0.0
 11
115.1579925009683
 21
-145.7750364904834
 31
0.0
  0
LINE
  5
13C
330
103
100
AcDbEntity
  8
レイヤー 1
 62
    18
420
        0
370
    25
100
AcDbLine
 10
123.6666747838937
 20
-145.6789398238408
 30
0.0
 11
123.1526775747846
 21
-146.0609981570788
 31
0.0
  0
LINE
  5
13D
330
103
100
AcDbEntity
  8
レイヤー 1
 62
    18
420
        0
370
    25
100
AcDbLine
 10
116.6710916290326
 20
-145.4291378794589
 30
0.0
 11
116.1570591421466
 21
-145.8108787126972
 31
0.0
  0
LINE
  5
13E
330
103
100
AcDbEntity
  8
レイヤー 1
 62
    18
420
        0
370
    25
100
AcDbLine
 10
117.6708285479716
 20
-145.4646273238943
 30
0.0
 11
117.1568313388625
 21
-145.8466856571324
 31
0.0
  0
LINE
  5
13F
330
103
100
AcDbEntity
  8
レイヤー 1
 62
    18
420
        0
370
    25
100
AcDbLine
 10
103.6651643302175
 20
-144.9523587129118
 30
0.0
 11
103.6651643302175
 21
-153.2143789886237
 31
0.0
  0
LINE
  5
140
330
103
100
AcDbEntity
  8
レイヤー 1
 62
    18
420
        0
370
    25
100
AcDbLine
 10
117.1568313388625
 20
-145.8466856571324
 30
0.0
 11
116.6710916290326
 21
-145.4291378794589
 31
0.0
  0
LINE
  5
141
330
103
100
AcDbEntity
  8
レイヤー 1
 62
    18
420
        0
370
    25
100
AcDbLine
 10
118.1558979800409
 20
-145.8825278793456
 30
0.0
 11
117.6708285479716
 21
-145.4646273238943
 31
0.0
  0
LINE
  5
142
330
103
100
AcDbEntity
  8
レイヤー 1
 62
    18
420
        0
370
    25
100
AcDbLine
 10
123.1526775747846
 20
-146.0609981570788
 30
0.0
 11
122.6676081427154
 21
-145.6430976016275
 31
0.0
  0
LINE
  5
143
330
103
100
AcDbEntity
  8
レイヤー 1
 62
    18
420
        0
370
    25
100
AcDbLine
 10
118.6699304669268
 20
-145.5004695461082
 30
0.0
 11
118.1558979800409
 21
-145.8825278793456
 31
0.0
  0
LINE
  5
144
330
103
100
AcDbEntity
  8
レイヤー 1
 62
    18
420
        0
370
    25
100
AcDbLine
 10
119.1556701767568
 20
-145.9180173237811
 30
0.0
 11
118.6699304669268
 21
-145.5004695461082
 31
0.0
  0
LINE
  5
145
330
103
100
AcDbEntity
  8
レイヤー 1
 62
    18
420
        0
370
    25
100
AcDbLine
 10
124.1524497715005
 20
-146.0964523237368
 30
0.0
 11
123.6666747838937
 21
-145.6789398238408
 31
0.0
  0
LINE
  5
146
330
103
100
AcDbEntity
  8
レイヤー 1
 62
    18
420
        0
370
    25
100
AcDbLine
 10
120.6687693048211
 20
-145.5717659349788
 30
0.0
 11
120.154772095712
 21
-145.9535067682166
 31
0.0
  0
LINE
  5
147
330
103
100
AcDbEntity
  8
レイヤー 1
 62
    18
420
        0
370
    25
100
AcDbLine
 10
121.6678359459994
 20
-145.6076081571921
 30
0.0
 11
121.1538387368904
 21
-145.9893137126523
 31
0.0
  0
LINE
  5
148
330
103
100
AcDbEntity
  8
レイヤー 1
 62
    18
420
        0
370
    25
100
AcDbLine
 10
121.1538387368904
 20
-145.9893137126523
 30
0.0
 11
120.6687693048211
 21
-145.5717659349788
 31
0.0
  0
LINE
  5
149
330
103
100
AcDbEntity
  8
レイヤー 1
 62
    18
420
        0
370
    25
100
AcDbLine
 10
124.6664469806096
 20
-145.7143939904988
 30
0.0
 11
124.1524497715005
 21
-146.0964523237368
 31
0.0
  0
LINE
  5
14A
330
103
100
AcDbEntity
  8
レイヤー 1
 62
    18
420
        0
370
    25
100
AcDbLine
 10
120.154772095712
 20
-145.9535067682166
 30
0.0
 11
119.6697026636427
 21
-145.5359589905431
 31
0.0
  0
LINE
  5
14B
330
103
100
AcDbEntity
  8
レイヤー 1
 62
    18
420
        0
370
    25
100
AcDbLine
 10
122.6676081427154
 20
-145.6430976016275
 30
0.0
 11
122.1536109336063
 21
-146.0251559348659
 31
0.0
  0
LINE
  5
14C
330
103
100
AcDbEntity
  8
レイヤー 1
 62
    18
420
        0
370
    25
100
AcDbLine
 10
122.1536109336063
 20
-146.0251559348659
 30
0.0
 11
121.6678359459994
 21
-145.6076081571921
 31
0.0
  0
LINE
  5
14D
330
103
100
AcDbEntity
  8
レイヤー 1
 62
    18
420
        0
370
    25
100
AcDbLine
 10
124.6664469806096
 20
-145.7143939904988
 30
0.0
 11
124.6664469806096
 21
-146.2146328792625
 31
0.0
  0
LINE
  5
14E
330
103
100
AcDbEntity
  8
レイヤー 1
 62
    18
420
        0
370
    25
100
AcDbLine
 10
104.6648999908919
 20
-146.2146328792625
 30
0.0
 11
124.6664469806096
 21
-146.2146328792625
 31
0.0
  0
LINE
  5
14F
330
103
100
AcDbEntity
  8
レイヤー 1
 62
    18
420
        0
370
    25
100
AcDbLine
 10
113.6731508721831
 20
-145.3219992683754
 30
0.0
 11
113.159153663074
 21
-145.7040576016124
 31
0.0
  0
LINE
  5
150
330
103
100
AcDbEntity
  8
レイヤー 1
 62
    18
420
        0
370
    25
100
AcDbLine
 10
113.159153663074
 20
-145.7040576016124
 30
0.0
 11
112.6740842310047
 21
-145.2861923239393
 31
0.0
  0
LINE
  5
151
330
103
100
AcDbEntity
  8
レイヤー 1
 62
    18
420
        0
370
    25
100
AcDbLine
 10
112.6740842310047
 20
-145.2861923239393
 30
0.0
 11
112.1600532169823
 21
-145.6682506571767
 31
0.0
  0
LINE
  5
152
330
103
100
AcDbEntity
  8
レイヤー 1
 62
    18
420
        0
370
    25
100
AcDbLine
 10
112.1600532169823
 20
-145.6682506571767
 30
0.0
 11
111.6743120342888
 21
-145.2507028795032
 31
0.0
  0
LINE
  5
153
330
103
100
AcDbEntity
  8
レイヤー 1
 62
    18
420
        0
370
    25
100
AcDbLine
 10
111.6743120342888
 20
-145.2507028795032
 30
0.0
 11
111.1603148251797
 21
-145.6324084349641
 31
0.0
  0
LINE
  5
154
330
103
100
AcDbEntity
  8
レイヤー 1
 62
    18
420
        0
370
    25
100
AcDbLine
 10
111.1603148251797
 20
-145.6324084349641
 30
0.0
 11
110.6752453931104
 21
-145.2148606572906
 31
0.0
  0
LINE
  5
155
330
103
100
AcDbEntity
  8
レイヤー 1
 62
    18
420
        0
370
    25
100
AcDbLine
 10
110.6752453931104
 20
-145.2148606572906
 30
0.0
 11
110.1612143285928
 21
-145.5966014905284
 31
0.0
  0
LINE
  5
156
330
103
100
AcDbEntity
  8
レイヤー 1
 62
    18
420
        0
370
    25
100
AcDbLine
 10
110.1612143285928
 20
-145.5966014905284
 30
0.0
 11
109.6754731963946
 21
-145.1790537128548
 31
0.0
  0
LINE
  5
157
330
103
100
AcDbEntity
  8
レイヤー 1
 62
    18
420
        0
370
    25
100
AcDbLine
 10
109.6754731963946
 20
-145.1790537128548
 30
0.0
 11
109.1614421066209
 21
-145.5611120460922
 31
0.0
  0
LINE
  5
158
330
103
100
AcDbEntity
  8
レイヤー 1
 62
    18
420
        0
370
    25
100
AcDbLine
 10
109.1614421066209
 20
-145.5611120460922
 30
0.0
 11
108.6763726622977
 21
-145.1435642684193
 31
0.0
  0
LINE
  5
159
330
103
100
AcDbEntity
  8
レイヤー 1
 62
    18
420
        0
370
    25
100
AcDbLine
 10
108.6763726622977
 20
-145.1435642684193
 30
0.0
 11
108.1623754402045
 21
-145.5256226016573
 31
0.0
  0
LINE
  5
15A
330
103
100
AcDbEntity
  8
レイヤー 1
 62
    18
420
        0
370
    25
100
AcDbLine
 10
108.1623754402045
 20
-145.5256226016573
 30
0.0
 11
107.6773059958813
 21
-145.1077220462061
 31
0.0
  0
LINE
  5
15B
330
103
100
AcDbEntity
  8
レイヤー 1
 62
    18
420
        0
370
    25
100
AcDbLine
 10
107.6773059958813
 20
-145.1077220462061
 30
0.0
 11
107.1633087737869
 21
-145.4897803794435
 31
0.0
  0
LINE
  5
15C
330
103
100
AcDbEntity
  8
レイヤー 1
 62
    18
420
        0
370
    25
100
AcDbLine
 10
107.1633087737869
 20
-145.4897803794435
 30
0.0
 11
106.6775337739082
 21
-145.07223260177
 31
0.0
  0
LINE
  5
15D
330
103
100
AcDbEntity
  8
レイヤー 1
 62
    18
420
        0
370
    25
100
AcDbLine
 10
106.6775337739082
 20
-145.07223260177
 30
0.0
 11
106.163536551815
 21
-145.4539734350084
 31
0.0
  0
LINE
  5
15E
330
103
100
AcDbEntity
  8
レイヤー 1
 62
    18
420
        0
370
    25
100
AcDbLine
 10
106.163536551815
 20
-145.4539734350084
 30
0.0
 11
105.6784671074918
 21
-145.0364256573349
 31
0.0
  0
LINE
  5
15F
330
103
100
AcDbEntity
  8
レイヤー 1
 62
    18
420
        0
370
    25
100
AcDbLine
 10
105.6784671074918
 20
-145.0364256573349
 30
0.0
 11
105.1644698853982
 21
-145.4181312127951
 31
0.0
  0
LINE
  5
160
330
103
100
AcDbEntity
  8
レイヤー 1
 62
    18
420
        0
370
    25
100
AcDbLine
 10
105.1644698853982
 20
-145.4181312127951
 30
0.0
 11
104.6786948855195
 21
-145.0005834351216
 31
0.0
  0
LINE
  5
161
330
103
100
AcDbEntity
  8
レイヤー 1
 62
    18
420
        0
370
    25
100
AcDbLine
 10
104.6786948855195
 20
-145.0005834351216
 30
0.0
 11
103.6651643302175
 21
-144.9523587129118
 31
0.0
  0
LINE
  5
162
330
103
100
AcDbEntity
  8
レイヤー 1
 62
    18
420
        0
370
    25
100
AcDbLine
 10
104.6648999908919
 20
-146.2146328792625
 30
0.0
 11
104.6648999908919
 21
-154.214503988374
 31
0.0
  0
ENDBLK
  5
106
330
103
100
AcDbEntity
  8
0
100
AcDbBlockEnd
  0
ENDSEC
  0
SECTION
  2
ENTITIES
  0
INSERT
  5
7A
330
70
100
AcDbEntity
  8
レイヤー 1
100
AcDbBlockReference
  2
Block_0
 10
0.0
 20
0.0
 30
0.0
  0
LINE
  5
D2
330
70
100
AcDbEntity
  8
レイヤー 1
 62
   250
420
  2299925
370
     9
100
AcDbLine
 10
102.7900603202231
 20
-150.9891984953602
 30
0.0
 11
110.7895784494714
 21
-150.9891984953602
 31
0.0
  0
INSERT
  5
D4
330
70
100
AcDbEntity
  8
レイヤー 1
100
AcDbBlockReference
  2
Block_10
 10
0.0
 20
0.0
 30
0.0
  0
LINE
  5
D9
330
70
100
AcDbEntity
  8
レイヤー 1
  6
AI-Linetype-0
 62
   154
420
    23468
370
    25
100
AcDbLine
 10
80.75231532689729
 20
-146.9067482186031
 30
0.0
 11
90.75187173845401
 21
-146.9067482186031
 31
0.0
  0
LINE
  5
DB
330
70
100
AcDbEntity
  8
レイヤー 1
  6
AI-Linetype-1
 62
   154
420
    23468
370
    25
100
AcDbLine
 10
114.7093980716907
 20
-146.9067482186031
 30
0.0
 11
124.7091308721318
 21
-146.9067482186031
 31
0.0
  0
INSERT
  5
DE
330
70
100
AcDbEntity
  8
レイヤー 1
100
AcDbBlockReference
  2
Block_11
 10
0.0
 20
0.0
 30
0.0
  0
INSERT
  5
104
330
70
100
AcDbEntity
  8
レイヤー 1
100
AcDbBlockReference
  2
Block_15
 10
0.0
 20
0.0
 30
0.0
  0
ENDSEC
  0
SECTION
  2
OBJECTS
  0
DICTIONARY
  5
C
330
0
100
AcDbDictionary
281
     1
  3
ACAD_COLOR
350
63
  3
ACAD_DETAILVIEWSTYLE
350
6A
  3
ACAD_GROUP
350
D
  3
ACAD_LAYOUT
350
62
  3
ACAD_MATERIAL
350
10
  3
ACAD_MLEADERSTYLE
350
66
  3
ACAD_MLINESTYLE
350
5F
  3
ACAD_PLOTSETTINGS
350
61
  3
ACAD_PLOTSTYLENAME
350
E
  3
ACAD_SCALELIST
350
42
  3
ACAD_SECTIONVIEWSTYLE
350
68
  3
ACAD_TABLESTYLE
350
64
  3
ACAD_VISUALSTYLE
350
29
  3
ACDB_RECOMPOSE_DATA
350
16B
  3
AcDbVariableDictionary
350
163
  0
DICTIONARY
  5
63
102
{ACAD_REACTORS
330
C
102
}
330
C
100
AcDbDictionary
281
     1
  0
DICTIONARY
  5
6A
102
{ACAD_REACTORS
330
C
102
}
330
C
100
AcDbDictionary
281
     1
  3
Imperial24
350
6B
  0
DICTIONARY
  5
D
102
{ACAD_REACTORS
330
C
102
}
330
C
100
AcDbDictionary
281
     1
  0
DICTIONARY
  5
62
102
{ACAD_REACTORS
330
C
102
}
330
C
100
AcDbDictionary
281
     1
  3
Layout1
350
6F
  3
Layout2
350
77
  3
Model
350
73
  0
DICTIONARY
  5
10
102
{ACAD_REACTORS
330
C
102
}
330
C
100
AcDbDictionary
281
     1
  3
ByBlock
350
19
  3
ByLayer
350
11
  3
Global
350
21
  0
DICTIONARY
  5
66
102
{ACAD_REACTORS
330
C
102
}
330
C
100
AcDbDictionary
281
     1
  3
Standard
350
67
  0
DICTIONARY
  5
5F
102
{ACAD_REACTORS
330
C
102
}
330
C
100
AcDbDictionary
281
     1
  3
Standard
350
60
  0
DICTIONARY
  5
61
102
{ACAD_REACTORS
330
C
102
}
330
C
100
AcDbDictionary
281
     1
  0
ACDBDICTIONARYWDFLT
  5
E
102
{ACAD_REACTORS
330
C
102
}
330
C
100
AcDbDictionary
281
     1
  3
Normal
350
F
100
AcDbDictionaryWithDefault
340
F
  0
DICTIONARY
  5
42
102
{ACAD_REACTORS
330
C
102
}
330
C
100
AcDbDictionary
281
     1
  3
A0
350
43
  3
A1
350
44
  3
A2
350
45
  3
A3
350
46
  3
A4
350
47
  3
A5
350
48
  3
A6
350
49
  3
A7
350
4A
  3
A8
350
4B
  3
A9
350
4C
  3
B0
350
4D
  3
B1
350
4E
  3
B2
350
4F
  3
B3
350
50
  3
B4
350
51
  3
B5
350
52
  3
B6
350
53
  0
DICTIONARY
  5
68
102
{ACAD_REACTORS
330
C
102
}
330
C
100
AcDbDictionary
281
     1
  3
Imperial24
350
69
  0
DICTIONARY
  5
64
102
{ACAD_REACTORS
330
C
102
}
330
C
100
AcDbDictionary
281
     1
  3
Standard
350
65
  0
DICTIONARY
  5
29
102
{ACAD_REACTORS
330
C
102
}
330
C
100
AcDbDictionary
281
     1
  3
2dWireframe
350
2F
  3
Basic
350
2E
  3
Brighten
350
35
  3
ColorChange
350
39
  3
Conceptual
350
32
  3
Dim
350
34
  3
EdgeColorOff
350
41
  3
Facepattern
350
38
  3
Flat
350
2A
  3
FlatWithEdges
350
2B
  3
Gouraud
350
2C
  3
GouraudWithEdges
350
2D
  3
Hidden
350
31
  3
JitterOff
350
3F
  3
Linepattern
350
37
  3
OverhangOff
350
40
  3
Realistic
350
33
  3
Shaded
350
3E
  3
Shaded with edges
350
3D
  3
Shades of Gray
350
3A
  3
Sketchy
350
3B
  3
Thicken
350
36
  3
Wireframe
350
30
  3
X-Ray
350
3C
  0
XRECORD
  5
16B
102
{ACAD_REACTORS
330
C
102
}
330
C
100
AcDbXrecord
280
     1
 90
        1
330
65
  0
DICTIONARY
  5
163
102
{ACAD_REACTORS
330
C
102
}
330
C
100
AcDbDictionary
281
     1
  3
CANNOSCALE
350
168
  3
CMLEADERSTYLE
350
165
  3
CTABLESTYLE
350
164
  3
CVIEWDETAILSTYLE
350
166
  3
CVIEWSECTIONSTYLE
350
167
  0
ACDBDETAILVIEWSTYLE
  5
6B
102
{ACAD_XDICTIONARY
360
1A0
102
}
102
{ACAD_REACTORS
330
6A
102
}
330
6A
100
AcDbModelDocViewStyle
 70
     0
  3
Imperial24
290
     0
100
AcDbDetailViewStyle
 70
     0
 71
     0
 90
        3
 71
     1
340
55
 62
   256
 40
0.24
340
0
 62
   256
 40
0.24
300

 40
0.36
280
     3
 71
     2
340
5D
 90
       25
 62
   256
 71
     3
340
55
 62
   256
 40
0.24
 90
        1
 40
0.75
 90
        1
300
%<\AcVar ViewType \f "%tc1">% %<\AcVar ViewDetailId>%\PSCALE %<\AcVar ViewScale \f "%sn">%
 71
     4
340
5D
 90
       25
 62
   256
340
5D
 90
       25
 62
   256
280
     0
  0
LAYOUT
  5
6F
102
{ACAD_REACTORS
330
62
102
}
330
62
100
AcDbPlotSettings
  1

  2

  4

  6

 40
0.0
 41
0.0
 42
0.0
 43
0.0
 44
0.0
 45
0.0
 46
0.0
 47
0.0
 48
0.0
 49
0.0
140
0.0
141
0.0
142
1.0
143
1.0
 70
   688
 72
     0
 73
     0
 74
     5
  7

 75
    16
147
1.0
 76
     0
 77
     2
 78
   300
148
0.0
149
0.0
100
AcDbLayout
  1
Layout1
 70
     1
 71
     1
 10
0.0
 20
0.0
 11
12.0
 21
9.0
 12
0.0
 22
0.0
 32
0.0
 14
0.0
 24
0.0
 34
0.0
 15
0.0
 25
0.0
 35
0.0
146
0.0
 13
0.0
 23
0.0
 33
0.0
 16
1.0
 26
0.0
 36
0.0
 17
0.0
 27
1.0
 37
0.0
 76
     0
330
6C
  0
LAYOUT
  5
77
102
{ACAD_REACTORS
330
62
102
}
330
62
100
AcDbPlotSettings
  1

  2

  4

  6

 40
0.0
 41
0.0
 42
0.0
 43
0.0
 44
0.0
 45
0.0
 46
0.0
 47
0.0
 48
0.0
 49
0.0
140
0.0
141
0.0
142
1.0
143
1.0
 70
   688
 72
     0
 73
     0
 74
     5
  7

 75
    16
147
1.0
 76
     0
 77
     2
 78
   300
148
0.0
149
0.0
100
AcDbLayout
  1
Layout2
 70
     1
 71
     2
 10
0.0
 20
0.0
 11
12.0
 21
9.0
 12
0.0
 22
0.0
 32
0.0
 14
0.0
 24
0.0
 34
0.0
 15
0.0
 25
0.0
 35
0.0
146
0.0
 13
0.0
 23
0.0
 33
0.0
 16
1.0
 26
0.0
 36
0.0
 17
0.0
 27
1.0
 37
0.0
 76
     0
330
74
  0
LAYOUT
  5
73
102
{ACAD_REACTORS
330
62
102
}
330
62
100
AcDbPlotSettings
  1

  2

  4

  6

 40
0.0
 41
0.0
 42
0.0
 43
0.0
 44
0.0
 45
0.0
 46
0.0
 47
0.0
 48
0.0
 49
0.0
140
0.0
141
0.0
142
1.0
143
1.0
 70
  1712
 72
     0
 73
     0
 74
     0
  7

 75
     0
147
1.0
 76
     0
 77
     2
 78
   300
148
0.0
149
0.0
100
AcDbLayout
  1
Model
 70
     1
 71
     0
 10
0.0
 20
0.0
 11
12.0
 21
9.0
 12
0.0
 22
0.0
 32
0.0
 14
0.0
 24
0.0
 34
0.0
 15
0.0
 25
0.0
 35
0.0
146
0.0
 13
0.0
 23
0.0
 33
0.0
 16
1.0
 26
0.0
 36
0.0
 17
0.0
 27
1.0
 37
0.0
 76
     0
330
70
  0
MATERIAL
  5
19
102
{ACAD_XDICTIONARY
360
1A
102
}
102
{ACAD_REACTORS
330
10
102
}
330
10
100
AcDbMaterial
  1
ByBlock
 72
     0
 43
0.0208333333333333
 43
0.0
 43
0.0
 43
0.0
 43
0.0
 43
0.0208333333333333
 43
0.0
 43
0.0
 43
0.0
 43
0.0
 43
1.0
 43
0.0
 43
0.0
 43
0.0
 43
0.0
 43
1.0
 77
     0
 47
0.0208333333333333
 47
0.0
 47
0.0
 47
0.0
 47
0.0
 47
0.0208333333333333
 47
0.0
 47
0.0
 47
0.0
 47
0.0
 47
1.0
 47
0.0
 47
0.0
 47
0.0
 47
0.0
 47
1.0
171
     0
 49
0.0208333333333333
 49
0.0
 49
0.0
 49
0.0
 49
0.0
 49
0.0208333333333333
 49
0.0
 49
0.0
 49
0.0
 49
0.0
 49
1.0
 49
0.0
 49
0.0
 49
0.0
 49
0.0
 49
1.0
175
     0
142
0.0208333333333333
142
0.0
142
0.0
142
0.0
142
0.0
142
0.0208333333333333
142
0.0
142
0.0
142
0.0
142
0.0
142
1.0
142
0.0
142
0.0
142
0.0
142
0.0
142
1.0
179
     0
144
0.0208333333333333
144
0.0
144
0.0
144
0.0
144
0.0
144
0.0208333333333333
144
0.0
144
0.0
144
0.0
144
0.0
144
1.0
144
0.0
144
0.0
144
0.0
144
0.0
144
1.0
147
0.0208333333333333
147
0.0
147
0.0
147
0.0
147
0.0
147
0.0208333333333333
147
0.0
147
0.0
147
0.0
147
0.0
147
1.0
147
0.0
147
0.0
147
0.0
147
0.0
147
1.0
  0
MATERIAL
  5
11
102
{ACAD_XDICTIONARY
360
12
102
}
102
{ACAD_REACTORS
330
10
102
}
330
10
100
AcDbMaterial
  1
ByLayer
 72
     0
 43
0.0208333333333333
 43
0.0
 43
0.0
 43
0.0
 43
0.0
 43
0.0208333333333333
 43
0.0
 43
0.0
 43
0.0
 43
0.0
 43
1.0
 43
0.0
 43
0.0
 43
0.0
 43
0.0
 43
1.0
 77
     0
 47
0.0208333333333333
 47
0.0
 47
0.0
 47
0.0
 47
0.0
 47
0.0208333333333333
 47
0.0
 47
0.0
 47
0.0
 47
0.0
 47
1.0
 47
0.0
 47
0.0
 47
0.0
 47
0.0
 47
1.0
171
     0
 49
0.0208333333333333
 49
0.0
 49
0.0
 49
0.0
 49
0.0
 49
0.0208333333333333
 49
0.0
 49
0.0
 49
0.0
 49
0.0
 49
1.0
 49
0.0
 49
0.0
 49
0.0
 49
0.0
 49
1.0
175
     0
142
0.0208333333333333
142
0.0
142
0.0
142
0.0
142
0.0
142
0.0208333333333333
142
0.0
142
0.0
142
0.0
142
0.0
142
1.0
142
0.0
142
0.0
142
0.0
142
0.0
142
1.0
179
     0
144
0.0208333333333333
144
0.0
144
0.0
144
0.0
144
0.0
144
0.0208333333333333
144
0.0
144
0.0
144
0.0
144
0.0
144
1.0
144
0.0
144
0.0
144
0.0
144
0.0
144
1.0
147
0.0208333333333333
147
0.0
147
0.0
147
0.0
147
0.0
147
0.0208333333333333
147
0.0
147
0.0
147
0.0
147
0.0
147
1.0
147
0.0
147
0.0
147
0.0
147
0.0
147
1.0
  0
MATERIAL
  5
21
102
{ACAD_XDICTIONARY
360
22
102
}
102
{ACAD_REACTORS
330
10
102
}
330
10
100
AcDbMaterial
  1
Global
 72
     0
 43
0.0208333333333333
 43
0.0
 43
0.0
 43
0.0
 43
0.0
 43
0.0208333333333333
 43
0.0
 43
0.0
 43
0.0
 43
0.0
 43
1.0
 43
0.0
 43
0.0
 43
0.0
 43
0.0
 43
1.0
 77
     0
 47
0.0208333333333333
 47
0.0
 47
0.0
 47
0.0
 47
0.0
 47
0.0208333333333333
 47
0.0
 47
0.0
 47
0.0
 47
0.0
 47
1.0
 47
0.0
 47
0.0
 47
0.0
 47
0.0
 47
1.0
171
     0
 49
0.0208333333333333
 49
0.0
 49
0.0
 49
0.0
 49
0.0
 49
0.0208333333333333
 49
0.0
 49
0.0
 49
0.0
 49
0.0
 49
1.0
 49
0.0
 49
0.0
 49
0.0
 49
0.0
 49
1.0
175
     0
142
0.0208333333333333
142
0.0
142
0.0
142
0.0
142
0.0
142
0.0208333333333333
142
0.0
142
0.0
142
0.0
142
0.0
142
1.0
142
0.0
142
0.0
142
0.0
142
0.0
142
1.0
179
     0
144
0.0208333333333333
144
0.0
144
0.0
144
0.0
144
0.0
144
0.0208333333333333
144
0.0
144
0.0
144
0.0
144
0.0
144
1.0
144
0.0
144
0.0
144
0.0
144
0.0
144
1.0
147
0.0208333333333333
147
0.0
147
0.0
147
0.0
147
0.0
147
0.0208333333333333
147
0.0
147
0.0
147
0.0
147
0.0
147
1.0
147
0.0
147
0.0
147
0.0
147
0.0
147
1.0
  0
MLEADERSTYLE
  5
67
102
{ACAD_XDICTIONARY
360
19C
102
}
102
{ACAD_REACTORS
330
66
102
}
330
66
100
AcDbMLeaderStyle
179
     2
170
     2
171
     1
172
     0
 90
        2
 40
0.0
 41
0.0
173
     1
 91
-1056964608
340
5B
 92
       -2
290
     1
 42
0.09
291
     1
 43
0.36
  3
Standard
 44
0.18
300

342
55
174
     1
178
     6
175
     1
176
     0
 93
-1056964608
 45
0.18
292
     0
297
     0
 46
0.18
 94
-1056964608
 47
1.0
 49
1.0
140
1.0
293
     1
141
0.0
294
     1
177
     0
142
1.0
295
     0
296
     0
143
0.125
271
     0
272
     9
273
     9
  0
MLINESTYLE
  5
60
102
{ACAD_REACTORS
330
5F
102
}
330
5F
100
AcDbMlineStyle
  2
STANDARD
 70
     0
  3

 62
   256
 51
90.0
 52
90.0
 71
     2
 49
0.5
 62
   256
  6
BYLAYER
 49
-0.5
 62
   256
  6
BYLAYER
  0
ACDBPLACEHOLDER
  5
F
102
{ACAD_REACTORS
330
E
102
}
330
E
  0
SCALE
  5
43
102
{ACAD_REACTORS
330
42
102
}
330
42
100
AcDbScale
 70
     0
300
1:1
140
1.0
141
1.0
290
     1
  0
SCALE
  5
44
102
{ACAD_REACTORS
330
42
102
}
330
42
100
AcDbScale
 70
     0
300
1/128" = 1'-0"
140
0.0078125
141
12.0
290
     0
  0
SCALE
  5
45
102
{ACAD_REACTORS
330
42
102
}
330
42
100
AcDbScale
 70
     0
300
1/64" = 1'-0"
140
0.015625
141
12.0
290
     0
  0
SCALE
  5
46
102
{ACAD_REACTORS
330
42
102
}
330
42
100
AcDbScale
 70
     0
300
1/32" = 1'-0"
140
0.03125
141
12.0
290
     0
  0
SCALE
  5
47
102
{ACAD_REACTORS
330
42
102
}
330
42
100
AcDbScale
 70
     0
300
1/16" = 1'-0"
140
0.0625
141
12.0
290
     0
  0
SCALE
  5
48
102
{ACAD_REACTORS
330
42
102
}
330
42
100
AcDbScale
 70
     0
300
3/32" = 1'-0"
140
0.09375
141
12.0
290
     0
  0
SCALE
  5
49
102
{ACAD_REACTORS
330
42
102
}
330
42
100
AcDbScale
 70
     0
300
1/8" = 1'-0"
140
0.125
141
12.0
290
     0
  0
SCALE
  5
4A
102
{ACAD_REACTORS
330
42
102
}
330
42
100
AcDbScale
 70
     0
300
3/16" = 1'-0"
140
0.1875
141
12.0
290
     0
  0
SCALE
  5
4B
102
{ACAD_REACTORS
330
42
102
}
330
42
100
AcDbScale
 70
     0
300
1/4" = 1'-0"
140
0.25
141
12.0
290
     0
  0
SCALE
  5
4C
102
{ACAD_REACTORS
330
42
102
}
330
42
100
AcDbScale
 70
     0
300
3/8" = 1'-0"
140
0.375
141
12.0
290
     0
  0
SCALE
  5
4D
102
{ACAD_REACTORS
330
42
102
}
330
42
100
AcDbScale
 70
     0
300
1/2" = 1'-0"
140
0.5
141
12.0
290
     0
  0
SCALE
  5
4E
102
{ACAD_REACTORS
330
42
102
}
330
42
100
AcDbScale
 70
     0
300
3/4" = 1'-0"
140
0.75
141
12.0
290
     0
  0
SCALE
  5
4F
102
{ACAD_REACTORS
330
42
102
}
330
42
100
AcDbScale
 70
     0
300
1" = 1'-0"
140
1.0
141
12.0
290
     0
  0
SCALE
  5
50
102
{ACAD_REACTORS
330
42
102
}
330
42
100
AcDbScale
 70
     0
300
1-1/2" = 1'-0"
140
1.5
141
12.0
290
     0
  0
SCALE
  5
51
102
{ACAD_REACTORS
330
42
102
}
330
42
100
AcDbScale
 70
     0
300
3" = 1'-0"
140
3.0
141
12.0
290
     0
  0
SCALE
  5
52
102
{ACAD_REACTORS
330
42
102
}
330
42
100
AcDbScale
 70
     0
300
6" = 1'-0"
140
6.0
141
12.0
290
     0
  0
SCALE
  5
53
102
{ACAD_REACTORS
330
42
102
}
330
42
100
AcDbScale
 70
     0
300
1'-0" = 1'-0"
140
12.0
141
12.0
290
     0
  0
ACDBSECTIONVIEWSTYLE
  5
69
102
{ACAD_XDICTIONARY
360
19E
102
}
102
{ACAD_REACTORS
330
68
102
}
330
68
100
AcDbModelDocViewStyle
 70
     0
  3
Imperial24
290
     0
100
AcDbSectionViewStyle
 70
     0
 71
     0
 90
       78
 71
     1
340
55
 62
   256
 40
0.24
340
0
340
0
 62
   256
 40
0.24
300
I, O, Q, S, X, Z
 40
0.48
 90
        3
 40
0.18
 90
        1
 71
     2
340
5D
 90
       25
 62
   256
340
5D
 90
       50
 62
   256
 40
0.24
 40
0.0
 40
0.24
 71
     3
340
55
 62
   256
 40
0.24
 90
        1
 40
0.75
 90
        1
300
%<\AcVar ViewType \f "%tc1">% %<\AcVar ViewSectionStartId>%-%<\AcVar ViewSectionEndId>%\PSCALE %<\AcVar ViewScale \f "%sn">%
 71
     4
 62
   256
 62
   257
300
ANSI31
 40
1.0
 90
        0
290
     0
290
     0
 90
        6
 40
0.0
 40
1.570796326794896
 40
0.2617993877991494
 40
1.308996938995747
 40
-0.2617993877991494
 40
1.832595714594046
  0
TABLESTYLE
  5
65
102
{ACAD_XDICTIONARY
360
169
102
}
102
{ACAD_REACTORS
330
64
102
}
330
64
100
AcDbTableStyle
280
     0
  3
Standard
 70
     0
 71
     0
 40
0.06
 41
0.06
280
     0
281
     0
  7
Standard
140
0.18
170
     2
 62
     0
 63
     7
283
     0
 90
      512
 91
        0
  1

274
    -2
284
     1
 64
     0
275
    -2
285
     1
 65
     0
276
    -2
286
     1
 66
     0
277
    -2
287
     1
 67
     0
278
    -2
288
     1
 68
     0
279
    -2
289
     1
 69
     0
  7
Standard
140
0.25
170
     5
 62
     0
 63
     7
283
     0
 90
      512
 91
        0
  1

274
    -2
284
     1
 64
     0
275
    -2
285
     1
 65
     0
276
    -2
286
     1
 66
     0
277
    -2
287
     1
 67
     0
278
    -2
288
     1
 68
     0
279
    -2
289
     1
 69
     0
  7
Standard
140
0.18
170
     5
 62
     0
 63
     7
283
     0
 90
      512
 91
        0
  1

274
    -2
284
     1
 64
     0
275
    -2
285
     1
 65
     0
276
    -2
286
     1
 66
     0
277
    -2
287
     1
 67
     0
278
    -2
288
     1
 68
     0
279
    -2
289
     1
 69
     0
  0
VISUALSTYLE
  5
2F
102
{ACAD_XDICTIONARY
360
176
102
}
102
{ACAD_REACTORS
330
29
102
}
330
29
100
AcDbVisualStyle
  2
2dWireframe
 70
     4
177
     2
291
     0
 71
     0
176
     1
 72
     2
176
     1
 73
     0
176
     1
 90
        0
176
     1
 40
0.6
176
     1
 41
30.0
176
     1
 63
     7
421
 16777215
176
     1
 74
     1
176
     1
 91
        4
176
     1
 64
     7
176
     1
 65
   257
176
     1
 75
     1
176
     1
175
     1
176
     1
 42
1.0
176
     1
 92
        0
176
     1
 66
   257
176
     1
 43
1.0
176
     1
 76
     1
176
     1
 77
     6
176
     1
 78
     2
176
     1
 67
     7
176
     1
 79
     5
176
     1
170
     0
176
     1
171
     0
176
     1
290
     0
176
     1
 93
        1
176
     1
 44
0.0
176
     1
173
     0
176
     1
1001
ACAD
1000
AcDbSavedByObjectVersion
1070
     0
  0
VISUALSTYLE
  5
2E
102
{ACAD_XDICTIONARY
360
174
102
}
102
{ACAD_REACTORS
330
29
102
}
330
29
100
AcDbVisualStyle
  2
Basic
 70
     7
177
     2
291
     1
 71
     1
176
     1
 72
     0
176
     1
 73
     1
176
     1
 90
        0
176
     1
 40
0.6
176
     1
 41
30.0
176
     1
 63
     7
421
 16777215
176
     1
 74
     0
176
     1
 91
        4
176
     1
 64
     7
176
     1
 65
   257
176
     1
 75
     1
176
     1
175
     1
176
     1
 42
1.0
176
     1
 92
        8
176
     1
 66
     7
176
     1
 43
1.0
176
     1
 76
     1
176
     1
 77
     6
176
     1
 78
     2
176
     1
 67
     7
176
     1
 79
     5
176
     1
170
     0
176
     1
171
     0
176
     1
290
     0
176
     1
 93
        1
176
     1
 44
0.0
176
     1
173
     0
176
     1
1001
ACAD
1000
AcDbSavedByObjectVersion
1070
     0
  0
VISUALSTYLE
  5
35
102
{ACAD_XDICTIONARY
360
182
102
}
102
{ACAD_REACTORS
330
29
102
}
330
29
100
AcDbVisualStyle
  2
Brighten
 70
    12
177
     2
291
     1
 71
     2
176
     1
 72
     2
176
     1
 73
     0
176
     1
 90
        0
176
     1
 40
0.6
176
     1
 41
30.0
176
     1
 63
     7
421
 16777215
176
     1
 74
     1
176
     1
 91
        4
176
     1
 64
     7
176
     1
 65
   257
176
     1
 75
     1
176
     1
175
     1
176
     1
 42
1.0
176
     1
 92
        8
176
     1
 66
     7
176
     1
 43
1.0
176
     1
 76
     1
176
     1
 77
     6
176
     1
 78
     2
176
     1
 67
     7
176
     1
 79
     5
176
     1
170
     0
176
     1
171
     0
176
     1
290
     0
176
     1
 93
        1
176
     1
 44
50.0
176
     1
173
     0
176
     1
1001
ACAD
1000
AcDbSavedByObjectVersion
1070
     0
  0
VISUALSTYLE
  5
39
102
{ACAD_XDICTIONARY
360
18A
102
}
102
{ACAD_REACTORS
330
29
102
}
330
29
100
AcDbVisualStyle
  2
ColorChange
 70
    16
177
     2
291
     1
 71
     2
176
     1
 72
     2
176
     1
 73
     3
176
     1
 90
        0
176
     1
 40
0.6
176
     1
 41
30.0
176
     1
 63
     8
421
  8421504
176
     1
 74
     1
176
     1
 91
        4
176
     1
 64
     7
176
     1
 65
   257
176
     1
 75
     1
176
     1
175
     1
176
     1
 42
1.0
176
     1
 92
        8
176
     1
 66
     8
424
  8421504
176
     1
 43
1.0
176
     1
 76
     1
176
     1
 77
     6
176
     1
 78
     2
176
     1
 67
     7
176
     1
 79
     5
176
     1
170
     0
176
     1
171
     0
176
     1
290
     0
176
     1
 93
        1
176
     1
 44
0.0
176
     1
173
     0
176
     1
1001
ACAD
1000
AcDbSavedByObjectVersion
1070
     0
  0
VISUALSTYLE
  5
32
102
{ACAD_XDICTIONARY
360
17C
102
}
102
{ACAD_REACTORS
330
29
102
}
330
29
100
AcDbVisualStyle
  2
Conceptual
 70
     9
177
     2
291
     0
 71
     3
176
     1
 72
     2
176
     1
 73
     0
176
     1
 90
        0
176
     1
 40
0.6
176
     1
 41
30.0
176
     1
 63
     7
421
 16777215
176
     1
 74
     2
176
     1
 91
        2
176
     1
 64
     7
176
     1
 65
   257
176
     1
 75
     1
176
     1
175
     1
176
     1
 42
179.0
176
     1
 92
        8
176
     1
 66
     7
176
     1
 43
1.0
176
     1
 76
     1
176
     1
 77
     6
176
     1
 78
     2
176
     1
 67
     7
176
     1
 79
     3
176
     1
170
     0
176
     1
171
     0
176
     1
290
     0
176
     1
 93
        1
176
     1
 44
0.0
176
     1
173
     0
176
     1
1001
ACAD
1000
AcDbSavedByObjectVersion
1070
     0
  0
VISUALSTYLE
  5
34
102
{ACAD_XDICTIONARY
360
180
102
}
102
{ACAD_REACTORS
330
29
102
}
330
29
100
AcDbVisualStyle
  2
Dim
 70
    11
177
     2
291
     1
 71
     2
176
     1
 72
     2
176
     1
 73
     0
176
     1
 90
        0
176
     1
 40
0.6
176
     1
 41
30.0
176
     1
 63
     7
421
 16777215
176
     1
 74
     1
176
     1
 91
        4
176
     1
 64
     7
176
     1
 65
   257
176
     1
 75
     1
176
     1
175
     1
176
     1
 42
1.0
176
     1
 92
        8
176
     1
 66
     7
176
     1
 43
1.0
176
     1
 76
     1
176
     1
 77
     6
176
     1
 78
     2
176
     1
 67
     7
176
     1
 79
     5
176
     1
170
     0
176
     1
171
     0
176
     1
290
     0
176
     1
 93
        1
176
     1
 44
-50.0
176
     1
173
     0
176
     1
1001
ACAD
1000
AcDbSavedByObjectVersion
1070
     0
  0
VISUALSTYLE
  5
41
102
{ACAD_XDICTIONARY
360
19A
102
}
102
{ACAD_REACTORS
330
29
102
}
330
29
100
AcDbVisualStyle
  2
EdgeColorOff
 70
    22
177
     2
291
     1
 71
     2
176
     0
 72
     2
176
     0
 73
     0
176
     0
 90
        0
176
     0
 40
0.6
176
     0
 41
30.0
176
     0
 63
     7
421
 16777215
176
     0
 74
     1
176
     0
 91
        4
176
     0
 64
     7
176
     0
 65
   257
176
     0
 75
     1
176
     0
175
     1
176
     0
 42
1.0
176
     0
 92
        8
176
     2
 66
     7
176
     0
 43
1.0
176
     0
 76
     1
176
     0
 77
     6
176
     0
 78
     2
176
     0
 67
     7
176
     0
 79
     5
176
     0
170
     0
176
     0
171
     0
176
     0
290
     0
176
     0
 93
        1
176
     0
 44
0.0
176
     0
173
     0
176
     0
1001
ACAD
1000
AcDbSavedByObjectVersion
1070
     0
  0
VISUALSTYLE
  5
38
102
{ACAD_XDICTIONARY
360
188
102
}
102
{ACAD_REACTORS
330
29
102
}
330
29
100
AcDbVisualStyle
  2
Facepattern
 70
    15
177
     2
291
     1
 71
     2
176
     1
 72
     2
176
     1
 73
     0
176
     1
 90
        0
176
     1
 40
0.6
176
     1
 41
30.0
176
     1
 63
     7
421
 16777215
176
     1
 74
     1
176
     1
 91
        4
176
     1
 64
     7
176
     1
 65
   257
176
     1
 75
     1
176
     1
175
     1
176
     1
 42
1.0
176
     1
 92
        8
176
     1
 66
     7
176
     1
 43
1.0
176
     1
 76
     1
176
     1
 77
     6
176
     1
 78
     2
176
     1
 67
     7
176
     1
 79
     5
176
     1
170
     0
176
     1
171
     0
176
     1
290
     0
176
     1
 93
        1
176
     1
 44
0.0
176
     1
173
     0
176
     1
1001
ACAD
1000
AcDbSavedByObjectVersion
1070
     0
  0
VISUALSTYLE
  5
2A
102
{ACAD_XDICTIONARY
360
16C
102
}
102
{ACAD_REACTORS
330
29
102
}
330
29
100
AcDbVisualStyle
  2
Flat
 70
     0
177
     2
291
     1
 71
     2
176
     1
 72
     1
176
     1
 73
     1
176
     1
 90
        2
176
     1
 40
0.6
176
     1
 41
30.0
176
     1
 63
     7
421
 16777215
176
     1
 74
     0
176
     1
 91
        0
176
     1
 64
     7
176
     1
 65
   257
176
     1
 75
     1
176
     1
175
     1
176
     1
 42
1.0
176
     1
 92
        8
176
     1
 66
     7
176
     1
 43
1.0
176
     1
 76
     1
176
     1
 77
     6
176
     1
 78
     2
176
     1
 67
     7
176
     1
 79
     5
176
     1
170
     0
176
     1
171
     0
176
     1
290
     0
176
     1
 93
       13
176
     1
 44
0.0
176
     1
173
     0
176
     1
1001
ACAD
1000
AcDbSavedByObjectVersion
1070
     0
  0
VISUALSTYLE
  5
2B
102
{ACAD_XDICTIONARY
360
16E
102
}
102
{ACAD_REACTORS
330
29
102
}
330
29
100
AcDbVisualStyle
  2
FlatWithEdges
 70
     1
177
     2
291
     1
 71
     2
176
     1
 72
     1
176
     1
 73
     1
176
     1
 90
        2
176
     1
 40
0.6
176
     1
 41
30.0
176
     1
 63
     7
421
 16777215
176
     1
 74
     1
176
     1
 91
        0
176
     1
 64
     7
176
     1
 65
   257
176
     1
 75
     1
176
     1
175
     1
176
     1
 42
1.0
176
     1
 92
        0
176
     1
 66
   257
176
     1
 43
1.0
176
     1
 76
     1
176
     1
 77
     6
176
     1
 78
     2
176
     1
 67
     7
176
     1
 79
     5
176
     1
170
     0
176
     1
171
     0
176
     1
290
     0
176
     1
 93
       13
176
     1
 44
0.0
176
     1
173
     0
176
     1
1001
ACAD
1000
AcDbSavedByObjectVersion
1070
     0
  0
VISUALSTYLE
  5
2C
102
{ACAD_XDICTIONARY
360
170
102
}
102
{ACAD_REACTORS
330
29
102
}
330
29
100
AcDbVisualStyle
  2
Gouraud
 70
     2
177
     2
291
     1
 71
     2
176
     1
 72
     2
176
     1
 73
     1
176
     1
 90
        2
176
     1
 40
0.6
176
     1
 41
30.0
176
     1
 63
     7
421
 16777215
176
     1
 74
     0
176
     1
 91
        0
176
     1
 64
     7
176
     1
 65
   257
176
     1
 75
     1
176
     1
175
     1
176
     1
 42
1.0
176
     1
 92
        0
176
     1
 66
     7
176
     1
 43
1.0
176
     1
 76
     1
176
     1
 77
     6
176
     1
 78
     2
176
     1
 67
     7
176
     1
 79
     5
176
     1
170
     0
176
     1
171
     0
176
     1
290
     0
176
     1
 93
       13
176
     1
 44
0.0
176
     1
173
     0
176
     1
1001
ACAD
1000
AcDbSavedByObjectVersion
1070
     0
  0
VISUALSTYLE
  5
2D
102
{ACAD_XDICTIONARY
360
172
102
}
102
{ACAD_REACTORS
330
29
102
}
330
29
100
AcDbVisualStyle
  2
GouraudWithEdges
 70
     3
177
     2
291
     1
 71
     2
176
     1
 72
     2
176
     1
 73
     1
176
     1
 90
        2
176
     1
 40
0.6
176
     1
 41
30.0
176
     1
 63
     7
421
 16777215
176
     1
 74
     1
176
     1
 91
        0
176
     1
 64
     7
176
     1
 65
   257
176
     1
 75
     1
176
     1
175
     1
176
     1
 42
1.0
176
     1
 92
        0
176
     1
 66
   257
176
     1
 43
1.0
176
     1
 76
     1
176
     1
 77
     6
176
     1
 78
     2
176
     1
 67
     7
176
     1
 79
     5
176
     1
170
     0
176
     1
171
     0
176
     1
290
     0
176
     1
 93
       13
176
     1
 44
0.0
176
     1
173
     0
176
     1
1001
ACAD
1000
AcDbSavedByObjectVersion
1070
     0
  0
VISUALSTYLE
  5
31
102
{ACAD_XDICTIONARY
360
17A
102
}
102
{ACAD_REACTORS
330
29
102
}
330
29
100
AcDbVisualStyle
  2
Hidden
 70
     6
177
     2
291
     0
 71
     1
176
     1
 72
     2
176
     1
 73
     2
176
     1
 90
        0
176
     1
 40
0.6
176
     1
 41
30.0
176
     1
 63
     7
421
 16777215
176
     1
 74
     2
176
     1
 91
        2
176
     1
 64
     7
176
     1
 65
   257
176
     1
 75
     2
176
     1
175
     1
176
     1
 42
40.0
176
     1
 92
        0
176
     1
 66
   257
176
     1
 43
1.0
176
     1
 76
     1
176
     1
 77
     6
176
     1
 78
     2
176
     1
 67
     7
176
     1
 79
     3
176
     1
170
     0
176
     1
171
     0
176
     1
290
     0
176
     1
 93
        1
176
     1
 44
0.0
176
     1
173
     0
176
     1
1001
ACAD
1000
AcDbSavedByObjectVersion
1070
     0
  0
VISUALSTYLE
  5
3F
102
{ACAD_XDICTIONARY
360
196
102
}
102
{ACAD_REACTORS
330
29
102
}
330
29
100
AcDbVisualStyle
  2
JitterOff
 70
    20
177
     2
291
     1
 71
     2
176
     0
 72
     2
176
     0
 73
     0
176
     0
 90
        0
176
     0
 40
0.6
176
     0
 41
30.0
176
     0
 63
     7
421
 16777215
176
     0
 74
     1
176
     0
 91
        4
176
     0
 64
     7
176
     0
 65
   257
176
     0
 75
     1
176
     0
175
     1
176
     0
 42
1.0
176
     0
 92
       10
176
     2
 66
     7
176
     0
 43
1.0
176
     0
 76
     1
176
     0
 77
     6
176
     0
 78
     2
176
     0
 67
     7
176
     0
 79
     5
176
     0
170
     0
176
     0
171
     0
176
     0
290
     0
176
     0
 93
        1
176
     0
 44
0.0
176
     0
173
     0
176
     0
1001
ACAD
1000
AcDbSavedByObjectVersion
1070
     0
  0
VISUALSTYLE
  5
37
102
{ACAD_XDICTIONARY
360
186
102
}
102
{ACAD_REACTORS
330
29
102
}
330
29
100
AcDbVisualStyle
  2
Linepattern
 70
    14
177
     2
291
     1
 71
     2
176
     1
 72
     2
176
     1
 73
     0
176
     1
 90
        0
176
     1
 40
0.6
176
     1
 41
30.0
176
     1
 63
     7
421
 16777215
176
     1
 74
     1
176
     1
 91
        4
176
     1
 64
     7
176
     1
 65
   257
176
     1
 75
     7
176
     1
175
     7
176
     1
 42
1.0
176
     1
 92
        8
176
     1
 66
     7
176
     1
 43
1.0
176
     1
 76
     1
176
     1
 77
     6
176
     1
 78
     2
176
     1
 67
     7
176
     1
 79
     5
176
     1
170
     0
176
     1
171
     0
176
     1
290
     0
176
     1
 93
        1
176
     1
 44
0.0
176
     1
173
     0
176
     1
1001
ACAD
1000
AcDbSavedByObjectVersion
1070
     0
  0
VISUALSTYLE
  5
40
102
{ACAD_XDICTIONARY
360
198
102
}
102
{ACAD_REACTORS
330
29
102
}
330
29
100
AcDbVisualStyle
  2
OverhangOff
 70
    21
177
     2
291
     1
 71
     2
176
     0
 72
     2
176
     0
 73
     0
176
     0
 90
        0
176
     0
 40
0.6
176
     0
 41
30.0
176
     0
 63
     7
421
 16777215
176
     0
 74
     1
176
     0
 91
        4
176
     0
 64
     7
176
     0
 65
   257
176
     0
 75
     1
176
     0
175
     1
176
     0
 42
1.0
176
     0
 92
        9
176
     2
 66
     7
176
     0
 43
1.0
176
     0
 76
     1
176
     0
 77
     6
176
     0
 78
     2
176
     0
 67
     7
176
     0
 79
     5
176
     0
170
     0
176
     0
171
     0
176
     0
290
     0
176
     0
 93
        1
176
     0
 44
0.0
176
     0
173
     0
176
     0
1001
ACAD
1000
AcDbSavedByObjectVersion
1070
     0
  0
VISUALSTYLE
  5
33
102
{ACAD_XDICTIONARY
360
17E
102
}
102
{ACAD_REACTORS
330
29
102
}
330
29
100
AcDbVisualStyle
  2
Realistic
 70
     8
177
     2
291
     0
 71
     2
176
     1
 72
     3
176
     1
 73
     0
176
     1
 90
        2
176
     1
 40
0.6
176
     1
 41
30.0
176
     1
 63
     7
421
 16777215
176
     1
 74
     0
176
     1
 91
        0
176
     1
 64
     7
176
     1
 65
   257
176
     1
 75
     1
176
     1
175
     1
176
     1
 42
1.0
176
     1
 92
        8
176
     1
 66
   257
176
     1
 43
1.0
176
     1
 76
     1
176
     1
 77
     6
176
     1
 78
     2
176
     1
 67
     7
176
     1
 79
     3
176
     1
170
     0
176
     1
171
     0
176
     1
290
     0
176
     1
 93
       13
176
     1
 44
0.0
176
     1
173
     0
176
     1
1001
ACAD
1000
AcDbSavedByObjectVersion
1070
     0
  0
VISUALSTYLE
  5
3E
102
{ACAD_XDICTIONARY
360
194
102
}
102
{ACAD_REACTORS
330
29
102
}
330
29
100
AcDbVisualStyle
  2
Shaded
 70
    27
177
     2
291
     0
 71
     2
176
     1
 72
     2
176
     1
 73
     1
176
     1
 90
        2
176
     1
 40
0.6
176
     1
 41
30.0
176
     1
 63
     7
421
 16777215
176
     1
 74
     0
176
     1
 91
        4
176
     1
 64
     7
176
     1
 65
   257
176
     1
 75
     1
176
     1
175
     1
176
     1
 42
1.0
176
     1
 92
        8
176
     1
 66
   257
176
     1
 43
1.0
176
     1
 76
     1
176
     1
 77
     6
176
     1
 78
     2
176
     1
 67
     8
425
  7895160
176
     1
 79
     3
176
     1
170
     0
176
     1
171
     0
176
     1
290
     0
176
     1
 93
        5
176
     1
 44
0.0
176
     1
173
     0
176
     1
1001
ACAD
1000
AcDbSavedByObjectVersion
1070
     0
  0
VISUALSTYLE
  5
3D
102
{ACAD_XDICTIONARY
360
192
102
}
102
{ACAD_REACTORS
330
29
102
}
330
29
100
AcDbVisualStyle
  2
Shaded with edges
 70
    26
177
     2
291
     0
 71
     2
176
     1
 72
     2
176
     1
 73
     1
176
     1
 90
        2
176
     1
 40
0.6
176
     1
 41
30.0
176
     1
 63
     7
421
 16777215
176
     1
 74
     1
176
     1
 91
        2
176
     1
 64
     7
176
     1
 65
   257
176
     1
 75
     2
176
     1
175
     1
176
     1
 42
1.0
176
     1
 92
        8
176
     1
 66
   257
176
     1
 43
1.0
176
     1
 76
     1
176
     1
 77
     6
176
     1
 78
     2
176
     1
 67
     7
176
     1
 79
     3
176
     1
170
     0
176
     1
171
     0
176
     1
290
     0
176
     1
 93
        5
176
     1
 44
0.0
176
     1
173
     0
176
     1
1001
ACAD
1000
AcDbSavedByObjectVersion
1070
     0
  0
VISUALSTYLE
  5
3A
102
{ACAD_XDICTIONARY
360
18C
102
}
102
{ACAD_REACTORS
330
29
102
}
330
29
100
AcDbVisualStyle
  2
Shades of Gray
 70
    23
177
     2
291
     0
 71
     2
176
     1
 72
     2
176
     1
 73
     3
176
     1
 90
        0
176
     1
 40
0.6
176
     1
 41
30.0
176
     1
 63
     7
421
 16777215
176
     1
 74
     2
176
     1
 91
        2
176
     1
 64
     7
176
     1
 65
     7
176
     1
 75
     1
176
     1
175
     1
176
     1
 42
40.0
176
     1
 92
        8
176
     1
 66
     7
176
     1
 43
1.0
176
     1
 76
     1
176
     1
 77
     6
176
     1
 78
     2
176
     1
 67
     7
176
     1
 79
     3
176
     1
170
     0
176
     1
171
     0
176
     1
290
     0
176
     1
 93
        1
176
     1
 44
0.0
176
     1
173
     0
176
     1
1001
ACAD
1000
AcDbSavedByObjectVersion
1070
     0
  0
VISUALSTYLE
  5
3B
102
{ACAD_XDICTIONARY
360
18E
102
}
102
{ACAD_REACTORS
330
29
102
}
330
29
100
AcDbVisualStyle
  2
Sketchy
 70
    24
177
     2
291
     0
 71
     1
176
     1
 72
     2
176
     1
 73
     2
176
     1
 90
        0
176
     1
 40
0.6
176
     1
 41
30.0
176
     1
 63
     7
421
 16777215
176
     1
 74
     2
176
     1
 91
        2
176
     1
 64
     7
176
     1
 65
     7
176
     1
 75
     1
176
     1
175
     1
176
     1
 42
40.0
176
     1
 92
       11
176
     1
 66
     7
176
     1
 43
1.0
176
     1
 76
     1
176
     1
 77
     6
176
     1
 78
     2
176
     1
 67
     7
176
     1
 79
     6
176
     1
170
     0
176
     1
171
     0
176
     1
290
     0
176
     1
 93
        1
176
     1
 44
0.0
176
     1
173
     0
176
     1
1001
ACAD
1000
AcDbSavedByObjectVersion
1070
     0
  0
VISUALSTYLE
  5
36
102
{ACAD_XDICTIONARY
360
184
102
}
102
{ACAD_REACTORS
330
29
102
}
330
29
100
AcDbVisualStyle
  2
Thicken
 70
    13
177
     2
291
     1
 71
     2
176
     1
 72
     2
176
     1
 73
     0
176
     1
 90
        0
176
     1
 40
0.6
176
     1
 41
30.0
176
     1
 63
     7
421
 16777215
176
     1
 74
     1
176
     1
 91
        4
176
     1
 64
     7
176
     1
 65
   257
176
     1
 75
     1
176
     1
175
     1
176
     1
 42
1.0
176
     1
 92
       12
176
     1
 66
     7
176
     1
 43
1.0
176
     1
 76
     1
176
     1
 77
     6
176
     1
 78
     2
176
     1
 67
     7
176
     1
 79
     5
176
     1
170
     0
176
     1
171
     0
176
     1
290
     0
176
     1
 93
        1
176
     1
 44
0.0
176
     1
173
     0
176
     1
1001
ACAD
1000
AcDbSavedByObjectVersion
1070
     0
  0
VISUALSTYLE
  5
30
102
{ACAD_XDICTIONARY
360
178
102
}
102
{ACAD_REACTORS
330
29
102
}
330
29
100
AcDbVisualStyle
  2
Wireframe
 70
     5
177
     2
291
     0
 71
     0
176
     1
 72
     2
176
     1
 73
     0
176
     1
 90
        0
176
     1
 40
0.6
176
     1
 41
30.0
176
     1
 63
     7
421
 16777215
176
     1
 74
     1
176
     1
 91
        4
176
     1
 64
     7
176
     1
 65
   257
176
     1
 75
     1
176
     1
175
     1
176
     1
 42
1.0
176
     1
 92
        0
176
     1
 66
   257
176
     1
 43
1.0
176
     1
 76
     1
176
     1
 77
     6
176
     1
 78
     2
176
     1
 67
     7
176
     1
 79
     3
176
     1
170
     0
176
     1
171
     0
176
     1
290
     0
176
     1
 93
        1
176
     1
 44
0.0
176
     1
173
     0
176
     1
1001
ACAD
1000
AcDbSavedByObjectVersion
1070
     0
  0
VISUALSTYLE
  5
3C
102
{ACAD_XDICTIONARY
360
190
102
}
102
{ACAD_REACTORS
330
29
102
}
330
29
100
AcDbVisualStyle
  2
X-Ray
 70
    25
177
     2
291
     0
 71
     2
176
     1
 72
     2
176
     1
 73
     1
176
     1
 90
        1
176
     1
 40
0.5
176
     1
 41
30.0
176
     1
 63
     7
421
 16777215
176
     1
 74
     1
176
     1
 91
        0
176
     1
 64
     7
176
     1
 65
   257
176
     1
 75
     1
176
     1
175
     1
176
     1
 42
1.0
176
     1
 92
        8
176
     1
 66
     7
176
     1
 43
1.0
176
     1
 76
     1
176
     1
 77
     6
176
     1
 78
     2
176
     1
 67
     7
176
     1
 79
     3
176
     1
170
     0
176
     1
171
     0
176
     1
290
     0
176
     1
 93
       13
176
     1
 44
0.0
176
     1
173
     0
176
     1
1001
ACAD
1000
AcDbSavedByObjectVersion
1070
     0
  0
DICTIONARYVAR
  5
168
102
{ACAD_REACTORS
330
163
102
}
330
163
100
DictionaryVariables
280
     0
  1
1:1
  0
DICTIONARYVAR
  5
165
102
{ACAD_REACTORS
330
163
102
}
330
163
100
DictionaryVariables
280
     0
  1
STANDARD
  0
DICTIONARYVAR
  5
164
102
{ACAD_REACTORS
330
163
102
}
330
163
100
DictionaryVariables
280
     0
  1
STANDARD
  0
DICTIONARYVAR
  5
166
102
{ACAD_REACTORS
330
163
102
}
330
163
100
DictionaryVariables
280
     0
  1
Imperial24
  0
DICTIONARYVAR
  5
167
102
{ACAD_REACTORS
330
163
102
}
330
163
100
DictionaryVariables
280
     0
  1
Imperial24
  0
DICTIONARY
  5
1A0
330
6B
100
AcDbDictionary
280
     1
281
     1
  3
ACAD_XREC_ROUNDTRIP
360
1A1
  0
DICTIONARY
  5
1A
330
19
100
AcDbDictionary
280
     1
281
     1
  3
BUMPTILE
360
1C
  3
DIFFUSETILE
360
1B
  3
OPACITYTILE
360
1F
  3
REFLECTIONTILE
360
1E
  3
REFRACTIONTILE
360
20
  3
SPECULARTILE
360
1D
  0
DICTIONARY
  5
12
330
11
100
AcDbDictionary
280
     1
281
     1
  3
BUMPTILE
360
14
  3
DIFFUSETILE
360
13
  3
OPACITYTILE
360
17
  3
REFLECTIONTILE
360
16
  3
REFRACTIONTILE
360
18
  3
SPECULARTILE
360
15
  0
DICTIONARY
  5
22
330
21
100
AcDbDictionary
280
     1
281
     1
  3
BUMPTILE
360
24
  3
DIFFUSETILE
360
23
  3
OPACITYTILE
360
27
  3
REFLECTIONTILE
360
26
  3
REFRACTIONTILE
360
28
  3
SPECULARTILE
360
25
  0
DICTIONARY
  5
19C
330
67
100
AcDbDictionary
280
     1
281
     1
  3
ACAD_XREC_ROUNDTRIP
360
19D
  0
DICTIONARY
  5
19E
330
69
100
AcDbDictionary
280
     1
281
     1
  3
ACAD_XREC_ROUNDTRIP
360
19F
  0
DICTIONARY
  5
169
330
65
100
AcDbDictionary
280
     1
281
     1
  3
ACAD_ROUNDTRIP_2008_TABLESTYLE_CELLSTYLEMAP
360
16A
  0
DICTIONARY
  5
176
330
2F
100
AcDbDictionary
280
     1
281
     1
  3
ACAD_XREC_ROUNDTRIP
360
177
  0
DICTIONARY
  5
174
330
2E
100
AcDbDictionary
280
     1
281
     1
  3
ACAD_XREC_ROUNDTRIP
360
175
  0
DICTIONARY
  5
182
330
35
100
AcDbDictionary
280
     1
281
     1
  3
ACAD_XREC_ROUNDTRIP
360
183
  0
DICTIONARY
  5
18A
330
39
100
AcDbDictionary
280
     1
281
     1
  3
ACAD_XREC_ROUNDTRIP
360
18B
  0
DICTIONARY
  5
17C
330
32
100
AcDbDictionary
280
     1
281
     1
  3
ACAD_XREC_ROUNDTRIP
360
17D
  0
DICTIONARY
  5
180
330
34
100
AcDbDictionary
280
     1
281
     1
  3
ACAD_XREC_ROUNDTRIP
360
181
  0
DICTIONARY
  5
19A
330
41
100
AcDbDictionary
280
     1
281
     1
  3
ACAD_XREC_ROUNDTRIP
360
19B
  0
DICTIONARY
  5
188
330
38
100
AcDbDictionary
280
     1
281
     1
  3
ACAD_XREC_ROUNDTRIP
360
189
  0
DICTIONARY
  5
16C
330
2A
100
AcDbDictionary
280
     1
281
     1
  3
ACAD_XREC_ROUNDTRIP
360
16D
  0
DICTIONARY
  5
16E
330
2B
100
AcDbDictionary
280
     1
281
     1
  3
ACAD_XREC_ROUNDTRIP
360
16F
  0
DICTIONARY
  5
170
330
2C
100
AcDbDictionary
280
     1
281
     1
  3
ACAD_XREC_ROUNDTRIP
360
171
  0
DICTIONARY
  5
172
330
2D
100
AcDbDictionary
280
     1
281
     1
  3
ACAD_XREC_ROUNDTRIP
360
173
  0
DICTIONARY
  5
17A
330
31
100
AcDbDictionary
280
     1
281
     1
  3
ACAD_XREC_ROUNDTRIP
360
17B
  0
DICTIONARY
  5
196
330
3F
100
AcDbDictionary
280
     1
281
     1
  3
ACAD_XREC_ROUNDTRIP
360
197
  0
DICTIONARY
  5
186
330
37
100
AcDbDictionary
280
     1
281
     1
  3
ACAD_XREC_ROUNDTRIP
360
187
  0
DICTIONARY
  5
198
330
40
100
AcDbDictionary
280
     1
281
     1
  3
ACAD_XREC_ROUNDTRIP
360
199
  0
DICTIONARY
  5
17E
330
33
100
AcDbDictionary
280
     1
281
     1
  3
ACAD_XREC_ROUNDTRIP
360
17F
  0
DICTIONARY
  5
194
330
3E
100
AcDbDictionary
280
     1
281
     1
  3
ACAD_XREC_ROUNDTRIP
360
195
  0
DICTIONARY
  5
192
330
3D
100
AcDbDictionary
280
     1
281
     1
  3
ACAD_XREC_ROUNDTRIP
360
193
  0
DICTIONARY
  5
18C
330
3A
100
AcDbDictionary
280
     1
281
     1
  3
ACAD_XREC_ROUNDTRIP
360
18D
  0
DICTIONARY
  5
18E
330
3B
100
AcDbDictionary
280
     1
281
     1
  3
ACAD_XREC_ROUNDTRIP
360
18F
  0
DICTIONARY
  5
184
330
36
100
AcDbDictionary
280
     1
281
     1
  3
ACAD_XREC_ROUNDTRIP
360
185
  0
DICTIONARY
  5
178
330
30
100
AcDbDictionary
280
     1
281
     1
  3
ACAD_XREC_ROUNDTRIP
360
179
  0
DICTIONARY
  5
190
330
3C
100
AcDbDictionary
280
     1
281
     1
  3
ACAD_XREC_ROUNDTRIP
360
191
  0
XRECORD
  5
1A1
102
{ACAD_REACTORS
330
1A0
102
}
330
1A0
100
AcDbXrecord
280
     1
102
DISPLAYNAME
  1
Imperial24
102
FLAGS
 90
        0
  0
XRECORD
  5
1C
102
{ACAD_REACTORS
330
1A
102
}
330
1A
100
AcDbXrecord
280
     1
270
     1
271
     1
  0
XRECORD
  5
1B
102
{ACAD_REACTORS
330
1A
102
}
330
1A
100
AcDbXrecord
280
     1
270
     1
271
     1
  0
XRECORD
  5
1F
102
{ACAD_REACTORS
330
1A
102
}
330
1A
100
AcDbXrecord
280
     1
270
     1
271
     1
  0
XRECORD
  5
1E
102
{ACAD_REACTORS
330
1A
102
}
330
1A
100
AcDbXrecord
280
     1
270
     1
271
     1
  0
XRECORD
  5
20
102
{ACAD_REACTORS
330
1A
102
}
330
1A
100
AcDbXrecord
280
     1
270
     1
271
     1
  0
XRECORD
  5
1D
102
{ACAD_REACTORS
330
1A
102
}
330
1A
100
AcDbXrecord
280
     1
270
     1
271
     1
  0
XRECORD
  5
14
102
{ACAD_REACTORS
330
12
102
}
330
12
100
AcDbXrecord
280
     1
270
     1
271
     1
  0
XRECORD
  5
13
102
{ACAD_REACTORS
330
12
102
}
330
12
100
AcDbXrecord
280
     1
270
     1
271
     1
  0
XRECORD
  5
17
102
{ACAD_REACTORS
330
12
102
}
330
12
100
AcDbXrecord
280
     1
270
     1
271
     1
  0
XRECORD
  5
16
102
{ACAD_REACTORS
330
12
102
}
330
12
100
AcDbXrecord
280
     1
270
     1
271
     1
  0
XRECORD
  5
18
102
{ACAD_REACTORS
330
12
102
}
330
12
100
AcDbXrecord
280
     1
270
     1
271
     1
  0
XRECORD
  5
15
102
{ACAD_REACTORS
330
12
102
}
330
12
100
AcDbXrecord
280
     1
270
     1
271
     1
  0
XRECORD
  5
24
102
{ACAD_REACTORS
330
22
102
}
330
22
100
AcDbXrecord
280
     1
270
     1
271
     1
  0
XRECORD
  5
23
102
{ACAD_REACTORS
330
22
102
}
330
22
100
AcDbXrecord
280
     1
270
     1
271
     1
  0
XRECORD
  5
27
102
{ACAD_REACTORS
330
22
102
}
330
22
100
AcDbXrecord
280
     1
270
     1
271
     1
  0
XRECORD
  5
26
102
{ACAD_REACTORS
330
22
102
}
330
22
100
AcDbXrecord
280
     1
270
     1
271
     1
  0
XRECORD
  5
28
102
{ACAD_REACTORS
330
22
102
}
330
22
100
AcDbXrecord
280
     1
270
     1
271
     1
  0
XRECORD
  5
25
102
{ACAD_REACTORS
330
22
102
}
330
22
100
AcDbXrecord
280
     1
270
     1
271
     1
  0
XRECORD
  5
19D
102
{ACAD_REACTORS
330
19C
102
}
330
19C
100
AcDbXrecord
280
     1
102
ACAD_ROUNDTRIP_2012_MLEADER_STYLE
298
     1
  0
XRECORD
  5
19F
102
{ACAD_REACTORS
330
19E
102
}
330
19E
100
AcDbXrecord
280
     1
102
DISPLAYNAME
  1
Imperial24
102
FLAGS
 90
        0
  0
CELLSTYLEMAP
  5
16A
102
{ACAD_REACTORS
330
169
102
}
330
169
100
AcDbCellStyleMap
 90
        3
300
CELLSTYLE
  1
TABLEFORMAT_BEGIN
 90
        5
170
     1
 91
        0
 92
    32768
 62
   257
 93
        1
300
CONTENTFORMAT
  1
CONTENTFORMAT_BEGIN
 90
        0
 91
        0
 92
      512
 93
        0
300

 40
0.0
140
1.0
 94
        5
 62
     0
340
55
144
0.25
309
CONTENTFORMAT_END
171
     0
 94
        0
309
TABLEFORMAT_END
  1
CELLSTYLE_BEGIN
 90
        1
 91
        1
300
_TITLE
309
CELLSTYLE_END
300
CELLSTYLE
  1
TABLEFORMAT_BEGIN
 90
        5
170
     1
 91
        0
 92
        0
 62
   257
 93
        1
300
CONTENTFORMAT
  1
CONTENTFORMAT_BEGIN
 90
        0
 91
        0
 92
      512
 93
        0
300

 40
0.0
140
1.0
 94
        5
 62
     0
340
55
144
0.18
309
CONTENTFORMAT_END
171
     0
 94
        0
309
TABLEFORMAT_END
  1
CELLSTYLE_BEGIN
 90
        2
 91
        1
300
_HEADER
309
CELLSTYLE_END
300
CELLSTYLE
  1
TABLEFORMAT_BEGIN
 90
        5
170
     1
 91
        0
 92
        0
 62
   257
 93
        1
300
CONTENTFORMAT
  1
CONTENTFORMAT_BEGIN
 90
        0
 91
        0
 92
      512
 93
        0
300

 40
0.0
140
1.0
 94
        2
 62
     0
340
55
144
0.18
309
CONTENTFORMAT_END
171
     0
 94
        0
309
TABLEFORMAT_END
  1
CELLSTYLE_BEGIN
 90
        3
 91
        2
300
_DATA
309
CELLSTYLE_END
  0
XRECORD
  5
177
102
{ACAD_REACTORS
330
176
102
}
330
176
100
AcDbXrecord
280
     1
102
RTVSPost2010Prop28
280
     1
102
RTVSPost2010PropOp28
 70
     1
102
RTVSPost2010Prop29
280
     1
102
RTVSPost2010PropOp29
 70
     1
102
RTVSPost2010Prop30
280
     0
102
RTVSPost2010PropOp30
 70
     1
102
RTVSPost2010Prop31
280
     0
102
RTVSPost2010PropOp31
 70
     1
102
RTVSPost2010Prop32
280
     0
102
RTVSPost2010PropOp32
 70
     1
102
RTVSPost2010Prop33
280
     0
102
RTVSPost2010PropOp33
 70
     1
102
RTVSPost2010Prop34
280
     0
102
RTVSPost2010PropOp34
 70
     1
102
RTVSPost2010Prop35
280
     0
102
RTVSPost2010PropOp35
 70
     1
102
RTVSPost2010Prop36
280
     0
102
RTVSPost2010PropOp36
 70
     1
102
RTVSPost2010Prop37
 90
       50
102
RTVSPost2010PropOp37
 70
     1
102
RTVSPost2010Prop38
140
0.0
102
RTVSPost2010PropOp38
 70
     1
102
RTVSPost2010Prop39
140
1.0
102
RTVSPost2010PropOp39
 70
     1
102
RTVSPost2010Prop40
 90
        0
102
RTVSPost2010PropOp40
 70
     1
102
RTVSPost2010Prop41ColorIndex
 90
       18
102
RTVSPost2010Prop41ColorRGB
 90
        0
102
RTVSPost2010PropOp41
 70
     1
102
RTVSPost2010Prop42
 90
       50
102
RTVSPost2010PropOp42
 70
     1
102
RTVSPost2010Prop43
 90
        3
102
RTVSPost2010PropOp43
 70
     1
102
RTVSPost2010Prop44ColorIndex
 90
        5
102
RTVSPost2010Prop44ColorRGB
 90
      255
102
RTVSPost2010PropOp44
 70
     1
102
RTVSPost2010Prop45
280
     0
102
RTVSPost2010PropOp45
 70
     1
102
RTVSPost2010Prop46
 90
       50
102
RTVSPost2010PropOp46
 70
     1
102
RTVSPost2010Prop47
 90
       50
102
RTVSPost2010PropOp47
 70
     1
102
RTVSPost2010Prop48
 90
       50
102
RTVSPost2010PropOp48
 70
     1
102
RTVSPost2010Prop49
280
     0
102
RTVSPost2010PropOp49
 70
     1
102
RTVSPost2010Prop50
 90
       50
102
RTVSPost2010PropOp50
 70
     1
102
RTVSPost2010Prop51ColorIndex
 90
      256
102
RTVSPost2010Prop51ColorRGB
 90
-16777216
102
RTVSPost2010PropOp51
 70
     0
102
RTVSPost2010Prop52
140
1.0
102
RTVSPost2010PropOp52
 70
     0
102
RTVSPost2010Prop53
 90
        2
102
RTVSPost2010PropOp53
 70
     1
102
RTVSPost2010Prop54
  1
strokes_ogs.tif
102
RTVSPost2010PropOp54
 70
     1
102
RTVSPost2010Prop55
280
     0
102
RTVSPost2010PropOp55
 70
     1
102
RTVSPost2010Prop56
140
1.0
102
RTVSPost2010PropOp56
 70
     1
102
RTVSPost2010Prop57
140
1.0
102
RTVSPost2010PropOp57
 70
     1
  0
XRECORD
  5
175
102
{ACAD_REACTORS
330
174
102
}
330
174
100
AcDbXrecord
280
     1
102
RTVSPost2010Prop28
280
     0
102
RTVSPost2010PropOp28
 70
     1
102
RTVSPost2010Prop29
280
     1
102
RTVSPost2010PropOp29
 70
     1
102
RTVSPost2010Prop30
280
     1
102
RTVSPost2010PropOp30
 70
     1
102
RTVSPost2010Prop31
280
     0
102
RTVSPost2010PropOp31
 70
     1
102
RTVSPost2010Prop32
280
     0
102
RTVSPost2010PropOp32
 70
     1
102
RTVSPost2010Prop33
280
     0
102
RTVSPost2010PropOp33
 70
     1
102
RTVSPost2010Prop34
280
     0
102
RTVSPost2010PropOp34
 70
     1
102
RTVSPost2010Prop35
280
     0
102
RTVSPost2010PropOp35
 70
     1
102
RTVSPost2010Prop36
280
     0
102
RTVSPost2010PropOp36
 70
     1
102
RTVSPost2010Prop37
 90
       50
102
RTVSPost2010PropOp37
 70
     1
102
RTVSPost2010Prop38
140
0.0
102
RTVSPost2010PropOp38
 70
     1
102
RTVSPost2010Prop39
140
1.0
102
RTVSPost2010PropOp39
 70
     1
102
RTVSPost2010Prop40
 90
        0
102
RTVSPost2010PropOp40
 70
     1
102
RTVSPost2010Prop41ColorIndex
 90
       18
102
RTVSPost2010Prop41ColorRGB
 90
        0
102
RTVSPost2010PropOp41
 70
     1
102
RTVSPost2010Prop42
 90
       50
102
RTVSPost2010PropOp42
 70
     1
102
RTVSPost2010Prop43
 90
        3
102
RTVSPost2010PropOp43
 70
     1
102
RTVSPost2010Prop44ColorIndex
 90
        5
102
RTVSPost2010Prop44ColorRGB
 90
      255
102
RTVSPost2010PropOp44
 70
     1
102
RTVSPost2010Prop45
280
     0
102
RTVSPost2010PropOp45
 70
     1
102
RTVSPost2010Prop46
 90
       50
102
RTVSPost2010PropOp46
 70
     1
102
RTVSPost2010Prop47
 90
       50
102
RTVSPost2010PropOp47
 70
     1
102
RTVSPost2010Prop48
 90
       50
102
RTVSPost2010PropOp48
 70
     1
102
RTVSPost2010Prop49
280
     0
102
RTVSPost2010PropOp49
 70
     1
102
RTVSPost2010Prop50
 90
       50
102
RTVSPost2010PropOp50
 70
     1
102
RTVSPost2010Prop51ColorIndex
 90
      256
102
RTVSPost2010Prop51ColorRGB
 90
-16777216
102
RTVSPost2010PropOp51
 70
     0
102
RTVSPost2010Prop52
140
1.0
102
RTVSPost2010PropOp52
 70
     0
102
RTVSPost2010Prop53
 90
        2
102
RTVSPost2010PropOp53
 70
     1
102
RTVSPost2010Prop54
  1
strokes_ogs.tif
102
RTVSPost2010PropOp54
 70
     1
102
RTVSPost2010Prop55
280
     0
102
RTVSPost2010PropOp55
 70
     1
102
RTVSPost2010Prop56
140
1.0
102
RTVSPost2010PropOp56
 70
     1
102
RTVSPost2010Prop57
140
1.0
102
RTVSPost2010PropOp57
 70
     1
  0
XRECORD
  5
183
102
{ACAD_REACTORS
330
182
102
}
330
182
100
AcDbXrecord
280
     1
102
RTVSPost2010Prop28
280
     0
102
RTVSPost2010PropOp28
 70
     1
102
RTVSPost2010Prop29
280
     1
102
RTVSPost2010PropOp29
 70
     1
102
RTVSPost2010Prop30
280
     1
102
RTVSPost2010PropOp30
 70
     1
102
RTVSPost2010Prop31
280
     0
102
RTVSPost2010PropOp31
 70
     1
102
RTVSPost2010Prop32
280
     0
102
RTVSPost2010PropOp32
 70
     1
102
RTVSPost2010Prop33
280
     0
102
RTVSPost2010PropOp33
 70
     1
102
RTVSPost2010Prop34
280
     0
102
RTVSPost2010PropOp34
 70
     1
102
RTVSPost2010Prop35
280
     0
102
RTVSPost2010PropOp35
 70
     1
102
RTVSPost2010Prop36
280
     0
102
RTVSPost2010PropOp36
 70
     1
102
RTVSPost2010Prop37
 90
       50
102
RTVSPost2010PropOp37
 70
     1
102
RTVSPost2010Prop38
140
0.0
102
RTVSPost2010PropOp38
 70
     1
102
RTVSPost2010Prop39
140
1.0
102
RTVSPost2010PropOp39
 70
     1
102
RTVSPost2010Prop40
 90
        0
102
RTVSPost2010PropOp40
 70
     1
102
RTVSPost2010Prop41ColorIndex
 90
       18
102
RTVSPost2010Prop41ColorRGB
 90
        0
102
RTVSPost2010PropOp41
 70
     1
102
RTVSPost2010Prop42
 90
       50
102
RTVSPost2010PropOp42
 70
     1
102
RTVSPost2010Prop43
 90
        3
102
RTVSPost2010PropOp43
 70
     1
102
RTVSPost2010Prop44ColorIndex
 90
        5
102
RTVSPost2010Prop44ColorRGB
 90
      255
102
RTVSPost2010PropOp44
 70
     1
102
RTVSPost2010Prop45
280
     0
102
RTVSPost2010PropOp45
 70
     1
102
RTVSPost2010Prop46
 90
       50
102
RTVSPost2010PropOp46
 70
     1
102
RTVSPost2010Prop47
 90
       50
102
RTVSPost2010PropOp47
 70
     1
102
RTVSPost2010Prop48
 90
       50
102
RTVSPost2010PropOp48
 70
     1
102
RTVSPost2010Prop49
280
     0
102
RTVSPost2010PropOp49
 70
     1
102
RTVSPost2010Prop50
 90
       50
102
RTVSPost2010PropOp50
 70
     1
102
RTVSPost2010Prop51ColorIndex
 90
      256
102
RTVSPost2010Prop51ColorRGB
 90
-16777216
102
RTVSPost2010PropOp51
 70
     0
102
RTVSPost2010Prop52
140
1.0
102
RTVSPost2010PropOp52
 70
     0
102
RTVSPost2010Prop53
 90
        2
102
RTVSPost2010PropOp53
 70
     1
102
RTVSPost2010Prop54
  1
strokes_ogs.tif
102
RTVSPost2010PropOp54
 70
     1
102
RTVSPost2010Prop55
280
     0
102
RTVSPost2010PropOp55
 70
     1
102
RTVSPost2010Prop56
140
1.0
102
RTVSPost2010PropOp56
 70
     1
102
RTVSPost2010Prop57
140
1.0
102
RTVSPost2010PropOp57
 70
     1
  0
XRECORD
  5
18B
102
{ACAD_REACTORS
330
18A
102
}
330
18A
100
AcDbXrecord
280
     1
102
RTVSPost2010Prop28
280
     0
102
RTVSPost2010PropOp28
 70
     1
102
RTVSPost2010Prop29
280
     1
102
RTVSPost2010PropOp29
 70
     1
102
RTVSPost2010Prop30
280
     1
102
RTVSPost2010PropOp30
 70
     1
102
RTVSPost2010Prop31
280
     0
102
RTVSPost2010PropOp31
 70
     1
102
RTVSPost2010Prop32
280
     0
102
RTVSPost2010PropOp32
 70
     1
102
RTVSPost2010Prop33
280
     0
102
RTVSPost2010PropOp33
 70
     1
102
RTVSPost2010Prop34
280
     0
102
RTVSPost2010PropOp34
 70
     1
102
RTVSPost2010Prop35
280
     0
102
RTVSPost2010PropOp35
 70
     1
102
RTVSPost2010Prop36
280
     0
102
RTVSPost2010PropOp36
 70
     1
102
RTVSPost2010Prop37
 90
       50
102
RTVSPost2010PropOp37
 70
     1
102
RTVSPost2010Prop38
140
0.0
102
RTVSPost2010PropOp38
 70
     1
102
RTVSPost2010Prop39
140
1.0
102
RTVSPost2010PropOp39
 70
     1
102
RTVSPost2010Prop40
 90
        0
102
RTVSPost2010PropOp40
 70
     1
102
RTVSPost2010Prop41ColorIndex
 90
       18
102
RTVSPost2010Prop41ColorRGB
 90
        0
102
RTVSPost2010PropOp41
 70
     1
102
RTVSPost2010Prop42
 90
       50
102
RTVSPost2010PropOp42
 70
     1
102
RTVSPost2010Prop43
 90
        3
102
RTVSPost2010PropOp43
 70
     1
102
RTVSPost2010Prop44ColorIndex
 90
        5
102
RTVSPost2010Prop44ColorRGB
 90
      255
102
RTVSPost2010PropOp44
 70
     1
102
RTVSPost2010Prop45
280
     0
102
RTVSPost2010PropOp45
 70
     1
102
RTVSPost2010Prop46
 90
       50
102
RTVSPost2010PropOp46
 70
     1
102
RTVSPost2010Prop47
 90
       50
102
RTVSPost2010PropOp47
 70
     1
102
RTVSPost2010Prop48
 90
       50
102
RTVSPost2010PropOp48
 70
     1
102
RTVSPost2010Prop49
280
     0
102
RTVSPost2010PropOp49
 70
     1
102
RTVSPost2010Prop50
 90
       50
102
RTVSPost2010PropOp50
 70
     1
102
RTVSPost2010Prop51ColorIndex
 90
      256
102
RTVSPost2010Prop51ColorRGB
 90
-16777216
102
RTVSPost2010PropOp51
 70
     0
102
RTVSPost2010Prop52
140
1.0
102
RTVSPost2010PropOp52
 70
     0
102
RTVSPost2010Prop53
 90
        2
102
RTVSPost2010PropOp53
 70
     1
102
RTVSPost2010Prop54
  1
strokes_ogs.tif
102
RTVSPost2010PropOp54
 70
     1
102
RTVSPost2010Prop55
280
     0
102
RTVSPost2010PropOp55
 70
     1
102
RTVSPost2010Prop56
140
1.0
102
RTVSPost2010PropOp56
 70
     1
102
RTVSPost2010Prop57
140
1.0
102
RTVSPost2010PropOp57
 70
     1
  0
XRECORD
  5
17D
102
{ACAD_REACTORS
330
17C
102
}
330
17C
100
AcDbXrecord
280
     1
102
RTVSPost2010Prop28
280
     0
102
RTVSPost2010PropOp28
 70
     1
102
RTVSPost2010Prop29
280
     1
102
RTVSPost2010PropOp29
 70
     1
102
RTVSPost2010Prop30
280
     1
102
RTVSPost2010PropOp30
 70
     1
102
RTVSPost2010Prop31
280
     0
102
RTVSPost2010PropOp31
 70
     1
102
RTVSPost2010Prop32
280
     0
102
RTVSPost2010PropOp32
 70
     1
102
RTVSPost2010Prop33
280
     0
102
RTVSPost2010PropOp33
 70
     1
102
RTVSPost2010Prop34
280
     0
102
RTVSPost2010PropOp34
 70
     1
102
RTVSPost2010Prop35
280
     0
102
RTVSPost2010PropOp35
 70
     1
102
RTVSPost2010Prop36
280
     0
102
RTVSPost2010PropOp36
 70
     1
102
RTVSPost2010Prop37
 90
       50
102
RTVSPost2010PropOp37
 70
     1
102
RTVSPost2010Prop38
140
0.0
102
RTVSPost2010PropOp38
 70
     1
102
RTVSPost2010Prop39
140
1.0
102
RTVSPost2010PropOp39
 70
     1
102
RTVSPost2010Prop40
 90
        0
102
RTVSPost2010PropOp40
 70
     1
102
RTVSPost2010Prop41ColorIndex
 90
       18
102
RTVSPost2010Prop41ColorRGB
 90
        0
102
RTVSPost2010PropOp41
 70
     1
102
RTVSPost2010Prop42
 90
       50
102
RTVSPost2010PropOp42
 70
     1
102
RTVSPost2010Prop43
 90
        3
102
RTVSPost2010PropOp43
 70
     1
102
RTVSPost2010Prop44ColorIndex
 90
        5
102
RTVSPost2010Prop44ColorRGB
 90
      255
102
RTVSPost2010PropOp44
 70
     1
102
RTVSPost2010Prop45
280
     0
102
RTVSPost2010PropOp45
 70
     1
102
RTVSPost2010Prop46
 90
       50
102
RTVSPost2010PropOp46
 70
     1
102
RTVSPost2010Prop47
 90
       50
102
RTVSPost2010PropOp47
 70
     1
102
RTVSPost2010Prop48
 90
       50
102
RTVSPost2010PropOp48
 70
     1
102
RTVSPost2010Prop49
280
     0
102
RTVSPost2010PropOp49
 70
     1
102
RTVSPost2010Prop50
 90
       50
102
RTVSPost2010PropOp50
 70
     1
102
RTVSPost2010Prop51ColorIndex
 90
      256
102
RTVSPost2010Prop51ColorRGB
 90
-16777216
102
RTVSPost2010PropOp51
 70
     0
102
RTVSPost2010Prop52
140
1.0
102
RTVSPost2010PropOp52
 70
     0
102
RTVSPost2010Prop53
 90
        2
102
RTVSPost2010PropOp53
 70
     1
102
RTVSPost2010Prop54
  1
strokes_ogs.tif
102
RTVSPost2010PropOp54
 70
     1
102
RTVSPost2010Prop55
280
     0
102
RTVSPost2010PropOp55
 70
     1
102
RTVSPost2010Prop56
140
1.0
102
RTVSPost2010PropOp56
 70
     1
102
RTVSPost2010Prop57
140
1.0
102
RTVSPost2010PropOp57
 70
     1
  0
XRECORD
  5
181
102
{ACAD_REACTORS
330
180
102
}
330
180
100
AcDbXrecord
280
     1
102
RTVSPost2010Prop28
280
     0
102
RTVSPost2010PropOp28
 70
     1
102
RTVSPost2010Prop29
280
     1
102
RTVSPost2010PropOp29
 70
     1
102
RTVSPost2010Prop30
280
     1
102
RTVSPost2010PropOp30
 70
     1
102
RTVSPost2010Prop31
280
     0
102
RTVSPost2010PropOp31
 70
     1
102
RTVSPost2010Prop32
280
     0
102
RTVSPost2010PropOp32
 70
     1
102
RTVSPost2010Prop33
280
     0
102
RTVSPost2010PropOp33
 70
     1
102
RTVSPost2010Prop34
280
     0
102
RTVSPost2010PropOp34
 70
     1
102
RTVSPost2010Prop35
280
     0
102
RTVSPost2010PropOp35
 70
     1
102
RTVSPost2010Prop36
280
     0
102
RTVSPost2010PropOp36
 70
     1
102
RTVSPost2010Prop37
 90
       50
102
RTVSPost2010PropOp37
 70
     1
102
RTVSPost2010Prop38
140
0.0
102
RTVSPost2010PropOp38
 70
     1
102
RTVSPost2010Prop39
140
1.0
102
RTVSPost2010PropOp39
 70
     1
102
RTVSPost2010Prop40
 90
        0
102
RTVSPost2010PropOp40
 70
     1
102
RTVSPost2010Prop41ColorIndex
 90
       18
102
RTVSPost2010Prop41ColorRGB
 90
        0
102
RTVSPost2010PropOp41
 70
     1
102
RTVSPost2010Prop42
 90
       50
102
RTVSPost2010PropOp42
 70
     1
102
RTVSPost2010Prop43
 90
        3
102
RTVSPost2010PropOp43
 70
     1
102
RTVSPost2010Prop44ColorIndex
 90
        5
102
RTVSPost2010Prop44ColorRGB
 90
      255
102
RTVSPost2010PropOp44
 70
     1
102
RTVSPost2010Prop45
280
     0
102
RTVSPost2010PropOp45
 70
     1
102
RTVSPost2010Prop46
 90
       50
102
RTVSPost2010PropOp46
 70
     1
102
RTVSPost2010Prop47
 90
       50
102
RTVSPost2010PropOp47
 70
     1
102
RTVSPost2010Prop48
 90
       50
102
RTVSPost2010PropOp48
 70
     1
102
RTVSPost2010Prop49
280
     0
102
RTVSPost2010PropOp49
 70
     1
102
RTVSPost2010Prop50
 90
       50
102
RTVSPost2010PropOp50
 70
     1
102
RTVSPost2010Prop51ColorIndex
 90
      256
102
RTVSPost2010Prop51ColorRGB
 90
-16777216
102
RTVSPost2010PropOp51
 70
     0
102
RTVSPost2010Prop52
140
1.0
102
RTVSPost2010PropOp52
 70
     0
102
RTVSPost2010Prop53
 90
        2
102
RTVSPost2010PropOp53
 70
     1
102
RTVSPost2010Prop54
  1
strokes_ogs.tif
102
RTVSPost2010PropOp54
 70
     1
102
RTVSPost2010Prop55
280
     0
102
RTVSPost2010PropOp55
 70
     1
102
RTVSPost2010Prop56
140
1.0
102
RTVSPost2010PropOp56
 70
     1
102
RTVSPost2010Prop57
140
1.0
102
RTVSPost2010PropOp57
 70
     1
  0
XRECORD
  5
19B
102
{ACAD_REACTORS
330
19A
102
}
330
19A
100
AcDbXrecord
280
     1
102
RTVSPost2010Prop28
280
     0
102
RTVSPost2010PropOp28
 70
     0
102
RTVSPost2010Prop29
280
     1
102
RTVSPost2010PropOp29
 70
     0
102
RTVSPost2010Prop30
280
     1
102
RTVSPost2010PropOp30
 70
     0
102
RTVSPost2010Prop31
280
     0
102
RTVSPost2010PropOp31
 70
     0
102
RTVSPost2010Prop32
280
     0
102
RTVSPost2010PropOp32
 70
     0
102
RTVSPost2010Prop33
280
     0
102
RTVSPost2010PropOp33
 70
     0
102
RTVSPost2010Prop34
280
     0
102
RTVSPost2010PropOp34
 70
     0
102
RTVSPost2010Prop35
280
     0
102
RTVSPost2010PropOp35
 70
     0
102
RTVSPost2010Prop36
280
     0
102
RTVSPost2010PropOp36
 70
     0
102
RTVSPost2010Prop37
 90
       50
102
RTVSPost2010PropOp37
 70
     0
102
RTVSPost2010Prop38
140
0.0
102
RTVSPost2010PropOp38
 70
     0
102
RTVSPost2010Prop39
140
1.0
102
RTVSPost2010PropOp39
 70
     0
102
RTVSPost2010Prop40
 90
        0
102
RTVSPost2010PropOp40
 70
     0
102
RTVSPost2010Prop41ColorIndex
 90
       18
102
RTVSPost2010Prop41ColorRGB
 90
        0
102
RTVSPost2010PropOp41
 70
     0
102
RTVSPost2010Prop42
 90
       50
102
RTVSPost2010PropOp42
 70
     0
102
RTVSPost2010Prop43
 90
        3
102
RTVSPost2010PropOp43
 70
     0
102
RTVSPost2010Prop44ColorIndex
 90
        5
102
RTVSPost2010Prop44ColorRGB
 90
      255
102
RTVSPost2010PropOp44
 70
     0
102
RTVSPost2010Prop45
280
     0
102
RTVSPost2010PropOp45
 70
     0
102
RTVSPost2010Prop46
 90
       50
102
RTVSPost2010PropOp46
 70
     0
102
RTVSPost2010Prop47
 90
       50
102
RTVSPost2010PropOp47
 70
     0
102
RTVSPost2010Prop48
 90
       50
102
RTVSPost2010PropOp48
 70
     0
102
RTVSPost2010Prop49
280
     0
102
RTVSPost2010PropOp49
 70
     0
102
RTVSPost2010Prop50
 90
       50
102
RTVSPost2010PropOp50
 70
     0
102
RTVSPost2010Prop51ColorIndex
 90
      256
102
RTVSPost2010Prop51ColorRGB
 90
-16777216
102
RTVSPost2010PropOp51
 70
     0
102
RTVSPost2010Prop52
140
1.0
102
RTVSPost2010PropOp52
 70
     0
102
RTVSPost2010Prop53
 90
        2
102
RTVSPost2010PropOp53
 70
     0
102
RTVSPost2010Prop54
  1
strokes_ogs.tif
102
RTVSPost2010PropOp54
 70
     0
102
RTVSPost2010Prop55
280
     0
102
RTVSPost2010PropOp55
 70
     0
102
RTVSPost2010Prop56
140
1.0
102
RTVSPost2010PropOp56
 70
     0
102
RTVSPost2010Prop57
140
1.0
102
RTVSPost2010PropOp57
 70
     0
  0
XRECORD
  5
189
102
{ACAD_REACTORS
330
188
102
}
330
188
100
AcDbXrecord
280
     1
102
RTVSPost2010Prop28
280
     0
102
RTVSPost2010PropOp28
 70
     1
102
RTVSPost2010Prop29
280
     1
102
RTVSPost2010PropOp29
 70
     1
102
RTVSPost2010Prop30
280
     1
102
RTVSPost2010PropOp30
 70
     1
102
RTVSPost2010Prop31
280
     0
102
RTVSPost2010PropOp31
 70
     1
102
RTVSPost2010Prop32
280
     0
102
RTVSPost2010PropOp32
 70
     1
102
RTVSPost2010Prop33
280
     0
102
RTVSPost2010PropOp33
 70
     1
102
RTVSPost2010Prop34
280
     0
102
RTVSPost2010PropOp34
 70
     1
102
RTVSPost2010Prop35
280
     0
102
RTVSPost2010PropOp35
 70
     1
102
RTVSPost2010Prop36
280
     0
102
RTVSPost2010PropOp36
 70
     1
102
RTVSPost2010Prop37
 90
       50
102
RTVSPost2010PropOp37
 70
     1
102
RTVSPost2010Prop38
140
0.0
102
RTVSPost2010PropOp38
 70
     1
102
RTVSPost2010Prop39
140
1.0
102
RTVSPost2010PropOp39
 70
     1
102
RTVSPost2010Prop40
 90
        0
102
RTVSPost2010PropOp40
 70
     1
102
RTVSPost2010Prop41ColorIndex
 90
       18
102
RTVSPost2010Prop41ColorRGB
 90
        0
102
RTVSPost2010PropOp41
 70
     1
102
RTVSPost2010Prop42
 90
       50
102
RTVSPost2010PropOp42
 70
     1
102
RTVSPost2010Prop43
 90
        3
102
RTVSPost2010PropOp43
 70
     1
102
RTVSPost2010Prop44ColorIndex
 90
        5
102
RTVSPost2010Prop44ColorRGB
 90
      255
102
RTVSPost2010PropOp44
 70
     1
102
RTVSPost2010Prop45
280
     0
102
RTVSPost2010PropOp45
 70
     1
102
RTVSPost2010Prop46
 90
       50
102
RTVSPost2010PropOp46
 70
     1
102
RTVSPost2010Prop47
 90
       50
102
RTVSPost2010PropOp47
 70
     1
102
RTVSPost2010Prop48
 90
       50
102
RTVSPost2010PropOp48
 70
     1
102
RTVSPost2010Prop49
280
     0
102
RTVSPost2010PropOp49
 70
     1
102
RTVSPost2010Prop50
 90
       50
102
RTVSPost2010PropOp50
 70
     1
102
RTVSPost2010Prop51ColorIndex
 90
      256
102
RTVSPost2010Prop51ColorRGB
 90
-16777216
102
RTVSPost2010PropOp51
 70
     0
102
RTVSPost2010Prop52
140
1.0
102
RTVSPost2010PropOp52
 70
     0
102
RTVSPost2010Prop53
 90
        2
102
RTVSPost2010PropOp53
 70
     1
102
RTVSPost2010Prop54
  1
strokes_ogs.tif
102
RTVSPost2010PropOp54
 70
     1
102
RTVSPost2010Prop55
280
     0
102
RTVSPost2010PropOp55
 70
     1
102
RTVSPost2010Prop56
140
1.0
102
RTVSPost2010PropOp56
 70
     1
102
RTVSPost2010Prop57
140
1.0
102
RTVSPost2010PropOp57
 70
     1
  0
XRECORD
  5
16D
102
{ACAD_REACTORS
330
16C
102
}
330
16C
100
AcDbXrecord
280
     1
102
RTVSPost2010Prop28
280
     0
102
RTVSPost2010PropOp28
 70
     1
102
RTVSPost2010Prop29
280
     1
102
RTVSPost2010PropOp29
 70
     1
102
RTVSPost2010Prop30
280
     1
102
RTVSPost2010PropOp30
 70
     1
102
RTVSPost2010Prop31
280
     0
102
RTVSPost2010PropOp31
 70
     1
102
RTVSPost2010Prop32
280
     0
102
RTVSPost2010PropOp32
 70
     1
102
RTVSPost2010Prop33
280
     0
102
RTVSPost2010PropOp33
 70
     1
102
RTVSPost2010Prop34
280
     0
102
RTVSPost2010PropOp34
 70
     1
102
RTVSPost2010Prop35
280
     0
102
RTVSPost2010PropOp35
 70
     1
102
RTVSPost2010Prop36
280
     0
102
RTVSPost2010PropOp36
 70
     1
102
RTVSPost2010Prop37
 90
       50
102
RTVSPost2010PropOp37
 70
     1
102
RTVSPost2010Prop38
140
0.0
102
RTVSPost2010PropOp38
 70
     1
102
RTVSPost2010Prop39
140
1.0
102
RTVSPost2010PropOp39
 70
     1
102
RTVSPost2010Prop40
 90
        0
102
RTVSPost2010PropOp40
 70
     1
102
RTVSPost2010Prop41ColorIndex
 90
       18
102
RTVSPost2010Prop41ColorRGB
 90
        0
102
RTVSPost2010PropOp41
 70
     1
102
RTVSPost2010Prop42
 90
       50
102
RTVSPost2010PropOp42
 70
     1
102
RTVSPost2010Prop43
 90
        3
102
RTVSPost2010PropOp43
 70
     1
102
RTVSPost2010Prop44ColorIndex
 90
        5
102
RTVSPost2010Prop44ColorRGB
 90
      255
102
RTVSPost2010PropOp44
 70
     1
102
RTVSPost2010Prop45
280
     0
102
RTVSPost2010PropOp45
 70
     1
102
RTVSPost2010Prop46
 90
       50
102
RTVSPost2010PropOp46
 70
     1
102
RTVSPost2010Prop47
 90
       50
102
RTVSPost2010PropOp47
 70
     1
102
RTVSPost2010Prop48
 90
       50
102
RTVSPost2010PropOp48
 70
     1
102
RTVSPost2010Prop49
280
     0
102
RTVSPost2010PropOp49
 70
     1
102
RTVSPost2010Prop50
 90
       50
102
RTVSPost2010PropOp50
 70
     1
102
RTVSPost2010Prop51ColorIndex
 90
      256
102
RTVSPost2010Prop51ColorRGB
 90
-16777216
102
RTVSPost2010PropOp51
 70
     0
102
RTVSPost2010Prop52
140
1.0
102
RTVSPost2010PropOp52
 70
     0
102
RTVSPost2010Prop53
 90
        2
102
RTVSPost2010PropOp53
 70
     1
102
RTVSPost2010Prop54
  1
strokes_ogs.tif
102
RTVSPost2010PropOp54
 70
     1
102
RTVSPost2010Prop55
280
     0
102
RTVSPost2010PropOp55
 70
     1
102
RTVSPost2010Prop56
140
1.0
102
RTVSPost2010PropOp56
 70
     1
102
RTVSPost2010Prop57
140
1.0
102
RTVSPost2010PropOp57
 70
     1
  0
XRECORD
  5
16F
102
{ACAD_REACTORS
330
16E
102
}
330
16E
100
AcDbXrecord
280
     1
102
RTVSPost2010Prop28
280
     0
102
RTVSPost2010PropOp28
 70
     1
102
RTVSPost2010Prop29
280
     1
102
RTVSPost2010PropOp29
 70
     1
102
RTVSPost2010Prop30
280
     1
102
RTVSPost2010PropOp30
 70
     1
102
RTVSPost2010Prop31
280
     0
102
RTVSPost2010PropOp31
 70
     1
102
RTVSPost2010Prop32
280
     0
102
RTVSPost2010PropOp32
 70
     1
102
RTVSPost2010Prop33
280
     0
102
RTVSPost2010PropOp33
 70
     1
102
RTVSPost2010Prop34
280
     0
102
RTVSPost2010PropOp34
 70
     1
102
RTVSPost2010Prop35
280
     0
102
RTVSPost2010PropOp35
 70
     1
102
RTVSPost2010Prop36
280
     0
102
RTVSPost2010PropOp36
 70
     1
102
RTVSPost2010Prop37
 90
       50
102
RTVSPost2010PropOp37
 70
     1
102
RTVSPost2010Prop38
140
0.0
102
RTVSPost2010PropOp38
 70
     1
102
RTVSPost2010Prop39
140
1.0
102
RTVSPost2010PropOp39
 70
     1
102
RTVSPost2010Prop40
 90
        0
102
RTVSPost2010PropOp40
 70
     1
102
RTVSPost2010Prop41ColorIndex
 90
       18
102
RTVSPost2010Prop41ColorRGB
 90
        0
102
RTVSPost2010PropOp41
 70
     1
102
RTVSPost2010Prop42
 90
       50
102
RTVSPost2010PropOp42
 70
     1
102
RTVSPost2010Prop43
 90
        3
102
RTVSPost2010PropOp43
 70
     1
102
RTVSPost2010Prop44ColorIndex
 90
        5
102
RTVSPost2010Prop44ColorRGB
 90
      255
102
RTVSPost2010PropOp44
 70
     1
102
RTVSPost2010Prop45
280
     0
102
RTVSPost2010PropOp45
 70
     1
102
RTVSPost2010Prop46
 90
       50
102
RTVSPost2010PropOp46
 70
     1
102
RTVSPost2010Prop47
 90
       50
102
RTVSPost2010PropOp47
 70
     1
102
RTVSPost2010Prop48
 90
       50
102
RTVSPost2010PropOp48
 70
     1
102
RTVSPost2010Prop49
280
     0
102
RTVSPost2010PropOp49
 70
     1
102
RTVSPost2010Prop50
 90
       50
102
RTVSPost2010PropOp50
 70
     1
102
RTVSPost2010Prop51ColorIndex
 90
      256
102
RTVSPost2010Prop51ColorRGB
 90
-16777216
102
RTVSPost2010PropOp51
 70
     0
102
RTVSPost2010Prop52
140
1.0
102
RTVSPost2010PropOp52
 70
     0
102
RTVSPost2010Prop53
 90
        2
102
RTVSPost2010PropOp53
 70
     1
102
RTVSPost2010Prop54
  1
strokes_ogs.tif
102
RTVSPost2010PropOp54
 70
     1
102
RTVSPost2010Prop55
280
     0
102
RTVSPost2010PropOp55
 70
     1
102
RTVSPost2010Prop56
140
1.0
102
RTVSPost2010PropOp56
 70
     1
102
RTVSPost2010Prop57
140
1.0
102
RTVSPost2010PropOp57
 70
     1
  0
XRECORD
  5
171
102
{ACAD_REACTORS
330
170
102
}
330
170
100
AcDbXrecord
280
     1
102
RTVSPost2010Prop28
280
     0
102
RTVSPost2010PropOp28
 70
     1
102
RTVSPost2010Prop29
280
     1
102
RTVSPost2010PropOp29
 70
     1
102
RTVSPost2010Prop30
280
     1
102
RTVSPost2010PropOp30
 70
     1
102
RTVSPost2010Prop31
280
     0
102
RTVSPost2010PropOp31
 70
     1
102
RTVSPost2010Prop32
280
     0
102
RTVSPost2010PropOp32
 70
     1
102
RTVSPost2010Prop33
280
     0
102
RTVSPost2010PropOp33
 70
     1
102
RTVSPost2010Prop34
280
     0
102
RTVSPost2010PropOp34
 70
     1
102
RTVSPost2010Prop35
280
     0
102
RTVSPost2010PropOp35
 70
     1
102
RTVSPost2010Prop36
280
     0
102
RTVSPost2010PropOp36
 70
     1
102
RTVSPost2010Prop37
 90
       50
102
RTVSPost2010PropOp37
 70
     1
102
RTVSPost2010Prop38
140
0.0
102
RTVSPost2010PropOp38
 70
     1
102
RTVSPost2010Prop39
140
1.0
102
RTVSPost2010PropOp39
 70
     1
102
RTVSPost2010Prop40
 90
        0
102
RTVSPost2010PropOp40
 70
     1
102
RTVSPost2010Prop41ColorIndex
 90
       18
102
RTVSPost2010Prop41ColorRGB
 90
        0
102
RTVSPost2010PropOp41
 70
     1
102
RTVSPost2010Prop42
 90
       50
102
RTVSPost2010PropOp42
 70
     1
102
RTVSPost2010Prop43
 90
        3
102
RTVSPost2010PropOp43
 70
     1
102
RTVSPost2010Prop44ColorIndex
 90
        5
102
RTVSPost2010Prop44ColorRGB
 90
      255
102
RTVSPost2010PropOp44
 70
     1
102
RTVSPost2010Prop45
280
     0
102
RTVSPost2010PropOp45
 70
     1
102
RTVSPost2010Prop46
 90
       50
102
RTVSPost2010PropOp46
 70
     1
102
RTVSPost2010Prop47
 90
       50
102
RTVSPost2010PropOp47
 70
     1
102
RTVSPost2010Prop48
 90
       50
102
RTVSPost2010PropOp48
 70
     1
102
RTVSPost2010Prop49
280
     0
102
RTVSPost2010PropOp49
 70
     1
102
RTVSPost2010Prop50
 90
       50
102
RTVSPost2010PropOp50
 70
     1
102
RTVSPost2010Prop51ColorIndex
 90
      256
102
RTVSPost2010Prop51ColorRGB
 90
-16777216
102
RTVSPost2010PropOp51
 70
     0
102
RTVSPost2010Prop52
140
1.0
102
RTVSPost2010PropOp52
 70
     0
102
RTVSPost2010Prop53
 90
        2
102
RTVSPost2010PropOp53
 70
     1
102
RTVSPost2010Prop54
  1
strokes_ogs.tif
102
RTVSPost2010PropOp54
 70
     1
102
RTVSPost2010Prop55
280
     0
102
RTVSPost2010PropOp55
 70
     1
102
RTVSPost2010Prop56
140
1.0
102
RTVSPost2010PropOp56
 70
     1
102
RTVSPost2010Prop57
140
1.0
102
RTVSPost2010PropOp57
 70
     1
  0
XRECORD
  5
173
102
{ACAD_REACTORS
330
172
102
}
330
172
100
AcDbXrecord
280
     1
102
RTVSPost2010Prop28
280
     0
102
RTVSPost2010PropOp28
 70
     1
102
RTVSPost2010Prop29
280
     1
102
RTVSPost2010PropOp29
 70
     1
102
RTVSPost2010Prop30
280
     1
102
RTVSPost2010PropOp30
 70
     1
102
RTVSPost2010Prop31
280
     0
102
RTVSPost2010PropOp31
 70
     1
102
RTVSPost2010Prop32
280
     0
102
RTVSPost2010PropOp32
 70
     1
102
RTVSPost2010Prop33
280
     0
102
RTVSPost2010PropOp33
 70
     1
102
RTVSPost2010Prop34
280
     0
102
RTVSPost2010PropOp34
 70
     1
102
RTVSPost2010Prop35
280
     0
102
RTVSPost2010PropOp35
 70
     1
102
RTVSPost2010Prop36
280
     0
102
RTVSPost2010PropOp36
 70
     1
102
RTVSPost2010Prop37
 90
       50
102
RTVSPost2010PropOp37
 70
     1
102
RTVSPost2010Prop38
140
0.0
102
RTVSPost2010PropOp38
 70
     1
102
RTVSPost2010Prop39
140
1.0
102
RTVSPost2010PropOp39
 70
     1
102
RTVSPost2010Prop40
 90
        0
102
RTVSPost2010PropOp40
 70
     1
102
RTVSPost2010Prop41ColorIndex
 90
       18
102
RTVSPost2010Prop41ColorRGB
 90
        0
102
RTVSPost2010PropOp41
 70
     1
102
RTVSPost2010Prop42
 90
       50
102
RTVSPost2010PropOp42
 70
     1
102
RTVSPost2010Prop43
 90
        3
102
RTVSPost2010PropOp43
 70
     1
102
RTVSPost2010Prop44ColorIndex
 90
        5
102
RTVSPost2010Prop44ColorRGB
 90
      255
102
RTVSPost2010PropOp44
 70
     1
102
RTVSPost2010Prop45
280
     0
102
RTVSPost2010PropOp45
 70
     1
102
RTVSPost2010Prop46
 90
       50
102
RTVSPost2010PropOp46
 70
     1
102
RTVSPost2010Prop47
 90
       50
102
RTVSPost2010PropOp47
 70
     1
102
RTVSPost2010Prop48
 90
       50
102
RTVSPost2010PropOp48
 70
     1
102
RTVSPost2010Prop49
280
     0
102
RTVSPost2010PropOp49
 70
     1
102
RTVSPost2010Prop50
 90
       50
102
RTVSPost2010PropOp50
 70
     1
102
RTVSPost2010Prop51ColorIndex
 90
      256
102
RTVSPost2010Prop51ColorRGB
 90
-16777216
102
RTVSPost2010PropOp51
 70
     0
102
RTVSPost2010Prop52
140
1.0
102
RTVSPost2010PropOp52
 70
     0
102
RTVSPost2010Prop53
 90
        2
102
RTVSPost2010PropOp53
 70
     1
102
RTVSPost2010Prop54
  1
strokes_ogs.tif
102
RTVSPost2010PropOp54
 70
     1
102
RTVSPost2010Prop55
280
     0
102
RTVSPost2010PropOp55
 70
     1
102
RTVSPost2010Prop56
140
1.0
102
RTVSPost2010PropOp56
 70
     1
102
RTVSPost2010Prop57
140
1.0
102
RTVSPost2010PropOp57
 70
     1
  0
XRECORD
  5
17B
102
{ACAD_REACTORS
330
17A
102
}
330
17A
100
AcDbXrecord
280
     1
102
RTVSPost2010Prop28
280
     0
102
RTVSPost2010PropOp28
 70
     1
102
RTVSPost2010Prop29
280
     1
102
RTVSPost2010PropOp29
 70
     1
102
RTVSPost2010Prop30
280
     1
102
RTVSPost2010PropOp30
 70
     1
102
RTVSPost2010Prop31
280
     0
102
RTVSPost2010PropOp31
 70
     1
102
RTVSPost2010Prop32
280
     0
102
RTVSPost2010PropOp32
 70
     1
102
RTVSPost2010Prop33
280
     0
102
RTVSPost2010PropOp33
 70
     1
102
RTVSPost2010Prop34
280
     0
102
RTVSPost2010PropOp34
 70
     1
102
RTVSPost2010Prop35
280
     0
102
RTVSPost2010PropOp35
 70
     1
102
RTVSPost2010Prop36
280
     0
102
RTVSPost2010PropOp36
 70
     1
102
RTVSPost2010Prop37
 90
       50
102
RTVSPost2010PropOp37
 70
     1
102
RTVSPost2010Prop38
140
0.0
102
RTVSPost2010PropOp38
 70
     1
102
RTVSPost2010Prop39
140
1.0
102
RTVSPost2010PropOp39
 70
     1
102
RTVSPost2010Prop40
 90
        0
102
RTVSPost2010PropOp40
 70
     1
102
RTVSPost2010Prop41ColorIndex
 90
       18
102
RTVSPost2010Prop41ColorRGB
 90
        0
102
RTVSPost2010PropOp41
 70
     1
102
RTVSPost2010Prop42
 90
       50
102
RTVSPost2010PropOp42
 70
     1
102
RTVSPost2010Prop43
 90
        3
102
RTVSPost2010PropOp43
 70
     1
102
RTVSPost2010Prop44ColorIndex
 90
        5
102
RTVSPost2010Prop44ColorRGB
 90
      255
102
RTVSPost2010PropOp44
 70
     1
102
RTVSPost2010Prop45
280
     0
102
RTVSPost2010PropOp45
 70
     1
102
RTVSPost2010Prop46
 90
       50
102
RTVSPost2010PropOp46
 70
     1
102
RTVSPost2010Prop47
 90
       50
102
RTVSPost2010PropOp47
 70
     1
102
RTVSPost2010Prop48
 90
       50
102
RTVSPost2010PropOp48
 70
     1
102
RTVSPost2010Prop49
280
     0
102
RTVSPost2010PropOp49
 70
     1
102
RTVSPost2010Prop50
 90
       50
102
RTVSPost2010PropOp50
 70
     1
102
RTVSPost2010Prop51ColorIndex
 90
      256
102
RTVSPost2010Prop51ColorRGB
 90
-16777216
102
RTVSPost2010PropOp51
 70
     0
102
RTVSPost2010Prop52
140
1.0
102
RTVSPost2010PropOp52
 70
     0
102
RTVSPost2010Prop53
 90
        2
102
RTVSPost2010PropOp53
 70
     1
102
RTVSPost2010Prop54
  1
strokes_ogs.tif
102
RTVSPost2010PropOp54
 70
     1
102
RTVSPost2010Prop55
280
     0
102
RTVSPost2010PropOp55
 70
     1
102
RTVSPost2010Prop56
140
1.0
102
RTVSPost2010PropOp56
 70
     1
102
RTVSPost2010Prop57
140
1.0
102
RTVSPost2010PropOp57
 70
     1
  0
XRECORD
  5
197
102
{ACAD_REACTORS
330
196
102
}
330
196
100
AcDbXrecord
280
     1
102
RTVSPost2010Prop28
280
     0
102
RTVSPost2010PropOp28
 70
     0
102
RTVSPost2010Prop29
280
     1
102
RTVSPost2010PropOp29
 70
     0
102
RTVSPost2010Prop30
280
     1
102
RTVSPost2010PropOp30
 70
     0
102
RTVSPost2010Prop31
280
     0
102
RTVSPost2010PropOp31
 70
     0
102
RTVSPost2010Prop32
280
     0
102
RTVSPost2010PropOp32
 70
     0
102
RTVSPost2010Prop33
280
     0
102
RTVSPost2010PropOp33
 70
     0
102
RTVSPost2010Prop34
280
     0
102
RTVSPost2010PropOp34
 70
     0
102
RTVSPost2010Prop35
280
     0
102
RTVSPost2010PropOp35
 70
     0
102
RTVSPost2010Prop36
280
     0
102
RTVSPost2010PropOp36
 70
     0
102
RTVSPost2010Prop37
 90
       50
102
RTVSPost2010PropOp37
 70
     0
102
RTVSPost2010Prop38
140
0.0
102
RTVSPost2010PropOp38
 70
     0
102
RTVSPost2010Prop39
140
1.0
102
RTVSPost2010PropOp39
 70
     0
102
RTVSPost2010Prop40
 90
        0
102
RTVSPost2010PropOp40
 70
     0
102
RTVSPost2010Prop41ColorIndex
 90
       18
102
RTVSPost2010Prop41ColorRGB
 90
        0
102
RTVSPost2010PropOp41
 70
     0
102
RTVSPost2010Prop42
 90
       50
102
RTVSPost2010PropOp42
 70
     0
102
RTVSPost2010Prop43
 90
        3
102
RTVSPost2010PropOp43
 70
     0
102
RTVSPost2010Prop44ColorIndex
 90
        5
102
RTVSPost2010Prop44ColorRGB
 90
      255
102
RTVSPost2010PropOp44
 70
     0
102
RTVSPost2010Prop45
280
     0
102
RTVSPost2010PropOp45
 70
     0
102
RTVSPost2010Prop46
 90
       50
102
RTVSPost2010PropOp46
 70
     0
102
RTVSPost2010Prop47
 90
       50
102
RTVSPost2010PropOp47
 70
     0
102
RTVSPost2010Prop48
 90
       50
102
RTVSPost2010PropOp48
 70
     0
102
RTVSPost2010Prop49
280
     0
102
RTVSPost2010PropOp49
 70
     0
102
RTVSPost2010Prop50
 90
       50
102
RTVSPost2010PropOp50
 70
     0
102
RTVSPost2010Prop51ColorIndex
 90
      256
102
RTVSPost2010Prop51ColorRGB
 90
-16777216
102
RTVSPost2010PropOp51
 70
     0
102
RTVSPost2010Prop52
140
1.0
102
RTVSPost2010PropOp52
 70
     0
102
RTVSPost2010Prop53
 90
        2
102
RTVSPost2010PropOp53
 70
     0
102
RTVSPost2010Prop54
  1
strokes_ogs.tif
102
RTVSPost2010PropOp54
 70
     0
102
RTVSPost2010Prop55
280
     0
102
RTVSPost2010PropOp55
 70
     0
102
RTVSPost2010Prop56
140
1.0
102
RTVSPost2010PropOp56
 70
     0
102
RTVSPost2010Prop57
140
1.0
102
RTVSPost2010PropOp57
 70
     0
  0
XRECORD
  5
187
102
{ACAD_REACTORS
330
186
102
}
330
186
100
AcDbXrecord
280
     1
102
RTVSPost2010Prop28
280
     0
102
RTVSPost2010PropOp28
 70
     1
102
RTVSPost2010Prop29
280
     1
102
RTVSPost2010PropOp29
 70
     1
102
RTVSPost2010Prop30
280
     1
102
RTVSPost2010PropOp30
 70
     1
102
RTVSPost2010Prop31
280
     0
102
RTVSPost2010PropOp31
 70
     1
102
RTVSPost2010Prop32
280
     0
102
RTVSPost2010PropOp32
 70
     1
102
RTVSPost2010Prop33
280
     0
102
RTVSPost2010PropOp33
 70
     1
102
RTVSPost2010Prop34
280
     0
102
RTVSPost2010PropOp34
 70
     1
102
RTVSPost2010Prop35
280
     0
102
RTVSPost2010PropOp35
 70
     1
102
RTVSPost2010Prop36
280
     0
102
RTVSPost2010PropOp36
 70
     1
102
RTVSPost2010Prop37
 90
       50
102
RTVSPost2010PropOp37
 70
     1
102
RTVSPost2010Prop38
140
0.0
102
RTVSPost2010PropOp38
 70
     1
102
RTVSPost2010Prop39
140
1.0
102
RTVSPost2010PropOp39
 70
     1
102
RTVSPost2010Prop40
 90
        0
102
RTVSPost2010PropOp40
 70
     1
102
RTVSPost2010Prop41ColorIndex
 90
       18
102
RTVSPost2010Prop41ColorRGB
 90
        0
102
RTVSPost2010PropOp41
 70
     1
102
RTVSPost2010Prop42
 90
       50
102
RTVSPost2010PropOp42
 70
     1
102
RTVSPost2010Prop43
 90
        3
102
RTVSPost2010PropOp43
 70
     1
102
RTVSPost2010Prop44ColorIndex
 90
        5
102
RTVSPost2010Prop44ColorRGB
 90
      255
102
RTVSPost2010PropOp44
 70
     1
102
RTVSPost2010Prop45
280
     0
102
RTVSPost2010PropOp45
 70
     1
102
RTVSPost2010Prop46
 90
       50
102
RTVSPost2010PropOp46
 70
     1
102
RTVSPost2010Prop47
 90
       50
102
RTVSPost2010PropOp47
 70
     1
102
RTVSPost2010Prop48
 90
       50
102
RTVSPost2010PropOp48
 70
     1
102
RTVSPost2010Prop49
280
     0
102
RTVSPost2010PropOp49
 70
     1
102
RTVSPost2010Prop50
 90
       50
102
RTVSPost2010PropOp50
 70
     1
102
RTVSPost2010Prop51ColorIndex
 90
      256
102
RTVSPost2010Prop51ColorRGB
 90
-16777216
102
RTVSPost2010PropOp51
 70
     0
102
RTVSPost2010Prop52
140
1.0
102
RTVSPost2010PropOp52
 70
     0
102
RTVSPost2010Prop53
 90
        2
102
RTVSPost2010PropOp53
 70
     1
102
RTVSPost2010Prop54
  1
strokes_ogs.tif
102
RTVSPost2010PropOp54
 70
     1
102
RTVSPost2010Prop55
280
     0
102
RTVSPost2010PropOp55
 70
     1
102
RTVSPost2010Prop56
140
1.0
102
RTVSPost2010PropOp56
 70
     1
102
RTVSPost2010Prop57
140
1.0
102
RTVSPost2010PropOp57
 70
     1
  0
XRECORD
  5
199
102
{ACAD_REACTORS
330
198
102
}
330
198
100
AcDbXrecord
280
     1
102
RTVSPost2010Prop28
280
     0
102
RTVSPost2010PropOp28
 70
     0
102
RTVSPost2010Prop29
280
     1
102
RTVSPost2010PropOp29
 70
     0
102
RTVSPost2010Prop30
280
     1
102
RTVSPost2010PropOp30
 70
     0
102
RTVSPost2010Prop31
280
     0
102
RTVSPost2010PropOp31
 70
     0
102
RTVSPost2010Prop32
280
     0
102
RTVSPost2010PropOp32
 70
     0
102
RTVSPost2010Prop33
280
     0
102
RTVSPost2010PropOp33
 70
     0
102
RTVSPost2010Prop34
280
     0
102
RTVSPost2010PropOp34
 70
     0
102
RTVSPost2010Prop35
280
     0
102
RTVSPost2010PropOp35
 70
     0
102
RTVSPost2010Prop36
280
     0
102
RTVSPost2010PropOp36
 70
     0
102
RTVSPost2010Prop37
 90
       50
102
RTVSPost2010PropOp37
 70
     0
102
RTVSPost2010Prop38
140
0.0
102
RTVSPost2010PropOp38
 70
     0
102
RTVSPost2010Prop39
140
1.0
102
RTVSPost2010PropOp39
 70
     0
102
RTVSPost2010Prop40
 90
        0
102
RTVSPost2010PropOp40
 70
     0
102
RTVSPost2010Prop41ColorIndex
 90
       18
102
RTVSPost2010Prop41ColorRGB
 90
        0
102
RTVSPost2010PropOp41
 70
     0
102
RTVSPost2010Prop42
 90
       50
102
RTVSPost2010PropOp42
 70
     0
102
RTVSPost2010Prop43
 90
        3
102
RTVSPost2010PropOp43
 70
     0
102
RTVSPost2010Prop44ColorIndex
 90
        5
102
RTVSPost2010Prop44ColorRGB
 90
      255
102
RTVSPost2010PropOp44
 70
     0
102
RTVSPost2010Prop45
280
     0
102
RTVSPost2010PropOp45
 70
     0
102
RTVSPost2010Prop46
 90
       50
102
RTVSPost2010PropOp46
 70
     0
102
RTVSPost2010Prop47
 90
       50
102
RTVSPost2010PropOp47
 70
     0
102
RTVSPost2010Prop48
 90
       50
102
RTVSPost2010PropOp48
 70
     0
102
RTVSPost2010Prop49
280
     0
102
RTVSPost2010PropOp49
 70
     0
102
RTVSPost2010Prop50
 90
       50
102
RTVSPost2010PropOp50
 70
     0
102
RTVSPost2010Prop51ColorIndex
 90
      256
102
RTVSPost2010Prop51ColorRGB
 90
-16777216
102
RTVSPost2010PropOp51
 70
     0
102
RTVSPost2010Prop52
140
1.0
102
RTVSPost2010PropOp52
 70
     0
102
RTVSPost2010Prop53
 90
        2
102
RTVSPost2010PropOp53
 70
     0
102
RTVSPost2010Prop54
  1
strokes_ogs.tif
102
RTVSPost2010PropOp54
 70
     0
102
RTVSPost2010Prop55
280
     0
102
RTVSPost2010PropOp55
 70
     0
102
RTVSPost2010Prop56
140
1.0
102
RTVSPost2010PropOp56
 70
     0
102
RTVSPost2010Prop57
140
1.0
102
RTVSPost2010PropOp57
 70
     0
  0
XRECORD
  5
17F
102
{ACAD_REACTORS
330
17E
102
}
330
17E
100
AcDbXrecord
280
     1
102
RTVSPost2010Prop28
280
     0
102
RTVSPost2010PropOp28
 70
     1
102
RTVSPost2010Prop29
280
     1
102
RTVSPost2010PropOp29
 70
     1
102
RTVSPost2010Prop30
280
     1
102
RTVSPost2010PropOp30
 70
     1
102
RTVSPost2010Prop31
280
     0
102
RTVSPost2010PropOp31
 70
     1
102
RTVSPost2010Prop32
280
     0
102
RTVSPost2010PropOp32
 70
     1
102
RTVSPost2010Prop33
280
     0
102
RTVSPost2010PropOp33
 70
     1
102
RTVSPost2010Prop34
280
     0
102
RTVSPost2010PropOp34
 70
     1
102
RTVSPost2010Prop35
280
     0
102
RTVSPost2010PropOp35
 70
     1
102
RTVSPost2010Prop36
280
     0
102
RTVSPost2010PropOp36
 70
     1
102
RTVSPost2010Prop37
 90
       50
102
RTVSPost2010PropOp37
 70
     1
102
RTVSPost2010Prop38
140
0.0
102
RTVSPost2010PropOp38
 70
     1
102
RTVSPost2010Prop39
140
1.0
102
RTVSPost2010PropOp39
 70
     1
102
RTVSPost2010Prop40
 90
        0
102
RTVSPost2010PropOp40
 70
     1
102
RTVSPost2010Prop41ColorIndex
 90
       18
102
RTVSPost2010Prop41ColorRGB
 90
        0
102
RTVSPost2010PropOp41
 70
     1
102
RTVSPost2010Prop42
 90
       50
102
RTVSPost2010PropOp42
 70
     1
102
RTVSPost2010Prop43
 90
        3
102
RTVSPost2010PropOp43
 70
     1
102
RTVSPost2010Prop44ColorIndex
 90
        5
102
RTVSPost2010Prop44ColorRGB
 90
      255
102
RTVSPost2010PropOp44
 70
     1
102
RTVSPost2010Prop45
280
     0
102
RTVSPost2010PropOp45
 70
     1
102
RTVSPost2010Prop46
 90
       50
102
RTVSPost2010PropOp46
 70
     1
102
RTVSPost2010Prop47
 90
       50
102
RTVSPost2010PropOp47
 70
     1
102
RTVSPost2010Prop48
 90
       50
102
RTVSPost2010PropOp48
 70
     1
102
RTVSPost2010Prop49
280
     0
102
RTVSPost2010PropOp49
 70
     1
102
RTVSPost2010Prop50
 90
       50
102
RTVSPost2010PropOp50
 70
     1
102
RTVSPost2010Prop51ColorIndex
 90
      256
102
RTVSPost2010Prop51ColorRGB
 90
-16777216
102
RTVSPost2010PropOp51
 70
     0
102
RTVSPost2010Prop52
140
1.0
102
RTVSPost2010PropOp52
 70
     0
102
RTVSPost2010Prop53
 90
        2
102
RTVSPost2010PropOp53
 70
     1
102
RTVSPost2010Prop54
  1
strokes_ogs.tif
102
RTVSPost2010PropOp54
 70
     1
102
RTVSPost2010Prop55
280
     0
102
RTVSPost2010PropOp55
 70
     1
102
RTVSPost2010Prop56
140
1.0
102
RTVSPost2010PropOp56
 70
     1
102
RTVSPost2010Prop57
140
1.0
102
RTVSPost2010PropOp57
 70
     1
  0
XRECORD
  5
195
102
{ACAD_REACTORS
330
194
102
}
330
194
100
AcDbXrecord
280
     1
102
RTVSPost2010Prop28
280
     0
102
RTVSPost2010PropOp28
 70
     1
102
RTVSPost2010Prop29
280
     1
102
RTVSPost2010PropOp29
 70
     1
102
RTVSPost2010Prop30
280
     1
102
RTVSPost2010PropOp30
 70
     1
102
RTVSPost2010Prop31
280
     0
102
RTVSPost2010PropOp31
 70
     1
102
RTVSPost2010Prop32
280
     0
102
RTVSPost2010PropOp32
 70
     1
102
RTVSPost2010Prop33
280
     0
102
RTVSPost2010PropOp33
 70
     1
102
RTVSPost2010Prop34
280
     0
102
RTVSPost2010PropOp34
 70
     1
102
RTVSPost2010Prop35
280
     0
102
RTVSPost2010PropOp35
 70
     1
102
RTVSPost2010Prop36
280
     0
102
RTVSPost2010PropOp36
 70
     1
102
RTVSPost2010Prop37
 90
       50
102
RTVSPost2010PropOp37
 70
     1
102
RTVSPost2010Prop38
140
0.0
102
RTVSPost2010PropOp38
 70
     1
102
RTVSPost2010Prop39
140
1.0
102
RTVSPost2010PropOp39
 70
     1
102
RTVSPost2010Prop40
 90
        0
102
RTVSPost2010PropOp40
 70
     1
102
RTVSPost2010Prop41ColorIndex
 90
       18
102
RTVSPost2010Prop41ColorRGB
 90
        0
102
RTVSPost2010PropOp41
 70
     1
102
RTVSPost2010Prop42
 90
       50
102
RTVSPost2010PropOp42
 70
     1
102
RTVSPost2010Prop43
 90
        3
102
RTVSPost2010PropOp43
 70
     1
102
RTVSPost2010Prop44ColorIndex
 90
        5
102
RTVSPost2010Prop44ColorRGB
 90
      255
102
RTVSPost2010PropOp44
 70
     1
102
RTVSPost2010Prop45
280
     0
102
RTVSPost2010PropOp45
 70
     1
102
RTVSPost2010Prop46
 90
       50
102
RTVSPost2010PropOp46
 70
     1
102
RTVSPost2010Prop47
 90
       50
102
RTVSPost2010PropOp47
 70
     1
102
RTVSPost2010Prop48
 90
       50
102
RTVSPost2010PropOp48
 70
     1
102
RTVSPost2010Prop49
280
     0
102
RTVSPost2010PropOp49
 70
     1
102
RTVSPost2010Prop50
 90
       50
102
RTVSPost2010PropOp50
 70
     1
102
RTVSPost2010Prop51ColorIndex
 90
      256
102
RTVSPost2010Prop51ColorRGB
 90
-16777216
102
RTVSPost2010PropOp51
 70
     0
102
RTVSPost2010Prop52
140
1.0
102
RTVSPost2010PropOp52
 70
     0
102
RTVSPost2010Prop53
 90
        2
102
RTVSPost2010PropOp53
 70
     1
102
RTVSPost2010Prop54
  1
strokes_ogs.tif
102
RTVSPost2010PropOp54
 70
     1
102
RTVSPost2010Prop55
280
     0
102
RTVSPost2010PropOp55
 70
     1
102
RTVSPost2010Prop56
140
1.0
102
RTVSPost2010PropOp56
 70
     1
102
RTVSPost2010Prop57
140
1.0
102
RTVSPost2010PropOp57
 70
     1
  0
XRECORD
  5
193
102
{ACAD_REACTORS
330
192
102
}
330
192
100
AcDbXrecord
280
     1
102
RTVSPost2010Prop28
280
     0
102
RTVSPost2010PropOp28
 70
     1
102
RTVSPost2010Prop29
280
     1
102
RTVSPost2010PropOp29
 70
     1
102
RTVSPost2010Prop30
280
     1
102
RTVSPost2010PropOp30
 70
     1
102
RTVSPost2010Prop31
280
     0
102
RTVSPost2010PropOp31
 70
     1
102
RTVSPost2010Prop32
280
     0
102
RTVSPost2010PropOp32
 70
     1
102
RTVSPost2010Prop33
280
     0
102
RTVSPost2010PropOp33
 70
     1
102
RTVSPost2010Prop34
280
     0
102
RTVSPost2010PropOp34
 70
     1
102
RTVSPost2010Prop35
280
     0
102
RTVSPost2010PropOp35
 70
     1
102
RTVSPost2010Prop36
280
     0
102
RTVSPost2010PropOp36
 70
     1
102
RTVSPost2010Prop37
 90
       50
102
RTVSPost2010PropOp37
 70
     1
102
RTVSPost2010Prop38
140
0.0
102
RTVSPost2010PropOp38
 70
     1
102
RTVSPost2010Prop39
140
1.0
102
RTVSPost2010PropOp39
 70
     1
102
RTVSPost2010Prop40
 90
        0
102
RTVSPost2010PropOp40
 70
     1
102
RTVSPost2010Prop41ColorIndex
 90
       18
102
RTVSPost2010Prop41ColorRGB
 90
        0
102
RTVSPost2010PropOp41
 70
     1
102
RTVSPost2010Prop42
 90
       50
102
RTVSPost2010PropOp42
 70
     1
102
RTVSPost2010Prop43
 90
        3
102
RTVSPost2010PropOp43
 70
     1
102
RTVSPost2010Prop44ColorIndex
 90
        5
102
RTVSPost2010Prop44ColorRGB
 90
      255
102
RTVSPost2010PropOp44
 70
     1
102
RTVSPost2010Prop45
280
     0
102
RTVSPost2010PropOp45
 70
     1
102
RTVSPost2010Prop46
 90
       50
102
RTVSPost2010PropOp46
 70
     1
102
RTVSPost2010Prop47
 90
       50
102
RTVSPost2010PropOp47
 70
     1
102
RTVSPost2010Prop48
 90
       50
102
RTVSPost2010PropOp48
 70
     1
102
RTVSPost2010Prop49
280
     0
102
RTVSPost2010PropOp49
 70
     1
102
RTVSPost2010Prop50
 90
       50
102
RTVSPost2010PropOp50
 70
     1
102
RTVSPost2010Prop51ColorIndex
 90
      256
102
RTVSPost2010Prop51ColorRGB
 90
-16777216
102
RTVSPost2010PropOp51
 70
     0
102
RTVSPost2010Prop52
140
1.0
102
RTVSPost2010PropOp52
 70
     0
102
RTVSPost2010Prop53
 90
        2
102
RTVSPost2010PropOp53
 70
     1
102
RTVSPost2010Prop54
  1
strokes_ogs.tif
102
RTVSPost2010PropOp54
 70
     1
102
RTVSPost2010Prop55
280
     0
102
RTVSPost2010PropOp55
 70
     1
102
RTVSPost2010Prop56
140
1.0
102
RTVSPost2010PropOp56
 70
     1
102
RTVSPost2010Prop57
140
1.0
102
RTVSPost2010PropOp57
 70
     1
  0
XRECORD
  5
18D
102
{ACAD_REACTORS
330
18C
102
}
330
18C
100
AcDbXrecord
280
     1
102
RTVSPost2010Prop28
280
     0
102
RTVSPost2010PropOp28
 70
     1
102
RTVSPost2010Prop29
280
     1
102
RTVSPost2010PropOp29
 70
     1
102
RTVSPost2010Prop30
280
     1
102
RTVSPost2010PropOp30
 70
     1
102
RTVSPost2010Prop31
280
     0
102
RTVSPost2010PropOp31
 70
     1
102
RTVSPost2010Prop32
280
     0
102
RTVSPost2010PropOp32
 70
     1
102
RTVSPost2010Prop33
280
     0
102
RTVSPost2010PropOp33
 70
     1
102
RTVSPost2010Prop34
280
     0
102
RTVSPost2010PropOp34
 70
     1
102
RTVSPost2010Prop35
280
     0
102
RTVSPost2010PropOp35
 70
     1
102
RTVSPost2010Prop36
280
     0
102
RTVSPost2010PropOp36
 70
     1
102
RTVSPost2010Prop37
 90
       50
102
RTVSPost2010PropOp37
 70
     1
102
RTVSPost2010Prop38
140
0.0
102
RTVSPost2010PropOp38
 70
     1
102
RTVSPost2010Prop39
140
1.0
102
RTVSPost2010PropOp39
 70
     1
102
RTVSPost2010Prop40
 90
        0
102
RTVSPost2010PropOp40
 70
     1
102
RTVSPost2010Prop41ColorIndex
 90
       18
102
RTVSPost2010Prop41ColorRGB
 90
        0
102
RTVSPost2010PropOp41
 70
     1
102
RTVSPost2010Prop42
 90
       50
102
RTVSPost2010PropOp42
 70
     1
102
RTVSPost2010Prop43
 90
        3
102
RTVSPost2010PropOp43
 70
     1
102
RTVSPost2010Prop44ColorIndex
 90
        5
102
RTVSPost2010Prop44ColorRGB
 90
      255
102
RTVSPost2010PropOp44
 70
     1
102
RTVSPost2010Prop45
280
     0
102
RTVSPost2010PropOp45
 70
     1
102
RTVSPost2010Prop46
 90
       50
102
RTVSPost2010PropOp46
 70
     1
102
RTVSPost2010Prop47
 90
       50
102
RTVSPost2010PropOp47
 70
     1
102
RTVSPost2010Prop48
 90
       50
102
RTVSPost2010PropOp48
 70
     1
102
RTVSPost2010Prop49
280
     0
102
RTVSPost2010PropOp49
 70
     1
102
RTVSPost2010Prop50
 90
       50
102
RTVSPost2010PropOp50
 70
     1
102
RTVSPost2010Prop51ColorIndex
 90
      256
102
RTVSPost2010Prop51ColorRGB
 90
-16777216
102
RTVSPost2010PropOp51
 70
     0
102
RTVSPost2010Prop52
140
1.0
102
RTVSPost2010PropOp52
 70
     0
102
RTVSPost2010Prop53
 90
        2
102
RTVSPost2010PropOp53
 70
     1
102
RTVSPost2010Prop54
  1
strokes_ogs.tif
102
RTVSPost2010PropOp54
 70
     1
102
RTVSPost2010Prop55
280
     0
102
RTVSPost2010PropOp55
 70
     1
102
RTVSPost2010Prop56
140
1.0
102
RTVSPost2010PropOp56
 70
     1
102
RTVSPost2010Prop57
140
1.0
102
RTVSPost2010PropOp57
 70
     1
  0
XRECORD
  5
18F
102
{ACAD_REACTORS
330
18E
102
}
330
18E
100
AcDbXrecord
280
     1
102
RTVSPost2010Prop28
280
     0
102
RTVSPost2010PropOp28
 70
     1
102
RTVSPost2010Prop29
280
     1
102
RTVSPost2010PropOp29
 70
     1
102
RTVSPost2010Prop30
280
     1
102
RTVSPost2010PropOp30
 70
     1
102
RTVSPost2010Prop31
280
     0
102
RTVSPost2010PropOp31
 70
     1
102
RTVSPost2010Prop32
280
     0
102
RTVSPost2010PropOp32
 70
     1
102
RTVSPost2010Prop33
280
     0
102
RTVSPost2010PropOp33
 70
     1
102
RTVSPost2010Prop34
280
     0
102
RTVSPost2010PropOp34
 70
     1
102
RTVSPost2010Prop35
280
     0
102
RTVSPost2010PropOp35
 70
     1
102
RTVSPost2010Prop36
280
     0
102
RTVSPost2010PropOp36
 70
     1
102
RTVSPost2010Prop37
 90
       50
102
RTVSPost2010PropOp37
 70
     1
102
RTVSPost2010Prop38
140
0.0
102
RTVSPost2010PropOp38
 70
     1
102
RTVSPost2010Prop39
140
1.0
102
RTVSPost2010PropOp39
 70
     1
102
RTVSPost2010Prop40
 90
        0
102
RTVSPost2010PropOp40
 70
     1
102
RTVSPost2010Prop41ColorIndex
 90
       18
102
RTVSPost2010Prop41ColorRGB
 90
        0
102
RTVSPost2010PropOp41
 70
     1
102
RTVSPost2010Prop42
 90
       50
102
RTVSPost2010PropOp42
 70
     1
102
RTVSPost2010Prop43
 90
        3
102
RTVSPost2010PropOp43
 70
     1
102
RTVSPost2010Prop44ColorIndex
 90
        5
102
RTVSPost2010Prop44ColorRGB
 90
      255
102
RTVSPost2010PropOp44
 70
     1
102
RTVSPost2010Prop45
280
     0
102
RTVSPost2010PropOp45
 70
     1
102
RTVSPost2010Prop46
 90
       50
102
RTVSPost2010PropOp46
 70
     1
102
RTVSPost2010Prop47
 90
       50
102
RTVSPost2010PropOp47
 70
     1
102
RTVSPost2010Prop48
 90
       50
102
RTVSPost2010PropOp48
 70
     1
102
RTVSPost2010Prop49
280
     0
102
RTVSPost2010PropOp49
 70
     1
102
RTVSPost2010Prop50
 90
       50
102
RTVSPost2010PropOp50
 70
     1
102
RTVSPost2010Prop51ColorIndex
 90
      256
102
RTVSPost2010Prop51ColorRGB
 90
-16777216
102
RTVSPost2010PropOp51
 70
     0
102
RTVSPost2010Prop52
140
1.0
102
RTVSPost2010PropOp52
 70
     0
102
RTVSPost2010Prop53
 90
        2
102
RTVSPost2010PropOp53
 70
     1
102
RTVSPost2010Prop54
  1
strokes_ogs.tif
102
RTVSPost2010PropOp54
 70
     1
102
RTVSPost2010Prop55
280
     0
102
RTVSPost2010PropOp55
 70
     1
102
RTVSPost2010Prop56
140
1.0
102
RTVSPost2010PropOp56
 70
     1
102
RTVSPost2010Prop57
140
1.0
102
RTVSPost2010PropOp57
 70
     1
  0
XRECORD
  5
185
102
{ACAD_REACTORS
330
184
102
}
330
184
100
AcDbXrecord
280
     1
102
RTVSPost2010Prop28
280
     0
102
RTVSPost2010PropOp28
 70
     1
102
RTVSPost2010Prop29
280
     1
102
RTVSPost2010PropOp29
 70
     1
102
RTVSPost2010Prop30
280
     1
102
RTVSPost2010PropOp30
 70
     1
102
RTVSPost2010Prop31
280
     0
102
RTVSPost2010PropOp31
 70
     1
102
RTVSPost2010Prop32
280
     0
102
RTVSPost2010PropOp32
 70
     1
102
RTVSPost2010Prop33
280
     0
102
RTVSPost2010PropOp33
 70
     1
102
RTVSPost2010Prop34
280
     0
102
RTVSPost2010PropOp34
 70
     1
102
RTVSPost2010Prop35
280
     0
102
RTVSPost2010PropOp35
 70
     1
102
RTVSPost2010Prop36
280
     0
102
RTVSPost2010PropOp36
 70
     1
102
RTVSPost2010Prop37
 90
       50
102
RTVSPost2010PropOp37
 70
     1
102
RTVSPost2010Prop38
140
0.0
102
RTVSPost2010PropOp38
 70
     1
102
RTVSPost2010Prop39
140
1.0
102
RTVSPost2010PropOp39
 70
     1
102
RTVSPost2010Prop40
 90
        0
102
RTVSPost2010PropOp40
 70
     1
102
RTVSPost2010Prop41ColorIndex
 90
       18
102
RTVSPost2010Prop41ColorRGB
 90
        0
102
RTVSPost2010PropOp41
 70
     1
102
RTVSPost2010Prop42
 90
       50
102
RTVSPost2010PropOp42
 70
     1
102
RTVSPost2010Prop43
 90
        3
102
RTVSPost2010PropOp43
 70
     1
102
RTVSPost2010Prop44ColorIndex
 90
        5
102
RTVSPost2010Prop44ColorRGB
 90
      255
102
RTVSPost2010PropOp44
 70
     1
102
RTVSPost2010Prop45
280
     0
102
RTVSPost2010PropOp45
 70
     1
102
RTVSPost2010Prop46
 90
       50
102
RTVSPost2010PropOp46
 70
     1
102
RTVSPost2010Prop47
 90
       50
102
RTVSPost2010PropOp47
 70
     1
102
RTVSPost2010Prop48
 90
       50
102
RTVSPost2010PropOp48
 70
     1
102
RTVSPost2010Prop49
280
     0
102
RTVSPost2010PropOp49
 70
     1
102
RTVSPost2010Prop50
 90
       50
102
RTVSPost2010PropOp50
 70
     1
102
RTVSPost2010Prop51ColorIndex
 90
      256
102
RTVSPost2010Prop51ColorRGB
 90
-16777216
102
RTVSPost2010PropOp51
 70
     0
102
RTVSPost2010Prop52
140
1.0
102
RTVSPost2010PropOp52
 70
     0
102
RTVSPost2010Prop53
 90
        2
102
RTVSPost2010PropOp53
 70
     1
102
RTVSPost2010Prop54
  1
strokes_ogs.tif
102
RTVSPost2010PropOp54
 70
     1
102
RTVSPost2010Prop55
280
     0
102
RTVSPost2010PropOp55
 70
     1
102
RTVSPost2010Prop56
140
1.0
102
RTVSPost2010PropOp56
 70
     1
102
RTVSPost2010Prop57
140
1.0
102
RTVSPost2010PropOp57
 70
     1
  0
XRECORD
  5
179
102
{ACAD_REACTORS
330
178
102
}
330
178
100
AcDbXrecord
280
     1
102
RTVSPost2010Prop28
280
     0
102
RTVSPost2010PropOp28
 70
     1
102
RTVSPost2010Prop29
280
     1
102
RTVSPost2010PropOp29
 70
     1
102
RTVSPost2010Prop30
280
     1
102
RTVSPost2010PropOp30
 70
     1
102
RTVSPost2010Prop31
280
     0
102
RTVSPost2010PropOp31
 70
     1
102
RTVSPost2010Prop32
280
     0
102
RTVSPost2010PropOp32
 70
     1
102
RTVSPost2010Prop33
280
     0
102
RTVSPost2010PropOp33
 70
     1
102
RTVSPost2010Prop34
280
     0
102
RTVSPost2010PropOp34
 70
     1
102
RTVSPost2010Prop35
280
     0
102
RTVSPost2010PropOp35
 70
     1
102
RTVSPost2010Prop36
280
     0
102
RTVSPost2010PropOp36
 70
     1
102
RTVSPost2010Prop37
 90
       50
102
RTVSPost2010PropOp37
 70
     1
102
RTVSPost2010Prop38
140
0.0
102
RTVSPost2010PropOp38
 70
     1
102
RTVSPost2010Prop39
140
1.0
102
RTVSPost2010PropOp39
 70
     1
102
RTVSPost2010Prop40
 90
        0
102
RTVSPost2010PropOp40
 70
     1
102
RTVSPost2010Prop41ColorIndex
 90
       18
102
RTVSPost2010Prop41ColorRGB
 90
        0
102
RTVSPost2010PropOp41
 70
     1
102
RTVSPost2010Prop42
 90
       50
102
RTVSPost2010PropOp42
 70
     1
102
RTVSPost2010Prop43
 90
        3
102
RTVSPost2010PropOp43
 70
     1
102
RTVSPost2010Prop44ColorIndex
 90
        5
102
RTVSPost2010Prop44ColorRGB
 90
      255
102
RTVSPost2010PropOp44
 70
     1
102
RTVSPost2010Prop45
280
     0
102
RTVSPost2010PropOp45
 70
     1
102
RTVSPost2010Prop46
 90
       50
102
RTVSPost2010PropOp46
 70
     1
102
RTVSPost2010Prop47
 90
       50
102
RTVSPost2010PropOp47
 70
     1
102
RTVSPost2010Prop48
 90
       50
102
RTVSPost2010PropOp48
 70
     1
102
RTVSPost2010Prop49
280
     0
102
RTVSPost2010PropOp49
 70
     1
102
RTVSPost2010Prop50
 90
       50
102
RTVSPost2010PropOp50
 70
     1
102
RTVSPost2010Prop51ColorIndex
 90
      256
102
RTVSPost2010Prop51ColorRGB
 90
-16777216
102
RTVSPost2010PropOp51
 70
     0
102
RTVSPost2010Prop52
140
1.0
102
RTVSPost2010PropOp52
 70
     0
102
RTVSPost2010Prop53
 90
        2
102
RTVSPost2010PropOp53
 70
     1
102
RTVSPost2010Prop54
  1
strokes_ogs.tif
102
RTVSPost2010PropOp54
 70
     1
102
RTVSPost2010Prop55
280
     0
102
RTVSPost2010PropOp55
 70
     1
102
RTVSPost2010Prop56
140
1.0
102
RTVSPost2010PropOp56
 70
     1
102
RTVSPost2010Prop57
140
1.0
102
RTVSPost2010PropOp57
 70
     1
  0
XRECORD
  5
191
102
{ACAD_REACTORS
330
190
102
}
330
190
100
AcDbXrecord
280
     1
102
RTVSPost2010Prop28
280
     0
102
RTVSPost2010PropOp28
 70
     1
102
RTVSPost2010Prop29
280
     1
102
RTVSPost2010PropOp29
 70
     1
102
RTVSPost2010Prop30
280
     1
102
RTVSPost2010PropOp30
 70
     1
102
RTVSPost2010Prop31
280
     0
102
RTVSPost2010PropOp31
 70
     1
102
RTVSPost2010Prop32
280
     0
102
RTVSPost2010PropOp32
 70
     1
102
RTVSPost2010Prop33
280
     0
102
RTVSPost2010PropOp33
 70
     1
102
RTVSPost2010Prop34
280
     0
102
RTVSPost2010PropOp34
 70
     1
102
RTVSPost2010Prop35
280
     0
102
RTVSPost2010PropOp35
 70
     1
102
RTVSPost2010Prop36
280
     0
102
RTVSPost2010PropOp36
 70
     1
102
RTVSPost2010Prop37
 90
       50
102
RTVSPost2010PropOp37
 70
     1
102
RTVSPost2010Prop38
140
0.0
102
RTVSPost2010PropOp38
 70
     1
102
RTVSPost2010Prop39
140
1.0
102
RTVSPost2010PropOp39
 70
     1
102
RTVSPost2010Prop40
 90
        0
102
RTVSPost2010PropOp40
 70
     1
102
RTVSPost2010Prop41ColorIndex
 90
       18
102
RTVSPost2010Prop41ColorRGB
 90
        0
102
RTVSPost2010PropOp41
 70
     1
102
RTVSPost2010Prop42
 90
       50
102
RTVSPost2010PropOp42
 70
     1
102
RTVSPost2010Prop43
 90
        3
102
RTVSPost2010PropOp43
 70
     1
102
RTVSPost2010Prop44ColorIndex
 90
        5
102
RTVSPost2010Prop44ColorRGB
 90
      255
102
RTVSPost2010PropOp44
 70
     1
102
RTVSPost2010Prop45
280
     0
102
RTVSPost2010PropOp45
 70
     1
102
RTVSPost2010Prop46
 90
       50
102
RTVSPost2010PropOp46
 70
     1
102
RTVSPost2010Prop47
 90
       50
102
RTVSPost2010PropOp47
 70
     1
102
RTVSPost2010Prop48
 90
       50
102
RTVSPost2010PropOp48
 70
     1
102
RTVSPost2010Prop49
280
     0
102
RTVSPost2010PropOp49
 70
     1
102
RTVSPost2010Prop50
 90
       50
102
RTVSPost2010PropOp50
 70
     1
102
RTVSPost2010Prop51ColorIndex
 90
      256
102
RTVSPost2010Prop51ColorRGB
 90
-16777216
102
RTVSPost2010PropOp51
 70
     0
102
RTVSPost2010Prop52
140
1.0
102
RTVSPost2010PropOp52
 70
     0
102
RTVSPost2010Prop53
 90
        2
102
RTVSPost2010PropOp53
 70
     1
102
RTVSPost2010Prop54
  1
strokes_ogs.tif
102
RTVSPost2010PropOp54
 70
     1
102
RTVSPost2010Prop55
280
     0
102
RTVSPost2010PropOp55
 70
     1
102
RTVSPost2010Prop56
140
1.0
102
RTVSPost2010PropOp56
 70
     1
102
RTVSPost2010Prop57
140
1.0
102
RTVSPost2010PropOp57
 70
     1
  0
ENDSEC
  0
EOF
