  0
SECTION
  2
HEADER
  9
$ACADVER
  1
AC1024
  9
$ACADMAINTVER
 70
     6
  9
$DWGCODEPAGE
  3
UNDEFINED
  9
$INSBASE
 10
0.0
 20
0.0
 30
0.0
  9
$EXTMIN
 10
1.000000000000000E+20
 20
1.000000000000000E+20
 30
1.000000000000000E+20
  9
$EXTMAX
 10
-1.000000000000000E+20
 20
-1.000000000000000E+20
 30
-1.000000000000000E+20
  9
$LIMMIN
 10
0.0
 20
0.0
  9
$LIMMAX
 10
12.0
 20
9.0
  9
$ORTHOMODE
 70
     0
  9
$REGENMODE
 70
     1
  9
$FILLMODE
 70
     1
  9
$QTEXTMODE
 70
     0
  9
$MIRRTEXT
 70
     1
  9
$LTSCALE
 40
1.0
  9
$ATTMODE
 70
     1
  9
$TEXTSIZE
 40
0.2
  9
$TRACEWID
 40
0.05
  9
$TEXTSTYLE
  7
Standard
  9
$CLAYER
  8
0
  9
$CELTYPE
  6
ByLayer
  9
$CECOLOR
 62
   256
  9
$CELTSCALE
 40
1.0
  9
$DISPSILH
 70
     0
  9
$DIMSCALE
 40
1.0
  9
$DIMASZ
 40
0.18
  9
$DIMEXO
 40
0.0625
  9
$DIMDLI
 40
0.38
  9
$DIMRND
 40
0.0
  9
$DIMDLE
 40
0.0
  9
$DIMEXE
 40
0.18
  9
$DIMTP
 40
0.0
  9
$DIMTM
 40
0.0
  9
$DIMTXT
 40
0.18
  9
$DIMCEN
 40
0.09
  9
$DIMTSZ
 40
0.0
  9
$DIMTOL
 70
     0
  9
$DIMLIM
 70
     0
  9
$DIMTIH
 70
     1
  9
$DIMTOH
 70
     1
  9
$DIMSE1
 70
     0
  9
$DIMSE2
 70
     0
  9
$DIMTAD
 70
     0
  9
$DIMZIN
 70
     0
  9
$DIMBLK
  1

  9
$DIMASO
 70
     1
  9
$DIMSHO
 70
     1
  9
$DIMPOST
  1

  9
$DIMAPOST
  1

  9
$DIMALT
 70
     0
  9
$DIMALTD
 70
     2
  9
$DIMALTF
 40
25.4
  9
$DIMLFAC
 40
1.0
  9
$DIMTOFL
 70
     0
  9
$DIMTVP
 40
0.0
  9
$DIMTIX
 70
     0
  9
$DIMSOXD
 70
     0
  9
$DIMSAH
 70
     0
  9
$DIMBLK1
  1

  9
$DIMBLK2
  1

  9
$DIMSTYLE
  2
Standard
  9
$DIMCLRD
 70
     0
  9
$DIMCLRE
 70
     0
  9
$DIMCLRT
 70
     0
  9
$DIMTFAC
 40
1.0
  9
$DIMGAP
 40
0.09
  9
$DIMJUST
 70
     0
  9
$DIMSD1
 70
     0
  9
$DIMSD2
 70
     0
  9
$DIMTOLJ
 70
     1
  9
$DIMTZIN
 70
     0
  9
$DIMALTZ
 70
     0
  9
$DIMALTTZ
 70
     0
  9
$DIMUPT
 70
     0
  9
$DIMDEC
 70
     4
  9
$DIMTDEC
 70
     4
  9
$DIMALTU
 70
     2
  9
$DIMALTTD
 70
     2
  9
$DIMTXSTY
  7
Standard
  9
$DIMAUNIT
 70
     0
  9
$DIMADEC
 70
     0
  9
$DIMALTRND
 40
0.0
  9
$DIMAZIN
 70
     0
  9
$DIMDSEP
 70
    46
  9
$DIMATFIT
 70
     3
  9
$DIMFRAC
 70
     0
  9
$DIMLDRBLK
  1

  9
$DIMLUNIT
 70
     2
  9
$DIMLWD
 70
    -2
  9
$DIMLWE
 70
    -2
  9
$DIMTMOVE
 70
     0
  9
$DIMFXL
 40
1.0
  9
$DIMFXLON
 70
     0
  9
$DIMJOGANG
 40
0.7853981633974483
  9
$DIMTFILL
 70
     0
  9
$DIMTFILLCLR
 70
     0
  9
$DIMARCSYM
 70
     0
  9
$DIMLTYPE
  6

  9
$DIMLTEX1
  6

  9
$DIMLTEX2
  6

  9
$DIMTXTDIRECTION
 70
     0
  9
$LUNITS
 70
     2
  9
$LUPREC
 70
     4
  9
$SKETCHINC
 40
0.1
  9
$FILLETRAD
 40
0.5
  9
$AUNITS
 70
     0
  9
$AUPREC
 70
     0
  9
$MENU
  1
.
  9
$ELEVATION
 40
0.0
  9
$PELEVATION
 40
0.0
  9
$THICKNESS
 40
0.0
  9
$LIMCHECK
 70
     0
  9
$CHAMFERA
 40
0.5
  9
$CHAMFERB
 40
0.5
  9
$CHAMFERC
 40
1.0
  9
$CHAMFERD
 40
0.0
  9
$SKPOLY
 70
     0
  9
$TDCREATE
 40
2457917.597962951
  9
$TDUCREATE
 40
2457917.222962963
  9
$TDUPDATE
 40
2457917.597962951
  9
$TDUUPDATE
 40
2457917.222962963
  9
$TDINDWG
 40
0.0000000116
  9
$TDUSRTIMER
 40
0.0000000116
  9
$USRTIMER
 70
     1
  9
$ANGBASE
 50
0.0
  9
$ANGDIR
 70
     0
  9
$PDMODE
 70
     0
  9
$PDSIZE
 40
0.0
  9
$PLINEWID
 40
0.0
  9
$SPLFRAME
 70
     0
  9
$SPLINETYPE
 70
     6
  9
$SPLINESEGS
 70
     8
  9
$HANDSEED
  5
2CD
  9
$SURFTAB1
 70
     6
  9
$SURFTAB2
 70
     6
  9
$SURFTYPE
 70
     6
  9
$SURFU
 70
     6
  9
$SURFV
 70
     6
  9
$UCSBASE
  2

  9
$UCSNAME
  2

  9
$UCSORG
 10
0.0
 20
0.0
 30
0.0
  9
$UCSXDIR
 10
1.0
 20
0.0
 30
0.0
  9
$UCSYDIR
 10
0.0
 20
1.0
 30
0.0
  9
$UCSORTHOREF
  2

  9
$UCSORTHOVIEW
 70
     0
  9
$UCSORGTOP
 10
0.0
 20
0.0
 30
0.0
  9
$UCSORGBOTTOM
 10
0.0
 20
0.0
 30
0.0
  9
$UCSORGLEFT
 10
0.0
 20
0.0
 30
0.0
  9
$UCSORGRIGHT
 10
0.0
 20
0.0
 30
0.0
  9
$UCSORGFRONT
 10
0.0
 20
0.0
 30
0.0
  9
$UCSORGBACK
 10
0.0
 20
0.0
 30
0.0
  9
$PUCSBASE
  2

  9
$PUCSNAME
  2

  9
$PUCSORG
 10
0.0
 20
0.0
 30
0.0
  9
$PUCSXDIR
 10
1.0
 20
0.0
 30
0.0
  9
$PUCSYDIR
 10
0.0
 20
1.0
 30
0.0
  9
$PUCSORTHOREF
  2

  9
$PUCSORTHOVIEW
 70
     0
  9
$PUCSORGTOP
 10
0.0
 20
0.0
 30
0.0
  9
$PUCSORGBOTTOM
 10
0.0
 20
0.0
 30
0.0
  9
$PUCSORGLEFT
 10
0.0
 20
0.0
 30
0.0
  9
$PUCSORGRIGHT
 10
0.0
 20
0.0
 30
0.0
  9
$PUCSORGFRONT
 10
0.0
 20
0.0
 30
0.0
  9
$PUCSORGBACK
 10
0.0
 20
0.0
 30
0.0
  9
$USERI1
 70
     0
  9
$USERI2
 70
     0
  9
$USERI3
 70
     0
  9
$USERI4
 70
     0
  9
$USERI5
 70
     0
  9
$USERR1
 40
0.0
  9
$USERR2
 40
0.0
  9
$USERR3
 40
0.0
  9
$USERR4
 40
0.0
  9
$USERR5
 40
0.0
  9
$WORLDVIEW
 70
     1
  9
$SHADEDGE
 70
     3
  9
$SHADEDIF
 70
    70
  9
$TILEMODE
 70
     1
  9
$MAXACTVP
 70
    64
  9
$PINSBASE
 10
0.0
 20
0.0
 30
0.0
  9
$PLIMCHECK
 70
     0
  9
$PEXTMIN
 10
1.000000000000000E+20
 20
1.000000000000000E+20
 30
1.000000000000000E+20
  9
$PEXTMAX
 10
-1.000000000000000E+20
 20
-1.000000000000000E+20
 30
-1.000000000000000E+20
  9
$PLIMMIN
 10
0.0
 20
0.0
  9
$PLIMMAX
 10
12.0
 20
9.0
  9
$UNITMODE
 70
     0
  9
$VISRETAIN
 70
     1
  9
$PLINEGEN
 70
     0
  9
$PSLTSCALE
 70
     1
  9
$TREEDEPTH
 70
  3020
  9
$CMLSTYLE
  2
Standard
  9
$CMLJUST
 70
     0
  9
$CMLSCALE
 40
1.0
  9
$PROXYGRAPHICS
 70
     1
  9
$MEASUREMENT
 70
     0
  9
$CELWEIGHT
370
    -1
  9
$ENDCAPS
280
     0
  9
$JOINSTYLE
280
     0
  9
$LWDISPLAY
290
     1
  9
$INSUNITS
 70
     1
  9
$HYPERLINKBASE
  1

  9
$STYLESHEET
  1

  9
$XEDIT
290
     1
  9
$CEPSNTYPE
380
     0
  9
$PSTYLEMODE
290
     1
  9
$FINGERPRINTGUID
  2
{BFDFCE6D-A957-ECE3-A8B4-6F2F94B220B5}
  9
$VERSIONGUID
  2
{FAEB1C32-E019-11D5-929B-00C0DF256EC4}
  9
$EXTNAMES
290
     1
  9
$PSVPSCALE
 40
0.0
  9
$OLESTARTUP
290
     0
  9
$SORTENTS
280
   127
  9
$INDEXCTL
280
     0
  9
$HIDETEXT
280
     1
  9
$XCLIPFRAME
280
     2
  9
$HALOGAP
280
     0
  9
$OBSCOLOR
 70
   257
  9
$OBSLTYPE
280
     0
  9
$INTERSECTIONDISPLAY
280
     0
  9
$INTERSECTIONCOLOR
 70
   257
  9
$DIMASSOC
280
     2
  9
$PROJECTNAME
  1

  9
$CAMERADISPLAY
290
     0
  9
$LENSLENGTH
 40
50.0
  9
$CAMERAHEIGHT
 40
0.0
  9
$STEPSPERSEC
 40
2.0
  9
$STEPSIZE
 40
6.0
  9
$3DDWFPREC
 40
2.0
  9
$PSOLWIDTH
 40
0.25
  9
$PSOLHEIGHT
 40
4.0
  9
$LOFTANG1
 40
1.570796326794897
  9
$LOFTANG2
 40
1.570796326794897
  9
$LOFTMAG1
 40
0.0
  9
$LOFTMAG2
 40
0.0
  9
$LOFTPARAM
 70
     7
  9
$LOFTNORMALS
280
     1
  9
$LATITUDE
 40
37.795
  9
$LONGITUDE
 40
-122.394
  9
$NORTHDIRECTION
 40
0.0
  9
$TIMEZONE
 70
 -8000
  9
$LIGHTGLYPHDISPLAY
280
     1
  9
$TILEMODELIGHTSYNCH
280
     1
  9
$CMATERIAL
347
3C
  9
$SOLIDHIST
280
     1
  9
$SHOWHIST
280
     1
  9
$DWFFRAME
280
     2
  9
$DGNFRAME
280
     2
  9
$REALWORLDSCALE
290
     1
  9
$INTERFERECOLOR
 62
   256
  9
$CSHADOW
280
     0
  9
$SHADOWPLANELOCATION
 40
0.0
  0
ENDSEC
  0
SECTION
  2
CLASSES
  0
CLASS
  1
ACDBDICTIONARYWDFLT
  2
AcDbDictionaryWithDefault
  3
ObjectDBX Classes
 90
        0
 91
        4
280
     0
281
     0
  0
CLASS
  1
VISUALSTYLE
  2
AcDbVisualStyle
  3
ObjectDBX Classes
 90
     4095
 91
        4
280
     0
281
     0
  0
CLASS
  1
MATERIAL
  2
AcDbMaterial
  3
ObjectDBX Classes
 90
     1153
 91
        4
280
     0
281
     0
  0
CLASS
  1
SUN
  2
AcDbSun
  3
SCENEOE
 90
     1024
 91
        4
280
     0
281
     0
  0
ENDSEC
  0
SECTION
  2
TABLES
  0
TABLE
  2
VPORT
  5
8
330
0
100
AcDbSymbolTable
 70
     1
  0
VPORT
  5
29
330
8
100
AcDbSymbolTableRecord
100
AcDbViewportTableRecord
  2
*Active
 70
     0
 10
0.0
 20
0.0
 11
1.0
 21
1.0
 12
0.0
 22
0.0
 13
0.0
 23
0.0
 14
0.5
 24
0.5
 15
0.5
 25
0.5
 16
0.0
 26
0.0
 36
1.0
 17
91.00082462281999
 27
-128.4993055234307
 37
0.0
 40
256.9986110468615
 41
0.7081814508812795
 42
50.0
 43
0.0
 44
0.0
 50
0.0
 51
0.0
 71
     0
 72
   100
 73
     1
 74
     3
 75
     0
 76
     0
 77
     0
 78
     0
281
     0
 65
     1
110
0.0
120
0.0
130
0.0
111
1.0
121
0.0
131
0.0
112
0.0
122
1.0
132
0.0
 79
     0
146
0.0
 60
     3
 61
     5
292
     1
282
     1
141
0.0
142
0.0
 63
   250
361
3F
  0
ENDTAB
  0
TABLE
  2
LTYPE
  5
5
330
0
100
AcDbSymbolTable
 70
     3
  0
LTYPE
  5
14
330
5
100
AcDbSymbolTableRecord
100
AcDbLinetypeTableRecord
  2
ByBlock
 70
     0
  3

 72
    65
 73
     0
 40
0.0
  0
LTYPE
  5
15
330
5
100
AcDbSymbolTableRecord
100
AcDbLinetypeTableRecord
  2
ByLayer
 70
     0
  3

 72
    65
 73
     0
 40
0.0
  0
LTYPE
  5
16
330
5
100
AcDbSymbolTableRecord
100
AcDbLinetypeTableRecord
  2
Continuous
 70
     0
  3
Solid line
 72
    65
 73
     0
 40
0.0
  0
LTYPE
  5
87
330
5
100
AcDbSymbolTableRecord
100
AcDbLinetypeTableRecord
  2
AI-Linetype-1
 70
     0
  3
Adobe Illustrator Linetype No. 1
 72
    65
 73
     2
 40
1.411111110758333
 49
0.7055555553791667
 74
     0
 49
-0.7055555553791667
 74
     0
  0
LTYPE
  5
8C
330
5
100
AcDbSymbolTableRecord
100
AcDbLinetypeTableRecord
  2
AI-Linetype-2
 70
     0
  3
Adobe Illustrator Linetype No. 2
 72
    65
 73
     2
 40
1.411111110758333
 49
0.7055555553791667
 74
     0
 49
-0.7055555553791667
 74
     0
  0
ENDTAB
  0
TABLE
  2
LAYER
  5
2
330
0
100
AcDbSymbolTable
 70
     2
  0
LAYER
  5
10
330
2
100
AcDbSymbolTableRecord
100
AcDbLayerTableRecord
  2
0
 70
     0
 62
     7
  6
Continuous
370
    -3
390
F
347
3E
  0
LAYER
  5
40
330
2
100
AcDbSymbolTableRecord
100
AcDbLayerTableRecord
  2
_U+30EC_U+30A4_U+30E4_U+30FC 1
 70
     0
 62
     7
  6
Continuous
370
    -3
390
F
347
3E
  0
ENDTAB
  0
TABLE
  2
STYLE
  5
3
330
0
100
AcDbSymbolTable
 70
     1
  0
STYLE
  5
11
330
3
100
AcDbSymbolTableRecord
100
AcDbTextStyleTableRecord
  2
Standard
 70
     0
 40
0.0
 41
1.0
 50
0.0
 71
     0
 42
0.2
  3
txt
  4

  0
ENDTAB
  0
TABLE
  2
VIEW
  5
6
330
0
100
AcDbSymbolTable
 70
     0
  0
ENDTAB
  0
TABLE
  2
UCS
  5
7
330
0
100
AcDbSymbolTable
 70
     0
  0
ENDTAB
  0
TABLE
  2
APPID
  5
9
330
0
100
AcDbSymbolTable
 70
     1
  0
APPID
  5
12
330
9
100
AcDbSymbolTableRecord
100
AcDbRegAppTableRecord
  2
ACAD
 70
     0
  0
ENDTAB
  0
TABLE
  2
DIMSTYLE
  5
A
330
0
100
AcDbSymbolTable
 70
     1
100
AcDbDimStyleTable
  0
DIMSTYLE
105
27
330
A
100
AcDbSymbolTableRecord
100
AcDbDimStyleTableRecord
  2
Standard
 70
     0
178
     0
340
11
  0
ENDTAB
  0
TABLE
  2
BLOCK_RECORD
  5
1
330
0
100
AcDbSymbolTable
 70
    12
  0
BLOCK_RECORD
  5
1F
330
1
100
AcDbSymbolTableRecord
100
AcDbBlockTableRecord
  2
*Model_Space
340
22
 70
     0
280
     1
281
     0
  0
BLOCK_RECORD
  5
1B
330
1
100
AcDbSymbolTableRecord
100
AcDbBlockTableRecord
  2
*Paper_Space
340
1E
 70
     0
280
     1
281
     0
  0
BLOCK_RECORD
  5
23
330
1
100
AcDbSymbolTableRecord
100
AcDbBlockTableRecord
  2
*Paper_Space0
340
26
 70
     0
280
     1
281
     0
  0
BLOCK_RECORD
  5
41
330
1
100
AcDbSymbolTableRecord
100
AcDbBlockTableRecord
  2
block 2
340
0
102
{BLKREFS
331
42
102
}
 70
     0
280
     1
281
     0
  0
BLOCK_RECORD
  5
21B
330
1
100
AcDbSymbolTableRecord
100
AcDbBlockTableRecord
  2
block 3
340
0
102
{BLKREFS
331
21C
102
}
 70
     0
280
     1
281
     0
  0
BLOCK_RECORD
  5
22F
330
1
100
AcDbSymbolTableRecord
100
AcDbBlockTableRecord
  2
block 4
340
0
102
{BLKREFS
331
230
102
}
 70
     0
280
     1
281
     0
  0
BLOCK_RECORD
  5
23B
330
1
100
AcDbSymbolTableRecord
100
AcDbBlockTableRecord
  2
block 5
340
0
102
{BLKREFS
331
23C
102
}
 70
     0
280
     1
281
     0
  0
BLOCK_RECORD
  5
24D
330
1
100
AcDbSymbolTableRecord
100
AcDbBlockTableRecord
  2
block 6
340
0
102
{BLKREFS
331
24E
102
}
 70
     0
280
     1
281
     0
  0
BLOCK_RECORD
  5
263
330
1
100
AcDbSymbolTableRecord
100
AcDbBlockTableRecord
  2
block 7
340
0
102
{BLKREFS
331
264
102
}
 70
     0
280
     1
281
     0
  0
BLOCK_RECORD
  5
27C
330
1
100
AcDbSymbolTableRecord
100
AcDbBlockTableRecord
  2
block 8
340
0
102
{BLKREFS
331
27D
102
}
 70
     0
280
     1
281
     0
  0
BLOCK_RECORD
  5
288
330
1
100
AcDbSymbolTableRecord
100
AcDbBlockTableRecord
  2
block 9
340
0
102
{BLKREFS
331
289
102
}
 70
     0
280
     1
281
     0
  0
BLOCK_RECORD
  5
28E
330
1
100
AcDbSymbolTableRecord
100
AcDbBlockTableRecord
  2
block 10
340
0
102
{BLKREFS
331
28F
102
}
 70
     0
280
     1
281
     0
  0
BLOCK_RECORD
  5
292
330
1
100
AcDbSymbolTableRecord
100
AcDbBlockTableRecord
  2
block 11
340
0
102
{BLKREFS
331
293
102
}
 70
     0
280
     1
281
     0
  0
BLOCK_RECORD
  5
2A2
330
1
100
AcDbSymbolTableRecord
100
AcDbBlockTableRecord
  2
block 12
340
0
102
{BLKREFS
331
2A3
102
}
 70
     0
280
     1
281
     0
  0
ENDTAB
  0
ENDSEC
  0
SECTION
  2
BLOCKS
  0
BLOCK
  5
20
330
1F
100
AcDbEntity
  8
0
100
AcDbBlockBegin
  2
*Model_Space
 70
     0
 10
0.0
 20
0.0
 30
0.0
  3
*Model_Space
  1

  0
ENDBLK
  5
21
330
1F
100
AcDbEntity
  8
0
100
AcDbBlockEnd
  0
BLOCK
  5
1C
330
1B
100
AcDbEntity
 67
     1
  8
0
100
AcDbBlockBegin
  2
*Paper_Space
 70
     0
 10
0.0
 20
0.0
 30
0.0
  3
*Paper_Space
  1

  0
ENDBLK
  5
1D
330
1B
100
AcDbEntity
 67
     1
  8
0
100
AcDbBlockEnd
  0
BLOCK
  5
24
330
23
100
AcDbEntity
  8
0
100
AcDbBlockBegin
  2
*Paper_Space0
 70
     0
 10
0.0
 20
0.0
 30
0.0
  3
*Paper_Space0
  1

  0
ENDBLK
  5
25
330
23
100
AcDbEntity
  8
0
100
AcDbBlockEnd
  0
BLOCK
  5
43
330
41
100
AcDbEntity
  8
0
100
AcDbBlockBegin
  2
block 2
 70
     0
 10
0.0
 20
0.0
 30
0.0
  3
block 2
  1

  0
SPLINE
  5
45
330
41
100
AcDbEntity
  8
_U+30EC_U+30A4_U+30E4_U+30FC 1
 62
   179
420
  2234388
370
     9
100
AcDbSpline
210
0.0
220
0.0
230
1.0
 70
     8
 71
     3
 72
     8
 73
     4
 74
     0
 42
0.0000000001
 43
0.0000000001
 12
1.0
 22
0.0
 32
0.0
 13
1.0
 23
0.0
 33
0.0
 40
0.0
 40
0.0
 40
0.0
 40
0.0
 40
1.0
 40
1.0
 40
1.0
 40
1.0
 10
119.209255525753
 20
-134.4269246886156
 30
0.0
 10
119.209255525753
 20
-134.4269246886156
 30
0.0
 10
118.5036999703738
 20
-133.9501455220679
 30
0.0
 10
118.3886208685435
 20
-134.3697394108522
 30
0.0
  0
SPLINE
  5
46
330
41
100
AcDbEntity
  8
_U+30EC_U+30A4_U+30E4_U+30FC 1
 62
   179
420
  2234388
370
     9
100
AcDbSpline
210
0.0
220
0.0
230
1.0
 70
     8
 71
     3
 72
    26
 73
    22
 74
     0
 42
0.0000000001
 43
0.0000000001
 12
1.0
 22
0.0
 32
0.0
 13
1.0
 23
0.0
 33
0.0
 40
0.0
 40
0.0
 40
0.0
 40
0.0
 40
1.0
 40
1.0
 40
1.0
 40
2.0
 40
2.0
 40
2.0
 40
3.0
 40
3.0
 40
3.0
 40
4.0
 40
4.0
 40
4.0
 40
5.0
 40
5.0
 40
5.0
 40
6.0
 40
6.0
 40
6.0
 40
7.0
 40
7.0
 40
7.0
 40
7.0
 10
119.7446280561711
 20
-127.3796594125997
 30
0.0
 10
119.7446280561711
 20
-127.3796594125997
 30
0.0
 10
111.1119091097435
 20
-130.4165116340627
 30
0.0
 10
111.1119091097435
 20
-130.4165116340627
 30
0.0
 10
111.1119091097435
 20
-130.4165116340627
 30
0.0
 10
109.7373105337013
 20
-130.6841994117734
 30
0.0
 10
110.2526835761086
 20
-131.1423871894368
 30
0.0
 10
110.2526835761086
 20
-131.1423871894368
 30
0.0
 10
110.5586124571926
 20
-131.3332399671666
 30
0.0
 10
111.0933177213289
 20
-131.5433896893363
 30
0.0
 10
111.0933177213289
 20
-131.5433896893363
 30
0.0
 10
116.1541617588827
 20
-133.5870313554919
 30
0.0
 10
116.1541617588827
 20
-133.5870313554919
 30
0.0
 10
116.1541617588827
 20
-133.5870313554919
 30
0.0
 10
116.1155678709784
 20
-136.661419132501
 30
0.0
 10
116.1155678709784
 20
-136.661419132501
 30
0.0
 10
116.1155678709784
 20
-136.661419132501
 30
0.0
 10
118.7703616921379
 20
-137.9409441321813
 30
0.0
 10
118.7703616921379
 20
-137.9409441321813
 30
0.0
 10
118.7703616921379
 20
-137.9409441321813
 30
0.0
 10
122.4952010415537
 20
-136.3558430214668
 30
0.0
 10
122.4952010415537
 20
-136.3558430214668
 30
0.0
  0
POLYLINE
  5
47
330
41
100
AcDbEntity
  8
_U+30EC_U+30A4_U+30E4_U+30FC 1
 62
   179
420
  2234388
370
     9
100
AcDb2dPolyline
 66
     1
 10
0.0
 20
0.0
 30
0.0
  0
VERTEX
  5
48
330
47
100
AcDbEntity
  8
_U+30EC_U+30A4_U+30E4_U+30FC 1
 62
   179
420
  2234388
370
     9
100
AcDbVertex
100
AcDb2dVertex
 10
118.4651030888145
 20
-134.2360719108851
 30
0.0
  0
VERTEX
  5
49
330
47
100
AcDbEntity
  8
_U+30EC_U+30A4_U+30E4_U+30FC 1
 62
   179
420
  2234388
370
     9
100
AcDbVertex
100
AcDb2dVertex
 10
127.8033775727975
 20
-130.2256588563323
 30
0.0
  0
SEQEND
  5
4A
330
47
100
AcDbEntity
  8
_U+30EC_U+30A4_U+30E4_U+30FC 1
 62
   179
420
  2234388
370
     9
  0
SPLINE
  5
4B
330
41
100
AcDbEntity
  8
_U+30EC_U+30A4_U+30E4_U+30FC 1
 62
   179
420
  2234388
370
     9
100
AcDbSpline
210
0.0
220
0.0
230
1.0
 70
     8
 71
     3
 72
    26
 73
    22
 74
     0
 42
0.0000000001
 43
0.0000000001
 12
1.0
 22
0.0
 32
0.0
 13
1.0
 23
0.0
 33
0.0
 40
0.0
 40
0.0
 40
0.0
 40
0.0
 40
1.0
 40
1.0
 40
1.0
 40
2.0
 40
2.0
 40
2.0
 40
3.0
 40
3.0
 40
3.0
 40
4.0
 40
4.0
 40
4.0
 40
5.0
 40
5.0
 40
5.0
 40
6.0
 40
6.0
 40
6.0
 40
7.0
 40
7.0
 40
7.0
 40
7.0
 10
119.8397016648567
 20
-127.5519208014455
 30
0.0
 10
119.8397016648567
 20
-127.5519208014455
 30
0.0
 10
110.9017593928826
 20
-130.6841994117734
 30
0.0
 10
110.9017593928826
 20
-130.6841994117734
 30
0.0
 10
110.9017593928826
 20
-130.6841994117734
 30
0.0
 10
110.4249449606027
 20
-130.7599760784211
 30
0.0
 10
110.4628360834953
 20
-130.9322374672672
 30
0.0
 10
110.4628360834953
 20
-130.9322374672672
 30
0.0
 10
110.4435716267942
 20
-131.0087196894704
 30
0.0
 10
110.7494652301013
 20
-131.1037933005572
 30
0.0
 10
110.7494652301013
 20
-131.1037933005572
 30
0.0
 10
116.4593850844291
 20
-133.3575846888831
 30
0.0
 10
116.4593850844291
 20
-133.3575846888831
 30
0.0
 10
116.4593850844291
 20
-133.3575846888831
 30
0.0
 10
116.4593850844291
 20
-136.3368988548047
 30
0.0
 10
116.4593850844291
 20
-136.3368988548047
 30
0.0
 10
116.4593850844291
 20
-136.3368988548047
 30
0.0
 10
118.2742503159058
 20
-137.1960891323675
 30
0.0
 10
118.2742503159058
 20
-137.1960891323675
 30
0.0
 10
118.2742503159058
 20
-137.1960891323675
 30
0.0
 10
118.407247534735
 20
-134.3697394108522
 30
0.0
 10
118.407247534735
 20
-134.3697394108522
 30
0.0
  0
POLYLINE
  5
4C
330
41
100
AcDbEntity
  8
_U+30EC_U+30A4_U+30E4_U+30FC 1
 62
   179
420
  2234388
370
     9
100
AcDb2dPolyline
 66
     1
 10
0.0
 20
0.0
 30
0.0
  0
VERTEX
  5
4D
330
4C
100
AcDbEntity
  8
_U+30EC_U+30A4_U+30E4_U+30FC 1
 62
   179
420
  2234388
370
     9
100
AcDbVertex
100
AcDb2dVertex
 10
125.8176267901249
 20
-129.6141538564854
 30
0.0
  0
VERTEX
  5
4E
330
4C
100
AcDbEntity
  8
_U+30EC_U+30A4_U+30E4_U+30FC 1
 62
   179
420
  2234388
370
     9
100
AcDbVertex
100
AcDb2dVertex
 10
116.4593850844291
 20
-133.4147699666464
 30
0.0
  0
SEQEND
  5
4F
330
4C
100
AcDbEntity
  8
_U+30EC_U+30A4_U+30E4_U+30FC 1
 62
   179
420
  2234388
370
     9
  0
SPLINE
  5
50
330
41
100
AcDbEntity
  8
_U+30EC_U+30A4_U+30E4_U+30FC 1
 62
   179
420
  2234388
370
     9
100
AcDbSpline
210
0.0
220
0.0
230
1.0
 70
     8
 71
     3
 72
    20
 73
    16
 74
     0
 42
0.0000000001
 43
0.0000000001
 12
1.0
 22
0.0
 32
0.0
 13
1.0
 23
0.0
 33
0.0
 40
0.0
 40
0.0
 40
0.0
 40
0.0
 40
1.0
 40
1.0
 40
1.0
 40
2.0
 40
2.0
 40
2.0
 40
3.0
 40
3.0
 40
3.0
 40
4.0
 40
4.0
 40
4.0
 40
5.0
 40
5.0
 40
5.0
 40
5.0
 10
118.7703616921379
 20
-137.9409441321813
 30
0.0
 10
118.7703616921379
 20
-137.9409441321813
 30
0.0
 10
118.7703616921379
 20
-135.0001885773611
 30
0.0
 10
118.7703616921379
 20
-135.0001885773611
 30
0.0
 10
118.7703616921379
 20
-135.0001885773611
 30
0.0
 10
118.7703616921379
 20
-134.656371355225
 30
0.0
 10
118.9998083529509
 20
-134.7900388551915
 30
0.0
 10
118.9998083529509
 20
-134.7900388551915
 30
0.0
 10
124.2900990513176
 20
-137.1010155212801
 30
0.0
 10
124.2900990513176
 20
-137.1010155212801
 30
0.0
 10
124.2900990513176
 20
-137.1010155212801
 30
0.0
 10
125.0349187545379
 20
-137.5592032989435
 30
0.0
 10
125.7411445698539
 20
-137.3490535767739
 30
0.0
 10
125.7411445698539
 20
-137.3490535767739
 30
0.0
 10
135.3288682141396
 20
-133.28110246668
 30
0.0
 10
135.3288682141396
 20
-133.28110246668
 30
0.0
  0
SPLINE
  5
51
330
41
100
AcDbEntity
  8
_U+30EC_U+30A4_U+30E4_U+30FC 1
 62
   179
420
  2234388
370
     9
100
AcDbSpline
210
0.0
220
0.0
230
1.0
 70
     8
 71
     3
 72
    20
 73
    16
 74
     0
 42
0.0000000001
 43
0.0000000001
 12
1.0
 22
0.0
 32
0.0
 13
1.0
 23
0.0
 33
0.0
 40
0.0
 40
0.0
 40
0.0
 40
0.0
 40
1.0
 40
1.0
 40
1.0
 40
2.0
 40
2.0
 40
2.0
 40
3.0
 40
3.0
 40
3.0
 40
4.0
 40
4.0
 40
4.0
 40
5.0
 40
5.0
 40
5.0
 40
5.0
 10
118.942623076632
 20
-134.2932571886491
 30
0.0
 10
118.942623076632
 20
-134.2932571886491
 30
0.0
 10
122.475198542064
 20
-135.9165994104655
 30
0.0
 10
122.6474599265582
 20
-136.01202579933
 30
0.0
 10
122.6474599265582
 20
-136.01202579933
 30
0.0
 10
124.8054720937249
 20
-137.0245332990769
 30
0.0
 10
124.8054720937249
 20
-137.0245332990769
 30
0.0
 10
124.8054720937249
 20
-137.0245332990769
 30
0.0
 10
125.2257715274466
 20
-137.3683505212137
 30
0.0
 10
126.1421823374004
 20
-136.9101627435503
 30
0.0
 10
126.1421823374004
 20
-136.9101627435503
 30
0.0
 10
133.4760793725193
 20
-133.720698855459
 30
0.0
 10
133.4760793725193
 20
-133.720698855459
 30
0.0
 10
133.4760793725193
 20
-133.720698855459
 30
0.0
 10
135.1373098856933
 20
-133.0137674667463
 30
0.0
 10
135.1373098856933
 20
-133.0137674667463
 30
0.0
  0
POLYLINE
  5
52
330
41
100
AcDbEntity
  8
_U+30EC_U+30A4_U+30E4_U+30FC 1
 62
   179
420
  2234388
370
     9
100
AcDb2dPolyline
 66
     1
 10
0.0
 20
0.0
 30
0.0
  0
VERTEX
  5
53
330
52
100
AcDbEntity
  8
_U+30EC_U+30A4_U+30E4_U+30FC 1
 62
   179
420
  2234388
370
     9
100
AcDbVertex
100
AcDb2dVertex
 10
116.4593850844291
 20
-136.3368988548047
 30
0.0
  0
VERTEX
  5
54
330
52
100
AcDbEntity
  8
_U+30EC_U+30A4_U+30E4_U+30FC 1
 62
   179
420
  2234388
370
     9
100
AcDbVertex
100
AcDb2dVertex
 10
118.3121416370885
 20
-135.6685613549717
 30
0.0
  0
SEQEND
  5
55
330
52
100
AcDbEntity
  8
_U+30EC_U+30A4_U+30E4_U+30FC 1
 62
   179
420
  2234388
370
     9
  0
SPLINE
  5
56
330
41
100
AcDbEntity
  8
_U+30EC_U+30A4_U+30E4_U+30FC 1
 62
   179
420
  2234388
370
     9
100
AcDbSpline
210
0.0
220
0.0
230
1.0
 70
    11
 71
     3
 72
    17
 73
    13
 74
     0
 42
0.0000000001
 43
0.0000000001
 12
1.0
 22
0.0
 32
0.0
 13
1.0
 23
0.0
 33
0.0
 40
0.0
 40
0.0
 40
0.0
 40
0.0
 40
1.0
 40
1.0
 40
1.0
 40
2.0
 40
2.0
 40
2.0
 40
3.0
 40
3.0
 40
3.0
 40
4.0
 40
4.0
 40
4.0
 40
4.0
 10
123.0849749153962
 20
-129.3943380232068
 30
0.0
 10
123.0849749153962
 20
-129.6303463564811
 30
0.0
 10
122.7542457571672
 20
-129.8222221897667
 30
0.0
 10
122.3484454897422
 20
-129.8222221897667
 30
0.0
 10
121.9405285557046
 20
-129.8222221897667
 30
0.0
 10
121.6105049530131
 20
-129.6303463564811
 30
0.0
 10
121.6105049530131
 20
-129.3943380232068
 30
0.0
 10
121.6105049530131
 20
-129.1580121899329
 30
0.0
 10
121.9405285557046
 20
-128.9668066344247
 30
0.0
 10
122.3484454897422
 20
-128.9668066344247
 30
0.0
 10
122.7542457571672
 20
-128.9668066344247
 30
0.0
 10
123.0849749153962
 20
-129.1580121899329
 30
0.0
 10
123.0849749153962
 20
-129.3943380232068
 30
0.0
  0
SPLINE
  5
57
330
41
100
AcDbEntity
  8
_U+30EC_U+30A4_U+30E4_U+30FC 1
 62
   179
420
  2234388
370
     9
100
AcDbSpline
210
0.0
220
0.0
230
1.0
 70
     8
 71
     3
 72
    11
 73
     7
 74
     0
 42
0.0000000001
 43
0.0000000001
 12
1.0
 22
0.0
 32
0.0
 13
1.0
 23
0.0
 33
0.0
 40
0.0
 40
0.0
 40
0.0
 40
0.0
 40
1.0
 40
1.0
 40
1.0
 40
2.0
 40
2.0
 40
2.0
 40
2.0
 10
121.7386338386331
 20
-129.6292880231485
 30
0.0
 10
121.7386338386331
 20
-129.6292880231485
 30
0.0
 10
121.7172907836221
 20
-129.115961078832
 30
0.0
 10
122.5510104845744
 20
-129.1597408010436
 30
0.0
 10
122.5510104845744
 20
-129.1597408010436
 30
0.0
 10
123.0415832498366
 20
-129.223134967694
 30
0.0
 10
122.9568460297762
 20
-129.6082977453755
 30
0.0
  0
SPLINE
  5
58
330
41
100
AcDbEntity
  8
_U+30EC_U+30A4_U+30E4_U+30FC 1
 62
   179
420
  2234388
370
     9
100
AcDbSpline
210
0.0
220
0.0
230
1.0
 70
    11
 71
     3
 72
    17
 73
    13
 74
     0
 42
0.0000000001
 43
0.0000000001
 12
1.0
 22
0.0
 32
0.0
 13
1.0
 23
0.0
 33
0.0
 40
0.0
 40
0.0
 40
0.0
 40
0.0
 40
1.0
 40
1.0
 40
1.0
 40
2.0
 40
2.0
 40
2.0
 40
3.0
 40
3.0
 40
3.0
 40
4.0
 40
4.0
 40
4.0
 40
4.0
 10
122.8479788103314
 20
-128.3088055234784
 30
0.0
 10
122.8479788103314
 20
-128.5449549678637
 30
0.0
 10
122.5172527471483
 20
-128.7363369122605
 30
0.0
 10
122.1107085513629
 20
-128.7363369122605
 30
0.0
 10
121.7028268951022
 20
-128.7363369122605
 30
0.0
 10
121.3734735701714
 20
-128.5449549678637
 30
0.0
 10
121.3734735701714
 20
-128.3088055234784
 30
0.0
 10
121.3734735701714
 20
-128.0726208013152
 30
0.0
 10
121.7028268951022
 20
-127.8814152458073
 30
0.0
 10
122.1107085513629
 20
-127.8814152458073
 30
0.0
 10
122.5172527471483
 20
-127.8814152458073
 30
0.0
 10
122.8479788103314
 20
-128.0726208013152
 30
0.0
 10
122.8479788103314
 20
-128.3088055234784
 30
0.0
  0
SPLINE
  5
59
330
41
100
AcDbEntity
  8
_U+30EC_U+30A4_U+30E4_U+30FC 1
 62
   179
420
  2234388
370
     9
100
AcDbSpline
210
0.0
220
0.0
230
1.0
 70
     8
 71
     3
 72
    11
 73
     7
 74
     0
 42
0.0000000001
 43
0.0000000001
 12
1.0
 22
0.0
 32
0.0
 13
1.0
 23
0.0
 33
0.0
 40
0.0
 40
0.0
 40
0.0
 40
0.0
 40
1.0
 40
1.0
 40
1.0
 40
2.0
 40
2.0
 40
2.0
 40
2.0
 10
121.5009321780308
 20
-128.5439319123086
 30
0.0
 10
121.5009321780308
 20
-128.5439319123086
 30
0.0
 10
121.4802594007804
 20
-128.0304285791035
 30
0.0
 10
122.3126032684344
 20
-128.0739966346481
 30
0.0
 10
122.3126032684344
 20
-128.0739966346481
 30
0.0
 10
122.8045518669949
 20
-128.1373908012991
 30
0.0
 10
122.7191090913969
 20
-128.5225535789803
 30
0.0
  0
SPLINE
  5
5A
330
41
100
AcDbEntity
  8
_U+30EC_U+30A4_U+30E4_U+30FC 1
 62
   179
420
  2234388
370
     9
100
AcDbSpline
210
0.0
220
0.0
230
1.0
 70
    11
 71
     3
 72
    17
 73
    13
 74
     0
 42
0.0000000001
 43
0.0000000001
 12
1.0
 22
0.0
 32
0.0
 13
1.0
 23
0.0
 33
0.0
 40
0.0
 40
0.0
 40
0.0
 40
0.0
 40
1.0
 40
1.0
 40
1.0
 40
2.0
 40
2.0
 40
2.0
 40
3.0
 40
3.0
 40
3.0
 40
4.0
 40
4.0
 40
4.0
 40
4.0
 10
113.1452143356473
 20
-130.9211955228253
 30
0.0
 10
113.1452143356473
 20
-131.1568510783219
 30
0.0
 10
112.8151583051293
 20
-131.3484094116072
 30
0.0
 10
112.4079440766789
 20
-131.3484094116072
 30
0.0
 10
112.0007326981788
 20
-131.3484094116072
 30
0.0
 10
111.671379373248
 20
-131.1568510783219
 30
0.0
 10
111.671379373248
 20
-130.9211955228253
 30
0.0
 10
111.671379373248
 20
-130.6848696895508
 30
0.0
 10
112.0007326981788
 20
-130.4933113562655
 30
0.0
 10
112.4079440766789
 20
-130.4933113562655
 30
0.0
 10
112.8151583051293
 20
-130.4933113562655
 30
0.0
 10
113.1452143356473
 20
-130.6848696895508
 30
0.0
 10
113.1452143356473
 20
-130.9211955228253
 30
0.0
  0
SPLINE
  5
5B
330
41
100
AcDbEntity
  8
_U+30EC_U+30A4_U+30E4_U+30FC 1
 62
   179
420
  2234388
370
     9
100
AcDbSpline
210
0.0
220
0.0
230
1.0
 70
     8
 71
     3
 72
    11
 73
     7
 74
     0
 42
0.0000000001
 43
0.0000000001
 12
1.0
 22
0.0
 32
0.0
 13
1.0
 23
0.0
 33
0.0
 40
0.0
 40
0.0
 40
0.0
 40
0.0
 40
1.0
 40
1.0
 40
1.0
 40
2.0
 40
2.0
 40
2.0
 40
2.0
 10
111.7995435366449
 20
-131.1558280227667
 30
0.0
 10
111.7995435366449
 20
-131.1558280227667
 30
0.0
 10
111.7774949260963
 20
-130.6425010784502
 30
0.0
 10
112.610509071511
 20
-130.6855752451063
 30
0.0
 10
112.610509071511
 20
-130.6855752451063
 30
0.0
 10
113.1017873923108
 20
-130.7496396895347
 30
0.0
 10
113.0170501722504
 20
-131.1344496894385
 30
0.0
  0
SPLINE
  5
5C
330
41
100
AcDbEntity
  8
_U+30EC_U+30A4_U+30E4_U+30FC 1
 62
   179
420
  2234388
370
     9
100
AcDbSpline
210
0.0
220
0.0
230
1.0
 70
    11
 71
     3
 72
    17
 73
    13
 74
     0
 42
0.0000000001
 43
0.0000000001
 12
1.0
 22
0.0
 32
0.0
 13
1.0
 23
0.0
 33
0.0
 40
0.0
 40
0.0
 40
0.0
 40
0.0
 40
1.0
 40
1.0
 40
1.0
 40
2.0
 40
2.0
 40
2.0
 40
3.0
 40
3.0
 40
3.0
 40
4.0
 40
4.0
 40
4.0
 40
4.0
 10
120.8794435827751
 20
-130.4802233007134
 30
0.0
 10
120.8794435827751
 20
-130.7158788562099
 30
0.0
 10
120.5480088690085
 20
-130.9074371894952
 30
0.0
 10
120.1421733238067
 20
-130.9074371894952
 30
0.0
 10
119.734291667546
 20
-130.9074371894952
 30
0.0
 10
119.4056438981527
 20
-130.7158788562099
 30
0.0
 10
119.4056438981527
 20
-130.4802233007134
 30
0.0
 10
119.4056438981527
 20
-130.2442502452166
 30
0.0
 10
119.734291667546
 20
-130.0526919119312
 30
0.0
 10
120.1421733238067
 20
-130.0526919119312
 30
0.0
 10
120.5480088690085
 20
-130.0526919119312
 30
0.0
 10
120.8794435827751
 20
-130.2442502452166
 30
0.0
 10
120.8794435827751
 20
-130.4802233007134
 30
0.0
  0
SPLINE
  5
5D
330
41
100
AcDbEntity
  8
_U+30EC_U+30A4_U+30E4_U+30FC 1
 62
   179
420
  2234388
370
     9
100
AcDbSpline
210
0.0
220
0.0
230
1.0
 70
     8
 71
     3
 72
    11
 73
     7
 74
     0
 42
0.0000000001
 43
0.0000000001
 12
1.0
 22
0.0
 32
0.0
 13
1.0
 23
0.0
 33
0.0
 40
0.0
 40
0.0
 40
0.0
 40
0.0
 40
1.0
 40
1.0
 40
1.0
 40
2.0
 40
2.0
 40
2.0
 40
2.0
 10
119.5337727837727
 20
-130.7152085784325
 30
0.0
 10
119.5337727837727
 20
-130.7152085784325
 30
0.0
 10
119.5117241732241
 20
-130.201881634116
 30
0.0
 10
120.3454438741764
 20
-130.2452733007717
 30
0.0
 10
120.3454438741764
 20
-130.2452733007717
 30
0.0
 10
120.8367221949762
 20
-130.3086674674227
 30
0.0
 10
120.7512794193782
 20
-130.6938302451043
 30
0.0
  0
SPLINE
  5
5E
330
41
100
AcDbEntity
  8
_U+30EC_U+30A4_U+30E4_U+30FC 1
 62
   179
420
  2234388
370
     9
100
AcDbSpline
210
0.0
220
0.0
230
1.0
 70
    11
 71
     3
 72
    17
 73
    13
 74
     0
 42
0.0000000001
 43
0.0000000001
 12
1.0
 22
0.0
 32
0.0
 13
1.0
 23
0.0
 33
0.0
 40
0.0
 40
0.0
 40
0.0
 40
0.0
 40
1.0
 40
1.0
 40
1.0
 40
2.0
 40
2.0
 40
2.0
 40
3.0
 40
3.0
 40
3.0
 40
4.0
 40
4.0
 40
4.0
 40
4.0
 10
120.6417419221727
 20
-129.3943380232068
 30
0.0
 10
120.6417419221727
 20
-129.6303463564811
 30
0.0
 10
120.3110127639437
 20
-129.8222221897667
 30
0.0
 10
119.9051772187419
 20
-129.8222221897667
 30
0.0
 10
119.4972602847042
 20
-129.8222221897667
 30
0.0
 10
119.1679069597734
 20
-129.6303463564811
 30
0.0
 10
119.1679069597734
 20
-129.3943380232068
 30
0.0
 10
119.1679069597734
 20
-129.1580121899329
 30
0.0
 10
119.4972602847042
 20
-128.9668066344247
 30
0.0
 10
119.9051772187419
 20
-128.9668066344247
 30
0.0
 10
120.3110127639437
 20
-128.9668066344247
 30
0.0
 10
120.6417419221727
 20
-129.1580121899329
 30
0.0
 10
120.6417419221727
 20
-129.3943380232068
 30
0.0
  0
SPLINE
  5
5F
330
41
100
AcDbEntity
  8
_U+30EC_U+30A4_U+30E4_U+30FC 1
 62
   179
420
  2234388
370
     9
100
AcDbSpline
210
0.0
220
0.0
230
1.0
 70
     8
 71
     3
 72
    11
 73
     7
 74
     0
 42
0.0000000001
 43
0.0000000001
 12
1.0
 22
0.0
 32
0.0
 13
1.0
 23
0.0
 33
0.0
 40
0.0
 40
0.0
 40
0.0
 40
0.0
 40
1.0
 40
1.0
 40
1.0
 40
2.0
 40
2.0
 40
2.0
 40
2.0
 10
119.2960711231703
 20
-129.6292880231485
 30
0.0
 10
119.2960711231703
 20
-129.6292880231485
 30
0.0
 10
119.2747280681593
 20
-129.115961078832
 30
0.0
 10
120.107742213574
 20
-129.1597408010436
 30
0.0
 10
120.107742213574
 20
-129.1597408010436
 30
0.0
 10
120.5996908121345
 20
-129.223134967694
 30
0.0
 10
120.5135777587758
 20
-129.6082977453755
 30
0.0
  0
SPLINE
  5
60
330
41
100
AcDbEntity
  8
_U+30EC_U+30A4_U+30E4_U+30FC 1
 62
   179
420
  2234388
370
     9
100
AcDbSpline
210
0.0
220
0.0
230
1.0
 70
    11
 71
     3
 72
    17
 73
    13
 74
     0
 42
0.0000000001
 43
0.0000000001
 12
1.0
 22
0.0
 32
0.0
 13
1.0
 23
0.0
 33
0.0
 40
0.0
 40
0.0
 40
0.0
 40
0.0
 40
1.0
 40
1.0
 40
1.0
 40
2.0
 40
2.0
 40
2.0
 40
3.0
 40
3.0
 40
3.0
 40
4.0
 40
4.0
 40
4.0
 40
4.0
 10
120.098781658247
 20
-128.4446955234443
 30
0.0
 10
120.098781658247
 20
-128.6810213567185
 30
0.0
 10
119.7687610811691
 20
-128.8720505233375
 30
0.0
 10
119.3622169548161
 20
-128.8720505233375
 30
0.0
 10
118.9550055763161
 20
-128.8720505233375
 30
0.0
 10
118.6249819736246
 20
-128.6810213567185
 30
0.0
 10
118.6249819736246
 20
-128.4446955234443
 30
0.0
 10
118.6249819736246
 20
-128.2087224679479
 30
0.0
 10
118.9550055763161
 20
-128.0171641346625
 30
0.0
 10
119.3622169548161
 20
-128.0171641346625
 30
0.0
 10
119.7687610811691
 20
-128.0171641346625
 30
0.0
 10
120.098781658247
 20
-128.2087224679479
 30
0.0
 10
120.098781658247
 20
-128.4446955234443
 30
0.0
  0
SPLINE
  5
61
330
41
100
AcDbEntity
  8
_U+30EC_U+30A4_U+30E4_U+30FC 1
 62
   179
420
  2234388
370
     9
100
AcDbSpline
210
0.0
220
0.0
230
1.0
 70
     8
 71
     3
 72
    11
 73
     7
 74
     0
 42
0.0000000001
 43
0.0000000001
 12
1.0
 22
0.0
 32
0.0
 13
1.0
 23
0.0
 33
0.0
 40
0.0
 40
0.0
 40
0.0
 40
0.0
 40
1.0
 40
1.0
 40
1.0
 40
2.0
 40
2.0
 40
2.0
 40
2.0
 10
118.7531138592005
 20
-128.6798219122745
 30
0.0
 10
118.7531138592005
 20
-128.6798219122745
 30
0.0
 10
118.7317678042336
 20
-128.1664949679584
 30
0.0
 10
119.5647819496483
 20
-128.2095691346144
 30
0.0
 10
119.5647819496483
 20
-128.2095691346144
 30
0.0
 10
120.0567658259856
 20
-128.2734924679318
 30
0.0
 10
119.9713230503877
 20
-128.658655245613
 30
0.0
  0
SPLINE
  5
62
330
41
100
AcDbEntity
  8
_U+30EC_U+30A4_U+30E4_U+30FC 1
 62
   179
420
  2234388
370
     9
100
AcDbSpline
210
0.0
220
0.0
230
1.0
 70
    11
 71
     3
 72
    17
 73
    13
 74
     0
 42
0.0000000001
 43
0.0000000001
 12
1.0
 22
0.0
 32
0.0
 13
1.0
 23
0.0
 33
0.0
 40
0.0
 40
0.0
 40
0.0
 40
0.0
 40
1.0
 40
1.0
 40
1.0
 40
2.0
 40
2.0
 40
2.0
 40
3.0
 40
3.0
 40
3.0
 40
4.0
 40
4.0
 40
4.0
 40
4.0
 10
118.5725944749611
 20
-131.2939758005096
 30
0.0
 10
118.5725944749611
 20
-131.5303016337841
 30
0.0
 10
118.241865316732
 20
-131.7218599670695
 30
0.0
 10
117.8353594937695
 20
-131.7218599670695
 30
0.0
 10
117.4281481152695
 20
-131.7218599670695
 30
0.0
 10
117.0987947903386
 20
-131.5303016337841
 30
0.0
 10
117.0987947903386
 20
-131.2939758005096
 30
0.0
 10
117.0987947903386
 20
-131.0579674672353
 30
0.0
 10
117.4281481152695
 20
-130.8667619117278
 30
0.0
 10
117.8353594937695
 20
-130.8667619117278
 30
0.0
 10
118.241865316732
 20
-130.8667619117278
 30
0.0
 10
118.5725944749611
 20
-131.0579674672353
 30
0.0
 10
118.5725944749611
 20
-131.2939758005096
 30
0.0
  0
SPLINE
  5
63
330
41
100
AcDbEntity
  8
_U+30EC_U+30A4_U+30E4_U+30FC 1
 62
   179
420
  2234388
370
     9
100
AcDbSpline
210
0.0
220
0.0
230
1.0
 70
     8
 71
     3
 72
    11
 73
     7
 74
     0
 42
0.0000000001
 43
0.0000000001
 12
1.0
 22
0.0
 32
0.0
 13
1.0
 23
0.0
 33
0.0
 40
0.0
 40
0.0
 40
0.0
 40
0.0
 40
1.0
 40
1.0
 40
1.0
 40
2.0
 40
2.0
 40
2.0
 40
2.0
 10
117.2269589537356
 20
-131.5289258004513
 30
0.0
 10
117.2269589537356
 20
-131.5289258004513
 30
0.0
 10
117.204910343187
 20
-131.0155988561348
 30
0.0
 10
118.0386300441392
 20
-131.0590258005686
 30
0.0
 10
118.0386300441392
 20
-131.0590258005686
 30
0.0
 10
118.5298730871621
 20
-131.123090244997
 30
0.0
 10
118.4437600338035
 20
-131.5079002449008
 30
0.0
  0
SPLINE
  5
64
330
41
100
AcDbEntity
  8
_U+30EC_U+30A4_U+30E4_U+30FC 1
 62
   179
420
  2234388
370
     9
100
AcDbSpline
210
0.0
220
0.0
230
1.0
 70
    11
 71
     3
 72
    17
 73
    13
 74
     0
 42
0.0000000001
 43
0.0000000001
 12
1.0
 22
0.0
 32
0.0
 13
1.0
 23
0.0
 33
0.0
 40
0.0
 40
0.0
 40
0.0
 40
0.0
 40
1.0
 40
1.0
 40
1.0
 40
2.0
 40
2.0
 40
2.0
 40
3.0
 40
3.0
 40
3.0
 40
4.0
 40
4.0
 40
4.0
 40
4.0
 10
118.3341872588211
 20
-130.2087608007811
 30
0.0
 10
118.3341872588211
 20
-130.4444163562776
 30
0.0
 10
118.0041666371656
 20
-130.6359394117854
 30
0.0
 10
117.5976578331671
 20
-130.6359394117854
 30
0.0
 10
117.1904464546671
 20
-130.6359394117854
 30
0.0
 10
116.8610931297362
 20
-130.4444163562776
 30
0.0
 10
116.8610931297362
 20
-130.2087608007811
 30
0.0
 10
116.8610931297362
 20
-129.9724349675072
 30
0.0
 10
117.1904464546671
 20
-129.7808766342212
 30
0.0
 10
117.5976578331671
 20
-129.7808766342212
 30
0.0
 10
118.0041666371656
 20
-129.7808766342212
 30
0.0
 10
118.3341872588211
 20
-129.9724349675072
 30
0.0
 10
118.3341872588211
 20
-130.2087608007811
 30
0.0
  0
SPLINE
  5
65
330
41
100
AcDbEntity
  8
_U+30EC_U+30A4_U+30E4_U+30FC 1
 62
   179
420
  2234388
370
     9
100
AcDbSpline
210
0.0
220
0.0
230
1.0
 70
     8
 71
     3
 72
    11
 73
     7
 74
     0
 42
0.0000000001
 43
0.0000000001
 12
1.0
 22
0.0
 32
0.0
 13
1.0
 23
0.0
 33
0.0
 40
0.0
 40
0.0
 40
0.0
 40
0.0
 40
1.0
 40
1.0
 40
1.0
 40
2.0
 40
2.0
 40
2.0
 40
2.0
 10
116.9892249707526
 20
-130.4430405229447
 30
0.0
 10
116.9892249707526
 20
-130.4430405229447
 30
0.0
 10
116.9678789603452
 20
-129.9300663564067
 30
0.0
 10
117.80089310576
 20
-129.9734580230623
 30
0.0
 10
117.80089310576
 20
-129.9734580230623
 30
0.0
 10
118.2921714265597
 20
-130.0372049674905
 30
0.0
 10
118.2067286509618
 20
-130.422367745172
 30
0.0
  0
SPLINE
  5
66
330
41
100
AcDbEntity
  8
_U+30EC_U+30A4_U+30E4_U+30FC 1
 62
   179
420
  2234388
370
     9
100
AcDbSpline
210
0.0
220
0.0
230
1.0
 70
    11
 71
     3
 72
    17
 73
    13
 74
     0
 42
0.0000000001
 43
0.0000000001
 12
1.0
 22
0.0
 32
0.0
 13
1.0
 23
0.0
 33
0.0
 40
0.0
 40
0.0
 40
0.0
 40
0.0
 40
1.0
 40
1.0
 40
1.0
 40
2.0
 40
2.0
 40
2.0
 40
3.0
 40
3.0
 40
3.0
 40
4.0
 40
4.0
 40
4.0
 40
4.0
 10
117.7926381059706
 20
-129.2585891343519
 30
0.0
 10
117.7926381059706
 20
-129.494950245404
 30
0.0
 10
117.4619089477415
 20
-129.6861558009115
 30
0.0
 10
117.0560734025397
 20
-129.6861558009115
 30
0.0
 10
116.6481917462789
 20
-129.6861558009115
 30
0.0
 10
116.3181328658105
 20
-129.494950245404
 30
0.0
 10
116.3181328658105
 20
-129.2585891343519
 30
0.0
 10
116.3181328658105
 20
-129.0222633010781
 30
0.0
 10
116.6481917462789
 20
-128.8314105233476
 30
0.0
 10
117.0560734025397
 20
-128.8314105233476
 30
0.0
 10
117.4619089477415
 20
-128.8314105233476
 30
0.0
 10
117.7926381059706
 20
-129.0222633010781
 30
0.0
 10
117.7926381059706
 20
-129.2585891343519
 30
0.0
  0
SPLINE
  5
67
330
41
100
AcDbEntity
  8
_U+30EC_U+30A4_U+30E4_U+30FC 1
 62
   179
420
  2234388
370
     9
100
AcDbSpline
210
0.0
220
0.0
230
1.0
 70
     8
 71
     3
 72
    11
 73
     7
 74
     0
 42
0.0000000001
 43
0.0000000001
 12
1.0
 22
0.0
 32
0.0
 13
1.0
 23
0.0
 33
0.0
 40
0.0
 40
0.0
 40
0.0
 40
0.0
 40
1.0
 40
1.0
 40
1.0
 40
2.0
 40
2.0
 40
2.0
 40
2.0
 10
116.4462999708887
 20
-129.4935744120711
 30
0.0
 10
116.4462999708887
 20
-129.4935744120711
 30
0.0
 10
116.4242484186589
 20
-128.9802474677552
 30
0.0
 10
117.2579681196111
 20
-129.0236391344109
 30
0.0
 10
117.2579681196111
 20
-129.0236391344109
 30
0.0
 10
117.7485408848733
 20
-129.0873860788391
 30
0.0
 10
117.6644739425736
 20
-129.4721960787429
 30
0.0
  0
SPLINE
  5
68
330
41
100
AcDbEntity
  8
_U+30EC_U+30A4_U+30E4_U+30FC 1
 62
   179
420
  2234388
370
     9
100
AcDbSpline
210
0.0
220
0.0
230
1.0
 70
    11
 71
     3
 72
    17
 73
    13
 74
     0
 42
0.0000000001
 43
0.0000000001
 12
1.0
 22
0.0
 32
0.0
 13
1.0
 23
0.0
 33
0.0
 40
0.0
 40
0.0
 40
0.0
 40
0.0
 40
1.0
 40
1.0
 40
1.0
 40
2.0
 40
2.0
 40
2.0
 40
3.0
 40
3.0
 40
3.0
 40
4.0
 40
4.0
 40
4.0
 40
4.0
 10
116.1293262039607
 20
-132.1083985780839
 30
0.0
 10
116.1293262039607
 20
-132.3447244113584
 30
0.0
 10
115.7993055266057
 20
-132.535929966866
 30
0.0
 10
115.3927967783067
 20
-132.535929966866
 30
0.0
 10
114.9848798442691
 20
-132.535929966866
 30
0.0
 10
114.6548562415776
 20
-132.3447244113584
 30
0.0
 10
114.6548562415776
 20
-132.1083985780839
 30
0.0
 10
114.6548562415776
 20
-131.8720374670318
 30
0.0
 10
114.9848798442691
 20
-131.6805144115241
 30
0.0
 10
115.3927967783067
 20
-131.6805144115241
 30
0.0
 10
115.7993055266057
 20
-131.6805144115241
 30
0.0
 10
116.1293262039607
 20
-131.8720374670318
 30
0.0
 10
116.1293262039607
 20
-132.1083985780839
 30
0.0
  0
SPLINE
  5
69
330
41
100
AcDbEntity
  8
_U+30EC_U+30A4_U+30E4_U+30FC 1
 62
   179
420
  2234388
370
     9
100
AcDbSpline
210
0.0
220
0.0
230
1.0
 70
     8
 71
     3
 72
    11
 73
     7
 74
     0
 42
0.0000000001
 43
0.0000000001
 12
1.0
 22
0.0
 32
0.0
 13
1.0
 23
0.0
 33
0.0
 40
0.0
 40
0.0
 40
0.0
 40
0.0
 40
1.0
 40
1.0
 40
1.0
 40
2.0
 40
2.0
 40
2.0
 40
2.0
 10
114.7829851271976
 20
-132.3433485780255
 30
0.0
 10
114.7829851271976
 20
-132.3433485780255
 30
0.0
 10
114.7616420721866
 20
-131.8300216337091
 30
0.0
 10
115.5953617731388
 20
-131.8734485781429
 30
0.0
 10
115.5953617731388
 20
-131.8734485781429
 30
0.0
 10
116.0873103716993
 20
-131.9368074670158
 30
0.0
 10
116.0018675961014
 20
-132.3219702446973
 30
0.0
  0
SPLINE
  5
6A
330
41
100
AcDbEntity
  8
_U+30EC_U+30A4_U+30E4_U+30FC 1
 62
   179
420
  2234388
370
     9
100
AcDbSpline
210
0.0
220
0.0
230
1.0
 70
    11
 71
     3
 72
    17
 73
    13
 74
     0
 42
0.0000000001
 43
0.0000000001
 12
1.0
 22
0.0
 32
0.0
 13
1.0
 23
0.0
 33
0.0
 40
0.0
 40
0.0
 40
0.0
 40
0.0
 40
1.0
 40
1.0
 40
1.0
 40
2.0
 40
2.0
 40
2.0
 40
3.0
 40
3.0
 40
3.0
 40
4.0
 40
4.0
 40
4.0
 40
4.0
 10
115.8923300988959
 20
-131.0224780227998
 30
0.0
 10
115.8923300988959
 20
-131.2588391338519
 30
0.0
 10
115.5616009406668
 20
-131.4503621893597
 30
0.0
 10
115.1550598399274
 20
-131.4503621893597
 30
0.0
 10
114.7478484614274
 20
-131.4503621893597
 30
0.0
 10
114.4184951364966
 20
-131.2588391338519
 30
0.0
 10
114.4184951364966
 20
-131.0224780227998
 30
0.0
 10
114.4184951364966
 20
-130.7865049673031
 30
0.0
 10
114.7478484614274
 20
-130.5952994117955
 30
0.0
 10
115.1550598399274
 20
-130.5952994117955
 30
0.0
 10
115.5616009406668
 20
-130.5952994117955
 30
0.0
 10
115.8923300988959
 20
-130.7865049673031
 30
0.0
 10
115.8923300988959
 20
-131.0224780227998
 30
0.0
  0
SPLINE
  5
6B
330
41
100
AcDbEntity
  8
_U+30EC_U+30A4_U+30E4_U+30FC 1
 62
   179
420
  2234388
370
     9
100
AcDbSpline
210
0.0
220
0.0
230
1.0
 70
     8
 71
     3
 72
    11
 73
     7
 74
     0
 42
0.0000000001
 43
0.0000000001
 12
1.0
 22
0.0
 32
0.0
 13
1.0
 23
0.0
 33
0.0
 40
0.0
 40
0.0
 40
0.0
 40
0.0
 40
1.0
 40
1.0
 40
1.0
 40
2.0
 40
2.0
 40
2.0
 40
2.0
 10
114.5466592998935
 20
-131.2577808005186
 30
0.0
 10
114.5466592998935
 20
-131.2577808005186
 30
0.0
 10
114.5253162448824
 20
-130.7441363562032
 30
0.0
 10
115.3583333044938
 20
-130.7875280228589
 30
0.0
 10
115.3583333044938
 20
-130.7875280228589
 30
0.0
 10
115.8502789888576
 20
-130.8516277450647
 30
0.0
 10
115.764165935499
 20
-131.2367905227463
 30
0.0
  0
SPLINE
  5
6C
330
41
100
AcDbEntity
  8
_U+30EC_U+30A4_U+30E4_U+30FC 1
 62
   179
420
  2234388
370
     9
100
AcDbSpline
210
0.0
220
0.0
230
1.0
 70
    11
 71
     3
 72
    17
 73
    13
 74
     0
 42
0.0000000001
 43
0.0000000001
 12
1.0
 22
0.0
 32
0.0
 13
1.0
 23
0.0
 33
0.0
 40
0.0
 40
0.0
 40
0.0
 40
0.0
 40
1.0
 40
1.0
 40
1.0
 40
2.0
 40
2.0
 40
2.0
 40
3.0
 40
3.0
 40
3.0
 40
4.0
 40
4.0
 40
4.0
 40
4.0
 10
115.3493698349702
 20
-130.072694411926
 30
0.0
 10
115.3493698349702
 20
-130.3086674674227
 30
0.0
 10
115.0186406767411
 20
-130.5002258007081
 30
0.0
 10
114.6128051315393
 20
-130.5002258007081
 30
0.0
 10
114.2049234752786
 20
-130.5002258007081
 30
0.0
 10
113.8755701503477
 20
-130.3086674674227
 30
0.0
 10
113.8755701503477
 20
-130.072694411926
 30
0.0
 10
113.8755701503477
 20
-129.8366860786517
 30
0.0
 10
114.2049234752786
 20
-129.6454805231441
 30
0.0
 10
114.6128051315393
 20
-129.6454805231441
 30
0.0
 10
115.0186406767411
 20
-129.6454805231441
 30
0.0
 10
115.3493698349702
 20
-129.8366860786517
 30
0.0
 10
115.3493698349702
 20
-130.072694411926
 30
0.0
  0
SPLINE
  5
6D
330
41
100
AcDbEntity
  8
_U+30EC_U+30A4_U+30E4_U+30FC 1
 62
   179
420
  2234388
370
     9
100
AcDbSpline
210
0.0
220
0.0
230
1.0
 70
     8
 71
     3
 72
    11
 73
     7
 74
     0
 42
0.0000000001
 43
0.0000000001
 12
1.0
 22
0.0
 32
0.0
 13
1.0
 23
0.0
 33
0.0
 40
0.0
 40
0.0
 40
0.0
 40
0.0
 40
1.0
 40
1.0
 40
1.0
 40
2.0
 40
2.0
 40
2.0
 40
2.0
 10
114.0037343137447
 20
-130.3079971896454
 30
0.0
 10
114.0037343137447
 20
-130.3079971896454
 30
0.0
 10
113.9823559809567
 20
-129.7946702453289
 30
0.0
 10
114.8153701263714
 20
-129.8380619119852
 30
0.0
 10
114.8153701263714
 20
-129.8380619119852
 30
0.0
 10
115.3066484471712
 20
-129.9014560786356
 30
0.0
 10
115.2212056715733
 20
-130.2866188563171
 30
0.0
  0
SPLINE
  5
6E
330
41
100
AcDbEntity
  8
_U+30EC_U+30A4_U+30E4_U+30FC 1
 62
   179
420
  2234388
370
     9
100
AcDbSpline
210
0.0
220
0.0
230
1.0
 70
    11
 71
     3
 72
    17
 73
    13
 74
     0
 42
0.0000000001
 43
0.0000000001
 12
1.0
 22
0.0
 32
0.0
 13
1.0
 23
0.0
 33
0.0
 40
0.0
 40
0.0
 40
0.0
 40
0.0
 40
1.0
 40
1.0
 40
1.0
 40
2.0
 40
2.0
 40
2.0
 40
3.0
 40
3.0
 40
3.0
 40
4.0
 40
4.0
 40
4.0
 40
4.0
 10
125.7308081812287
 20
-134.8224238551835
 30
0.0
 10
125.7308081812287
 20
-135.0587849662355
 30
0.0
 10
125.4000790229997
 20
-135.2503080217427
 30
0.0
 10
124.9942787555747
 20
-135.2503080217427
 30
0.0
 10
124.5863618215371
 20
-135.2503080217427
 30
0.0
 10
124.2570084966063
 20
-135.0587849662355
 30
0.0
 10
124.2570084966063
 20
-134.8224238551835
 30
0.0
 10
124.2570084966063
 20
-134.5868035774645
 30
0.0
 10
124.5863618215371
 20
-134.3952452441791
 30
0.0
 10
124.9942787555747
 20
-134.3952452441791
 30
0.0
 10
125.4000790229997
 20
-134.3952452441791
 30
0.0
 10
125.7308081812287
 20
-134.5868035774645
 30
0.0
 10
125.7308081812287
 20
-134.8224238551835
 30
0.0
  0
SPLINE
  5
6F
330
41
100
AcDbEntity
  8
_U+30EC_U+30A4_U+30E4_U+30FC 1
 62
   179
420
  2234388
370
     9
100
AcDbSpline
210
0.0
220
0.0
230
1.0
 70
     8
 71
     3
 72
    11
 73
     7
 74
     0
 42
0.0000000001
 43
0.0000000001
 12
1.0
 22
0.0
 32
0.0
 13
1.0
 23
0.0
 33
0.0
 40
0.0
 40
0.0
 40
0.0
 40
0.0
 40
1.0
 40
1.0
 40
1.0
 40
2.0
 40
2.0
 40
2.0
 40
2.0
 10
124.3844671044657
 20
-135.0573738551245
 30
0.0
 10
124.3844671044657
 20
-135.0573738551245
 30
0.0
 10
124.3631240494546
 20
-134.5443996885864
 30
0.0
 10
125.1968437504069
 20
-134.5881794107974
 30
0.0
 10
125.1968437504069
 20
-134.5881794107974
 30
0.0
 10
125.6881220712066
 20
-134.6515735774484
 30
0.0
 10
125.6026792956087
 20
-135.0360307995744
 30
0.0
  0
SPLINE
  5
70
330
41
100
AcDbEntity
  8
_U+30EC_U+30A4_U+30E4_U+30FC 1
 62
   179
420
  2234388
370
     9
100
AcDbSpline
210
0.0
220
0.0
230
1.0
 70
    11
 71
     3
 72
    17
 73
    13
 74
     0
 42
0.0000000001
 43
0.0000000001
 12
1.0
 22
0.0
 32
0.0
 13
1.0
 23
0.0
 33
0.0
 40
0.0
 40
0.0
 40
0.0
 40
0.0
 40
1.0
 40
1.0
 40
1.0
 40
2.0
 40
2.0
 40
2.0
 40
3.0
 40
3.0
 40
3.0
 40
4.0
 40
4.0
 40
4.0
 40
4.0
 10
125.7308081812287
 20
-136.1456932992972
 30
0.0
 10
125.7308081812287
 20
-136.3817016325714
 30
0.0
 10
125.4000790229997
 20
-136.5732246880786
 30
0.0
 10
124.9942787555747
 20
-136.5732246880786
 30
0.0
 10
124.5863618215371
 20
-136.5732246880786
 30
0.0
 10
124.2570084966063
 20
-136.3817016325714
 30
0.0
 10
124.2570084966063
 20
-136.1456932992972
 30
0.0
 10
124.2570084966063
 20
-135.9097202438004
 30
0.0
 10
124.5863618215371
 20
-135.7181619105151
 30
0.0
 10
124.9942787555747
 20
-135.7181619105151
 30
0.0
 10
125.4000790229997
 20
-135.7181619105151
 30
0.0
 10
125.7308081812287
 20
-135.9097202438004
 30
0.0
 10
125.7308081812287
 20
-136.1456932992972
 30
0.0
  0
SPLINE
  5
71
330
41
100
AcDbEntity
  8
_U+30EC_U+30A4_U+30E4_U+30FC 1
 62
   179
420
  2234388
370
     9
100
AcDbSpline
210
0.0
220
0.0
230
1.0
 70
     8
 71
     3
 72
    11
 73
     7
 74
     0
 42
0.0000000001
 43
0.0000000001
 12
1.0
 22
0.0
 32
0.0
 13
1.0
 23
0.0
 33
0.0
 40
0.0
 40
0.0
 40
0.0
 40
0.0
 40
1.0
 40
1.0
 40
1.0
 40
2.0
 40
2.0
 40
2.0
 40
2.0
 10
124.3844671044657
 20
-136.3806432992382
 30
0.0
 10
124.3844671044657
 20
-136.3806432992382
 30
0.0
 10
124.3631240494546
 20
-135.8676691326994
 30
0.0
 10
125.1968437504069
 20
-135.9110960771333
 30
0.0
 10
125.1968437504069
 20
-135.9110960771333
 30
0.0
 10
125.6881220712066
 20
-135.9744902437843
 30
0.0
 10
125.6026792956087
 20
-136.3596530214658
 30
0.0
  0
SPLINE
  5
72
330
41
100
AcDbEntity
  8
_U+30EC_U+30A4_U+30E4_U+30FC 1
 62
   179
420
  2234388
370
     9
100
AcDbSpline
210
0.0
220
0.0
230
1.0
 70
    11
 71
     3
 72
    17
 73
    13
 74
     0
 42
0.0000000001
 43
0.0000000001
 12
1.0
 22
0.0
 32
0.0
 13
1.0
 23
0.0
 33
0.0
 40
0.0
 40
0.0
 40
0.0
 40
0.0
 40
1.0
 40
1.0
 40
1.0
 40
2.0
 40
2.0
 40
2.0
 40
3.0
 40
3.0
 40
3.0
 40
4.0
 40
4.0
 40
4.0
 40
4.0
 10
125.7308081812287
 20
-133.6014952443776
 30
0.0
 10
125.7308081812287
 20
-133.8378210776515
 30
0.0
 10
125.4000790229997
 20
-134.0286738553819
 30
0.0
 10
124.9942787555747
 20
-134.0286738553819
 30
0.0
 10
124.5863618215371
 20
-134.0286738553819
 30
0.0
 10
124.2570084966063
 20
-133.8378210776515
 30
0.0
 10
124.2570084966063
 20
-133.6014952443776
 30
0.0
 10
124.2570084966063
 20
-133.365169411103
 30
0.0
 10
124.5863618215371
 20
-133.1743166333732
 30
0.0
 10
124.9942787555747
 20
-133.1743166333732
 30
0.0
 10
125.4000790229997
 20
-133.1743166333732
 30
0.0
 10
125.7308081812287
 20
-133.365169411103
 30
0.0
 10
125.7308081812287
 20
-133.6014952443776
 30
0.0
  0
SPLINE
  5
73
330
41
100
AcDbEntity
  8
_U+30EC_U+30A4_U+30E4_U+30FC 1
 62
   179
420
  2234388
370
     9
100
AcDbSpline
210
0.0
220
0.0
230
1.0
 70
     8
 71
     3
 72
    11
 73
     7
 74
     0
 42
0.0000000001
 43
0.0000000001
 12
1.0
 22
0.0
 32
0.0
 13
1.0
 23
0.0
 33
0.0
 40
0.0
 40
0.0
 40
0.0
 40
0.0
 40
1.0
 40
1.0
 40
1.0
 40
2.0
 40
2.0
 40
2.0
 40
2.0
 10
124.3844671044657
 20
-133.8364452443186
 30
0.0
 10
124.3844671044657
 20
-133.8364452443186
 30
0.0
 10
124.3631240494546
 20
-133.3231183000027
 30
0.0
 10
125.1968437504069
 20
-133.3665452444359
 30
0.0
 10
125.1968437504069
 20
-133.3665452444359
 30
0.0
 10
125.6881220712066
 20
-133.4302569110872
 30
0.0
 10
125.6026792956087
 20
-133.8151021887685
 30
0.0
  0
SPLINE
  5
74
330
41
100
AcDbEntity
  8
_U+30EC_U+30A4_U+30E4_U+30FC 1
 62
   179
420
  2234388
370
     9
100
AcDbSpline
210
0.0
220
0.0
230
1.0
 70
    11
 71
     3
 72
    17
 73
    13
 74
     0
 42
0.0000000001
 43
0.0000000001
 12
1.0
 22
0.0
 32
0.0
 13
1.0
 23
0.0
 33
0.0
 40
0.0
 40
0.0
 40
0.0
 40
0.0
 40
1.0
 40
1.0
 40
1.0
 40
2.0
 40
2.0
 40
2.0
 40
3.0
 40
3.0
 40
3.0
 40
4.0
 40
4.0
 40
4.0
 40
4.0
 10
127.9529200689824
 20
-133.9921613553906
 30
0.0
 10
127.9529200689824
 20
-134.2278169108878
 30
0.0
 10
127.6221909107533
 20
-134.4190224663954
 30
0.0
 10
127.2156498100139
 20
-134.4190224663954
 30
0.0
 10
126.8084416349647
 20
-134.4190224663954
 30
0.0
 10
126.4784148288224
 20
-134.2278169108878
 30
0.0
 10
126.4784148288224
 20
-133.9921613553906
 30
0.0
 10
126.4784148288224
 20
-133.7551299665612
 30
0.0
 10
126.8084416349647
 20
-133.5642771888314
 30
0.0
 10
127.2156498100139
 20
-133.5642771888314
 30
0.0
 10
127.6221909107533
 20
-133.5642771888314
 30
0.0
 10
127.9529200689824
 20
-133.7551299665612
 30
0.0
 10
127.9529200689824
 20
-133.9921613553906
 30
0.0
  0
SPLINE
  5
75
330
41
100
AcDbEntity
  8
_U+30EC_U+30A4_U+30E4_U+30FC 1
 62
   179
420
  2234388
370
     9
100
AcDbSpline
210
0.0
220
0.0
230
1.0
 70
     8
 71
     3
 72
    11
 73
     7
 74
     0
 42
0.0000000001
 43
0.0000000001
 12
1.0
 22
0.0
 32
0.0
 13
1.0
 23
0.0
 33
0.0
 40
0.0
 40
0.0
 40
0.0
 40
0.0
 40
1.0
 40
1.0
 40
1.0
 40
2.0
 40
2.0
 40
2.0
 40
2.0
 10
126.6065789922193
 20
-134.2264410775543
 30
0.0
 10
126.6065789922193
 20
-134.2264410775543
 30
0.0
 10
126.5852006594314
 20
-133.7134669110162
 30
0.0
 10
127.4189203603836
 20
-133.7565057998941
 30
0.0
 10
127.4189203603836
 20
-133.7565057998941
 30
0.0
 10
127.9101986811834
 20
-133.8206055221007
 30
0.0
 10
127.8247559055855
 20
-134.2057682997822
 30
0.0
  0
SPLINE
  5
76
330
41
100
AcDbEntity
  8
_U+30EC_U+30A4_U+30E4_U+30FC 1
 62
   179
420
  2234388
370
     9
100
AcDbSpline
210
0.0
220
0.0
230
1.0
 70
    11
 71
     3
 72
    17
 73
    13
 74
     0
 42
0.0000000001
 43
0.0000000001
 12
1.0
 22
0.0
 32
0.0
 13
1.0
 23
0.0
 33
0.0
 40
0.0
 40
0.0
 40
0.0
 40
0.0
 40
1.0
 40
1.0
 40
1.0
 40
2.0
 40
2.0
 40
2.0
 40
3.0
 40
3.0
 40
3.0
 40
4.0
 40
4.0
 40
4.0
 40
4.0
 10
127.9529200689824
 20
-135.3150780217266
 30
0.0
 10
127.9529200689824
 20
-135.5507335772238
 30
0.0
 10
127.6221909107533
 20
-135.7422919105091
 30
0.0
 10
127.2156498100139
 20
-135.7422919105091
 30
0.0
 10
126.8084416349647
 20
-135.7422919105091
 30
0.0
 10
126.4784148288224
 20
-135.5507335772238
 30
0.0
 10
126.4784148288224
 20
-135.3150780217266
 30
0.0
 10
126.4784148288224
 20
-135.0787521884527
 30
0.0
 10
126.8084416349647
 20
-134.8871938551674
 30
0.0
 10
127.2156498100139
 20
-134.8871938551674
 30
0.0
 10
127.6221909107533
 20
-134.8871938551674
 30
0.0
 10
127.9529200689824
 20
-135.0787521884527
 30
0.0
 10
127.9529200689824
 20
-135.3150780217266
 30
0.0
  0
SPLINE
  5
77
330
41
100
AcDbEntity
  8
_U+30EC_U+30A4_U+30E4_U+30FC 1
 62
   179
420
  2234388
370
     9
100
AcDbSpline
210
0.0
220
0.0
230
1.0
 70
     8
 71
     3
 72
    11
 73
     7
 74
     0
 42
0.0000000001
 43
0.0000000001
 12
1.0
 22
0.0
 32
0.0
 13
1.0
 23
0.0
 33
0.0
 40
0.0
 40
0.0
 40
0.0
 40
0.0
 40
1.0
 40
1.0
 40
1.0
 40
2.0
 40
2.0
 40
2.0
 40
2.0
 10
126.6065789922193
 20
-135.549710521668
 30
0.0
 10
126.6065789922193
 20
-135.549710521668
 30
0.0
 10
126.5852006594314
 20
-135.0360307995744
 30
0.0
 10
127.4189203603836
 20
-135.0797752440078
 30
0.0
 10
127.4189203603836
 20
-135.0797752440078
 30
0.0
 10
127.9101986811834
 20
-135.1435221884366
 30
0.0
 10
127.8247559055855
 20
-135.5286849661181
 30
0.0
  0
SPLINE
  5
78
330
41
100
AcDbEntity
  8
_U+30EC_U+30A4_U+30E4_U+30FC 1
 62
   179
420
  2234388
370
     9
100
AcDbSpline
210
0.0
220
0.0
230
1.0
 70
    11
 71
     3
 72
    17
 73
    13
 74
     0
 42
0.0000000001
 43
0.0000000001
 12
1.0
 22
0.0
 32
0.0
 13
1.0
 23
0.0
 33
0.0
 40
0.0
 40
0.0
 40
0.0
 40
0.0
 40
1.0
 40
1.0
 40
1.0
 40
2.0
 40
2.0
 40
2.0
 40
3.0
 40
3.0
 40
3.0
 40
4.0
 40
4.0
 40
4.0
 40
4.0
 10
127.9529200689824
 20
-132.7705271890299
 30
0.0
 10
127.9529200689824
 20
-133.0061827445264
 30
0.0
 10
127.6221909107533
 20
-133.1977410778117
 30
0.0
 10
127.2156498100139
 20
-133.1977410778117
 30
0.0
 10
126.8084416349647
 20
-133.1977410778117
 30
0.0
 10
126.4784148288224
 20
-133.0061827445264
 30
0.0
 10
126.4784148288224
 20
-132.7705271890299
 30
0.0
 10
126.4784148288224
 20
-132.5345541335331
 30
0.0
 10
126.8084416349647
 20
-132.34264302247
 30
0.0
 10
127.2156498100139
 20
-132.34264302247
 30
0.0
 10
127.6221909107533
 20
-132.34264302247
 30
0.0
 10
127.9529200689824
 20
-132.5345541335331
 30
0.0
 10
127.9529200689824
 20
-132.7705271890299
 30
0.0
  0
SPLINE
  5
79
330
41
100
AcDbEntity
  8
_U+30EC_U+30A4_U+30E4_U+30FC 1
 62
   179
420
  2234388
370
     9
100
AcDbSpline
210
0.0
220
0.0
230
1.0
 70
     8
 71
     3
 72
    11
 73
     7
 74
     0
 42
0.0000000001
 43
0.0000000001
 12
1.0
 22
0.0
 32
0.0
 13
1.0
 23
0.0
 33
0.0
 40
0.0
 40
0.0
 40
0.0
 40
0.0
 40
1.0
 40
1.0
 40
1.0
 40
2.0
 40
2.0
 40
2.0
 40
2.0
 10
126.6065789922193
 20
-133.0054771889709
 30
0.0
 10
126.6065789922193
 20
-133.0054771889709
 30
0.0
 10
126.5852006594314
 20
-132.4921855224325
 30
0.0
 10
127.4189203603836
 20
-132.5352244113105
 30
0.0
 10
127.4189203603836
 20
-132.5352244113105
 30
0.0
 10
127.9101986811834
 20
-132.5989713557393
 30
0.0
 10
127.8247559055855
 20
-132.9841341334208
 30
0.0
  0
SPLINE
  5
7A
330
41
100
AcDbEntity
  8
_U+30EC_U+30A4_U+30E4_U+30FC 1
 62
   179
420
  2234388
370
     9
100
AcDbSpline
210
0.0
220
0.0
230
1.0
 70
    11
 71
     3
 72
    17
 73
    13
 74
     0
 42
0.0000000001
 43
0.0000000001
 12
1.0
 22
0.0
 32
0.0
 13
1.0
 23
0.0
 33
0.0
 40
0.0
 40
0.0
 40
0.0
 40
0.0
 40
1.0
 40
1.0
 40
1.0
 40
2.0
 40
2.0
 40
2.0
 40
3.0
 40
3.0
 40
3.0
 40
4.0
 40
4.0
 40
4.0
 40
4.0
 10
130.4120280618009
 20
-133.0585349667356
 30
0.0
 10
130.4120280618009
 20
-133.2948960777876
 30
0.0
 10
130.0819691813325
 20
-133.4864191332948
 30
0.0
 10
129.6754666342481
 20
-133.4864191332948
 30
0.0
 10
129.2682519798699
 20
-133.4864191332948
 30
0.0
 10
128.9375228216409
 20
-133.2948960777876
 30
0.0
 10
128.9375228216409
 20
-133.0585349667356
 30
0.0
 10
128.9375228216409
 20
-132.8229146890165
 30
0.0
 10
129.2682519798699
 20
-132.6310035779535
 30
0.0
 10
129.6754666342481
 20
-132.6310035779535
 30
0.0
 10
130.0819691813325
 20
-132.6310035779535
 30
0.0
 10
130.4120280618009
 20
-132.8229146890165
 30
0.0
 10
130.4120280618009
 20
-133.0585349667356
 30
0.0
  0
SPLINE
  5
7B
330
41
100
AcDbEntity
  8
_U+30EC_U+30A4_U+30E4_U+30FC 1
 62
   179
420
  2234388
370
     9
100
AcDbSpline
210
0.0
220
0.0
230
1.0
 70
     8
 71
     3
 72
    11
 73
     7
 74
     0
 42
0.0000000001
 43
0.0000000001
 12
1.0
 22
0.0
 32
0.0
 13
1.0
 23
0.0
 33
0.0
 40
0.0
 40
0.0
 40
0.0
 40
0.0
 40
1.0
 40
1.0
 40
1.0
 40
2.0
 40
2.0
 40
2.0
 40
2.0
 10
129.0663572627984
 20
-133.2934849666765
 30
0.0
 10
129.0663572627984
 20
-133.2934849666765
 30
0.0
 10
129.0450142077874
 20
-132.7801933001382
 30
0.0
 10
129.8773580754414
 20
-132.8235849667939
 30
0.0
 10
129.8773580754414
 20
-132.8235849667939
 30
0.0
 10
130.3693066740019
 20
-132.8873319112227
 30
0.0
 10
130.2845341761646
 20
-133.2724946889042
 30
0.0
  0
SPLINE
  5
7C
330
41
100
AcDbEntity
  8
_U+30EC_U+30A4_U+30E4_U+30FC 1
 62
   179
420
  2234388
370
     9
100
AcDbSpline
210
0.0
220
0.0
230
1.0
 70
    11
 71
     3
 72
    17
 73
    13
 74
     0
 42
0.0000000001
 43
0.0000000001
 12
1.0
 22
0.0
 32
0.0
 13
1.0
 23
0.0
 33
0.0
 40
0.0
 40
0.0
 40
0.0
 40
0.0
 40
1.0
 40
1.0
 40
1.0
 40
2.0
 40
2.0
 40
2.0
 40
3.0
 40
3.0
 40
3.0
 40
4.0
 40
4.0
 40
4.0
 40
4.0
 10
130.4120280618009
 20
-134.3814516330715
 30
0.0
 10
130.4120280618009
 20
-134.6181302441231
 30
0.0
 10
130.0819691813325
 20
-134.8093357996307
 30
0.0
 10
129.6754666342481
 20
-134.8093357996307
 30
0.0
 10
129.2682519798699
 20
-134.8093357996307
 30
0.0
 10
128.9375228216409
 20
-134.6181302441231
 30
0.0
 10
128.9375228216409
 20
-134.3814516330715
 30
0.0
 10
128.9375228216409
 20
-134.1458313553525
 30
0.0
 10
129.2682519798699
 20
-133.9542730220672
 30
0.0
 10
129.6754666342481
 20
-133.9542730220672
 30
0.0
 10
130.0819691813325
 20
-133.9542730220672
 30
0.0
 10
130.4120280618009
 20
-134.1458313553525
 30
0.0
 10
130.4120280618009
 20
-134.3814516330715
 30
0.0
  0
SPLINE
  5
7D
330
41
100
AcDbEntity
  8
_U+30EC_U+30A4_U+30E4_U+30FC 1
 62
   179
420
  2234388
370
     9
100
AcDbSpline
210
0.0
220
0.0
230
1.0
 70
     8
 71
     3
 72
    11
 73
     7
 74
     0
 42
0.0000000001
 43
0.0000000001
 12
1.0
 22
0.0
 32
0.0
 13
1.0
 23
0.0
 33
0.0
 40
0.0
 40
0.0
 40
0.0
 40
0.0
 40
1.0
 40
1.0
 40
1.0
 40
2.0
 40
2.0
 40
2.0
 40
2.0
 10
129.0663572627984
 20
-134.6167544107902
 30
0.0
 10
129.0663572627984
 20
-134.6167544107902
 30
0.0
 10
129.0450142077874
 20
-134.1031099664742
 30
0.0
 10
129.8773580754414
 20
-134.1465016331298
 30
0.0
 10
129.8773580754414
 20
-134.1465016331298
 30
0.0
 10
130.3693066740019
 20
-134.2106013553364
 30
0.0
 10
130.2845341761646
 20
-134.5957641330179
 30
0.0
  0
SPLINE
  5
7E
330
41
100
AcDbEntity
  8
_U+30EC_U+30A4_U+30E4_U+30FC 1
 62
   179
420
  2234388
370
     9
100
AcDbSpline
210
0.0
220
0.0
230
1.0
 70
    11
 71
     3
 72
    17
 73
    13
 74
     0
 42
0.0000000001
 43
0.0000000001
 12
1.0
 22
0.0
 32
0.0
 13
1.0
 23
0.0
 33
0.0
 40
0.0
 40
0.0
 40
0.0
 40
0.0
 40
1.0
 40
1.0
 40
1.0
 40
2.0
 40
2.0
 40
2.0
 40
3.0
 40
3.0
 40
3.0
 40
4.0
 40
4.0
 40
4.0
 40
4.0
 10
130.4120280618009
 20
-131.8372535781519
 30
0.0
 10
130.4120280618009
 20
-132.0732619114262
 30
0.0
 10
130.0819691813325
 20
-132.264784966934
 30
0.0
 10
129.6754666342481
 20
-132.264784966934
 30
0.0
 10
129.2682519798699
 20
-132.264784966934
 30
0.0
 10
128.9375228216409
 20
-132.0732619114262
 30
0.0
 10
128.9375228216409
 20
-131.8372535781519
 30
0.0
 10
128.9375228216409
 20
-131.6012805226551
 30
0.0
 10
129.2682519798699
 20
-131.4097221893698
 30
0.0
 10
129.6754666342481
 20
-131.4097221893698
 30
0.0
 10
130.0819691813325
 20
-131.4097221893698
 30
0.0
 10
130.4120280618009
 20
-131.6012805226551
 30
0.0
 10
130.4120280618009
 20
-131.8372535781519
 30
0.0
  0
SPLINE
  5
7F
330
41
100
AcDbEntity
  8
_U+30EC_U+30A4_U+30E4_U+30FC 1
 62
   179
420
  2234388
370
     9
100
AcDbSpline
210
0.0
220
0.0
230
1.0
 70
     8
 71
     3
 72
    11
 73
     7
 74
     0
 42
0.0000000001
 43
0.0000000001
 12
1.0
 22
0.0
 32
0.0
 13
1.0
 23
0.0
 33
0.0
 40
0.0
 40
0.0
 40
0.0
 40
0.0
 40
1.0
 40
1.0
 40
1.0
 40
2.0
 40
2.0
 40
2.0
 40
2.0
 10
129.0663572627984
 20
-132.0725563558707
 30
0.0
 10
129.0663572627984
 20
-132.0725563558707
 30
0.0
 10
129.0450142077874
 20
-131.5592294115548
 30
0.0
 10
129.8773580754414
 20
-131.6023035782102
 30
0.0
 10
129.8773580754414
 20
-131.6023035782102
 30
0.0
 10
130.3693066740019
 20
-131.6663680226393
 30
0.0
 10
130.2845341761646
 20
-132.0512133003206
 30
0.0
  0
SPLINE
  5
80
330
41
100
AcDbEntity
  8
_U+30EC_U+30A4_U+30E4_U+30FC 1
 62
   179
420
  2234388
370
     9
100
AcDbSpline
210
0.0
220
0.0
230
1.0
 70
    11
 71
     3
 72
    17
 73
    13
 74
     0
 42
0.0000000001
 43
0.0000000001
 12
1.0
 22
0.0
 32
0.0
 13
1.0
 23
0.0
 33
0.0
 40
0.0
 40
0.0
 40
0.0
 40
0.0
 40
1.0
 40
1.0
 40
1.0
 40
2.0
 40
2.0
 40
2.0
 40
3.0
 40
3.0
 40
3.0
 40
4.0
 40
4.0
 40
4.0
 40
4.0
 10
132.7870691123196
 20
-133.6014952443776
 30
0.0
 10
132.7870691123196
 20
-133.8378210776515
 30
0.0
 10
132.4563399540906
 20
-134.0286738553819
 30
0.0
 10
132.0498341311281
 20
-134.0286738553819
 30
0.0
 10
131.642622752628
 20
-134.0286738553819
 30
0.0
 10
131.3125638721596
 20
-133.8378210776515
 30
0.0
 10
131.3125638721596
 20
-133.6014952443776
 30
0.0
 10
131.3125638721596
 20
-133.365169411103
 30
0.0
 10
131.642622752628
 20
-133.1743166333732
 30
0.0
 10
132.0498341311281
 20
-133.1743166333732
 30
0.0
 10
132.4563399540906
 20
-133.1743166333732
 30
0.0
 10
132.7870691123196
 20
-133.365169411103
 30
0.0
 10
132.7870691123196
 20
-133.6014952443776
 30
0.0
  0
SPLINE
  5
81
330
41
100
AcDbEntity
  8
_U+30EC_U+30A4_U+30E4_U+30FC 1
 62
   179
420
  2234388
370
     9
100
AcDbSpline
210
0.0
220
0.0
230
1.0
 70
     8
 71
     3
 72
    11
 73
     7
 74
     0
 42
0.0000000001
 43
0.0000000001
 12
1.0
 22
0.0
 32
0.0
 13
1.0
 23
0.0
 33
0.0
 40
0.0
 40
0.0
 40
0.0
 40
0.0
 40
1.0
 40
1.0
 40
1.0
 40
2.0
 40
2.0
 40
2.0
 40
2.0
 10
131.4407280355566
 20
-133.8364452443186
 30
0.0
 10
131.4407280355566
 20
-133.8364452443186
 30
0.0
 10
131.4193497027686
 20
-133.3231183000027
 30
0.0
 10
132.2530694037209
 20
-133.3665452444359
 30
0.0
 10
132.2530694037209
 20
-133.3665452444359
 30
0.0
 10
132.7443477245207
 20
-133.4302569110872
 30
0.0
 10
132.658234671162
 20
-133.8151021887685
 30
0.0
  0
SPLINE
  5
82
330
41
100
AcDbEntity
  8
_U+30EC_U+30A4_U+30E4_U+30FC 1
 62
   179
420
  2234388
370
     9
100
AcDbSpline
210
0.0
220
0.0
230
1.0
 70
    11
 71
     3
 72
    17
 73
    13
 74
     0
 42
0.0000000001
 43
0.0000000001
 12
1.0
 22
0.0
 32
0.0
 13
1.0
 23
0.0
 33
0.0
 40
0.0
 40
0.0
 40
0.0
 40
0.0
 40
1.0
 40
1.0
 40
1.0
 40
2.0
 40
2.0
 40
2.0
 40
3.0
 40
3.0
 40
3.0
 40
4.0
 40
4.0
 40
4.0
 40
4.0
 10
132.7870691123196
 20
-132.3805666335717
 30
0.0
 10
132.7870691123196
 20
-132.6161869112907
 30
0.0
 10
132.4563399540906
 20
-132.807745244576
 30
0.0
 10
132.0498341311281
 20
-132.807745244576
 30
0.0
 10
131.642622752628
 20
-132.807745244576
 30
0.0
 10
131.3125638721596
 20
-132.6161869112907
 30
0.0
 10
131.3125638721596
 20
-132.3805666335717
 30
0.0
 10
131.3125638721596
 20
-132.1442055225196
 30
0.0
 10
131.642622752628
 20
-131.9526824670118
 30
0.0
 10
132.0498341311281
 20
-131.9526824670118
 30
0.0
 10
132.4563399540906
 20
-131.9526824670118
 30
0.0
 10
132.7870691123196
 20
-132.1442055225196
 30
0.0
 10
132.7870691123196
 20
-132.3805666335717
 30
0.0
  0
SPLINE
  5
83
330
41
100
AcDbEntity
  8
_U+30EC_U+30A4_U+30E4_U+30FC 1
 62
   179
420
  2234388
370
     9
100
AcDbSpline
210
0.0
220
0.0
230
1.0
 70
     8
 71
     3
 72
    11
 73
     7
 74
     0
 42
0.0000000001
 43
0.0000000001
 12
1.0
 22
0.0
 32
0.0
 13
1.0
 23
0.0
 33
0.0
 40
0.0
 40
0.0
 40
0.0
 40
0.0
 40
1.0
 40
1.0
 40
1.0
 40
2.0
 40
2.0
 40
2.0
 40
2.0
 10
131.4407280355566
 20
-132.6148110779571
 30
0.0
 10
131.4407280355566
 20
-132.6148110779571
 30
0.0
 10
131.4193497027686
 20
-132.1014841336413
 30
0.0
 10
132.2530694037209
 20
-132.1449110780752
 30
0.0
 10
132.2530694037209
 20
-132.1449110780752
 30
0.0
 10
132.7443477245207
 20
-132.2089755225036
 30
0.0
 10
132.658234671162
 20
-132.5937855224073
 30
0.0
  0
ENDBLK
  5
44
330
41
100
AcDbEntity
  8
0
100
AcDbBlockEnd
  0
BLOCK
  5
21D
330
21B
100
AcDbEntity
  8
0
100
AcDbBlockBegin
  2
block 3
 70
     0
 10
0.0
 20
0.0
 30
0.0
  3
block 3
  1

  0
SPLINE
  5
21F
330
21B
100
AcDbEntity
  8
_U+30EC_U+30A4_U+30E4_U+30FC 1
370
     0
100
AcDbSpline
210
0.0
220
0.0
230
1.0
 70
    11
 71
     3
 72
    44
 73
    40
 74
     0
 42
0.0000000001
 43
0.0000000001
 12
1.0
 22
0.0
 32
0.0
 13
1.0
 23
0.0
 33
0.0
 40
0.0
 40
0.0
 40
0.0
 40
0.0
 40
1.0
 40
1.0
 40
1.0
 40
2.0
 40
2.0
 40
2.0
 40
3.0
 40
3.0
 40
3.0
 40
4.0
 40
4.0
 40
4.0
 40
5.0
 40
5.0
 40
5.0
 40
6.0
 40
6.0
 40
6.0
 40
7.0
 40
7.0
 40
7.0
 40
8.0
 40
8.0
 40
8.0
 40
9.0
 40
9.0
 40
9.0
 40
10.0
 40
10.0
 40
10.0
 40
11.0
 40
11.0
 40
11.0
 40
12.0
 40
12.0
 40
12.0
 40
13.0
 40
13.0
 40
13.0
 40
13.0
 10
64.81878253587864
 20
-119.6328355278175
 30
0.0
 10
64.60088024643659
 20
-119.7914821749132
 30
0.0
 10
64.50769041356058
 20
-119.8655517278461
 30
0.0
 10
64.45911456721856
 20
-120.0093844643553
 30
0.0
 10
64.45911456721856
 20
-120.0093844643553
 30
0.0
 10
65.23753389211076
 20
-120.0093844643553
 30
0.0
 10
65.23753389211076
 20
-120.0093844643553
 30
0.0
 10
65.23753389211076
 20
-120.0093844643553
 30
0.0
 10
65.23753389211076
 20
-120.2145399005019
 30
0.0
 10
65.23753389211076
 20
-120.2145399005019
 30
0.0
 10
65.23753389211076
 20
-120.2145399005019
 30
0.0
 10
64.2095173993122
 20
-120.2145399005019
 30
0.0
 10
64.2095173993122
 20
-120.2145399005019
 30
0.0
 10
64.24121227777651
 20
-119.856938989133
 30
0.0
 10
64.30666909199626
 20
-119.7787353216178
 30
0.0
 10
64.69183076724718
 20
-119.4803900525952
 30
0.0
 10
64.94780136180125
 20
-119.2816080430963
 30
0.0
 10
65.013258176021
 20
-119.2139119168111
 30
0.0
 10
65.013258176021
 20
-119.0764526069496
 30
0.0
 10
65.013258176021
 20
-118.957941322257
 30
0.0
 10
64.94142793515354
 20
-118.8268554390433
 30
0.0
 10
64.74471298294577
 20
-118.8268554390433
 30
0.0
 10
64.48443601903514
 20
-118.8268554390433
 30
0.0
 10
64.47599553509629
 20
-119.0573323270065
 30
0.0
 10
64.47168916573972
 20
-119.173776554408
 30
0.0
 10
64.47168916573972
 20
-119.173776554408
 30
0.0
 10
64.24758570442422
 20
-119.173776554408
 30
0.0
 10
64.24758570442422
 20
-119.173776554408
 30
0.0
 10
64.25602618836308
 20
-119.0468247857765
 30
0.0
 10
64.26653372959309
 20
-118.9346869277316
 30
0.0
 10
64.34697670917367
 20
-118.816175643039
 30
0.0
 10
64.45687525515315
 20
-118.6554619386521
 30
0.0
 10
64.6430826661309
 20
-118.6215277481224
 30
0.0
 10
64.75952689353234
 20
-118.6215277481224
 30
0.0
 10
65.03668482532069
 20
-118.6215277481224
 30
0.0
 10
65.24390731875847
 20
-118.805668101809
 30
0.0
 10
65.24390731875847
 20
-119.0785196642408
 30
0.0
 10
65.24390731875847
 20
-119.3069294949129
 30
0.0
 10
65.12763534613129
 20
-119.4064927544366
 30
0.0
 10
64.81878253587864
 20
-119.6328355278175
 30
0.0
  0
HATCH
  5
220
330
21B
100
AcDbEntity
  8
_U+30EC_U+30A4_U+30E4_U+30FC 1
 62
   179
420
  2234388
100
AcDbHatch
 10
0.0
 20
0.0
 30
0.0
210
0.0
220
0.0
230
1.0
  2
SOLID
 70
     1
 71
     0
 91
        1
 92
        1
 93
        1
 72
     4
 94
        3
 73
     0
 74
     1
 95
       44
 96
       40
 40
0.0
 40
0.0
 40
0.0
 40
0.0
 40
1.0
 40
1.0
 40
1.0
 40
2.0
 40
2.0
 40
2.0
 40
3.0
 40
3.0
 40
3.0
 40
4.0
 40
4.0
 40
4.0
 40
5.0
 40
5.0
 40
5.0
 40
6.0
 40
6.0
 40
6.0
 40
7.0
 40
7.0
 40
7.0
 40
8.0
 40
8.0
 40
8.0
 40
9.0
 40
9.0
 40
9.0
 40
10.0
 40
10.0
 40
10.0
 40
11.0
 40
11.0
 40
11.0
 40
12.0
 40
12.0
 40
12.0
 40
13.0
 40
13.0
 40
13.0
 40
13.0
 10
64.81878253587864
 20
-119.6328355278175
 10
64.60088024643659
 20
-119.7914821749132
 10
64.50769041356058
 20
-119.8655517278461
 10
64.45911456721856
 20
-120.0093844643553
 10
64.45911456721856
 20
-120.0093844643553
 10
65.23753389211076
 20
-120.0093844643553
 10
65.23753389211076
 20
-120.0093844643553
 10
65.23753389211076
 20
-120.0093844643553
 10
65.23753389211076
 20
-120.2145399005019
 10
65.23753389211076
 20
-120.2145399005019
 10
65.23753389211076
 20
-120.2145399005019
 10
64.2095173993122
 20
-120.2145399005019
 10
64.2095173993122
 20
-120.2145399005019
 10
64.24121227777651
 20
-119.856938989133
 10
64.30666909199626
 20
-119.7787353216178
 10
64.69183076724718
 20
-119.4803900525952
 10
64.94780136180125
 20
-119.2816080430963
 10
65.013258176021
 20
-119.2139119168111
 10
65.013258176021
 20
-119.0764526069496
 10
65.013258176021
 20
-118.957941322257
 10
64.94142793515354
 20
-118.8268554390433
 10
64.74471298294577
 20
-118.8268554390433
 10
64.48443601903514
 20
-118.8268554390433
 10
64.47599553509629
 20
-119.0573323270065
 10
64.47168916573972
 20
-119.173776554408
 10
64.47168916573972
 20
-119.173776554408
 10
64.24758570442422
 20
-119.173776554408
 10
64.24758570442422
 20
-119.173776554408
 10
64.25602618836308
 20
-119.0468247857765
 10
64.26653372959309
 20
-118.9346869277316
 10
64.34697670917367
 20
-118.816175643039
 10
64.45687525515315
 20
-118.6554619386521
 10
64.6430826661309
 20
-118.6215277481224
 10
64.75952689353234
 20
-118.6215277481224
 10
65.03668482532069
 20
-118.6215277481224
 10
65.24390731875847
 20
-118.805668101809
 10
65.24390731875847
 20
-119.0785196642408
 10
65.24390731875847
 20
-119.3069294949129
 10
65.12763534613129
 20
-119.4064927544366
 10
64.81878253587864
 20
-119.6328355278175
 97
        0
 97
        0
 75
     2
 76
     1
 98
        0
  0
SPLINE
  5
221
330
21B
100
AcDbEntity
  8
_U+30EC_U+30A4_U+30E4_U+30FC 1
370
     0
100
AcDbSpline
210
0.0
220
0.0
230
1.0
 70
    11
 71
     3
 72
    53
 73
    49
 74
     0
 42
0.0000000001
 43
0.0000000001
 12
1.0
 22
0.0
 32
0.0
 13
1.0
 23
0.0
 33
0.0
 40
0.0
 40
0.0
 40
0.0
 40
0.0
 40
1.0
 40
1.0
 40
1.0
 40
2.0
 40
2.0
 40
2.0
 40
3.0
 40
3.0
 40
3.0
 40
4.0
 40
4.0
 40
4.0
 40
5.0
 40
5.0
 40
5.0
 40
6.0
 40
6.0
 40
6.0
 40
7.0
 40
7.0
 40
7.0
 40
8.0
 40
8.0
 40
8.0
 40
9.0
 40
9.0
 40
9.0
 40
10.0
 40
10.0
 40
10.0
 40
11.0
 40
11.0
 40
11.0
 40
12.0
 40
12.0
 40
12.0
 40
13.0
 40
13.0
 40
13.0
 40
14.0
 40
14.0
 40
14.0
 40
15.0
 40
15.0
 40
15.0
 40
16.0
 40
16.0
 40
16.0
 40
16.0
 10
65.8834892955951
 20
-120.2653550589094
 30
0.0
 10
65.80511337330567
 20
-120.2653550589094
 30
0.0
 10
65.70365531126507
 20
-120.2483018362574
 30
0.0
 10
65.60202499445019
 20
-120.1849120793288
 30
0.0
 10
65.42856443676786
 20
-120.0748412785751
 30
0.0
 10
65.40737709953358
 20
-119.9437553953613
 30
0.0
 10
65.3884290743647
 20
-119.835923906673
 30
0.0
 10
65.3884290743647
 20
-119.835923906673
 30
0.0
 10
65.61046547838906
 20
-119.835923906673
 30
0.0
 10
65.61046547838906
 20
-119.835923906673
 30
0.0
 10
65.66558700615305
 20
-120.0347059161719
 30
0.0
 10
65.7925387747845
 20
-120.064333737345
 30
0.0
 10
65.88555635288625
 20
-120.064333737345
 30
0.0
 10
66.02508272003887
 20
-120.064333737345
 30
0.0
 10
66.17752819526117
 20
-119.9649427325956
 30
0.0
 10
66.17752819526117
 20
-119.732226532567
 30
0.0
 10
66.17752819526117
 20
-119.4762559380129
 30
0.0
 10
65.99769421093113
 20
-119.4064927544366
 30
0.0
 10
65.87711586894739
 20
-119.4064927544366
 30
0.0
 10
65.84542099048309
 20
-119.4064927544366
 30
0.0
 10
65.70365531126507
 20
-119.4064927544366
 30
0.0
 10
65.61477184774562
 20
-119.5355115803592
 30
0.0
 10
65.61477184774562
 20
-119.5355115803592
 30
0.0
 10
65.43924423277214
 20
-119.516391300416
 30
0.0
 10
65.43924423277214
 20
-119.516391300416
 30
0.0
 10
65.43924423277214
 20
-119.516391300416
 30
0.0
 10
65.55982257475588
 20
-118.6702758492387
 30
0.0
 10
65.55982257475588
 20
-118.6702758492387
 30
0.0
 10
65.55982257475588
 20
-118.6702758492387
 30
0.0
 10
66.33824189964808
 20
-118.6702758492387
 30
0.0
 10
66.33824189964808
 20
-118.6702758492387
 30
0.0
 10
66.33824189964808
 20
-118.6702758492387
 30
0.0
 10
66.33824189964808
 20
-118.8649237441553
 30
0.0
 10
66.33824189964808
 20
-118.8649237441553
 30
0.0
 10
66.33824189964808
 20
-118.8649237441553
 30
0.0
 10
65.72260333643393
 20
-118.8649237441553
 30
0.0
 10
65.72260333643393
 20
-118.8649237441553
 30
0.0
 10
65.72260333643393
 20
-118.8649237441553
 30
0.0
 10
65.65714652221419
 20
-119.287981469744
 30
0.0
 10
65.65714652221419
 20
-119.287981469744
 30
0.0
 10
65.71846922185163
 20
-119.2540472792143
 30
0.0
 10
65.80097925872337
 20
-119.2139119168111
 30
0.0
 10
65.9193182886417
 20
-119.2139119168111
 30
0.0
 10
66.17322182590462
 20
-119.2139119168111
 30
0.0
 10
66.41024439528981
 20
-119.4001193277889
 30
0.0
 10
66.41024439528981
 20
-119.7131062526238
 30
0.0
 10
66.41024439528981
 20
-120.0305718015896
 30
0.0
 10
66.18596867920004
 20
-120.2653550589094
 30
0.0
 10
65.8834892955951
 20
-120.2653550589094
 30
0.0
  0
HATCH
  5
222
330
21B
100
AcDbEntity
  8
_U+30EC_U+30A4_U+30E4_U+30FC 1
 62
   179
420
  2234388
100
AcDbHatch
 10
0.0
 20
0.0
 30
0.0
210
0.0
220
0.0
230
1.0
  2
SOLID
 70
     1
 71
     0
 91
        1
 92
        1
 93
        1
 72
     4
 94
        3
 73
     0
 74
     1
 95
       53
 96
       49
 40
0.0
 40
0.0
 40
0.0
 40
0.0
 40
1.0
 40
1.0
 40
1.0
 40
2.0
 40
2.0
 40
2.0
 40
3.0
 40
3.0
 40
3.0
 40
4.0
 40
4.0
 40
4.0
 40
5.0
 40
5.0
 40
5.0
 40
6.0
 40
6.0
 40
6.0
 40
7.0
 40
7.0
 40
7.0
 40
8.0
 40
8.0
 40
8.0
 40
9.0
 40
9.0
 40
9.0
 40
10.0
 40
10.0
 40
10.0
 40
11.0
 40
11.0
 40
11.0
 40
12.0
 40
12.0
 40
12.0
 40
13.0
 40
13.0
 40
13.0
 40
14.0
 40
14.0
 40
14.0
 40
15.0
 40
15.0
 40
15.0
 40
16.0
 40
16.0
 40
16.0
 40
16.0
 10
65.8834892955951
 20
-120.2653550589094
 10
65.80511337330567
 20
-120.2653550589094
 10
65.70365531126507
 20
-120.2483018362574
 10
65.60202499445019
 20
-120.1849120793288
 10
65.42856443676786
 20
-120.0748412785751
 10
65.40737709953358
 20
-119.9437553953613
 10
65.3884290743647
 20
-119.835923906673
 10
65.3884290743647
 20
-119.835923906673
 10
65.61046547838906
 20
-119.835923906673
 10
65.61046547838906
 20
-119.835923906673
 10
65.66558700615305
 20
-120.0347059161719
 10
65.7925387747845
 20
-120.064333737345
 10
65.88555635288625
 20
-120.064333737345
 10
66.02508272003887
 20
-120.064333737345
 10
66.17752819526117
 20
-119.9649427325956
 10
66.17752819526117
 20
-119.732226532567
 10
66.17752819526117
 20
-119.4762559380129
 10
65.99769421093113
 20
-119.4064927544366
 10
65.87711586894739
 20
-119.4064927544366
 10
65.84542099048309
 20
-119.4064927544366
 10
65.70365531126507
 20
-119.4064927544366
 10
65.61477184774562
 20
-119.5355115803592
 10
65.61477184774562
 20
-119.5355115803592
 10
65.43924423277214
 20
-119.516391300416
 10
65.43924423277214
 20
-119.516391300416
 10
65.43924423277214
 20
-119.516391300416
 10
65.55982257475588
 20
-118.6702758492387
 10
65.55982257475588
 20
-118.6702758492387
 10
65.55982257475588
 20
-118.6702758492387
 10
66.33824189964808
 20
-118.6702758492387
 10
66.33824189964808
 20
-118.6702758492387
 10
66.33824189964808
 20
-118.6702758492387
 10
66.33824189964808
 20
-118.8649237441553
 10
66.33824189964808
 20
-118.8649237441553
 10
66.33824189964808
 20
-118.8649237441553
 10
65.72260333643393
 20
-118.8649237441553
 10
65.72260333643393
 20
-118.8649237441553
 10
65.72260333643393
 20
-118.8649237441553
 10
65.65714652221419
 20
-119.287981469744
 10
65.65714652221419
 20
-119.287981469744
 10
65.71846922185163
 20
-119.2540472792143
 10
65.80097925872337
 20
-119.2139119168111
 10
65.9193182886417
 20
-119.2139119168111
 10
66.17322182590462
 20
-119.2139119168111
 10
66.41024439528981
 20
-119.4001193277889
 10
66.41024439528981
 20
-119.7131062526238
 10
66.41024439528981
 20
-120.0305718015896
 10
66.18596867920004
 20
-120.2653550589094
 10
65.8834892955951
 20
-120.2653550589094
 97
        0
 97
        0
 75
     2
 76
     1
 98
        0
  0
ENDBLK
  5
21E
330
21B
100
AcDbEntity
  8
0
100
AcDbBlockEnd
  0
BLOCK
  5
231
330
22F
100
AcDbEntity
  8
0
100
AcDbBlockBegin
  2
block 4
 70
     0
 10
0.0
 20
0.0
 30
0.0
  3
block 4
  1

  0
SPLINE
  5
233
330
22F
100
AcDbEntity
  8
_U+30EC_U+30A4_U+30E4_U+30FC 1
370
     0
100
AcDbSpline
210
0.0
220
0.0
230
1.0
 70
    11
 71
     3
 72
    44
 73
    40
 74
     0
 42
0.0000000001
 43
0.0000000001
 12
1.0
 22
0.0
 32
0.0
 13
1.0
 23
0.0
 33
0.0
 40
0.0
 40
0.0
 40
0.0
 40
0.0
 40
1.0
 40
1.0
 40
1.0
 40
2.0
 40
2.0
 40
2.0
 40
3.0
 40
3.0
 40
3.0
 40
4.0
 40
4.0
 40
4.0
 40
5.0
 40
5.0
 40
5.0
 40
6.0
 40
6.0
 40
6.0
 40
7.0
 40
7.0
 40
7.0
 40
8.0
 40
8.0
 40
8.0
 40
9.0
 40
9.0
 40
9.0
 40
10.0
 40
10.0
 40
10.0
 40
11.0
 40
11.0
 40
11.0
 40
12.0
 40
12.0
 40
12.0
 40
13.0
 40
13.0
 40
13.0
 40
13.0
 10
90.8187459082849
 20
-119.6328355278175
 30
0.0
 10
90.60101587361711
 20
-119.7914821749132
 30
0.0
 10
90.50799829551536
 20
-119.8655517278461
 30
0.0
 10
90.45907793962482
 20
-120.0093844643553
 30
0.0
 10
90.45907793962482
 20
-120.0093844643553
 30
0.0
 10
91.23766951929129
 20
-120.0093844643553
 30
0.0
 10
91.23766951929129
 20
-120.0093844643553
 30
0.0
 10
91.23766951929129
 20
-120.0093844643553
 30
0.0
 10
91.23766951929129
 20
-120.2145399005019
 30
0.0
 10
91.23766951929129
 20
-120.2145399005019
 30
0.0
 10
91.23766951929129
 20
-120.2145399005019
 30
0.0
 10
90.20965302649273
 20
-120.2145399005019
 30
0.0
 10
90.20965302649273
 20
-120.2145399005019
 30
0.0
 10
90.24134790495702
 20
-119.856938989133
 30
0.0
 10
90.30680471917678
 20
-119.7787353216178
 30
0.0
 10
90.69196639442771
 20
-119.4803900525952
 30
0.0
 10
90.94793698898177
 20
-119.2816080430963
 30
0.0
 10
91.01339380320152
 20
-119.2139119168111
 30
0.0
 10
91.01339380320152
 20
-119.0764526069496
 30
0.0
 10
91.01339380320152
 20
-118.957941322257
 30
0.0
 10
90.9413913075598
 20
-118.8268554390433
 30
0.0
 10
90.74467635535203
 20
-118.8268554390433
 30
0.0
 10
90.48457164621567
 20
-118.8268554390433
 30
0.0
 10
90.47595890750254
 20
-119.0573323270065
 30
0.0
 10
90.47182479292024
 20
-119.173776554408
 30
0.0
 10
90.47182479292024
 20
-119.173776554408
 30
0.0
 10
90.24754907683048
 20
-119.173776554408
 30
0.0
 10
90.24754907683048
 20
-119.173776554408
 30
0.0
 10
90.2561618155436
 20
-119.0468247857765
 30
0.0
 10
90.26684161154787
 20
-118.9346869277316
 30
0.0
 10
90.3471123363542
 20
-118.816175643039
 30
0.0
 10
90.45701088233366
 20
-118.6554619386521
 30
0.0
 10
90.64339054808569
 20
-118.6215277481224
 30
0.0
 10
90.75949026593861
 20
-118.6215277481224
 30
0.0
 10
91.03682045250122
 20
-118.6215277481224
 30
0.0
 10
91.24421520071326
 20
-118.805668101809
 30
0.0
 10
91.24421520071326
 20
-119.0785196642408
 30
0.0
 10
91.24421520071326
 20
-119.3069294949129
 30
0.0
 10
91.12777097331181
 20
-119.4064927544366
 30
0.0
 10
90.8187459082849
 20
-119.6328355278175
 30
0.0
  0
HATCH
  5
234
330
22F
100
AcDbEntity
  8
_U+30EC_U+30A4_U+30E4_U+30FC 1
 62
   179
420
  2234388
100
AcDbHatch
 10
0.0
 20
0.0
 30
0.0
210
0.0
220
0.0
230
1.0
  2
SOLID
 70
     1
 71
     0
 91
        1
 92
        1
 93
        1
 72
     4
 94
        3
 73
     0
 74
     1
 95
       44
 96
       40
 40
0.0
 40
0.0
 40
0.0
 40
0.0
 40
1.0
 40
1.0
 40
1.0
 40
2.0
 40
2.0
 40
2.0
 40
3.0
 40
3.0
 40
3.0
 40
4.0
 40
4.0
 40
4.0
 40
5.0
 40
5.0
 40
5.0
 40
6.0
 40
6.0
 40
6.0
 40
7.0
 40
7.0
 40
7.0
 40
8.0
 40
8.0
 40
8.0
 40
9.0
 40
9.0
 40
9.0
 40
10.0
 40
10.0
 40
10.0
 40
11.0
 40
11.0
 40
11.0
 40
12.0
 40
12.0
 40
12.0
 40
13.0
 40
13.0
 40
13.0
 40
13.0
 10
90.8187459082849
 20
-119.6328355278175
 10
90.60101587361711
 20
-119.7914821749132
 10
90.50799829551536
 20
-119.8655517278461
 10
90.45907793962482
 20
-120.0093844643553
 10
90.45907793962482
 20
-120.0093844643553
 10
91.23766951929129
 20
-120.0093844643553
 10
91.23766951929129
 20
-120.0093844643553
 10
91.23766951929129
 20
-120.0093844643553
 10
91.23766951929129
 20
-120.2145399005019
 10
91.23766951929129
 20
-120.2145399005019
 10
91.23766951929129
 20
-120.2145399005019
 10
90.20965302649273
 20
-120.2145399005019
 10
90.20965302649273
 20
-120.2145399005019
 10
90.24134790495702
 20
-119.856938989133
 10
90.30680471917678
 20
-119.7787353216178
 10
90.69196639442771
 20
-119.4803900525952
 10
90.94793698898177
 20
-119.2816080430963
 10
91.01339380320152
 20
-119.2139119168111
 10
91.01339380320152
 20
-119.0764526069496
 10
91.01339380320152
 20
-118.957941322257
 10
90.9413913075598
 20
-118.8268554390433
 10
90.74467635535203
 20
-118.8268554390433
 10
90.48457164621567
 20
-118.8268554390433
 10
90.47595890750254
 20
-119.0573323270065
 10
90.47182479292024
 20
-119.173776554408
 10
90.47182479292024
 20
-119.173776554408
 10
90.24754907683048
 20
-119.173776554408
 10
90.24754907683048
 20
-119.173776554408
 10
90.2561618155436
 20
-119.0468247857765
 10
90.26684161154787
 20
-118.9346869277316
 10
90.3471123363542
 20
-118.816175643039
 10
90.45701088233366
 20
-118.6554619386521
 10
90.64339054808569
 20
-118.6215277481224
 10
90.75949026593861
 20
-118.6215277481224
 10
91.03682045250122
 20
-118.6215277481224
 10
91.24421520071326
 20
-118.805668101809
 10
91.24421520071326
 20
-119.0785196642408
 10
91.24421520071326
 20
-119.3069294949129
 10
91.12777097331181
 20
-119.4064927544366
 10
90.8187459082849
 20
-119.6328355278175
 97
        0
 97
        0
 75
     2
 76
     1
 98
        0
  0
SPLINE
  5
235
330
22F
100
AcDbEntity
  8
_U+30EC_U+30A4_U+30E4_U+30FC 1
370
     0
100
AcDbSpline
210
0.0
220
0.0
230
1.0
 70
    11
 71
     3
 72
    53
 73
    49
 74
     0
 42
0.0000000001
 43
0.0000000001
 12
1.0
 22
0.0
 32
0.0
 13
1.0
 23
0.0
 33
0.0
 40
0.0
 40
0.0
 40
0.0
 40
0.0
 40
1.0
 40
1.0
 40
1.0
 40
2.0
 40
2.0
 40
2.0
 40
3.0
 40
3.0
 40
3.0
 40
4.0
 40
4.0
 40
4.0
 40
5.0
 40
5.0
 40
5.0
 40
6.0
 40
6.0
 40
6.0
 40
7.0
 40
7.0
 40
7.0
 40
8.0
 40
8.0
 40
8.0
 40
9.0
 40
9.0
 40
9.0
 40
10.0
 40
10.0
 40
10.0
 40
11.0
 40
11.0
 40
11.0
 40
12.0
 40
12.0
 40
12.0
 40
13.0
 40
13.0
 40
13.0
 40
14.0
 40
14.0
 40
14.0
 40
15.0
 40
15.0
 40
15.0
 40
16.0
 40
16.0
 40
16.0
 40
16.0
 10
91.88345266800137
 20
-120.2653550589094
 30
0.0
 10
91.80559351003471
 20
-120.2653550589094
 30
0.0
 10
91.70361868367132
 20
-120.2483018362574
 30
0.0
 10
91.60233287640497
 20
-120.1849120793288
 30
0.0
 10
91.42870006394838
 20
-120.0748412785751
 30
0.0
 10
91.40734047193983
 20
-119.9437553953613
 30
0.0
 10
91.38873695631949
 20
-119.835923906673
 30
0.0
 10
91.38873695631949
 20
-119.835923906673
 30
0.0
 10
91.61060110556957
 20
-119.835923906673
 30
0.0
 10
91.61060110556957
 20
-119.835923906673
 30
0.0
 10
91.66572263333357
 20
-120.0347059161719
 30
0.0
 10
91.79250214719077
 20
-120.064333737345
 30
0.0
 10
91.88551972529251
 20
-120.064333737345
 30
0.0
 10
92.02539060199366
 20
-120.064333737345
 30
0.0
 10
92.1776638224417
 20
-119.9649427325956
 30
0.0
 10
92.1776638224417
 20
-119.732226532567
 30
0.0
 10
92.1776638224417
 20
-119.4762559380129
 30
0.0
 10
91.99782983811166
 20
-119.4064927544366
 30
0.0
 10
91.87725149612791
 20
-119.4064927544366
 30
0.0
 10
91.84555661766362
 20
-119.4064927544366
 30
0.0
 10
91.70361868367132
 20
-119.4064927544366
 30
0.0
 10
91.61473522015187
 20
-119.5355115803592
 30
0.0
 10
91.61473522015187
 20
-119.5355115803592
 30
0.0
 10
91.43903535040414
 20
-119.516391300416
 30
0.0
 10
91.43903535040414
 20
-119.516391300416
 30
0.0
 10
91.43903535040414
 20
-119.516391300416
 30
0.0
 10
91.55961369238788
 20
-118.6702758492387
 30
0.0
 10
91.55961369238788
 20
-118.6702758492387
 30
0.0
 10
91.55961369238788
 20
-118.6702758492387
 30
0.0
 10
92.33820527205434
 20
-118.6702758492387
 30
0.0
 10
92.33820527205434
 20
-118.6702758492387
 30
0.0
 10
92.33820527205434
 20
-118.6702758492387
 30
0.0
 10
92.33820527205434
 20
-118.8649237441553
 30
0.0
 10
92.33820527205434
 20
-118.8649237441553
 30
0.0
 10
92.33820527205434
 20
-118.8649237441553
 30
0.0
 10
91.72291121838872
 20
-118.8649237441553
 30
0.0
 10
91.72291121838872
 20
-118.8649237441553
 30
0.0
 10
91.72291121838872
 20
-118.8649237441553
 30
0.0
 10
91.65745440416897
 20
-119.287981469744
 30
0.0
 10
91.65745440416897
 20
-119.287981469744
 30
0.0
 10
91.71877710380642
 20
-119.2540472792143
 30
0.0
 10
91.80077037635537
 20
-119.2139119168111
 30
0.0
 10
91.91928166104796
 20
-119.2139119168111
 30
0.0
 10
92.1735297078594
 20
-119.2139119168111
 30
0.0
 10
92.41055227724459
 20
-119.4001193277889
 30
0.0
 10
92.41055227724459
 20
-119.7131062526238
 30
0.0
 10
92.41055227724459
 20
-120.0305718015896
 30
0.0
 10
92.1859320516063
 20
-120.2653550589094
 30
0.0
 10
91.88345266800137
 20
-120.2653550589094
 30
0.0
  0
HATCH
  5
236
330
22F
100
AcDbEntity
  8
_U+30EC_U+30A4_U+30E4_U+30FC 1
 62
   179
420
  2234388
100
AcDbHatch
 10
0.0
 20
0.0
 30
0.0
210
0.0
220
0.0
230
1.0
  2
SOLID
 70
     1
 71
     0
 91
        1
 92
        1
 93
        1
 72
     4
 94
        3
 73
     0
 74
     1
 95
       53
 96
       49
 40
0.0
 40
0.0
 40
0.0
 40
0.0
 40
1.0
 40
1.0
 40
1.0
 40
2.0
 40
2.0
 40
2.0
 40
3.0
 40
3.0
 40
3.0
 40
4.0
 40
4.0
 40
4.0
 40
5.0
 40
5.0
 40
5.0
 40
6.0
 40
6.0
 40
6.0
 40
7.0
 40
7.0
 40
7.0
 40
8.0
 40
8.0
 40
8.0
 40
9.0
 40
9.0
 40
9.0
 40
10.0
 40
10.0
 40
10.0
 40
11.0
 40
11.0
 40
11.0
 40
12.0
 40
12.0
 40
12.0
 40
13.0
 40
13.0
 40
13.0
 40
14.0
 40
14.0
 40
14.0
 40
15.0
 40
15.0
 40
15.0
 40
16.0
 40
16.0
 40
16.0
 40
16.0
 10
91.88345266800137
 20
-120.2653550589094
 10
91.80559351003471
 20
-120.2653550589094
 10
91.70361868367132
 20
-120.2483018362574
 10
91.60233287640497
 20
-120.1849120793288
 10
91.42870006394838
 20
-120.0748412785751
 10
91.40734047193983
 20
-119.9437553953613
 10
91.38873695631949
 20
-119.835923906673
 10
91.38873695631949
 20
-119.835923906673
 10
91.61060110556957
 20
-119.835923906673
 10
91.61060110556957
 20
-119.835923906673
 10
91.66572263333357
 20
-120.0347059161719
 10
91.79250214719077
 20
-120.064333737345
 10
91.88551972529251
 20
-120.064333737345
 10
92.02539060199366
 20
-120.064333737345
 10
92.1776638224417
 20
-119.9649427325956
 10
92.1776638224417
 20
-119.732226532567
 10
92.1776638224417
 20
-119.4762559380129
 10
91.99782983811166
 20
-119.4064927544366
 10
91.87725149612791
 20
-119.4064927544366
 10
91.84555661766362
 20
-119.4064927544366
 10
91.70361868367132
 20
-119.4064927544366
 10
91.61473522015187
 20
-119.5355115803592
 10
91.61473522015187
 20
-119.5355115803592
 10
91.43903535040414
 20
-119.516391300416
 10
91.43903535040414
 20
-119.516391300416
 10
91.43903535040414
 20
-119.516391300416
 10
91.55961369238788
 20
-118.6702758492387
 10
91.55961369238788
 20
-118.6702758492387
 10
91.55961369238788
 20
-118.6702758492387
 10
92.33820527205434
 20
-118.6702758492387
 10
92.33820527205434
 20
-118.6702758492387
 10
92.33820527205434
 20
-118.6702758492387
 10
92.33820527205434
 20
-118.8649237441553
 10
92.33820527205434
 20
-118.8649237441553
 10
92.33820527205434
 20
-118.8649237441553
 10
91.72291121838872
 20
-118.8649237441553
 10
91.72291121838872
 20
-118.8649237441553
 10
91.72291121838872
 20
-118.8649237441553
 10
91.65745440416897
 20
-119.287981469744
 10
91.65745440416897
 20
-119.287981469744
 10
91.71877710380642
 20
-119.2540472792143
 10
91.80077037635537
 20
-119.2139119168111
 10
91.91928166104796
 20
-119.2139119168111
 10
92.1735297078594
 20
-119.2139119168111
 10
92.41055227724459
 20
-119.4001193277889
 10
92.41055227724459
 20
-119.7131062526238
 10
92.41055227724459
 20
-120.0305718015896
 10
92.1859320516063
 20
-120.2653550589094
 10
91.88345266800137
 20
-120.2653550589094
 97
        0
 97
        0
 75
     2
 76
     1
 98
        0
  0
ENDBLK
  5
232
330
22F
100
AcDbEntity
  8
0
100
AcDbBlockEnd
  0
BLOCK
  5
23D
330
23B
100
AcDbEntity
  8
0
100
AcDbBlockBegin
  2
block 5
 70
     0
 10
0.0
 20
0.0
 30
0.0
  3
block 5
  1

  0
SPLINE
  5
23F
330
23B
100
AcDbEntity
  8
_U+30EC_U+30A4_U+30E4_U+30FC 1
370
     0
100
AcDbSpline
210
0.0
220
0.0
230
1.0
 70
    11
 71
     3
 72
    26
 73
    22
 74
     0
 42
0.0000000001
 43
0.0000000001
 12
1.0
 22
0.0
 32
0.0
 13
1.0
 23
0.0
 33
0.0
 40
0.0
 40
0.0
 40
0.0
 40
0.0
 40
1.0
 40
1.0
 40
1.0
 40
2.0
 40
2.0
 40
2.0
 40
3.0
 40
3.0
 40
3.0
 40
4.0
 40
4.0
 40
4.0
 40
5.0
 40
5.0
 40
5.0
 40
6.0
 40
6.0
 40
6.0
 40
7.0
 40
7.0
 40
7.0
 40
7.0
 10
78.34353839187246
 20
-120.2141953909534
 30
0.0
 10
78.34353839187246
 20
-120.2141953909534
 30
0.0
 10
78.34353839187246
 20
-119.1098700331566
 30
0.0
 10
78.34353839187246
 20
-119.1098700331566
 30
0.0
 10
78.34353839187246
 20
-119.1098700331566
 30
0.0
 10
78.01349824438552
 20
-119.1098700331566
 30
0.0
 10
78.01349824438552
 20
-119.1098700331566
 30
0.0
 10
78.01349824438552
 20
-119.1098700331566
 30
0.0
 10
78.01349824438552
 20
-118.9619031820651
 30
0.0
 10
78.01349824438552
 20
-118.9619031820651
 30
0.0
 10
78.3456054491636
 20
-118.9470892714785
 30
0.0
 10
78.39211423821448
 20
-118.7841362550262
 30
0.0
 10
78.42174205938763
 20
-118.6699313396902
 30
0.0
 10
78.42174205938763
 20
-118.6699313396902
 30
0.0
 10
78.56781410796222
 20
-118.6699313396902
 30
0.0
 10
78.56781410796222
 20
-118.6699313396902
 30
0.0
 10
78.56781410796222
 20
-118.6699313396902
 30
0.0
 10
78.56781410796222
 20
-120.2141953909534
 30
0.0
 10
78.56781410796222
 20
-120.2141953909534
 30
0.0
 10
78.56781410796222
 20
-120.2141953909534
 30
0.0
 10
78.34353839187246
 20
-120.2141953909534
 30
0.0
 10
78.34353839187246
 20
-120.2141953909534
 30
0.0
  0
HATCH
  5
240
330
23B
100
AcDbEntity
  8
_U+30EC_U+30A4_U+30E4_U+30FC 1
 62
   179
420
  2234388
100
AcDbHatch
 10
0.0
 20
0.0
 30
0.0
210
0.0
220
0.0
230
1.0
  2
SOLID
 70
     1
 71
     0
 91
        1
 92
        1
 93
        1
 72
     4
 94
        3
 73
     0
 74
     1
 95
       26
 96
       22
 40
0.0
 40
0.0
 40
0.0
 40
0.0
 40
1.0
 40
1.0
 40
1.0
 40
2.0
 40
2.0
 40
2.0
 40
3.0
 40
3.0
 40
3.0
 40
4.0
 40
4.0
 40
4.0
 40
5.0
 40
5.0
 40
5.0
 40
6.0
 40
6.0
 40
6.0
 40
7.0
 40
7.0
 40
7.0
 40
7.0
 10
78.34353839187246
 20
-120.2141953909534
 10
78.34353839187246
 20
-120.2141953909534
 10
78.34353839187246
 20
-119.1098700331566
 10
78.34353839187246
 20
-119.1098700331566
 10
78.34353839187246
 20
-119.1098700331566
 10
78.01349824438552
 20
-119.1098700331566
 10
78.01349824438552
 20
-119.1098700331566
 10
78.01349824438552
 20
-119.1098700331566
 10
78.01349824438552
 20
-118.9619031820651
 10
78.01349824438552
 20
-118.9619031820651
 10
78.3456054491636
 20
-118.9470892714785
 10
78.39211423821448
 20
-118.7841362550262
 10
78.42174205938763
 20
-118.6699313396902
 10
78.42174205938763
 20
-118.6699313396902
 10
78.56781410796222
 20
-118.6699313396902
 10
78.56781410796222
 20
-118.6699313396902
 10
78.56781410796222
 20
-118.6699313396902
 10
78.56781410796222
 20
-120.2141953909534
 10
78.56781410796222
 20
-120.2141953909534
 10
78.56781410796222
 20
-120.2141953909534
 10
78.34353839187246
 20
-120.2141953909534
 10
78.34353839187246
 20
-120.2141953909534
 97
        0
 97
        0
 75
     2
 76
     1
 98
        0
  0
ENDBLK
  5
23E
330
23B
100
AcDbEntity
  8
0
100
AcDbBlockEnd
  0
BLOCK
  5
24F
330
24D
100
AcDbEntity
  8
0
100
AcDbBlockBegin
  2
block 6
 70
     0
 10
0.0
 20
0.0
 30
0.0
  3
block 6
  1

  0
SPLINE
  5
251
330
24D
100
AcDbEntity
  8
_U+30EC_U+30A4_U+30E4_U+30FC 1
370
     0
100
AcDbSpline
210
0.0
220
0.0
230
1.0
 70
    11
 71
     3
 72
    62
 73
    58
 74
     0
 42
0.0000000001
 43
0.0000000001
 12
1.0
 22
0.0
 32
0.0
 13
1.0
 23
0.0
 33
0.0
 40
0.0
 40
0.0
 40
0.0
 40
0.0
 40
1.0
 40
1.0
 40
1.0
 40
2.0
 40
2.0
 40
2.0
 40
3.0
 40
3.0
 40
3.0
 40
4.0
 40
4.0
 40
4.0
 40
5.0
 40
5.0
 40
5.0
 40
6.0
 40
6.0
 40
6.0
 40
7.0
 40
7.0
 40
7.0
 40
8.0
 40
8.0
 40
8.0
 40
9.0
 40
9.0
 40
9.0
 40
10.0
 40
10.0
 40
10.0
 40
11.0
 40
11.0
 40
11.0
 40
12.0
 40
12.0
 40
12.0
 40
13.0
 40
13.0
 40
13.0
 40
14.0
 40
14.0
 40
14.0
 40
15.0
 40
15.0
 40
15.0
 40
16.0
 40
16.0
 40
16.0
 40
17.0
 40
17.0
 40
17.0
 40
18.0
 40
18.0
 40
18.0
 40
19.0
 40
19.0
 40
19.0
 40
19.0
 10
78.38367375427562
 20
-137.2650064761004
 30
0.0
 10
78.28841686410846
 20
-137.2650064761004
 30
0.0
 10
78.0705145746664
 20
-137.2439913936404
 30
0.0
 10
77.94580211810036
 20
-137.0579562374369
 30
0.0
 10
77.87173256516749
 20
-136.9456461246178
 30
0.0
 10
77.86742619581092
 20
-136.8464273746426
 30
0.0
 10
77.86329208122862
 20
-136.7616780257054
 30
0.0
 10
77.86329208122862
 20
-136.7616780257054
 30
0.0
 10
78.08326142796183
 20
-136.7616780257054
 30
0.0
 10
78.08326142796183
 20
-136.7616780257054
 30
0.0
 10
78.08532848525297
 20
-136.8357475786383
 30
0.0
 10
78.09600828125726
 20
-137.0703585811838
 30
0.0
 10
78.37936738491905
 20
-137.0703585811838
 30
0.0
 10
78.51699894955478
 20
-137.0703585811838
 30
0.0
 10
78.66927217000283
 20
-137.0007676523818
 30
0.0
 10
78.66927217000283
 20
-136.7723578217097
 30
0.0
 10
78.66927217000283
 20
-136.6559135943083
 30
0.0
 10
78.63120386489081
 20
-136.6073377479662
 30
0.0
 10
78.59950898642651
 20
-136.5756428695019
 30
0.0
 10
78.52543943349364
 20
-136.5015733165691
 30
0.0
 10
78.4089952060922
 20
-136.4888264632736
 30
0.0
 10
78.35404593310247
 20
-136.4888264632736
 30
0.0
 10
78.33509790793359
 20
-136.4888264632736
 30
0.0
 10
78.29909666011272
 20
-136.4908935205648
 30
0.0
 10
78.27153589623073
 20
-136.4950276351471
 30
0.0
 10
78.27153589623073
 20
-136.4950276351471
 30
0.0
 10
78.27153589623073
 20
-136.3003797402305
 30
0.0
 10
78.27153589623073
 20
-136.3003797402305
 30
0.0
 10
78.30960420134274
 20
-136.3069254216524
 30
0.0
 10
78.35197887581131
 20
-136.3089924789436
 30
0.0
 10
78.35835230245902
 20
-136.3089924789436
 30
0.0
 10
78.42380911667877
 20
-136.3089924789436
 30
0.0
 10
78.62276338095195
 20
-136.287632886935
 30
0.0
 10
78.62276338095195
 20
-136.0509548270984
 30
0.0
 10
78.62276338095195
 20
-135.8731879000595
 30
0.0
 10
78.49150524296394
 20
-135.8180663722955
 30
0.0
 10
78.38160669698446
 20
-135.8180663722955
 30
0.0
 10
78.11719561849154
 20
-135.8180663722955
 30
0.0
 10
78.10858287977841
 20
-136.0509548270984
 30
0.0
 10
78.10444876519611
 20
-136.1226128131916
 30
0.0
 10
78.10444876519611
 20
-136.1226128131916
 30
0.0
 10
77.90136038634064
 20
-136.1226128131916
 30
0.0
 10
77.90136038634064
 20
-136.1226128131916
 30
0.0
 10
77.9098008702795
 20
-135.9979003566255
 30
0.0
 10
77.93736163416149
 20
-135.6213514200877
 30
0.0
 10
78.39418129550562
 20
-135.6213514200877
 30
0.0
 10
78.6184570115954
 20
-135.6213514200877
 30
0.0
 10
78.85961369556289
 20
-135.7484754434934
 30
0.0
 10
78.85961369556289
 20
-136.0444091456764
 30
0.0
 10
78.85961369556289
 20
-136.2307888114284
 30
0.0
 10
78.76452906016998
 20
-136.3131265935259
 30
0.0
 10
78.66496580064626
 20
-136.3744492931633
 30
0.0
 10
78.72646075505797
 20
-136.4020100570453
 30
0.0
 10
78.90836179667916
 20
-136.4822807818517
 30
0.0
 10
78.90836179667916
 20
-136.7596109684143
 30
0.0
 10
78.90836179667916
 20
-137.0979193450658
 30
0.0
 10
78.66083168606396
 20
-137.2650064761004
 30
0.0
 10
78.38367375427562
 20
-137.2650064761004
 30
0.0
  0
HATCH
  5
252
330
24D
100
AcDbEntity
  8
_U+30EC_U+30A4_U+30E4_U+30FC 1
 62
   179
420
  2234388
100
AcDbHatch
 10
0.0
 20
0.0
 30
0.0
210
0.0
220
0.0
230
1.0
  2
SOLID
 70
     1
 71
     0
 91
        1
 92
        1
 93
        1
 72
     4
 94
        3
 73
     0
 74
     1
 95
       62
 96
       58
 40
0.0
 40
0.0
 40
0.0
 40
0.0
 40
1.0
 40
1.0
 40
1.0
 40
2.0
 40
2.0
 40
2.0
 40
3.0
 40
3.0
 40
3.0
 40
4.0
 40
4.0
 40
4.0
 40
5.0
 40
5.0
 40
5.0
 40
6.0
 40
6.0
 40
6.0
 40
7.0
 40
7.0
 40
7.0
 40
8.0
 40
8.0
 40
8.0
 40
9.0
 40
9.0
 40
9.0
 40
10.0
 40
10.0
 40
10.0
 40
11.0
 40
11.0
 40
11.0
 40
12.0
 40
12.0
 40
12.0
 40
13.0
 40
13.0
 40
13.0
 40
14.0
 40
14.0
 40
14.0
 40
15.0
 40
15.0
 40
15.0
 40
16.0
 40
16.0
 40
16.0
 40
17.0
 40
17.0
 40
17.0
 40
18.0
 40
18.0
 40
18.0
 40
19.0
 40
19.0
 40
19.0
 40
19.0
 10
78.38367375427562
 20
-137.2650064761004
 10
78.28841686410846
 20
-137.2650064761004
 10
78.0705145746664
 20
-137.2439913936404
 10
77.94580211810036
 20
-137.0579562374369
 10
77.87173256516749
 20
-136.9456461246178
 10
77.86742619581092
 20
-136.8464273746426
 10
77.86329208122862
 20
-136.7616780257054
 10
77.86329208122862
 20
-136.7616780257054
 10
78.08326142796183
 20
-136.7616780257054
 10
78.08326142796183
 20
-136.7616780257054
 10
78.08532848525297
 20
-136.8357475786383
 10
78.09600828125726
 20
-137.0703585811838
 10
78.37936738491905
 20
-137.0703585811838
 10
78.51699894955478
 20
-137.0703585811838
 10
78.66927217000283
 20
-137.0007676523818
 10
78.66927217000283
 20
-136.7723578217097
 10
78.66927217000283
 20
-136.6559135943083
 10
78.63120386489081
 20
-136.6073377479662
 10
78.59950898642651
 20
-136.5756428695019
 10
78.52543943349364
 20
-136.5015733165691
 10
78.4089952060922
 20
-136.4888264632736
 10
78.35404593310247
 20
-136.4888264632736
 10
78.33509790793359
 20
-136.4888264632736
 10
78.29909666011272
 20
-136.4908935205648
 10
78.27153589623073
 20
-136.4950276351471
 10
78.27153589623073
 20
-136.4950276351471
 10
78.27153589623073
 20
-136.3003797402305
 10
78.27153589623073
 20
-136.3003797402305
 10
78.30960420134274
 20
-136.3069254216524
 10
78.35197887581131
 20
-136.3089924789436
 10
78.35835230245902
 20
-136.3089924789436
 10
78.42380911667877
 20
-136.3089924789436
 10
78.62276338095195
 20
-136.287632886935
 10
78.62276338095195
 20
-136.0509548270984
 10
78.62276338095195
 20
-135.8731879000595
 10
78.49150524296394
 20
-135.8180663722955
 10
78.38160669698446
 20
-135.8180663722955
 10
78.11719561849154
 20
-135.8180663722955
 10
78.10858287977841
 20
-136.0509548270984
 10
78.10444876519611
 20
-136.1226128131916
 10
78.10444876519611
 20
-136.1226128131916
 10
77.90136038634064
 20
-136.1226128131916
 10
77.90136038634064
 20
-136.1226128131916
 10
77.9098008702795
 20
-135.9979003566255
 10
77.93736163416149
 20
-135.6213514200877
 10
78.39418129550562
 20
-135.6213514200877
 10
78.6184570115954
 20
-135.6213514200877
 10
78.85961369556289
 20
-135.7484754434934
 10
78.85961369556289
 20
-136.0444091456764
 10
78.85961369556289
 20
-136.2307888114284
 10
78.76452906016998
 20
-136.3131265935259
 10
78.66496580064626
 20
-136.3744492931633
 10
78.72646075505797
 20
-136.4020100570453
 10
78.90836179667916
 20
-136.4822807818517
 10
78.90836179667916
 20
-136.7596109684143
 10
78.90836179667916
 20
-137.0979193450658
 10
78.66083168606396
 20
-137.2650064761004
 10
78.38367375427562
 20
-137.2650064761004
 97
        0
 97
        0
 75
     2
 76
     1
 98
        0
  0
ENDBLK
  5
250
330
24D
100
AcDbEntity
  8
0
100
AcDbBlockEnd
  0
BLOCK
  5
265
330
263
100
AcDbEntity
  8
0
100
AcDbBlockBegin
  2
block 7
 70
     0
 10
0.0
 20
0.0
 30
0.0
  3
block 7
  1

  0
SPLINE
  5
267
330
263
100
AcDbEntity
  8
_U+30EC_U+30A4_U+30E4_U+30FC 1
370
     0
100
AcDbSpline
210
0.0
220
0.0
230
1.0
 70
    11
 71
     3
 72
    29
 73
    25
 74
     0
 42
0.0000000001
 43
0.0000000001
 12
1.0
 22
0.0
 32
0.0
 13
1.0
 23
0.0
 33
0.0
 40
0.0
 40
0.0
 40
0.0
 40
0.0
 40
1.0
 40
1.0
 40
1.0
 40
2.0
 40
2.0
 40
2.0
 40
3.0
 40
3.0
 40
3.0
 40
4.0
 40
4.0
 40
4.0
 40
5.0
 40
5.0
 40
5.0
 40
6.0
 40
6.0
 40
6.0
 40
7.0
 40
7.0
 40
7.0
 40
8.0
 40
8.0
 40
8.0
 40
8.0
 10
47.99896510301762
 20
-126.0641397796819
 30
0.0
 10
48.20842690852081
 20
-126.1719712683702
 30
0.0
 10
48.22754718846395
 20
-126.3454318260525
 30
0.0
 10
48.22754718846395
 20
-126.461876053454
 30
0.0
 10
48.22754718846395
 20
-126.6227620126152
 30
0.0
 10
48.18103839941308
 20
-126.7643554370589
 30
0.0
 10
47.99896510301762
 20
-126.8594400724518
 30
0.0
 10
47.80448946287527
 20
-126.9631374465578
 30
0.0
 10
47.56746689349008
 20
-126.9824299812752
 30
0.0
 10
47.40451387703776
 20
-126.9824299812752
 30
0.0
 10
47.26068114052858
 20
-126.9824299812752
 30
0.0
 10
47.00901691533108
 20
-126.965204503849
 30
0.0
 10
46.8100626510579
 20
-126.8594400724518
 30
0.0
 10
46.60697427220243
 20
-126.7516085837635
 30
0.0
 10
46.58371987767699
 20
-126.5907226246023
 30
0.0
 10
46.58371987767699
 20
-126.461876053454
 30
0.0
 10
46.58371987767699
 20
-126.3032294063582
 30
0.0
 10
46.62816160943671
 20
-126.159396669849
 30
0.0
 10
46.8100626510579
 20
-126.0641397796819
 30
0.0
 10
47.00264348868337
 20
-125.9647487749324
 30
0.0
 10
47.23105331935543
 20
-125.941494380407
 30
0.0
 10
47.40451387703776
 20
-125.941494380407
 30
0.0
 10
47.57590737742894
 20
-125.941494380407
 30
0.0
 10
47.80655652016642
 20
-125.962509462867
 30
0.0
 10
47.99896510301762
 20
-126.0641397796819
 30
0.0
  0
SPLINE
  5
268
330
263
100
AcDbEntity
  8
_U+30EC_U+30A4_U+30E4_U+30FC 1
370
     0
100
AcDbSpline
210
0.0
220
0.0
230
1.0
 70
    11
 71
     3
 72
    17
 73
    13
 74
     0
 42
0.0000000001
 43
0.0000000001
 12
1.0
 22
0.0
 32
0.0
 13
1.0
 23
0.0
 33
0.0
 40
0.0
 40
0.0
 40
0.0
 40
0.0
 40
1.0
 40
1.0
 40
1.0
 40
2.0
 40
2.0
 40
2.0
 40
3.0
 40
3.0
 40
3.0
 40
4.0
 40
4.0
 40
4.0
 40
4.0
 10
46.77630071530245
 20
-126.461876053454
 30
0.0
 10
46.77630071530245
 20
-126.7116454761346
 30
0.0
 10
47.05965981896426
 20
-126.7581542651855
 30
0.0
 10
47.40451387703776
 20
-126.7581542651855
 30
0.0
 10
47.72404648329469
 20
-126.7581542651855
 30
0.0
 10
48.03289929354733
 20
-126.7219807625903
 30
0.0
 10
48.03289929354733
 20
-126.461876053454
 30
0.0
 10
48.03289929354733
 20
-126.2143459428388
 30
0.0
 10
47.75143499240242
 20
-126.1655978417225
 30
0.0
 10
47.40451387703776
 20
-126.1655978417225
 30
0.0
 10
47.0851535255551
 20
-126.1655978417225
 30
0.0
 10
46.77630071530245
 20
-126.2038384016088
 30
0.0
 10
46.77630071530245
 20
-126.461876053454
 30
0.0
  0
HATCH
  5
269
330
263
100
AcDbEntity
  8
_U+30EC_U+30A4_U+30E4_U+30FC 1
 62
   179
420
  2234388
100
AcDbHatch
 10
0.0
 20
0.0
 30
0.0
210
0.0
220
0.0
230
1.0
  2
SOLID
 70
     1
 71
     0
 91
        2
 92
        1
 93
        1
 72
     4
 94
        3
 73
     0
 74
     1
 95
       29
 96
       25
 40
0.0
 40
0.0
 40
0.0
 40
0.0
 40
1.0
 40
1.0
 40
1.0
 40
2.0
 40
2.0
 40
2.0
 40
3.0
 40
3.0
 40
3.0
 40
4.0
 40
4.0
 40
4.0
 40
5.0
 40
5.0
 40
5.0
 40
6.0
 40
6.0
 40
6.0
 40
7.0
 40
7.0
 40
7.0
 40
8.0
 40
8.0
 40
8.0
 40
8.0
 10
47.99896510301762
 20
-126.0641397796819
 10
48.20842690852081
 20
-126.1719712683702
 10
48.22754718846395
 20
-126.3454318260525
 10
48.22754718846395
 20
-126.461876053454
 10
48.22754718846395
 20
-126.6227620126152
 10
48.18103839941308
 20
-126.7643554370589
 10
47.99896510301762
 20
-126.8594400724518
 10
47.80448946287527
 20
-126.9631374465578
 10
47.56746689349008
 20
-126.9824299812752
 10
47.40451387703776
 20
-126.9824299812752
 10
47.26068114052858
 20
-126.9824299812752
 10
47.00901691533108
 20
-126.965204503849
 10
46.8100626510579
 20
-126.8594400724518
 10
46.60697427220243
 20
-126.7516085837635
 10
46.58371987767699
 20
-126.5907226246023
 10
46.58371987767699
 20
-126.461876053454
 10
46.58371987767699
 20
-126.3032294063582
 10
46.62816160943671
 20
-126.159396669849
 10
46.8100626510579
 20
-126.0641397796819
 10
47.00264348868337
 20
-125.9647487749324
 10
47.23105331935543
 20
-125.941494380407
 10
47.40451387703776
 20
-125.941494380407
 10
47.57590737742894
 20
-125.941494380407
 10
47.80655652016642
 20
-125.962509462867
 10
47.99896510301762
 20
-126.0641397796819
 97
        0
 97
        0
 92
        1
 93
        1
 72
     4
 94
        3
 73
     0
 74
     1
 95
       17
 96
       13
 40
0.0
 40
0.0
 40
0.0
 40
0.0
 40
1.0
 40
1.0
 40
1.0
 40
2.0
 40
2.0
 40
2.0
 40
3.0
 40
3.0
 40
3.0
 40
4.0
 40
4.0
 40
4.0
 40
4.0
 10
46.77630071530245
 20
-126.461876053454
 10
46.77630071530245
 20
-126.7116454761346
 10
47.05965981896426
 20
-126.7581542651855
 10
47.40451387703776
 20
-126.7581542651855
 10
47.72404648329469
 20
-126.7581542651855
 10
48.03289929354733
 20
-126.7219807625903
 10
48.03289929354733
 20
-126.461876053454
 10
48.03289929354733
 20
-126.2143459428388
 10
47.75143499240242
 20
-126.1655978417225
 10
47.40451387703776
 20
-126.1655978417225
 10
47.0851535255551
 20
-126.1655978417225
 10
46.77630071530245
 20
-126.2038384016088
 10
46.77630071530245
 20
-126.461876053454
 97
        0
 97
        0
 75
     2
 76
     1
 98
        0
  0
POLYLINE
  5
26A
330
263
100
AcDbEntity
  8
_U+30EC_U+30A4_U+30E4_U+30FC 1
370
     0
100
AcDb2dPolyline
 66
     1
 10
0.0
 20
0.0
 30
0.0
  0
VERTEX
  5
26B
330
26A
100
AcDbEntity
  8
_U+30EC_U+30A4_U+30E4_U+30FC 1
370
     0
100
AcDbVertex
100
AcDb2dVertex
 10
48.17673203005651
 20
-125.724970129159
 30
0.0
  0
VERTEX
  5
26C
330
26A
100
AcDbEntity
  8
_U+30EC_U+30A4_U+30E4_U+30FC 1
370
     0
100
AcDbVertex
100
AcDb2dVertex
 10
47.92506780485901
 20
-125.724970129159
 30
0.0
  0
VERTEX
  5
26D
330
26A
100
AcDbEntity
  8
_U+30EC_U+30A4_U+30E4_U+30FC 1
370
     0
100
AcDbVertex
100
AcDb2dVertex
 10
47.92506780485901
 20
-125.4733059039615
 30
0.0
  0
VERTEX
  5
26E
330
26A
100
AcDbEntity
  8
_U+30EC_U+30A4_U+30E4_U+30FC 1
370
     0
100
AcDbVertex
100
AcDb2dVertex
 10
48.17673203005651
 20
-125.4733059039615
 30
0.0
  0
VERTEX
  5
26F
330
26A
100
AcDbEntity
  8
_U+30EC_U+30A4_U+30E4_U+30FC 1
370
     0
100
AcDbVertex
100
AcDb2dVertex
 10
48.17673203005651
 20
-125.724970129159
 30
0.0
  0
SEQEND
  5
270
330
26A
100
AcDbEntity
  8
_U+30EC_U+30A4_U+30E4_U+30FC 1
370
     0
  0
HATCH
  5
271
330
263
100
AcDbEntity
  8
_U+30EC_U+30A4_U+30E4_U+30FC 1
 62
   179
420
  2234388
100
AcDbHatch
 10
0.0
 20
0.0
 30
0.0
210
0.0
220
0.0
230
1.0
  2
SOLID
 70
     1
 71
     0
 91
        1
 92
        1
 93
        4
 72
     1
 10
48.17673203005651
 20
-125.724970129159
 11
47.92506780485901
 21
-125.724970129159
 72
     1
 10
47.92506780485901
 20
-125.724970129159
 11
47.92506780485901
 21
-125.4733059039615
 72
     1
 10
47.92506780485901
 20
-125.4733059039615
 11
48.17673203005651
 21
-125.4733059039615
 72
     1
 10
48.17673203005651
 20
-125.4733059039615
 11
48.17673203005651
 21
-125.724970129159
 97
        0
 75
     2
 76
     1
 98
        0
  0
SPLINE
  5
272
330
263
100
AcDbEntity
  8
_U+30EC_U+30A4_U+30E4_U+30FC 1
370
     0
100
AcDbSpline
210
0.0
220
0.0
230
1.0
 70
    11
 71
     3
 72
    53
 73
    49
 74
     0
 42
0.0000000001
 43
0.0000000001
 12
1.0
 22
0.0
 32
0.0
 13
1.0
 23
0.0
 33
0.0
 40
0.0
 40
0.0
 40
0.0
 40
0.0
 40
1.0
 40
1.0
 40
1.0
 40
2.0
 40
2.0
 40
2.0
 40
3.0
 40
3.0
 40
3.0
 40
4.0
 40
4.0
 40
4.0
 40
5.0
 40
5.0
 40
5.0
 40
6.0
 40
6.0
 40
6.0
 40
7.0
 40
7.0
 40
7.0
 40
8.0
 40
8.0
 40
8.0
 40
9.0
 40
9.0
 40
9.0
 40
10.0
 40
10.0
 40
10.0
 40
11.0
 40
11.0
 40
11.0
 40
12.0
 40
12.0
 40
12.0
 40
13.0
 40
13.0
 40
13.0
 40
14.0
 40
14.0
 40
14.0
 40
15.0
 40
15.0
 40
15.0
 40
16.0
 40
16.0
 40
16.0
 40
16.0
 10
48.22754718846395
 20
-124.755692514384
 30
0.0
 10
48.22754718846395
 20
-124.8340684366734
 30
0.0
 10
48.21066622058623
 20
-124.935526498714
 30
0.0
 10
48.14710420888336
 20
-125.0371568155289
 30
0.0
 10
48.03703340812963
 20
-125.2106173732112
 30
0.0
 10
47.90594752491587
 20
-125.2318047104455
 30
0.0
 10
47.79811603622755
 20
-125.2507527356144
 30
0.0
 10
47.79811603622755
 20
-125.2507527356144
 30
0.0
 10
47.79811603622755
 20
-125.02871633159
 30
0.0
 10
47.79811603622755
 20
-125.02871633159
 30
0.0
 10
47.99689804572647
 20
-124.973594803826
 30
0.0
 10
48.02652586689962
 20
-124.8466430351946
 30
0.0
 10
48.02652586689962
 20
-124.7536254570929
 30
0.0
 10
48.02652586689962
 20
-124.613926835166
 30
0.0
 10
47.92713486215016
 20
-124.4616536147179
 30
0.0
 10
47.69441866212154
 20
-124.4616536147179
 30
0.0
 10
47.43844806756747
 20
-124.4616536147179
 30
0.0
 10
47.36868488399116
 20
-124.641487599048
 30
0.0
 10
47.36868488399116
 20
-124.7620659410317
 30
0.0
 10
47.36868488399116
 20
-124.793760819496
 30
0.0
 10
47.36868488399116
 20
-124.935526498714
 30
0.0
 10
47.49770370991377
 20
-125.0244099622335
 30
0.0
 10
47.49770370991377
 20
-125.0244099622335
 30
0.0
 10
47.47858342997063
 20
-125.199937577207
 30
0.0
 10
47.47858342997063
 20
-125.199937577207
 30
0.0
 10
47.47858342997063
 20
-125.199937577207
 30
0.0
 10
46.63246797879327
 20
-125.0793592352232
 30
0.0
 10
46.63246797879327
 20
-125.0793592352232
 30
0.0
 10
46.63246797879327
 20
-125.0793592352232
 30
0.0
 10
46.63246797879327
 20
-124.300939910331
 30
0.0
 10
46.63246797879327
 20
-124.300939910331
 30
0.0
 10
46.63246797879327
 20
-124.300939910331
 30
0.0
 10
46.82711587370989
 20
-124.300939910331
 30
0.0
 10
46.82711587370989
 20
-124.300939910331
 30
0.0
 10
46.82711587370989
 20
-124.300939910331
 30
0.0
 10
46.82711587370989
 20
-124.9165784735452
 30
0.0
 10
46.82711587370989
 20
-124.9165784735452
 30
0.0
 10
46.82711587370989
 20
-124.9165784735452
 30
0.0
 10
47.25017359929857
 20
-124.9820352877649
 30
0.0
 10
47.25017359929857
 20
-124.9820352877649
 30
0.0
 10
47.21623940876886
 20
-124.9207125881275
 30
0.0
 10
47.1761040463657
 20
-124.8382025512557
 30
0.0
 10
47.1761040463657
 20
-124.7198635213374
 30
0.0
 10
47.1761040463657
 20
-124.4659599840745
 30
0.0
 10
47.36231145734345
 20
-124.2289374146893
 30
0.0
 10
47.6752983821784
 20
-124.2289374146893
 30
0.0
 10
47.99276393114418
 20
-124.2289374146893
 30
0.0
 10
48.22754718846395
 20
-124.4532131307791
 30
0.0
 10
48.22754718846395
 20
-124.755692514384
 30
0.0
  0
HATCH
  5
273
330
263
100
AcDbEntity
  8
_U+30EC_U+30A4_U+30E4_U+30FC 1
 62
   179
420
  2234388
100
AcDbHatch
 10
0.0
 20
0.0
 30
0.0
210
0.0
220
0.0
230
1.0
  2
SOLID
 70
     1
 71
     0
 91
        1
 92
        1
 93
        1
 72
     4
 94
        3
 73
     0
 74
     1
 95
       53
 96
       49
 40
0.0
 40
0.0
 40
0.0
 40
0.0
 40
1.0
 40
1.0
 40
1.0
 40
2.0
 40
2.0
 40
2.0
 40
3.0
 40
3.0
 40
3.0
 40
4.0
 40
4.0
 40
4.0
 40
5.0
 40
5.0
 40
5.0
 40
6.0
 40
6.0
 40
6.0
 40
7.0
 40
7.0
 40
7.0
 40
8.0
 40
8.0
 40
8.0
 40
9.0
 40
9.0
 40
9.0
 40
10.0
 40
10.0
 40
10.0
 40
11.0
 40
11.0
 40
11.0
 40
12.0
 40
12.0
 40
12.0
 40
13.0
 40
13.0
 40
13.0
 40
14.0
 40
14.0
 40
14.0
 40
15.0
 40
15.0
 40
15.0
 40
16.0
 40
16.0
 40
16.0
 40
16.0
 10
48.22754718846395
 20
-124.755692514384
 10
48.22754718846395
 20
-124.8340684366734
 10
48.21066622058623
 20
-124.935526498714
 10
48.14710420888336
 20
-125.0371568155289
 10
48.03703340812963
 20
-125.2106173732112
 10
47.90594752491587
 20
-125.2318047104455
 10
47.79811603622755
 20
-125.2507527356144
 10
47.79811603622755
 20
-125.2507527356144
 10
47.79811603622755
 20
-125.02871633159
 10
47.79811603622755
 20
-125.02871633159
 10
47.99689804572647
 20
-124.973594803826
 10
48.02652586689962
 20
-124.8466430351946
 10
48.02652586689962
 20
-124.7536254570929
 10
48.02652586689962
 20
-124.613926835166
 10
47.92713486215016
 20
-124.4616536147179
 10
47.69441866212154
 20
-124.4616536147179
 10
47.43844806756747
 20
-124.4616536147179
 10
47.36868488399116
 20
-124.641487599048
 10
47.36868488399116
 20
-124.7620659410317
 10
47.36868488399116
 20
-124.793760819496
 10
47.36868488399116
 20
-124.935526498714
 10
47.49770370991377
 20
-125.0244099622335
 10
47.49770370991377
 20
-125.0244099622335
 10
47.47858342997063
 20
-125.199937577207
 10
47.47858342997063
 20
-125.199937577207
 10
47.47858342997063
 20
-125.199937577207
 10
46.63246797879327
 20
-125.0793592352232
 10
46.63246797879327
 20
-125.0793592352232
 10
46.63246797879327
 20
-125.0793592352232
 10
46.63246797879327
 20
-124.300939910331
 10
46.63246797879327
 20
-124.300939910331
 10
46.63246797879327
 20
-124.300939910331
 10
46.82711587370989
 20
-124.300939910331
 10
46.82711587370989
 20
-124.300939910331
 10
46.82711587370989
 20
-124.300939910331
 10
46.82711587370989
 20
-124.9165784735452
 10
46.82711587370989
 20
-124.9165784735452
 10
46.82711587370989
 20
-124.9165784735452
 10
47.25017359929857
 20
-124.9820352877649
 10
47.25017359929857
 20
-124.9820352877649
 10
47.21623940876886
 20
-124.9207125881275
 10
47.1761040463657
 20
-124.8382025512557
 10
47.1761040463657
 20
-124.7198635213374
 10
47.1761040463657
 20
-124.4659599840745
 10
47.36231145734345
 20
-124.2289374146893
 10
47.6752983821784
 20
-124.2289374146893
 10
47.99276393114418
 20
-124.2289374146893
 10
48.22754718846395
 20
-124.4532131307791
 10
48.22754718846395
 20
-124.755692514384
 97
        0
 97
        0
 75
     2
 76
     1
 98
        0
  0
ENDBLK
  5
266
330
263
100
AcDbEntity
  8
0
100
AcDbBlockEnd
  0
BLOCK
  5
27E
330
27C
100
AcDbEntity
  8
0
100
AcDbBlockBegin
  2
block 8
 70
     0
 10
0.0
 20
0.0
 30
0.0
  3
block 8
  1

  0
SPLINE
  5
280
330
27C
100
AcDbEntity
  8
_U+30EC_U+30A4_U+30E4_U+30FC 1
370
     0
100
AcDbSpline
210
0.0
220
0.0
230
1.0
 70
    11
 71
     3
 72
    29
 73
    25
 74
     0
 42
0.0000000001
 43
0.0000000001
 12
1.0
 22
0.0
 32
0.0
 13
1.0
 23
0.0
 33
0.0
 40
0.0
 40
0.0
 40
0.0
 40
0.0
 40
1.0
 40
1.0
 40
1.0
 40
2.0
 40
2.0
 40
2.0
 40
3.0
 40
3.0
 40
3.0
 40
4.0
 40
4.0
 40
4.0
 40
5.0
 40
5.0
 40
5.0
 40
6.0
 40
6.0
 40
6.0
 40
7.0
 40
7.0
 40
7.0
 40
8.0
 40
8.0
 40
8.0
 40
8.0
 10
48.22754718846395
 20
-129.9255750543242
 30
0.0
 10
48.22754718846395
 20
-130.1922254448825
 30
0.0
 10
48.08991562382822
 20
-130.4457844725969
 30
0.0
 10
47.74092745117241
 20
-130.4457844725969
 30
0.0
 10
47.48495685661835
 20
-130.4457844725969
 30
0.0
 10
47.38969996645119
 20
-130.3041910481531
 30
0.0
 10
47.32837726681374
 20
-130.198426616756
 30
0.0
 10
47.26912162446745
 20
-130.323139073322
 30
0.0
 10
47.15491670913141
 20
-130.399275683546
 30
0.0
 10
46.99420300474451
 20
-130.399275683546
 30
0.0
 10
46.71911213024731
 20
-130.399275683546
 30
0.0
 10
46.58371987767699
 20
-130.2004936740471
 30
0.0
 10
46.58371987767699
 20
-129.9255750543242
 30
0.0
 10
46.58371987767699
 20
-129.6420436958881
 30
0.0
 10
46.72755261418617
 20
-129.4515299155538
 30
0.0
 10
46.99420300474451
 20
-129.4515299155538
 30
0.0
 10
47.15491670913141
 20
-129.4515299155538
 30
0.0
 10
47.26912162446745
 20
-129.5300780926175
 30
0.0
 10
47.32837726681374
 20
-129.6547905491835
 30
0.0
 10
47.37919242522118
 20
-129.5659070856641
 30
0.0
 10
47.47444931538833
 20
-129.4070881837941
 30
0.0
 10
47.73662108181585
 20
-129.4070881837941
 30
0.0
 10
48.11110296106251
 20
-129.4070881837941
 30
0.0
 10
48.22754718846395
 20
-129.6864854276478
 30
0.0
 10
48.22754718846395
 20
-129.9255750543242
 30
0.0
  0
SPLINE
  5
281
330
27C
100
AcDbEntity
  8
_U+30EC_U+30A4_U+30E4_U+30FC 1
370
     0
100
AcDbSpline
210
0.0
220
0.0
230
1.0
 70
    11
 71
     3
 72
    17
 73
    13
 74
     0
 42
0.0000000001
 43
0.0000000001
 12
1.0
 22
0.0
 32
0.0
 13
1.0
 23
0.0
 33
0.0
 40
0.0
 40
0.0
 40
0.0
 40
0.0
 40
1.0
 40
1.0
 40
1.0
 40
2.0
 40
2.0
 40
2.0
 40
3.0
 40
3.0
 40
3.0
 40
4.0
 40
4.0
 40
4.0
 40
4.0
 10
46.77630071530245
 20
-129.9255750543242
 30
0.0
 10
46.77630071530245
 20
-130.0905951280676
 30
0.0
 10
46.87138535069535
 20
-130.1749999674562
 30
0.0
 10
47.00677760326567
 20
-130.1749999674562
 30
0.0
 10
47.12959525731483
 20
-130.1749999674562
 30
0.0
 10
47.24810654200742
 20
-130.1033419813631
 30
0.0
 10
47.24810654200742
 20
-129.9255750543242
 30
0.0
 10
47.24810654200742
 20
-129.7478081272853
 30
0.0
 10
47.12959525731483
 20
-129.6758056316436
 30
0.0
 10
47.00677760326567
 20
-129.6758056316436
 30
0.0
 10
46.87138535069535
 20
-129.6758056316436
 30
0.0
 10
46.77630071530245
 20
-129.7626220378719
 30
0.0
 10
46.77630071530245
 20
-129.9255750543242
 30
0.0
  0
SPLINE
  5
282
330
27C
100
AcDbEntity
  8
_U+30EC_U+30A4_U+30E4_U+30FC 1
370
     0
100
AcDbSpline
210
0.0
220
0.0
230
1.0
 70
    11
 71
     3
 72
    17
 73
    13
 74
     0
 42
0.0000000001
 43
0.0000000001
 12
1.0
 22
0.0
 32
0.0
 13
1.0
 23
0.0
 33
0.0
 40
0.0
 40
0.0
 40
0.0
 40
0.0
 40
1.0
 40
1.0
 40
1.0
 40
2.0
 40
2.0
 40
2.0
 40
3.0
 40
3.0
 40
3.0
 40
4.0
 40
4.0
 40
4.0
 40
4.0
 10
47.43638101027632
 20
-129.9255750543242
 30
0.0
 10
47.43638101027632
 20
-130.0692355360591
 30
0.0
 10
47.52302516173036
 20
-130.2218532660557
 30
0.0
 10
47.72611354058584
 20
-130.2218532660557
 30
0.0
 10
47.93126897673246
 20
-130.2218532660557
 30
0.0
 10
48.03289929354733
 20
-130.0947292426499
 30
0.0
 10
48.03289929354733
 20
-129.9255750543242
 30
0.0
 10
48.03289929354733
 20
-129.7395398981207
 30
0.0
 10
47.91025389427244
 20
-129.6292968425927
 30
0.0
 10
47.73248696723355
 20
-129.6292968425927
 30
0.0
 10
47.51027830843493
 20
-129.6292968425927
 30
0.0
 10
47.43638101027632
 20
-129.792249859045
 30
0.0
 10
47.43638101027632
 20
-129.9255750543242
 30
0.0
  0
HATCH
  5
283
330
27C
100
AcDbEntity
  8
_U+30EC_U+30A4_U+30E4_U+30FC 1
 62
   179
420
  2234388
100
AcDbHatch
 10
0.0
 20
0.0
 30
0.0
210
0.0
220
0.0
230
1.0
  2
SOLID
 70
     1
 71
     0
 91
        3
 92
        1
 93
        1
 72
     4
 94
        3
 73
     0
 74
     1
 95
       29
 96
       25
 40
0.0
 40
0.0
 40
0.0
 40
0.0
 40
1.0
 40
1.0
 40
1.0
 40
2.0
 40
2.0
 40
2.0
 40
3.0
 40
3.0
 40
3.0
 40
4.0
 40
4.0
 40
4.0
 40
5.0
 40
5.0
 40
5.0
 40
6.0
 40
6.0
 40
6.0
 40
7.0
 40
7.0
 40
7.0
 40
8.0
 40
8.0
 40
8.0
 40
8.0
 10
48.22754718846395
 20
-129.9255750543242
 10
48.22754718846395
 20
-130.1922254448825
 10
48.08991562382822
 20
-130.4457844725969
 10
47.74092745117241
 20
-130.4457844725969
 10
47.48495685661835
 20
-130.4457844725969
 10
47.38969996645119
 20
-130.3041910481531
 10
47.32837726681374
 20
-130.198426616756
 10
47.26912162446745
 20
-130.323139073322
 10
47.15491670913141
 20
-130.399275683546
 10
46.99420300474451
 20
-130.399275683546
 10
46.71911213024731
 20
-130.399275683546
 10
46.58371987767699
 20
-130.2004936740471
 10
46.58371987767699
 20
-129.9255750543242
 10
46.58371987767699
 20
-129.6420436958881
 10
46.72755261418617
 20
-129.4515299155538
 10
46.99420300474451
 20
-129.4515299155538
 10
47.15491670913141
 20
-129.4515299155538
 10
47.26912162446745
 20
-129.5300780926175
 10
47.32837726681374
 20
-129.6547905491835
 10
47.37919242522118
 20
-129.5659070856641
 10
47.47444931538833
 20
-129.4070881837941
 10
47.73662108181585
 20
-129.4070881837941
 10
48.11110296106251
 20
-129.4070881837941
 10
48.22754718846395
 20
-129.6864854276478
 10
48.22754718846395
 20
-129.9255750543242
 97
        0
 97
        0
 92
        1
 93
        1
 72
     4
 94
        3
 73
     0
 74
     1
 95
       17
 96
       13
 40
0.0
 40
0.0
 40
0.0
 40
0.0
 40
1.0
 40
1.0
 40
1.0
 40
2.0
 40
2.0
 40
2.0
 40
3.0
 40
3.0
 40
3.0
 40
4.0
 40
4.0
 40
4.0
 40
4.0
 10
46.77630071530245
 20
-129.9255750543242
 10
46.77630071530245
 20
-130.0905951280676
 10
46.87138535069535
 20
-130.1749999674562
 10
47.00677760326567
 20
-130.1749999674562
 10
47.12959525731483
 20
-130.1749999674562
 10
47.24810654200742
 20
-130.1033419813631
 10
47.24810654200742
 20
-129.9255750543242
 10
47.24810654200742
 20
-129.7478081272853
 10
47.12959525731483
 20
-129.6758056316436
 10
47.00677760326567
 20
-129.6758056316436
 10
46.87138535069535
 20
-129.6758056316436
 10
46.77630071530245
 20
-129.7626220378719
 10
46.77630071530245
 20
-129.9255750543242
 97
        0
 97
        0
 92
        1
 93
        1
 72
     4
 94
        3
 73
     0
 74
     1
 95
       17
 96
       13
 40
0.0
 40
0.0
 40
0.0
 40
0.0
 40
1.0
 40
1.0
 40
1.0
 40
2.0
 40
2.0
 40
2.0
 40
3.0
 40
3.0
 40
3.0
 40
4.0
 40
4.0
 40
4.0
 40
4.0
 10
47.43638101027632
 20
-129.9255750543242
 10
47.43638101027632
 20
-130.0692355360591
 10
47.52302516173036
 20
-130.2218532660557
 10
47.72611354058584
 20
-130.2218532660557
 10
47.93126897673246
 20
-130.2218532660557
 10
48.03289929354733
 20
-130.0947292426499
 10
48.03289929354733
 20
-129.9255750543242
 10
48.03289929354733
 20
-129.7395398981207
 10
47.91025389427244
 20
-129.6292968425927
 10
47.73248696723355
 20
-129.6292968425927
 10
47.51027830843493
 20
-129.6292968425927
 10
47.43638101027632
 20
-129.792249859045
 10
47.43638101027632
 20
-129.9255750543242
 97
        0
 97
        0
 75
     2
 76
     1
 98
        0
  0
ENDBLK
  5
27F
330
27C
100
AcDbEntity
  8
0
100
AcDbBlockEnd
  0
BLOCK
  5
28A
330
288
100
AcDbEntity
  8
0
100
AcDbBlockBegin
  2
block 9
 70
     0
 10
0.0
 20
0.0
 30
0.0
  3
block 9
  1

  0
SPLINE
  5
28C
330
288
100
AcDbEntity
  8
_U+30EC_U+30A4_U+30E4_U+30FC 1
370
     0
100
AcDbSpline
210
0.0
220
0.0
230
1.0
 70
    11
 71
     3
 72
    26
 73
    22
 74
     0
 42
0.0000000001
 43
0.0000000001
 12
1.0
 22
0.0
 32
0.0
 13
1.0
 23
0.0
 33
0.0
 40
0.0
 40
0.0
 40
0.0
 40
0.0
 40
1.0
 40
1.0
 40
1.0
 40
2.0
 40
2.0
 40
2.0
 40
3.0
 40
3.0
 40
3.0
 40
4.0
 40
4.0
 40
4.0
 40
5.0
 40
5.0
 40
5.0
 40
6.0
 40
6.0
 40
6.0
 40
7.0
 40
7.0
 40
7.0
 40
7.0
 10
83.2884561966258
 20
-130.275252246077
 30
0.0
 10
83.2884561966258
 20
-130.275252246077
 30
0.0
 10
83.2884561966258
 20
-129.1710991430544
 30
0.0
 10
83.2884561966258
 20
-129.1710991430544
 30
0.0
 10
83.2884561966258
 20
-129.1710991430544
 30
0.0
 10
82.95841604913888
 20
-129.1710991430544
 30
0.0
 10
82.95841604913888
 20
-129.1710991430544
 30
0.0
 10
82.95841604913888
 20
-129.1710991430544
 30
0.0
 10
82.95841604913888
 20
-129.0229600371887
 30
0.0
 10
82.95841604913888
 20
-129.0229600371887
 30
0.0
 10
83.29052325391696
 20
-129.0081461266021
 30
0.0
 10
83.33703204296783
 20
-128.8451931101498
 30
0.0
 10
83.36665986414098
 20
-128.7311604495881
 30
0.0
 10
83.36665986414098
 20
-128.7311604495881
 30
0.0
 10
83.51273191271557
 20
-128.7311604495881
 30
0.0
 10
83.51273191271557
 20
-128.7311604495881
 30
0.0
 10
83.51273191271557
 20
-128.7311604495881
 30
0.0
 10
83.51273191271557
 20
-130.275252246077
 30
0.0
 10
83.51273191271557
 20
-130.275252246077
 30
0.0
 10
83.51273191271557
 20
-130.275252246077
 30
0.0
 10
83.2884561966258
 20
-130.275252246077
 30
0.0
 10
83.2884561966258
 20
-130.275252246077
 30
0.0
  0
HATCH
  5
28D
330
288
100
AcDbEntity
  8
_U+30EC_U+30A4_U+30E4_U+30FC 1
 62
   179
420
  2234388
100
AcDbHatch
 10
0.0
 20
0.0
 30
0.0
210
0.0
220
0.0
230
1.0
  2
SOLID
 70
     1
 71
     0
 91
        1
 92
        1
 93
        1
 72
     4
 94
        3
 73
     0
 74
     1
 95
       26
 96
       22
 40
0.0
 40
0.0
 40
0.0
 40
0.0
 40
1.0
 40
1.0
 40
1.0
 40
2.0
 40
2.0
 40
2.0
 40
3.0
 40
3.0
 40
3.0
 40
4.0
 40
4.0
 40
4.0
 40
5.0
 40
5.0
 40
5.0
 40
6.0
 40
6.0
 40
6.0
 40
7.0
 40
7.0
 40
7.0
 40
7.0
 10
83.2884561966258
 20
-130.275252246077
 10
83.2884561966258
 20
-130.275252246077
 10
83.2884561966258
 20
-129.1710991430544
 10
83.2884561966258
 20
-129.1710991430544
 10
83.2884561966258
 20
-129.1710991430544
 10
82.95841604913888
 20
-129.1710991430544
 10
82.95841604913888
 20
-129.1710991430544
 10
82.95841604913888
 20
-129.1710991430544
 10
82.95841604913888
 20
-129.0229600371887
 10
82.95841604913888
 20
-129.0229600371887
 10
83.29052325391696
 20
-129.0081461266021
 10
83.33703204296783
 20
-128.8451931101498
 10
83.36665986414098
 20
-128.7311604495881
 10
83.36665986414098
 20
-128.7311604495881
 10
83.51273191271557
 20
-128.7311604495881
 10
83.51273191271557
 20
-128.7311604495881
 10
83.51273191271557
 20
-128.7311604495881
 10
83.51273191271557
 20
-130.275252246077
 10
83.51273191271557
 20
-130.275252246077
 10
83.51273191271557
 20
-130.275252246077
 10
83.2884561966258
 20
-130.275252246077
 10
83.2884561966258
 20
-130.275252246077
 97
        0
 97
        0
 75
     2
 76
     1
 98
        0
  0
ENDBLK
  5
28B
330
288
100
AcDbEntity
  8
0
100
AcDbBlockEnd
  0
BLOCK
  5
290
330
28E
100
AcDbEntity
  8
0
100
AcDbBlockBegin
  2
block 10
 70
     0
 10
0.0
 20
0.0
 30
0.0
  3
block 10
  1

  0
INSERT
  5
293
330
28E
100
AcDbEntity
  8
_U+30EC_U+30A4_U+30E4_U+30FC 1
100
AcDbBlockReference
  2
block 11
 10
0.0
 20
0.0
 30
0.0
  0
INSERT
  5
2A3
330
28E
100
AcDbEntity
  8
_U+30EC_U+30A4_U+30E4_U+30FC 1
100
AcDbBlockReference
  2
block 12
 10
0.0
 20
0.0
 30
0.0
  0
ENDBLK
  5
291
330
28E
100
AcDbEntity
  8
0
100
AcDbBlockEnd
  0
BLOCK
  5
294
330
292
100
AcDbEntity
  8
0
100
AcDbBlockBegin
  2
block 11
 70
     0
 10
0.0
 20
0.0
 30
0.0
  3
block 11
  1

  0
POLYLINE
  5
296
330
292
100
AcDbEntity
  8
_U+30EC_U+30A4_U+30E4_U+30FC 1
 62
     7
420
 16777215
370
     9
100
AcDb2dPolyline
 66
     1
 10
0.0
 20
0.0
 30
0.0
  0
VERTEX
  5
297
330
296
100
AcDbEntity
  8
_U+30EC_U+30A4_U+30E4_U+30FC 1
 62
     7
420
 16777215
370
     9
100
AcDbVertex
100
AcDb2dVertex
 10
94.84070480263426
 20
-126.6273960794543
 30
0.0
  0
VERTEX
  5
298
330
296
100
AcDbEntity
  8
_U+30EC_U+30A4_U+30E4_U+30FC 1
 62
     7
420
 16777215
370
     9
100
AcDbVertex
100
AcDb2dVertex
 10
95.65202311526915
 20
-127.2120546904192
 30
0.0
  0
SEQEND
  5
299
330
296
100
AcDbEntity
  8
_U+30EC_U+30A4_U+30E4_U+30FC 1
 62
     7
420
 16777215
370
     9
  0
POLYLINE
  5
29A
330
292
100
AcDbEntity
  8
_U+30EC_U+30A4_U+30E4_U+30FC 1
 62
     7
420
 16777215
370
     9
100
AcDb2dPolyline
 66
     1
 10
0.0
 20
0.0
 30
0.0
  0
VERTEX
  5
29B
330
29A
100
AcDbEntity
  8
_U+30EC_U+30A4_U+30E4_U+30FC 1
 62
     7
420
 16777215
370
     9
100
AcDbVertex
100
AcDb2dVertex
 10
94.84070480263426
 20
-126.6273960794543
 30
0.0
  0
VERTEX
  5
29C
330
29A
100
AcDbEntity
  8
_U+30EC_U+30A4_U+30E4_U+30FC 1
 62
     7
420
 16777215
370
     9
100
AcDbVertex
100
AcDb2dVertex
 10
97.41834612576204
 20
-129.7843338564425
 30
0.0
  0
SEQEND
  5
29D
330
29A
100
AcDbEntity
  8
_U+30EC_U+30A4_U+30E4_U+30FC 1
 62
     7
420
 16777215
370
     9
  0
POLYLINE
  5
29E
330
292
100
AcDbEntity
  8
_U+30EC_U+30A4_U+30E4_U+30FC 1
 62
     7
420
 16777215
370
     9
100
AcDb2dPolyline
 66
     1
 10
0.0
 20
0.0
 30
0.0
  0
VERTEX
  5
29F
330
29E
100
AcDbEntity
  8
_U+30EC_U+30A4_U+30E4_U+30FC 1
 62
     7
420
 16777215
370
     9
100
AcDbVertex
100
AcDb2dVertex
 10
94.84070480263426
 20
-126.6273960794543
 30
0.0
  0
VERTEX
  5
2A0
330
29E
100
AcDbEntity
  8
_U+30EC_U+30A4_U+30E4_U+30FC 1
 62
     7
420
 16777215
370
     9
100
AcDbVertex
100
AcDb2dVertex
 10
95.25102062549956
 20
-127.5395030236707
 30
0.0
  0
SEQEND
  5
2A1
330
29E
100
AcDbEntity
  8
_U+30EC_U+30A4_U+30E4_U+30FC 1
 62
     7
420
 16777215
370
     9
  0
ENDBLK
  5
295
330
292
100
AcDbEntity
  8
0
100
AcDbBlockEnd
  0
BLOCK
  5
2A4
330
2A2
100
AcDbEntity
  8
0
100
AcDbBlockBegin
  2
block 12
 70
     0
 10
0.0
 20
0.0
 30
0.0
  3
block 12
  1

  0
SPLINE
  5
2A6
330
2A2
100
AcDbEntity
  8
_U+30EC_U+30A4_U+30E4_U+30FC 1
370
     0
100
AcDbSpline
210
0.0
220
0.0
230
1.0
 70
    11
 71
     3
 72
   242
 73
   238
 74
     0
 42
0.0000000001
 43
0.0000000001
 12
1.0
 22
0.0
 32
0.0
 13
1.0
 23
0.0
 33
0.0
 40
0.0
 40
0.0
 40
0.0
 40
0.0
 40
1.0
 40
1.0
 40
1.0
 40
2.0
 40
2.0
 40
2.0
 40
3.0
 40
3.0
 40
3.0
 40
4.0
 40
4.0
 40
4.0
 40
5.0
 40
5.0
 40
5.0
 40
6.0
 40
6.0
 40
6.0
 40
7.0
 40
7.0
 40
7.0
 40
8.0
 40
8.0
 40
8.0
 40
9.0
 40
9.0
 40
9.0
 40
10.0
 40
10.0
 40
10.0
 40
11.0
 40
11.0
 40
11.0
 40
12.0
 40
12.0
 40
12.0
 40
13.0
 40
13.0
 40
13.0
 40
14.0
 40
14.0
 40
14.0
 40
15.0
 40
15.0
 40
15.0
 40
16.0
 40
16.0
 40
16.0
 40
17.0
 40
17.0
 40
17.0
 40
18.0
 40
18.0
 40
18.0
 40
19.0
 40
19.0
 40
19.0
 40
20.0
 40
20.0
 40
20.0
 40
21.0
 40
21.0
 40
21.0
 40
22.0
 40
22.0
 40
22.0
 40
23.0
 40
23.0
 40
23.0
 40
24.0
 40
24.0
 40
24.0
 40
25.0
 40
25.0
 40
25.0
 40
26.0
 40
26.0
 40
26.0
 40
27.0
 40
27.0
 40
27.0
 40
28.0
 40
28.0
 40
28.0
 40
29.0
 40
29.0
 40
29.0
 40
30.0
 40
30.0
 40
30.0
 40
31.0
 40
31.0
 40
31.0
 40
32.0
 40
32.0
 40
32.0
 40
33.0
 40
33.0
 40
33.0
 40
34.0
 40
34.0
 40
34.0
 40
35.0
 40
35.0
 40
35.0
 40
36.0
 40
36.0
 40
36.0
 40
37.0
 40
37.0
 40
37.0
 40
38.0
 40
38.0
 40
38.0
 40
39.0
 40
39.0
 40
39.0
 40
40.0
 40
40.0
 40
40.0
 40
41.0
 40
41.0
 40
41.0
 40
42.0
 40
42.0
 40
42.0
 40
43.0
 40
43.0
 40
43.0
 40
44.0
 40
44.0
 40
44.0
 40
45.0
 40
45.0
 40
45.0
 40
46.0
 40
46.0
 40
46.0
 40
47.0
 40
47.0
 40
47.0
 40
48.0
 40
48.0
 40
48.0
 40
49.0
 40
49.0
 40
49.0
 40
50.0
 40
50.0
 40
50.0
 40
51.0
 40
51.0
 40
51.0
 40
52.0
 40
52.0
 40
52.0
 40
53.0
 40
53.0
 40
53.0
 40
54.0
 40
54.0
 40
54.0
 40
55.0
 40
55.0
 40
55.0
 40
56.0
 40
56.0
 40
56.0
 40
57.0
 40
57.0
 40
57.0
 40
58.0
 40
58.0
 40
58.0
 40
59.0
 40
59.0
 40
59.0
 40
60.0
 40
60.0
 40
60.0
 40
61.0
 40
61.0
 40
61.0
 40
62.0
 40
62.0
 40
62.0
 40
63.0
 40
63.0
 40
63.0
 40
64.0
 40
64.0
 40
64.0
 40
65.0
 40
65.0
 40
65.0
 40
66.0
 40
66.0
 40
66.0
 40
67.0
 40
67.0
 40
67.0
 40
68.0
 40
68.0
 40
68.0
 40
69.0
 40
69.0
 40
69.0
 40
70.0
 40
70.0
 40
70.0
 40
71.0
 40
71.0
 40
71.0
 40
72.0
 40
72.0
 40
72.0
 40
73.0
 40
73.0
 40
73.0
 40
74.0
 40
74.0
 40
74.0
 40
75.0
 40
75.0
 40
75.0
 40
76.0
 40
76.0
 40
76.0
 40
77.0
 40
77.0
 40
77.0
 40
78.0
 40
78.0
 40
78.0
 40
79.0
 40
79.0
 40
79.0
 40
79.0
 10
99.64973142040007
 20
-129.8470268772605
 30
0.0
 10
99.64973142040007
 20
-129.8470268772605
 30
0.0
 10
99.39582788313716
 20
-129.8470268772605
 30
0.0
 10
99.39582788313716
 20
-129.8470268772605
 30
0.0
 10
99.39582788313716
 20
-129.8470268772605
 30
0.0
 10
99.11849769657455
 20
-129.8470268772605
 30
0.0
 10
99.11849769657455
 20
-129.8470268772605
 30
0.0
 10
99.11849769657455
 20
-129.8470268772605
 30
0.0
 10
99.24562171998026
 20
-129.889401551729
 30
0.0
 10
99.24562171998026
 20
-129.889401551729
 30
0.0
 10
99.25630151598455
 20
-129.8935356663114
 30
0.0
 10
99.26870385973145
 20
-129.8997368381848
 30
0.0
 10
99.26870385973145
 20
-129.9124836914802
 30
0.0
 10
99.26870385973145
 20
-129.9338432834888
 30
0.0
 10
99.23700898126714
 20
-129.9400444553622
 30
0.0
 10
99.21599389880711
 20
-129.9441785699445
 30
0.0
 10
99.20531410280284
 20
-129.9676052192442
 30
0.0
 10
99.1756862816297
 20
-130.0330620334639
 30
0.0
 10
99.15673825646083
 20
-130.0775037652237
 30
0.0
 10
99.15673825646083
 20
-130.0775037652237
 30
0.0
 10
99.42752276160145
 20
-130.0775037652237
 30
0.0
 10
99.42752276160145
 20
-130.0775037652237
 30
0.0
 10
99.51847328241205
 20
-130.0775037652237
 30
0.0
 10
99.71518823461982
 20
-130.0733696506414
 30
0.0
 10
99.85678165906359
 20
-130.0647569119283
 30
0.0
 10
99.85678165906359
 20
-130.0647569119283
 30
0.0
 10
99.85678165906359
 20
-130.2425238389671
 30
0.0
 10
99.85678165906359
 20
-130.2425238389671
 30
0.0
 10
99.77444387696612
 20
-130.2383897243849
 30
0.0
 10
99.75342879450609
 20
-130.2383897243849
 30
0.0
 10
99.57359481017605
 20
-130.2342556098025
 30
0.0
 10
99.54189993171175
 20
-130.3885958875418
 30
0.0
 10
99.49745819995204
 20
-130.4688666123481
 30
0.0
 10
99.4530164681923
 20
-130.5388020506986
 30
0.0
 10
99.57359481017605
 20
-130.598057693045
 30
0.0
 10
99.67935924157322
 20
-130.6655815645558
 30
0.0
 10
99.78305661567924
 20
-130.7482638562018
 30
0.0
 10
99.78305661567924
 20
-130.7482638562018
 30
0.0
 10
99.66454533098664
 20
-130.9153509872365
 30
0.0
 10
99.66454533098664
 20
-130.9153509872365
 30
0.0
 10
99.64111868168695
 20
-130.8964029620676
 30
0.0
 10
99.62837182839152
 20
-130.8877902233544
 30
0.0
 10
99.5164062251209
 20
-130.8030408744173
 30
0.0
 10
99.46783037877888
 20
-130.7651448240796
 30
0.0
 10
99.40857473643258
 20
-130.7289713214844
 30
0.0
 10
99.32795950207773
 20
-130.6845295897247
 30
0.0
 10
99.1164306392834
 20
-130.8709092554767
 30
0.0
 10
98.91144745791104
 20
-130.8939913952279
 30
0.0
 10
98.62137041805299
 20
-130.9236192164011
 30
0.0
 10
98.62137041805299
 20
-130.9236192164011
 30
0.0
 10
98.51767304394697
 20
-130.743785232071
 30
0.0
 10
98.51767304394697
 20
-130.743785232071
 30
0.0
 10
98.83531084768701
 20
-130.7396511174887
 30
0.0
 10
99.01066620788623
 20
-130.7141574108979
 30
0.0
 10
99.16293942833427
 20
-130.6042588649184
 30
0.0
 10
99.04442814364168
 20
-130.5536159612852
 30
0.0
 10
98.95588918967076
 20
-130.5260551974032
 30
0.0
 10
98.91971568707564
 20
-130.5133083441078
 30
0.0
 10
98.90076766190676
 20
-130.5408691079898
 30
0.0
 10
98.88595375132019
 20
-130.5598171331587
 30
0.0
 10
98.85839298743818
 20
-130.5935790689141
 30
0.0
 10
98.85839298743818
 20
-130.5935790689141
 30
0.0
 10
98.66167803523042
 20
-130.5112412868166
 30
0.0
 10
98.66167803523042
 20
-130.5112412868166
 30
0.0
 10
98.74401581732789
 20
-130.4309705620103
 30
0.0
 10
98.80568302651386
 20
-130.3355414170689
 30
0.0
 10
98.86252710202048
 20
-130.2342556098025
 30
0.0
 10
98.67235783123469
 20
-130.2383897243849
 30
0.0
 10
98.65099823922614
 20
-130.2383897243849
 30
0.0
 10
98.56866045712867
 20
-130.2425238389671
 30
0.0
 10
98.56866045712867
 20
-130.2425238389671
 30
0.0
 10
98.56866045712867
 20
-130.0647569119283
 30
0.0
 10
98.56866045712867
 20
-130.0647569119283
 30
0.0
 10
98.70818682428128
 20
-130.0713025933502
 30
0.0
 10
98.91764862978448
 20
-130.0754367079325
 30
0.0
 10
98.94314233637533
 20
-130.0754367079325
 30
0.0
 10
98.96002330425306
 20
-130.0416747721771
 30
0.0
 10
99.01480032246853
 20
-129.9210964301933
 30
0.0
 10
99.03409285718593
 20
-129.8470268772605
 30
0.0
 10
99.01480032246853
 20
-129.8470268772605
 30
0.0
 10
98.83737790497815
 20
-129.8532280491339
 30
0.0
 10
98.64273001006154
 20
-129.8659749024293
 30
0.0
 10
98.64273001006154
 20
-129.8659749024293
 30
0.0
 10
98.64273001006154
 20
-129.9993000977085
 30
0.0
 10
98.64273001006154
 20
-129.9993000977085
 30
0.0
 10
98.59415416371952
 20
-130.0247938042993
 30
0.0
 10
98.53489852137322
 20
-130.0564886827637
 30
0.0
 10
98.40157332609405
 20
-130.1219454969834
 30
0.0
 10
98.40157332609405
 20
-130.1219454969834
 30
0.0
 10
98.40157332609405
 20
-130.268017545558
 30
0.0
 10
98.40157332609405
 20
-130.268017545558
 30
0.0
 10
98.40157332609405
 20
-130.268017545558
 30
0.0
 10
98.40157332609405
 20
-130.7355170029064
 30
0.0
 10
98.40157332609405
 20
-130.7355170029064
 30
0.0
 10
98.40157332609405
 20
-130.8622965167636
 30
0.0
 10
98.36539982349893
 20
-130.9215521591099
 30
0.0
 10
98.08186846506287
 20
-130.9132839299453
 30
0.0
 10
98.08186846506287
 20
-130.9132839299453
 30
0.0
 10
97.97851560050538
 20
-130.7058891817333
 30
0.0
 10
97.97851560050538
 20
-130.7058891817333
 30
0.0
 10
98.04190535743398
 20
-130.7186360350287
 30
0.0
 10
98.090481203776
 20
-130.722770149611
 30
0.0
 10
98.13078882095341
 20
-130.722770149611
 30
0.0
 10
98.20692543117744
 20
-130.722770149611
 30
0.0
 10
98.2172607176332
 20
-130.6993435003113
 30
0.0
 10
98.2172607176332
 20
-130.6338866860915
 30
0.0
 10
98.2172607176332
 20
-130.6338866860915
 30
0.0
 10
98.2172607176332
 20
-130.2046277886294
 30
0.0
 10
98.2172607176332
 20
-130.2046277886294
 30
0.0
 10
98.12010902494914
 20
-130.2445908962583
 30
0.0
 10
98.10322805707142
 20
-130.2511365776803
 30
0.0
 10
98.05671926802054
 20
-130.2700846028492
 30
0.0
 10
98.05258515343824
 20
-130.2910996853092
 30
0.0
 10
98.04810652930742
 20
-130.3207275064823
 30
0.0
 10
98.02915850413855
 20
-130.3207275064823
 30
0.0
 10
98.02054576542542
 20
-130.3207275064823
 30
0.0
 10
98.01021047896967
 20
-130.3165933919
 30
0.0
 10
98.0036647975477
 20
-130.2931667426003
 30
0.0
 10
98.0036647975477
 20
-130.2931667426003
 30
0.0
 10
97.95095483662338
 20
-130.1009304145234
 30
0.0
 10
97.95095483662338
 20
-130.1009304145234
 30
0.0
 10
98.09668237564945
 20
-130.0544216254725
 30
0.0
 10
98.16248369941772
 20
-130.0309949761728
 30
0.0
 10
98.2172607176332
 20
-130.0099798937128
 30
0.0
 10
98.2172607176332
 20
-130.0099798937128
 30
0.0
 10
98.2172607176332
 20
-129.5972574545798
 30
0.0
 10
98.2172607176332
 20
-129.5972574545798
 30
0.0
 10
98.2172607176332
 20
-129.5972574545798
 30
0.0
 10
98.16455075670886
 20
-129.5972574545798
 30
0.0
 10
98.16455075670886
 20
-129.5972574545798
 30
0.0
 10
98.16455075670886
 20
-129.5972574545798
 30
0.0
 10
98.0863470891937
 20
-129.5972574545798
 30
0.0
 10
98.0863470891937
 20
-129.5972574545798
 30
0.0
 10
98.01847870813427
 20
-129.5972574545798
 30
0.0
 10
98.01021047896967
 20
-129.5972574545798
 30
0.0
 10
97.97403697637455
 20
-129.6038031360018
 30
0.0
 10
97.97403697637455
 20
-129.6038031360018
 30
0.0
 10
97.97403697637455
 20
-129.4091552410852
 30
0.0
 10
97.97403697637455
 20
-129.4091552410852
 30
0.0
 10
98.00159774025654
 20
-129.4153564129587
 30
0.0
 10
98.01021047896967
 20
-129.4153564129587
 30
0.0
 10
98.07980140777173
 20
-129.4153564129587
 30
0.0
 10
98.07980140777173
 20
-129.4153564129587
 30
0.0
 10
98.2131266030509
 20
-129.4153564129587
 30
0.0
 10
98.2131266030509
 20
-129.4153564129587
 30
0.0
 10
98.2131266030509
 20
-129.3454209746081
 30
0.0
 10
98.2131266030509
 20
-129.2630831925106
 30
0.0
 10
98.21105954575974
 20
-129.2589490779283
 30
0.0
 10
98.20244680704661
 20
-129.0791150935983
 30
0.0
 10
98.20244680704661
 20
-129.0598225588809
 30
0.0
 10
98.20037974975547
 20
-129.01331376983
 30
0.0
 10
98.20037974975547
 20
-129.01331376983
 30
0.0
 10
98.41638723668063
 20
-129.0219265085431
 30
0.0
 10
98.41638723668063
 20
-129.0219265085431
 30
0.0
 10
98.42672252313638
 20
-129.0219265085431
 30
0.0
 10
98.44808211514493
 20
-129.0239935658343
 30
0.0
 10
98.44808211514493
 20
-129.040874533712
 30
0.0
 10
98.44808211514493
 20
-129.0598225588809
 30
0.0
 10
98.43326820455836
 20
-129.0705023548851
 30
0.0
 10
98.40777449796751
 20
-129.089450380054
 30
0.0
 10
98.40777449796751
 20
-129.1404377932357
 30
0.0
 10
98.40157332609405
 20
-129.3688476239078
 30
0.0
 10
98.40364038338521
 20
-129.4153564129587
 30
0.0
 10
98.53248695453355
 20
-129.4153564129587
 30
0.0
 10
98.54523380782898
 20
-129.4153564129587
 30
0.0
 10
98.64273001006154
 20
-129.4070881837941
 30
0.0
 10
98.64273001006154
 20
-129.4070881837941
 30
0.0
 10
98.64273001006154
 20
-129.6013915691622
 30
0.0
 10
98.64273001006154
 20
-129.6013915691622
 30
0.0
 10
98.60448945017527
 20
-129.599324511871
 30
0.0
 10
98.53696557866438
 20
-129.5951903972887
 30
0.0
 10
98.40157332609405
 20
-129.5972574545798
 30
0.0
 10
98.40157332609405
 20
-129.5972574545798
 30
0.0
 10
98.40157332609405
 20
-129.9359103407799
 30
0.0
 10
98.40157332609405
 20
-129.9359103407799
 30
0.0
 10
98.45635034430953
 20
-129.9124836914802
 30
0.0
 10
98.5221516680778
 20
-129.8849229275982
 30
0.0
 10
98.57072751441983
 20
-129.8618407878471
 30
0.0
 10
98.57072751441983
 20
-129.8618407878471
 30
0.0
 10
98.57072751441983
 20
-129.6840738608082
 30
0.0
 10
98.57072751441983
 20
-129.6840738608082
 30
0.0
 10
98.68510468453012
 20
-129.6968207141036
 30
0.0
 10
98.80327145967419
 20
-129.6968207141036
 30
0.0
 10
98.91971568707564
 20
-129.6968207141036
 30
0.0
 10
98.89663354732446
 20
-129.6013915691622
 30
0.0
 10
98.86907278344246
 20
-129.5190537870647
 30
0.0
 10
98.80568302651386
 20
-129.3857285917855
 30
0.0
 10
98.76124129475414
 20
-129.3877956490767
 30
0.0
 10
98.67855900310815
 20
-129.3922742732075
 30
0.0
 10
98.6406629527704
 20
-129.3943413304986
 30
0.0
 10
98.6406629527704
 20
-129.3943413304986
 30
0.0
 10
98.6406629527704
 20
-129.2145073461686
 30
0.0
 10
98.6406629527704
 20
-129.2145073461686
 30
0.0
 10
98.76537540933644
 20
-129.2227755753332
 30
0.0
 10
98.9386637122445
 20
-129.227254199464
 30
0.0
 10
99.0213460038905
 20
-129.227254199464
 30
0.0
 10
99.0213460038905
 20
-129.227254199464
 30
0.0
 10
99.10368378598797
 20
-129.227254199464
 30
0.0
 10
99.10368378598797
 20
-129.227254199464
 30
0.0
 10
99.10368378598797
 20
-129.0643011830117
 30
0.0
 10
99.10368378598797
 20
-129.0536213870074
 30
0.0
 10
99.10161672869683
 20
-128.9984998592434
 30
0.0
 10
99.10161672869683
 20
-128.9984998592434
 30
0.0
 10
99.32589244478659
 20
-129.0239935658343
 30
0.0
 10
99.32589244478659
 20
-129.0239935658343
 30
0.0
 10
99.33002655936889
 20
-129.0239935658343
 30
0.0
 10
99.35138615137744
 20
-129.0260606231254
 30
0.0
 10
99.35138615137744
 20
-129.0429415910032
 30
0.0
 10
99.35138615137744
 20
-129.0577555015897
 30
0.0
 10
99.34070635537316
 20
-129.0663682403029
 30
0.0
 10
99.31314559149116
 20
-129.0811821508894
 30
0.0
 10
99.30694441961771
 20
-129.1466389651092
 30
0.0
 10
99.30487736232656
 20
-129.1679985571177
 30
0.0
 10
99.30487736232656
 20
-129.227254199464
 30
0.0
 10
99.30487736232656
 20
-129.227254199464
 30
0.0
 10
99.39996199771946
 20
-129.227254199464
 30
0.0
 10
99.39996199771946
 20
-129.227254199464
 30
0.0
 10
99.48264428936545
 20
-129.227254199464
 30
0.0
 10
99.65593259227352
 20
-129.2227755753332
 30
0.0
 10
99.78064504883956
 20
-129.2145073461686
 30
0.0
 10
99.78064504883956
 20
-129.2145073461686
 30
0.0
 10
99.78064504883956
 20
-129.3943413304986
 30
0.0
 10
99.78064504883956
 20
-129.3943413304986
 30
0.0
 10
99.75101722766642
 20
-129.3922742732075
 30
0.0
 10
99.63285045252235
 20
-129.3877956490767
 30
0.0
 10
99.59254283534493
 20
-129.3857285917855
 30
0.0
 10
99.57772892475835
 20
-129.4363714954187
 30
0.0
 10
99.5439669890029
 20
-129.5486816082378
 30
0.0
 10
99.47816566523463
 20
-129.6882079753904
 30
0.0
 10
99.5205403397032
 20
-129.6882079753904
 30
0.0
 10
99.79787052626581
 20
-129.6692599502216
 30
0.0
 10
99.85919322590327
 20
-129.6671928929304
 30
0.0
 10
99.85919322590327
 20
-129.6671928929304
 30
0.0
 10
99.85919322590327
 20
-129.8511609918428
 30
0.0
 10
99.85919322590327
 20
-129.8511609918428
 30
0.0
 10
99.82956540473012
 20
-129.8511609918428
 30
0.0
 10
99.8126844368524
 20
-129.8470268772605
 30
0.0
 10
99.64973142040007
 20
-129.8470268772605
 30
0.0
  0
SPLINE
  5
2A7
330
2A2
100
AcDbEntity
  8
_U+30EC_U+30A4_U+30E4_U+30FC 1
370
     0
100
AcDbSpline
210
0.0
220
0.0
230
1.0
 70
    11
 71
     3
 72
    20
 73
    16
 74
     0
 42
0.0000000001
 43
0.0000000001
 12
1.0
 22
0.0
 32
0.0
 13
1.0
 23
0.0
 33
0.0
 40
0.0
 40
0.0
 40
0.0
 40
0.0
 40
1.0
 40
1.0
 40
1.0
 40
2.0
 40
2.0
 40
2.0
 40
3.0
 40
3.0
 40
3.0
 40
4.0
 40
4.0
 40
4.0
 40
5.0
 40
5.0
 40
5.0
 40
5.0
 10
99.0213460038905
 20
-129.3815944772032
 30
0.0
 10
99.0213460038905
 20
-129.3815944772032
 30
0.0
 10
98.9896511254262
 20
-129.3815944772032
 30
0.0
 10
98.9896511254262
 20
-129.3815944772032
 30
0.0
 10
99.03615991447708
 20
-129.4808132271784
 30
0.0
 10
99.06785479294138
 20
-129.5614284615333
 30
0.0
 10
99.10161672869683
 20
-129.6882079753904
 30
0.0
 10
99.10161672869683
 20
-129.6882079753904
 30
0.0
 10
99.30901147690886
 20
-129.6882079753904
 30
0.0
 10
99.30901147690886
 20
-129.6882079753904
 30
0.0
 10
99.34070635537316
 20
-129.5951903972887
 30
0.0
 10
99.36413300467287
 20
-129.5104410483516
 30
0.0
 10
99.38721514442403
 20
-129.3815944772032
 30
0.0
 10
99.38721514442403
 20
-129.3815944772032
 30
0.0
 10
99.0213460038905
 20
-129.3815944772032
 30
0.0
 10
99.0213460038905
 20
-129.3815944772032
 30
0.0
  0
SPLINE
  5
2A8
330
2A2
100
AcDbEntity
  8
_U+30EC_U+30A4_U+30E4_U+30FC 1
370
     0
100
AcDbSpline
210
0.0
220
0.0
230
1.0
 70
    11
 71
     3
 72
    17
 73
    13
 74
     0
 42
0.0000000001
 43
0.0000000001
 12
1.0
 22
0.0
 32
0.0
 13
1.0
 23
0.0
 33
0.0
 40
0.0
 40
0.0
 40
0.0
 40
0.0
 40
1.0
 40
1.0
 40
1.0
 40
2.0
 40
2.0
 40
2.0
 40
3.0
 40
3.0
 40
3.0
 40
4.0
 40
4.0
 40
4.0
 40
4.0
 10
99.0847357608191
 20
-130.2318440429629
 30
0.0
 10
99.06785479294138
 20
-130.261471864136
 30
0.0
 10
99.0172118893082
 20
-130.3548339517863
 30
0.0
 10
99.00653209330393
 20
-130.3737819769552
 30
0.0
 10
99.19704587363825
 20
-130.4330376193015
 30
0.0
 10
99.21806095609827
 20
-130.4392387911749
 30
0.0
 10
99.29006345173998
 20
-130.4667995550569
 30
0.0
 10
99.34484046995546
 20
-130.3799831488286
 30
0.0
 10
99.36826711925517
 20
-130.3059135958958
 30
0.0
 10
99.38308102984173
 20
-130.2318440429629
 30
0.0
 10
99.38308102984173
 20
-130.2318440429629
 30
0.0
 10
99.0847357608191
 20
-130.2318440429629
 30
0.0
 10
99.0847357608191
 20
-130.2318440429629
 30
0.0
  0
HATCH
  5
2A9
330
2A2
100
AcDbEntity
  8
_U+30EC_U+30A4_U+30E4_U+30FC 1
 62
     7
420
 16777215
100
AcDbHatch
 10
0.0
 20
0.0
 30
0.0
210
0.0
220
0.0
230
1.0
  2
SOLID
 70
     1
 71
     0
 91
        3
 92
        1
 93
        1
 72
     4
 94
        3
 73
     0
 74
     1
 95
      242
 96
      238
 40
0.0
 40
0.0
 40
0.0
 40
0.0
 40
1.0
 40
1.0
 40
1.0
 40
2.0
 40
2.0
 40
2.0
 40
3.0
 40
3.0
 40
3.0
 40
4.0
 40
4.0
 40
4.0
 40
5.0
 40
5.0
 40
5.0
 40
6.0
 40
6.0
 40
6.0
 40
7.0
 40
7.0
 40
7.0
 40
8.0
 40
8.0
 40
8.0
 40
9.0
 40
9.0
 40
9.0
 40
10.0
 40
10.0
 40
10.0
 40
11.0
 40
11.0
 40
11.0
 40
12.0
 40
12.0
 40
12.0
 40
13.0
 40
13.0
 40
13.0
 40
14.0
 40
14.0
 40
14.0
 40
15.0
 40
15.0
 40
15.0
 40
16.0
 40
16.0
 40
16.0
 40
17.0
 40
17.0
 40
17.0
 40
18.0
 40
18.0
 40
18.0
 40
19.0
 40
19.0
 40
19.0
 40
20.0
 40
20.0
 40
20.0
 40
21.0
 40
21.0
 40
21.0
 40
22.0
 40
22.0
 40
22.0
 40
23.0
 40
23.0
 40
23.0
 40
24.0
 40
24.0
 40
24.0
 40
25.0
 40
25.0
 40
25.0
 40
26.0
 40
26.0
 40
26.0
 40
27.0
 40
27.0
 40
27.0
 40
28.0
 40
28.0
 40
28.0
 40
29.0
 40
29.0
 40
29.0
 40
30.0
 40
30.0
 40
30.0
 40
31.0
 40
31.0
 40
31.0
 40
32.0
 40
32.0
 40
32.0
 40
33.0
 40
33.0
 40
33.0
 40
34.0
 40
34.0
 40
34.0
 40
35.0
 40
35.0
 40
35.0
 40
36.0
 40
36.0
 40
36.0
 40
37.0
 40
37.0
 40
37.0
 40
38.0
 40
38.0
 40
38.0
 40
39.0
 40
39.0
 40
39.0
 40
40.0
 40
40.0
 40
40.0
 40
41.0
 40
41.0
 40
41.0
 40
42.0
 40
42.0
 40
42.0
 40
43.0
 40
43.0
 40
43.0
 40
44.0
 40
44.0
 40
44.0
 40
45.0
 40
45.0
 40
45.0
 40
46.0
 40
46.0
 40
46.0
 40
47.0
 40
47.0
 40
47.0
 40
48.0
 40
48.0
 40
48.0
 40
49.0
 40
49.0
 40
49.0
 40
50.0
 40
50.0
 40
50.0
 40
51.0
 40
51.0
 40
51.0
 40
52.0
 40
52.0
 40
52.0
 40
53.0
 40
53.0
 40
53.0
 40
54.0
 40
54.0
 40
54.0
 40
55.0
 40
55.0
 40
55.0
 40
56.0
 40
56.0
 40
56.0
 40
57.0
 40
57.0
 40
57.0
 40
58.0
 40
58.0
 40
58.0
 40
59.0
 40
59.0
 40
59.0
 40
60.0
 40
60.0
 40
60.0
 40
61.0
 40
61.0
 40
61.0
 40
62.0
 40
62.0
 40
62.0
 40
63.0
 40
63.0
 40
63.0
 40
64.0
 40
64.0
 40
64.0
 40
65.0
 40
65.0
 40
65.0
 40
66.0
 40
66.0
 40
66.0
 40
67.0
 40
67.0
 40
67.0
 40
68.0
 40
68.0
 40
68.0
 40
69.0
 40
69.0
 40
69.0
 40
70.0
 40
70.0
 40
70.0
 40
71.0
 40
71.0
 40
71.0
 40
72.0
 40
72.0
 40
72.0
 40
73.0
 40
73.0
 40
73.0
 40
74.0
 40
74.0
 40
74.0
 40
75.0
 40
75.0
 40
75.0
 40
76.0
 40
76.0
 40
76.0
 40
77.0
 40
77.0
 40
77.0
 40
78.0
 40
78.0
 40
78.0
 40
79.0
 40
79.0
 40
79.0
 40
79.0
 10
99.64973142040007
 20
-129.8470268772605
 10
99.64973142040007
 20
-129.8470268772605
 10
99.39582788313716
 20
-129.8470268772605
 10
99.39582788313716
 20
-129.8470268772605
 10
99.39582788313716
 20
-129.8470268772605
 10
99.11849769657455
 20
-129.8470268772605
 10
99.11849769657455
 20
-129.8470268772605
 10
99.11849769657455
 20
-129.8470268772605
 10
99.24562171998026
 20
-129.889401551729
 10
99.24562171998026
 20
-129.889401551729
 10
99.25630151598455
 20
-129.8935356663114
 10
99.26870385973145
 20
-129.8997368381848
 10
99.26870385973145
 20
-129.9124836914802
 10
99.26870385973145
 20
-129.9338432834888
 10
99.23700898126714
 20
-129.9400444553622
 10
99.21599389880711
 20
-129.9441785699445
 10
99.20531410280284
 20
-129.9676052192442
 10
99.1756862816297
 20
-130.0330620334639
 10
99.15673825646083
 20
-130.0775037652237
 10
99.15673825646083
 20
-130.0775037652237
 10
99.42752276160145
 20
-130.0775037652237
 10
99.42752276160145
 20
-130.0775037652237
 10
99.51847328241205
 20
-130.0775037652237
 10
99.71518823461982
 20
-130.0733696506414
 10
99.85678165906359
 20
-130.0647569119283
 10
99.85678165906359
 20
-130.0647569119283
 10
99.85678165906359
 20
-130.2425238389671
 10
99.85678165906359
 20
-130.2425238389671
 10
99.77444387696612
 20
-130.2383897243849
 10
99.75342879450609
 20
-130.2383897243849
 10
99.57359481017605
 20
-130.2342556098025
 10
99.54189993171175
 20
-130.3885958875418
 10
99.49745819995204
 20
-130.4688666123481
 10
99.4530164681923
 20
-130.5388020506986
 10
99.57359481017605
 20
-130.598057693045
 10
99.67935924157322
 20
-130.6655815645558
 10
99.78305661567924
 20
-130.7482638562018
 10
99.78305661567924
 20
-130.7482638562018
 10
99.66454533098664
 20
-130.9153509872365
 10
99.66454533098664
 20
-130.9153509872365
 10
99.64111868168695
 20
-130.8964029620676
 10
99.62837182839152
 20
-130.8877902233544
 10
99.5164062251209
 20
-130.8030408744173
 10
99.46783037877888
 20
-130.7651448240796
 10
99.40857473643258
 20
-130.7289713214844
 10
99.32795950207773
 20
-130.6845295897247
 10
99.1164306392834
 20
-130.8709092554767
 10
98.91144745791104
 20
-130.8939913952279
 10
98.62137041805299
 20
-130.9236192164011
 10
98.62137041805299
 20
-130.9236192164011
 10
98.51767304394697
 20
-130.743785232071
 10
98.51767304394697
 20
-130.743785232071
 10
98.83531084768701
 20
-130.7396511174887
 10
99.01066620788623
 20
-130.7141574108979
 10
99.16293942833427
 20
-130.6042588649184
 10
99.04442814364168
 20
-130.5536159612852
 10
98.95588918967076
 20
-130.5260551974032
 10
98.91971568707564
 20
-130.5133083441078
 10
98.90076766190676
 20
-130.5408691079898
 10
98.88595375132019
 20
-130.5598171331587
 10
98.85839298743818
 20
-130.5935790689141
 10
98.85839298743818
 20
-130.5935790689141
 10
98.66167803523042
 20
-130.5112412868166
 10
98.66167803523042
 20
-130.5112412868166
 10
98.74401581732789
 20
-130.4309705620103
 10
98.80568302651386
 20
-130.3355414170689
 10
98.86252710202048
 20
-130.2342556098025
 10
98.67235783123469
 20
-130.2383897243849
 10
98.65099823922614
 20
-130.2383897243849
 10
98.56866045712867
 20
-130.2425238389671
 10
98.56866045712867
 20
-130.2425238389671
 10
98.56866045712867
 20
-130.0647569119283
 10
98.56866045712867
 20
-130.0647569119283
 10
98.70818682428128
 20
-130.0713025933502
 10
98.91764862978448
 20
-130.0754367079325
 10
98.94314233637533
 20
-130.0754367079325
 10
98.96002330425306
 20
-130.0416747721771
 10
99.01480032246853
 20
-129.9210964301933
 10
99.03409285718593
 20
-129.8470268772605
 10
99.01480032246853
 20
-129.8470268772605
 10
98.83737790497815
 20
-129.8532280491339
 10
98.64273001006154
 20
-129.8659749024293
 10
98.64273001006154
 20
-129.8659749024293
 10
98.64273001006154
 20
-129.9993000977085
 10
98.64273001006154
 20
-129.9993000977085
 10
98.59415416371952
 20
-130.0247938042993
 10
98.53489852137322
 20
-130.0564886827637
 10
98.40157332609405
 20
-130.1219454969834
 10
98.40157332609405
 20
-130.1219454969834
 10
98.40157332609405
 20
-130.268017545558
 10
98.40157332609405
 20
-130.268017545558
 10
98.40157332609405
 20
-130.268017545558
 10
98.40157332609405
 20
-130.7355170029064
 10
98.40157332609405
 20
-130.7355170029064
 10
98.40157332609405
 20
-130.8622965167636
 10
98.36539982349893
 20
-130.9215521591099
 10
98.08186846506287
 20
-130.9132839299453
 10
98.08186846506287
 20
-130.9132839299453
 10
97.97851560050538
 20
-130.7058891817333
 10
97.97851560050538
 20
-130.7058891817333
 10
98.04190535743398
 20
-130.7186360350287
 10
98.090481203776
 20
-130.722770149611
 10
98.13078882095341
 20
-130.722770149611
 10
98.20692543117744
 20
-130.722770149611
 10
98.2172607176332
 20
-130.6993435003113
 10
98.2172607176332
 20
-130.6338866860915
 10
98.2172607176332
 20
-130.6338866860915
 10
98.2172607176332
 20
-130.2046277886294
 10
98.2172607176332
 20
-130.2046277886294
 10
98.12010902494914
 20
-130.2445908962583
 10
98.10322805707142
 20
-130.2511365776803
 10
98.05671926802054
 20
-130.2700846028492
 10
98.05258515343824
 20
-130.2910996853092
 10
98.04810652930742
 20
-130.3207275064823
 10
98.02915850413855
 20
-130.3207275064823
 10
98.02054576542542
 20
-130.3207275064823
 10
98.01021047896967
 20
-130.3165933919
 10
98.0036647975477
 20
-130.2931667426003
 10
98.0036647975477
 20
-130.2931667426003
 10
97.95095483662338
 20
-130.1009304145234
 10
97.95095483662338
 20
-130.1009304145234
 10
98.09668237564945
 20
-130.0544216254725
 10
98.16248369941772
 20
-130.0309949761728
 10
98.2172607176332
 20
-130.0099798937128
 10
98.2172607176332
 20
-130.0099798937128
 10
98.2172607176332
 20
-129.5972574545798
 10
98.2172607176332
 20
-129.5972574545798
 10
98.2172607176332
 20
-129.5972574545798
 10
98.16455075670886
 20
-129.5972574545798
 10
98.16455075670886
 20
-129.5972574545798
 10
98.16455075670886
 20
-129.5972574545798
 10
98.0863470891937
 20
-129.5972574545798
 10
98.0863470891937
 20
-129.5972574545798
 10
98.01847870813427
 20
-129.5972574545798
 10
98.01021047896967
 20
-129.5972574545798
 10
97.97403697637455
 20
-129.6038031360018
 10
97.97403697637455
 20
-129.6038031360018
 10
97.97403697637455
 20
-129.4091552410852
 10
97.97403697637455
 20
-129.4091552410852
 10
98.00159774025654
 20
-129.4153564129587
 10
98.01021047896967
 20
-129.4153564129587
 10
98.07980140777173
 20
-129.4153564129587
 10
98.07980140777173
 20
-129.4153564129587
 10
98.2131266030509
 20
-129.4153564129587
 10
98.2131266030509
 20
-129.4153564129587
 10
98.2131266030509
 20
-129.3454209746081
 10
98.2131266030509
 20
-129.2630831925106
 10
98.21105954575974
 20
-129.2589490779283
 10
98.20244680704661
 20
-129.0791150935983
 10
98.20244680704661
 20
-129.0598225588809
 10
98.20037974975547
 20
-129.01331376983
 10
98.20037974975547
 20
-129.01331376983
 10
98.41638723668063
 20
-129.0219265085431
 10
98.41638723668063
 20
-129.0219265085431
 10
98.42672252313638
 20
-129.0219265085431
 10
98.44808211514493
 20
-129.0239935658343
 10
98.44808211514493
 20
-129.040874533712
 10
98.44808211514493
 20
-129.0598225588809
 10
98.43326820455836
 20
-129.0705023548851
 10
98.40777449796751
 20
-129.089450380054
 10
98.40777449796751
 20
-129.1404377932357
 10
98.40157332609405
 20
-129.3688476239078
 10
98.40364038338521
 20
-129.4153564129587
 10
98.53248695453355
 20
-129.4153564129587
 10
98.54523380782898
 20
-129.4153564129587
 10
98.64273001006154
 20
-129.4070881837941
 10
98.64273001006154
 20
-129.4070881837941
 10
98.64273001006154
 20
-129.6013915691622
 10
98.64273001006154
 20
-129.6013915691622
 10
98.60448945017527
 20
-129.599324511871
 10
98.53696557866438
 20
-129.5951903972887
 10
98.40157332609405
 20
-129.5972574545798
 10
98.40157332609405
 20
-129.5972574545798
 10
98.40157332609405
 20
-129.9359103407799
 10
98.40157332609405
 20
-129.9359103407799
 10
98.45635034430953
 20
-129.9124836914802
 10
98.5221516680778
 20
-129.8849229275982
 10
98.57072751441983
 20
-129.8618407878471
 10
98.57072751441983
 20
-129.8618407878471
 10
98.57072751441983
 20
-129.6840738608082
 10
98.57072751441983
 20
-129.6840738608082
 10
98.68510468453012
 20
-129.6968207141036
 10
98.80327145967419
 20
-129.6968207141036
 10
98.91971568707564
 20
-129.6968207141036
 10
98.89663354732446
 20
-129.6013915691622
 10
98.86907278344246
 20
-129.5190537870647
 10
98.80568302651386
 20
-129.3857285917855
 10
98.76124129475414
 20
-129.3877956490767
 10
98.67855900310815
 20
-129.3922742732075
 10
98.6406629527704
 20
-129.3943413304986
 10
98.6406629527704
 20
-129.3943413304986
 10
98.6406629527704
 20
-129.2145073461686
 10
98.6406629527704
 20
-129.2145073461686
 10
98.76537540933644
 20
-129.2227755753332
 10
98.9386637122445
 20
-129.227254199464
 10
99.0213460038905
 20
-129.227254199464
 10
99.0213460038905
 20
-129.227254199464
 10
99.10368378598797
 20
-129.227254199464
 10
99.10368378598797
 20
-129.227254199464
 10
99.10368378598797
 20
-129.0643011830117
 10
99.10368378598797
 20
-129.0536213870074
 10
99.10161672869683
 20
-128.9984998592434
 10
99.10161672869683
 20
-128.9984998592434
 10
99.32589244478659
 20
-129.0239935658343
 10
99.32589244478659
 20
-129.0239935658343
 10
99.33002655936889
 20
-129.0239935658343
 10
99.35138615137744
 20
-129.0260606231254
 10
99.35138615137744
 20
-129.0429415910032
 10
99.35138615137744
 20
-129.0577555015897
 10
99.34070635537316
 20
-129.0663682403029
 10
99.31314559149116
 20
-129.0811821508894
 10
99.30694441961771
 20
-129.1466389651092
 10
99.30487736232656
 20
-129.1679985571177
 10
99.30487736232656
 20
-129.227254199464
 10
99.30487736232656
 20
-129.227254199464
 10
99.39996199771946
 20
-129.227254199464
 10
99.39996199771946
 20
-129.227254199464
 10
99.48264428936545
 20
-129.227254199464
 10
99.65593259227352
 20
-129.2227755753332
 10
99.78064504883956
 20
-129.2145073461686
 10
99.78064504883956
 20
-129.2145073461686
 10
99.78064504883956
 20
-129.3943413304986
 10
99.78064504883956
 20
-129.3943413304986
 10
99.75101722766642
 20
-129.3922742732075
 10
99.63285045252235
 20
-129.3877956490767
 10
99.59254283534493
 20
-129.3857285917855
 10
99.57772892475835
 20
-129.4363714954187
 10
99.5439669890029
 20
-129.5486816082378
 10
99.47816566523463
 20
-129.6882079753904
 10
99.5205403397032
 20
-129.6882079753904
 10
99.79787052626581
 20
-129.6692599502216
 10
99.85919322590327
 20
-129.6671928929304
 10
99.85919322590327
 20
-129.6671928929304
 10
99.85919322590327
 20
-129.8511609918428
 10
99.85919322590327
 20
-129.8511609918428
 10
99.82956540473012
 20
-129.8511609918428
 10
99.8126844368524
 20
-129.8470268772605
 10
99.64973142040007
 20
-129.8470268772605
 97
        0
 97
        0
 92
        1
 93
        1
 72
     4
 94
        3
 73
     0
 74
     1
 95
       20
 96
       16
 40
0.0
 40
0.0
 40
0.0
 40
0.0
 40
1.0
 40
1.0
 40
1.0
 40
2.0
 40
2.0
 40
2.0
 40
3.0
 40
3.0
 40
3.0
 40
4.0
 40
4.0
 40
4.0
 40
5.0
 40
5.0
 40
5.0
 40
5.0
 10
99.0213460038905
 20
-129.3815944772032
 10
99.0213460038905
 20
-129.3815944772032
 10
98.9896511254262
 20
-129.3815944772032
 10
98.9896511254262
 20
-129.3815944772032
 10
99.03615991447708
 20
-129.4808132271784
 10
99.06785479294138
 20
-129.5614284615333
 10
99.10161672869683
 20
-129.6882079753904
 10
99.10161672869683
 20
-129.6882079753904
 10
99.30901147690886
 20
-129.6882079753904
 10
99.30901147690886
 20
-129.6882079753904
 10
99.34070635537316
 20
-129.5951903972887
 10
99.36413300467287
 20
-129.5104410483516
 10
99.38721514442403
 20
-129.3815944772032
 10
99.38721514442403
 20
-129.3815944772032
 10
99.0213460038905
 20
-129.3815944772032
 10
99.0213460038905
 20
-129.3815944772032
 97
        0
 97
        0
 92
        1
 93
        1
 72
     4
 94
        3
 73
     0
 74
     1
 95
       17
 96
       13
 40
0.0
 40
0.0
 40
0.0
 40
0.0
 40
1.0
 40
1.0
 40
1.0
 40
2.0
 40
2.0
 40
2.0
 40
3.0
 40
3.0
 40
3.0
 40
4.0
 40
4.0
 40
4.0
 40
4.0
 10
99.0847357608191
 20
-130.2318440429629
 10
99.06785479294138
 20
-130.261471864136
 10
99.0172118893082
 20
-130.3548339517863
 10
99.00653209330393
 20
-130.3737819769552
 10
99.19704587363825
 20
-130.4330376193015
 10
99.21806095609827
 20
-130.4392387911749
 10
99.29006345173998
 20
-130.4667995550569
 10
99.34484046995546
 20
-130.3799831488286
 10
99.36826711925517
 20
-130.3059135958958
 10
99.38308102984173
 20
-130.2318440429629
 10
99.38308102984173
 20
-130.2318440429629
 10
99.0847357608191
 20
-130.2318440429629
 10
99.0847357608191
 20
-130.2318440429629
 97
        0
 97
        0
 75
     2
 76
     1
 98
        0
  0
SPLINE
  5
2AA
330
2A2
100
AcDbEntity
  8
_U+30EC_U+30A4_U+30E4_U+30FC 1
370
     0
100
AcDbSpline
210
0.0
220
0.0
230
1.0
 70
    11
 71
     3
 72
   203
 73
   199
 74
     0
 42
0.0000000001
 43
0.0000000001
 12
1.0
 22
0.0
 32
0.0
 13
1.0
 23
0.0
 33
0.0
 40
0.0
 40
0.0
 40
0.0
 40
0.0
 40
1.0
 40
1.0
 40
1.0
 40
2.0
 40
2.0
 40
2.0
 40
3.0
 40
3.0
 40
3.0
 40
4.0
 40
4.0
 40
4.0
 40
5.0
 40
5.0
 40
5.0
 40
6.0
 40
6.0
 40
6.0
 40
7.0
 40
7.0
 40
7.0
 40
8.0
 40
8.0
 40
8.0
 40
9.0
 40
9.0
 40
9.0
 40
10.0
 40
10.0
 40
10.0
 40
11.0
 40
11.0
 40
11.0
 40
12.0
 40
12.0
 40
12.0
 40
13.0
 40
13.0
 40
13.0
 40
14.0
 40
14.0
 40
14.0
 40
15.0
 40
15.0
 40
15.0
 40
16.0
 40
16.0
 40
16.0
 40
17.0
 40
17.0
 40
17.0
 40
18.0
 40
18.0
 40
18.0
 40
19.0
 40
19.0
 40
19.0
 40
20.0
 40
20.0
 40
20.0
 40
21.0
 40
21.0
 40
21.0
 40
22.0
 40
22.0
 40
22.0
 40
23.0
 40
23.0
 40
23.0
 40
24.0
 40
24.0
 40
24.0
 40
25.0
 40
25.0
 40
25.0
 40
26.0
 40
26.0
 40
26.0
 40
27.0
 40
27.0
 40
27.0
 40
28.0
 40
28.0
 40
28.0
 40
29.0
 40
29.0
 40
29.0
 40
30.0
 40
30.0
 40
30.0
 40
31.0
 40
31.0
 40
31.0
 40
32.0
 40
32.0
 40
32.0
 40
33.0
 40
33.0
 40
33.0
 40
34.0
 40
34.0
 40
34.0
 40
35.0
 40
35.0
 40
35.0
 40
36.0
 40
36.0
 40
36.0
 40
37.0
 40
37.0
 40
37.0
 40
38.0
 40
38.0
 40
38.0
 40
39.0
 40
39.0
 40
39.0
 40
40.0
 40
40.0
 40
40.0
 40
41.0
 40
41.0
 40
41.0
 40
42.0
 40
42.0
 40
42.0
 40
43.0
 40
43.0
 40
43.0
 40
44.0
 40
44.0
 40
44.0
 40
45.0
 40
45.0
 40
45.0
 40
46.0
 40
46.0
 40
46.0
 40
47.0
 40
47.0
 40
47.0
 40
48.0
 40
48.0
 40
48.0
 40
49.0
 40
49.0
 40
49.0
 40
50.0
 40
50.0
 40
50.0
 40
51.0
 40
51.0
 40
51.0
 40
52.0
 40
52.0
 40
52.0
 40
53.0
 40
53.0
 40
53.0
 40
54.0
 40
54.0
 40
54.0
 40
55.0
 40
55.0
 40
55.0
 40
56.0
 40
56.0
 40
56.0
 40
57.0
 40
57.0
 40
57.0
 40
58.0
 40
58.0
 40
58.0
 40
59.0
 40
59.0
 40
59.0
 40
60.0
 40
60.0
 40
60.0
 40
61.0
 40
61.0
 40
61.0
 40
62.0
 40
62.0
 40
62.0
 40
63.0
 40
63.0
 40
63.0
 40
64.0
 40
64.0
 40
64.0
 40
65.0
 40
65.0
 40
65.0
 40
66.0
 40
66.0
 40
66.0
 40
66.0
 10
101.3409287941092
 20
-129.9145507487714
 30
0.0
 10
101.3409287941092
 20
-129.9145507487714
 30
0.0
 10
100.7824788159502
 20
-129.9145507487714
 30
0.0
 10
100.7824788159502
 20
-129.9145507487714
 30
0.0
 10
100.7721435294945
 20
-129.9589924805311
 30
0.0
 10
100.7635307907813
 20
-129.9906873589954
 30
0.0
 10
100.7507839374859
 20
-130.0289279188817
 30
0.0
 10
100.7762776440768
 20
-130.0289279188817
 30
0.0
 10
100.7910915546633
 20
-130.0309949761728
 30
0.0
 10
100.7972927265368
 20
-130.0309949761728
 30
0.0
 10
100.7972927265368
 20
-130.0309949761728
 30
0.0
 10
100.98573944958
 20
-130.0309949761728
 30
0.0
 10
100.98573944958
 20
-130.0309949761728
 30
0.0
 10
100.98573944958
 20
-130.0309949761728
 30
0.0
 10
101.3602213288266
 20
-130.0309949761728
 30
0.0
 10
101.3602213288266
 20
-130.0309949761728
 30
0.0
 10
101.4108642324598
 20
-130.0309949761728
 30
0.0
 10
101.6943955908959
 20
-130.0182481228774
 30
0.0
 10
101.7260904693601
 20
-130.0182481228774
 30
0.0
 10
101.724023412069
 20
-130.0458088867594
 30
0.0
 10
101.7219563547778
 20
-130.0647569119283
 30
0.0
 10
101.7219563547778
 20
-130.0943847331014
 30
0.0
 10
101.7198892974867
 20
-130.1260796115657
 30
0.0
 10
101.7198892974867
 20
-130.261471864136
 30
0.0
 10
101.7198892974867
 20
-130.289032628018
 30
0.0
 10
101.7198892974867
 20
-130.289032628018
 30
0.0
 10
101.7198892974867
 20
-130.5343234265678
 30
0.0
 10
101.7198892974867
 20
-130.5343234265678
 30
0.0
 10
101.7198892974867
 20
-130.5787651583275
 30
0.0
 10
101.724023412069
 20
-130.7758246200838
 30
0.0
 10
101.7281575266513
 20
-130.9280978405319
 30
0.0
 10
101.7281575266513
 20
-130.9280978405319
 30
0.0
 10
101.5018147532704
 20
-130.9280978405319
 30
0.0
 10
101.5018147532704
 20
-130.9280978405319
 30
0.0
 10
101.5018147532704
 20
-130.9280978405319
 30
0.0
 10
101.5038818105615
 20
-130.8939913952279
 30
0.0
 10
101.5038818105615
 20
-130.8939913952279
 30
0.0
 10
101.5038818105615
 20
-130.8939913952279
 30
0.0
 10
100.8017713506676
 20
-130.8939913952279
 30
0.0
 10
100.8017713506676
 20
-130.8939913952279
 30
0.0
 10
100.8017713506676
 20
-130.8939913952279
 30
0.0
 10
100.8038384079588
 20
-130.9280978405319
 30
0.0
 10
100.8038384079588
 20
-130.9280978405319
 30
0.0
 10
100.8038384079588
 20
-130.9280978405319
 30
0.0
 10
100.5857638637425
 20
-130.9280978405319
 30
0.0
 10
100.5857638637425
 20
-130.9280978405319
 30
0.0
 10
100.5898979783248
 20
-130.8729763127679
 30
0.0
 10
100.5898979783248
 20
-130.8602294594724
 30
0.0
 10
100.5964436597467
 20
-130.7461967989107
 30
0.0
 10
100.5985107170379
 20
-130.7186360350287
 30
0.0
 10
100.600577774329
 20
-130.5853108397495
 30
0.0
 10
100.600577774329
 20
-130.5663628145806
 30
0.0
 10
100.600577774329
 20
-130.5663628145806
 30
0.0
 10
100.600577774329
 20
-130.3631021809509
 30
0.0
 10
100.600577774329
 20
-130.3631021809509
 30
0.0
 10
100.4610514071764
 20
-130.6128716036315
 30
0.0
 10
100.2918972188506
 20
-130.743785232071
 30
0.0
 10
100.1861327874535
 20
-130.8095865558393
 30
0.0
 10
100.1861327874535
 20
-130.8095865558393
 30
0.0
 10
100.0124999749969
 20
-130.6697156791381
 30
0.0
 10
100.0124999749969
 20
-130.6697156791381
 30
0.0
 10
100.1013834385163
 20
-130.6190727755049
 30
0.0
 10
100.2453884297998
 20
-130.5322563692767
 30
0.0
 10
100.3828477396612
 20
-130.3376084743601
 30
0.0
 10
100.4737982604718
 20
-130.2108289605029
 30
0.0
 10
100.5392550746916
 20
-130.0668239692194
 30
0.0
 10
100.573017010447
 20
-129.9145507487714
 30
0.0
 10
100.344607179775
 20
-129.9166178060625
 30
0.0
 10
100.1647731954449
 20
-129.9231634874845
 30
0.0
 10
100.069688560052
 20
-129.9252305447756
 30
0.0
 10
100.069688560052
 20
-129.9252305447756
 30
0.0
 10
100.069688560052
 20
-129.7474636177367
 30
0.0
 10
100.069688560052
 20
-129.7474636177367
 30
0.0
 10
100.2664035122598
 20
-129.7540092991587
 30
0.0
 10
100.5499348706959
 20
-129.758143413741
 30
0.0
 10
100.7001410338527
 20
-129.758143413741
 30
0.0
 10
100.7001410338527
 20
-129.758143413741
 30
0.0
 10
100.9137369539382
 20
-129.758143413741
 30
0.0
 10
100.9137369539382
 20
-129.758143413741
 30
0.0
 10
100.9137369539382
 20
-129.758143413741
 30
0.0
 10
100.9137369539382
 20
-129.6503119250527
 30
0.0
 10
100.9137369539382
 20
-129.6503119250527
 30
0.0
 10
100.9137369539382
 20
-129.6503119250527
 30
0.0
 10
100.7676649053636
 20
-129.6503119250527
 30
0.0
 10
100.7676649053636
 20
-129.6503119250527
 30
0.0
 10
100.5985107170379
 20
-129.6503119250527
 30
0.0
 10
100.4293565287121
 20
-129.654446039635
 30
0.0
 10
100.2622693976775
 20
-129.6606472115085
 30
0.0
 10
100.2622693976775
 20
-129.6606472115085
 30
0.0
 10
100.2622693976775
 20
-129.4894259658915
 30
0.0
 10
100.2622693976775
 20
-129.4894259658915
 30
0.0
 10
100.4166096754167
 20
-129.5001057618958
 30
0.0
 10
100.6026448316202
 20
-129.5001057618958
 30
0.0
 10
100.7676649053636
 20
-129.5001057618958
 30
0.0
 10
100.7676649053636
 20
-129.5001057618958
 30
0.0
 10
100.9137369539382
 20
-129.5001057618958
 30
0.0
 10
100.9137369539382
 20
-129.5001057618958
 30
0.0
 10
100.9137369539382
 20
-129.5001057618958
 30
0.0
 10
100.9137369539382
 20
-129.3815944772032
 30
0.0
 10
100.9137369539382
 20
-129.3815944772032
 30
0.0
 10
100.9137369539382
 20
-129.3815944772032
 30
0.0
 10
100.7824788159502
 20
-129.3815944772032
 30
0.0
 10
100.7824788159502
 20
-129.3815944772032
 30
0.0
 10
100.7359700268994
 20
-129.3815944772032
 30
0.0
 10
100.5330539028181
 20
-129.3898627063678
 30
0.0
 10
100.4906792283496
 20
-129.3898627063678
 30
0.0
 10
100.2874185947198
 20
-129.3943413304986
 30
0.0
 10
100.2112819844958
 20
-129.3964083877898
 30
0.0
 10
100.1330783169806
 20
-129.3984754450809
 30
0.0
 10
100.1330783169806
 20
-129.3984754450809
 30
0.0
 10
100.1330783169806
 20
-129.2145073461686
 30
0.0
 10
100.1330783169806
 20
-129.2145073461686
 30
0.0
 10
100.2474554870909
 20
-129.2227755753332
 30
0.0
 10
100.2918972188506
 20
-129.2227755753332
 30
0.0
 10
100.6746473272619
 20
-129.2313883140463
 30
0.0
 10
100.6112575703333
 20
-129.1363036786534
 30
0.0
 10
100.5836968064513
 20
-129.1087429147714
 30
0.0
 10
100.5478678134047
 20
-129.0725694121763
 30
0.0
 10
100.5478678134047
 20
-129.0725694121763
 30
0.0
 10
100.7232231736039
 20
-128.9902316300788
 30
0.0
 10
100.7232231736039
 20
-128.9902316300788
 30
0.0
 10
100.7635307907813
 20
-129.0260606231254
 30
0.0
 10
100.8079725225411
 20
-129.068435297594
 30
0.0
 10
100.8820420754739
 20
-129.1783338435735
 30
0.0
 10
100.8820420754739
 20
-129.1783338435735
 30
0.0
 10
100.7676649053636
 20
-129.2334553713375
 30
0.0
 10
100.7676649053636
 20
-129.2334553713375
 30
0.0
 10
100.7676649053636
 20
-129.2334553713375
 30
0.0
 10
100.7783447013679
 20
-129.2334553713375
 30
0.0
 10
100.7783447013679
 20
-129.2334553713375
 30
0.0
 10
100.7783447013679
 20
-129.2334553713375
 30
0.0
 10
101.3009656864803
 20
-129.2334553713375
 30
0.0
 10
101.3009656864803
 20
-129.2334553713375
 30
0.0
 10
101.3009656864803
 20
-129.2334553713375
 30
0.0
 10
101.2055365415389
 20
-129.1890136395778
 30
0.0
 10
101.2055365415389
 20
-129.1890136395778
 30
0.0
 10
101.2330973054209
 20
-129.15111758924
 30
0.0
 10
101.290285890476
 20
-129.0705023548851
 30
0.0
 10
101.3050998010626
 20
-128.9964328019523
 30
0.0
 10
101.3050998010626
 20
-128.9964328019523
 30
0.0
 10
101.5186957211481
 20
-129.0598225588809
 30
0.0
 10
101.5186957211481
 20
-129.0598225588809
 30
0.0
 10
101.5273084598612
 20
-129.0622341257206
 30
0.0
 10
101.5483235423213
 20
-129.0725694121763
 30
0.0
 10
101.5483235423213
 20
-129.0939290041848
 30
0.0
 10
101.5483235423213
 20
-129.1318250545226
 30
0.0
 10
101.4828667281015
 20
-129.1318250545226
 30
0.0
 10
101.4639187029326
 20
-129.1318250545226
 30
0.0
 10
101.4532389069284
 20
-129.15111758924
 30
0.0
 10
101.4298122576287
 20
-129.1910806968689
 30
0.0
 10
101.4001844364555
 20
-129.2313883140463
 30
0.0
 10
101.800160022293
 20
-129.2248426326244
 30
0.0
 10
101.8297878434662
 20
-129.2227755753332
 30
0.0
 10
101.9059244536902
 20
-129.2165744034598
 30
0.0
 10
101.9059244536902
 20
-129.2165744034598
 30
0.0
 10
101.9059244536902
 20
-129.3984754450809
 30
0.0
 10
101.9059244536902
 20
-129.3984754450809
 30
0.0
 10
101.8869764285213
 20
-129.3984754450809
 30
0.0
 10
101.8614827219305
 20
-129.3964083877898
 30
0.0
 10
101.641341120423
 20
-129.3877956490767
 30
0.0
 10
101.5906982167898
 20
-129.3857285917855
 30
0.0
 10
101.3705566152824
 20
-129.3815944772032
 30
0.0
 10
101.3261148835226
 20
-129.3815944772032
 30
0.0
 10
101.3261148835226
 20
-129.3815944772032
 30
0.0
 10
101.110451906146
 20
-129.3815944772032
 30
0.0
 10
101.110451906146
 20
-129.3815944772032
 30
0.0
 10
101.110451906146
 20
-129.3815944772032
 30
0.0
 10
101.110451906146
 20
-129.5001057618958
 30
0.0
 10
101.110451906146
 20
-129.5001057618958
 30
0.0
 10
101.110451906146
 20
-129.5001057618958
 30
0.0
 10
101.2840847186026
 20
-129.5001057618958
 30
0.0
 10
101.2840847186026
 20
-129.5001057618958
 30
0.0
 10
101.4466932255064
 20
-129.5001057618958
 30
0.0
 10
101.6372070058407
 20
-129.5001057618958
 30
0.0
 10
101.7939588504196
 20
-129.4894259658915
 30
0.0
 10
101.7939588504196
 20
-129.4894259658915
 30
0.0
 10
101.7939588504196
 20
-129.6606472115085
 30
0.0
 10
101.7939588504196
 20
-129.6606472115085
 30
0.0
 10
101.5844970449164
 20
-129.6523789823439
 30
0.0
 10
101.3877820927086
 20
-129.6503119250527
 30
0.0
 10
101.2840847186026
 20
-129.6503119250527
 30
0.0
 10
101.2840847186026
 20
-129.6503119250527
 30
0.0
 10
101.110451906146
 20
-129.6503119250527
 30
0.0
 10
101.110451906146
 20
-129.6503119250527
 30
0.0
 10
101.110451906146
 20
-129.6503119250527
 30
0.0
 10
101.110451906146
 20
-129.758143413741
 30
0.0
 10
101.110451906146
 20
-129.758143413741
 30
0.0
 10
101.110451906146
 20
-129.758143413741
 30
0.0
 10
101.3409287941092
 20
-129.758143413741
 30
0.0
 10
101.3409287941092
 20
-129.758143413741
 30
0.0
 10
101.4742539893884
 20
-129.758143413741
 30
0.0
 10
101.7619194624068
 20
-129.7540092991587
 30
0.0
 10
101.9713812679099
 20
-129.7474636177367
 30
0.0
 10
101.9713812679099
 20
-129.7474636177367
 30
0.0
 10
101.9713812679099
 20
-129.9252305447756
 30
0.0
 10
101.9713812679099
 20
-129.9252305447756
 30
0.0
 10
101.779144939833
 20
-129.9190293729022
 30
0.0
 10
101.4659857602238
 20
-129.9145507487714
 30
0.0
 10
101.3409287941092
 20
-129.9145507487714
 30
0.0
  0
POLYLINE
  5
2AB
330
2A2
100
AcDbEntity
  8
_U+30EC_U+30A4_U+30E4_U+30FC 1
370
     0
100
AcDb2dPolyline
 66
     1
 10
0.0
 20
0.0
 30
0.0
  0
VERTEX
  5
2AC
330
2AB
100
AcDbEntity
  8
_U+30EC_U+30A4_U+30E4_U+30FC 1
370
     0
100
AcDbVertex
100
AcDb2dVertex
 10
101.5059488678527
 20
-130.1705213433254
 30
0.0
  0
VERTEX
  5
2AD
330
2AB
100
AcDbEntity
  8
_U+30EC_U+30A4_U+30E4_U+30FC 1
370
     0
100
AcDbVertex
100
AcDb2dVertex
 10
100.7993597838279
 20
-130.1705213433254
 30
0.0
  0
VERTEX
  5
2AE
330
2AB
100
AcDbEntity
  8
_U+30EC_U+30A4_U+30E4_U+30FC 1
370
     0
100
AcDbVertex
100
AcDb2dVertex
 10
100.7993597838279
 20
-130.2783528320138
 30
0.0
  0
VERTEX
  5
2AF
330
2AB
100
AcDbEntity
  8
_U+30EC_U+30A4_U+30E4_U+30FC 1
370
     0
100
AcDbVertex
100
AcDb2dVertex
 10
101.5059488678527
 20
-130.2783528320138
 30
0.0
  0
VERTEX
  5
2B0
330
2AB
100
AcDbEntity
  8
_U+30EC_U+30A4_U+30E4_U+30FC 1
370
     0
100
AcDbVertex
100
AcDb2dVertex
 10
101.5059488678527
 20
-130.1705213433254
 30
0.0
  0
SEQEND
  5
2B1
330
2AB
100
AcDbEntity
  8
_U+30EC_U+30A4_U+30E4_U+30FC 1
370
     0
  0
POLYLINE
  5
2B2
330
2A2
100
AcDbEntity
  8
_U+30EC_U+30A4_U+30E4_U+30FC 1
370
     0
100
AcDb2dPolyline
 66
     1
 10
0.0
 20
0.0
 30
0.0
  0
VERTEX
  5
2B3
330
2B2
100
AcDbEntity
  8
_U+30EC_U+30A4_U+30E4_U+30FC 1
370
     0
100
AcDbVertex
100
AcDb2dVertex
 10
101.5059488678527
 20
-130.4034097981283
 30
0.0
  0
VERTEX
  5
2B4
330
2B2
100
AcDbEntity
  8
_U+30EC_U+30A4_U+30E4_U+30FC 1
370
     0
100
AcDbVertex
100
AcDb2dVertex
 10
100.7993597838279
 20
-130.4034097981283
 30
0.0
  0
VERTEX
  5
2B5
330
2B2
100
AcDbEntity
  8
_U+30EC_U+30A4_U+30E4_U+30FC 1
370
     0
100
AcDbVertex
100
AcDb2dVertex
 10
100.7993597838279
 20
-130.5174424586901
 30
0.0
  0
VERTEX
  5
2B6
330
2B2
100
AcDbEntity
  8
_U+30EC_U+30A4_U+30E4_U+30FC 1
370
     0
100
AcDbVertex
100
AcDb2dVertex
 10
101.5059488678527
 20
-130.5174424586901
 30
0.0
  0
VERTEX
  5
2B7
330
2B2
100
AcDbEntity
  8
_U+30EC_U+30A4_U+30E4_U+30FC 1
370
     0
100
AcDbVertex
100
AcDb2dVertex
 10
101.5059488678527
 20
-130.4034097981283
 30
0.0
  0
SEQEND
  5
2B8
330
2B2
100
AcDbEntity
  8
_U+30EC_U+30A4_U+30E4_U+30FC 1
370
     0
  0
POLYLINE
  5
2B9
330
2A2
100
AcDbEntity
  8
_U+30EC_U+30A4_U+30E4_U+30FC 1
370
     0
100
AcDb2dPolyline
 66
     1
 10
0.0
 20
0.0
 30
0.0
  0
VERTEX
  5
2BA
330
2B9
100
AcDbEntity
  8
_U+30EC_U+30A4_U+30E4_U+30FC 1
370
     0
100
AcDbVertex
100
AcDb2dVertex
 10
101.5059488678527
 20
-130.646633539387
 30
0.0
  0
VERTEX
  5
2BB
330
2B9
100
AcDbEntity
  8
_U+30EC_U+30A4_U+30E4_U+30FC 1
370
     0
100
AcDbVertex
100
AcDb2dVertex
 10
100.7993597838279
 20
-130.646633539387
 30
0.0
  0
VERTEX
  5
2BC
330
2B9
100
AcDbEntity
  8
_U+30EC_U+30A4_U+30E4_U+30FC 1
370
     0
100
AcDbVertex
100
AcDb2dVertex
 10
100.7993597838279
 20
-130.7610107094972
 30
0.0
  0
VERTEX
  5
2BD
330
2B9
100
AcDbEntity
  8
_U+30EC_U+30A4_U+30E4_U+30FC 1
370
     0
100
AcDbVertex
100
AcDb2dVertex
 10
101.5059488678527
 20
-130.7610107094972
 30
0.0
  0
VERTEX
  5
2BE
330
2B9
100
AcDbEntity
  8
_U+30EC_U+30A4_U+30E4_U+30FC 1
370
     0
100
AcDbVertex
100
AcDb2dVertex
 10
101.5059488678527
 20
-130.646633539387
 30
0.0
  0
SEQEND
  5
2BF
330
2B9
100
AcDbEntity
  8
_U+30EC_U+30A4_U+30E4_U+30FC 1
370
     0
  0
HATCH
  5
2C0
330
2A2
100
AcDbEntity
  8
_U+30EC_U+30A4_U+30E4_U+30FC 1
 62
     7
420
 16777215
100
AcDbHatch
 10
0.0
 20
0.0
 30
0.0
210
0.0
220
0.0
230
1.0
  2
SOLID
 70
     1
 71
     0
 91
        4
 92
        1
 93
        1
 72
     4
 94
        3
 73
     0
 74
     1
 95
      203
 96
      199
 40
0.0
 40
0.0
 40
0.0
 40
0.0
 40
1.0
 40
1.0
 40
1.0
 40
2.0
 40
2.0
 40
2.0
 40
3.0
 40
3.0
 40
3.0
 40
4.0
 40
4.0
 40
4.0
 40
5.0
 40
5.0
 40
5.0
 40
6.0
 40
6.0
 40
6.0
 40
7.0
 40
7.0
 40
7.0
 40
8.0
 40
8.0
 40
8.0
 40
9.0
 40
9.0
 40
9.0
 40
10.0
 40
10.0
 40
10.0
 40
11.0
 40
11.0
 40
11.0
 40
12.0
 40
12.0
 40
12.0
 40
13.0
 40
13.0
 40
13.0
 40
14.0
 40
14.0
 40
14.0
 40
15.0
 40
15.0
 40
15.0
 40
16.0
 40
16.0
 40
16.0
 40
17.0
 40
17.0
 40
17.0
 40
18.0
 40
18.0
 40
18.0
 40
19.0
 40
19.0
 40
19.0
 40
20.0
 40
20.0
 40
20.0
 40
21.0
 40
21.0
 40
21.0
 40
22.0
 40
22.0
 40
22.0
 40
23.0
 40
23.0
 40
23.0
 40
24.0
 40
24.0
 40
24.0
 40
25.0
 40
25.0
 40
25.0
 40
26.0
 40
26.0
 40
26.0
 40
27.0
 40
27.0
 40
27.0
 40
28.0
 40
28.0
 40
28.0
 40
29.0
 40
29.0
 40
29.0
 40
30.0
 40
30.0
 40
30.0
 40
31.0
 40
31.0
 40
31.0
 40
32.0
 40
32.0
 40
32.0
 40
33.0
 40
33.0
 40
33.0
 40
34.0
 40
34.0
 40
34.0
 40
35.0
 40
35.0
 40
35.0
 40
36.0
 40
36.0
 40
36.0
 40
37.0
 40
37.0
 40
37.0
 40
38.0
 40
38.0
 40
38.0
 40
39.0
 40
39.0
 40
39.0
 40
40.0
 40
40.0
 40
40.0
 40
41.0
 40
41.0
 40
41.0
 40
42.0
 40
42.0
 40
42.0
 40
43.0
 40
43.0
 40
43.0
 40
44.0
 40
44.0
 40
44.0
 40
45.0
 40
45.0
 40
45.0
 40
46.0
 40
46.0
 40
46.0
 40
47.0
 40
47.0
 40
47.0
 40
48.0
 40
48.0
 40
48.0
 40
49.0
 40
49.0
 40
49.0
 40
50.0
 40
50.0
 40
50.0
 40
51.0
 40
51.0
 40
51.0
 40
52.0
 40
52.0
 40
52.0
 40
53.0
 40
53.0
 40
53.0
 40
54.0
 40
54.0
 40
54.0
 40
55.0
 40
55.0
 40
55.0
 40
56.0
 40
56.0
 40
56.0
 40
57.0
 40
57.0
 40
57.0
 40
58.0
 40
58.0
 40
58.0
 40
59.0
 40
59.0
 40
59.0
 40
60.0
 40
60.0
 40
60.0
 40
61.0
 40
61.0
 40
61.0
 40
62.0
 40
62.0
 40
62.0
 40
63.0
 40
63.0
 40
63.0
 40
64.0
 40
64.0
 40
64.0
 40
65.0
 40
65.0
 40
65.0
 40
66.0
 40
66.0
 40
66.0
 40
66.0
 10
101.3409287941092
 20
-129.9145507487714
 10
101.3409287941092
 20
-129.9145507487714
 10
100.7824788159502
 20
-129.9145507487714
 10
100.7824788159502
 20
-129.9145507487714
 10
100.7721435294945
 20
-129.9589924805311
 10
100.7635307907813
 20
-129.9906873589954
 10
100.7507839374859
 20
-130.0289279188817
 10
100.7762776440768
 20
-130.0289279188817
 10
100.7910915546633
 20
-130.0309949761728
 10
100.7972927265368
 20
-130.0309949761728
 10
100.7972927265368
 20
-130.0309949761728
 10
100.98573944958
 20
-130.0309949761728
 10
100.98573944958
 20
-130.0309949761728
 10
100.98573944958
 20
-130.0309949761728
 10
101.3602213288266
 20
-130.0309949761728
 10
101.3602213288266
 20
-130.0309949761728
 10
101.4108642324598
 20
-130.0309949761728
 10
101.6943955908959
 20
-130.0182481228774
 10
101.7260904693601
 20
-130.0182481228774
 10
101.724023412069
 20
-130.0458088867594
 10
101.7219563547778
 20
-130.0647569119283
 10
101.7219563547778
 20
-130.0943847331014
 10
101.7198892974867
 20
-130.1260796115657
 10
101.7198892974867
 20
-130.261471864136
 10
101.7198892974867
 20
-130.289032628018
 10
101.7198892974867
 20
-130.289032628018
 10
101.7198892974867
 20
-130.5343234265678
 10
101.7198892974867
 20
-130.5343234265678
 10
101.7198892974867
 20
-130.5787651583275
 10
101.724023412069
 20
-130.7758246200838
 10
101.7281575266513
 20
-130.9280978405319
 10
101.7281575266513
 20
-130.9280978405319
 10
101.5018147532704
 20
-130.9280978405319
 10
101.5018147532704
 20
-130.9280978405319
 10
101.5018147532704
 20
-130.9280978405319
 10
101.5038818105615
 20
-130.8939913952279
 10
101.5038818105615
 20
-130.8939913952279
 10
101.5038818105615
 20
-130.8939913952279
 10
100.8017713506676
 20
-130.8939913952279
 10
100.8017713506676
 20
-130.8939913952279
 10
100.8017713506676
 20
-130.8939913952279
 10
100.8038384079588
 20
-130.9280978405319
 10
100.8038384079588
 20
-130.9280978405319
 10
100.8038384079588
 20
-130.9280978405319
 10
100.5857638637425
 20
-130.9280978405319
 10
100.5857638637425
 20
-130.9280978405319
 10
100.5898979783248
 20
-130.8729763127679
 10
100.5898979783248
 20
-130.8602294594724
 10
100.5964436597467
 20
-130.7461967989107
 10
100.5985107170379
 20
-130.7186360350287
 10
100.600577774329
 20
-130.5853108397495
 10
100.600577774329
 20
-130.5663628145806
 10
100.600577774329
 20
-130.5663628145806
 10
100.600577774329
 20
-130.3631021809509
 10
100.600577774329
 20
-130.3631021809509
 10
100.4610514071764
 20
-130.6128716036315
 10
100.2918972188506
 20
-130.743785232071
 10
100.1861327874535
 20
-130.8095865558393
 10
100.1861327874535
 20
-130.8095865558393
 10
100.0124999749969
 20
-130.6697156791381
 10
100.0124999749969
 20
-130.6697156791381
 10
100.1013834385163
 20
-130.6190727755049
 10
100.2453884297998
 20
-130.5322563692767
 10
100.3828477396612
 20
-130.3376084743601
 10
100.4737982604718
 20
-130.2108289605029
 10
100.5392550746916
 20
-130.0668239692194
 10
100.573017010447
 20
-129.9145507487714
 10
100.344607179775
 20
-129.9166178060625
 10
100.1647731954449
 20
-129.9231634874845
 10
100.069688560052
 20
-129.9252305447756
 10
100.069688560052
 20
-129.9252305447756
 10
100.069688560052
 20
-129.7474636177367
 10
100.069688560052
 20
-129.7474636177367
 10
100.2664035122598
 20
-129.7540092991587
 10
100.5499348706959
 20
-129.758143413741
 10
100.7001410338527
 20
-129.758143413741
 10
100.7001410338527
 20
-129.758143413741
 10
100.9137369539382
 20
-129.758143413741
 10
100.9137369539382
 20
-129.758143413741
 10
100.9137369539382
 20
-129.758143413741
 10
100.9137369539382
 20
-129.6503119250527
 10
100.9137369539382
 20
-129.6503119250527
 10
100.9137369539382
 20
-129.6503119250527
 10
100.7676649053636
 20
-129.6503119250527
 10
100.7676649053636
 20
-129.6503119250527
 10
100.5985107170379
 20
-129.6503119250527
 10
100.4293565287121
 20
-129.654446039635
 10
100.2622693976775
 20
-129.6606472115085
 10
100.2622693976775
 20
-129.6606472115085
 10
100.2622693976775
 20
-129.4894259658915
 10
100.2622693976775
 20
-129.4894259658915
 10
100.4166096754167
 20
-129.5001057618958
 10
100.6026448316202
 20
-129.5001057618958
 10
100.7676649053636
 20
-129.5001057618958
 10
100.7676649053636
 20
-129.5001057618958
 10
100.9137369539382
 20
-129.5001057618958
 10
100.9137369539382
 20
-129.5001057618958
 10
100.9137369539382
 20
-129.5001057618958
 10
100.9137369539382
 20
-129.3815944772032
 10
100.9137369539382
 20
-129.3815944772032
 10
100.9137369539382
 20
-129.3815944772032
 10
100.7824788159502
 20
-129.3815944772032
 10
100.7824788159502
 20
-129.3815944772032
 10
100.7359700268994
 20
-129.3815944772032
 10
100.5330539028181
 20
-129.3898627063678
 10
100.4906792283496
 20
-129.3898627063678
 10
100.2874185947198
 20
-129.3943413304986
 10
100.2112819844958
 20
-129.3964083877898
 10
100.1330783169806
 20
-129.3984754450809
 10
100.1330783169806
 20
-129.3984754450809
 10
100.1330783169806
 20
-129.2145073461686
 10
100.1330783169806
 20
-129.2145073461686
 10
100.2474554870909
 20
-129.2227755753332
 10
100.2918972188506
 20
-129.2227755753332
 10
100.6746473272619
 20
-129.2313883140463
 10
100.6112575703333
 20
-129.1363036786534
 10
100.5836968064513
 20
-129.1087429147714
 10
100.5478678134047
 20
-129.0725694121763
 10
100.5478678134047
 20
-129.0725694121763
 10
100.7232231736039
 20
-128.9902316300788
 10
100.7232231736039
 20
-128.9902316300788
 10
100.7635307907813
 20
-129.0260606231254
 10
100.8079725225411
 20
-129.068435297594
 10
100.8820420754739
 20
-129.1783338435735
 10
100.8820420754739
 20
-129.1783338435735
 10
100.7676649053636
 20
-129.2334553713375
 10
100.7676649053636
 20
-129.2334553713375
 10
100.7676649053636
 20
-129.2334553713375
 10
100.7783447013679
 20
-129.2334553713375
 10
100.7783447013679
 20
-129.2334553713375
 10
100.7783447013679
 20
-129.2334553713375
 10
101.3009656864803
 20
-129.2334553713375
 10
101.3009656864803
 20
-129.2334553713375
 10
101.3009656864803
 20
-129.2334553713375
 10
101.2055365415389
 20
-129.1890136395778
 10
101.2055365415389
 20
-129.1890136395778
 10
101.2330973054209
 20
-129.15111758924
 10
101.290285890476
 20
-129.0705023548851
 10
101.3050998010626
 20
-128.9964328019523
 10
101.3050998010626
 20
-128.9964328019523
 10
101.5186957211481
 20
-129.0598225588809
 10
101.5186957211481
 20
-129.0598225588809
 10
101.5273084598612
 20
-129.0622341257206
 10
101.5483235423213
 20
-129.0725694121763
 10
101.5483235423213
 20
-129.0939290041848
 10
101.5483235423213
 20
-129.1318250545226
 10
101.4828667281015
 20
-129.1318250545226
 10
101.4639187029326
 20
-129.1318250545226
 10
101.4532389069284
 20
-129.15111758924
 10
101.4298122576287
 20
-129.1910806968689
 10
101.4001844364555
 20
-129.2313883140463
 10
101.800160022293
 20
-129.2248426326244
 10
101.8297878434662
 20
-129.2227755753332
 10
101.9059244536902
 20
-129.2165744034598
 10
101.9059244536902
 20
-129.2165744034598
 10
101.9059244536902
 20
-129.3984754450809
 10
101.9059244536902
 20
-129.3984754450809
 10
101.8869764285213
 20
-129.3984754450809
 10
101.8614827219305
 20
-129.3964083877898
 10
101.641341120423
 20
-129.3877956490767
 10
101.5906982167898
 20
-129.3857285917855
 10
101.3705566152824
 20
-129.3815944772032
 10
101.3261148835226
 20
-129.3815944772032
 10
101.3261148835226
 20
-129.3815944772032
 10
101.110451906146
 20
-129.3815944772032
 10
101.110451906146
 20
-129.3815944772032
 10
101.110451906146
 20
-129.3815944772032
 10
101.110451906146
 20
-129.5001057618958
 10
101.110451906146
 20
-129.5001057618958
 10
101.110451906146
 20
-129.5001057618958
 10
101.2840847186026
 20
-129.5001057618958
 10
101.2840847186026
 20
-129.5001057618958
 10
101.4466932255064
 20
-129.5001057618958
 10
101.6372070058407
 20
-129.5001057618958
 10
101.7939588504196
 20
-129.4894259658915
 10
101.7939588504196
 20
-129.4894259658915
 10
101.7939588504196
 20
-129.6606472115085
 10
101.7939588504196
 20
-129.6606472115085
 10
101.5844970449164
 20
-129.6523789823439
 10
101.3877820927086
 20
-129.6503119250527
 10
101.2840847186026
 20
-129.6503119250527
 10
101.2840847186026
 20
-129.6503119250527
 10
101.110451906146
 20
-129.6503119250527
 10
101.110451906146
 20
-129.6503119250527
 10
101.110451906146
 20
-129.6503119250527
 10
101.110451906146
 20
-129.758143413741
 10
101.110451906146
 20
-129.758143413741
 10
101.110451906146
 20
-129.758143413741
 10
101.3409287941092
 20
-129.758143413741
 10
101.3409287941092
 20
-129.758143413741
 10
101.4742539893884
 20
-129.758143413741
 10
101.7619194624068
 20
-129.7540092991587
 10
101.9713812679099
 20
-129.7474636177367
 10
101.9713812679099
 20
-129.7474636177367
 10
101.9713812679099
 20
-129.9252305447756
 10
101.9713812679099
 20
-129.9252305447756
 10
101.779144939833
 20
-129.9190293729022
 10
101.4659857602238
 20
-129.9145507487714
 10
101.3409287941092
 20
-129.9145507487714
 97
        0
 97
        0
 92
        1
 93
        4
 72
     1
 10
101.5059488678527
 20
-130.1705213433254
 11
100.7993597838279
 21
-130.1705213433254
 72
     1
 10
100.7993597838279
 20
-130.1705213433254
 11
100.7993597838279
 21
-130.2783528320138
 72
     1
 10
100.7993597838279
 20
-130.2783528320138
 11
101.5059488678527
 21
-130.2783528320138
 72
     1
 10
101.5059488678527
 20
-130.2783528320138
 11
101.5059488678527
 21
-130.1705213433254
 97
        0
 92
        1
 93
        4
 72
     1
 10
101.5059488678527
 20
-130.4034097981283
 11
100.7993597838279
 21
-130.4034097981283
 72
     1
 10
100.7993597838279
 20
-130.4034097981283
 11
100.7993597838279
 21
-130.5174424586901
 72
     1
 10
100.7993597838279
 20
-130.5174424586901
 11
101.5059488678527
 21
-130.5174424586901
 72
     1
 10
101.5059488678527
 20
-130.5174424586901
 11
101.5059488678527
 21
-130.4034097981283
 97
        0
 92
        1
 93
        4
 72
     1
 10
101.5059488678527
 20
-130.646633539387
 11
100.7993597838279
 21
-130.646633539387
 72
     1
 10
100.7993597838279
 20
-130.646633539387
 11
100.7993597838279
 21
-130.7610107094972
 72
     1
 10
100.7993597838279
 20
-130.7610107094972
 11
101.5059488678527
 21
-130.7610107094972
 72
     1
 10
101.5059488678527
 20
-130.7610107094972
 11
101.5059488678527
 21
-130.646633539387
 97
        0
 75
     2
 76
     1
 98
        0
  0
SPLINE
  5
2C1
330
2A2
100
AcDbEntity
  8
_U+30EC_U+30A4_U+30E4_U+30FC 1
370
     0
100
AcDbSpline
210
0.0
220
0.0
230
1.0
 70
    11
 71
     3
 72
    47
 73
    43
 74
     0
 42
0.0000000001
 43
0.0000000001
 12
1.0
 22
0.0
 32
0.0
 13
1.0
 23
0.0
 33
0.0
 40
0.0
 40
0.0
 40
0.0
 40
0.0
 40
1.0
 40
1.0
 40
1.0
 40
2.0
 40
2.0
 40
2.0
 40
3.0
 40
3.0
 40
3.0
 40
4.0
 40
4.0
 40
4.0
 40
5.0
 40
5.0
 40
5.0
 40
6.0
 40
6.0
 40
6.0
 40
7.0
 40
7.0
 40
7.0
 40
8.0
 40
8.0
 40
8.0
 40
9.0
 40
9.0
 40
9.0
 40
10.0
 40
10.0
 40
10.0
 40
11.0
 40
11.0
 40
11.0
 40
12.0
 40
12.0
 40
12.0
 40
13.0
 40
13.0
 40
13.0
 40
14.0
 40
14.0
 40
14.0
 40
14.0
 10
103.3180690930941
 20
-129.8914686090202
 30
0.0
 10
103.3180690930941
 20
-129.8914686090202
 30
0.0
 10
103.2164387762792
 20
-129.8914686090202
 30
0.0
 10
103.2164387762792
 20
-129.8914686090202
 30
0.0
 10
103.2164387762792
 20
-129.9779405057
 30
0.0
 10
103.1954236938192
 20
-130.3672362955332
 30
0.0
 10
102.9987087416114
 20
-130.5873778970407
 30
0.0
 10
102.8464355211634
 20
-130.7565320853664
 30
0.0
 10
102.6390407729514
 20
-130.826467523717
 30
0.0
 10
102.5542914240142
 20
-130.854028287599
 30
0.0
 10
102.5542914240142
 20
-130.854028287599
 30
0.0
 10
102.3596435290976
 20
-130.6869411565644
 30
0.0
 10
102.3596435290976
 20
-130.6869411565644
 30
0.0
 10
102.4571397313302
 20
-130.674194303269
 30
0.0
 10
102.6324950915294
 20
-130.6507676539693
 30
0.0
 10
102.8209418145725
 20
-130.4626654404746
 30
0.0
 10
102.8950113675054
 20
-130.3906629448329
 30
0.0
 10
102.9987087416114
 20
-130.2511365776803
 30
0.0
 10
102.9987087416114
 20
-129.8914686090202
 30
0.0
 10
102.9987087416114
 20
-129.8914686090202
 30
0.0
 10
102.7678873440997
 20
-129.8914686090202
 30
0.0
 10
102.7678873440997
 20
-129.8914686090202
 30
0.0
 10
102.5818521878962
 20
-129.8914686090202
 30
0.0
 10
102.3958170316927
 20
-129.8956027236025
 30
0.0
 10
102.2094373659407
 20
-129.9104166341891
 30
0.0
 10
102.2094373659407
 20
-129.9104166341891
 30
0.0
 10
102.2094373659407
 20
-129.6902750326816
 30
0.0
 10
102.2094373659407
 20
-129.6902750326816
 30
0.0
 10
102.3978840889839
 20
-129.7050889432682
 30
0.0
 10
102.6834825047111
 20
-129.709567567399
 30
0.0
 10
102.7678873440997
 20
-129.709567567399
 30
0.0
 10
102.7678873440997
 20
-129.709567567399
 30
0.0
 10
103.3180690930941
 20
-129.709567567399
 30
0.0
 10
103.3180690930941
 20
-129.709567567399
 30
0.0
 10
103.337017118263
 20
-129.709567567399
 30
0.0
 10
103.6543104124545
 20
-129.709567567399
 30
0.0
 10
103.8830647526751
 20
-129.6902750326816
 30
0.0
 10
103.8830647526751
 20
-129.6902750326816
 30
0.0
 10
103.8830647526751
 20
-129.9104166341891
 30
0.0
 10
103.8830647526751
 20
-129.9104166341891
 30
0.0
 10
103.6946180296319
 20
-129.8956027236025
 30
0.0
 10
103.5065158161373
 20
-129.8914686090202
 30
0.0
 10
103.3180690930941
 20
-129.8914686090202
 30
0.0
  0
SPLINE
  5
2C2
330
2A2
100
AcDbEntity
  8
_U+30EC_U+30A4_U+30E4_U+30FC 1
370
     0
100
AcDbSpline
210
0.0
220
0.0
230
1.0
 70
    11
 71
     3
 72
    29
 73
    25
 74
     0
 42
0.0000000001
 43
0.0000000001
 12
1.0
 22
0.0
 32
0.0
 13
1.0
 23
0.0
 33
0.0
 40
0.0
 40
0.0
 40
0.0
 40
0.0
 40
1.0
 40
1.0
 40
1.0
 40
2.0
 40
2.0
 40
2.0
 40
3.0
 40
3.0
 40
3.0
 40
4.0
 40
4.0
 40
4.0
 40
5.0
 40
5.0
 40
5.0
 40
6.0
 40
6.0
 40
6.0
 40
7.0
 40
7.0
 40
7.0
 40
8.0
 40
8.0
 40
8.0
 40
8.0
 10
103.2164387762792
 20
-129.3626464520343
 30
0.0
 10
103.2164387762792
 20
-129.3626464520343
 30
0.0
 10
102.8633164890411
 20
-129.3626464520343
 30
0.0
 10
102.8633164890411
 20
-129.3626464520343
 30
0.0
 10
102.751006376222
 20
-129.3626464520343
 30
0.0
 10
102.6114800090694
 20
-129.3688476239078
 30
0.0
 10
102.503648520381
 20
-129.3815944772032
 30
0.0
 10
102.503648520381
 20
-129.3815944772032
 30
0.0
 10
102.503648520381
 20
-129.1466389651092
 30
0.0
 10
102.503648520381
 20
-129.1466389651092
 30
0.0
 10
102.6221598050736
 20
-129.1614528756957
 30
0.0
 10
102.806127903986
 20
-129.1655869902781
 30
0.0
 10
102.8633164890411
 20
-129.1655869902781
 30
0.0
 10
102.8633164890411
 20
-129.1655869902781
 30
0.0
 10
103.2164387762792
 20
-129.1655869902781
 30
0.0
 10
103.2164387762792
 20
-129.1655869902781
 30
0.0
 10
103.2357313109966
 20
-129.1655869902781
 30
0.0
 10
103.4386474350778
 20
-129.1655869902781
 30
0.0
 10
103.5802408595216
 20
-129.1466389651092
 30
0.0
 10
103.5802408595216
 20
-129.1466389651092
 30
0.0
 10
103.5802408595216
 20
-129.3815944772032
 30
0.0
 10
103.5802408595216
 20
-129.3815944772032
 30
0.0
 10
103.4238335244913
 20
-129.3626464520343
 30
0.0
 10
103.233319744157
 20
-129.3626464520343
 30
0.0
 10
103.2164387762792
 20
-129.3626464520343
 30
0.0
  0
HATCH
  5
2C3
330
2A2
100
AcDbEntity
  8
_U+30EC_U+30A4_U+30E4_U+30FC 1
 62
     7
420
 16777215
100
AcDbHatch
 10
0.0
 20
0.0
 30
0.0
210
0.0
220
0.0
230
1.0
  2
SOLID
 70
     1
 71
     0
 91
        2
 92
        1
 93
        1
 72
     4
 94
        3
 73
     0
 74
     1
 95
       47
 96
       43
 40
0.0
 40
0.0
 40
0.0
 40
0.0
 40
1.0
 40
1.0
 40
1.0
 40
2.0
 40
2.0
 40
2.0
 40
3.0
 40
3.0
 40
3.0
 40
4.0
 40
4.0
 40
4.0
 40
5.0
 40
5.0
 40
5.0
 40
6.0
 40
6.0
 40
6.0
 40
7.0
 40
7.0
 40
7.0
 40
8.0
 40
8.0
 40
8.0
 40
9.0
 40
9.0
 40
9.0
 40
10.0
 40
10.0
 40
10.0
 40
11.0
 40
11.0
 40
11.0
 40
12.0
 40
12.0
 40
12.0
 40
13.0
 40
13.0
 40
13.0
 40
14.0
 40
14.0
 40
14.0
 40
14.0
 10
103.3180690930941
 20
-129.8914686090202
 10
103.3180690930941
 20
-129.8914686090202
 10
103.2164387762792
 20
-129.8914686090202
 10
103.2164387762792
 20
-129.8914686090202
 10
103.2164387762792
 20
-129.9779405057
 10
103.1954236938192
 20
-130.3672362955332
 10
102.9987087416114
 20
-130.5873778970407
 10
102.8464355211634
 20
-130.7565320853664
 10
102.6390407729514
 20
-130.826467523717
 10
102.5542914240142
 20
-130.854028287599
 10
102.5542914240142
 20
-130.854028287599
 10
102.3596435290976
 20
-130.6869411565644
 10
102.3596435290976
 20
-130.6869411565644
 10
102.4571397313302
 20
-130.674194303269
 10
102.6324950915294
 20
-130.6507676539693
 10
102.8209418145725
 20
-130.4626654404746
 10
102.8950113675054
 20
-130.3906629448329
 10
102.9987087416114
 20
-130.2511365776803
 10
102.9987087416114
 20
-129.8914686090202
 10
102.9987087416114
 20
-129.8914686090202
 10
102.7678873440997
 20
-129.8914686090202
 10
102.7678873440997
 20
-129.8914686090202
 10
102.5818521878962
 20
-129.8914686090202
 10
102.3958170316927
 20
-129.8956027236025
 10
102.2094373659407
 20
-129.9104166341891
 10
102.2094373659407
 20
-129.9104166341891
 10
102.2094373659407
 20
-129.6902750326816
 10
102.2094373659407
 20
-129.6902750326816
 10
102.3978840889839
 20
-129.7050889432682
 10
102.6834825047111
 20
-129.709567567399
 10
102.7678873440997
 20
-129.709567567399
 10
102.7678873440997
 20
-129.709567567399
 10
103.3180690930941
 20
-129.709567567399
 10
103.3180690930941
 20
-129.709567567399
 10
103.337017118263
 20
-129.709567567399
 10
103.6543104124545
 20
-129.709567567399
 10
103.8830647526751
 20
-129.6902750326816
 10
103.8830647526751
 20
-129.6902750326816
 10
103.8830647526751
 20
-129.9104166341891
 10
103.8830647526751
 20
-129.9104166341891
 10
103.6946180296319
 20
-129.8956027236025
 10
103.5065158161373
 20
-129.8914686090202
 10
103.3180690930941
 20
-129.8914686090202
 97
        0
 97
        0
 92
        1
 93
        1
 72
     4
 94
        3
 73
     0
 74
     1
 95
       29
 96
       25
 40
0.0
 40
0.0
 40
0.0
 40
0.0
 40
1.0
 40
1.0
 40
1.0
 40
2.0
 40
2.0
 40
2.0
 40
3.0
 40
3.0
 40
3.0
 40
4.0
 40
4.0
 40
4.0
 40
5.0
 40
5.0
 40
5.0
 40
6.0
 40
6.0
 40
6.0
 40
7.0
 40
7.0
 40
7.0
 40
8.0
 40
8.0
 40
8.0
 40
8.0
 10
103.2164387762792
 20
-129.3626464520343
 10
103.2164387762792
 20
-129.3626464520343
 10
102.8633164890411
 20
-129.3626464520343
 10
102.8633164890411
 20
-129.3626464520343
 10
102.751006376222
 20
-129.3626464520343
 10
102.6114800090694
 20
-129.3688476239078
 10
102.503648520381
 20
-129.3815944772032
 10
102.503648520381
 20
-129.3815944772032
 10
102.503648520381
 20
-129.1466389651092
 10
102.503648520381
 20
-129.1466389651092
 10
102.6221598050736
 20
-129.1614528756957
 10
102.806127903986
 20
-129.1655869902781
 10
102.8633164890411
 20
-129.1655869902781
 10
102.8633164890411
 20
-129.1655869902781
 10
103.2164387762792
 20
-129.1655869902781
 10
103.2164387762792
 20
-129.1655869902781
 10
103.2357313109966
 20
-129.1655869902781
 10
103.4386474350778
 20
-129.1655869902781
 10
103.5802408595216
 20
-129.1466389651092
 10
103.5802408595216
 20
-129.1466389651092
 10
103.5802408595216
 20
-129.3815944772032
 10
103.5802408595216
 20
-129.3815944772032
 10
103.4238335244913
 20
-129.3626464520343
 10
103.233319744157
 20
-129.3626464520343
 10
103.2164387762792
 20
-129.3626464520343
 97
        0
 97
        0
 75
     2
 76
     1
 98
        0
  0
SPLINE
  5
2C4
330
2A2
100
AcDbEntity
  8
_U+30EC_U+30A4_U+30E4_U+30FC 1
370
     0
100
AcDbSpline
210
0.0
220
0.0
230
1.0
 70
    11
 71
     3
 72
    29
 73
    25
 74
     0
 42
0.0000000001
 43
0.0000000001
 12
1.0
 22
0.0
 32
0.0
 13
1.0
 23
0.0
 33
0.0
 40
0.0
 40
0.0
 40
0.0
 40
0.0
 40
1.0
 40
1.0
 40
1.0
 40
2.0
 40
2.0
 40
2.0
 40
3.0
 40
3.0
 40
3.0
 40
4.0
 40
4.0
 40
4.0
 40
5.0
 40
5.0
 40
5.0
 40
6.0
 40
6.0
 40
6.0
 40
7.0
 40
7.0
 40
7.0
 40
8.0
 40
8.0
 40
8.0
 40
8.0
 10
105.163951254091
 20
-130.0544216254725
 30
0.0
 10
105.163951254091
 20
-130.0544216254725
 30
0.0
 10
104.6795708288648
 20
-130.0544216254725
 30
0.0
 10
104.6795708288648
 20
-130.0544216254725
 30
0.0
 10
104.6520100649828
 20
-130.0544216254725
 30
0.0
 10
104.3347167707913
 20
-130.0544216254725
 30
0.0
 10
104.123187907997
 20
-130.0795708225148
 30
0.0
 10
104.123187907997
 20
-130.0795708225148
 30
0.0
 10
104.123187907997
 20
-129.8490939345516
 30
0.0
 10
104.123187907997
 20
-129.8490939345516
 30
0.0
 10
104.2816623003185
 20
-129.8721760743028
 30
0.0
 10
104.4721760806528
 20
-129.8745876411425
 30
0.0
 10
104.6795708288648
 20
-129.8745876411425
 30
0.0
 10
104.6795708288648
 20
-129.8745876411425
 30
0.0
 10
105.163951254091
 20
-129.8745876411425
 30
0.0
 10
105.163951254091
 20
-129.8745876411425
 30
0.0
 10
105.3499864102944
 20
-129.8745876411425
 30
0.0
 10
105.536021566498
 20
-129.8721760743028
 30
0.0
 10
105.7203341749588
 20
-129.8490939345516
 30
0.0
 10
105.7203341749588
 20
-129.8490939345516
 30
0.0
 10
105.7203341749588
 20
-130.0795708225148
 30
0.0
 10
105.7203341749588
 20
-130.0795708225148
 30
0.0
 10
105.536021566498
 20
-130.0564886827637
 30
0.0
 10
105.288663710657
 20
-130.0544216254725
 30
0.0
 10
105.163951254091
 20
-130.0544216254725
 30
0.0
  0
HATCH
  5
2C5
330
2A2
100
AcDbEntity
  8
_U+30EC_U+30A4_U+30E4_U+30FC 1
 62
     7
420
 16777215
100
AcDbHatch
 10
0.0
 20
0.0
 30
0.0
210
0.0
220
0.0
230
1.0
  2
SOLID
 70
     1
 71
     0
 91
        1
 92
        1
 93
        1
 72
     4
 94
        3
 73
     0
 74
     1
 95
       29
 96
       25
 40
0.0
 40
0.0
 40
0.0
 40
0.0
 40
1.0
 40
1.0
 40
1.0
 40
2.0
 40
2.0
 40
2.0
 40
3.0
 40
3.0
 40
3.0
 40
4.0
 40
4.0
 40
4.0
 40
5.0
 40
5.0
 40
5.0
 40
6.0
 40
6.0
 40
6.0
 40
7.0
 40
7.0
 40
7.0
 40
8.0
 40
8.0
 40
8.0
 40
8.0
 10
105.163951254091
 20
-130.0544216254725
 10
105.163951254091
 20
-130.0544216254725
 10
104.6795708288648
 20
-130.0544216254725
 10
104.6795708288648
 20
-130.0544216254725
 10
104.6520100649828
 20
-130.0544216254725
 10
104.3347167707913
 20
-130.0544216254725
 10
104.123187907997
 20
-130.0795708225148
 10
104.123187907997
 20
-130.0795708225148
 10
104.123187907997
 20
-129.8490939345516
 10
104.123187907997
 20
-129.8490939345516
 10
104.2816623003185
 20
-129.8721760743028
 10
104.4721760806528
 20
-129.8745876411425
 10
104.6795708288648
 20
-129.8745876411425
 10
104.6795708288648
 20
-129.8745876411425
 10
105.163951254091
 20
-129.8745876411425
 10
105.163951254091
 20
-129.8745876411425
 10
105.3499864102944
 20
-129.8745876411425
 10
105.536021566498
 20
-129.8721760743028
 10
105.7203341749588
 20
-129.8490939345516
 10
105.7203341749588
 20
-129.8490939345516
 10
105.7203341749588
 20
-130.0795708225148
 10
105.7203341749588
 20
-130.0795708225148
 10
105.536021566498
 20
-130.0564886827637
 10
105.288663710657
 20
-130.0544216254725
 10
105.163951254091
 20
-130.0544216254725
 97
        0
 97
        0
 75
     2
 76
     1
 98
        0
  0
SPLINE
  5
2C6
330
2A2
100
AcDbEntity
  8
_U+30EC_U+30A4_U+30E4_U+30FC 1
370
     0
100
AcDbSpline
210
0.0
220
0.0
230
1.0
 70
    11
 71
     3
 72
    47
 73
    43
 74
     0
 42
0.0000000001
 43
0.0000000001
 12
1.0
 22
0.0
 32
0.0
 13
1.0
 23
0.0
 33
0.0
 40
0.0
 40
0.0
 40
0.0
 40
0.0
 40
1.0
 40
1.0
 40
1.0
 40
2.0
 40
2.0
 40
2.0
 40
3.0
 40
3.0
 40
3.0
 40
4.0
 40
4.0
 40
4.0
 40
5.0
 40
5.0
 40
5.0
 40
6.0
 40
6.0
 40
6.0
 40
7.0
 40
7.0
 40
7.0
 40
8.0
 40
8.0
 40
8.0
 40
9.0
 40
9.0
 40
9.0
 40
10.0
 40
10.0
 40
10.0
 40
11.0
 40
11.0
 40
11.0
 40
12.0
 40
12.0
 40
12.0
 40
13.0
 40
13.0
 40
13.0
 40
14.0
 40
14.0
 40
14.0
 40
14.0
 10
107.383970784786
 20
-129.4597981447184
 30
0.0
 10
107.3140353464354
 20
-129.7391953885721
 30
0.0
 10
107.2378987362114
 20
-130.0437418294682
 30
0.0
 10
106.9250840661507
 20
-130.3758490342463
 30
0.0
 10
106.6880614967655
 20
-130.6256184569269
 30
0.0
 10
106.4427706982157
 20
-130.7248372069021
 30
0.0
 10
106.3370062668185
 20
-130.7672118813707
 30
0.0
 10
106.3370062668185
 20
-130.7672118813707
 30
0.0
 10
106.1423583719019
 20
-130.5853108397495
 30
0.0
 10
106.1423583719019
 20
-130.5853108397495
 30
0.0
 10
106.3283935281054
 20
-130.5388020506986
 30
0.0
 10
106.6901285540566
 20
-130.4457844725969
 30
0.0
 10
106.9864067657881
 20
-129.9507242513665
 30
0.0
 10
107.1469482154008
 20
-129.6840738608082
 30
0.0
 10
107.1596950686962
 20
-129.5104410483516
 30
0.0
 10
107.1683078074093
 20
-129.419490527541
 30
0.0
 10
107.1683078074093
 20
-129.419490527541
 30
0.0
 10
106.6625677901746
 20
-129.419490527541
 30
0.0
 10
106.6625677901746
 20
-129.419490527541
 30
0.0
 10
106.544056505482
 20
-129.419490527541
 30
0.0
 10
106.1230658371845
 20
-129.4387830622584
 30
0.0
 10
105.9707926167365
 20
-129.4491183487141
 30
0.0
 10
105.9707926167365
 20
-129.4491183487141
 30
0.0
 10
105.9707926167365
 20
-129.2396565432109
 30
0.0
 10
105.9707926167365
 20
-129.2396565432109
 30
0.0
 10
106.1127305507288
 20
-129.2524033965063
 30
0.0
 10
106.3897162277429
 20
-129.2568820206372
 30
0.0
 10
106.5061604551443
 20
-129.2568820206372
 30
0.0
 10
106.5061604551443
 20
-129.2568820206372
 30
0.0
 10
106.8613497996736
 20
-129.2568820206372
 30
0.0
 10
106.8613497996736
 20
-129.2568820206372
 30
0.0
 10
106.8889105635556
 20
-129.2568820206372
 30
0.0
 10
107.0497965227167
 20
-129.2544704537975
 30
0.0
 10
107.1596950686962
 20
-129.2396565432109
 30
0.0
 10
107.2168836537513
 20
-129.2334553713375
 30
0.0
 10
107.2337646216291
 20
-129.2145073461686
 30
0.0
 10
107.2571912709288
 20
-129.1910806968689
 30
0.0
 10
107.2571912709288
 20
-129.1910806968689
 30
0.0
 10
107.4452934844234
 20
-129.3412868600258
 30
0.0
 10
107.4452934844234
 20
-129.3412868600258
 30
0.0
 10
107.4304795738368
 20
-129.3709146811989
 30
0.0
 10
107.4201442873811
 20
-129.3898627063678
 30
0.0
 10
107.383970784786
 20
-129.4597981447184
 30
0.0
  0
HATCH
  5
2C7
330
2A2
100
AcDbEntity
  8
_U+30EC_U+30A4_U+30E4_U+30FC 1
 62
     7
420
 16777215
100
AcDbHatch
 10
0.0
 20
0.0
 30
0.0
210
0.0
220
0.0
230
1.0
  2
SOLID
 70
     1
 71
     0
 91
        1
 92
        1
 93
        1
 72
     4
 94
        3
 73
     0
 74
     1
 95
       47
 96
       43
 40
0.0
 40
0.0
 40
0.0
 40
0.0
 40
1.0
 40
1.0
 40
1.0
 40
2.0
 40
2.0
 40
2.0
 40
3.0
 40
3.0
 40
3.0
 40
4.0
 40
4.0
 40
4.0
 40
5.0
 40
5.0
 40
5.0
 40
6.0
 40
6.0
 40
6.0
 40
7.0
 40
7.0
 40
7.0
 40
8.0
 40
8.0
 40
8.0
 40
9.0
 40
9.0
 40
9.0
 40
10.0
 40
10.0
 40
10.0
 40
11.0
 40
11.0
 40
11.0
 40
12.0
 40
12.0
 40
12.0
 40
13.0
 40
13.0
 40
13.0
 40
14.0
 40
14.0
 40
14.0
 40
14.0
 10
107.383970784786
 20
-129.4597981447184
 10
107.3140353464354
 20
-129.7391953885721
 10
107.2378987362114
 20
-130.0437418294682
 10
106.9250840661507
 20
-130.3758490342463
 10
106.6880614967655
 20
-130.6256184569269
 10
106.4427706982157
 20
-130.7248372069021
 10
106.3370062668185
 20
-130.7672118813707
 10
106.3370062668185
 20
-130.7672118813707
 10
106.1423583719019
 20
-130.5853108397495
 10
106.1423583719019
 20
-130.5853108397495
 10
106.3283935281054
 20
-130.5388020506986
 10
106.6901285540566
 20
-130.4457844725969
 10
106.9864067657881
 20
-129.9507242513665
 10
107.1469482154008
 20
-129.6840738608082
 10
107.1596950686962
 20
-129.5104410483516
 10
107.1683078074093
 20
-129.419490527541
 10
107.1683078074093
 20
-129.419490527541
 10
106.6625677901746
 20
-129.419490527541
 10
106.6625677901746
 20
-129.419490527541
 10
106.544056505482
 20
-129.419490527541
 10
106.1230658371845
 20
-129.4387830622584
 10
105.9707926167365
 20
-129.4491183487141
 10
105.9707926167365
 20
-129.4491183487141
 10
105.9707926167365
 20
-129.2396565432109
 10
105.9707926167365
 20
-129.2396565432109
 10
106.1127305507288
 20
-129.2524033965063
 10
106.3897162277429
 20
-129.2568820206372
 10
106.5061604551443
 20
-129.2568820206372
 10
106.5061604551443
 20
-129.2568820206372
 10
106.8613497996736
 20
-129.2568820206372
 10
106.8613497996736
 20
-129.2568820206372
 10
106.8889105635556
 20
-129.2568820206372
 10
107.0497965227167
 20
-129.2544704537975
 10
107.1596950686962
 20
-129.2396565432109
 10
107.2168836537513
 20
-129.2334553713375
 10
107.2337646216291
 20
-129.2145073461686
 10
107.2571912709288
 20
-129.1910806968689
 10
107.2571912709288
 20
-129.1910806968689
 10
107.4452934844234
 20
-129.3412868600258
 10
107.4452934844234
 20
-129.3412868600258
 10
107.4304795738368
 20
-129.3709146811989
 10
107.4201442873811
 20
-129.3898627063678
 10
107.383970784786
 20
-129.4597981447184
 97
        0
 97
        0
 75
     2
 76
     1
 98
        0
  0
SPLINE
  5
2C8
330
2A2
100
AcDbEntity
  8
_U+30EC_U+30A4_U+30E4_U+30FC 1
370
     0
100
AcDbSpline
210
0.0
220
0.0
230
1.0
 70
    11
 71
     3
 72
    17
 73
    13
 74
     0
 42
0.0000000001
 43
0.0000000001
 12
1.0
 22
0.0
 32
0.0
 13
1.0
 23
0.0
 33
0.0
 40
0.0
 40
0.0
 40
0.0
 40
0.0
 40
1.0
 40
1.0
 40
1.0
 40
2.0
 40
2.0
 40
2.0
 40
3.0
 40
3.0
 40
3.0
 40
4.0
 40
4.0
 40
4.0
 40
4.0
 10
108.0895263401651
 20
-129.2420681100506
 30
0.0
 10
108.0895263401651
 20
-129.3561007706124
 30
0.0
 10
107.9965087620634
 20
-129.4511854060053
 30
0.0
 10
107.8800645346619
 20
-129.4511854060053
 30
0.0
 10
107.7656873645516
 20
-129.4511854060053
 30
0.0
 10
107.6706027291587
 20
-129.3561007706124
 30
0.0
 10
107.6706027291587
 20
-129.2420681100506
 30
0.0
 10
107.6706027291587
 20
-129.1256238826492
 30
0.0
 10
107.7656873645516
 20
-129.0326063045474
 30
0.0
 10
107.8800645346619
 20
-129.0326063045474
 30
0.0
 10
107.9944417047722
 20
-129.0326063045474
 30
0.0
 10
108.0895263401651
 20
-129.1256238826492
 30
0.0
 10
108.0895263401651
 20
-129.2420681100506
 30
0.0
  0
SPLINE
  5
2C9
330
2A2
100
AcDbEntity
  8
_U+30EC_U+30A4_U+30E4_U+30FC 1
370
     0
100
AcDbSpline
210
0.0
220
0.0
230
1.0
 70
    11
 71
     3
 72
    17
 73
    13
 74
     0
 42
0.0000000001
 43
0.0000000001
 12
1.0
 22
0.0
 32
0.0
 13
1.0
 23
0.0
 33
0.0
 40
0.0
 40
0.0
 40
0.0
 40
0.0
 40
1.0
 40
1.0
 40
1.0
 40
2.0
 40
2.0
 40
2.0
 40
3.0
 40
3.0
 40
3.0
 40
4.0
 40
4.0
 40
4.0
 40
4.0
 10
107.7743001032648
 20
-129.2420681100506
 30
0.0
 10
107.7743001032648
 20
-129.3013237523969
 30
0.0
 10
107.8208088923156
 20
-129.3478325414478
 30
0.0
 10
107.8800645346619
 20
-129.3478325414478
 30
0.0
 10
107.9393201770082
 20
-129.3478325414478
 30
0.0
 10
107.9878960233503
 20
-129.3013237523969
 30
0.0
 10
107.9878960233503
 20
-129.2420681100506
 30
0.0
 10
107.9878960233503
 20
-129.1828124677043
 30
0.0
 10
107.9393201770082
 20
-129.1338921118138
 30
0.0
 10
107.8800645346619
 20
-129.1338921118138
 30
0.0
 10
107.8208088923156
 20
-129.1338921118138
 30
0.0
 10
107.7743001032648
 20
-129.1828124677043
 30
0.0
 10
107.7743001032648
 20
-129.2420681100506
 30
0.0
  0
HATCH
  5
2CA
330
2A2
100
AcDbEntity
  8
_U+30EC_U+30A4_U+30E4_U+30FC 1
 62
     7
420
 16777215
100
AcDbHatch
 10
0.0
 20
0.0
 30
0.0
210
0.0
220
0.0
230
1.0
  2
SOLID
 70
     1
 71
     0
 91
        2
 92
        1
 93
        1
 72
     4
 94
        3
 73
     0
 74
     1
 95
       17
 96
       13
 40
0.0
 40
0.0
 40
0.0
 40
0.0
 40
1.0
 40
1.0
 40
1.0
 40
2.0
 40
2.0
 40
2.0
 40
3.0
 40
3.0
 40
3.0
 40
4.0
 40
4.0
 40
4.0
 40
4.0
 10
108.0895263401651
 20
-129.2420681100506
 10
108.0895263401651
 20
-129.3561007706124
 10
107.9965087620634
 20
-129.4511854060053
 10
107.8800645346619
 20
-129.4511854060053
 10
107.7656873645516
 20
-129.4511854060053
 10
107.6706027291587
 20
-129.3561007706124
 10
107.6706027291587
 20
-129.2420681100506
 10
107.6706027291587
 20
-129.1256238826492
 10
107.7656873645516
 20
-129.0326063045474
 10
107.8800645346619
 20
-129.0326063045474
 10
107.9944417047722
 20
-129.0326063045474
 10
108.0895263401651
 20
-129.1256238826492
 10
108.0895263401651
 20
-129.2420681100506
 97
        0
 97
        0
 92
        1
 93
        1
 72
     4
 94
        3
 73
     0
 74
     1
 95
       17
 96
       13
 40
0.0
 40
0.0
 40
0.0
 40
0.0
 40
1.0
 40
1.0
 40
1.0
 40
2.0
 40
2.0
 40
2.0
 40
3.0
 40
3.0
 40
3.0
 40
4.0
 40
4.0
 40
4.0
 40
4.0
 10
107.7743001032648
 20
-129.2420681100506
 10
107.7743001032648
 20
-129.3013237523969
 10
107.8208088923156
 20
-129.3478325414478
 10
107.8800645346619
 20
-129.3478325414478
 10
107.9393201770082
 20
-129.3478325414478
 10
107.9878960233503
 20
-129.3013237523969
 10
107.9878960233503
 20
-129.2420681100506
 10
107.9878960233503
 20
-129.1828124677043
 10
107.9393201770082
 20
-129.1338921118138
 10
107.8800645346619
 20
-129.1338921118138
 10
107.8208088923156
 20
-129.1338921118138
 10
107.7743001032648
 20
-129.1828124677043
 10
107.7743001032648
 20
-129.2420681100506
 97
        0
 97
        0
 75
     2
 76
     1
 98
        0
  0
ENDBLK
  5
2A5
330
2A2
100
AcDbEntity
  8
0
100
AcDbBlockEnd
  0
ENDSEC
  0
SECTION
  2
ENTITIES
  0
INSERT
  5
42
330
1F
100
AcDbEntity
  8
_U+30EC_U+30A4_U+30E4_U+30FC 1
100
AcDbBlockReference
  2
block 2
 10
0.0
 20
0.0
 30
0.0
  0
POLYLINE
  5
84
330
1F
100
AcDbEntity
  8
_U+30EC_U+30A4_U+30E4_U+30FC 1
  6
AI-Linetype-1
 62
   154
420
    23468
370
    25
100
AcDb2dPolyline
 66
     1
 10
0.0
 20
0.0
 30
0.0
  0
VERTEX
  5
85
330
84
100
AcDbEntity
  8
_U+30EC_U+30A4_U+30E4_U+30FC 1
  6
AI-Linetype-1
 62
   154
420
    23468
370
    25
100
AcDbVertex
100
AcDb2dVertex
 10
52.89031281732237
 20
-126.5194108017036
 30
0.0
  0
VERTEX
  5
86
330
84
100
AcDbEntity
  8
_U+30EC_U+30A4_U+30E4_U+30FC 1
  6
AI-Linetype-1
 62
   154
420
    23468
370
    25
100
AcDbVertex
100
AcDb2dVertex
 10
62.89022200664788
 20
-126.5194108017036
 30
0.0
  0
SEQEND
  5
88
330
84
100
AcDbEntity
  8
_U+30EC_U+30A4_U+30E4_U+30FC 1
  6
AI-Linetype-1
 62
   154
420
    23468
370
    25
  0
POLYLINE
  5
89
330
1F
100
AcDbEntity
  8
_U+30EC_U+30A4_U+30E4_U+30FC 1
  6
AI-Linetype-2
 62
   154
420
    23468
370
    25
100
AcDb2dPolyline
 66
     1
 10
0.0
 20
0.0
 30
0.0
  0
VERTEX
  5
8A
330
89
100
AcDbEntity
  8
_U+30EC_U+30A4_U+30E4_U+30FC 1
  6
AI-Linetype-2
 62
   154
420
    23468
370
    25
100
AcDbVertex
100
AcDb2dVertex
 10
93.4254662276289
 20
-126.5194108017036
 30
0.0
  0
VERTEX
  5
8B
330
89
100
AcDbEntity
  8
_U+30EC_U+30A4_U+30E4_U+30FC 1
  6
AI-Linetype-2
 62
   154
420
    23468
370
    25
100
AcDbVertex
100
AcDb2dVertex
 10
103.42519902807
 20
-126.5194108017036
 30
0.0
  0
SEQEND
  5
8D
330
89
100
AcDbEntity
  8
_U+30EC_U+30A4_U+30E4_U+30FC 1
  6
AI-Linetype-2
 62
   154
420
    23468
370
    25
  0
POLYLINE
  5
8E
330
1F
100
AcDbEntity
  8
_U+30EC_U+30A4_U+30E4_U+30FC 1
 62
   179
420
  2234388
370
    25
100
AcDb2dPolyline
 66
     1
 10
0.0
 20
0.0
 30
0.0
  0
VERTEX
  5
8F
330
8E
100
AcDbEntity
  8
_U+30EC_U+30A4_U+30E4_U+30FC 1
 62
   179
420
  2234388
370
    25
100
AcDbVertex
100
AcDb2dVertex
 10
52.89031281732237
 20
-125.9278730240736
 30
0.0
  0
VERTEX
  5
90
330
8E
100
AcDbEntity
  8
_U+30EC_U+30A4_U+30E4_U+30FC 1
 62
   179
420
  2234388
370
    25
100
AcDbVertex
100
AcDb2dVertex
 10
77.01509109073689
 20
-125.9278730240736
 30
0.0
  0
SEQEND
  5
91
330
8E
100
AcDbEntity
  8
_U+30EC_U+30A4_U+30E4_U+30FC 1
 62
   179
420
  2234388
370
    25
  0
POLYLINE
  5
92
330
1F
100
AcDbEntity
  8
_U+30EC_U+30A4_U+30E4_U+30FC 1
 62
   179
420
  2234388
370
    25
100
AcDb2dPolyline
 66
     1
 10
0.0
 20
0.0
 30
0.0
  0
VERTEX
  5
93
330
92
100
AcDbEntity
  8
_U+30EC_U+30A4_U+30E4_U+30FC 1
 62
   179
420
  2234388
370
    25
100
AcDbVertex
100
AcDb2dVertex
 10
76.88971387171331
 20
-133.9280969109623
 30
0.0
  0
VERTEX
  5
94
330
92
100
AcDbEntity
  8
_U+30EC_U+30A4_U+30E4_U+30FC 1
 62
   179
420
  2234388
370
    25
100
AcDbVertex
100
AcDb2dVertex
 10
79.8897027578053
 20
-133.9280969109623
 30
0.0
  0
SEQEND
  5
95
330
92
100
AcDbEntity
  8
_U+30EC_U+30A4_U+30E4_U+30FC 1
 62
   179
420
  2234388
370
    25
  0
POLYLINE
  5
96
330
1F
100
AcDbEntity
  8
_U+30EC_U+30A4_U+30E4_U+30FC 1
 62
   179
420
  2234388
370
    25
100
AcDb2dPolyline
 66
     1
 10
0.0
 20
0.0
 30
0.0
  0
VERTEX
  5
97
330
96
100
AcDbEntity
  8
_U+30EC_U+30A4_U+30E4_U+30FC 1
 62
   179
420
  2234388
370
    25
100
AcDbVertex
100
AcDb2dVertex
 10
52.89031281732237
 20
-125.4276694130874
 30
0.0
  0
VERTEX
  5
98
330
96
100
AcDbEntity
  8
_U+30EC_U+30A4_U+30E4_U+30FC 1
 62
   179
420
  2234388
370
    25
100
AcDbVertex
100
AcDb2dVertex
 10
52.89031281732237
 20
-125.9278730240736
 30
0.0
  0
SEQEND
  5
99
330
96
100
AcDbEntity
  8
_U+30EC_U+30A4_U+30E4_U+30FC 1
 62
   179
420
  2234388
370
    25
  0
POLYLINE
  5
9A
330
1F
100
AcDbEntity
  8
_U+30EC_U+30A4_U+30E4_U+30FC 1
 62
   179
420
  2234388
370
    25
100
AcDb2dPolyline
 66
     1
 10
0.0
 20
0.0
 30
0.0
  0
VERTEX
  5
9B
330
9A
100
AcDbEntity
  8
_U+30EC_U+30A4_U+30E4_U+30FC 1
 62
   179
420
  2234388
370
    25
100
AcDbVertex
100
AcDb2dVertex
 10
77.01509109073689
 20
-125.9278730240736
 30
0.0
  0
VERTEX
  5
9C
330
9A
100
AcDbEntity
  8
_U+30EC_U+30A4_U+30E4_U+30FC 1
 62
   179
420
  2234388
370
    25
100
AcDbVertex
100
AcDb2dVertex
 10
76.88971387171331
 20
-133.9280969109623
 30
0.0
  0
SEQEND
  5
9D
330
9A
100
AcDbEntity
  8
_U+30EC_U+30A4_U+30E4_U+30FC 1
 62
   179
420
  2234388
370
    25
  0
POLYLINE
  5
9E
330
1F
100
AcDbEntity
  8
_U+30EC_U+30A4_U+30E4_U+30FC 1
 62
   179
420
  2234388
370
    25
100
AcDb2dPolyline
 66
     1
 10
0.0
 20
0.0
 30
0.0
  0
VERTEX
  5
9F
330
9E
100
AcDbEntity
  8
_U+30EC_U+30A4_U+30E4_U+30FC 1
 62
   179
420
  2234388
370
    25
100
AcDbVertex
100
AcDb2dVertex
 10
77.89015831386085
 20
-124.9281360798792
 30
0.0
  0
VERTEX
  5
A0
330
9E
100
AcDbEntity
  8
_U+30EC_U+30A4_U+30E4_U+30FC 1
 62
   179
420
  2234388
370
    25
100
AcDbVertex
100
AcDb2dVertex
 10
77.76474384938943
 20
-132.9276191334348
 30
0.0
  0
SEQEND
  5
A1
330
9E
100
AcDbEntity
  8
_U+30EC_U+30A4_U+30E4_U+30FC 1
 62
   179
420
  2234388
370
    25
  0
POLYLINE
  5
A2
330
1F
100
AcDbEntity
  8
_U+30EC_U+30A4_U+30E4_U+30FC 1
 62
   179
420
  2234388
370
    25
100
AcDb2dPolyline
 66
     1
 10
0.0
 20
0.0
 30
0.0
  0
VERTEX
  5
A3
330
A2
100
AcDbEntity
  8
_U+30EC_U+30A4_U+30E4_U+30FC 1
 62
   179
420
  2234388
370
    25
100
AcDbVertex
100
AcDb2dVertex
 10
77.76474384938943
 20
-132.9276191334348
 30
0.0
  0
VERTEX
  5
A4
330
A2
100
AcDbEntity
  8
_U+30EC_U+30A4_U+30E4_U+30FC 1
 62
   179
420
  2234388
370
    25
100
AcDbVertex
100
AcDb2dVertex
 10
79.0146354841687
 20
-132.9276191334348
 30
0.0
  0
SEQEND
  5
A5
330
A2
100
AcDbEntity
  8
_U+30EC_U+30A4_U+30E4_U+30FC 1
 62
   179
420
  2234388
370
    25
  0
POLYLINE
  5
A6
330
1F
100
AcDbEntity
  8
_U+30EC_U+30A4_U+30E4_U+30FC 1
 62
   179
420
  2234388
370
    25
100
AcDb2dPolyline
 66
     1
 10
0.0
 20
0.0
 30
0.0
  0
VERTEX
  5
A7
330
A6
100
AcDbEntity
  8
_U+30EC_U+30A4_U+30E4_U+30FC 1
 62
   179
420
  2234388
370
    25
100
AcDbVertex
100
AcDb2dVertex
 10
52.89031281732237
 20
-125.4276694130874
 30
0.0
  0
VERTEX
  5
A8
330
A6
100
AcDbEntity
  8
_U+30EC_U+30A4_U+30E4_U+30FC 1
 62
   179
420
  2234388
370
    25
100
AcDbVertex
100
AcDb2dVertex
 10
53.49356280193219
 20
-125.815583857435
 30
0.0
  0
SEQEND
  5
A9
330
A6
100
AcDbEntity
  8
_U+30EC_U+30A4_U+30E4_U+30FC 1
 62
   179
420
  2234388
370
    25
  0
POLYLINE
  5
AA
330
1F
100
AcDbEntity
  8
_U+30EC_U+30A4_U+30E4_U+30FC 1
 62
   179
420
  2234388
370
    25
100
AcDb2dPolyline
 66
     1
 10
0.0
 20
0.0
 30
0.0
  0
VERTEX
  5
AB
330
AA
100
AcDbEntity
  8
_U+30EC_U+30A4_U+30E4_U+30FC 1
 62
   179
420
  2234388
370
    25
100
AcDbVertex
100
AcDb2dVertex
 10
53.49356280193219
 20
-125.815583857435
 30
0.0
  0
VERTEX
  5
AC
330
AA
100
AcDbEntity
  8
_U+30EC_U+30A4_U+30E4_U+30FC 1
 62
   179
420
  2234388
370
    25
100
AcDbVertex
100
AcDb2dVertex
 10
54.08058500917822
 20
-125.4042449686489
 30
0.0
  0
SEQEND
  5
AD
330
AA
100
AcDbEntity
  8
_U+30EC_U+30A4_U+30E4_U+30FC 1
 62
   179
420
  2234388
370
    25
  0
POLYLINE
  5
AE
330
1F
100
AcDbEntity
  8
_U+30EC_U+30A4_U+30E4_U+30FC 1
 62
   179
420
  2234388
370
    25
100
AcDb2dPolyline
 66
     1
 10
0.0
 20
0.0
 30
0.0
  0
VERTEX
  5
AF
330
AE
100
AcDbEntity
  8
_U+30EC_U+30A4_U+30E4_U+30FC 1
 62
   179
420
  2234388
370
    25
100
AcDbVertex
100
AcDb2dVertex
 10
54.68418777155681
 20
-125.7921594129966
 30
0.0
  0
VERTEX
  5
B0
330
AE
100
AcDbEntity
  8
_U+30EC_U+30A4_U+30E4_U+30FC 1
 62
   179
420
  2234388
370
    25
100
AcDbVertex
100
AcDb2dVertex
 10
55.27120997880284
 20
-125.3801149686549
 30
0.0
  0
SEQEND
  5
B1
330
AE
100
AcDbEntity
  8
_U+30EC_U+30A4_U+30E4_U+30FC 1
 62
   179
420
  2234388
370
    25
  0
POLYLINE
  5
B2
330
1F
100
AcDbEntity
  8
_U+30EC_U+30A4_U+30E4_U+30FC 1
 62
   179
420
  2234388
370
    25
100
AcDb2dPolyline
 66
     1
 10
0.0
 20
0.0
 30
0.0
  0
VERTEX
  5
B3
330
B2
100
AcDbEntity
  8
_U+30EC_U+30A4_U+30E4_U+30FC 1
 62
   179
420
  2234388
370
    25
100
AcDbVertex
100
AcDb2dVertex
 10
54.08058500917822
 20
-125.4042449686489
 30
0.0
  0
VERTEX
  5
B4
330
B2
100
AcDbEntity
  8
_U+30EC_U+30A4_U+30E4_U+30FC 1
 62
   179
420
  2234388
370
    25
100
AcDbVertex
100
AcDb2dVertex
 10
54.68418777155681
 20
-125.7921594129966
 30
0.0
  0
SEQEND
  5
B5
330
B2
100
AcDbEntity
  8
_U+30EC_U+30A4_U+30E4_U+30FC 1
 62
   179
420
  2234388
370
    25
  0
POLYLINE
  5
B6
330
1F
100
AcDbEntity
  8
_U+30EC_U+30A4_U+30E4_U+30FC 1
 62
   179
420
  2234388
370
    25
100
AcDb2dPolyline
 66
     1
 10
0.0
 20
0.0
 30
0.0
  0
VERTEX
  5
B7
330
B6
100
AcDbEntity
  8
_U+30EC_U+30A4_U+30E4_U+30FC 1
 62
   179
420
  2234388
370
    25
100
AcDbVertex
100
AcDb2dVertex
 10
55.87445996341265
 20
-125.7680294130026
 30
0.0
  0
VERTEX
  5
B8
330
B6
100
AcDbEntity
  8
_U+30EC_U+30A4_U+30E4_U+30FC 1
 62
   179
420
  2234388
370
    25
100
AcDbVertex
100
AcDb2dVertex
 10
56.46183494842747
 20
-125.3566905242164
 30
0.0
  0
SEQEND
  5
B9
330
B6
100
AcDbEntity
  8
_U+30EC_U+30A4_U+30E4_U+30FC 1
 62
   179
420
  2234388
370
    25
  0
POLYLINE
  5
BA
330
1F
100
AcDbEntity
  8
_U+30EC_U+30A4_U+30E4_U+30FC 1
 62
   179
420
  2234388
370
    25
100
AcDb2dPolyline
 66
     1
 10
0.0
 20
0.0
 30
0.0
  0
VERTEX
  5
BB
330
BA
100
AcDbEntity
  8
_U+30EC_U+30A4_U+30E4_U+30FC 1
 62
   179
420
  2234388
370
    25
100
AcDbVertex
100
AcDb2dVertex
 10
55.27120997880284
 20
-125.3801149686549
 30
0.0
  0
VERTEX
  5
BC
330
BA
100
AcDbEntity
  8
_U+30EC_U+30A4_U+30E4_U+30FC 1
 62
   179
420
  2234388
370
    25
100
AcDbVertex
100
AcDb2dVertex
 10
55.87445996341265
 20
-125.7680294130026
 30
0.0
  0
SEQEND
  5
BD
330
BA
100
AcDbEntity
  8
_U+30EC_U+30A4_U+30E4_U+30FC 1
 62
   179
420
  2234388
370
    25
  0
POLYLINE
  5
BE
330
1F
100
AcDbEntity
  8
_U+30EC_U+30A4_U+30E4_U+30FC 1
 62
   179
420
  2234388
370
    25
100
AcDb2dPolyline
 66
     1
 10
0.0
 20
0.0
 30
0.0
  0
VERTEX
  5
BF
330
BE
100
AcDbEntity
  8
_U+30EC_U+30A4_U+30E4_U+30FC 1
 62
   179
420
  2234388
370
    25
100
AcDbVertex
100
AcDb2dVertex
 10
57.06473215526851
 20
-125.7446049685637
 30
0.0
  0
VERTEX
  5
C0
330
BE
100
AcDbEntity
  8
_U+30EC_U+30A4_U+30E4_U+30FC 1
 62
   179
420
  2234388
370
    25
100
AcDbVertex
100
AcDb2dVertex
 10
57.65210714028332
 20
-125.3325605242224
 30
0.0
  0
SEQEND
  5
C1
330
BE
100
AcDbEntity
  8
_U+30EC_U+30A4_U+30E4_U+30FC 1
 62
   179
420
  2234388
370
    25
  0
POLYLINE
  5
C2
330
1F
100
AcDbEntity
  8
_U+30EC_U+30A4_U+30E4_U+30FC 1
 62
   179
420
  2234388
370
    25
100
AcDb2dPolyline
 66
     1
 10
0.0
 20
0.0
 30
0.0
  0
VERTEX
  5
C3
330
C2
100
AcDbEntity
  8
_U+30EC_U+30A4_U+30E4_U+30FC 1
 62
   179
420
  2234388
370
    25
100
AcDbVertex
100
AcDb2dVertex
 10
56.46183494842747
 20
-125.3566905242164
 30
0.0
  0
VERTEX
  5
C4
330
C2
100
AcDbEntity
  8
_U+30EC_U+30A4_U+30E4_U+30FC 1
 62
   179
420
  2234388
370
    25
100
AcDbVertex
100
AcDb2dVertex
 10
57.06473215526851
 20
-125.7446049685637
 30
0.0
  0
SEQEND
  5
C5
330
C2
100
AcDbEntity
  8
_U+30EC_U+30A4_U+30E4_U+30FC 1
 62
   179
420
  2234388
370
    25
  0
POLYLINE
  5
C6
330
1F
100
AcDbEntity
  8
_U+30EC_U+30A4_U+30E4_U+30FC 1
 62
   179
420
  2234388
370
    25
100
AcDb2dPolyline
 66
     1
 10
0.0
 20
0.0
 30
0.0
  0
VERTEX
  5
C7
330
C6
100
AcDbEntity
  8
_U+30EC_U+30A4_U+30E4_U+30FC 1
 62
   179
420
  2234388
370
    25
100
AcDbVertex
100
AcDb2dVertex
 10
57.65210714028332
 20
-125.3325605242224
 30
0.0
  0
VERTEX
  5
C8
330
C6
100
AcDbEntity
  8
_U+30EC_U+30A4_U+30E4_U+30FC 1
 62
   179
420
  2234388
370
    25
100
AcDbVertex
100
AcDb2dVertex
 10
58.25535712489313
 20
-125.7204749685697
 30
0.0
  0
SEQEND
  5
C9
330
C6
100
AcDbEntity
  8
_U+30EC_U+30A4_U+30E4_U+30FC 1
 62
   179
420
  2234388
370
    25
  0
POLYLINE
  5
CA
330
1F
100
AcDbEntity
  8
_U+30EC_U+30A4_U+30E4_U+30FC 1
 62
   179
420
  2234388
370
    25
100
AcDb2dPolyline
 66
     1
 10
0.0
 20
0.0
 30
0.0
  0
VERTEX
  5
CB
330
CA
100
AcDbEntity
  8
_U+30EC_U+30A4_U+30E4_U+30FC 1
 62
   179
420
  2234388
370
    25
100
AcDbVertex
100
AcDb2dVertex
 10
58.25535712489313
 20
-125.7204749685697
 30
0.0
  0
VERTEX
  5
CC
330
CA
100
AcDbEntity
  8
_U+30EC_U+30A4_U+30E4_U+30FC 1
 62
   179
420
  2234388
370
    25
100
AcDbVertex
100
AcDb2dVertex
 10
58.84241460991605
 20
-125.3084658020063
 30
0.0
  0
SEQEND
  5
CD
330
CA
100
AcDbEntity
  8
_U+30EC_U+30A4_U+30E4_U+30FC 1
 62
   179
420
  2234388
370
    25
  0
POLYLINE
  5
CE
330
1F
100
AcDbEntity
  8
_U+30EC_U+30A4_U+30E4_U+30FC 1
 62
   179
420
  2234388
370
    25
100
AcDb2dPolyline
 66
     1
 10
0.0
 20
0.0
 30
0.0
  0
VERTEX
  5
CF
330
CE
100
AcDbEntity
  8
_U+30EC_U+30A4_U+30E4_U+30FC 1
 62
   179
420
  2234388
370
    25
100
AcDbVertex
100
AcDb2dVertex
 10
59.44598209451776
 20
-125.6970505241313
 30
0.0
  0
VERTEX
  5
D0
330
CE
100
AcDbEntity
  8
_U+30EC_U+30A4_U+30E4_U+30FC 1
 62
   179
420
  2234388
370
    25
100
AcDbVertex
100
AcDb2dVertex
 10
60.03303957954068
 20
-125.2850413575678
 30
0.0
  0
SEQEND
  5
D1
330
CE
100
AcDbEntity
  8
_U+30EC_U+30A4_U+30E4_U+30FC 1
 62
   179
420
  2234388
370
    25
  0
POLYLINE
  5
D2
330
1F
100
AcDbEntity
  8
_U+30EC_U+30A4_U+30E4_U+30FC 1
 62
   179
420
  2234388
370
    25
100
AcDb2dPolyline
 66
     1
 10
0.0
 20
0.0
 30
0.0
  0
VERTEX
  5
D3
330
D2
100
AcDbEntity
  8
_U+30EC_U+30A4_U+30E4_U+30FC 1
 62
   179
420
  2234388
370
    25
100
AcDbVertex
100
AcDb2dVertex
 10
58.84241460991605
 20
-125.3084658020063
 30
0.0
  0
VERTEX
  5
D4
330
D2
100
AcDbEntity
  8
_U+30EC_U+30A4_U+30E4_U+30FC 1
 62
   179
420
  2234388
370
    25
100
AcDbVertex
100
AcDb2dVertex
 10
59.44598209451776
 20
-125.6970505241313
 30
0.0
  0
SEQEND
  5
D5
330
D2
100
AcDbEntity
  8
_U+30EC_U+30A4_U+30E4_U+30FC 1
 62
   179
420
  2234388
370
    25
  0
POLYLINE
  5
D6
330
1F
100
AcDbEntity
  8
_U+30EC_U+30A4_U+30E4_U+30FC 1
 62
   179
420
  2234388
370
    25
100
AcDb2dPolyline
 66
     1
 10
0.0
 20
0.0
 30
0.0
  0
VERTEX
  5
D7
330
D6
100
AcDbEntity
  8
_U+30EC_U+30A4_U+30E4_U+30FC 1
 62
   179
420
  2234388
370
    25
100
AcDbVertex
100
AcDb2dVertex
 10
60.03303957954068
 20
-125.2850413575678
 30
0.0
  0
VERTEX
  5
D8
330
D6
100
AcDbEntity
  8
_U+30EC_U+30A4_U+30E4_U+30FC 1
 62
   179
420
  2234388
370
    25
100
AcDbVertex
100
AcDb2dVertex
 10
60.63625428637361
 20
-125.6729558019151
 30
0.0
  0
SEQEND
  5
D9
330
D6
100
AcDbEntity
  8
_U+30EC_U+30A4_U+30E4_U+30FC 1
 62
   179
420
  2234388
370
    25
  0
POLYLINE
  5
DA
330
1F
100
AcDbEntity
  8
_U+30EC_U+30A4_U+30E4_U+30FC 1
 62
   179
420
  2234388
370
    25
100
AcDb2dPolyline
 66
     1
 10
0.0
 20
0.0
 30
0.0
  0
VERTEX
  5
DB
330
DA
100
AcDbEntity
  8
_U+30EC_U+30A4_U+30E4_U+30FC 1
 62
   179
420
  2234388
370
    25
100
AcDbVertex
100
AcDb2dVertex
 10
60.63625428637361
 20
-125.6729558019151
 30
0.0
  0
VERTEX
  5
DC
330
DA
100
AcDbEntity
  8
_U+30EC_U+30A4_U+30E4_U+30FC 1
 62
   179
420
  2234388
370
    25
100
AcDbVertex
100
AcDb2dVertex
 10
61.2236645491653
 20
-125.2609113575738
 30
0.0
  0
SEQEND
  5
DD
330
DA
100
AcDbEntity
  8
_U+30EC_U+30A4_U+30E4_U+30FC 1
 62
   179
420
  2234388
370
    25
  0
POLYLINE
  5
DE
330
1F
100
AcDbEntity
  8
_U+30EC_U+30A4_U+30E4_U+30FC 1
 62
   179
420
  2234388
370
    25
100
AcDb2dPolyline
 66
     1
 10
0.0
 20
0.0
 30
0.0
  0
VERTEX
  5
DF
330
DE
100
AcDbEntity
  8
_U+30EC_U+30A4_U+30E4_U+30FC 1
 62
   179
420
  2234388
370
    25
100
AcDbVertex
100
AcDb2dVertex
 10
61.82687925599824
 20
-125.6488258019211
 30
0.0
  0
VERTEX
  5
E0
330
DE
100
AcDbEntity
  8
_U+30EC_U+30A4_U+30E4_U+30FC 1
 62
   179
420
  2234388
370
    25
100
AcDbVertex
100
AcDb2dVertex
 10
62.41428951878993
 20
-125.237486913135
 30
0.0
  0
SEQEND
  5
E1
330
DE
100
AcDbEntity
  8
_U+30EC_U+30A4_U+30E4_U+30FC 1
 62
   179
420
  2234388
370
    25
  0
POLYLINE
  5
E2
330
1F
100
AcDbEntity
  8
_U+30EC_U+30A4_U+30E4_U+30FC 1
 62
   179
420
  2234388
370
    25
100
AcDb2dPolyline
 66
     1
 10
0.0
 20
0.0
 30
0.0
  0
VERTEX
  5
E3
330
E2
100
AcDbEntity
  8
_U+30EC_U+30A4_U+30E4_U+30FC 1
 62
   179
420
  2234388
370
    25
100
AcDbVertex
100
AcDb2dVertex
 10
61.2236645491653
 20
-125.2609113575738
 30
0.0
  0
VERTEX
  5
E4
330
E2
100
AcDbEntity
  8
_U+30EC_U+30A4_U+30E4_U+30FC 1
 62
   179
420
  2234388
370
    25
100
AcDbVertex
100
AcDb2dVertex
 10
61.82687925599824
 20
-125.6488258019211
 30
0.0
  0
SEQEND
  5
E5
330
E2
100
AcDbEntity
  8
_U+30EC_U+30A4_U+30E4_U+30FC 1
 62
   179
420
  2234388
370
    25
  0
POLYLINE
  5
E6
330
1F
100
AcDbEntity
  8
_U+30EC_U+30A4_U+30E4_U+30FC 1
 62
   179
420
  2234388
370
    25
100
AcDb2dPolyline
 66
     1
 10
0.0
 20
0.0
 30
0.0
  0
VERTEX
  5
E7
330
E6
100
AcDbEntity
  8
_U+30EC_U+30A4_U+30E4_U+30FC 1
 62
   179
420
  2234388
370
    25
100
AcDbVertex
100
AcDb2dVertex
 10
62.41428951878993
 20
-125.237486913135
 30
0.0
  0
VERTEX
  5
E8
330
E6
100
AcDbEntity
  8
_U+30EC_U+30A4_U+30E4_U+30FC 1
 62
   179
420
  2234388
370
    25
100
AcDbVertex
100
AcDb2dVertex
 10
63.01701033674657
 20
-125.6254013574826
 30
0.0
  0
SEQEND
  5
E9
330
E6
100
AcDbEntity
  8
_U+30EC_U+30A4_U+30E4_U+30FC 1
 62
   179
420
  2234388
370
    25
  0
POLYLINE
  5
EA
330
1F
100
AcDbEntity
  8
_U+30EC_U+30A4_U+30E4_U+30FC 1
 62
   179
420
  2234388
370
    25
100
AcDb2dPolyline
 66
     1
 10
0.0
 20
0.0
 30
0.0
  0
VERTEX
  5
EB
330
EA
100
AcDbEntity
  8
_U+30EC_U+30A4_U+30E4_U+30FC 1
 62
   179
420
  2234388
370
    25
100
AcDbVertex
100
AcDb2dVertex
 10
63.01701033674657
 20
-125.6254013574826
 30
0.0
  0
VERTEX
  5
EC
330
EA
100
AcDbEntity
  8
_U+30EC_U+30A4_U+30E4_U+30FC 1
 62
   179
420
  2234388
370
    25
100
AcDbVertex
100
AcDb2dVertex
 10
63.60438532176138
 20
-125.213356913141
 30
0.0
  0
SEQEND
  5
ED
330
EA
100
AcDbEntity
  8
_U+30EC_U+30A4_U+30E4_U+30FC 1
 62
   179
420
  2234388
370
    25
  0
POLYLINE
  5
EE
330
1F
100
AcDbEntity
  8
_U+30EC_U+30A4_U+30E4_U+30FC 1
 62
   179
420
  2234388
370
    25
100
AcDb2dPolyline
 66
     1
 10
0.0
 20
0.0
 30
0.0
  0
VERTEX
  5
EF
330
EE
100
AcDbEntity
  8
_U+30EC_U+30A4_U+30E4_U+30FC 1
 62
   179
420
  2234388
370
    25
100
AcDbVertex
100
AcDb2dVertex
 10
64.2076353063712
 20
-125.6013066352664
 30
0.0
  0
VERTEX
  5
F0
330
EE
100
AcDbEntity
  8
_U+30EC_U+30A4_U+30E4_U+30FC 1
 62
   179
420
  2234388
370
    25
100
AcDbVertex
100
AcDb2dVertex
 10
64.79465751361724
 20
-125.1899324687025
 30
0.0
  0
SEQEND
  5
F1
330
EE
100
AcDbEntity
  8
_U+30EC_U+30A4_U+30E4_U+30FC 1
 62
   179
420
  2234388
370
    25
  0
POLYLINE
  5
F2
330
1F
100
AcDbEntity
  8
_U+30EC_U+30A4_U+30E4_U+30FC 1
 62
   179
420
  2234388
370
    25
100
AcDb2dPolyline
 66
     1
 10
0.0
 20
0.0
 30
0.0
  0
VERTEX
  5
F3
330
F2
100
AcDbEntity
  8
_U+30EC_U+30A4_U+30E4_U+30FC 1
 62
   179
420
  2234388
370
    25
100
AcDbVertex
100
AcDb2dVertex
 10
63.60438532176138
 20
-125.213356913141
 30
0.0
  0
VERTEX
  5
F4
330
F2
100
AcDbEntity
  8
_U+30EC_U+30A4_U+30E4_U+30FC 1
 62
   179
420
  2234388
370
    25
100
AcDbVertex
100
AcDb2dVertex
 10
64.2076353063712
 20
-125.6013066352664
 30
0.0
  0
SEQEND
  5
F5
330
F2
100
AcDbEntity
  8
_U+30EC_U+30A4_U+30E4_U+30FC 1
 62
   179
420
  2234388
370
    25
  0
POLYLINE
  5
F6
330
1F
100
AcDbEntity
  8
_U+30EC_U+30A4_U+30E4_U+30FC 1
 62
   179
420
  2234388
370
    25
100
AcDb2dPolyline
 66
     1
 10
0.0
 20
0.0
 30
0.0
  0
VERTEX
  5
F7
330
F6
100
AcDbEntity
  8
_U+30EC_U+30A4_U+30E4_U+30FC 1
 62
   179
420
  2234388
370
    25
100
AcDbVertex
100
AcDb2dVertex
 10
64.79465751361724
 20
-125.1899324687025
 30
0.0
  0
VERTEX
  5
F8
330
F6
100
AcDbEntity
  8
_U+30EC_U+30A4_U+30E4_U+30FC 1
 62
   179
420
  2234388
370
    25
100
AcDbVertex
100
AcDb2dVertex
 10
65.39826027599582
 20
-125.5778821908276
 30
0.0
  0
SEQEND
  5
F9
330
F6
100
AcDbEntity
  8
_U+30EC_U+30A4_U+30E4_U+30FC 1
 62
   179
420
  2234388
370
    25
  0
POLYLINE
  5
FA
330
1F
100
AcDbEntity
  8
_U+30EC_U+30A4_U+30E4_U+30FC 1
 62
   179
420
  2234388
370
    25
100
AcDb2dPolyline
 66
     1
 10
0.0
 20
0.0
 30
0.0
  0
VERTEX
  5
FB
330
FA
100
AcDbEntity
  8
_U+30EC_U+30A4_U+30E4_U+30FC 1
 62
   179
420
  2234388
370
    25
100
AcDbVertex
100
AcDb2dVertex
 10
65.39826027599582
 20
-125.5778821908276
 30
0.0
  0
VERTEX
  5
FC
330
FA
100
AcDbEntity
  8
_U+30EC_U+30A4_U+30E4_U+30FC 1
 62
   179
420
  2234388
370
    25
100
AcDbVertex
100
AcDb2dVertex
 10
65.98528248324186
 20
-125.1658377464863
 30
0.0
  0
SEQEND
  5
FD
330
FA
100
AcDbEntity
  8
_U+30EC_U+30A4_U+30E4_U+30FC 1
 62
   179
420
  2234388
370
    25
  0
POLYLINE
  5
FE
330
1F
100
AcDbEntity
  8
_U+30EC_U+30A4_U+30E4_U+30FC 1
 62
   179
420
  2234388
370
    25
100
AcDb2dPolyline
 66
     1
 10
0.0
 20
0.0
 30
0.0
  0
VERTEX
  5
FF
330
FE
100
AcDbEntity
  8
_U+30EC_U+30A4_U+30E4_U+30FC 1
 62
   179
420
  2234388
370
    25
100
AcDbVertex
100
AcDb2dVertex
 10
66.5881796900829
 20
-125.5537521908339
 30
0.0
  0
VERTEX
  5
100
330
FE
100
AcDbEntity
  8
_U+30EC_U+30A4_U+30E4_U+30FC 1
 62
   179
420
  2234388
370
    25
100
AcDbVertex
100
AcDb2dVertex
 10
67.17590745286648
 20
-125.1424133020478
 30
0.0
  0
SEQEND
  5
101
330
FE
100
AcDbEntity
  8
_U+30EC_U+30A4_U+30E4_U+30FC 1
 62
   179
420
  2234388
370
    25
  0
POLYLINE
  5
102
330
1F
100
AcDbEntity
  8
_U+30EC_U+30A4_U+30E4_U+30FC 1
 62
   179
420
  2234388
370
    25
100
AcDb2dPolyline
 66
     1
 10
0.0
 20
0.0
 30
0.0
  0
VERTEX
  5
103
330
102
100
AcDbEntity
  8
_U+30EC_U+30A4_U+30E4_U+30FC 1
 62
   179
420
  2234388
370
    25
100
AcDbVertex
100
AcDb2dVertex
 10
65.98528248324186
 20
-125.1658377464863
 30
0.0
  0
VERTEX
  5
104
330
102
100
AcDbEntity
  8
_U+30EC_U+30A4_U+30E4_U+30FC 1
 62
   179
420
  2234388
370
    25
100
AcDbVertex
100
AcDb2dVertex
 10
66.5881796900829
 20
-125.5537521908339
 30
0.0
  0
SEQEND
  5
105
330
102
100
AcDbEntity
  8
_U+30EC_U+30A4_U+30E4_U+30FC 1
 62
   179
420
  2234388
370
    25
  0
POLYLINE
  5
106
330
1F
100
AcDbEntity
  8
_U+30EC_U+30A4_U+30E4_U+30FC 1
 62
   179
420
  2234388
370
    25
100
AcDb2dPolyline
 66
     1
 10
0.0
 20
0.0
 30
0.0
  0
VERTEX
  5
107
330
106
100
AcDbEntity
  8
_U+30EC_U+30A4_U+30E4_U+30FC 1
 62
   179
420
  2234388
370
    25
100
AcDbVertex
100
AcDb2dVertex
 10
67.17590745286648
 20
-125.1424133020478
 30
0.0
  0
VERTEX
  5
108
330
106
100
AcDbEntity
  8
_U+30EC_U+30A4_U+30E4_U+30FC 1
 62
   179
420
  2234388
370
    25
100
AcDbVertex
100
AcDb2dVertex
 10
67.77880465970752
 20
-125.5303277463951
 30
0.0
  0
SEQEND
  5
109
330
106
100
AcDbEntity
  8
_U+30EC_U+30A4_U+30E4_U+30FC 1
 62
   179
420
  2234388
370
    25
  0
POLYLINE
  5
10A
330
1F
100
AcDbEntity
  8
_U+30EC_U+30A4_U+30E4_U+30FC 1
 62
   179
420
  2234388
370
    25
100
AcDb2dPolyline
 66
     1
 10
0.0
 20
0.0
 30
0.0
  0
VERTEX
  5
10B
330
10A
100
AcDbEntity
  8
_U+30EC_U+30A4_U+30E4_U+30FC 1
 62
   179
420
  2234388
370
    25
100
AcDbVertex
100
AcDb2dVertex
 10
67.77880465970752
 20
-125.5303277463951
 30
0.0
  0
VERTEX
  5
10C
330
10A
100
AcDbEntity
  8
_U+30EC_U+30A4_U+30E4_U+30FC 1
 62
   179
420
  2234388
370
    25
100
AcDbVertex
100
AcDb2dVertex
 10
68.3658638717973
 20
-125.1182833020538
 30
0.0
  0
SEQEND
  5
10D
330
10A
100
AcDbEntity
  8
_U+30EC_U+30A4_U+30E4_U+30FC 1
 62
   179
420
  2234388
370
    25
  0
POLYLINE
  5
10E
330
1F
100
AcDbEntity
  8
_U+30EC_U+30A4_U+30E4_U+30FC 1
 62
   179
420
  2234388
370
    25
100
AcDb2dPolyline
 66
     1
 10
0.0
 20
0.0
 30
0.0
  0
VERTEX
  5
10F
330
10E
100
AcDbEntity
  8
_U+30EC_U+30A4_U+30E4_U+30FC 1
 62
   179
420
  2234388
370
    25
100
AcDbVertex
100
AcDb2dVertex
 10
68.96942962933215
 20
-125.5061977464011
 30
0.0
  0
VERTEX
  5
110
330
10E
100
AcDbEntity
  8
_U+30EC_U+30A4_U+30E4_U+30FC 1
 62
   179
420
  2234388
370
    25
100
AcDbVertex
100
AcDb2dVertex
 10
69.55648887149965
 20
-125.0941885798377
 30
0.0
  0
SEQEND
  5
111
330
10E
100
AcDbEntity
  8
_U+30EC_U+30A4_U+30E4_U+30FC 1
 62
   179
420
  2234388
370
    25
  0
POLYLINE
  5
112
330
1F
100
AcDbEntity
  8
_U+30EC_U+30A4_U+30E4_U+30FC 1
 62
   179
420
  2234388
370
    25
100
AcDb2dPolyline
 66
     1
 10
0.0
 20
0.0
 30
0.0
  0
VERTEX
  5
113
330
112
100
AcDbEntity
  8
_U+30EC_U+30A4_U+30E4_U+30FC 1
 62
   179
420
  2234388
370
    25
100
AcDbVertex
100
AcDb2dVertex
 10
68.3658638717973
 20
-125.1182833020538
 30
0.0
  0
VERTEX
  5
114
330
112
100
AcDbEntity
  8
_U+30EC_U+30A4_U+30E4_U+30FC 1
 62
   179
420
  2234388
370
    25
100
AcDbVertex
100
AcDb2dVertex
 10
68.96942962933215
 20
-125.5061977464011
 30
0.0
  0
SEQEND
  5
115
330
112
100
AcDbEntity
  8
_U+30EC_U+30A4_U+30E4_U+30FC 1
 62
   179
420
  2234388
370
    25
  0
POLYLINE
  5
116
330
1F
100
AcDbEntity
  8
_U+30EC_U+30A4_U+30E4_U+30FC 1
 62
   179
420
  2234388
370
    25
100
AcDb2dPolyline
 66
     1
 10
0.0
 20
0.0
 30
0.0
  0
VERTEX
  5
117
330
116
100
AcDbEntity
  8
_U+30EC_U+30A4_U+30E4_U+30FC 1
 62
   179
420
  2234388
370
    25
100
AcDbVertex
100
AcDb2dVertex
 10
69.55648887149965
 20
-125.0941885798377
 30
0.0
  0
VERTEX
  5
118
330
116
100
AcDbEntity
  8
_U+30EC_U+30A4_U+30E4_U+30FC 1
 62
   179
420
  2234388
370
    25
100
AcDbVertex
100
AcDb2dVertex
 10
70.16005459895678
 20
-125.4827733019627
 30
0.0
  0
SEQEND
  5
119
330
116
100
AcDbEntity
  8
_U+30EC_U+30A4_U+30E4_U+30FC 1
 62
   179
420
  2234388
370
    25
  0
POLYLINE
  5
11A
330
1F
100
AcDbEntity
  8
_U+30EC_U+30A4_U+30E4_U+30FC 1
 62
   179
420
  2234388
370
    25
100
AcDb2dPolyline
 66
     1
 10
0.0
 20
0.0
 30
0.0
  0
VERTEX
  5
11B
330
11A
100
AcDbEntity
  8
_U+30EC_U+30A4_U+30E4_U+30FC 1
 62
   179
420
  2234388
370
    25
100
AcDbVertex
100
AcDb2dVertex
 10
70.16005459895678
 20
-125.4827733019627
 30
0.0
  0
VERTEX
  5
11C
330
11A
100
AcDbEntity
  8
_U+30EC_U+30A4_U+30E4_U+30FC 1
 62
   179
420
  2234388
370
    25
100
AcDbVertex
100
AcDb2dVertex
 10
70.74711387120199
 20
-125.0707641353989
 30
0.0
  0
SEQEND
  5
11D
330
11A
100
AcDbEntity
  8
_U+30EC_U+30A4_U+30E4_U+30FC 1
 62
   179
420
  2234388
370
    25
  0
POLYLINE
  5
11E
330
1F
100
AcDbEntity
  8
_U+30EC_U+30A4_U+30E4_U+30FC 1
 62
   179
420
  2234388
370
    25
100
AcDb2dPolyline
 66
     1
 10
0.0
 20
0.0
 30
0.0
  0
VERTEX
  5
11F
330
11E
100
AcDbEntity
  8
_U+30EC_U+30A4_U+30E4_U+30FC 1
 62
   179
420
  2234388
370
    25
100
AcDbVertex
100
AcDb2dVertex
 10
71.3506795685814
 20
-125.4586785797465
 30
0.0
  0
VERTEX
  5
120
330
11E
100
AcDbEntity
  8
_U+30EC_U+30A4_U+30E4_U+30FC 1
 62
   179
420
  2234388
370
    25
100
AcDbVertex
100
AcDb2dVertex
 10
71.93773887090434
 20
-125.0466341354052
 30
0.0
  0
SEQEND
  5
121
330
11E
100
AcDbEntity
  8
_U+30EC_U+30A4_U+30E4_U+30FC 1
 62
   179
420
  2234388
370
    25
  0
POLYLINE
  5
122
330
1F
100
AcDbEntity
  8
_U+30EC_U+30A4_U+30E4_U+30FC 1
 62
   179
420
  2234388
370
    25
100
AcDb2dPolyline
 66
     1
 10
0.0
 20
0.0
 30
0.0
  0
VERTEX
  5
123
330
122
100
AcDbEntity
  8
_U+30EC_U+30A4_U+30E4_U+30FC 1
 62
   179
420
  2234388
370
    25
100
AcDbVertex
100
AcDb2dVertex
 10
70.74711387120199
 20
-125.0707641353989
 30
0.0
  0
VERTEX
  5
124
330
122
100
AcDbEntity
  8
_U+30EC_U+30A4_U+30E4_U+30FC 1
 62
   179
420
  2234388
370
    25
100
AcDbVertex
100
AcDb2dVertex
 10
71.3506795685814
 20
-125.4586785797465
 30
0.0
  0
SEQEND
  5
125
330
122
100
AcDbEntity
  8
_U+30EC_U+30A4_U+30E4_U+30FC 1
 62
   179
420
  2234388
370
    25
  0
POLYLINE
  5
126
330
1F
100
AcDbEntity
  8
_U+30EC_U+30A4_U+30E4_U+30FC 1
 62
   179
420
  2234388
370
    25
100
AcDb2dPolyline
 66
     1
 10
0.0
 20
0.0
 30
0.0
  0
VERTEX
  5
127
330
126
100
AcDbEntity
  8
_U+30EC_U+30A4_U+30E4_U+30FC 1
 62
   179
420
  2234388
370
    25
100
AcDbVertex
100
AcDb2dVertex
 10
71.93773887090434
 20
-125.0466341354052
 30
0.0
  0
VERTEX
  5
128
330
126
100
AcDbEntity
  8
_U+30EC_U+30A4_U+30E4_U+30FC 1
 62
   179
420
  2234388
370
    25
100
AcDbVertex
100
AcDb2dVertex
 10
72.5406360929761
 20
-125.4345485797525
 30
0.0
  0
SEQEND
  5
129
330
126
100
AcDbEntity
  8
_U+30EC_U+30A4_U+30E4_U+30FC 1
 62
   179
420
  2234388
370
    25
  0
POLYLINE
  5
12A
330
1F
100
AcDbEntity
  8
_U+30EC_U+30A4_U+30E4_U+30FC 1
 62
   179
420
  2234388
370
    25
100
AcDb2dPolyline
 66
     1
 10
0.0
 20
0.0
 30
0.0
  0
VERTEX
  5
12B
330
12A
100
AcDbEntity
  8
_U+30EC_U+30A4_U+30E4_U+30FC 1
 62
   179
420
  2234388
370
    25
100
AcDbVertex
100
AcDb2dVertex
 10
72.5406360929761
 20
-125.4345485797525
 30
0.0
  0
VERTEX
  5
12C
330
12A
100
AcDbEntity
  8
_U+30EC_U+30A4_U+30E4_U+30FC 1
 62
   179
420
  2234388
370
    25
100
AcDbVertex
100
AcDb2dVertex
 10
73.12836387060668
 20
-125.0232096909664
 30
0.0
  0
SEQEND
  5
12D
330
12A
100
AcDbEntity
  8
_U+30EC_U+30A4_U+30E4_U+30FC 1
 62
   179
420
  2234388
370
    25
  0
POLYLINE
  5
12E
330
1F
100
AcDbEntity
  8
_U+30EC_U+30A4_U+30E4_U+30FC 1
 62
   179
420
  2234388
370
    25
100
AcDb2dPolyline
 66
     1
 10
0.0
 20
0.0
 30
0.0
  0
VERTEX
  5
12F
330
12E
100
AcDbEntity
  8
_U+30EC_U+30A4_U+30E4_U+30FC 1
 62
   179
420
  2234388
370
    25
100
AcDbVertex
100
AcDb2dVertex
 10
73.73126109267844
 20
-125.411124135314
 30
0.0
  0
VERTEX
  5
130
330
12E
100
AcDbEntity
  8
_U+30EC_U+30A4_U+30E4_U+30FC 1
 62
   179
420
  2234388
370
    25
100
AcDbVertex
100
AcDb2dVertex
 10
74.31828331475383
 20
-124.9990796909724
 30
0.0
  0
SEQEND
  5
131
330
12E
100
AcDbEntity
  8
_U+30EC_U+30A4_U+30E4_U+30FC 1
 62
   179
420
  2234388
370
    25
  0
POLYLINE
  5
132
330
1F
100
AcDbEntity
  8
_U+30EC_U+30A4_U+30E4_U+30FC 1
 62
   179
420
  2234388
370
    25
100
AcDb2dPolyline
 66
     1
 10
0.0
 20
0.0
 30
0.0
  0
VERTEX
  5
133
330
132
100
AcDbEntity
  8
_U+30EC_U+30A4_U+30E4_U+30FC 1
 62
   179
420
  2234388
370
    25
100
AcDbVertex
100
AcDb2dVertex
 10
73.12836387060668
 20
-125.0232096909664
 30
0.0
  0
VERTEX
  5
134
330
132
100
AcDbEntity
  8
_U+30EC_U+30A4_U+30E4_U+30FC 1
 62
   179
420
  2234388
370
    25
100
AcDbVertex
100
AcDb2dVertex
 10
73.73126109267844
 20
-125.411124135314
 30
0.0
  0
SEQEND
  5
135
330
132
100
AcDbEntity
  8
_U+30EC_U+30A4_U+30E4_U+30FC 1
 62
   179
420
  2234388
370
    25
  0
POLYLINE
  5
136
330
1F
100
AcDbEntity
  8
_U+30EC_U+30A4_U+30E4_U+30FC 1
 62
   179
420
  2234388
370
    25
100
AcDb2dPolyline
 66
     1
 10
0.0
 20
0.0
 30
0.0
  0
VERTEX
  5
137
330
136
100
AcDbEntity
  8
_U+30EC_U+30A4_U+30E4_U+30FC 1
 62
   179
420
  2234388
370
    25
100
AcDbVertex
100
AcDb2dVertex
 10
74.31828331475383
 20
-124.9990796909724
 30
0.0
  0
VERTEX
  5
138
330
136
100
AcDbEntity
  8
_U+30EC_U+30A4_U+30E4_U+30FC 1
 62
   179
420
  2234388
370
    25
100
AcDbVertex
100
AcDb2dVertex
 10
74.92188609238079
 20
-125.38699413532
 30
0.0
  0
SEQEND
  5
139
330
136
100
AcDbEntity
  8
_U+30EC_U+30A4_U+30E4_U+30FC 1
 62
   179
420
  2234388
370
    25
  0
POLYLINE
  5
13A
330
1F
100
AcDbEntity
  8
_U+30EC_U+30A4_U+30E4_U+30FC 1
 62
   179
420
  2234388
370
    25
100
AcDb2dPolyline
 66
     1
 10
0.0
 20
0.0
 30
0.0
  0
VERTEX
  5
13B
330
13A
100
AcDbEntity
  8
_U+30EC_U+30A4_U+30E4_U+30FC 1
 62
   179
420
  2234388
370
    25
100
AcDbVertex
100
AcDb2dVertex
 10
74.92188609238079
 20
-125.38699413532
 30
0.0
  0
VERTEX
  5
13C
330
13A
100
AcDbEntity
  8
_U+30EC_U+30A4_U+30E4_U+30FC 1
 62
   179
420
  2234388
370
    25
100
AcDbVertex
100
AcDb2dVertex
 10
75.50890831445616
 20
-124.9756552465339
 30
0.0
  0
SEQEND
  5
13D
330
13A
100
AcDbEntity
  8
_U+30EC_U+30A4_U+30E4_U+30FC 1
 62
   179
420
  2234388
370
    25
  0
POLYLINE
  5
13E
330
1F
100
AcDbEntity
  8
_U+30EC_U+30A4_U+30E4_U+30FC 1
 62
   179
420
  2234388
370
    25
100
AcDb2dPolyline
 66
     1
 10
0.0
 20
0.0
 30
0.0
  0
VERTEX
  5
13F
330
13E
100
AcDbEntity
  8
_U+30EC_U+30A4_U+30E4_U+30FC 1
 62
   179
420
  2234388
370
    25
100
AcDbVertex
100
AcDb2dVertex
 10
76.11251109208312
 20
-125.3635696908815
 30
0.0
  0
VERTEX
  5
140
330
13E
100
AcDbEntity
  8
_U+30EC_U+30A4_U+30E4_U+30FC 1
 62
   179
420
  2234388
370
    25
100
AcDbVertex
100
AcDb2dVertex
 10
76.69953331415851
 20
-124.9515605243177
 30
0.0
  0
SEQEND
  5
141
330
13E
100
AcDbEntity
  8
_U+30EC_U+30A4_U+30E4_U+30FC 1
 62
   179
420
  2234388
370
    25
  0
POLYLINE
  5
142
330
1F
100
AcDbEntity
  8
_U+30EC_U+30A4_U+30E4_U+30FC 1
 62
   179
420
  2234388
370
    25
100
AcDb2dPolyline
 66
     1
 10
0.0
 20
0.0
 30
0.0
  0
VERTEX
  5
143
330
142
100
AcDbEntity
  8
_U+30EC_U+30A4_U+30E4_U+30FC 1
 62
   179
420
  2234388
370
    25
100
AcDbVertex
100
AcDb2dVertex
 10
75.50890831445616
 20
-124.9756552465339
 30
0.0
  0
VERTEX
  5
144
330
142
100
AcDbEntity
  8
_U+30EC_U+30A4_U+30E4_U+30FC 1
 62
   179
420
  2234388
370
    25
100
AcDbVertex
100
AcDb2dVertex
 10
76.11251109208312
 20
-125.3635696908815
 30
0.0
  0
SEQEND
  5
145
330
142
100
AcDbEntity
  8
_U+30EC_U+30A4_U+30E4_U+30FC 1
 62
   179
420
  2234388
370
    25
  0
POLYLINE
  5
146
330
1F
100
AcDbEntity
  8
_U+30EC_U+30A4_U+30E4_U+30FC 1
 62
   179
420
  2234388
370
    25
100
AcDb2dPolyline
 66
     1
 10
0.0
 20
0.0
 30
0.0
  0
VERTEX
  5
147
330
146
100
AcDbEntity
  8
_U+30EC_U+30A4_U+30E4_U+30FC 1
 62
   179
420
  2234388
370
    25
100
AcDbVertex
100
AcDb2dVertex
 10
76.69953331415851
 20
-124.9515605243177
 30
0.0
  0
VERTEX
  5
148
330
146
100
AcDbEntity
  8
_U+30EC_U+30A4_U+30E4_U+30FC 1
 62
   179
420
  2234388
370
    25
100
AcDbVertex
100
AcDb2dVertex
 10
77.30243053622995
 20
-125.339474968665
 30
0.0
  0
SEQEND
  5
149
330
146
100
AcDbEntity
  8
_U+30EC_U+30A4_U+30E4_U+30FC 1
 62
   179
420
  2234388
370
    25
  0
POLYLINE
  5
14A
330
1F
100
AcDbEntity
  8
_U+30EC_U+30A4_U+30E4_U+30FC 1
 62
   179
420
  2234388
370
    25
100
AcDb2dPolyline
 66
     1
 10
0.0
 20
0.0
 30
0.0
  0
VERTEX
  5
14B
330
14A
100
AcDbEntity
  8
_U+30EC_U+30A4_U+30E4_U+30FC 1
 62
   179
420
  2234388
370
    25
100
AcDbVertex
100
AcDb2dVertex
 10
77.30243053622995
 20
-125.339474968665
 30
0.0
  0
VERTEX
  5
14C
330
14A
100
AcDbEntity
  8
_U+30EC_U+30A4_U+30E4_U+30FC 1
 62
   179
420
  2234388
370
    25
100
AcDbVertex
100
AcDb2dVertex
 10
77.89015831386085
 20
-124.9281360798792
 30
0.0
  0
SEQEND
  5
14D
330
14A
100
AcDbEntity
  8
_U+30EC_U+30A4_U+30E4_U+30FC 1
 62
   179
420
  2234388
370
    25
  0
POLYLINE
  5
14E
330
1F
100
AcDbEntity
  8
_U+30EC_U+30A4_U+30E4_U+30FC 1
 62
   179
420
  2234388
370
    25
100
AcDb2dPolyline
 66
     1
 10
0.0
 20
0.0
 30
0.0
  0
VERTEX
  5
14F
330
14E
100
AcDbEntity
  8
_U+30EC_U+30A4_U+30E4_U+30FC 1
 62
   179
420
  2234388
370
    25
100
AcDbVertex
100
AcDb2dVertex
 10
79.47698602792872
 20
-125.339474968665
 30
0.0
  0
VERTEX
  5
150
330
14E
100
AcDbEntity
  8
_U+30EC_U+30A4_U+30E4_U+30FC 1
 62
   179
420
  2234388
370
    25
100
AcDbVertex
100
AcDb2dVertex
 10
78.88993053583307
 20
-124.9281360798792
 30
0.0
  0
SEQEND
  5
151
330
14E
100
AcDbEntity
  8
_U+30EC_U+30A4_U+30E4_U+30FC 1
 62
   179
420
  2234388
370
    25
  0
POLYLINE
  5
152
330
1F
100
AcDbEntity
  8
_U+30EC_U+30A4_U+30E4_U+30FC 1
 62
   179
420
  2234388
370
    25
100
AcDb2dPolyline
 66
     1
 10
0.0
 20
0.0
 30
0.0
  0
VERTEX
  5
153
330
152
100
AcDbEntity
  8
_U+30EC_U+30A4_U+30E4_U+30FC 1
 62
   179
420
  2234388
370
    25
100
AcDbVertex
100
AcDb2dVertex
 10
80.08055553553542
 20
-124.9515605243177
 30
0.0
  0
VERTEX
  5
154
330
152
100
AcDbEntity
  8
_U+30EC_U+30A4_U+30E4_U+30FC 1
 62
   179
420
  2234388
370
    25
100
AcDbVertex
100
AcDb2dVertex
 10
79.47698602792872
 20
-125.339474968665
 30
0.0
  0
SEQEND
  5
155
330
152
100
AcDbEntity
  8
_U+30EC_U+30A4_U+30E4_U+30FC 1
 62
   179
420
  2234388
370
    25
  0
POLYLINE
  5
156
330
1F
100
AcDbEntity
  8
_U+30EC_U+30A4_U+30E4_U+30FC 1
 62
   179
420
  2234388
370
    25
100
AcDb2dPolyline
 66
     1
 10
0.0
 20
0.0
 30
0.0
  0
VERTEX
  5
157
330
156
100
AcDbEntity
  8
_U+30EC_U+30A4_U+30E4_U+30FC 1
 62
   179
420
  2234388
370
    25
100
AcDbVertex
100
AcDb2dVertex
 10
81.27118053523776
 20
-124.9756552465339
 30
0.0
  0
VERTEX
  5
158
330
156
100
AcDbEntity
  8
_U+30EC_U+30A4_U+30E4_U+30FC 1
 62
   179
420
  2234388
370
    25
100
AcDbVertex
100
AcDb2dVertex
 10
80.66761099755334
 20
-125.3635696908815
 30
0.0
  0
SEQEND
  5
159
330
156
100
AcDbEntity
  8
_U+30EC_U+30A4_U+30E4_U+30FC 1
 62
   179
420
  2234388
370
    25
  0
POLYLINE
  5
15A
330
1F
100
AcDbEntity
  8
_U+30EC_U+30A4_U+30E4_U+30FC 1
 62
   179
420
  2234388
370
    25
100
AcDb2dPolyline
 66
     1
 10
0.0
 20
0.0
 30
0.0
  0
VERTEX
  5
15B
330
15A
100
AcDbEntity
  8
_U+30EC_U+30A4_U+30E4_U+30FC 1
 62
   179
420
  2234388
370
    25
100
AcDbVertex
100
AcDb2dVertex
 10
80.66761099755334
 20
-125.3635696908815
 30
0.0
  0
VERTEX
  5
15C
330
15A
100
AcDbEntity
  8
_U+30EC_U+30A4_U+30E4_U+30FC 1
 62
   179
420
  2234388
370
    25
100
AcDbVertex
100
AcDb2dVertex
 10
80.08055553553542
 20
-124.9515605243177
 30
0.0
  0
SEQEND
  5
15D
330
15A
100
AcDbEntity
  8
_U+30EC_U+30A4_U+30E4_U+30FC 1
 62
   179
420
  2234388
370
    25
  0
POLYLINE
  5
15E
330
1F
100
AcDbEntity
  8
_U+30EC_U+30A4_U+30E4_U+30FC 1
 62
   179
420
  2234388
370
    25
100
AcDb2dPolyline
 66
     1
 10
0.0
 20
0.0
 30
0.0
  0
VERTEX
  5
15F
330
15E
100
AcDbEntity
  8
_U+30EC_U+30A4_U+30E4_U+30FC 1
 62
   179
420
  2234388
370
    25
100
AcDbVertex
100
AcDb2dVertex
 10
81.85823596717798
 20
-125.38699413532
 30
0.0
  0
VERTEX
  5
160
330
15E
100
AcDbEntity
  8
_U+30EC_U+30A4_U+30E4_U+30FC 1
 62
   179
420
  2234388
370
    25
100
AcDbVertex
100
AcDb2dVertex
 10
81.27118053523776
 20
-124.9756552465339
 30
0.0
  0
SEQEND
  5
161
330
15E
100
AcDbEntity
  8
_U+30EC_U+30A4_U+30E4_U+30FC 1
 62
   179
420
  2234388
370
    25
  0
POLYLINE
  5
162
330
1F
100
AcDbEntity
  8
_U+30EC_U+30A4_U+30E4_U+30FC 1
 62
   179
420
  2234388
370
    25
100
AcDb2dPolyline
 66
     1
 10
0.0
 20
0.0
 30
0.0
  0
VERTEX
  5
163
330
162
100
AcDbEntity
  8
_U+30EC_U+30A4_U+30E4_U+30FC 1
 62
   179
420
  2234388
370
    25
100
AcDbVertex
100
AcDb2dVertex
 10
82.46109997938458
 20
-124.9990796909724
 30
0.0
  0
VERTEX
  5
164
330
162
100
AcDbEntity
  8
_U+30EC_U+30A4_U+30E4_U+30FC 1
 62
   179
420
  2234388
370
    25
100
AcDbVertex
100
AcDb2dVertex
 10
81.85823596717798
 20
-125.38699413532
 30
0.0
  0
SEQEND
  5
165
330
162
100
AcDbEntity
  8
_U+30EC_U+30A4_U+30E4_U+30FC 1
 62
   179
420
  2234388
370
    25
  0
POLYLINE
  5
166
330
1F
100
AcDbEntity
  8
_U+30EC_U+30A4_U+30E4_U+30FC 1
 62
   179
420
  2234388
370
    25
100
AcDb2dPolyline
 66
     1
 10
0.0
 20
0.0
 30
0.0
  0
VERTEX
  5
167
330
166
100
AcDbEntity
  8
_U+30EC_U+30A4_U+30E4_U+30FC 1
 62
   179
420
  2234388
370
    25
100
AcDbVertex
100
AcDb2dVertex
 10
83.65172497908694
 20
-125.0232096909664
 30
0.0
  0
VERTEX
  5
168
330
166
100
AcDbEntity
  8
_U+30EC_U+30A4_U+30E4_U+30FC 1
 62
   179
420
  2234388
370
    25
100
AcDbVertex
100
AcDb2dVertex
 10
83.0488609368026
 20
-125.411124135314
 30
0.0
  0
SEQEND
  5
169
330
166
100
AcDbEntity
  8
_U+30EC_U+30A4_U+30E4_U+30FC 1
 62
   179
420
  2234388
370
    25
  0
POLYLINE
  5
16A
330
1F
100
AcDbEntity
  8
_U+30EC_U+30A4_U+30E4_U+30FC 1
 62
   179
420
  2234388
370
    25
100
AcDb2dPolyline
 66
     1
 10
0.0
 20
0.0
 30
0.0
  0
VERTEX
  5
16B
330
16A
100
AcDbEntity
  8
_U+30EC_U+30A4_U+30E4_U+30FC 1
 62
   179
420
  2234388
370
    25
100
AcDbVertex
100
AcDb2dVertex
 10
83.0488609368026
 20
-125.411124135314
 30
0.0
  0
VERTEX
  5
16C
330
16A
100
AcDbEntity
  8
_U+30EC_U+30A4_U+30E4_U+30FC 1
 62
   179
420
  2234388
370
    25
100
AcDbVertex
100
AcDb2dVertex
 10
82.46109997938458
 20
-124.9990796909724
 30
0.0
  0
SEQEND
  5
16D
330
16A
100
AcDbEntity
  8
_U+30EC_U+30A4_U+30E4_U+30FC 1
 62
   179
420
  2234388
370
    25
  0
POLYLINE
  5
16E
330
1F
100
AcDbEntity
  8
_U+30EC_U+30A4_U+30E4_U+30FC 1
 62
   179
420
  2234388
370
    25
100
AcDb2dPolyline
 66
     1
 10
0.0
 20
0.0
 30
0.0
  0
VERTEX
  5
16F
330
16E
100
AcDbEntity
  8
_U+30EC_U+30A4_U+30E4_U+30FC 1
 62
   179
420
  2234388
370
    25
100
AcDbVertex
100
AcDb2dVertex
 10
84.23878035088967
 20
-125.4345485797525
 30
0.0
  0
VERTEX
  5
170
330
16E
100
AcDbEntity
  8
_U+30EC_U+30A4_U+30E4_U+30FC 1
 62
   179
420
  2234388
370
    25
100
AcDbVertex
100
AcDb2dVertex
 10
83.65172497908694
 20
-125.0232096909664
 30
0.0
  0
SEQEND
  5
171
330
16E
100
AcDbEntity
  8
_U+30EC_U+30A4_U+30E4_U+30FC 1
 62
   179
420
  2234388
370
    25
  0
POLYLINE
  5
172
330
1F
100
AcDbEntity
  8
_U+30EC_U+30A4_U+30E4_U+30FC 1
 62
   179
420
  2234388
370
    25
100
AcDb2dPolyline
 66
     1
 10
0.0
 20
0.0
 30
0.0
  0
VERTEX
  5
173
330
172
100
AcDbEntity
  8
_U+30EC_U+30A4_U+30E4_U+30FC 1
 62
   179
420
  2234388
370
    25
100
AcDbVertex
100
AcDb2dVertex
 10
84.84234997878927
 20
-125.0466341354052
 30
0.0
  0
VERTEX
  5
174
330
172
100
AcDbEntity
  8
_U+30EC_U+30A4_U+30E4_U+30FC 1
 62
   179
420
  2234388
370
    25
100
AcDbVertex
100
AcDb2dVertex
 10
84.23878035088967
 20
-125.4345485797525
 30
0.0
  0
SEQEND
  5
175
330
172
100
AcDbEntity
  8
_U+30EC_U+30A4_U+30E4_U+30FC 1
 62
   179
420
  2234388
370
    25
  0
POLYLINE
  5
176
330
1F
100
AcDbEntity
  8
_U+30EC_U+30A4_U+30E4_U+30FC 1
 62
   179
420
  2234388
370
    25
100
AcDb2dPolyline
 66
     1
 10
0.0
 20
0.0
 30
0.0
  0
VERTEX
  5
177
330
176
100
AcDbEntity
  8
_U+30EC_U+30A4_U+30E4_U+30FC 1
 62
   179
420
  2234388
370
    25
100
AcDbVertex
100
AcDb2dVertex
 10
86.03297497849162
 20
-125.0707641353989
 30
0.0
  0
VERTEX
  5
178
330
176
100
AcDbEntity
  8
_U+30EC_U+30A4_U+30E4_U+30FC 1
 62
   179
420
  2234388
370
    25
100
AcDbVertex
100
AcDb2dVertex
 10
85.42940532051429
 20
-125.4586785797465
 30
0.0
  0
SEQEND
  5
179
330
176
100
AcDbEntity
  8
_U+30EC_U+30A4_U+30E4_U+30FC 1
 62
   179
420
  2234388
370
    25
  0
POLYLINE
  5
17A
330
1F
100
AcDbEntity
  8
_U+30EC_U+30A4_U+30E4_U+30FC 1
 62
   179
420
  2234388
370
    25
100
AcDb2dPolyline
 66
     1
 10
0.0
 20
0.0
 30
0.0
  0
VERTEX
  5
17B
330
17A
100
AcDbEntity
  8
_U+30EC_U+30A4_U+30E4_U+30FC 1
 62
   179
420
  2234388
370
    25
100
AcDbVertex
100
AcDb2dVertex
 10
85.42940532051429
 20
-125.4586785797465
 30
0.0
  0
VERTEX
  5
17C
330
17A
100
AcDbEntity
  8
_U+30EC_U+30A4_U+30E4_U+30FC 1
 62
   179
420
  2234388
370
    25
100
AcDbVertex
100
AcDb2dVertex
 10
84.84234997878927
 20
-125.0466341354052
 30
0.0
  0
SEQEND
  5
17D
330
17A
100
AcDbEntity
  8
_U+30EC_U+30A4_U+30E4_U+30FC 1
 62
   179
420
  2234388
370
    25
  0
POLYLINE
  5
17E
330
1F
100
AcDbEntity
  8
_U+30EC_U+30A4_U+30E4_U+30FC 1
 62
   179
420
  2234388
370
    25
100
AcDb2dPolyline
 66
     1
 10
0.0
 20
0.0
 30
0.0
  0
VERTEX
  5
17F
330
17E
100
AcDbEntity
  8
_U+30EC_U+30A4_U+30E4_U+30FC 1
 62
   179
420
  2234388
370
    25
100
AcDbVertex
100
AcDb2dVertex
 10
86.62003029013893
 20
-125.4827733019627
 30
0.0
  0
VERTEX
  5
180
330
17E
100
AcDbEntity
  8
_U+30EC_U+30A4_U+30E4_U+30FC 1
 62
   179
420
  2234388
370
    25
100
AcDbVertex
100
AcDb2dVertex
 10
86.03297497849162
 20
-125.0707641353989
 30
0.0
  0
SEQEND
  5
181
330
17E
100
AcDbEntity
  8
_U+30EC_U+30A4_U+30E4_U+30FC 1
 62
   179
420
  2234388
370
    25
  0
POLYLINE
  5
182
330
1F
100
AcDbEntity
  8
_U+30EC_U+30A4_U+30E4_U+30FC 1
 62
   179
420
  2234388
370
    25
100
AcDb2dPolyline
 66
     1
 10
0.0
 20
0.0
 30
0.0
  0
VERTEX
  5
183
330
182
100
AcDbEntity
  8
_U+30EC_U+30A4_U+30E4_U+30FC 1
 62
   179
420
  2234388
370
    25
100
AcDbVertex
100
AcDb2dVertex
 10
87.22292749697995
 20
-125.0941885798377
 30
0.0
  0
VERTEX
  5
184
330
182
100
AcDbEntity
  8
_U+30EC_U+30A4_U+30E4_U+30FC 1
 62
   179
420
  2234388
370
    25
100
AcDbVertex
100
AcDb2dVertex
 10
86.62003029013893
 20
-125.4827733019627
 30
0.0
  0
SEQEND
  5
185
330
182
100
AcDbEntity
  8
_U+30EC_U+30A4_U+30E4_U+30FC 1
 62
   179
420
  2234388
370
    25
  0
POLYLINE
  5
186
330
1F
100
AcDbEntity
  8
_U+30EC_U+30A4_U+30E4_U+30FC 1
 62
   179
420
  2234388
370
    25
100
AcDb2dPolyline
 66
     1
 10
0.0
 20
0.0
 30
0.0
  0
VERTEX
  5
187
330
186
100
AcDbEntity
  8
_U+30EC_U+30A4_U+30E4_U+30FC 1
 62
   179
420
  2234388
370
    25
100
AcDbVertex
100
AcDb2dVertex
 10
88.41355246660459
 20
-125.1182833020538
 30
0.0
  0
VERTEX
  5
188
330
186
100
AcDbEntity
  8
_U+30EC_U+30A4_U+30E4_U+30FC 1
 62
   179
420
  2234388
370
    25
100
AcDbVertex
100
AcDb2dVertex
 10
87.81065525976355
 20
-125.5061977464011
 30
0.0
  0
SEQEND
  5
189
330
186
100
AcDbEntity
  8
_U+30EC_U+30A4_U+30E4_U+30FC 1
 62
   179
420
  2234388
370
    25
  0
POLYLINE
  5
18A
330
1F
100
AcDbEntity
  8
_U+30EC_U+30A4_U+30E4_U+30FC 1
 62
   179
420
  2234388
370
    25
100
AcDb2dPolyline
 66
     1
 10
0.0
 20
0.0
 30
0.0
  0
VERTEX
  5
18B
330
18A
100
AcDbEntity
  8
_U+30EC_U+30A4_U+30E4_U+30FC 1
 62
   179
420
  2234388
370
    25
100
AcDbVertex
100
AcDb2dVertex
 10
87.81065525976355
 20
-125.5061977464011
 30
0.0
  0
VERTEX
  5
18C
330
18A
100
AcDbEntity
  8
_U+30EC_U+30A4_U+30E4_U+30FC 1
 62
   179
420
  2234388
370
    25
100
AcDbVertex
100
AcDb2dVertex
 10
87.22292749697995
 20
-125.0941885798377
 30
0.0
  0
SEQEND
  5
18D
330
18A
100
AcDbEntity
  8
_U+30EC_U+30A4_U+30E4_U+30FC 1
 62
   179
420
  2234388
370
    25
  0
POLYLINE
  5
18E
330
1F
100
AcDbEntity
  8
_U+30EC_U+30A4_U+30E4_U+30FC 1
 62
   179
420
  2234388
370
    25
100
AcDb2dPolyline
 66
     1
 10
0.0
 20
0.0
 30
0.0
  0
VERTEX
  5
18F
330
18E
100
AcDbEntity
  8
_U+30EC_U+30A4_U+30E4_U+30FC 1
 62
   179
420
  2234388
370
    25
100
AcDbVertex
100
AcDb2dVertex
 10
89.00128022938817
 20
-125.5303277463951
 30
0.0
  0
VERTEX
  5
190
330
18E
100
AcDbEntity
  8
_U+30EC_U+30A4_U+30E4_U+30FC 1
 62
   179
420
  2234388
370
    25
100
AcDbVertex
100
AcDb2dVertex
 10
88.41355246660459
 20
-125.1182833020538
 30
0.0
  0
SEQEND
  5
191
330
18E
100
AcDbEntity
  8
_U+30EC_U+30A4_U+30E4_U+30FC 1
 62
   179
420
  2234388
370
    25
  0
POLYLINE
  5
192
330
1F
100
AcDbEntity
  8
_U+30EC_U+30A4_U+30E4_U+30FC 1
 62
   179
420
  2234388
370
    25
100
AcDb2dPolyline
 66
     1
 10
0.0
 20
0.0
 30
0.0
  0
VERTEX
  5
193
330
192
100
AcDbEntity
  8
_U+30EC_U+30A4_U+30E4_U+30FC 1
 62
   179
420
  2234388
370
    25
100
AcDbVertex
100
AcDb2dVertex
 10
89.60417743622921
 20
-125.1424133020478
 30
0.0
  0
VERTEX
  5
194
330
192
100
AcDbEntity
  8
_U+30EC_U+30A4_U+30E4_U+30FC 1
 62
   179
420
  2234388
370
    25
100
AcDbVertex
100
AcDb2dVertex
 10
89.00128022938817
 20
-125.5303277463951
 30
0.0
  0
SEQEND
  5
195
330
192
100
AcDbEntity
  8
_U+30EC_U+30A4_U+30E4_U+30FC 1
 62
   179
420
  2234388
370
    25
  0
POLYLINE
  5
196
330
1F
100
AcDbEntity
  8
_U+30EC_U+30A4_U+30E4_U+30FC 1
 62
   179
420
  2234388
370
    25
100
AcDb2dPolyline
 66
     1
 10
0.0
 20
0.0
 30
0.0
  0
VERTEX
  5
197
330
196
100
AcDbEntity
  8
_U+30EC_U+30A4_U+30E4_U+30FC 1
 62
   179
420
  2234388
370
    25
100
AcDbVertex
100
AcDb2dVertex
 10
90.79480240585383
 20
-125.1658377464863
 30
0.0
  0
VERTEX
  5
198
330
196
100
AcDbEntity
  8
_U+30EC_U+30A4_U+30E4_U+30FC 1
 62
   179
420
  2234388
370
    25
100
AcDbVertex
100
AcDb2dVertex
 10
90.19123492125212
 20
-125.5537521908339
 30
0.0
  0
SEQEND
  5
199
330
196
100
AcDbEntity
  8
_U+30EC_U+30A4_U+30E4_U+30FC 1
 62
   179
420
  2234388
370
    25
  0
POLYLINE
  5
19A
330
1F
100
AcDbEntity
  8
_U+30EC_U+30A4_U+30E4_U+30FC 1
 62
   179
420
  2234388
370
    25
100
AcDb2dPolyline
 66
     1
 10
0.0
 20
0.0
 30
0.0
  0
VERTEX
  5
19B
330
19A
100
AcDbEntity
  8
_U+30EC_U+30A4_U+30E4_U+30FC 1
 62
   179
420
  2234388
370
    25
100
AcDbVertex
100
AcDb2dVertex
 10
90.19123492125212
 20
-125.5537521908339
 30
0.0
  0
VERTEX
  5
19C
330
19A
100
AcDbEntity
  8
_U+30EC_U+30A4_U+30E4_U+30FC 1
 62
   179
420
  2234388
370
    25
100
AcDbVertex
100
AcDb2dVertex
 10
89.60417743622921
 20
-125.1424133020478
 30
0.0
  0
SEQEND
  5
19D
330
19A
100
AcDbEntity
  8
_U+30EC_U+30A4_U+30E4_U+30FC 1
 62
   179
420
  2234388
370
    25
  0
POLYLINE
  5
19E
330
1F
100
AcDbEntity
  8
_U+30EC_U+30A4_U+30E4_U+30FC 1
 62
   179
420
  2234388
370
    25
100
AcDb2dPolyline
 66
     1
 10
0.0
 20
0.0
 30
0.0
  0
VERTEX
  5
19F
330
19E
100
AcDbEntity
  8
_U+30EC_U+30A4_U+30E4_U+30FC 1
 62
   179
420
  2234388
370
    25
100
AcDbVertex
100
AcDb2dVertex
 10
91.38185989087675
 20
-125.5778821908276
 30
0.0
  0
VERTEX
  5
1A0
330
19E
100
AcDbEntity
  8
_U+30EC_U+30A4_U+30E4_U+30FC 1
 62
   179
420
  2234388
370
    25
100
AcDbVertex
100
AcDb2dVertex
 10
90.79480240585383
 20
-125.1658377464863
 30
0.0
  0
SEQEND
  5
1A1
330
19E
100
AcDbEntity
  8
_U+30EC_U+30A4_U+30E4_U+30FC 1
 62
   179
420
  2234388
370
    25
  0
POLYLINE
  5
1A2
330
1F
100
AcDbEntity
  8
_U+30EC_U+30A4_U+30E4_U+30FC 1
 62
   179
420
  2234388
370
    25
100
AcDb2dPolyline
 66
     1
 10
0.0
 20
0.0
 30
0.0
  0
VERTEX
  5
1A3
330
1A2
100
AcDbEntity
  8
_U+30EC_U+30A4_U+30E4_U+30FC 1
 62
   179
420
  2234388
370
    25
100
AcDbVertex
100
AcDb2dVertex
 10
91.98542737547847
 20
-125.1899324687025
 30
0.0
  0
VERTEX
  5
1A4
330
1A2
100
AcDbEntity
  8
_U+30EC_U+30A4_U+30E4_U+30FC 1
 62
   179
420
  2234388
370
    25
100
AcDbVertex
100
AcDb2dVertex
 10
91.38185989087675
 20
-125.5778821908276
 30
0.0
  0
SEQEND
  5
1A5
330
1A2
100
AcDbEntity
  8
_U+30EC_U+30A4_U+30E4_U+30FC 1
 62
   179
420
  2234388
370
    25
  0
POLYLINE
  5
1A6
330
1F
100
AcDbEntity
  8
_U+30EC_U+30A4_U+30E4_U+30FC 1
 62
   179
420
  2234388
370
    25
100
AcDb2dPolyline
 66
     1
 10
0.0
 20
0.0
 30
0.0
  0
VERTEX
  5
1A7
330
1A6
100
AcDbEntity
  8
_U+30EC_U+30A4_U+30E4_U+30FC 1
 62
   179
420
  2234388
370
    25
100
AcDbVertex
100
AcDb2dVertex
 10
93.17534678956554
 20
-125.213356913141
 30
0.0
  0
VERTEX
  5
1A8
330
1A6
100
AcDbEntity
  8
_U+30EC_U+30A4_U+30E4_U+30FC 1
 62
   179
420
  2234388
370
    25
100
AcDbVertex
100
AcDb2dVertex
 10
92.57248486050138
 20
-125.6013066352664
 30
0.0
  0
SEQEND
  5
1A9
330
1A6
100
AcDbEntity
  8
_U+30EC_U+30A4_U+30E4_U+30FC 1
 62
   179
420
  2234388
370
    25
  0
POLYLINE
  5
1AA
330
1F
100
AcDbEntity
  8
_U+30EC_U+30A4_U+30E4_U+30FC 1
 62
   179
420
  2234388
370
    25
100
AcDb2dPolyline
 66
     1
 10
0.0
 20
0.0
 30
0.0
  0
VERTEX
  5
1AB
330
1AA
100
AcDbEntity
  8
_U+30EC_U+30A4_U+30E4_U+30FC 1
 62
   179
420
  2234388
370
    25
100
AcDbVertex
100
AcDb2dVertex
 10
92.57248486050138
 20
-125.6013066352664
 30
0.0
  0
VERTEX
  5
1AC
330
1AA
100
AcDbEntity
  8
_U+30EC_U+30A4_U+30E4_U+30FC 1
 62
   179
420
  2234388
370
    25
100
AcDbVertex
100
AcDb2dVertex
 10
91.98542737547847
 20
-125.1899324687025
 30
0.0
  0
SEQEND
  5
1AD
330
1AA
100
AcDbEntity
  8
_U+30EC_U+30A4_U+30E4_U+30FC 1
 62
   179
420
  2234388
370
    25
  0
POLYLINE
  5
1AE
330
1F
100
AcDbEntity
  8
_U+30EC_U+30A4_U+30E4_U+30FC 1
 62
   179
420
  2234388
370
    25
100
AcDb2dPolyline
 66
     1
 10
0.0
 20
0.0
 30
0.0
  0
VERTEX
  5
1AF
330
1AE
100
AcDbEntity
  8
_U+30EC_U+30A4_U+30E4_U+30FC 1
 62
   179
420
  2234388
370
    25
100
AcDbVertex
100
AcDb2dVertex
 10
93.763109830126
 20
-125.6254013574826
 30
0.0
  0
VERTEX
  5
1B0
330
1AE
100
AcDbEntity
  8
_U+30EC_U+30A4_U+30E4_U+30FC 1
 62
   179
420
  2234388
370
    25
100
AcDbVertex
100
AcDb2dVertex
 10
93.17534678956554
 20
-125.213356913141
 30
0.0
  0
SEQEND
  5
1B1
330
1AE
100
AcDbEntity
  8
_U+30EC_U+30A4_U+30E4_U+30FC 1
 62
   179
420
  2234388
370
    25
  0
POLYLINE
  5
1B2
330
1F
100
AcDbEntity
  8
_U+30EC_U+30A4_U+30E4_U+30FC 1
 62
   179
420
  2234388
370
    25
100
AcDb2dPolyline
 66
     1
 10
0.0
 20
0.0
 30
0.0
  0
VERTEX
  5
1B3
330
1B2
100
AcDbEntity
  8
_U+30EC_U+30A4_U+30E4_U+30FC 1
 62
   179
420
  2234388
370
    25
100
AcDbVertex
100
AcDb2dVertex
 10
94.36597175919016
 20
-125.237486913135
 30
0.0
  0
VERTEX
  5
1B4
330
1B2
100
AcDbEntity
  8
_U+30EC_U+30A4_U+30E4_U+30FC 1
 62
   179
420
  2234388
370
    25
100
AcDbVertex
100
AcDb2dVertex
 10
93.763109830126
 20
-125.6254013574826
 30
0.0
  0
SEQEND
  5
1B5
330
1B2
100
AcDbEntity
  8
_U+30EC_U+30A4_U+30E4_U+30FC 1
 62
   179
420
  2234388
370
    25
  0
POLYLINE
  5
1B6
330
1F
100
AcDbEntity
  8
_U+30EC_U+30A4_U+30E4_U+30FC 1
 62
   179
420
  2234388
370
    25
100
AcDb2dPolyline
 66
     1
 10
0.0
 20
0.0
 30
0.0
  0
VERTEX
  5
1B7
330
1B6
100
AcDbEntity
  8
_U+30EC_U+30A4_U+30E4_U+30FC 1
 62
   179
420
  2234388
370
    25
100
AcDbVertex
100
AcDb2dVertex
 10
95.55659672881478
 20
-125.2609113575738
 30
0.0
  0
VERTEX
  5
1B8
330
1B6
100
AcDbEntity
  8
_U+30EC_U+30A4_U+30E4_U+30FC 1
 62
   179
420
  2234388
370
    25
100
AcDbVertex
100
AcDb2dVertex
 10
94.95302924421307
 20
-125.6488258019211
 30
0.0
  0
SEQEND
  5
1B9
330
1B6
100
AcDbEntity
  8
_U+30EC_U+30A4_U+30E4_U+30FC 1
 62
   179
420
  2234388
370
    25
  0
POLYLINE
  5
1BA
330
1F
100
AcDbEntity
  8
_U+30EC_U+30A4_U+30E4_U+30FC 1
 62
   179
420
  2234388
370
    25
100
AcDb2dPolyline
 66
     1
 10
0.0
 20
0.0
 30
0.0
  0
VERTEX
  5
1BB
330
1BA
100
AcDbEntity
  8
_U+30EC_U+30A4_U+30E4_U+30FC 1
 62
   179
420
  2234388
370
    25
100
AcDbVertex
100
AcDb2dVertex
 10
94.95302924421307
 20
-125.6488258019211
 30
0.0
  0
VERTEX
  5
1BC
330
1BA
100
AcDbEntity
  8
_U+30EC_U+30A4_U+30E4_U+30FC 1
 62
   179
420
  2234388
370
    25
100
AcDbVertex
100
AcDb2dVertex
 10
94.36597175919016
 20
-125.237486913135
 30
0.0
  0
SEQEND
  5
1BD
330
1BA
100
AcDbEntity
  8
_U+30EC_U+30A4_U+30E4_U+30FC 1
 62
   179
420
  2234388
370
    25
  0
POLYLINE
  5
1BE
330
1F
100
AcDbEntity
  8
_U+30EC_U+30A4_U+30E4_U+30FC 1
 62
   179
420
  2234388
370
    25
100
AcDb2dPolyline
 66
     1
 10
0.0
 20
0.0
 30
0.0
  0
VERTEX
  5
1BF
330
1BE
100
AcDbEntity
  8
_U+30EC_U+30A4_U+30E4_U+30FC 1
 62
   179
420
  2234388
370
    25
100
AcDbVertex
100
AcDb2dVertex
 10
96.1436542138377
 20
-125.6729558019151
 30
0.0
  0
VERTEX
  5
1C0
330
1BE
100
AcDbEntity
  8
_U+30EC_U+30A4_U+30E4_U+30FC 1
 62
   179
420
  2234388
370
    25
100
AcDbVertex
100
AcDb2dVertex
 10
95.55659672881478
 20
-125.2609113575738
 30
0.0
  0
SEQEND
  5
1C1
330
1BE
100
AcDbEntity
  8
_U+30EC_U+30A4_U+30E4_U+30FC 1
 62
   179
420
  2234388
370
    25
  0
POLYLINE
  5
1C2
330
1F
100
AcDbEntity
  8
_U+30EC_U+30A4_U+30E4_U+30FC 1
 62
   179
420
  2234388
370
    25
100
AcDb2dPolyline
 66
     1
 10
0.0
 20
0.0
 30
0.0
  0
VERTEX
  5
1C3
330
1C2
100
AcDbEntity
  8
_U+30EC_U+30A4_U+30E4_U+30FC 1
 62
   179
420
  2234388
370
    25
100
AcDbVertex
100
AcDb2dVertex
 10
96.74722169843942
 20
-125.2850413575678
 30
0.0
  0
VERTEX
  5
1C4
330
1C2
100
AcDbEntity
  8
_U+30EC_U+30A4_U+30E4_U+30FC 1
 62
   179
420
  2234388
370
    25
100
AcDbVertex
100
AcDb2dVertex
 10
96.1436542138377
 20
-125.6729558019151
 30
0.0
  0
SEQEND
  5
1C5
330
1C2
100
AcDbEntity
  8
_U+30EC_U+30A4_U+30E4_U+30FC 1
 62
   179
420
  2234388
370
    25
  0
POLYLINE
  5
1C6
330
1F
100
AcDbEntity
  8
_U+30EC_U+30A4_U+30E4_U+30FC 1
 62
   179
420
  2234388
370
    25
100
AcDb2dPolyline
 66
     1
 10
0.0
 20
0.0
 30
0.0
  0
VERTEX
  5
1C7
330
1C6
100
AcDbEntity
  8
_U+30EC_U+30A4_U+30E4_U+30FC 1
 62
   179
420
  2234388
370
    25
100
AcDbVertex
100
AcDb2dVertex
 10
97.93784666806404
 20
-125.3084658020063
 30
0.0
  0
VERTEX
  5
1C8
330
1C6
100
AcDbEntity
  8
_U+30EC_U+30A4_U+30E4_U+30FC 1
 62
   179
420
  2234388
370
    25
100
AcDbVertex
100
AcDb2dVertex
 10
97.33427918346233
 20
-125.6970505241313
 30
0.0
  0
SEQEND
  5
1C9
330
1C6
100
AcDbEntity
  8
_U+30EC_U+30A4_U+30E4_U+30FC 1
 62
   179
420
  2234388
370
    25
  0
POLYLINE
  5
1CA
330
1F
100
AcDbEntity
  8
_U+30EC_U+30A4_U+30E4_U+30FC 1
 62
   179
420
  2234388
370
    25
100
AcDb2dPolyline
 66
     1
 10
0.0
 20
0.0
 30
0.0
  0
VERTEX
  5
1CB
330
1CA
100
AcDbEntity
  8
_U+30EC_U+30A4_U+30E4_U+30FC 1
 62
   179
420
  2234388
370
    25
100
AcDbVertex
100
AcDb2dVertex
 10
98.52490415308695
 20
-125.7204749685697
 30
0.0
  0
VERTEX
  5
1CC
330
1CA
100
AcDbEntity
  8
_U+30EC_U+30A4_U+30E4_U+30FC 1
 62
   179
420
  2234388
370
    25
100
AcDbVertex
100
AcDb2dVertex
 10
97.93784666806404
 20
-125.3084658020063
 30
0.0
  0
SEQEND
  5
1CD
330
1CA
100
AcDbEntity
  8
_U+30EC_U+30A4_U+30E4_U+30FC 1
 62
   179
420
  2234388
370
    25
  0
POLYLINE
  5
1CE
330
1F
100
AcDbEntity
  8
_U+30EC_U+30A4_U+30E4_U+30FC 1
 62
   179
420
  2234388
370
    25
100
AcDb2dPolyline
 66
     1
 10
0.0
 20
0.0
 30
0.0
  0
VERTEX
  5
1CF
330
1CE
100
AcDbEntity
  8
_U+30EC_U+30A4_U+30E4_U+30FC 1
 62
   179
420
  2234388
370
    25
100
AcDbVertex
100
AcDb2dVertex
 10
97.33427918346233
 20
-125.6970505241313
 30
0.0
  0
VERTEX
  5
1D0
330
1CE
100
AcDbEntity
  8
_U+30EC_U+30A4_U+30E4_U+30FC 1
 62
   179
420
  2234388
370
    25
100
AcDbVertex
100
AcDb2dVertex
 10
96.74722169843942
 20
-125.2850413575678
 30
0.0
  0
SEQEND
  5
1D1
330
1CE
100
AcDbEntity
  8
_U+30EC_U+30A4_U+30E4_U+30FC 1
 62
   179
420
  2234388
370
    25
  0
POLYLINE
  5
1D2
330
1F
100
AcDbEntity
  8
_U+30EC_U+30A4_U+30E4_U+30FC 1
 62
   179
420
  2234388
370
    25
100
AcDb2dPolyline
 66
     1
 10
0.0
 20
0.0
 30
0.0
  0
VERTEX
  5
1D3
330
1D2
100
AcDbEntity
  8
_U+30EC_U+30A4_U+30E4_U+30FC 1
 62
   179
420
  2234388
370
    25
100
AcDbVertex
100
AcDb2dVertex
 10
99.12780135992799
 20
-125.3325605242224
 30
0.0
  0
VERTEX
  5
1D4
330
1D2
100
AcDbEntity
  8
_U+30EC_U+30A4_U+30E4_U+30FC 1
 62
   179
420
  2234388
370
    25
100
AcDbVertex
100
AcDb2dVertex
 10
98.52490415308695
 20
-125.7204749685697
 30
0.0
  0
SEQEND
  5
1D5
330
1D2
100
AcDbEntity
  8
_U+30EC_U+30A4_U+30E4_U+30FC 1
 62
   179
420
  2234388
370
    25
  0
POLYLINE
  5
1D6
330
1F
100
AcDbEntity
  8
_U+30EC_U+30A4_U+30E4_U+30FC 1
 62
   179
420
  2234388
370
    25
100
AcDb2dPolyline
 66
     1
 10
0.0
 20
0.0
 30
0.0
  0
VERTEX
  5
1D7
330
1D6
100
AcDbEntity
  8
_U+30EC_U+30A4_U+30E4_U+30FC 1
 62
   179
420
  2234388
370
    25
100
AcDbVertex
100
AcDb2dVertex
 10
100.9054838145755
 20
-125.7680294130026
 30
0.0
  0
VERTEX
  5
1D8
330
1D6
100
AcDbEntity
  8
_U+30EC_U+30A4_U+30E4_U+30FC 1
 62
   179
420
  2234388
370
    25
100
AcDbVertex
100
AcDb2dVertex
 10
100.3184263295526
 20
-125.3566905242164
 30
0.0
  0
SEQEND
  5
1D9
330
1D6
100
AcDbEntity
  8
_U+30EC_U+30A4_U+30E4_U+30FC 1
 62
   179
420
  2234388
370
    25
  0
POLYLINE
  5
1DA
330
1F
100
AcDbEntity
  8
_U+30EC_U+30A4_U+30E4_U+30FC 1
 62
   179
420
  2234388
370
    25
100
AcDb2dPolyline
 66
     1
 10
0.0
 20
0.0
 30
0.0
  0
VERTEX
  5
1DB
330
1DA
100
AcDbEntity
  8
_U+30EC_U+30A4_U+30E4_U+30FC 1
 62
   179
420
  2234388
370
    25
100
AcDbVertex
100
AcDb2dVertex
 10
100.3184263295526
 20
-125.3566905242164
 30
0.0
  0
VERTEX
  5
1DC
330
1DA
100
AcDbEntity
  8
_U+30EC_U+30A4_U+30E4_U+30FC 1
 62
   179
420
  2234388
370
    25
100
AcDbVertex
100
AcDb2dVertex
 10
99.71552912271159
 20
-125.7446049685637
 30
0.0
  0
SEQEND
  5
1DD
330
1DA
100
AcDbEntity
  8
_U+30EC_U+30A4_U+30E4_U+30FC 1
 62
   179
420
  2234388
370
    25
  0
POLYLINE
  5
1DE
330
1F
100
AcDbEntity
  8
_U+30EC_U+30A4_U+30E4_U+30FC 1
 62
   179
420
  2234388
370
    25
100
AcDb2dPolyline
 66
     1
 10
0.0
 20
0.0
 30
0.0
  0
VERTEX
  5
1DF
330
1DE
100
AcDbEntity
  8
_U+30EC_U+30A4_U+30E4_U+30FC 1
 62
   179
420
  2234388
370
    25
100
AcDbVertex
100
AcDb2dVertex
 10
101.5090512991772
 20
-125.3801149686549
 30
0.0
  0
VERTEX
  5
1E0
330
1DE
100
AcDbEntity
  8
_U+30EC_U+30A4_U+30E4_U+30FC 1
 62
   179
420
  2234388
370
    25
100
AcDbVertex
100
AcDb2dVertex
 10
100.9054838145755
 20
-125.7680294130026
 30
0.0
  0
SEQEND
  5
1E1
330
1DE
100
AcDbEntity
  8
_U+30EC_U+30A4_U+30E4_U+30FC 1
 62
   179
420
  2234388
370
    25
  0
POLYLINE
  5
1E2
330
1F
100
AcDbEntity
  8
_U+30EC_U+30A4_U+30E4_U+30FC 1
 62
   179
420
  2234388
370
    25
100
AcDb2dPolyline
 66
     1
 10
0.0
 20
0.0
 30
0.0
  0
VERTEX
  5
1E3
330
1E2
100
AcDbEntity
  8
_U+30EC_U+30A4_U+30E4_U+30FC 1
 62
   179
420
  2234388
370
    25
100
AcDbVertex
100
AcDb2dVertex
 10
99.71552912271159
 20
-125.7446049685637
 30
0.0
  0
VERTEX
  5
1E4
330
1E2
100
AcDbEntity
  8
_U+30EC_U+30A4_U+30E4_U+30FC 1
 62
   179
420
  2234388
370
    25
100
AcDbVertex
100
AcDb2dVertex
 10
99.12780135992799
 20
-125.3325605242224
 30
0.0
  0
SEQEND
  5
1E5
330
1E2
100
AcDbEntity
  8
_U+30EC_U+30A4_U+30E4_U+30FC 1
 62
   179
420
  2234388
370
    25
  0
POLYLINE
  5
1E6
330
1F
100
AcDbEntity
  8
_U+30EC_U+30A4_U+30E4_U+30FC 1
 62
   179
420
  2234388
370
    25
100
AcDb2dPolyline
 66
     1
 10
0.0
 20
0.0
 30
0.0
  0
VERTEX
  5
1E7
330
1E6
100
AcDbEntity
  8
_U+30EC_U+30A4_U+30E4_U+30FC 1
 62
   179
420
  2234388
370
    25
100
AcDbVertex
100
AcDb2dVertex
 10
103.2867337538248
 20
-125.815583857435
 30
0.0
  0
VERTEX
  5
1E8
330
1E6
100
AcDbEntity
  8
_U+30EC_U+30A4_U+30E4_U+30FC 1
 62
   179
420
  2234388
370
    25
100
AcDbVertex
100
AcDb2dVertex
 10
102.6996762688019
 20
-125.4042449686489
 30
0.0
  0
SEQEND
  5
1E9
330
1E6
100
AcDbEntity
  8
_U+30EC_U+30A4_U+30E4_U+30FC 1
 62
   179
420
  2234388
370
    25
  0
POLYLINE
  5
1EA
330
1F
100
AcDbEntity
  8
_U+30EC_U+30A4_U+30E4_U+30FC 1
 62
   179
420
  2234388
370
    25
100
AcDb2dPolyline
 66
     1
 10
0.0
 20
0.0
 30
0.0
  0
VERTEX
  5
1EB
330
1EA
100
AcDbEntity
  8
_U+30EC_U+30A4_U+30E4_U+30FC 1
 62
   179
420
  2234388
370
    25
100
AcDbVertex
100
AcDb2dVertex
 10
102.0961087842002
 20
-125.7921594129966
 30
0.0
  0
VERTEX
  5
1EC
330
1EA
100
AcDbEntity
  8
_U+30EC_U+30A4_U+30E4_U+30FC 1
 62
   179
420
  2234388
370
    25
100
AcDbVertex
100
AcDb2dVertex
 10
101.5090512991772
 20
-125.3801149686549
 30
0.0
  0
SEQEND
  5
1ED
330
1EA
100
AcDbEntity
  8
_U+30EC_U+30A4_U+30E4_U+30FC 1
 62
   179
420
  2234388
370
    25
  0
POLYLINE
  5
1EE
330
1F
100
AcDbEntity
  8
_U+30EC_U+30A4_U+30E4_U+30FC 1
 62
   179
420
  2234388
370
    25
100
AcDb2dPolyline
 66
     1
 10
0.0
 20
0.0
 30
0.0
  0
VERTEX
  5
1EF
330
1EE
100
AcDbEntity
  8
_U+30EC_U+30A4_U+30E4_U+30FC 1
 62
   179
420
  2234388
370
    25
100
AcDbVertex
100
AcDb2dVertex
 10
103.8895956828889
 20
-125.4276694130874
 30
0.0
  0
VERTEX
  5
1F0
330
1EE
100
AcDbEntity
  8
_U+30EC_U+30A4_U+30E4_U+30FC 1
 62
   179
420
  2234388
370
    25
100
AcDbVertex
100
AcDb2dVertex
 10
103.2867337538248
 20
-125.815583857435
 30
0.0
  0
SEQEND
  5
1F1
330
1EE
100
AcDbEntity
  8
_U+30EC_U+30A4_U+30E4_U+30FC 1
 62
   179
420
  2234388
370
    25
  0
POLYLINE
  5
1F2
330
1F
100
AcDbEntity
  8
_U+30EC_U+30A4_U+30E4_U+30FC 1
 62
   179
420
  2234388
370
    25
100
AcDb2dPolyline
 66
     1
 10
0.0
 20
0.0
 30
0.0
  0
VERTEX
  5
1F3
330
1F2
100
AcDbEntity
  8
_U+30EC_U+30A4_U+30E4_U+30FC 1
 62
   179
420
  2234388
370
    25
100
AcDbVertex
100
AcDb2dVertex
 10
79.7649937983588
 20
-125.9278730240736
 30
0.0
  0
VERTEX
  5
1F4
330
1F2
100
AcDbEntity
  8
_U+30EC_U+30A4_U+30E4_U+30FC 1
 62
   179
420
  2234388
370
    25
100
AcDbVertex
100
AcDb2dVertex
 10
79.8897027578053
 20
-133.9280969109623
 30
0.0
  0
SEQEND
  5
1F5
330
1F2
100
AcDbEntity
  8
_U+30EC_U+30A4_U+30E4_U+30FC 1
 62
   179
420
  2234388
370
    25
  0
POLYLINE
  5
1F6
330
1F
100
AcDbEntity
  8
_U+30EC_U+30A4_U+30E4_U+30FC 1
 62
   179
420
  2234388
370
    25
100
AcDb2dPolyline
 66
     1
 10
0.0
 20
0.0
 30
0.0
  0
VERTEX
  5
1F7
330
1F6
100
AcDbEntity
  8
_U+30EC_U+30A4_U+30E4_U+30FC 1
 62
   179
420
  2234388
370
    25
100
AcDbVertex
100
AcDb2dVertex
 10
102.6996762688019
 20
-125.4042449686489
 30
0.0
  0
VERTEX
  5
1F8
330
1F6
100
AcDbEntity
  8
_U+30EC_U+30A4_U+30E4_U+30FC 1
 62
   179
420
  2234388
370
    25
100
AcDbVertex
100
AcDb2dVertex
 10
102.0961087842002
 20
-125.7921594129966
 30
0.0
  0
SEQEND
  5
1F9
330
1F6
100
AcDbEntity
  8
_U+30EC_U+30A4_U+30E4_U+30FC 1
 62
   179
420
  2234388
370
    25
  0
POLYLINE
  5
1FA
330
1F
100
AcDbEntity
  8
_U+30EC_U+30A4_U+30E4_U+30FC 1
 62
   179
420
  2234388
370
    25
100
AcDb2dPolyline
 66
     1
 10
0.0
 20
0.0
 30
0.0
  0
VERTEX
  5
1FB
330
1FA
100
AcDbEntity
  8
_U+30EC_U+30A4_U+30E4_U+30FC 1
 62
   179
420
  2234388
370
    25
100
AcDbVertex
100
AcDb2dVertex
 10
103.8895956828889
 20
-125.4276694130874
 30
0.0
  0
VERTEX
  5
1FC
330
1FA
100
AcDbEntity
  8
_U+30EC_U+30A4_U+30E4_U+30FC 1
 62
   179
420
  2234388
370
    25
100
AcDbVertex
100
AcDb2dVertex
 10
103.8895956828889
 20
-125.9278730240736
 30
0.0
  0
SEQEND
  5
1FD
330
1FA
100
AcDbEntity
  8
_U+30EC_U+30A4_U+30E4_U+30FC 1
 62
   179
420
  2234388
370
    25
  0
POLYLINE
  5
1FE
330
1F
100
AcDbEntity
  8
_U+30EC_U+30A4_U+30E4_U+30FC 1
 62
   179
420
  2234388
370
    25
100
AcDb2dPolyline
 66
     1
 10
0.0
 20
0.0
 30
0.0
  0
VERTEX
  5
1FF
330
1FE
100
AcDbEntity
  8
_U+30EC_U+30A4_U+30E4_U+30FC 1
 62
   179
420
  2234388
370
    25
100
AcDbVertex
100
AcDb2dVertex
 10
78.88993053583307
 20
-124.9281360798792
 30
0.0
  0
VERTEX
  5
200
330
1FE
100
AcDbEntity
  8
_U+30EC_U+30A4_U+30E4_U+30FC 1
 62
   179
420
  2234388
370
    25
100
AcDbVertex
100
AcDb2dVertex
 10
79.0146354841687
 20
-132.9276191334348
 30
0.0
  0
SEQEND
  5
201
330
1FE
100
AcDbEntity
  8
_U+30EC_U+30A4_U+30E4_U+30FC 1
 62
   179
420
  2234388
370
    25
  0
POLYLINE
  5
202
330
1F
100
AcDbEntity
  8
_U+30EC_U+30A4_U+30E4_U+30FC 1
 62
   179
420
  2234388
370
    25
100
AcDb2dPolyline
 66
     1
 10
0.0
 20
0.0
 30
0.0
  0
VERTEX
  5
203
330
202
100
AcDbEntity
  8
_U+30EC_U+30A4_U+30E4_U+30FC 1
 62
   179
420
  2234388
370
    25
100
AcDbVertex
100
AcDb2dVertex
 10
103.8895956828889
 20
-125.9278730240736
 30
0.0
  0
VERTEX
  5
204
330
202
100
AcDbEntity
  8
_U+30EC_U+30A4_U+30E4_U+30FC 1
 62
   179
420
  2234388
370
    25
100
AcDbVertex
100
AcDb2dVertex
 10
79.7649937983588
 20
-125.9278730240736
 30
0.0
  0
SEQEND
  5
205
330
202
100
AcDbEntity
  8
_U+30EC_U+30A4_U+30E4_U+30FC 1
 62
   179
420
  2234388
370
    25
  0
SPLINE
  5
206
330
1F
100
AcDbEntity
  8
_U+30EC_U+30A4_U+30E4_U+30FC 1
 62
   179
420
  2234388
370
     9
100
AcDbSpline
210
0.0
220
0.0
230
1.0
 70
    11
 71
     3
 72
    17
 73
    13
 74
     0
 42
0.0000000001
 43
0.0000000001
 12
1.0
 22
0.0
 32
0.0
 13
1.0
 23
0.0
 33
0.0
 40
0.0
 40
0.0
 40
0.0
 40
0.0
 40
1.0
 40
1.0
 40
1.0
 40
2.0
 40
2.0
 40
2.0
 40
3.0
 40
3.0
 40
3.0
 40
4.0
 40
4.0
 40
4.0
 40
4.0
 10
52.99021948144021
 20
-120.9276713586568
 30
0.0
 10
52.99021948144021
 20
-120.8725674697819
 30
0.0
 10
52.94541670480545
 20
-120.8277646920152
 30
0.0
 10
52.89031281732237
 20
-120.8277646920152
 30
0.0
 10
52.83485615207052
 20
-120.8277646920152
 30
0.0
 10
52.79005337543576
 20
-120.8725674697819
 30
0.0
 10
52.79005337543576
 20
-120.9276713586568
 30
0.0
 10
52.79005337543576
 20
-120.9831280253098
 30
0.0
 10
52.83485615207052
 20
-121.0279308030762
 30
0.0
 10
52.89031281732237
 20
-121.0279308030762
 30
0.0
 10
52.94541670480545
 20
-121.0279308030762
 30
0.0
 10
52.99021948144021
 20
-120.9831280253098
 30
0.0
 10
52.99021948144021
 20
-120.9276713586568
 30
0.0
  0
SPLINE
  5
207
330
1F
100
AcDbEntity
  8
_U+30EC_U+30A4_U+30E4_U+30FC 1
 62
   179
420
  2234388
370
     9
100
AcDbSpline
210
0.0
220
0.0
230
1.0
 70
    11
 71
     3
 72
    17
 73
    13
 74
     0
 42
0.0000000001
 43
0.0000000001
 12
1.0
 22
0.0
 32
0.0
 13
1.0
 23
0.0
 33
0.0
 40
0.0
 40
0.0
 40
0.0
 40
0.0
 40
1.0
 40
1.0
 40
1.0
 40
2.0
 40
2.0
 40
2.0
 40
3.0
 40
3.0
 40
3.0
 40
4.0
 40
4.0
 40
4.0
 40
4.0
 10
48.99010763904712
 20
-125.4276694130874
 30
0.0
 10
48.99010763904712
 20
-125.3725302464347
 30
0.0
 10
48.94534014018923
 20
-125.3277627464458
 30
0.0
 10
48.89020097492929
 20
-125.3277627464458
 30
0.0
 10
48.83509708744621
 20
-125.3277627464458
 30
0.0
 10
48.79029431081145
 20
-125.3725302464347
 30
0.0
 10
48.79029431081145
 20
-125.4276694130874
 30
0.0
 10
48.79029431081145
 20
-125.4827733019627
 30
0.0
 10
48.83509708744621
 20
-125.5275760797294
 30
0.0
 10
48.89020097492929
 20
-125.5275760797294
 30
0.0
 10
48.94534014018923
 20
-125.5275760797294
 30
0.0
 10
48.99010763904712
 20
-125.4827733019627
 30
0.0
 10
48.99010763904712
 20
-125.4276694130874
 30
0.0
  0
SPLINE
  5
208
330
1F
100
AcDbEntity
  8
_U+30EC_U+30A4_U+30E4_U+30FC 1
 62
   179
420
  2234388
370
     9
100
AcDbSpline
210
0.0
220
0.0
230
1.0
 70
    11
 71
     3
 72
    17
 73
    13
 74
     0
 42
0.0000000001
 43
0.0000000001
 12
1.0
 22
0.0
 32
0.0
 13
1.0
 23
0.0
 33
0.0
 40
0.0
 40
0.0
 40
0.0
 40
0.0
 40
1.0
 40
1.0
 40
1.0
 40
2.0
 40
2.0
 40
2.0
 40
3.0
 40
3.0
 40
3.0
 40
4.0
 40
4.0
 40
4.0
 40
4.0
 10
48.99010763904712
 20
-125.9278730240736
 30
0.0
 10
48.99010763904712
 20
-125.8727691351984
 30
0.0
 10
48.94534014018923
 20
-125.827966357432
 30
0.0
 10
48.89020097492929
 20
-125.827966357432
 30
0.0
 10
48.83509708744621
 20
-125.827966357432
 30
0.0
 10
48.79029431081145
 20
-125.8727691351984
 30
0.0
 10
48.79029431081145
 20
-125.9278730240736
 30
0.0
 10
48.79029431081145
 20
-125.9830121907264
 30
0.0
 10
48.83509708744621
 20
-126.0277796907152
 30
0.0
 10
48.89020097492929
 20
-126.0277796907152
 30
0.0
 10
48.94534014018923
 20
-126.0277796907152
 30
0.0
 10
48.99010763904712
 20
-125.9830121907264
 30
0.0
 10
48.99010763904712
 20
-125.9278730240736
 30
0.0
  0
SPLINE
  5
209
330
1F
100
AcDbEntity
  8
_U+30EC_U+30A4_U+30E4_U+30FC 1
 62
   179
420
  2234388
370
     9
100
AcDbSpline
210
0.0
220
0.0
230
1.0
 70
    11
 71
     3
 72
    17
 73
    13
 74
     0
 42
0.0000000001
 43
0.0000000001
 12
1.0
 22
0.0
 32
0.0
 13
1.0
 23
0.0
 33
0.0
 40
0.0
 40
0.0
 40
0.0
 40
0.0
 40
1.0
 40
1.0
 40
1.0
 40
2.0
 40
2.0
 40
2.0
 40
3.0
 40
3.0
 40
3.0
 40
4.0
 40
4.0
 40
4.0
 40
4.0
 10
48.99010763904712
 20
-133.9280969109623
 30
0.0
 10
48.99010763904712
 20
-133.8729577443098
 30
0.0
 10
48.94534014018923
 20
-133.8281902443206
 30
0.0
 10
48.89020097492929
 20
-133.8281902443206
 30
0.0
 10
48.83509708744621
 20
-133.8281902443206
 30
0.0
 10
48.79029431081145
 20
-133.8729577443098
 30
0.0
 10
48.79029431081145
 20
-133.9280969109623
 30
0.0
 10
48.79029431081145
 20
-133.9832007998378
 30
0.0
 10
48.83509708744621
 20
-134.0280035776039
 30
0.0
 10
48.89020097492929
 20
-134.0280035776039
 30
0.0
 10
48.94534014018923
 20
-134.0280035776039
 30
0.0
 10
48.99010763904712
 20
-133.9832007998378
 30
0.0
 10
48.99010763904712
 20
-133.9280969109623
 30
0.0
  0
SPLINE
  5
20A
330
1F
100
AcDbEntity
  8
_U+30EC_U+30A4_U+30E4_U+30FC 1
 62
   179
420
  2234388
370
     9
100
AcDbSpline
210
0.0
220
0.0
230
1.0
 70
    11
 71
     3
 72
    17
 73
    13
 74
     0
 42
0.0000000001
 43
0.0000000001
 12
1.0
 22
0.0
 32
0.0
 13
1.0
 23
0.0
 33
0.0
 40
0.0
 40
0.0
 40
0.0
 40
0.0
 40
1.0
 40
1.0
 40
1.0
 40
2.0
 40
2.0
 40
2.0
 40
3.0
 40
3.0
 40
3.0
 40
4.0
 40
4.0
 40
4.0
 40
4.0
 10
77.99006301030774
 20
-120.9276713586568
 30
0.0
 10
77.99006301030774
 20
-120.8725674697819
 30
0.0
 10
77.94529551144984
 20
-120.8277646920152
 30
0.0
 10
77.89015831386085
 20
-120.8277646920152
 30
0.0
 10
77.83505245870683
 20
-120.8277646920152
 30
0.0
 10
77.79024968207206
 20
-120.8725674697819
 30
0.0
 10
77.79024968207206
 20
-120.9276713586568
 30
0.0
 10
77.79024968207206
 20
-120.9831280253098
 30
0.0
 10
77.83505245870683
 20
-121.0279308030762
 30
0.0
 10
77.89015831386085
 20
-121.0279308030762
 30
0.0
 10
77.94529551144984
 20
-121.0279308030762
 30
0.0
 10
77.99006301030774
 20
-120.9831280253098
 30
0.0
 10
77.99006301030774
 20
-120.9276713586568
 30
0.0
  0
SPLINE
  5
20B
330
1F
100
AcDbEntity
  8
_U+30EC_U+30A4_U+30E4_U+30FC 1
 62
   179
420
  2234388
370
     9
100
AcDbSpline
210
0.0
220
0.0
230
1.0
 70
    11
 71
     3
 72
    17
 73
    13
 74
     0
 42
0.0000000001
 43
0.0000000001
 12
1.0
 22
0.0
 32
0.0
 13
1.0
 23
0.0
 33
0.0
 40
0.0
 40
0.0
 40
0.0
 40
0.0
 40
1.0
 40
1.0
 40
1.0
 40
2.0
 40
2.0
 40
2.0
 40
3.0
 40
3.0
 40
3.0
 40
4.0
 40
4.0
 40
4.0
 40
4.0
 10
78.98983520702363
 20
-120.9276713586568
 30
0.0
 10
78.98983520702363
 20
-120.8725674697819
 30
0.0
 10
78.94506770816575
 20
-120.8277646920152
 30
0.0
 10
78.88993053583307
 20
-120.8277646920152
 30
0.0
 10
78.83482465542274
 20
-120.8277646920152
 30
0.0
 10
78.79002187878797
 20
-120.8725674697819
 30
0.0
 10
78.79002187878797
 20
-120.9276713586568
 30
0.0
 10
78.79002187878797
 20
-120.9831280253098
 30
0.0
 10
78.83482465542274
 20
-121.0279308030762
 30
0.0
 10
78.88993053583307
 20
-121.0279308030762
 30
0.0
 10
78.94506770816575
 20
-121.0279308030762
 30
0.0
 10
78.98983520702363
 20
-120.9831280253098
 30
0.0
 10
78.98983520702363
 20
-120.9276713586568
 30
0.0
  0
SPLINE
  5
20C
330
1F
100
AcDbEntity
  8
_U+30EC_U+30A4_U+30E4_U+30FC 1
 62
   179
420
  2234388
370
     9
100
AcDbSpline
210
0.0
220
0.0
230
1.0
 70
    11
 71
     3
 72
    17
 73
    13
 74
     0
 42
0.0000000001
 43
0.0000000001
 12
1.0
 22
0.0
 32
0.0
 13
1.0
 23
0.0
 33
0.0
 40
0.0
 40
0.0
 40
0.0
 40
0.0
 40
1.0
 40
1.0
 40
1.0
 40
2.0
 40
2.0
 40
2.0
 40
3.0
 40
3.0
 40
3.0
 40
4.0
 40
4.0
 40
4.0
 40
4.0
 10
103.9902079025443
 20
-120.9276713586568
 30
0.0
 10
103.9902079025443
 20
-120.8725674697819
 30
0.0
 10
103.9454051259096
 20
-120.8277646920152
 30
0.0
 10
103.8895956828889
 20
-120.8277646920152
 30
0.0
 10
103.8344944184861
 20
-120.8277646920152
 30
0.0
 10
103.7896916407194
 20
-120.8725674697819
 30
0.0
 10
103.7896916407194
 20
-120.9276713586568
 30
0.0
 10
103.7896916407194
 20
-120.9831280253098
 30
0.0
 10
103.8344944184861
 20
-121.0279308030762
 30
0.0
 10
103.8895956828889
 20
-121.0279308030762
 30
0.0
 10
103.9454051259096
 20
-121.0279308030762
 30
0.0
 10
103.9902079025443
 20
-120.9831280253098
 30
0.0
 10
103.9902079025443
 20
-120.9276713586568
 30
0.0
  0
SPLINE
  5
20D
330
1F
100
AcDbEntity
  8
_U+30EC_U+30A4_U+30E4_U+30FC 1
 62
   179
420
  2234388
370
     9
100
AcDbSpline
210
0.0
220
0.0
230
1.0
 70
    11
 71
     3
 72
    17
 73
    13
 74
     0
 42
0.0000000001
 43
0.0000000001
 12
1.0
 22
0.0
 32
0.0
 13
1.0
 23
0.0
 33
0.0
 40
0.0
 40
0.0
 40
0.0
 40
0.0
 40
1.0
 40
1.0
 40
1.0
 40
2.0
 40
2.0
 40
2.0
 40
3.0
 40
3.0
 40
3.0
 40
4.0
 40
4.0
 40
4.0
 40
4.0
 10
79.98960740373954
 20
-137.9278560766291
 30
0.0
 10
79.98960740373954
 20
-137.872716909976
 30
0.0
 10
79.94480462710479
 20
-137.8279494099875
 30
0.0
 10
79.8897027578053
 20
-137.8279494099875
 30
0.0
 10
79.83456157436176
 20
-137.8279494099875
 30
0.0
 10
79.78979407550388
 20
-137.872716909976
 30
0.0
 10
79.78979407550388
 20
-137.9278560766291
 30
0.0
 10
79.78979407550388
 20
-137.9829599655041
 30
0.0
 10
79.83456157436176
 20
-138.0277627432708
 30
0.0
 10
79.8897027578053
 20
-138.0277627432708
 30
0.0
 10
79.94480462710479
 20
-138.0277627432708
 30
0.0
 10
79.98960740373954
 20
-137.9829599655041
 30
0.0
 10
79.98960740373954
 20
-137.9278560766291
 30
0.0
  0
SPLINE
  5
20E
330
1F
100
AcDbEntity
  8
_U+30EC_U+30A4_U+30E4_U+30FC 1
 62
   179
420
  2234388
370
     9
100
AcDbSpline
210
0.0
220
0.0
230
1.0
 70
    11
 71
     3
 72
    17
 73
    13
 74
     0
 42
0.0000000001
 43
0.0000000001
 12
1.0
 22
0.0
 32
0.0
 13
1.0
 23
0.0
 33
0.0
 40
0.0
 40
0.0
 40
0.0
 40
0.0
 40
1.0
 40
1.0
 40
1.0
 40
2.0
 40
2.0
 40
2.0
 40
3.0
 40
3.0
 40
3.0
 40
4.0
 40
4.0
 40
4.0
 40
4.0
 10
76.99029081359183
 20
-137.9278560766291
 30
0.0
 10
76.99029081359183
 20
-137.872716909976
 30
0.0
 10
76.94552331473393
 20
-137.8279494099875
 30
0.0
 10
76.88971387171331
 20
-137.8279494099875
 30
0.0
 10
76.83457470645335
 20
-137.8279494099875
 30
0.0
 10
76.78980720759547
 20
-137.872716909976
 30
0.0
 10
76.78980720759547
 20
-137.9278560766291
 30
0.0
 10
76.78980720759547
 20
-137.9829599655041
 30
0.0
 10
76.83457470645335
 20
-138.0277627432708
 30
0.0
 10
76.88971387171331
 20
-138.0277627432708
 30
0.0
 10
76.94552331473393
 20
-138.0277627432708
 30
0.0
 10
76.99029081359183
 20
-137.9829599655041
 30
0.0
 10
76.99029081359183
 20
-137.9278560766291
 30
0.0
  0
POLYLINE
  5
20F
330
1F
100
AcDbEntity
  8
_U+30EC_U+30A4_U+30E4_U+30FC 1
 62
   179
420
  2234388
370
     9
100
AcDb2dPolyline
 66
     1
 10
0.0
 20
0.0
 30
0.0
  0
VERTEX
  5
210
330
20F
100
AcDbEntity
  8
_U+30EC_U+30A4_U+30E4_U+30FC 1
 62
   179
420
  2234388
370
     9
100
AcDbVertex
100
AcDb2dVertex
 10
52.89031281732237
 20
-120.9276713586568
 30
0.0
  0
VERTEX
  5
211
330
20F
100
AcDbEntity
  8
_U+30EC_U+30A4_U+30E4_U+30FC 1
 62
   179
420
  2234388
370
     9
100
AcDbVertex
100
AcDb2dVertex
 10
77.89015831386085
 20
-120.9276713586568
 30
0.0
  0
SEQEND
  5
212
330
20F
100
AcDbEntity
  8
_U+30EC_U+30A4_U+30E4_U+30FC 1
 62
   179
420
  2234388
370
     9
  0
POLYLINE
  5
213
330
1F
100
AcDbEntity
  8
_U+30EC_U+30A4_U+30E4_U+30FC 1
 62
   179
420
  2234388
370
     9
100
AcDb2dPolyline
 66
     1
 10
0.0
 20
0.0
 30
0.0
  0
VERTEX
  5
214
330
213
100
AcDbEntity
  8
_U+30EC_U+30A4_U+30E4_U+30FC 1
 62
   179
420
  2234388
370
     9
100
AcDbVertex
100
AcDb2dVertex
 10
52.89031281732237
 20
-122.8879516359446
 30
0.0
  0
VERTEX
  5
215
330
213
100
AcDbEntity
  8
_U+30EC_U+30A4_U+30E4_U+30FC 1
 62
   179
420
  2234388
370
     9
100
AcDbVertex
100
AcDb2dVertex
 10
52.89031281732237
 20
-119.9278991366846
 30
0.0
  0
SEQEND
  5
216
330
213
100
AcDbEntity
  8
_U+30EC_U+30A4_U+30E4_U+30FC 1
 62
   179
420
  2234388
370
     9
  0
POLYLINE
  5
217
330
1F
100
AcDbEntity
  8
_U+30EC_U+30A4_U+30E4_U+30FC 1
 62
   179
420
  2234388
370
     9
100
AcDb2dPolyline
 66
     1
 10
0.0
 20
0.0
 30
0.0
  0
VERTEX
  5
218
330
217
100
AcDbEntity
  8
_U+30EC_U+30A4_U+30E4_U+30FC 1
 62
   179
420
  2234388
370
     9
100
AcDbVertex
100
AcDb2dVertex
 10
77.89015831386085
 20
-122.887775247056
 30
0.0
  0
VERTEX
  5
219
330
217
100
AcDbEntity
  8
_U+30EC_U+30A4_U+30E4_U+30FC 1
 62
   179
420
  2234388
370
     9
100
AcDbVertex
100
AcDb2dVertex
 10
77.89015831386085
 20
-119.9278991366846
 30
0.0
  0
SEQEND
  5
21A
330
217
100
AcDbEntity
  8
_U+30EC_U+30A4_U+30E4_U+30FC 1
 62
   179
420
  2234388
370
     9
  0
INSERT
  5
21C
330
1F
100
AcDbEntity
  8
_U+30EC_U+30A4_U+30E4_U+30FC 1
100
AcDbBlockReference
  2
block 3
 10
0.0
 20
0.0
 30
0.0
  0
POLYLINE
  5
223
330
1F
100
AcDbEntity
  8
_U+30EC_U+30A4_U+30E4_U+30FC 1
 62
   179
420
  2234388
370
     9
100
AcDb2dPolyline
 66
     1
 10
0.0
 20
0.0
 30
0.0
  0
VERTEX
  5
224
330
223
100
AcDbEntity
  8
_U+30EC_U+30A4_U+30E4_U+30FC 1
 62
   179
420
  2234388
370
     9
100
AcDbVertex
100
AcDb2dVertex
 10
103.8895956828889
 20
-120.9276713586568
 30
0.0
  0
VERTEX
  5
225
330
223
100
AcDbEntity
  8
_U+30EC_U+30A4_U+30E4_U+30FC 1
 62
   179
420
  2234388
370
     9
100
AcDbVertex
100
AcDb2dVertex
 10
78.88993053583307
 20
-120.9276713586568
 30
0.0
  0
SEQEND
  5
226
330
223
100
AcDbEntity
  8
_U+30EC_U+30A4_U+30E4_U+30FC 1
 62
   179
420
  2234388
370
     9
  0
POLYLINE
  5
227
330
1F
100
AcDbEntity
  8
_U+30EC_U+30A4_U+30E4_U+30FC 1
 62
   179
420
  2234388
370
     9
100
AcDb2dPolyline
 66
     1
 10
0.0
 20
0.0
 30
0.0
  0
VERTEX
  5
228
330
227
100
AcDbEntity
  8
_U+30EC_U+30A4_U+30E4_U+30FC 1
 62
   179
420
  2234388
370
     9
100
AcDbVertex
100
AcDb2dVertex
 10
103.8895956828889
 20
-122.8879516359446
 30
0.0
  0
VERTEX
  5
229
330
227
100
AcDbEntity
  8
_U+30EC_U+30A4_U+30E4_U+30FC 1
 62
   179
420
  2234388
370
     9
100
AcDbVertex
100
AcDb2dVertex
 10
103.8895956828889
 20
-119.9278991366846
 30
0.0
  0
SEQEND
  5
22A
330
227
100
AcDbEntity
  8
_U+30EC_U+30A4_U+30E4_U+30FC 1
 62
   179
420
  2234388
370
     9
  0
POLYLINE
  5
22B
330
1F
100
AcDbEntity
  8
_U+30EC_U+30A4_U+30E4_U+30FC 1
 62
   179
420
  2234388
370
     9
100
AcDb2dPolyline
 66
     1
 10
0.0
 20
0.0
 30
0.0
  0
VERTEX
  5
22C
330
22B
100
AcDbEntity
  8
_U+30EC_U+30A4_U+30E4_U+30FC 1
 62
   179
420
  2234388
370
     9
100
AcDbVertex
100
AcDb2dVertex
 10
78.88993053583307
 20
-122.887775247056
 30
0.0
  0
VERTEX
  5
22D
330
22B
100
AcDbEntity
  8
_U+30EC_U+30A4_U+30E4_U+30FC 1
 62
   179
420
  2234388
370
     9
100
AcDbVertex
100
AcDb2dVertex
 10
78.88993053583307
 20
-119.9278991366846
 30
0.0
  0
SEQEND
  5
22E
330
22B
100
AcDbEntity
  8
_U+30EC_U+30A4_U+30E4_U+30FC 1
 62
   179
420
  2234388
370
     9
  0
INSERT
  5
230
330
1F
100
AcDbEntity
  8
_U+30EC_U+30A4_U+30E4_U+30FC 1
100
AcDbBlockReference
  2
block 4
 10
0.0
 20
0.0
 30
0.0
  0
POLYLINE
  5
237
330
1F
100
AcDbEntity
  8
_U+30EC_U+30A4_U+30E4_U+30FC 1
 62
   179
420
  2234388
370
     9
100
AcDb2dPolyline
 66
     1
 10
0.0
 20
0.0
 30
0.0
  0
VERTEX
  5
238
330
237
100
AcDbEntity
  8
_U+30EC_U+30A4_U+30E4_U+30FC 1
 62
   179
420
  2234388
370
     9
100
AcDbVertex
100
AcDb2dVertex
 10
77.89015831386085
 20
-120.9276713586568
 30
0.0
  0
VERTEX
  5
239
330
237
100
AcDbEntity
  8
_U+30EC_U+30A4_U+30E4_U+30FC 1
 62
   179
420
  2234388
370
     9
100
AcDbVertex
100
AcDb2dVertex
 10
78.88993053583307
 20
-120.9276713586568
 30
0.0
  0
SEQEND
  5
23A
330
237
100
AcDbEntity
  8
_U+30EC_U+30A4_U+30E4_U+30FC 1
 62
   179
420
  2234388
370
     9
  0
INSERT
  5
23C
330
1F
100
AcDbEntity
  8
_U+30EC_U+30A4_U+30E4_U+30FC 1
100
AcDbBlockReference
  2
block 5
 10
0.0
 20
0.0
 30
0.0
  0
POLYLINE
  5
241
330
1F
100
AcDbEntity
  8
_U+30EC_U+30A4_U+30E4_U+30FC 1
 62
   179
420
  2234388
370
     9
100
AcDb2dPolyline
 66
     1
 10
0.0
 20
0.0
 30
0.0
  0
VERTEX
  5
242
330
241
100
AcDbEntity
  8
_U+30EC_U+30A4_U+30E4_U+30FC 1
 62
   179
420
  2234388
370
     9
100
AcDbVertex
100
AcDb2dVertex
 10
76.88971387171331
 20
-137.9278560766291
 30
0.0
  0
VERTEX
  5
243
330
241
100
AcDbEntity
  8
_U+30EC_U+30A4_U+30E4_U+30FC 1
 62
   179
420
  2234388
370
     9
100
AcDbVertex
100
AcDb2dVertex
 10
79.8897027578053
 20
-137.9278560766291
 30
0.0
  0
SEQEND
  5
244
330
241
100
AcDbEntity
  8
_U+30EC_U+30A4_U+30E4_U+30FC 1
 62
   179
420
  2234388
370
     9
  0
POLYLINE
  5
245
330
1F
100
AcDbEntity
  8
_U+30EC_U+30A4_U+30E4_U+30FC 1
 62
   179
420
  2234388
370
     9
100
AcDb2dPolyline
 66
     1
 10
0.0
 20
0.0
 30
0.0
  0
VERTEX
  5
246
330
245
100
AcDbEntity
  8
_U+30EC_U+30A4_U+30E4_U+30FC 1
 62
   179
420
  2234388
370
     9
100
AcDbVertex
100
AcDb2dVertex
 10
76.88971387171331
 20
-136.4678146881054
 30
0.0
  0
VERTEX
  5
247
330
245
100
AcDbEntity
  8
_U+30EC_U+30A4_U+30E4_U+30FC 1
 62
   179
420
  2234388
370
     9
100
AcDbVertex
100
AcDb2dVertex
 10
76.88971387171331
 20
-138.9275930208235
 30
0.0
  0
SEQEND
  5
248
330
245
100
AcDbEntity
  8
_U+30EC_U+30A4_U+30E4_U+30FC 1
 62
   179
420
  2234388
370
     9
  0
POLYLINE
  5
249
330
1F
100
AcDbEntity
  8
_U+30EC_U+30A4_U+30E4_U+30FC 1
 62
   179
420
  2234388
370
     9
100
AcDb2dPolyline
 66
     1
 10
0.0
 20
0.0
 30
0.0
  0
VERTEX
  5
24A
330
249
100
AcDbEntity
  8
_U+30EC_U+30A4_U+30E4_U+30FC 1
 62
   179
420
  2234388
370
     9
100
AcDbVertex
100
AcDb2dVertex
 10
79.8897027578053
 20
-136.4678146881054
 30
0.0
  0
VERTEX
  5
24B
330
249
100
AcDbEntity
  8
_U+30EC_U+30A4_U+30E4_U+30FC 1
 62
   179
420
  2234388
370
     9
100
AcDbVertex
100
AcDb2dVertex
 10
79.8897027578053
 20
-138.9275930208235
 30
0.0
  0
SEQEND
  5
24C
330
249
100
AcDbEntity
  8
_U+30EC_U+30A4_U+30E4_U+30FC 1
 62
   179
420
  2234388
370
     9
  0
INSERT
  5
24E
330
1F
100
AcDbEntity
  8
_U+30EC_U+30A4_U+30E4_U+30FC 1
100
AcDbBlockReference
  2
block 6
 10
0.0
 20
0.0
 30
0.0
  0
POLYLINE
  5
253
330
1F
100
AcDbEntity
  8
_U+30EC_U+30A4_U+30E4_U+30FC 1
 62
   179
420
  2234388
370
     9
100
AcDb2dPolyline
 66
     1
 10
0.0
 20
0.0
 30
0.0
  0
VERTEX
  5
254
330
253
100
AcDbEntity
  8
_U+30EC_U+30A4_U+30E4_U+30FC 1
 62
   179
420
  2234388
370
     9
100
AcDbVertex
100
AcDb2dVertex
 10
48.89020097492929
 20
-125.4276694130874
 30
0.0
  0
VERTEX
  5
255
330
253
100
AcDbEntity
  8
_U+30EC_U+30A4_U+30E4_U+30FC 1
 62
   179
420
  2234388
370
     9
100
AcDbVertex
100
AcDb2dVertex
 10
48.89020097492929
 20
-124.0709919134266
 30
0.0
  0
SEQEND
  5
256
330
253
100
AcDbEntity
  8
_U+30EC_U+30A4_U+30E4_U+30FC 1
 62
   179
420
  2234388
370
     9
  0
POLYLINE
  5
257
330
1F
100
AcDbEntity
  8
_U+30EC_U+30A4_U+30E4_U+30FC 1
 62
   179
420
  2234388
370
     9
100
AcDb2dPolyline
 66
     1
 10
0.0
 20
0.0
 30
0.0
  0
VERTEX
  5
258
330
257
100
AcDbEntity
  8
_U+30EC_U+30A4_U+30E4_U+30FC 1
 62
   179
420
  2234388
370
     9
100
AcDbVertex
100
AcDb2dVertex
 10
48.89020097492929
 20
-125.9278730240736
 30
0.0
  0
VERTEX
  5
259
330
257
100
AcDbEntity
  8
_U+30EC_U+30A4_U+30E4_U+30FC 1
 62
   179
420
  2234388
370
     9
100
AcDbVertex
100
AcDb2dVertex
 10
48.89020097492929
 20
-125.4276694130874
 30
0.0
  0
SEQEND
  5
25A
330
257
100
AcDbEntity
  8
_U+30EC_U+30A4_U+30E4_U+30FC 1
 62
   179
420
  2234388
370
     9
  0
POLYLINE
  5
25B
330
1F
100
AcDbEntity
  8
_U+30EC_U+30A4_U+30E4_U+30FC 1
 62
   179
420
  2234388
370
     9
100
AcDb2dPolyline
 66
     1
 10
0.0
 20
0.0
 30
0.0
  0
VERTEX
  5
25C
330
25B
100
AcDbEntity
  8
_U+30EC_U+30A4_U+30E4_U+30FC 1
 62
   179
420
  2234388
370
     9
100
AcDbVertex
100
AcDb2dVertex
 10
50.35024232656941
 20
-125.9278730240736
 30
0.0
  0
VERTEX
  5
25D
330
25B
100
AcDbEntity
  8
_U+30EC_U+30A4_U+30E4_U+30FC 1
 62
   179
420
  2234388
370
     9
100
AcDbVertex
100
AcDb2dVertex
 10
47.89042877821338
 20
-125.9278730240736
 30
0.0
  0
SEQEND
  5
25E
330
25B
100
AcDbEntity
  8
_U+30EC_U+30A4_U+30E4_U+30FC 1
 62
   179
420
  2234388
370
     9
  0
POLYLINE
  5
25F
330
1F
100
AcDbEntity
  8
_U+30EC_U+30A4_U+30E4_U+30FC 1
 62
   179
420
  2234388
370
     9
100
AcDb2dPolyline
 66
     1
 10
0.0
 20
0.0
 30
0.0
  0
VERTEX
  5
260
330
25F
100
AcDbEntity
  8
_U+30EC_U+30A4_U+30E4_U+30FC 1
 62
   179
420
  2234388
370
     9
100
AcDbVertex
100
AcDb2dVertex
 10
50.35024232656941
 20
-125.4276694130874
 30
0.0
  0
VERTEX
  5
261
330
25F
100
AcDbEntity
  8
_U+30EC_U+30A4_U+30E4_U+30FC 1
 62
   179
420
  2234388
370
     9
100
AcDbVertex
100
AcDb2dVertex
 10
47.89042877821338
 20
-125.4276694130874
 30
0.0
  0
SEQEND
  5
262
330
25F
100
AcDbEntity
  8
_U+30EC_U+30A4_U+30E4_U+30FC 1
 62
   179
420
  2234388
370
     9
  0
INSERT
  5
264
330
1F
100
AcDbEntity
  8
_U+30EC_U+30A4_U+30E4_U+30FC 1
100
AcDbBlockReference
  2
block 7
 10
0.0
 20
0.0
 30
0.0
  0
POLYLINE
  5
274
330
1F
100
AcDbEntity
  8
_U+30EC_U+30A4_U+30E4_U+30FC 1
 62
   179
420
  2234388
370
     9
100
AcDb2dPolyline
 66
     1
 10
0.0
 20
0.0
 30
0.0
  0
VERTEX
  5
275
330
274
100
AcDbEntity
  8
_U+30EC_U+30A4_U+30E4_U+30FC 1
 62
   179
420
  2234388
370
     9
100
AcDbVertex
100
AcDb2dVertex
 10
48.89020097492929
 20
-125.9278730240736
 30
0.0
  0
VERTEX
  5
276
330
274
100
AcDbEntity
  8
_U+30EC_U+30A4_U+30E4_U+30FC 1
 62
   179
420
  2234388
370
     9
100
AcDbVertex
100
AcDb2dVertex
 10
48.89020097492929
 20
-133.9280969109623
 30
0.0
  0
SEQEND
  5
277
330
274
100
AcDbEntity
  8
_U+30EC_U+30A4_U+30E4_U+30FC 1
 62
   179
420
  2234388
370
     9
  0
POLYLINE
  5
278
330
1F
100
AcDbEntity
  8
_U+30EC_U+30A4_U+30E4_U+30FC 1
 62
   179
420
  2234388
370
     9
100
AcDb2dPolyline
 66
     1
 10
0.0
 20
0.0
 30
0.0
  0
VERTEX
  5
279
330
278
100
AcDbEntity
  8
_U+30EC_U+30A4_U+30E4_U+30FC 1
 62
   179
420
  2234388
370
     9
100
AcDbVertex
100
AcDb2dVertex
 10
74.34999615872913
 20
-133.9280969109623
 30
0.0
  0
VERTEX
  5
27A
330
278
100
AcDbEntity
  8
_U+30EC_U+30A4_U+30E4_U+30FC 1
 62
   179
420
  2234388
370
     9
100
AcDbVertex
100
AcDb2dVertex
 10
47.89042877821338
 20
-133.9280969109623
 30
0.0
  0
SEQEND
  5
27B
330
278
100
AcDbEntity
  8
_U+30EC_U+30A4_U+30E4_U+30FC 1
 62
   179
420
  2234388
370
     9
  0
INSERT
  5
27D
330
1F
100
AcDbEntity
  8
_U+30EC_U+30A4_U+30E4_U+30FC 1
100
AcDbBlockReference
  2
block 8
 10
0.0
 20
0.0
 30
0.0
  0
POLYLINE
  5
284
330
1F
100
AcDbEntity
  8
_U+30EC_U+30A4_U+30E4_U+30FC 1
 62
   179
420
  2234388
370
     9
100
AcDb2dPolyline
 66
     1
 10
0.0
 20
0.0
 30
0.0
  0
VERTEX
  5
285
330
284
100
AcDbEntity
  8
_U+30EC_U+30A4_U+30E4_U+30FC 1
 62
   179
420
  2234388
370
     9
100
AcDbVertex
100
AcDb2dVertex
 10
78.32837689056551
 20
-131.0431508005726
 30
0.0
  0
VERTEX
  5
286
330
284
100
AcDbEntity
  8
_U+30EC_U+30A4_U+30E4_U+30FC 1
 62
   179
420
  2234388
370
     9
100
AcDbVertex
100
AcDb2dVertex
 10
86.32856529757481
 20
-131.0431508005726
 30
0.0
  0
SEQEND
  5
287
330
284
100
AcDbEntity
  8
_U+30EC_U+30A4_U+30E4_U+30FC 1
 62
   179
420
  2234388
370
     9
  0
INSERT
  5
289
330
1F
100
AcDbEntity
  8
_U+30EC_U+30A4_U+30E4_U+30FC 1
100
AcDbBlockReference
  2
block 9
 10
0.0
 20
0.0
 30
0.0
  0
INSERT
  5
28F
330
1F
100
AcDbEntity
  8
_U+30EC_U+30A4_U+30E4_U+30FC 1
100
AcDbBlockReference
  2
block 10
 10
0.0
 20
0.0
 30
0.0
  0
ENDSEC
  0
SECTION
  2
OBJECTS
  0
DICTIONARY
  5
C
330
0
100
AcDbDictionary
281
     1
  3
ACAD_GROUP
350
D
  3
ACAD_LAYOUT
350
1A
  3
ACAD_MATERIAL
350
3B
  3
ACAD_MLEADERSTYLE
350
2CC
  3
ACAD_MLINESTYLE
350
17
  3
ACAD_PLOTSETTINGS
350
19
  3
ACAD_PLOTSTYLENAME
350
E
  3
ACAD_TABLESTYLE
350
2CB
  3
ACAD_VISUALSTYLE
350
2A
  0
SUN
  5
3F
330
29
100
AcDbSun
 90
        1
290
     0
 63
     7
421
 16777215
 40
1.0
291
     1
 91
  2455826
 92
 54000000
292
     0
 70
     2
 71
   256
280
     1
  0
DICTIONARY
  5
D
102
{ACAD_REACTORS
330
C
102
}
330
C
100
AcDbDictionary
281
     1
  0
DICTIONARY
  5
1A
102
{ACAD_REACTORS
330
C
102
}
330
C
100
AcDbDictionary
281
     1
  3
Layout1
350
1E
  3
Layout2
350
26
  3
Model
350
22
  0
DICTIONARY
  5
3B
102
{ACAD_REACTORS
330
C
102
}
330
C
100
AcDbDictionary
281
     1
  3
ByBlock
350
3D
  3
ByLayer
350
3C
  3
Global
350
3E
  0
DICTIONARY
  5
2CC
102
{ACAD_REACTORS
330
C
102
}
330
C
100
AcDbDictionary
281
     1
  0
DICTIONARY
  5
17
102
{ACAD_REACTORS
330
C
102
}
330
C
100
AcDbDictionary
281
     1
  3
Standard
350
18
  0
DICTIONARY
  5
19
102
{ACAD_REACTORS
330
C
102
}
330
C
100
AcDbDictionary
281
     1
  0
ACDBDICTIONARYWDFLT
  5
E
102
{ACAD_REACTORS
330
C
102
}
330
C
100
AcDbDictionary
281
     1
  3
Normal
350
F
100
AcDbDictionaryWithDefault
340
F
  0
DICTIONARY
  5
2CB
102
{ACAD_REACTORS
330
C
102
}
330
C
100
AcDbDictionary
281
     1
  0
DICTIONARY
  5
2A
102
{ACAD_REACTORS
330
C
102
}
330
C
100
AcDbDictionary
281
     1
  3
2dWireframe
350
2F
  3
3D Hidden
350
31
  3
3dWireframe
350
30
  3
Basic
350
32
  3
Brighten
350
36
  3
ColorChange
350
3A
  3
Conceptual
350
34
  3
Dim
350
35
  3
Facepattern
350
39
  3
Flat
350
2B
  3
FlatWithEdges
350
2C
  3
Gouraud
350
2D
  3
GouraudWithEdges
350
2E
  3
Linepattern
350
38
  3
Realistic
350
33
  3
Thicken
350
37
  0
LAYOUT
  5
1E
102
{ACAD_REACTORS
330
1A
102
}
330
1A
100
AcDbPlotSettings
  1

  2
none_device
  4

  6

 40
0.0
 41
0.0
 42
0.0
 43
0.0
 44
0.0
 45
0.0
 46
0.0
 47
0.0
 48
0.0
 49
0.0
140
0.0
141
0.0
142
1.0
143
1.0
 70
   688
 72
     0
 73
     0
 74
     5
  7

 75
    16
 76
     0
 77
     2
 78
   300
147
1.0
148
0.0
149
0.0
100
AcDbLayout
  1
Layout1
 70
     1
 71
     1
 10
0.0
 20
0.0
 11
12.0
 21
9.0
 12
0.0
 22
0.0
 32
0.0
 14
1.000000000000000E+20
 24
1.000000000000000E+20
 34
1.000000000000000E+20
 15
-1.000000000000000E+20
 25
-1.000000000000000E+20
 35
-1.000000000000000E+20
146
0.0
 13
0.0
 23
0.0
 33
0.0
 16
1.0
 26
0.0
 36
0.0
 17
0.0
 27
1.0
 37
0.0
 76
     0
330
1B
  0
LAYOUT
  5
26
102
{ACAD_REACTORS
330
1A
102
}
330
1A
100
AcDbPlotSettings
  1

  2
none_device
  4

  6

 40
0.0
 41
0.0
 42
0.0
 43
0.0
 44
0.0
 45
0.0
 46
0.0
 47
0.0
 48
0.0
 49
0.0
140
0.0
141
0.0
142
1.0
143
1.0
 70
   688
 72
     0
 73
     0
 74
     5
  7

 75
    16
 76
     0
 77
     2
 78
   300
147
1.0
148
0.0
149
0.0
100
AcDbLayout
  1
Layout2
 70
     1
 71
     2
 10
0.0
 20
0.0
 11
0.0
 21
0.0
 12
0.0
 22
0.0
 32
0.0
 14
0.0
 24
0.0
 34
0.0
 15
0.0
 25
0.0
 35
0.0
146
0.0
 13
0.0
 23
0.0
 33
0.0
 16
1.0
 26
0.0
 36
0.0
 17
0.0
 27
1.0
 37
0.0
 76
     0
330
23
  0
LAYOUT
  5
22
102
{ACAD_REACTORS
330
1A
102
}
330
1A
100
AcDbPlotSettings
  1

  2
none_device
  4

  6

 40
0.0
 41
0.0
 42
0.0
 43
0.0
 44
0.0
 45
0.0
 46
0.0
 47
0.0
 48
0.0
 49
0.0
140
0.0
141
0.0
142
1.0
143
1.0
 70
  1712
 72
     0
 73
     0
 74
     0
  7

 75
     0
 76
     0
 77
     2
 78
   300
147
1.0
148
0.0
149
0.0
100
AcDbLayout
  1
Model
 70
     1
 71
     0
 10
0.0
 20
0.0
 11
12.0
 21
9.0
 12
0.0
 22
0.0
 32
0.0
 14
1.000000000000000E+20
 24
1.000000000000000E+20
 34
1.000000000000000E+20
 15
-1.000000000000000E+20
 25
-1.000000000000000E+20
 35
-1.000000000000000E+20
146
0.0
 13
0.0
 23
0.0
 33
0.0
 16
1.0
 26
0.0
 36
0.0
 17
0.0
 27
1.0
 37
0.0
 76
     0
330
1F
331
29
  0
MATERIAL
  5
3D
102
{ACAD_REACTORS
330
3B
102
}
330
3B
100
AcDbMaterial
  1
ByBlock
 72
     1
 94
      127
  0
MATERIAL
  5
3C
102
{ACAD_REACTORS
330
3B
102
}
330
3B
100
AcDbMaterial
  1
ByLayer
 72
     1
 94
      127
  0
MATERIAL
  5
3E
102
{ACAD_REACTORS
330
3B
102
}
330
3B
100
AcDbMaterial
  1
Global
 72
     1
 94
      127
  0
MLINESTYLE
  5
18
102
{ACAD_REACTORS
330
17
102
}
330
17
100
AcDbMlineStyle
  2
Standard
 70
     0
  3

 62
   256
 51
90.0
 52
90.0
 71
     2
 49
0.5
 62
   256
  6
BYLAYER
 49
-0.5
 62
   256
  6
BYLAYER
  0
ACDBPLACEHOLDER
  5
F
102
{ACAD_REACTORS
330
E
102
}
330
E
  0
VISUALSTYLE
  5
2F
102
{ACAD_REACTORS
330
2A
102
}
330
2A
100
AcDbVisualStyle
  2
2dWireframe
 70
     4
177
     2
291
     0
 71
     0
176
     1
 72
     2
176
     1
 73
     0
176
     1
 90
        0
176
     1
 40
-0.6
176
     1
 41
-30.0
176
     1
 62
     5
 63
     7
421
 16777215
176
     1
 74
     1
176
     1
 91
        4
176
     1
 64
     7
176
     1
 65
   257
176
     1
 75
     1
176
     1
175
     1
176
     1
 42
1.0
176
     1
 92
        0
176
     1
 66
   257
176
     1
 43
1.0
176
     1
 76
     1
176
     1
 77
     6
176
     1
 78
     2
176
     1
 67
     7
176
     1
 79
     5
176
     1
170
     0
176
     1
171
     0
176
     1
290
     0
176
     1
 93
        1
176
     1
 44
0.0
176
     1
173
     0
176
     1
  0
VISUALSTYLE
  5
31
102
{ACAD_REACTORS
330
2A
102
}
330
2A
100
AcDbVisualStyle
  2
3D Hidden
 70
     6
177
     2
291
     0
 71
     1
176
     1
 72
     2
176
     1
 73
     2
176
     1
 90
        0
176
     1
 40
-0.6
176
     1
 41
-30.0
176
     1
 62
     5
 63
     7
421
 16777215
176
     1
 74
     2
176
     1
 91
        2
176
     1
 64
     7
176
     1
 65
   257
176
     1
 75
     2
176
     1
175
     1
176
     1
 42
40.0
176
     1
 92
        0
176
     1
 66
   257
176
     1
 43
1.0
176
     1
 76
     1
176
     1
 77
     6
176
     1
 78
     2
176
     1
 67
     7
176
     1
 79
     3
176
     1
170
     0
176
     1
171
     0
176
     1
290
     0
176
     1
 93
        1
176
     1
 44
0.0
176
     1
173
     0
176
     1
  0
VISUALSTYLE
  5
30
102
{ACAD_REACTORS
330
2A
102
}
330
2A
100
AcDbVisualStyle
  2
3dWireframe
 70
     5
177
     2
291
     0
 71
     0
176
     1
 72
     2
176
     1
 73
     0
176
     1
 90
        0
176
     1
 40
-0.6
176
     1
 41
-30.0
176
     1
 62
     5
 63
     7
421
 16777215
176
     1
 74
     1
176
     1
 91
        4
176
     1
 64
     7
176
     1
 65
   257
176
     1
 75
     1
176
     1
175
     1
176
     1
 42
1.0
176
     1
 92
        0
176
     1
 66
   257
176
     1
 43
1.0
176
     1
 76
     1
176
     1
 77
     6
176
     1
 78
     2
176
     1
 67
     7
176
     1
 79
     5
176
     1
170
     0
176
     1
171
     0
176
     1
290
     0
176
     1
 93
        1
176
     1
 44
0.0
176
     1
173
     0
176
     1
  0
VISUALSTYLE
  5
32
102
{ACAD_REACTORS
330
2A
102
}
330
2A
100
AcDbVisualStyle
  2
Basic
 70
     7
177
     2
291
     1
 71
     1
176
     1
 72
     0
176
     1
 73
     1
176
     1
 90
        0
176
     1
 40
-0.6
176
     1
 41
-30.0
176
     1
 62
     5
 63
     7
421
 16777215
176
     1
 74
     0
176
     1
 91
        4
176
     1
 64
     7
176
     1
 65
   257
176
     1
 75
     1
176
     1
175
     1
176
     1
 42
1.0
176
     1
 92
        8
176
     1
 66
     7
176
     1
 43
1.0
176
     1
 76
     1
176
     1
 77
     6
176
     1
 78
     2
176
     1
 67
     7
176
     1
 79
     5
176
     1
170
     0
176
     1
171
     0
176
     1
290
     0
176
     1
 93
        1
176
     1
 44
0.0
176
     1
173
     0
176
     1
  0
VISUALSTYLE
  5
36
102
{ACAD_REACTORS
330
2A
102
}
330
2A
100
AcDbVisualStyle
  2
Brighten
 70
    12
177
     2
291
     1
 71
     2
176
     1
 72
     2
176
     1
 73
     0
176
     1
 90
        0
176
     1
 40
-0.6
176
     1
 41
-30.0
176
     1
 62
     5
 63
     7
421
 16777215
176
     1
 74
     1
176
     1
 91
        4
176
     1
 64
     7
176
     1
 65
   257
176
     1
 75
     1
176
     1
175
     1
176
     1
 42
1.0
176
     1
 92
        8
176
     1
 66
     7
176
     1
 43
1.0
176
     1
 76
     1
176
     1
 77
     6
176
     1
 78
     2
176
     1
 67
     7
176
     1
 79
     5
176
     1
170
     0
176
     1
171
     0
176
     1
290
     0
176
     1
 93
        1
176
     1
 44
50.0
176
     1
173
     0
176
     1
  0
VISUALSTYLE
  5
3A
102
{ACAD_REACTORS
330
2A
102
}
330
2A
100
AcDbVisualStyle
  2
ColorChange
 70
    16
177
     2
291
     1
 71
     2
176
     1
 72
     2
176
     1
 73
     3
176
     1
 90
        0
176
     1
 40
-0.6
176
     1
 41
-30.0
176
     1
 62
     5
 63
     8
421
  8421504
176
     1
 74
     1
176
     1
 91
        4
176
     1
 64
     7
176
     1
 65
   257
176
     1
 75
     1
176
     1
175
     1
176
     1
 42
1.0
176
     1
 92
        8
176
     1
 66
     8
424
  8421504
176
     1
 43
1.0
176
     1
 76
     1
176
     1
 77
     6
176
     1
 78
     2
176
     1
 67
     7
176
     1
 79
     5
176
     1
170
     0
176
     1
171
     0
176
     1
290
     0
176
     1
 93
        1
176
     1
 44
0.0
176
     1
173
     0
176
     1
  0
VISUALSTYLE
  5
34
102
{ACAD_REACTORS
330
2A
102
}
330
2A
100
AcDbVisualStyle
  2
Conceptual
 70
     9
177
     2
291
     0
 71
     3
176
     1
 72
     2
176
     1
 73
     0
176
     1
 90
        0
176
     1
 40
-0.6
176
     1
 41
-30.0
176
     1
 62
     5
 63
     7
421
 16777215
176
     1
 74
     2
176
     1
 91
        2
176
     1
 64
     7
176
     1
 65
   257
176
     1
 75
     1
176
     1
175
     1
176
     1
 42
40.0
176
     1
 92
        8
176
     1
 66
     7
176
     1
 43
1.0
176
     1
 76
     1
176
     1
 77
     6
176
     1
 78
     2
176
     1
 67
     7
176
     1
 79
     3
176
     1
170
     0
176
     1
171
     0
176
     1
290
     0
176
     1
 93
        1
176
     1
 44
0.0
176
     1
173
     0
176
     1
  0
VISUALSTYLE
  5
35
102
{ACAD_REACTORS
330
2A
102
}
330
2A
100
AcDbVisualStyle
  2
Dim
 70
    11
177
     2
291
     1
 71
     2
176
     1
 72
     2
176
     1
 73
     0
176
     1
 90
        0
176
     1
 40
-0.6
176
     1
 41
-30.0
176
     1
 62
     5
 63
     7
421
 16777215
176
     1
 74
     1
176
     1
 91
        4
176
     1
 64
     7
176
     1
 65
   257
176
     1
 75
     1
176
     1
175
     1
176
     1
 42
1.0
176
     1
 92
        8
176
     1
 66
     7
176
     1
 43
1.0
176
     1
 76
     1
176
     1
 77
     6
176
     1
 78
     2
176
     1
 67
     7
176
     1
 79
     5
176
     1
170
     0
176
     1
171
     0
176
     1
290
     0
176
     1
 93
        1
176
     1
 44
-50.0
176
     1
173
     0
176
     1
  0
VISUALSTYLE
  5
39
102
{ACAD_REACTORS
330
2A
102
}
330
2A
100
AcDbVisualStyle
  2
Facepattern
 70
    15
177
     2
291
     1
 71
     2
176
     1
 72
     2
176
     1
 73
     0
176
     1
 90
        0
176
     1
 40
-0.6
176
     1
 41
-30.0
176
     1
 62
     5
 63
     7
421
 16777215
176
     1
 74
     1
176
     1
 91
        4
176
     1
 64
     7
176
     1
 65
   257
176
     1
 75
     1
176
     1
175
     1
176
     1
 42
1.0
176
     1
 92
        8
176
     1
 66
     7
176
     1
 43
1.0
176
     1
 76
     1
176
     1
 77
     6
176
     1
 78
     2
176
     1
 67
     7
176
     1
 79
     5
176
     1
170
     0
176
     1
171
     0
176
     1
290
     0
176
     1
 93
        1
176
     1
 44
0.0
176
     1
173
     0
176
     1
  0
VISUALSTYLE
  5
2B
102
{ACAD_REACTORS
330
2A
102
}
330
2A
100
AcDbVisualStyle
  2
Flat
 70
     0
177
     2
291
     1
 71
     2
176
     1
 72
     1
176
     1
 73
     1
176
     1
 90
        2
176
     1
 40
-0.6
176
     1
 41
30.0
176
     1
 62
     5
 63
     7
421
 16777215
176
     1
 74
     0
176
     1
 91
        4
176
     1
 64
     7
176
     1
 65
   257
176
     1
 75
     1
176
     1
175
     1
176
     1
 42
1.0
176
     1
 92
        8
176
     1
 66
     7
176
     1
 43
1.0
176
     1
 76
     1
176
     1
 77
     6
176
     1
 78
     2
176
     1
 67
     7
176
     1
 79
     5
176
     1
170
     0
176
     1
171
     0
176
     1
290
     0
176
     1
 93
       13
176
     1
 44
0.0
176
     1
173
     0
176
     1
  0
VISUALSTYLE
  5
2C
102
{ACAD_REACTORS
330
2A
102
}
330
2A
100
AcDbVisualStyle
  2
FlatWithEdges
 70
     1
177
     2
291
     1
 71
     2
176
     1
 72
     1
176
     1
 73
     1
176
     1
 90
        2
176
     1
 40
-0.6
176
     1
 41
30.0
176
     1
 62
     5
 63
     7
421
 16777215
176
     1
 74
     1
176
     1
 91
        4
176
     1
 64
     7
176
     1
 65
   257
176
     1
 75
     1
176
     1
175
     1
176
     1
 42
1.0
176
     1
 92
        0
176
     1
 66
   257
176
     1
 43
1.0
176
     1
 76
     1
176
     1
 77
     6
176
     1
 78
     2
176
     1
 67
     7
176
     1
 79
     5
176
     1
170
     0
176
     1
171
     0
176
     1
290
     0
176
     1
 93
       13
176
     1
 44
0.0
176
     1
173
     0
176
     1
  0
VISUALSTYLE
  5
2D
102
{ACAD_REACTORS
330
2A
102
}
330
2A
100
AcDbVisualStyle
  2
Gouraud
 70
     2
177
     2
291
     1
 71
     2
176
     1
 72
     2
176
     1
 73
     1
176
     1
 90
        2
176
     1
 40
-0.6
176
     1
 41
30.0
176
     1
 62
     5
 63
     7
421
 16777215
176
     1
 74
     0
176
     1
 91
        4
176
     1
 64
     7
176
     1
 65
   257
176
     1
 75
     1
176
     1
175
     1
176
     1
 42
1.0
176
     1
 92
        0
176
     1
 66
     7
176
     1
 43
1.0
176
     1
 76
     1
176
     1
 77
     6
176
     1
 78
     2
176
     1
 67
     7
176
     1
 79
     5
176
     1
170
     0
176
     1
171
     0
176
     1
290
     0
176
     1
 93
       13
176
     1
 44
0.0
176
     1
173
     0
176
     1
  0
VISUALSTYLE
  5
2E
102
{ACAD_REACTORS
330
2A
102
}
330
2A
100
AcDbVisualStyle
  2
GouraudWithEdges
 70
     3
177
     2
291
     1
 71
     2
176
     1
 72
     2
176
     1
 73
     1
176
     1
 90
        2
176
     1
 40
-0.6
176
     1
 41
30.0
176
     1
 62
     5
 63
     7
421
 16777215
176
     1
 74
     1
176
     1
 91
        4
176
     1
 64
     7
176
     1
 65
   257
176
     1
 75
     1
176
     1
175
     1
176
     1
 42
1.0
176
     1
 92
        0
176
     1
 66
   257
176
     1
 43
1.0
176
     1
 76
     1
176
     1
 77
     6
176
     1
 78
     2
176
     1
 67
     7
176
     1
 79
     5
176
     1
170
     0
176
     1
171
     0
176
     1
290
     0
176
     1
 93
       13
176
     1
 44
0.0
176
     1
173
     0
176
     1
  0
VISUALSTYLE
  5
38
102
{ACAD_REACTORS
330
2A
102
}
330
2A
100
AcDbVisualStyle
  2
Linepattern
 70
    14
177
     2
291
     1
 71
     2
176
     1
 72
     2
176
     1
 73
     0
176
     1
 90
        0
176
     1
 40
-0.6
176
     1
 41
-30.0
176
     1
 62
     5
 63
     7
421
 16777215
176
     1
 74
     1
176
     1
 91
        4
176
     1
 64
     7
176
     1
 65
   257
176
     1
 75
     7
176
     1
175
     7
176
     1
 42
1.0
176
     1
 92
        8
176
     1
 66
     7
176
     1
 43
1.0
176
     1
 76
     1
176
     1
 77
     6
176
     1
 78
     2
176
     1
 67
     7
176
     1
 79
     5
176
     1
170
     0
176
     1
171
     0
176
     1
290
     0
176
     1
 93
        1
176
     1
 44
0.0
176
     1
173
     0
176
     1
  0
VISUALSTYLE
  5
33
102
{ACAD_REACTORS
330
2A
102
}
330
2A
100
AcDbVisualStyle
  2
Realistic
 70
     8
177
     2
291
     0
 71
     2
176
     1
 72
     2
176
     1
 73
     0
176
     1
 90
        0
176
     1
 40
-0.6
176
     1
 41
-30.0
176
     1
 62
     5
 63
     7
421
 16777215
176
     1
 74
     1
176
     1
 91
        0
176
     1
 64
     7
176
     1
 65
   257
176
     1
 75
     1
176
     1
175
     1
176
     1
 42
1.0
176
     1
 92
        8
176
     1
 66
     8
424
  7895160
176
     1
 43
1.0
176
     1
 76
     1
176
     1
 77
     6
176
     1
 78
     2
176
     1
 67
     7
176
     1
 79
     5
176
     1
170
     0
176
     1
171
     0
176
     1
290
     0
176
     1
 93
       13
176
     1
 44
0.0
176
     1
173
     0
176
     1
  0
VISUALSTYLE
  5
37
102
{ACAD_REACTORS
330
2A
102
}
330
2A
100
AcDbVisualStyle
  2
Thicken
 70
    13
177
     2
291
     1
 71
     2
176
     1
 72
     2
176
     1
 73
     0
176
     1
 90
        0
176
     1
 40
-0.6
176
     1
 41
-30.0
176
     1
 62
     5
 63
     7
421
 16777215
176
     1
 74
     1
176
     1
 91
        4
176
     1
 64
     7
176
     1
 65
   257
176
     1
 75
     1
176
     1
175
     1
176
     1
 42
1.0
176
     1
 92
       12
176
     1
 66
     7
176
     1
 43
1.0
176
     1
 76
     1
176
     1
 77
     6
176
     1
 78
     2
176
     1
 67
     7
176
     1
 79
     5
176
     1
170
     0
176
     1
171
     0
176
     1
290
     0
176
     1
 93
        1
176
     1
 44
0.0
176
     1
173
     0
176
     1
  0
ENDSEC
  0
EOF
