  0
SECTION
  2
HEADER
  9
$ACADVER
  1
AC1024
  9
$ACADMAINTVER
 70
     6
  9
$DWGCODEPAGE
  3
UNDEFINED
  9
$INSBASE
 10
0.0
 20
0.0
 30
0.0
  9
$EXTMIN
 10
1.000000000000000E+20
 20
1.000000000000000E+20
 30
1.000000000000000E+20
  9
$EXTMAX
 10
-1.000000000000000E+20
 20
-1.000000000000000E+20
 30
-1.000000000000000E+20
  9
$LIMMIN
 10
0.0
 20
0.0
  9
$LIMMAX
 10
12.0
 20
9.0
  9
$ORTHOMODE
 70
     0
  9
$REGENMODE
 70
     1
  9
$FILLMODE
 70
     1
  9
$QTEXTMODE
 70
     0
  9
$MIRRTEXT
 70
     1
  9
$LTSCALE
 40
1.0
  9
$ATTMODE
 70
     1
  9
$TEXTSIZE
 40
0.2
  9
$TRACEWID
 40
0.05
  9
$TEXTSTYLE
  7
Standard
  9
$CLAYER
  8
0
  9
$CELTYPE
  6
ByLayer
  9
$CECOLOR
 62
   256
  9
$CELTSCALE
 40
1.0
  9
$DISPSILH
 70
     0
  9
$DIMSCALE
 40
1.0
  9
$DIMASZ
 40
0.18
  9
$DIMEXO
 40
0.0625
  9
$DIMDLI
 40
0.38
  9
$DIMRND
 40
0.0
  9
$DIMDLE
 40
0.0
  9
$DIMEXE
 40
0.18
  9
$DIMTP
 40
0.0
  9
$DIMTM
 40
0.0
  9
$DIMTXT
 40
0.18
  9
$DIMCEN
 40
0.09
  9
$DIMTSZ
 40
0.0
  9
$DIMTOL
 70
     0
  9
$DIMLIM
 70
     0
  9
$DIMTIH
 70
     1
  9
$DIMTOH
 70
     1
  9
$DIMSE1
 70
     0
  9
$DIMSE2
 70
     0
  9
$DIMTAD
 70
     0
  9
$DIMZIN
 70
     0
  9
$DIMBLK
  1

  9
$DIMASO
 70
     1
  9
$DIMSHO
 70
     1
  9
$DIMPOST
  1

  9
$DIMAPOST
  1

  9
$DIMALT
 70
     0
  9
$DIMALTD
 70
     2
  9
$DIMALTF
 40
25.4
  9
$DIMLFAC
 40
1.0
  9
$DIMTOFL
 70
     0
  9
$DIMTVP
 40
0.0
  9
$DIMTIX
 70
     0
  9
$DIMSOXD
 70
     0
  9
$DIMSAH
 70
     0
  9
$DIMBLK1
  1

  9
$DIMBLK2
  1

  9
$DIMSTYLE
  2
Standard
  9
$DIMCLRD
 70
     0
  9
$DIMCLRE
 70
     0
  9
$DIMCLRT
 70
     0
  9
$DIMTFAC
 40
1.0
  9
$DIMGAP
 40
0.09
  9
$DIMJUST
 70
     0
  9
$DIMSD1
 70
     0
  9
$DIMSD2
 70
     0
  9
$DIMTOLJ
 70
     1
  9
$DIMTZIN
 70
     0
  9
$DIMALTZ
 70
     0
  9
$DIMALTTZ
 70
     0
  9
$DIMUPT
 70
     0
  9
$DIMDEC
 70
     4
  9
$DIMTDEC
 70
     4
  9
$DIMALTU
 70
     2
  9
$DIMALTTD
 70
     2
  9
$DIMTXSTY
  7
Standard
  9
$DIMAUNIT
 70
     0
  9
$DIMADEC
 70
     0
  9
$DIMALTRND
 40
0.0
  9
$DIMAZIN
 70
     0
  9
$DIMDSEP
 70
    46
  9
$DIMATFIT
 70
     3
  9
$DIMFRAC
 70
     0
  9
$DIMLDRBLK
  1

  9
$DIMLUNIT
 70
     2
  9
$DIMLWD
 70
    -2
  9
$DIMLWE
 70
    -2
  9
$DIMTMOVE
 70
     0
  9
$DIMFXL
 40
1.0
  9
$DIMFXLON
 70
     0
  9
$DIMJOGANG
 40
0.7853981633974483
  9
$DIMTFILL
 70
     0
  9
$DIMTFILLCLR
 70
     0
  9
$DIMARCSYM
 70
     0
  9
$DIMLTYPE
  6

  9
$DIMLTEX1
  6

  9
$DIMLTEX2
  6

  9
$DIMTXTDIRECTION
 70
     0
  9
$LUNITS
 70
     2
  9
$LUPREC
 70
     4
  9
$SKETCHINC
 40
0.1
  9
$FILLETRAD
 40
0.5
  9
$AUNITS
 70
     0
  9
$AUPREC
 70
     0
  9
$MENU
  1
.
  9
$ELEVATION
 40
0.0
  9
$PELEVATION
 40
0.0
  9
$THICKNESS
 40
0.0
  9
$LIMCHECK
 70
     0
  9
$CHAMFERA
 40
0.5
  9
$CHAMFERB
 40
0.5
  9
$CHAMFERC
 40
1.0
  9
$CHAMFERD
 40
0.0
  9
$SKPOLY
 70
     0
  9
$TDCREATE
 40
2457917.597916667
  9
$TDUCREATE
 40
2457917.222916667
  9
$TDUPDATE
 40
2457917.597916667
  9
$TDUUPDATE
 40
2457917.222916667
  9
$TDINDWG
 40
0.0000000116
  9
$TDUSRTIMER
 40
0.0000000116
  9
$USRTIMER
 70
     1
  9
$ANGBASE
 50
0.0
  9
$ANGDIR
 70
     0
  9
$PDMODE
 70
     0
  9
$PDSIZE
 40
0.0
  9
$PLINEWID
 40
0.0
  9
$SPLFRAME
 70
     0
  9
$SPLINETYPE
 70
     6
  9
$SPLINESEGS
 70
     8
  9
$HANDSEED
  5
28E
  9
$SURFTAB1
 70
     6
  9
$SURFTAB2
 70
     6
  9
$SURFTYPE
 70
     6
  9
$SURFU
 70
     6
  9
$SURFV
 70
     6
  9
$UCSBASE
  2

  9
$UCSNAME
  2

  9
$UCSORG
 10
0.0
 20
0.0
 30
0.0
  9
$UCSXDIR
 10
1.0
 20
0.0
 30
0.0
  9
$UCSYDIR
 10
0.0
 20
1.0
 30
0.0
  9
$UCSORTHOREF
  2

  9
$UCSORTHOVIEW
 70
     0
  9
$UCSORGTOP
 10
0.0
 20
0.0
 30
0.0
  9
$UCSORGBOTTOM
 10
0.0
 20
0.0
 30
0.0
  9
$UCSORGLEFT
 10
0.0
 20
0.0
 30
0.0
  9
$UCSORGRIGHT
 10
0.0
 20
0.0
 30
0.0
  9
$UCSORGFRONT
 10
0.0
 20
0.0
 30
0.0
  9
$UCSORGBACK
 10
0.0
 20
0.0
 30
0.0
  9
$PUCSBASE
  2

  9
$PUCSNAME
  2

  9
$PUCSORG
 10
0.0
 20
0.0
 30
0.0
  9
$PUCSXDIR
 10
1.0
 20
0.0
 30
0.0
  9
$PUCSYDIR
 10
0.0
 20
1.0
 30
0.0
  9
$PUCSORTHOREF
  2

  9
$PUCSORTHOVIEW
 70
     0
  9
$PUCSORGTOP
 10
0.0
 20
0.0
 30
0.0
  9
$PUCSORGBOTTOM
 10
0.0
 20
0.0
 30
0.0
  9
$PUCSORGLEFT
 10
0.0
 20
0.0
 30
0.0
  9
$PUCSORGRIGHT
 10
0.0
 20
0.0
 30
0.0
  9
$PUCSORGFRONT
 10
0.0
 20
0.0
 30
0.0
  9
$PUCSORGBACK
 10
0.0
 20
0.0
 30
0.0
  9
$USERI1
 70
     0
  9
$USERI2
 70
     0
  9
$USERI3
 70
     0
  9
$USERI4
 70
     0
  9
$USERI5
 70
     0
  9
$USERR1
 40
0.0
  9
$USERR2
 40
0.0
  9
$USERR3
 40
0.0
  9
$USERR4
 40
0.0
  9
$USERR5
 40
0.0
  9
$WORLDVIEW
 70
     1
  9
$SHADEDGE
 70
     3
  9
$SHADEDIF
 70
    70
  9
$TILEMODE
 70
     1
  9
$MAXACTVP
 70
    64
  9
$PINSBASE
 10
0.0
 20
0.0
 30
0.0
  9
$PLIMCHECK
 70
     0
  9
$PEXTMIN
 10
1.000000000000000E+20
 20
1.000000000000000E+20
 30
1.000000000000000E+20
  9
$PEXTMAX
 10
-1.000000000000000E+20
 20
-1.000000000000000E+20
 30
-1.000000000000000E+20
  9
$PLIMMIN
 10
0.0
 20
0.0
  9
$PLIMMAX
 10
12.0
 20
9.0
  9
$UNITMODE
 70
     0
  9
$VISRETAIN
 70
     1
  9
$PLINEGEN
 70
     0
  9
$PSLTSCALE
 70
     1
  9
$TREEDEPTH
 70
  3020
  9
$CMLSTYLE
  2
Standard
  9
$CMLJUST
 70
     0
  9
$CMLSCALE
 40
1.0
  9
$PROXYGRAPHICS
 70
     1
  9
$MEASUREMENT
 70
     0
  9
$CELWEIGHT
370
    -1
  9
$ENDCAPS
280
     0
  9
$JOINSTYLE
280
     0
  9
$LWDISPLAY
290
     1
  9
$INSUNITS
 70
     1
  9
$HYPERLINKBASE
  1

  9
$STYLESHEET
  1

  9
$XEDIT
290
     1
  9
$CEPSNTYPE
380
     0
  9
$PSTYLEMODE
290
     1
  9
$FINGERPRINTGUID
  2
{4BA61632-453E-8639-83F5-EE753AF1EFF5}
  9
$VERSIONGUID
  2
{FAEB1C32-E019-11D5-929B-00C0DF256EC4}
  9
$EXTNAMES
290
     1
  9
$PSVPSCALE
 40
0.0
  9
$OLESTARTUP
290
     0
  9
$SORTENTS
280
   127
  9
$INDEXCTL
280
     0
  9
$HIDETEXT
280
     1
  9
$XCLIPFRAME
280
     2
  9
$HALOGAP
280
     0
  9
$OBSCOLOR
 70
   257
  9
$OBSLTYPE
280
     0
  9
$INTERSECTIONDISPLAY
280
     0
  9
$INTERSECTIONCOLOR
 70
   257
  9
$DIMASSOC
280
     2
  9
$PROJECTNAME
  1

  9
$CAMERADISPLAY
290
     0
  9
$LENSLENGTH
 40
50.0
  9
$CAMERAHEIGHT
 40
0.0
  9
$STEPSPERSEC
 40
2.0
  9
$STEPSIZE
 40
6.0
  9
$3DDWFPREC
 40
2.0
  9
$PSOLWIDTH
 40
0.25
  9
$PSOLHEIGHT
 40
4.0
  9
$LOFTANG1
 40
1.570796326794897
  9
$LOFTANG2
 40
1.570796326794897
  9
$LOFTMAG1
 40
0.0
  9
$LOFTMAG2
 40
0.0
  9
$LOFTPARAM
 70
     7
  9
$LOFTNORMALS
280
     1
  9
$LATITUDE
 40
37.795
  9
$LONGITUDE
 40
-122.394
  9
$NORTHDIRECTION
 40
0.0
  9
$TIMEZONE
 70
 -8000
  9
$LIGHTGLYPHDISPLAY
280
     1
  9
$TILEMODELIGHTSYNCH
280
     1
  9
$CMATERIAL
347
3C
  9
$SOLIDHIST
280
     1
  9
$SHOWHIST
280
     1
  9
$DWFFRAME
280
     2
  9
$DGNFRAME
280
     2
  9
$REALWORLDSCALE
290
     1
  9
$INTERFERECOLOR
 62
   256
  9
$CSHADOW
280
     0
  9
$SHADOWPLANELOCATION
 40
0.0
  0
ENDSEC
  0
SECTION
  2
CLASSES
  0
CLASS
  1
ACDBDICTIONARYWDFLT
  2
AcDbDictionaryWithDefault
  3
ObjectDBX Classes
 90
        0
 91
        4
280
     0
281
     0
  0
CLASS
  1
VISUALSTYLE
  2
AcDbVisualStyle
  3
ObjectDBX Classes
 90
     4095
 91
        4
280
     0
281
     0
  0
CLASS
  1
MATERIAL
  2
AcDbMaterial
  3
ObjectDBX Classes
 90
     1153
 91
        4
280
     0
281
     0
  0
CLASS
  1
SUN
  2
AcDbSun
  3
SCENEOE
 90
     1024
 91
        4
280
     0
281
     0
  0
ENDSEC
  0
SECTION
  2
TABLES
  0
TABLE
  2
VPORT
  5
8
330
0
100
AcDbSymbolTable
 70
     1
  0
VPORT
  5
29
330
8
100
AcDbSymbolTableRecord
100
AcDbViewportTableRecord
  2
*Active
 70
     0
 10
0.0
 20
0.0
 11
1.0
 21
1.0
 12
0.0
 22
0.0
 13
0.0
 23
0.0
 14
0.5
 24
0.5
 15
0.5
 25
0.5
 16
0.0
 26
0.0
 36
1.0
 17
91.00082462281999
 27
-128.4993055234307
 37
0.0
 40
256.9986110468615
 41
0.7081814508812795
 42
50.0
 43
0.0
 44
0.0
 50
0.0
 51
0.0
 71
     0
 72
   100
 73
     1
 74
     3
 75
     0
 76
     0
 77
     0
 78
     0
281
     0
 65
     1
110
0.0
120
0.0
130
0.0
111
1.0
121
0.0
131
0.0
112
0.0
122
1.0
132
0.0
 79
     0
146
0.0
 60
     3
 61
     5
292
     1
282
     1
141
0.0
142
0.0
 63
   250
361
3F
  0
ENDTAB
  0
TABLE
  2
LTYPE
  5
5
330
0
100
AcDbSymbolTable
 70
     3
  0
LTYPE
  5
14
330
5
100
AcDbSymbolTableRecord
100
AcDbLinetypeTableRecord
  2
ByBlock
 70
     0
  3

 72
    65
 73
     0
 40
0.0
  0
LTYPE
  5
15
330
5
100
AcDbSymbolTableRecord
100
AcDbLinetypeTableRecord
  2
ByLayer
 70
     0
  3

 72
    65
 73
     0
 40
0.0
  0
LTYPE
  5
16
330
5
100
AcDbSymbolTableRecord
100
AcDbLinetypeTableRecord
  2
Continuous
 70
     0
  3
Solid line
 72
    65
 73
     0
 40
0.0
  0
LTYPE
  5
248
330
5
100
AcDbSymbolTableRecord
100
AcDbLinetypeTableRecord
  2
AI-Linetype-1
 70
     0
  3
Adobe Illustrator Linetype No. 1
 72
    65
 73
     2
 40
1.411111110758333
 49
0.7055555553791667
 74
     0
 49
-0.7055555553791667
 74
     0
  0
LTYPE
  5
24D
330
5
100
AcDbSymbolTableRecord
100
AcDbLinetypeTableRecord
  2
AI-Linetype-2
 70
     0
  3
Adobe Illustrator Linetype No. 2
 72
    65
 73
     2
 40
1.411111110758333
 49
0.7055555553791667
 74
     0
 49
-0.7055555553791667
 74
     0
  0
ENDTAB
  0
TABLE
  2
LAYER
  5
2
330
0
100
AcDbSymbolTable
 70
     2
  0
LAYER
  5
10
330
2
100
AcDbSymbolTableRecord
100
AcDbLayerTableRecord
  2
0
 70
     0
 62
     7
  6
Continuous
370
    -3
390
F
347
3E
  0
LAYER
  5
40
330
2
100
AcDbSymbolTableRecord
100
AcDbLayerTableRecord
  2
_U+30EC_U+30A4_U+30E4_U+30FC 1
 70
     0
 62
     7
  6
Continuous
370
    -3
390
F
347
3E
  0
ENDTAB
  0
TABLE
  2
STYLE
  5
3
330
0
100
AcDbSymbolTable
 70
     1
  0
STYLE
  5
11
330
3
100
AcDbSymbolTableRecord
100
AcDbTextStyleTableRecord
  2
Standard
 70
     0
 40
0.0
 41
1.0
 50
0.0
 71
     0
 42
0.2
  3
txt
  4

  0
ENDTAB
  0
TABLE
  2
VIEW
  5
6
330
0
100
AcDbSymbolTable
 70
     0
  0
ENDTAB
  0
TABLE
  2
UCS
  5
7
330
0
100
AcDbSymbolTable
 70
     0
  0
ENDTAB
  0
TABLE
  2
APPID
  5
9
330
0
100
AcDbSymbolTable
 70
     1
  0
APPID
  5
12
330
9
100
AcDbSymbolTableRecord
100
AcDbRegAppTableRecord
  2
ACAD
 70
     0
  0
ENDTAB
  0
TABLE
  2
DIMSTYLE
  5
A
330
0
100
AcDbSymbolTable
 70
     1
100
AcDbDimStyleTable
  0
DIMSTYLE
105
27
330
A
100
AcDbSymbolTableRecord
100
AcDbDimStyleTableRecord
  2
Standard
 70
     0
178
     0
340
11
  0
ENDTAB
  0
TABLE
  2
BLOCK_RECORD
  5
1
330
0
100
AcDbSymbolTable
 70
    12
  0
BLOCK_RECORD
  5
1F
330
1
100
AcDbSymbolTableRecord
100
AcDbBlockTableRecord
  2
*Model_Space
340
22
 70
     0
280
     1
281
     0
  0
BLOCK_RECORD
  5
1B
330
1
100
AcDbSymbolTableRecord
100
AcDbBlockTableRecord
  2
*Paper_Space
340
1E
 70
     0
280
     1
281
     0
  0
BLOCK_RECORD
  5
23
330
1
100
AcDbSymbolTableRecord
100
AcDbBlockTableRecord
  2
*Paper_Space0
340
26
 70
     0
280
     1
281
     0
  0
BLOCK_RECORD
  5
41
330
1
100
AcDbSymbolTableRecord
100
AcDbBlockTableRecord
  2
block 2
340
0
102
{BLKREFS
331
42
102
}
 70
     0
280
     1
281
     0
  0
BLOCK_RECORD
  5
1D2
330
1
100
AcDbSymbolTableRecord
100
AcDbBlockTableRecord
  2
block 3
340
0
102
{BLKREFS
331
1D3
102
}
 70
     0
280
     1
281
     0
  0
BLOCK_RECORD
  5
1E6
330
1
100
AcDbSymbolTableRecord
100
AcDbBlockTableRecord
  2
block 4
340
0
102
{BLKREFS
331
1E7
102
}
 70
     0
280
     1
281
     0
  0
BLOCK_RECORD
  5
1F2
330
1
100
AcDbSymbolTableRecord
100
AcDbBlockTableRecord
  2
block 5
340
0
102
{BLKREFS
331
1F3
102
}
 70
     0
280
     1
281
     0
  0
BLOCK_RECORD
  5
204
330
1
100
AcDbSymbolTableRecord
100
AcDbBlockTableRecord
  2
block 6
340
0
102
{BLKREFS
331
205
102
}
 70
     0
280
     1
281
     0
  0
BLOCK_RECORD
  5
21A
330
1
100
AcDbSymbolTableRecord
100
AcDbBlockTableRecord
  2
block 7
340
0
102
{BLKREFS
331
21B
102
}
 70
     0
280
     1
281
     0
  0
BLOCK_RECORD
  5
233
330
1
100
AcDbSymbolTableRecord
100
AcDbBlockTableRecord
  2
block 8
340
0
102
{BLKREFS
331
234
102
}
 70
     0
280
     1
281
     0
  0
BLOCK_RECORD
  5
23F
330
1
100
AcDbSymbolTableRecord
100
AcDbBlockTableRecord
  2
block 9
340
0
102
{BLKREFS
331
240
102
}
 70
     0
280
     1
281
     0
  0
BLOCK_RECORD
  5
24F
330
1
100
AcDbSymbolTableRecord
100
AcDbBlockTableRecord
  2
block 10
340
0
102
{BLKREFS
331
250
102
}
 70
     0
280
     1
281
     0
  0
BLOCK_RECORD
  5
253
330
1
100
AcDbSymbolTableRecord
100
AcDbBlockTableRecord
  2
block 11
340
0
102
{BLKREFS
331
254
102
}
 70
     0
280
     1
281
     0
  0
BLOCK_RECORD
  5
263
330
1
100
AcDbSymbolTableRecord
100
AcDbBlockTableRecord
  2
block 12
340
0
102
{BLKREFS
331
264
102
}
 70
     0
280
     1
281
     0
  0
ENDTAB
  0
ENDSEC
  0
SECTION
  2
BLOCKS
  0
BLOCK
  5
20
330
1F
100
AcDbEntity
  8
0
100
AcDbBlockBegin
  2
*Model_Space
 70
     0
 10
0.0
 20
0.0
 30
0.0
  3
*Model_Space
  1

  0
ENDBLK
  5
21
330
1F
100
AcDbEntity
  8
0
100
AcDbBlockEnd
  0
BLOCK
  5
1C
330
1B
100
AcDbEntity
 67
     1
  8
0
100
AcDbBlockBegin
  2
*Paper_Space
 70
     0
 10
0.0
 20
0.0
 30
0.0
  3
*Paper_Space
  1

  0
ENDBLK
  5
1D
330
1B
100
AcDbEntity
 67
     1
  8
0
100
AcDbBlockEnd
  0
BLOCK
  5
24
330
23
100
AcDbEntity
  8
0
100
AcDbBlockBegin
  2
*Paper_Space0
 70
     0
 10
0.0
 20
0.0
 30
0.0
  3
*Paper_Space0
  1

  0
ENDBLK
  5
25
330
23
100
AcDbEntity
  8
0
100
AcDbBlockEnd
  0
BLOCK
  5
43
330
41
100
AcDbEntity
  8
0
100
AcDbBlockBegin
  2
block 2
 70
     0
 10
0.0
 20
0.0
 30
0.0
  3
block 2
  1

  0
POLYLINE
  5
45
330
41
100
AcDbEntity
  8
_U+30EC_U+30A4_U+30E4_U+30FC 1
 62
   179
420
  2234388
370
    25
100
AcDb2dPolyline
 66
     1
 10
0.0
 20
0.0
 30
0.0
  0
VERTEX
  5
46
330
45
100
AcDbEntity
  8
_U+30EC_U+30A4_U+30E4_U+30FC 1
 62
   179
420
  2234388
370
    25
100
AcDbVertex
100
AcDb2dVertex
 10
63.47364588065238
 20
-125.9940188573904
 30
0.0
  0
VERTEX
  5
47
330
45
100
AcDbEntity
  8
_U+30EC_U+30A4_U+30E4_U+30FC 1
 62
   179
420
  2234388
370
    25
100
AcDbVertex
100
AcDb2dVertex
 10
87.5984241540669
 20
-125.9940188573904
 30
0.0
  0
SEQEND
  5
48
330
45
100
AcDbEntity
  8
_U+30EC_U+30A4_U+30E4_U+30FC 1
 62
   179
420
  2234388
370
    25
  0
POLYLINE
  5
49
330
41
100
AcDbEntity
  8
_U+30EC_U+30A4_U+30E4_U+30FC 1
 62
   179
420
  2234388
370
    25
100
AcDb2dPolyline
 66
     1
 10
0.0
 20
0.0
 30
0.0
  0
VERTEX
  5
4A
330
49
100
AcDbEntity
  8
_U+30EC_U+30A4_U+30E4_U+30FC 1
 62
   179
420
  2234388
370
    25
100
AcDbVertex
100
AcDb2dVertex
 10
87.47304693504331
 20
-133.9942427442791
 30
0.0
  0
VERTEX
  5
4B
330
49
100
AcDbEntity
  8
_U+30EC_U+30A4_U+30E4_U+30FC 1
 62
   179
420
  2234388
370
    25
100
AcDbVertex
100
AcDb2dVertex
 10
90.47303608849279
 20
-133.9942427442791
 30
0.0
  0
SEQEND
  5
4C
330
49
100
AcDbEntity
  8
_U+30EC_U+30A4_U+30E4_U+30FC 1
 62
   179
420
  2234388
370
    25
  0
POLYLINE
  5
4D
330
41
100
AcDbEntity
  8
_U+30EC_U+30A4_U+30E4_U+30FC 1
 62
   179
420
  2234388
370
    25
100
AcDb2dPolyline
 66
     1
 10
0.0
 20
0.0
 30
0.0
  0
VERTEX
  5
4E
330
4D
100
AcDbEntity
  8
_U+30EC_U+30A4_U+30E4_U+30FC 1
 62
   179
420
  2234388
370
    25
100
AcDbVertex
100
AcDb2dVertex
 10
63.47364588065238
 20
-125.4938152464042
 30
0.0
  0
VERTEX
  5
4F
330
4D
100
AcDbEntity
  8
_U+30EC_U+30A4_U+30E4_U+30FC 1
 62
   179
420
  2234388
370
    25
100
AcDbVertex
100
AcDb2dVertex
 10
63.47364588065238
 20
-125.9940188573904
 30
0.0
  0
SEQEND
  5
50
330
4D
100
AcDbEntity
  8
_U+30EC_U+30A4_U+30E4_U+30FC 1
 62
   179
420
  2234388
370
    25
  0
POLYLINE
  5
51
330
41
100
AcDbEntity
  8
_U+30EC_U+30A4_U+30E4_U+30FC 1
 62
   179
420
  2234388
370
    25
100
AcDb2dPolyline
 66
     1
 10
0.0
 20
0.0
 30
0.0
  0
VERTEX
  5
52
330
51
100
AcDbEntity
  8
_U+30EC_U+30A4_U+30E4_U+30FC 1
 62
   179
420
  2234388
370
    25
100
AcDbVertex
100
AcDb2dVertex
 10
87.5984241540669
 20
-125.9940188573904
 30
0.0
  0
VERTEX
  5
53
330
51
100
AcDbEntity
  8
_U+30EC_U+30A4_U+30E4_U+30FC 1
 62
   179
420
  2234388
370
    25
100
AcDbVertex
100
AcDb2dVertex
 10
87.47304693504331
 20
-133.9942427442791
 30
0.0
  0
SEQEND
  5
54
330
51
100
AcDbEntity
  8
_U+30EC_U+30A4_U+30E4_U+30FC 1
 62
   179
420
  2234388
370
    25
  0
POLYLINE
  5
55
330
41
100
AcDbEntity
  8
_U+30EC_U+30A4_U+30E4_U+30FC 1
 62
   179
420
  2234388
370
    25
100
AcDb2dPolyline
 66
     1
 10
0.0
 20
0.0
 30
0.0
  0
VERTEX
  5
56
330
55
100
AcDbEntity
  8
_U+30EC_U+30A4_U+30E4_U+30FC 1
 62
   179
420
  2234388
370
    25
100
AcDbVertex
100
AcDb2dVertex
 10
88.47349164454836
 20
-124.9939291354183
 30
0.0
  0
VERTEX
  5
57
330
55
100
AcDbEntity
  8
_U+30EC_U+30A4_U+30E4_U+30FC 1
 62
   179
420
  2234388
370
    25
100
AcDbVertex
100
AcDb2dVertex
 10
88.34807691271945
 20
-132.9937649667516
 30
0.0
  0
SEQEND
  5
58
330
55
100
AcDbEntity
  8
_U+30EC_U+30A4_U+30E4_U+30FC 1
 62
   179
420
  2234388
370
    25
  0
POLYLINE
  5
59
330
41
100
AcDbEntity
  8
_U+30EC_U+30A4_U+30E4_U+30FC 1
 62
   179
420
  2234388
370
    25
100
AcDb2dPolyline
 66
     1
 10
0.0
 20
0.0
 30
0.0
  0
VERTEX
  5
5A
330
59
100
AcDbEntity
  8
_U+30EC_U+30A4_U+30E4_U+30FC 1
 62
   179
420
  2234388
370
    25
100
AcDbVertex
100
AcDb2dVertex
 10
88.34807691271945
 20
-132.9937649667516
 30
0.0
  0
VERTEX
  5
5B
330
59
100
AcDbEntity
  8
_U+30EC_U+30A4_U+30E4_U+30FC 1
 62
   179
420
  2234388
370
    25
100
AcDbVertex
100
AcDb2dVertex
 10
89.59796854749872
 20
-132.9937649667516
 30
0.0
  0
SEQEND
  5
5C
330
59
100
AcDbEntity
  8
_U+30EC_U+30A4_U+30E4_U+30FC 1
 62
   179
420
  2234388
370
    25
  0
POLYLINE
  5
5D
330
41
100
AcDbEntity
  8
_U+30EC_U+30A4_U+30E4_U+30FC 1
 62
   179
420
  2234388
370
    25
100
AcDb2dPolyline
 66
     1
 10
0.0
 20
0.0
 30
0.0
  0
VERTEX
  5
5E
330
5D
100
AcDbEntity
  8
_U+30EC_U+30A4_U+30E4_U+30FC 1
 62
   179
420
  2234388
370
    25
100
AcDbVertex
100
AcDb2dVertex
 10
63.47364588065238
 20
-125.4938152464042
 30
0.0
  0
VERTEX
  5
5F
330
5D
100
AcDbEntity
  8
_U+30EC_U+30A4_U+30E4_U+30FC 1
 62
   179
420
  2234388
370
    25
100
AcDbVertex
100
AcDb2dVertex
 10
64.0768958652622
 20
-125.8817296907518
 30
0.0
  0
SEQEND
  5
60
330
5D
100
AcDbEntity
  8
_U+30EC_U+30A4_U+30E4_U+30FC 1
 62
   179
420
  2234388
370
    25
  0
POLYLINE
  5
61
330
41
100
AcDbEntity
  8
_U+30EC_U+30A4_U+30E4_U+30FC 1
 62
   179
420
  2234388
370
    25
100
AcDb2dPolyline
 66
     1
 10
0.0
 20
0.0
 30
0.0
  0
VERTEX
  5
62
330
61
100
AcDbEntity
  8
_U+30EC_U+30A4_U+30E4_U+30FC 1
 62
   179
420
  2234388
370
    25
100
AcDbVertex
100
AcDb2dVertex
 10
64.0768958652622
 20
-125.8817296907518
 30
0.0
  0
VERTEX
  5
63
330
61
100
AcDbEntity
  8
_U+30EC_U+30A4_U+30E4_U+30FC 1
 62
   179
420
  2234388
370
    25
100
AcDbVertex
100
AcDb2dVertex
 10
64.66391807250824
 20
-125.470038024188
 30
0.0
  0
SEQEND
  5
64
330
61
100
AcDbEntity
  8
_U+30EC_U+30A4_U+30E4_U+30FC 1
 62
   179
420
  2234388
370
    25
  0
POLYLINE
  5
65
330
41
100
AcDbEntity
  8
_U+30EC_U+30A4_U+30E4_U+30FC 1
 62
   179
420
  2234388
370
    25
100
AcDb2dPolyline
 66
     1
 10
0.0
 20
0.0
 30
0.0
  0
VERTEX
  5
66
330
65
100
AcDbEntity
  8
_U+30EC_U+30A4_U+30E4_U+30FC 1
 62
   179
420
  2234388
370
    25
100
AcDbVertex
100
AcDb2dVertex
 10
65.26752083488682
 20
-125.8583052463134
 30
0.0
  0
VERTEX
  5
67
330
65
100
AcDbEntity
  8
_U+30EC_U+30A4_U+30E4_U+30FC 1
 62
   179
420
  2234388
370
    25
100
AcDbVertex
100
AcDb2dVertex
 10
65.85454304213286
 20
-125.4462608019717
 30
0.0
  0
SEQEND
  5
68
330
65
100
AcDbEntity
  8
_U+30EC_U+30A4_U+30E4_U+30FC 1
 62
   179
420
  2234388
370
    25
  0
POLYLINE
  5
69
330
41
100
AcDbEntity
  8
_U+30EC_U+30A4_U+30E4_U+30FC 1
 62
   179
420
  2234388
370
    25
100
AcDb2dPolyline
 66
     1
 10
0.0
 20
0.0
 30
0.0
  0
VERTEX
  5
6A
330
69
100
AcDbEntity
  8
_U+30EC_U+30A4_U+30E4_U+30FC 1
 62
   179
420
  2234388
370
    25
100
AcDbVertex
100
AcDb2dVertex
 10
64.66391807250824
 20
-125.470038024188
 30
0.0
  0
VERTEX
  5
6B
330
69
100
AcDbEntity
  8
_U+30EC_U+30A4_U+30E4_U+30FC 1
 62
   179
420
  2234388
370
    25
100
AcDbVertex
100
AcDb2dVertex
 10
65.26752083488682
 20
-125.8583052463134
 30
0.0
  0
SEQEND
  5
6C
330
69
100
AcDbEntity
  8
_U+30EC_U+30A4_U+30E4_U+30FC 1
 62
   179
420
  2234388
370
    25
  0
POLYLINE
  5
6D
330
41
100
AcDbEntity
  8
_U+30EC_U+30A4_U+30E4_U+30FC 1
 62
   179
420
  2234388
370
    25
100
AcDb2dPolyline
 66
     1
 10
0.0
 20
0.0
 30
0.0
  0
VERTEX
  5
6E
330
6D
100
AcDbEntity
  8
_U+30EC_U+30A4_U+30E4_U+30FC 1
 62
   179
420
  2234388
370
    25
100
AcDbVertex
100
AcDb2dVertex
 10
66.45779302674266
 20
-125.8341752463193
 30
0.0
  0
VERTEX
  5
6F
330
6D
100
AcDbEntity
  8
_U+30EC_U+30A4_U+30E4_U+30FC 1
 62
   179
420
  2234388
370
    25
100
AcDbVertex
100
AcDb2dVertex
 10
67.04516801175748
 20
-125.4224835797555
 30
0.0
  0
SEQEND
  5
70
330
6D
100
AcDbEntity
  8
_U+30EC_U+30A4_U+30E4_U+30FC 1
 62
   179
420
  2234388
370
    25
  0
POLYLINE
  5
71
330
41
100
AcDbEntity
  8
_U+30EC_U+30A4_U+30E4_U+30FC 1
 62
   179
420
  2234388
370
    25
100
AcDb2dPolyline
 66
     1
 10
0.0
 20
0.0
 30
0.0
  0
VERTEX
  5
72
330
71
100
AcDbEntity
  8
_U+30EC_U+30A4_U+30E4_U+30FC 1
 62
   179
420
  2234388
370
    25
100
AcDbVertex
100
AcDb2dVertex
 10
65.85454304213286
 20
-125.4462608019717
 30
0.0
  0
VERTEX
  5
73
330
71
100
AcDbEntity
  8
_U+30EC_U+30A4_U+30E4_U+30FC 1
 62
   179
420
  2234388
370
    25
100
AcDbVertex
100
AcDb2dVertex
 10
66.45779302674266
 20
-125.8341752463193
 30
0.0
  0
SEQEND
  5
74
330
71
100
AcDbEntity
  8
_U+30EC_U+30A4_U+30E4_U+30FC 1
 62
   179
420
  2234388
370
    25
  0
POLYLINE
  5
75
330
41
100
AcDbEntity
  8
_U+30EC_U+30A4_U+30E4_U+30FC 1
 62
   179
420
  2234388
370
    25
100
AcDb2dPolyline
 66
     1
 10
0.0
 20
0.0
 30
0.0
  0
VERTEX
  5
76
330
75
100
AcDbEntity
  8
_U+30EC_U+30A4_U+30E4_U+30FC 1
 62
   179
420
  2234388
370
    25
100
AcDbVertex
100
AcDb2dVertex
 10
67.64806521859852
 20
-125.8103980241031
 30
0.0
  0
VERTEX
  5
77
330
75
100
AcDbEntity
  8
_U+30EC_U+30A4_U+30E4_U+30FC 1
 62
   179
420
  2234388
370
    25
100
AcDbVertex
100
AcDb2dVertex
 10
68.23544020361334
 20
-125.3987063575392
 30
0.0
  0
SEQEND
  5
78
330
75
100
AcDbEntity
  8
_U+30EC_U+30A4_U+30E4_U+30FC 1
 62
   179
420
  2234388
370
    25
  0
POLYLINE
  5
79
330
41
100
AcDbEntity
  8
_U+30EC_U+30A4_U+30E4_U+30FC 1
 62
   179
420
  2234388
370
    25
100
AcDb2dPolyline
 66
     1
 10
0.0
 20
0.0
 30
0.0
  0
VERTEX
  5
7A
330
79
100
AcDbEntity
  8
_U+30EC_U+30A4_U+30E4_U+30FC 1
 62
   179
420
  2234388
370
    25
100
AcDbVertex
100
AcDb2dVertex
 10
67.04516801175748
 20
-125.4224835797555
 30
0.0
  0
VERTEX
  5
7B
330
79
100
AcDbEntity
  8
_U+30EC_U+30A4_U+30E4_U+30FC 1
 62
   179
420
  2234388
370
    25
100
AcDbVertex
100
AcDb2dVertex
 10
67.64806521859852
 20
-125.8103980241031
 30
0.0
  0
SEQEND
  5
7C
330
79
100
AcDbEntity
  8
_U+30EC_U+30A4_U+30E4_U+30FC 1
 62
   179
420
  2234388
370
    25
  0
POLYLINE
  5
7D
330
41
100
AcDbEntity
  8
_U+30EC_U+30A4_U+30E4_U+30FC 1
 62
   179
420
  2234388
370
    25
100
AcDb2dPolyline
 66
     1
 10
0.0
 20
0.0
 30
0.0
  0
VERTEX
  5
7E
330
7D
100
AcDbEntity
  8
_U+30EC_U+30A4_U+30E4_U+30FC 1
 62
   179
420
  2234388
370
    25
100
AcDbVertex
100
AcDb2dVertex
 10
68.23544020361334
 20
-125.3987063575392
 30
0.0
  0
VERTEX
  5
7F
330
7D
100
AcDbEntity
  8
_U+30EC_U+30A4_U+30E4_U+30FC 1
 62
   179
420
  2234388
370
    25
100
AcDbVertex
100
AcDb2dVertex
 10
68.83869018822314
 20
-125.7866208018865
 30
0.0
  0
SEQEND
  5
80
330
7D
100
AcDbEntity
  8
_U+30EC_U+30A4_U+30E4_U+30FC 1
 62
   179
420
  2234388
370
    25
  0
POLYLINE
  5
81
330
41
100
AcDbEntity
  8
_U+30EC_U+30A4_U+30E4_U+30FC 1
 62
   179
420
  2234388
370
    25
100
AcDb2dPolyline
 66
     1
 10
0.0
 20
0.0
 30
0.0
  0
VERTEX
  5
82
330
81
100
AcDbEntity
  8
_U+30EC_U+30A4_U+30E4_U+30FC 1
 62
   179
420
  2234388
370
    25
100
AcDbVertex
100
AcDb2dVertex
 10
68.83869018822314
 20
-125.7866208018865
 30
0.0
  0
VERTEX
  5
83
330
81
100
AcDbEntity
  8
_U+30EC_U+30A4_U+30E4_U+30FC 1
 62
   179
420
  2234388
370
    25
100
AcDbVertex
100
AcDb2dVertex
 10
69.42574767324606
 20
-125.3746116353231
 30
0.0
  0
SEQEND
  5
84
330
81
100
AcDbEntity
  8
_U+30EC_U+30A4_U+30E4_U+30FC 1
 62
   179
420
  2234388
370
    25
  0
POLYLINE
  5
85
330
41
100
AcDbEntity
  8
_U+30EC_U+30A4_U+30E4_U+30FC 1
 62
   179
420
  2234388
370
    25
100
AcDb2dPolyline
 66
     1
 10
0.0
 20
0.0
 30
0.0
  0
VERTEX
  5
86
330
85
100
AcDbEntity
  8
_U+30EC_U+30A4_U+30E4_U+30FC 1
 62
   179
420
  2234388
370
    25
100
AcDbVertex
100
AcDb2dVertex
 10
70.02931515784778
 20
-125.7628788574481
 30
0.0
  0
VERTEX
  5
87
330
85
100
AcDbEntity
  8
_U+30EC_U+30A4_U+30E4_U+30FC 1
 62
   179
420
  2234388
370
    25
100
AcDbVertex
100
AcDb2dVertex
 10
70.61637264287069
 20
-125.3511871908846
 30
0.0
  0
SEQEND
  5
88
330
85
100
AcDbEntity
  8
_U+30EC_U+30A4_U+30E4_U+30FC 1
 62
   179
420
  2234388
370
    25
  0
POLYLINE
  5
89
330
41
100
AcDbEntity
  8
_U+30EC_U+30A4_U+30E4_U+30FC 1
 62
   179
420
  2234388
370
    25
100
AcDb2dPolyline
 66
     1
 10
0.0
 20
0.0
 30
0.0
  0
VERTEX
  5
8A
330
89
100
AcDbEntity
  8
_U+30EC_U+30A4_U+30E4_U+30FC 1
 62
   179
420
  2234388
370
    25
100
AcDbVertex
100
AcDb2dVertex
 10
69.42574767324606
 20
-125.3746116353231
 30
0.0
  0
VERTEX
  5
8B
330
89
100
AcDbEntity
  8
_U+30EC_U+30A4_U+30E4_U+30FC 1
 62
   179
420
  2234388
370
    25
100
AcDbVertex
100
AcDb2dVertex
 10
70.02931515784778
 20
-125.7628788574481
 30
0.0
  0
SEQEND
  5
8C
330
89
100
AcDbEntity
  8
_U+30EC_U+30A4_U+30E4_U+30FC 1
 62
   179
420
  2234388
370
    25
  0
POLYLINE
  5
8D
330
41
100
AcDbEntity
  8
_U+30EC_U+30A4_U+30E4_U+30FC 1
 62
   179
420
  2234388
370
    25
100
AcDb2dPolyline
 66
     1
 10
0.0
 20
0.0
 30
0.0
  0
VERTEX
  5
8E
330
8D
100
AcDbEntity
  8
_U+30EC_U+30A4_U+30E4_U+30FC 1
 62
   179
420
  2234388
370
    25
100
AcDbVertex
100
AcDb2dVertex
 10
70.61637264287069
 20
-125.3511871908846
 30
0.0
  0
VERTEX
  5
8F
330
8D
100
AcDbEntity
  8
_U+30EC_U+30A4_U+30E4_U+30FC 1
 62
   179
420
  2234388
370
    25
100
AcDbVertex
100
AcDb2dVertex
 10
71.21958734970362
 20
-125.7391016352319
 30
0.0
  0
SEQEND
  5
90
330
8D
100
AcDbEntity
  8
_U+30EC_U+30A4_U+30E4_U+30FC 1
 62
   179
420
  2234388
370
    25
  0
POLYLINE
  5
91
330
41
100
AcDbEntity
  8
_U+30EC_U+30A4_U+30E4_U+30FC 1
 62
   179
420
  2234388
370
    25
100
AcDb2dPolyline
 66
     1
 10
0.0
 20
0.0
 30
0.0
  0
VERTEX
  5
92
330
91
100
AcDbEntity
  8
_U+30EC_U+30A4_U+30E4_U+30FC 1
 62
   179
420
  2234388
370
    25
100
AcDbVertex
100
AcDb2dVertex
 10
71.21958734970362
 20
-125.7391016352319
 30
0.0
  0
VERTEX
  5
93
330
91
100
AcDbEntity
  8
_U+30EC_U+30A4_U+30E4_U+30FC 1
 62
   179
420
  2234388
370
    25
100
AcDbVertex
100
AcDb2dVertex
 10
71.80699761249531
 20
-125.3270571908906
 30
0.0
  0
SEQEND
  5
94
330
91
100
AcDbEntity
  8
_U+30EC_U+30A4_U+30E4_U+30FC 1
 62
   179
420
  2234388
370
    25
  0
POLYLINE
  5
95
330
41
100
AcDbEntity
  8
_U+30EC_U+30A4_U+30E4_U+30FC 1
 62
   179
420
  2234388
370
    25
100
AcDb2dPolyline
 66
     1
 10
0.0
 20
0.0
 30
0.0
  0
VERTEX
  5
96
330
95
100
AcDbEntity
  8
_U+30EC_U+30A4_U+30E4_U+30FC 1
 62
   179
420
  2234388
370
    25
100
AcDbVertex
100
AcDb2dVertex
 10
72.41021231932825
 20
-125.7149716352379
 30
0.0
  0
VERTEX
  5
97
330
95
100
AcDbEntity
  8
_U+30EC_U+30A4_U+30E4_U+30FC 1
 62
   179
420
  2234388
370
    25
100
AcDbVertex
100
AcDb2dVertex
 10
72.99762258211994
 20
-125.3032799686743
 30
0.0
  0
SEQEND
  5
98
330
95
100
AcDbEntity
  8
_U+30EC_U+30A4_U+30E4_U+30FC 1
 62
   179
420
  2234388
370
    25
  0
POLYLINE
  5
99
330
41
100
AcDbEntity
  8
_U+30EC_U+30A4_U+30E4_U+30FC 1
 62
   179
420
  2234388
370
    25
100
AcDb2dPolyline
 66
     1
 10
0.0
 20
0.0
 30
0.0
  0
VERTEX
  5
9A
330
99
100
AcDbEntity
  8
_U+30EC_U+30A4_U+30E4_U+30FC 1
 62
   179
420
  2234388
370
    25
100
AcDbVertex
100
AcDb2dVertex
 10
71.80699761249531
 20
-125.3270571908906
 30
0.0
  0
VERTEX
  5
9B
330
99
100
AcDbEntity
  8
_U+30EC_U+30A4_U+30E4_U+30FC 1
 62
   179
420
  2234388
370
    25
100
AcDbVertex
100
AcDb2dVertex
 10
72.41021231932825
 20
-125.7149716352379
 30
0.0
  0
SEQEND
  5
9C
330
99
100
AcDbEntity
  8
_U+30EC_U+30A4_U+30E4_U+30FC 1
 62
   179
420
  2234388
370
    25
  0
POLYLINE
  5
9D
330
41
100
AcDbEntity
  8
_U+30EC_U+30A4_U+30E4_U+30FC 1
 62
   179
420
  2234388
370
    25
100
AcDb2dPolyline
 66
     1
 10
0.0
 20
0.0
 30
0.0
  0
VERTEX
  5
9E
330
9D
100
AcDbEntity
  8
_U+30EC_U+30A4_U+30E4_U+30FC 1
 62
   179
420
  2234388
370
    25
100
AcDbVertex
100
AcDb2dVertex
 10
72.99762258211994
 20
-125.3032799686743
 30
0.0
  0
VERTEX
  5
9F
330
9D
100
AcDbEntity
  8
_U+30EC_U+30A4_U+30E4_U+30FC 1
 62
   179
420
  2234388
370
    25
100
AcDbVertex
100
AcDb2dVertex
 10
73.60034340007658
 20
-125.6915471907994
 30
0.0
  0
SEQEND
  5
A0
330
9D
100
AcDbEntity
  8
_U+30EC_U+30A4_U+30E4_U+30FC 1
 62
   179
420
  2234388
370
    25
  0
POLYLINE
  5
A1
330
41
100
AcDbEntity
  8
_U+30EC_U+30A4_U+30E4_U+30FC 1
 62
   179
420
  2234388
370
    25
100
AcDb2dPolyline
 66
     1
 10
0.0
 20
0.0
 30
0.0
  0
VERTEX
  5
A2
330
A1
100
AcDbEntity
  8
_U+30EC_U+30A4_U+30E4_U+30FC 1
 62
   179
420
  2234388
370
    25
100
AcDbVertex
100
AcDb2dVertex
 10
73.60034340007658
 20
-125.6915471907994
 30
0.0
  0
VERTEX
  5
A3
330
A1
100
AcDbEntity
  8
_U+30EC_U+30A4_U+30E4_U+30FC 1
 62
   179
420
  2234388
370
    25
100
AcDbVertex
100
AcDb2dVertex
 10
74.1877183850914
 20
-125.2795027464578
 30
0.0
  0
SEQEND
  5
A4
330
A1
100
AcDbEntity
  8
_U+30EC_U+30A4_U+30E4_U+30FC 1
 62
   179
420
  2234388
370
    25
  0
POLYLINE
  5
A5
330
41
100
AcDbEntity
  8
_U+30EC_U+30A4_U+30E4_U+30FC 1
 62
   179
420
  2234388
370
    25
100
AcDb2dPolyline
 66
     1
 10
0.0
 20
0.0
 30
0.0
  0
VERTEX
  5
A6
330
A5
100
AcDbEntity
  8
_U+30EC_U+30A4_U+30E4_U+30FC 1
 62
   179
420
  2234388
370
    25
100
AcDbVertex
100
AcDb2dVertex
 10
74.7909683697012
 20
-125.6674524685832
 30
0.0
  0
VERTEX
  5
A7
330
A5
100
AcDbEntity
  8
_U+30EC_U+30A4_U+30E4_U+30FC 1
 62
   179
420
  2234388
370
    25
100
AcDbVertex
100
AcDb2dVertex
 10
75.37799057694725
 20
-125.2557608020194
 30
0.0
  0
SEQEND
  5
A8
330
A5
100
AcDbEntity
  8
_U+30EC_U+30A4_U+30E4_U+30FC 1
 62
   179
420
  2234388
370
    25
  0
POLYLINE
  5
A9
330
41
100
AcDbEntity
  8
_U+30EC_U+30A4_U+30E4_U+30FC 1
 62
   179
420
  2234388
370
    25
100
AcDb2dPolyline
 66
     1
 10
0.0
 20
0.0
 30
0.0
  0
VERTEX
  5
AA
330
A9
100
AcDbEntity
  8
_U+30EC_U+30A4_U+30E4_U+30FC 1
 62
   179
420
  2234388
370
    25
100
AcDbVertex
100
AcDb2dVertex
 10
74.1877183850914
 20
-125.2795027464578
 30
0.0
  0
VERTEX
  5
AB
330
A9
100
AcDbEntity
  8
_U+30EC_U+30A4_U+30E4_U+30FC 1
 62
   179
420
  2234388
370
    25
100
AcDbVertex
100
AcDb2dVertex
 10
74.7909683697012
 20
-125.6674524685832
 30
0.0
  0
SEQEND
  5
AC
330
A9
100
AcDbEntity
  8
_U+30EC_U+30A4_U+30E4_U+30FC 1
 62
   179
420
  2234388
370
    25
  0
POLYLINE
  5
AD
330
41
100
AcDbEntity
  8
_U+30EC_U+30A4_U+30E4_U+30FC 1
 62
   179
420
  2234388
370
    25
100
AcDb2dPolyline
 66
     1
 10
0.0
 20
0.0
 30
0.0
  0
VERTEX
  5
AE
330
AD
100
AcDbEntity
  8
_U+30EC_U+30A4_U+30E4_U+30FC 1
 62
   179
420
  2234388
370
    25
100
AcDbVertex
100
AcDb2dVertex
 10
75.37799057694725
 20
-125.2557608020194
 30
0.0
  0
VERTEX
  5
AF
330
AD
100
AcDbEntity
  8
_U+30EC_U+30A4_U+30E4_U+30FC 1
 62
   179
420
  2234388
370
    25
100
AcDbVertex
100
AcDb2dVertex
 10
75.98159333932584
 20
-125.6440280241444
 30
0.0
  0
SEQEND
  5
B0
330
AD
100
AcDbEntity
  8
_U+30EC_U+30A4_U+30E4_U+30FC 1
 62
   179
420
  2234388
370
    25
  0
POLYLINE
  5
B1
330
41
100
AcDbEntity
  8
_U+30EC_U+30A4_U+30E4_U+30FC 1
 62
   179
420
  2234388
370
    25
100
AcDb2dPolyline
 66
     1
 10
0.0
 20
0.0
 30
0.0
  0
VERTEX
  5
B2
330
B1
100
AcDbEntity
  8
_U+30EC_U+30A4_U+30E4_U+30FC 1
 62
   179
420
  2234388
370
    25
100
AcDbVertex
100
AcDb2dVertex
 10
75.98159333932584
 20
-125.6440280241444
 30
0.0
  0
VERTEX
  5
B3
330
B1
100
AcDbEntity
  8
_U+30EC_U+30A4_U+30E4_U+30FC 1
 62
   179
420
  2234388
370
    25
100
AcDbVertex
100
AcDb2dVertex
 10
76.56861554657188
 20
-125.2319835798031
 30
0.0
  0
SEQEND
  5
B4
330
B1
100
AcDbEntity
  8
_U+30EC_U+30A4_U+30E4_U+30FC 1
 62
   179
420
  2234388
370
    25
  0
POLYLINE
  5
B5
330
41
100
AcDbEntity
  8
_U+30EC_U+30A4_U+30E4_U+30FC 1
 62
   179
420
  2234388
370
    25
100
AcDb2dPolyline
 66
     1
 10
0.0
 20
0.0
 30
0.0
  0
VERTEX
  5
B6
330
B5
100
AcDbEntity
  8
_U+30EC_U+30A4_U+30E4_U+30FC 1
 62
   179
420
  2234388
370
    25
100
AcDbVertex
100
AcDb2dVertex
 10
77.17151275341291
 20
-125.6198980241507
 30
0.0
  0
VERTEX
  5
B7
330
B5
100
AcDbEntity
  8
_U+30EC_U+30A4_U+30E4_U+30FC 1
 62
   179
420
  2234388
370
    25
100
AcDbVertex
100
AcDb2dVertex
 10
77.7592405161965
 20
-125.2082063575869
 30
0.0
  0
SEQEND
  5
B8
330
B5
100
AcDbEntity
  8
_U+30EC_U+30A4_U+30E4_U+30FC 1
 62
   179
420
  2234388
370
    25
  0
POLYLINE
  5
B9
330
41
100
AcDbEntity
  8
_U+30EC_U+30A4_U+30E4_U+30FC 1
 62
   179
420
  2234388
370
    25
100
AcDb2dPolyline
 66
     1
 10
0.0
 20
0.0
 30
0.0
  0
VERTEX
  5
BA
330
B9
100
AcDbEntity
  8
_U+30EC_U+30A4_U+30E4_U+30FC 1
 62
   179
420
  2234388
370
    25
100
AcDbVertex
100
AcDb2dVertex
 10
76.56861554657188
 20
-125.2319835798031
 30
0.0
  0
VERTEX
  5
BB
330
B9
100
AcDbEntity
  8
_U+30EC_U+30A4_U+30E4_U+30FC 1
 62
   179
420
  2234388
370
    25
100
AcDbVertex
100
AcDb2dVertex
 10
77.17151275341291
 20
-125.6198980241507
 30
0.0
  0
SEQEND
  5
BC
330
B9
100
AcDbEntity
  8
_U+30EC_U+30A4_U+30E4_U+30FC 1
 62
   179
420
  2234388
370
    25
  0
POLYLINE
  5
BD
330
41
100
AcDbEntity
  8
_U+30EC_U+30A4_U+30E4_U+30FC 1
 62
   179
420
  2234388
370
    25
100
AcDb2dPolyline
 66
     1
 10
0.0
 20
0.0
 30
0.0
  0
VERTEX
  5
BE
330
BD
100
AcDbEntity
  8
_U+30EC_U+30A4_U+30E4_U+30FC 1
 62
   179
420
  2234388
370
    25
100
AcDbVertex
100
AcDb2dVertex
 10
77.7592405161965
 20
-125.2082063575869
 30
0.0
  0
VERTEX
  5
BF
330
BD
100
AcDbEntity
  8
_U+30EC_U+30A4_U+30E4_U+30FC 1
 62
   179
420
  2234388
370
    25
100
AcDbVertex
100
AcDb2dVertex
 10
78.36213772303753
 20
-125.5961208019342
 30
0.0
  0
SEQEND
  5
C0
330
BD
100
AcDbEntity
  8
_U+30EC_U+30A4_U+30E4_U+30FC 1
 62
   179
420
  2234388
370
    25
  0
POLYLINE
  5
C1
330
41
100
AcDbEntity
  8
_U+30EC_U+30A4_U+30E4_U+30FC 1
 62
   179
420
  2234388
370
    25
100
AcDb2dPolyline
 66
     1
 10
0.0
 20
0.0
 30
0.0
  0
VERTEX
  5
C2
330
C1
100
AcDbEntity
  8
_U+30EC_U+30A4_U+30E4_U+30FC 1
 62
   179
420
  2234388
370
    25
100
AcDbVertex
100
AcDb2dVertex
 10
78.36213772303753
 20
-125.5961208019342
 30
0.0
  0
VERTEX
  5
C3
330
C1
100
AcDbEntity
  8
_U+30EC_U+30A4_U+30E4_U+30FC 1
 62
   179
420
  2234388
370
    25
100
AcDbVertex
100
AcDb2dVertex
 10
78.94919720248481
 20
-125.1844291353706
 30
0.0
  0
SEQEND
  5
C4
330
C1
100
AcDbEntity
  8
_U+30EC_U+30A4_U+30E4_U+30FC 1
 62
   179
420
  2234388
370
    25
  0
POLYLINE
  5
C5
330
41
100
AcDbEntity
  8
_U+30EC_U+30A4_U+30E4_U+30FC 1
 62
   179
420
  2234388
370
    25
100
AcDb2dPolyline
 66
     1
 10
0.0
 20
0.0
 30
0.0
  0
VERTEX
  5
C6
330
C5
100
AcDbEntity
  8
_U+30EC_U+30A4_U+30E4_U+30FC 1
 62
   179
420
  2234388
370
    25
100
AcDbVertex
100
AcDb2dVertex
 10
79.55276269266216
 20
-125.5723435797179
 30
0.0
  0
VERTEX
  5
C7
330
C5
100
AcDbEntity
  8
_U+30EC_U+30A4_U+30E4_U+30FC 1
 62
   179
420
  2234388
370
    25
100
AcDbVertex
100
AcDb2dVertex
 10
80.13982220218715
 20
-125.1603344131545
 30
0.0
  0
SEQEND
  5
C8
330
C5
100
AcDbEntity
  8
_U+30EC_U+30A4_U+30E4_U+30FC 1
 62
   179
420
  2234388
370
    25
  0
POLYLINE
  5
C9
330
41
100
AcDbEntity
  8
_U+30EC_U+30A4_U+30E4_U+30FC 1
 62
   179
420
  2234388
370
    25
100
AcDb2dPolyline
 66
     1
 10
0.0
 20
0.0
 30
0.0
  0
VERTEX
  5
CA
330
C9
100
AcDbEntity
  8
_U+30EC_U+30A4_U+30E4_U+30FC 1
 62
   179
420
  2234388
370
    25
100
AcDbVertex
100
AcDb2dVertex
 10
78.94919720248481
 20
-125.1844291353706
 30
0.0
  0
VERTEX
  5
CB
330
C9
100
AcDbEntity
  8
_U+30EC_U+30A4_U+30E4_U+30FC 1
 62
   179
420
  2234388
370
    25
100
AcDbVertex
100
AcDb2dVertex
 10
79.55276269266216
 20
-125.5723435797179
 30
0.0
  0
SEQEND
  5
CC
330
C9
100
AcDbEntity
  8
_U+30EC_U+30A4_U+30E4_U+30FC 1
 62
   179
420
  2234388
370
    25
  0
POLYLINE
  5
CD
330
41
100
AcDbEntity
  8
_U+30EC_U+30A4_U+30E4_U+30FC 1
 62
   179
420
  2234388
370
    25
100
AcDb2dPolyline
 66
     1
 10
0.0
 20
0.0
 30
0.0
  0
VERTEX
  5
CE
330
CD
100
AcDbEntity
  8
_U+30EC_U+30A4_U+30E4_U+30FC 1
 62
   179
420
  2234388
370
    25
100
AcDbVertex
100
AcDb2dVertex
 10
80.13982220218715
 20
-125.1603344131545
 30
0.0
  0
VERTEX
  5
CF
330
CD
100
AcDbEntity
  8
_U+30EC_U+30A4_U+30E4_U+30FC 1
 62
   179
420
  2234388
370
    25
100
AcDbVertex
100
AcDb2dVertex
 10
80.74338766228679
 20
-125.5485663575017
 30
0.0
  0
SEQEND
  5
D0
330
CD
100
AcDbEntity
  8
_U+30EC_U+30A4_U+30E4_U+30FC 1
 62
   179
420
  2234388
370
    25
  0
POLYLINE
  5
D1
330
41
100
AcDbEntity
  8
_U+30EC_U+30A4_U+30E4_U+30FC 1
 62
   179
420
  2234388
370
    25
100
AcDb2dPolyline
 66
     1
 10
0.0
 20
0.0
 30
0.0
  0
VERTEX
  5
D2
330
D1
100
AcDbEntity
  8
_U+30EC_U+30A4_U+30E4_U+30FC 1
 62
   179
420
  2234388
370
    25
100
AcDbVertex
100
AcDb2dVertex
 10
80.74338766228679
 20
-125.5485663575017
 30
0.0
  0
VERTEX
  5
D3
330
D1
100
AcDbEntity
  8
_U+30EC_U+30A4_U+30E4_U+30FC 1
 62
   179
420
  2234388
370
    25
100
AcDbVertex
100
AcDb2dVertex
 10
81.3304472018895
 20
-125.1369099687157
 30
0.0
  0
SEQEND
  5
D4
330
D1
100
AcDbEntity
  8
_U+30EC_U+30A4_U+30E4_U+30FC 1
 62
   179
420
  2234388
370
    25
  0
POLYLINE
  5
D5
330
41
100
AcDbEntity
  8
_U+30EC_U+30A4_U+30E4_U+30FC 1
 62
   179
420
  2234388
370
    25
100
AcDb2dPolyline
 66
     1
 10
0.0
 20
0.0
 30
0.0
  0
VERTEX
  5
D6
330
D5
100
AcDbEntity
  8
_U+30EC_U+30A4_U+30E4_U+30FC 1
 62
   179
420
  2234388
370
    25
100
AcDbVertex
100
AcDb2dVertex
 10
81.93401263191141
 20
-125.5248244130633
 30
0.0
  0
VERTEX
  5
D7
330
D5
100
AcDbEntity
  8
_U+30EC_U+30A4_U+30E4_U+30FC 1
 62
   179
420
  2234388
370
    25
100
AcDbVertex
100
AcDb2dVertex
 10
82.52107220159183
 20
-125.112779968722
 30
0.0
  0
SEQEND
  5
D8
330
D5
100
AcDbEntity
  8
_U+30EC_U+30A4_U+30E4_U+30FC 1
 62
   179
420
  2234388
370
    25
  0
POLYLINE
  5
D9
330
41
100
AcDbEntity
  8
_U+30EC_U+30A4_U+30E4_U+30FC 1
 62
   179
420
  2234388
370
    25
100
AcDb2dPolyline
 66
     1
 10
0.0
 20
0.0
 30
0.0
  0
VERTEX
  5
DA
330
D9
100
AcDbEntity
  8
_U+30EC_U+30A4_U+30E4_U+30FC 1
 62
   179
420
  2234388
370
    25
100
AcDbVertex
100
AcDb2dVertex
 10
81.3304472018895
 20
-125.1369099687157
 30
0.0
  0
VERTEX
  5
DB
330
D9
100
AcDbEntity
  8
_U+30EC_U+30A4_U+30E4_U+30FC 1
 62
   179
420
  2234388
370
    25
100
AcDbVertex
100
AcDb2dVertex
 10
81.93401263191141
 20
-125.5248244130633
 30
0.0
  0
SEQEND
  5
DC
330
D9
100
AcDbEntity
  8
_U+30EC_U+30A4_U+30E4_U+30FC 1
 62
   179
420
  2234388
370
    25
  0
POLYLINE
  5
DD
330
41
100
AcDbEntity
  8
_U+30EC_U+30A4_U+30E4_U+30FC 1
 62
   179
420
  2234388
370
    25
100
AcDb2dPolyline
 66
     1
 10
0.0
 20
0.0
 30
0.0
  0
VERTEX
  5
DE
330
DD
100
AcDbEntity
  8
_U+30EC_U+30A4_U+30E4_U+30FC 1
 62
   179
420
  2234388
370
    25
100
AcDbVertex
100
AcDb2dVertex
 10
82.52107220159183
 20
-125.112779968722
 30
0.0
  0
VERTEX
  5
DF
330
DD
100
AcDbEntity
  8
_U+30EC_U+30A4_U+30E4_U+30FC 1
 62
   179
420
  2234388
370
    25
100
AcDbVertex
100
AcDb2dVertex
 10
83.1239694236636
 20
-125.5006944130693
 30
0.0
  0
SEQEND
  5
E0
330
DD
100
AcDbEntity
  8
_U+30EC_U+30A4_U+30E4_U+30FC 1
 62
   179
420
  2234388
370
    25
  0
POLYLINE
  5
E1
330
41
100
AcDbEntity
  8
_U+30EC_U+30A4_U+30E4_U+30FC 1
 62
   179
420
  2234388
370
    25
100
AcDb2dPolyline
 66
     1
 10
0.0
 20
0.0
 30
0.0
  0
VERTEX
  5
E2
330
E1
100
AcDbEntity
  8
_U+30EC_U+30A4_U+30E4_U+30FC 1
 62
   179
420
  2234388
370
    25
100
AcDbVertex
100
AcDb2dVertex
 10
83.1239694236636
 20
-125.5006944130693
 30
0.0
  0
VERTEX
  5
E3
330
E1
100
AcDbEntity
  8
_U+30EC_U+30A4_U+30E4_U+30FC 1
 62
   179
420
  2234388
370
    25
100
AcDbVertex
100
AcDb2dVertex
 10
83.71169720129419
 20
-125.0890027465054
 30
0.0
  0
SEQEND
  5
E4
330
E1
100
AcDbEntity
  8
_U+30EC_U+30A4_U+30E4_U+30FC 1
 62
   179
420
  2234388
370
    25
  0
POLYLINE
  5
E5
330
41
100
AcDbEntity
  8
_U+30EC_U+30A4_U+30E4_U+30FC 1
 62
   179
420
  2234388
370
    25
100
AcDb2dPolyline
 66
     1
 10
0.0
 20
0.0
 30
0.0
  0
VERTEX
  5
E6
330
E5
100
AcDbEntity
  8
_U+30EC_U+30A4_U+30E4_U+30FC 1
 62
   179
420
  2234388
370
    25
100
AcDbVertex
100
AcDb2dVertex
 10
84.31459442336595
 20
-125.4772699686308
 30
0.0
  0
VERTEX
  5
E7
330
E5
100
AcDbEntity
  8
_U+30EC_U+30A4_U+30E4_U+30FC 1
 62
   179
420
  2234388
370
    25
100
AcDbVertex
100
AcDb2dVertex
 10
84.90161664544132
 20
-125.0652255242892
 30
0.0
  0
SEQEND
  5
E8
330
E5
100
AcDbEntity
  8
_U+30EC_U+30A4_U+30E4_U+30FC 1
 62
   179
420
  2234388
370
    25
  0
POLYLINE
  5
E9
330
41
100
AcDbEntity
  8
_U+30EC_U+30A4_U+30E4_U+30FC 1
 62
   179
420
  2234388
370
    25
100
AcDb2dPolyline
 66
     1
 10
0.0
 20
0.0
 30
0.0
  0
VERTEX
  5
EA
330
E9
100
AcDbEntity
  8
_U+30EC_U+30A4_U+30E4_U+30FC 1
 62
   179
420
  2234388
370
    25
100
AcDbVertex
100
AcDb2dVertex
 10
83.71169720129419
 20
-125.0890027465054
 30
0.0
  0
VERTEX
  5
EB
330
E9
100
AcDbEntity
  8
_U+30EC_U+30A4_U+30E4_U+30FC 1
 62
   179
420
  2234388
370
    25
100
AcDbVertex
100
AcDb2dVertex
 10
84.31459442336595
 20
-125.4772699686308
 30
0.0
  0
SEQEND
  5
EC
330
E9
100
AcDbEntity
  8
_U+30EC_U+30A4_U+30E4_U+30FC 1
 62
   179
420
  2234388
370
    25
  0
POLYLINE
  5
ED
330
41
100
AcDbEntity
  8
_U+30EC_U+30A4_U+30E4_U+30FC 1
 62
   179
420
  2234388
370
    25
100
AcDb2dPolyline
 66
     1
 10
0.0
 20
0.0
 30
0.0
  0
VERTEX
  5
EE
330
ED
100
AcDbEntity
  8
_U+30EC_U+30A4_U+30E4_U+30FC 1
 62
   179
420
  2234388
370
    25
100
AcDbVertex
100
AcDb2dVertex
 10
84.90161664544132
 20
-125.0652255242892
 30
0.0
  0
VERTEX
  5
EF
330
ED
100
AcDbEntity
  8
_U+30EC_U+30A4_U+30E4_U+30FC 1
 62
   179
420
  2234388
370
    25
100
AcDbVertex
100
AcDb2dVertex
 10
85.50521942306828
 20
-125.4531399686368
 30
0.0
  0
SEQEND
  5
F0
330
ED
100
AcDbEntity
  8
_U+30EC_U+30A4_U+30E4_U+30FC 1
 62
   179
420
  2234388
370
    25
  0
POLYLINE
  5
F1
330
41
100
AcDbEntity
  8
_U+30EC_U+30A4_U+30E4_U+30FC 1
 62
   179
420
  2234388
370
    25
100
AcDb2dPolyline
 66
     1
 10
0.0
 20
0.0
 30
0.0
  0
VERTEX
  5
F2
330
F1
100
AcDbEntity
  8
_U+30EC_U+30A4_U+30E4_U+30FC 1
 62
   179
420
  2234388
370
    25
100
AcDbVertex
100
AcDb2dVertex
 10
85.50521942306828
 20
-125.4531399686368
 30
0.0
  0
VERTEX
  5
F3
330
F1
100
AcDbEntity
  8
_U+30EC_U+30A4_U+30E4_U+30FC 1
 62
   179
420
  2234388
370
    25
100
AcDbVertex
100
AcDb2dVertex
 10
86.09224164514367
 20
-125.0414483020729
 30
0.0
  0
SEQEND
  5
F4
330
F1
100
AcDbEntity
  8
_U+30EC_U+30A4_U+30E4_U+30FC 1
 62
   179
420
  2234388
370
    25
  0
POLYLINE
  5
F5
330
41
100
AcDbEntity
  8
_U+30EC_U+30A4_U+30E4_U+30FC 1
 62
   179
420
  2234388
370
    25
100
AcDb2dPolyline
 66
     1
 10
0.0
 20
0.0
 30
0.0
  0
VERTEX
  5
F6
330
F5
100
AcDbEntity
  8
_U+30EC_U+30A4_U+30E4_U+30FC 1
 62
   179
420
  2234388
370
    25
100
AcDbVertex
100
AcDb2dVertex
 10
86.69584442277063
 20
-125.4297155241983
 30
0.0
  0
VERTEX
  5
F7
330
F5
100
AcDbEntity
  8
_U+30EC_U+30A4_U+30E4_U+30FC 1
 62
   179
420
  2234388
370
    25
100
AcDbVertex
100
AcDb2dVertex
 10
87.28286664484601
 20
-125.0177063576345
 30
0.0
  0
SEQEND
  5
F8
330
F5
100
AcDbEntity
  8
_U+30EC_U+30A4_U+30E4_U+30FC 1
 62
   179
420
  2234388
370
    25
  0
POLYLINE
  5
F9
330
41
100
AcDbEntity
  8
_U+30EC_U+30A4_U+30E4_U+30FC 1
 62
   179
420
  2234388
370
    25
100
AcDb2dPolyline
 66
     1
 10
0.0
 20
0.0
 30
0.0
  0
VERTEX
  5
FA
330
F9
100
AcDbEntity
  8
_U+30EC_U+30A4_U+30E4_U+30FC 1
 62
   179
420
  2234388
370
    25
100
AcDbVertex
100
AcDb2dVertex
 10
86.09224164514367
 20
-125.0414483020729
 30
0.0
  0
VERTEX
  5
FB
330
F9
100
AcDbEntity
  8
_U+30EC_U+30A4_U+30E4_U+30FC 1
 62
   179
420
  2234388
370
    25
100
AcDbVertex
100
AcDb2dVertex
 10
86.69584442277063
 20
-125.4297155241983
 30
0.0
  0
SEQEND
  5
FC
330
F9
100
AcDbEntity
  8
_U+30EC_U+30A4_U+30E4_U+30FC 1
 62
   179
420
  2234388
370
    25
  0
POLYLINE
  5
FD
330
41
100
AcDbEntity
  8
_U+30EC_U+30A4_U+30E4_U+30FC 1
 62
   179
420
  2234388
370
    25
100
AcDb2dPolyline
 66
     1
 10
0.0
 20
0.0
 30
0.0
  0
VERTEX
  5
FE
330
FD
100
AcDbEntity
  8
_U+30EC_U+30A4_U+30E4_U+30FC 1
 62
   179
420
  2234388
370
    25
100
AcDbVertex
100
AcDb2dVertex
 10
87.28286664484601
 20
-125.0177063576345
 30
0.0
  0
VERTEX
  5
FF
330
FD
100
AcDbEntity
  8
_U+30EC_U+30A4_U+30E4_U+30FC 1
 62
   179
420
  2234388
370
    25
100
AcDbVertex
100
AcDb2dVertex
 10
87.88576386691746
 20
-125.4056208019818
 30
0.0
  0
SEQEND
  5
100
330
FD
100
AcDbEntity
  8
_U+30EC_U+30A4_U+30E4_U+30FC 1
 62
   179
420
  2234388
370
    25
  0
POLYLINE
  5
101
330
41
100
AcDbEntity
  8
_U+30EC_U+30A4_U+30E4_U+30FC 1
 62
   179
420
  2234388
370
    25
100
AcDb2dPolyline
 66
     1
 10
0.0
 20
0.0
 30
0.0
  0
VERTEX
  5
102
330
101
100
AcDbEntity
  8
_U+30EC_U+30A4_U+30E4_U+30FC 1
 62
   179
420
  2234388
370
    25
100
AcDbVertex
100
AcDb2dVertex
 10
87.88576386691746
 20
-125.4056208019818
 30
0.0
  0
VERTEX
  5
103
330
101
100
AcDbEntity
  8
_U+30EC_U+30A4_U+30E4_U+30FC 1
 62
   179
420
  2234388
370
    25
100
AcDbVertex
100
AcDb2dVertex
 10
88.47349164454836
 20
-124.9939291354183
 30
0.0
  0
SEQEND
  5
104
330
101
100
AcDbEntity
  8
_U+30EC_U+30A4_U+30E4_U+30FC 1
 62
   179
420
  2234388
370
    25
  0
POLYLINE
  5
105
330
41
100
AcDbEntity
  8
_U+30EC_U+30A4_U+30E4_U+30FC 1
 62
   179
420
  2234388
370
    25
100
AcDb2dPolyline
 66
     1
 10
0.0
 20
0.0
 30
0.0
  0
VERTEX
  5
106
330
105
100
AcDbEntity
  8
_U+30EC_U+30A4_U+30E4_U+30FC 1
 62
   179
420
  2234388
370
    25
100
AcDbVertex
100
AcDb2dVertex
 10
90.06031909125873
 20
-125.4056208019818
 30
0.0
  0
VERTEX
  5
107
330
105
100
AcDbEntity
  8
_U+30EC_U+30A4_U+30E4_U+30FC 1
 62
   179
420
  2234388
370
    25
100
AcDbVertex
100
AcDb2dVertex
 10
89.47326386652058
 20
-124.9939291354183
 30
0.0
  0
SEQEND
  5
108
330
105
100
AcDbEntity
  8
_U+30EC_U+30A4_U+30E4_U+30FC 1
 62
   179
420
  2234388
370
    25
  0
POLYLINE
  5
109
330
41
100
AcDbEntity
  8
_U+30EC_U+30A4_U+30E4_U+30FC 1
 62
   179
420
  2234388
370
    25
100
AcDb2dPolyline
 66
     1
 10
0.0
 20
0.0
 30
0.0
  0
VERTEX
  5
10A
330
109
100
AcDbEntity
  8
_U+30EC_U+30A4_U+30E4_U+30FC 1
 62
   179
420
  2234388
370
    25
100
AcDbVertex
100
AcDb2dVertex
 10
90.66388886622292
 20
-125.0177063576345
 30
0.0
  0
VERTEX
  5
10B
330
109
100
AcDbEntity
  8
_U+30EC_U+30A4_U+30E4_U+30FC 1
 62
   179
420
  2234388
370
    25
100
AcDbVertex
100
AcDb2dVertex
 10
90.06031909125873
 20
-125.4056208019818
 30
0.0
  0
SEQEND
  5
10C
330
109
100
AcDbEntity
  8
_U+30EC_U+30A4_U+30E4_U+30FC 1
 62
   179
420
  2234388
370
    25
  0
POLYLINE
  5
10D
330
41
100
AcDbEntity
  8
_U+30EC_U+30A4_U+30E4_U+30FC 1
 62
   179
420
  2234388
370
    25
100
AcDb2dPolyline
 66
     1
 10
0.0
 20
0.0
 30
0.0
  0
VERTEX
  5
10E
330
10D
100
AcDbEntity
  8
_U+30EC_U+30A4_U+30E4_U+30FC 1
 62
   179
420
  2234388
370
    25
100
AcDbVertex
100
AcDb2dVertex
 10
91.85451386592527
 20
-125.0414483020729
 30
0.0
  0
VERTEX
  5
10F
330
10D
100
AcDbEntity
  8
_U+30EC_U+30A4_U+30E4_U+30FC 1
 62
   179
420
  2234388
370
    25
100
AcDbVertex
100
AcDb2dVertex
 10
91.25094406088336
 20
-125.4297155241983
 30
0.0
  0
SEQEND
  5
110
330
10D
100
AcDbEntity
  8
_U+30EC_U+30A4_U+30E4_U+30FC 1
 62
   179
420
  2234388
370
    25
  0
POLYLINE
  5
111
330
41
100
AcDbEntity
  8
_U+30EC_U+30A4_U+30E4_U+30FC 1
 62
   179
420
  2234388
370
    25
100
AcDb2dPolyline
 66
     1
 10
0.0
 20
0.0
 30
0.0
  0
VERTEX
  5
112
330
111
100
AcDbEntity
  8
_U+30EC_U+30A4_U+30E4_U+30FC 1
 62
   179
420
  2234388
370
    25
100
AcDbVertex
100
AcDb2dVertex
 10
91.25094406088336
 20
-125.4297155241983
 30
0.0
  0
VERTEX
  5
113
330
111
100
AcDbEntity
  8
_U+30EC_U+30A4_U+30E4_U+30FC 1
 62
   179
420
  2234388
370
    25
100
AcDbVertex
100
AcDb2dVertex
 10
90.66388886622292
 20
-125.0177063576345
 30
0.0
  0
SEQEND
  5
114
330
111
100
AcDbEntity
  8
_U+30EC_U+30A4_U+30E4_U+30FC 1
 62
   179
420
  2234388
370
    25
  0
POLYLINE
  5
115
330
41
100
AcDbEntity
  8
_U+30EC_U+30A4_U+30E4_U+30FC 1
 62
   179
420
  2234388
370
    25
100
AcDb2dPolyline
 66
     1
 10
0.0
 20
0.0
 30
0.0
  0
VERTEX
  5
116
330
115
100
AcDbEntity
  8
_U+30EC_U+30A4_U+30E4_U+30FC 1
 62
   179
420
  2234388
370
    25
100
AcDbVertex
100
AcDb2dVertex
 10
92.44156903050798
 20
-125.4531399686368
 30
0.0
  0
VERTEX
  5
117
330
115
100
AcDbEntity
  8
_U+30EC_U+30A4_U+30E4_U+30FC 1
 62
   179
420
  2234388
370
    25
100
AcDbVertex
100
AcDb2dVertex
 10
91.85451386592527
 20
-125.0414483020729
 30
0.0
  0
SEQEND
  5
118
330
115
100
AcDbEntity
  8
_U+30EC_U+30A4_U+30E4_U+30FC 1
 62
   179
420
  2234388
370
    25
  0
POLYLINE
  5
119
330
41
100
AcDbEntity
  8
_U+30EC_U+30A4_U+30E4_U+30FC 1
 62
   179
420
  2234388
370
    25
100
AcDb2dPolyline
 66
     1
 10
0.0
 20
0.0
 30
0.0
  0
VERTEX
  5
11A
330
119
100
AcDbEntity
  8
_U+30EC_U+30A4_U+30E4_U+30FC 1
 62
   179
420
  2234388
370
    25
100
AcDbVertex
100
AcDb2dVertex
 10
93.04443331007208
 20
-125.0652255242892
 30
0.0
  0
VERTEX
  5
11B
330
119
100
AcDbEntity
  8
_U+30EC_U+30A4_U+30E4_U+30FC 1
 62
   179
420
  2234388
370
    25
100
AcDbVertex
100
AcDb2dVertex
 10
92.44156903050798
 20
-125.4531399686368
 30
0.0
  0
SEQEND
  5
11C
330
119
100
AcDbEntity
  8
_U+30EC_U+30A4_U+30E4_U+30FC 1
 62
   179
420
  2234388
370
    25
  0
POLYLINE
  5
11D
330
41
100
AcDbEntity
  8
_U+30EC_U+30A4_U+30E4_U+30FC 1
 62
   179
420
  2234388
370
    25
100
AcDb2dPolyline
 66
     1
 10
0.0
 20
0.0
 30
0.0
  0
VERTEX
  5
11E
330
11D
100
AcDbEntity
  8
_U+30EC_U+30A4_U+30E4_U+30FC 1
 62
   179
420
  2234388
370
    25
100
AcDbVertex
100
AcDb2dVertex
 10
94.23505830977443
 20
-125.0890027465054
 30
0.0
  0
VERTEX
  5
11F
330
11D
100
AcDbEntity
  8
_U+30EC_U+30A4_U+30E4_U+30FC 1
 62
   179
420
  2234388
370
    25
100
AcDbVertex
100
AcDb2dVertex
 10
93.63219400013261
 20
-125.4772699686308
 30
0.0
  0
SEQEND
  5
120
330
11D
100
AcDbEntity
  8
_U+30EC_U+30A4_U+30E4_U+30FC 1
 62
   179
420
  2234388
370
    25
  0
POLYLINE
  5
121
330
41
100
AcDbEntity
  8
_U+30EC_U+30A4_U+30E4_U+30FC 1
 62
   179
420
  2234388
370
    25
100
AcDb2dPolyline
 66
     1
 10
0.0
 20
0.0
 30
0.0
  0
VERTEX
  5
122
330
121
100
AcDbEntity
  8
_U+30EC_U+30A4_U+30E4_U+30FC 1
 62
   179
420
  2234388
370
    25
100
AcDbVertex
100
AcDb2dVertex
 10
93.63219400013261
 20
-125.4772699686308
 30
0.0
  0
VERTEX
  5
123
330
121
100
AcDbEntity
  8
_U+30EC_U+30A4_U+30E4_U+30FC 1
 62
   179
420
  2234388
370
    25
100
AcDbVertex
100
AcDb2dVertex
 10
93.04443331007208
 20
-125.0652255242892
 30
0.0
  0
SEQEND
  5
124
330
121
100
AcDbEntity
  8
_U+30EC_U+30A4_U+30E4_U+30FC 1
 62
   179
420
  2234388
370
    25
  0
POLYLINE
  5
125
330
41
100
AcDbEntity
  8
_U+30EC_U+30A4_U+30E4_U+30FC 1
 62
   179
420
  2234388
370
    25
100
AcDb2dPolyline
 66
     1
 10
0.0
 20
0.0
 30
0.0
  0
VERTEX
  5
126
330
125
100
AcDbEntity
  8
_U+30EC_U+30A4_U+30E4_U+30FC 1
 62
   179
420
  2234388
370
    25
100
AcDbVertex
100
AcDb2dVertex
 10
94.82211341421969
 20
-125.5006944130693
 30
0.0
  0
VERTEX
  5
127
330
125
100
AcDbEntity
  8
_U+30EC_U+30A4_U+30E4_U+30FC 1
 62
   179
420
  2234388
370
    25
100
AcDbVertex
100
AcDb2dVertex
 10
94.23505830977443
 20
-125.0890027465054
 30
0.0
  0
SEQEND
  5
128
330
125
100
AcDbEntity
  8
_U+30EC_U+30A4_U+30E4_U+30FC 1
 62
   179
420
  2234388
370
    25
  0
POLYLINE
  5
129
330
41
100
AcDbEntity
  8
_U+30EC_U+30A4_U+30E4_U+30FC 1
 62
   179
420
  2234388
370
    25
100
AcDb2dPolyline
 66
     1
 10
0.0
 20
0.0
 30
0.0
  0
VERTEX
  5
12A
330
129
100
AcDbEntity
  8
_U+30EC_U+30A4_U+30E4_U+30FC 1
 62
   179
420
  2234388
370
    25
100
AcDbVertex
100
AcDb2dVertex
 10
95.42568330947677
 20
-125.112779968722
 30
0.0
  0
VERTEX
  5
12B
330
129
100
AcDbEntity
  8
_U+30EC_U+30A4_U+30E4_U+30FC 1
 62
   179
420
  2234388
370
    25
100
AcDbVertex
100
AcDb2dVertex
 10
94.82211341421969
 20
-125.5006944130693
 30
0.0
  0
SEQEND
  5
12C
330
129
100
AcDbEntity
  8
_U+30EC_U+30A4_U+30E4_U+30FC 1
 62
   179
420
  2234388
370
    25
  0
POLYLINE
  5
12D
330
41
100
AcDbEntity
  8
_U+30EC_U+30A4_U+30E4_U+30FC 1
 62
   179
420
  2234388
370
    25
100
AcDb2dPolyline
 66
     1
 10
0.0
 20
0.0
 30
0.0
  0
VERTEX
  5
12E
330
12D
100
AcDbEntity
  8
_U+30EC_U+30A4_U+30E4_U+30FC 1
 62
   179
420
  2234388
370
    25
100
AcDbVertex
100
AcDb2dVertex
 10
96.61630830917912
 20
-125.1369099687157
 30
0.0
  0
VERTEX
  5
12F
330
12D
100
AcDbEntity
  8
_U+30EC_U+30A4_U+30E4_U+30FC 1
 62
   179
420
  2234388
370
    25
100
AcDbVertex
100
AcDb2dVertex
 10
96.01273838384431
 20
-125.5248244130633
 30
0.0
  0
SEQEND
  5
130
330
12D
100
AcDbEntity
  8
_U+30EC_U+30A4_U+30E4_U+30FC 1
 62
   179
420
  2234388
370
    25
  0
POLYLINE
  5
131
330
41
100
AcDbEntity
  8
_U+30EC_U+30A4_U+30E4_U+30FC 1
 62
   179
420
  2234388
370
    25
100
AcDb2dPolyline
 66
     1
 10
0.0
 20
0.0
 30
0.0
  0
VERTEX
  5
132
330
131
100
AcDbEntity
  8
_U+30EC_U+30A4_U+30E4_U+30FC 1
 62
   179
420
  2234388
370
    25
100
AcDbVertex
100
AcDb2dVertex
 10
96.01273838384431
 20
-125.5248244130633
 30
0.0
  0
VERTEX
  5
133
330
131
100
AcDbEntity
  8
_U+30EC_U+30A4_U+30E4_U+30FC 1
 62
   179
420
  2234388
370
    25
100
AcDbVertex
100
AcDb2dVertex
 10
95.42568330947677
 20
-125.112779968722
 30
0.0
  0
SEQEND
  5
134
330
131
100
AcDbEntity
  8
_U+30EC_U+30A4_U+30E4_U+30FC 1
 62
   179
420
  2234388
370
    25
  0
POLYLINE
  5
135
330
41
100
AcDbEntity
  8
_U+30EC_U+30A4_U+30E4_U+30FC 1
 62
   179
420
  2234388
370
    25
100
AcDb2dPolyline
 66
     1
 10
0.0
 20
0.0
 30
0.0
  0
VERTEX
  5
136
330
135
100
AcDbEntity
  8
_U+30EC_U+30A4_U+30E4_U+30FC 1
 62
   179
420
  2234388
370
    25
100
AcDbVertex
100
AcDb2dVertex
 10
97.20336335346893
 20
-125.5485663575017
 30
0.0
  0
VERTEX
  5
137
330
135
100
AcDbEntity
  8
_U+30EC_U+30A4_U+30E4_U+30FC 1
 62
   179
420
  2234388
370
    25
100
AcDbVertex
100
AcDb2dVertex
 10
96.61630830917912
 20
-125.1369099687157
 30
0.0
  0
SEQEND
  5
138
330
135
100
AcDbEntity
  8
_U+30EC_U+30A4_U+30E4_U+30FC 1
 62
   179
420
  2234388
370
    25
  0
POLYLINE
  5
139
330
41
100
AcDbEntity
  8
_U+30EC_U+30A4_U+30E4_U+30FC 1
 62
   179
420
  2234388
370
    25
100
AcDb2dPolyline
 66
     1
 10
0.0
 20
0.0
 30
0.0
  0
VERTEX
  5
13A
330
139
100
AcDbEntity
  8
_U+30EC_U+30A4_U+30E4_U+30FC 1
 62
   179
420
  2234388
370
    25
100
AcDbVertex
100
AcDb2dVertex
 10
97.80626056030997
 20
-125.1603344131545
 30
0.0
  0
VERTEX
  5
13B
330
139
100
AcDbEntity
  8
_U+30EC_U+30A4_U+30E4_U+30FC 1
 62
   179
420
  2234388
370
    25
100
AcDbVertex
100
AcDb2dVertex
 10
97.20336335346893
 20
-125.5485663575017
 30
0.0
  0
SEQEND
  5
13C
330
139
100
AcDbEntity
  8
_U+30EC_U+30A4_U+30E4_U+30FC 1
 62
   179
420
  2234388
370
    25
  0
POLYLINE
  5
13D
330
41
100
AcDbEntity
  8
_U+30EC_U+30A4_U+30E4_U+30FC 1
 62
   179
420
  2234388
370
    25
100
AcDb2dPolyline
 66
     1
 10
0.0
 20
0.0
 30
0.0
  0
VERTEX
  5
13E
330
13D
100
AcDbEntity
  8
_U+30EC_U+30A4_U+30E4_U+30FC 1
 62
   179
420
  2234388
370
    25
100
AcDbVertex
100
AcDb2dVertex
 10
98.99688552993459
 20
-125.1844291353706
 30
0.0
  0
VERTEX
  5
13F
330
13D
100
AcDbEntity
  8
_U+30EC_U+30A4_U+30E4_U+30FC 1
 62
   179
420
  2234388
370
    25
100
AcDbVertex
100
AcDb2dVertex
 10
98.39398832309357
 20
-125.5723435797179
 30
0.0
  0
SEQEND
  5
140
330
13D
100
AcDbEntity
  8
_U+30EC_U+30A4_U+30E4_U+30FC 1
 62
   179
420
  2234388
370
    25
  0
POLYLINE
  5
141
330
41
100
AcDbEntity
  8
_U+30EC_U+30A4_U+30E4_U+30FC 1
 62
   179
420
  2234388
370
    25
100
AcDb2dPolyline
 66
     1
 10
0.0
 20
0.0
 30
0.0
  0
VERTEX
  5
142
330
141
100
AcDbEntity
  8
_U+30EC_U+30A4_U+30E4_U+30FC 1
 62
   179
420
  2234388
370
    25
100
AcDbVertex
100
AcDb2dVertex
 10
98.39398832309357
 20
-125.5723435797179
 30
0.0
  0
VERTEX
  5
143
330
141
100
AcDbEntity
  8
_U+30EC_U+30A4_U+30E4_U+30FC 1
 62
   179
420
  2234388
370
    25
100
AcDbVertex
100
AcDb2dVertex
 10
97.80626056030997
 20
-125.1603344131545
 30
0.0
  0
SEQEND
  5
144
330
141
100
AcDbEntity
  8
_U+30EC_U+30A4_U+30E4_U+30FC 1
 62
   179
420
  2234388
370
    25
  0
POLYLINE
  5
145
330
41
100
AcDbEntity
  8
_U+30EC_U+30A4_U+30E4_U+30FC 1
 62
   179
420
  2234388
370
    25
100
AcDb2dPolyline
 66
     1
 10
0.0
 20
0.0
 30
0.0
  0
VERTEX
  5
146
330
145
100
AcDbEntity
  8
_U+30EC_U+30A4_U+30E4_U+30FC 1
 62
   179
420
  2234388
370
    25
100
AcDbVertex
100
AcDb2dVertex
 10
99.58461329271819
 20
-125.5961208019342
 30
0.0
  0
VERTEX
  5
147
330
145
100
AcDbEntity
  8
_U+30EC_U+30A4_U+30E4_U+30FC 1
 62
   179
420
  2234388
370
    25
100
AcDbVertex
100
AcDb2dVertex
 10
98.99688552993459
 20
-125.1844291353706
 30
0.0
  0
SEQEND
  5
148
330
145
100
AcDbEntity
  8
_U+30EC_U+30A4_U+30E4_U+30FC 1
 62
   179
420
  2234388
370
    25
  0
POLYLINE
  5
149
330
41
100
AcDbEntity
  8
_U+30EC_U+30A4_U+30E4_U+30FC 1
 62
   179
420
  2234388
370
    25
100
AcDb2dPolyline
 66
     1
 10
0.0
 20
0.0
 30
0.0
  0
VERTEX
  5
14A
330
149
100
AcDbEntity
  8
_U+30EC_U+30A4_U+30E4_U+30FC 1
 62
   179
420
  2234388
370
    25
100
AcDbVertex
100
AcDb2dVertex
 10
100.1875104995592
 20
-125.2082063575869
 30
0.0
  0
VERTEX
  5
14B
330
149
100
AcDbEntity
  8
_U+30EC_U+30A4_U+30E4_U+30FC 1
 62
   179
420
  2234388
370
    25
100
AcDbVertex
100
AcDb2dVertex
 10
99.58461329271819
 20
-125.5961208019342
 30
0.0
  0
SEQEND
  5
14C
330
149
100
AcDbEntity
  8
_U+30EC_U+30A4_U+30E4_U+30FC 1
 62
   179
420
  2234388
370
    25
  0
POLYLINE
  5
14D
330
41
100
AcDbEntity
  8
_U+30EC_U+30A4_U+30E4_U+30FC 1
 62
   179
420
  2234388
370
    25
100
AcDb2dPolyline
 66
     1
 10
0.0
 20
0.0
 30
0.0
  0
VERTEX
  5
14E
330
14D
100
AcDbEntity
  8
_U+30EC_U+30A4_U+30E4_U+30FC 1
 62
   179
420
  2234388
370
    25
100
AcDbVertex
100
AcDb2dVertex
 10
101.3781354691838
 20
-125.2319835798031
 30
0.0
  0
VERTEX
  5
14F
330
14D
100
AcDbEntity
  8
_U+30EC_U+30A4_U+30E4_U+30FC 1
 62
   179
420
  2234388
370
    25
100
AcDbVertex
100
AcDb2dVertex
 10
100.7745679845821
 20
-125.6198980241507
 30
0.0
  0
SEQEND
  5
150
330
14D
100
AcDbEntity
  8
_U+30EC_U+30A4_U+30E4_U+30FC 1
 62
   179
420
  2234388
370
    25
  0
POLYLINE
  5
151
330
41
100
AcDbEntity
  8
_U+30EC_U+30A4_U+30E4_U+30FC 1
 62
   179
420
  2234388
370
    25
100
AcDb2dPolyline
 66
     1
 10
0.0
 20
0.0
 30
0.0
  0
VERTEX
  5
152
330
151
100
AcDbEntity
  8
_U+30EC_U+30A4_U+30E4_U+30FC 1
 62
   179
420
  2234388
370
    25
100
AcDbVertex
100
AcDb2dVertex
 10
100.7745679845821
 20
-125.6198980241507
 30
0.0
  0
VERTEX
  5
153
330
151
100
AcDbEntity
  8
_U+30EC_U+30A4_U+30E4_U+30FC 1
 62
   179
420
  2234388
370
    25
100
AcDbVertex
100
AcDb2dVertex
 10
100.1875104995592
 20
-125.2082063575869
 30
0.0
  0
SEQEND
  5
154
330
151
100
AcDbEntity
  8
_U+30EC_U+30A4_U+30E4_U+30FC 1
 62
   179
420
  2234388
370
    25
  0
POLYLINE
  5
155
330
41
100
AcDbEntity
  8
_U+30EC_U+30A4_U+30E4_U+30FC 1
 62
   179
420
  2234388
370
    25
100
AcDb2dPolyline
 66
     1
 10
0.0
 20
0.0
 30
0.0
  0
VERTEX
  5
156
330
155
100
AcDbEntity
  8
_U+30EC_U+30A4_U+30E4_U+30FC 1
 62
   179
420
  2234388
370
    25
100
AcDbVertex
100
AcDb2dVertex
 10
101.9651929542068
 20
-125.6440280241444
 30
0.0
  0
VERTEX
  5
157
330
155
100
AcDbEntity
  8
_U+30EC_U+30A4_U+30E4_U+30FC 1
 62
   179
420
  2234388
370
    25
100
AcDbVertex
100
AcDb2dVertex
 10
101.3781354691838
 20
-125.2319835798031
 30
0.0
  0
SEQEND
  5
158
330
155
100
AcDbEntity
  8
_U+30EC_U+30A4_U+30E4_U+30FC 1
 62
   179
420
  2234388
370
    25
  0
POLYLINE
  5
159
330
41
100
AcDbEntity
  8
_U+30EC_U+30A4_U+30E4_U+30FC 1
 62
   179
420
  2234388
370
    25
100
AcDb2dPolyline
 66
     1
 10
0.0
 20
0.0
 30
0.0
  0
VERTEX
  5
15A
330
159
100
AcDbEntity
  8
_U+30EC_U+30A4_U+30E4_U+30FC 1
 62
   179
420
  2234388
370
    25
100
AcDbVertex
100
AcDb2dVertex
 10
102.5687604388085
 20
-125.2557608020194
 30
0.0
  0
VERTEX
  5
15B
330
159
100
AcDbEntity
  8
_U+30EC_U+30A4_U+30E4_U+30FC 1
 62
   179
420
  2234388
370
    25
100
AcDbVertex
100
AcDb2dVertex
 10
101.9651929542068
 20
-125.6440280241444
 30
0.0
  0
SEQEND
  5
15C
330
159
100
AcDbEntity
  8
_U+30EC_U+30A4_U+30E4_U+30FC 1
 62
   179
420
  2234388
370
    25
  0
POLYLINE
  5
15D
330
41
100
AcDbEntity
  8
_U+30EC_U+30A4_U+30E4_U+30FC 1
 62
   179
420
  2234388
370
    25
100
AcDb2dPolyline
 66
     1
 10
0.0
 20
0.0
 30
0.0
  0
VERTEX
  5
15E
330
15D
100
AcDbEntity
  8
_U+30EC_U+30A4_U+30E4_U+30FC 1
 62
   179
420
  2234388
370
    25
100
AcDbVertex
100
AcDb2dVertex
 10
103.7586798528955
 20
-125.2795027464578
 30
0.0
  0
VERTEX
  5
15F
330
15D
100
AcDbEntity
  8
_U+30EC_U+30A4_U+30E4_U+30FC 1
 62
   179
420
  2234388
370
    25
100
AcDbVertex
100
AcDb2dVertex
 10
103.1558179238314
 20
-125.6674524685832
 30
0.0
  0
SEQEND
  5
160
330
15D
100
AcDbEntity
  8
_U+30EC_U+30A4_U+30E4_U+30FC 1
 62
   179
420
  2234388
370
    25
  0
POLYLINE
  5
161
330
41
100
AcDbEntity
  8
_U+30EC_U+30A4_U+30E4_U+30FC 1
 62
   179
420
  2234388
370
    25
100
AcDb2dPolyline
 66
     1
 10
0.0
 20
0.0
 30
0.0
  0
VERTEX
  5
162
330
161
100
AcDbEntity
  8
_U+30EC_U+30A4_U+30E4_U+30FC 1
 62
   179
420
  2234388
370
    25
100
AcDbVertex
100
AcDb2dVertex
 10
103.1558179238314
 20
-125.6674524685832
 30
0.0
  0
VERTEX
  5
163
330
161
100
AcDbEntity
  8
_U+30EC_U+30A4_U+30E4_U+30FC 1
 62
   179
420
  2234388
370
    25
100
AcDbVertex
100
AcDb2dVertex
 10
102.5687604388085
 20
-125.2557608020194
 30
0.0
  0
SEQEND
  5
164
330
161
100
AcDbEntity
  8
_U+30EC_U+30A4_U+30E4_U+30FC 1
 62
   179
420
  2234388
370
    25
  0
POLYLINE
  5
165
330
41
100
AcDbEntity
  8
_U+30EC_U+30A4_U+30E4_U+30FC 1
 62
   179
420
  2234388
370
    25
100
AcDb2dPolyline
 66
     1
 10
0.0
 20
0.0
 30
0.0
  0
VERTEX
  5
166
330
165
100
AcDbEntity
  8
_U+30EC_U+30A4_U+30E4_U+30FC 1
 62
   179
420
  2234388
370
    25
100
AcDbVertex
100
AcDb2dVertex
 10
104.346442893456
 20
-125.6915471907994
 30
0.0
  0
VERTEX
  5
167
330
165
100
AcDbEntity
  8
_U+30EC_U+30A4_U+30E4_U+30FC 1
 62
   179
420
  2234388
370
    25
100
AcDbVertex
100
AcDb2dVertex
 10
103.7586798528955
 20
-125.2795027464578
 30
0.0
  0
SEQEND
  5
168
330
165
100
AcDbEntity
  8
_U+30EC_U+30A4_U+30E4_U+30FC 1
 62
   179
420
  2234388
370
    25
  0
POLYLINE
  5
169
330
41
100
AcDbEntity
  8
_U+30EC_U+30A4_U+30E4_U+30FC 1
 62
   179
420
  2234388
370
    25
100
AcDb2dPolyline
 66
     1
 10
0.0
 20
0.0
 30
0.0
  0
VERTEX
  5
16A
330
169
100
AcDbEntity
  8
_U+30EC_U+30A4_U+30E4_U+30FC 1
 62
   179
420
  2234388
370
    25
100
AcDbVertex
100
AcDb2dVertex
 10
104.9493048225202
 20
-125.3032799686743
 30
0.0
  0
VERTEX
  5
16B
330
169
100
AcDbEntity
  8
_U+30EC_U+30A4_U+30E4_U+30FC 1
 62
   179
420
  2234388
370
    25
100
AcDbVertex
100
AcDb2dVertex
 10
104.346442893456
 20
-125.6915471907994
 30
0.0
  0
SEQEND
  5
16C
330
169
100
AcDbEntity
  8
_U+30EC_U+30A4_U+30E4_U+30FC 1
 62
   179
420
  2234388
370
    25
  0
POLYLINE
  5
16D
330
41
100
AcDbEntity
  8
_U+30EC_U+30A4_U+30E4_U+30FC 1
 62
   179
420
  2234388
370
    25
100
AcDb2dPolyline
 66
     1
 10
0.0
 20
0.0
 30
0.0
  0
VERTEX
  5
16E
330
16D
100
AcDbEntity
  8
_U+30EC_U+30A4_U+30E4_U+30FC 1
 62
   179
420
  2234388
370
    25
100
AcDbVertex
100
AcDb2dVertex
 10
106.1399297921448
 20
-125.3270571908906
 30
0.0
  0
VERTEX
  5
16F
330
16D
100
AcDbEntity
  8
_U+30EC_U+30A4_U+30E4_U+30FC 1
 62
   179
420
  2234388
370
    25
100
AcDbVertex
100
AcDb2dVertex
 10
105.5363623075431
 20
-125.7149716352379
 30
0.0
  0
SEQEND
  5
170
330
16D
100
AcDbEntity
  8
_U+30EC_U+30A4_U+30E4_U+30FC 1
 62
   179
420
  2234388
370
    25
  0
POLYLINE
  5
171
330
41
100
AcDbEntity
  8
_U+30EC_U+30A4_U+30E4_U+30FC 1
 62
   179
420
  2234388
370
    25
100
AcDb2dPolyline
 66
     1
 10
0.0
 20
0.0
 30
0.0
  0
VERTEX
  5
172
330
171
100
AcDbEntity
  8
_U+30EC_U+30A4_U+30E4_U+30FC 1
 62
   179
420
  2234388
370
    25
100
AcDbVertex
100
AcDb2dVertex
 10
105.5363623075431
 20
-125.7149716352379
 30
0.0
  0
VERTEX
  5
173
330
171
100
AcDbEntity
  8
_U+30EC_U+30A4_U+30E4_U+30FC 1
 62
   179
420
  2234388
370
    25
100
AcDbVertex
100
AcDb2dVertex
 10
104.9493048225202
 20
-125.3032799686743
 30
0.0
  0
SEQEND
  5
174
330
171
100
AcDbEntity
  8
_U+30EC_U+30A4_U+30E4_U+30FC 1
 62
   179
420
  2234388
370
    25
  0
POLYLINE
  5
175
330
41
100
AcDbEntity
  8
_U+30EC_U+30A4_U+30E4_U+30FC 1
 62
   179
420
  2234388
370
    25
100
AcDb2dPolyline
 66
     1
 10
0.0
 20
0.0
 30
0.0
  0
VERTEX
  5
176
330
175
100
AcDbEntity
  8
_U+30EC_U+30A4_U+30E4_U+30FC 1
 62
   179
420
  2234388
370
    25
100
AcDbVertex
100
AcDb2dVertex
 10
106.7269872771677
 20
-125.7391016352319
 30
0.0
  0
VERTEX
  5
177
330
175
100
AcDbEntity
  8
_U+30EC_U+30A4_U+30E4_U+30FC 1
 62
   179
420
  2234388
370
    25
100
AcDbVertex
100
AcDb2dVertex
 10
106.1399297921448
 20
-125.3270571908906
 30
0.0
  0
SEQEND
  5
178
330
175
100
AcDbEntity
  8
_U+30EC_U+30A4_U+30E4_U+30FC 1
 62
   179
420
  2234388
370
    25
  0
POLYLINE
  5
179
330
41
100
AcDbEntity
  8
_U+30EC_U+30A4_U+30E4_U+30FC 1
 62
   179
420
  2234388
370
    25
100
AcDb2dPolyline
 66
     1
 10
0.0
 20
0.0
 30
0.0
  0
VERTEX
  5
17A
330
179
100
AcDbEntity
  8
_U+30EC_U+30A4_U+30E4_U+30FC 1
 62
   179
420
  2234388
370
    25
100
AcDbVertex
100
AcDb2dVertex
 10
107.3305547617694
 20
-125.3511871908846
 30
0.0
  0
VERTEX
  5
17B
330
179
100
AcDbEntity
  8
_U+30EC_U+30A4_U+30E4_U+30FC 1
 62
   179
420
  2234388
370
    25
100
AcDbVertex
100
AcDb2dVertex
 10
106.7269872771677
 20
-125.7391016352319
 30
0.0
  0
SEQEND
  5
17C
330
179
100
AcDbEntity
  8
_U+30EC_U+30A4_U+30E4_U+30FC 1
 62
   179
420
  2234388
370
    25
  0
POLYLINE
  5
17D
330
41
100
AcDbEntity
  8
_U+30EC_U+30A4_U+30E4_U+30FC 1
 62
   179
420
  2234388
370
    25
100
AcDb2dPolyline
 66
     1
 10
0.0
 20
0.0
 30
0.0
  0
VERTEX
  5
17E
330
17D
100
AcDbEntity
  8
_U+30EC_U+30A4_U+30E4_U+30FC 1
 62
   179
420
  2234388
370
    25
100
AcDbVertex
100
AcDb2dVertex
 10
108.5211797313941
 20
-125.3746116353231
 30
0.0
  0
VERTEX
  5
17F
330
17D
100
AcDbEntity
  8
_U+30EC_U+30A4_U+30E4_U+30FC 1
 62
   179
420
  2234388
370
    25
100
AcDbVertex
100
AcDb2dVertex
 10
107.9176122467923
 20
-125.7628788574481
 30
0.0
  0
SEQEND
  5
180
330
17D
100
AcDbEntity
  8
_U+30EC_U+30A4_U+30E4_U+30FC 1
 62
   179
420
  2234388
370
    25
  0
POLYLINE
  5
181
330
41
100
AcDbEntity
  8
_U+30EC_U+30A4_U+30E4_U+30FC 1
 62
   179
420
  2234388
370
    25
100
AcDb2dPolyline
 66
     1
 10
0.0
 20
0.0
 30
0.0
  0
VERTEX
  5
182
330
181
100
AcDbEntity
  8
_U+30EC_U+30A4_U+30E4_U+30FC 1
 62
   179
420
  2234388
370
    25
100
AcDbVertex
100
AcDb2dVertex
 10
109.108237216417
 20
-125.7866208018865
 30
0.0
  0
VERTEX
  5
183
330
181
100
AcDbEntity
  8
_U+30EC_U+30A4_U+30E4_U+30FC 1
 62
   179
420
  2234388
370
    25
100
AcDbVertex
100
AcDb2dVertex
 10
108.5211797313941
 20
-125.3746116353231
 30
0.0
  0
SEQEND
  5
184
330
181
100
AcDbEntity
  8
_U+30EC_U+30A4_U+30E4_U+30FC 1
 62
   179
420
  2234388
370
    25
  0
POLYLINE
  5
185
330
41
100
AcDbEntity
  8
_U+30EC_U+30A4_U+30E4_U+30FC 1
 62
   179
420
  2234388
370
    25
100
AcDb2dPolyline
 66
     1
 10
0.0
 20
0.0
 30
0.0
  0
VERTEX
  5
186
330
185
100
AcDbEntity
  8
_U+30EC_U+30A4_U+30E4_U+30FC 1
 62
   179
420
  2234388
370
    25
100
AcDbVertex
100
AcDb2dVertex
 10
107.9176122467923
 20
-125.7628788574481
 30
0.0
  0
VERTEX
  5
187
330
185
100
AcDbEntity
  8
_U+30EC_U+30A4_U+30E4_U+30FC 1
 62
   179
420
  2234388
370
    25
100
AcDbVertex
100
AcDb2dVertex
 10
107.3305547617694
 20
-125.3511871908846
 30
0.0
  0
SEQEND
  5
188
330
185
100
AcDbEntity
  8
_U+30EC_U+30A4_U+30E4_U+30FC 1
 62
   179
420
  2234388
370
    25
  0
POLYLINE
  5
189
330
41
100
AcDbEntity
  8
_U+30EC_U+30A4_U+30E4_U+30FC 1
 62
   179
420
  2234388
370
    25
100
AcDb2dPolyline
 66
     1
 10
0.0
 20
0.0
 30
0.0
  0
VERTEX
  5
18A
330
189
100
AcDbEntity
  8
_U+30EC_U+30A4_U+30E4_U+30FC 1
 62
   179
420
  2234388
370
    25
100
AcDbVertex
100
AcDb2dVertex
 10
109.711134423258
 20
-125.3987063575392
 30
0.0
  0
VERTEX
  5
18B
330
189
100
AcDbEntity
  8
_U+30EC_U+30A4_U+30E4_U+30FC 1
 62
   179
420
  2234388
370
    25
100
AcDbVertex
100
AcDb2dVertex
 10
109.108237216417
 20
-125.7866208018865
 30
0.0
  0
SEQEND
  5
18C
330
189
100
AcDbEntity
  8
_U+30EC_U+30A4_U+30E4_U+30FC 1
 62
   179
420
  2234388
370
    25
  0
POLYLINE
  5
18D
330
41
100
AcDbEntity
  8
_U+30EC_U+30A4_U+30E4_U+30FC 1
 62
   179
420
  2234388
370
    25
100
AcDb2dPolyline
 66
     1
 10
0.0
 20
0.0
 30
0.0
  0
VERTEX
  5
18E
330
18D
100
AcDbEntity
  8
_U+30EC_U+30A4_U+30E4_U+30FC 1
 62
   179
420
  2234388
370
    25
100
AcDbVertex
100
AcDb2dVertex
 10
111.4888168779055
 20
-125.8341752463193
 30
0.0
  0
VERTEX
  5
18F
330
18D
100
AcDbEntity
  8
_U+30EC_U+30A4_U+30E4_U+30FC 1
 62
   179
420
  2234388
370
    25
100
AcDbVertex
100
AcDb2dVertex
 10
110.9017593928826
 20
-125.4224835797555
 30
0.0
  0
SEQEND
  5
190
330
18D
100
AcDbEntity
  8
_U+30EC_U+30A4_U+30E4_U+30FC 1
 62
   179
420
  2234388
370
    25
  0
POLYLINE
  5
191
330
41
100
AcDbEntity
  8
_U+30EC_U+30A4_U+30E4_U+30FC 1
 62
   179
420
  2234388
370
    25
100
AcDb2dPolyline
 66
     1
 10
0.0
 20
0.0
 30
0.0
  0
VERTEX
  5
192
330
191
100
AcDbEntity
  8
_U+30EC_U+30A4_U+30E4_U+30FC 1
 62
   179
420
  2234388
370
    25
100
AcDbVertex
100
AcDb2dVertex
 10
110.9017593928826
 20
-125.4224835797555
 30
0.0
  0
VERTEX
  5
193
330
191
100
AcDbEntity
  8
_U+30EC_U+30A4_U+30E4_U+30FC 1
 62
   179
420
  2234388
370
    25
100
AcDbVertex
100
AcDb2dVertex
 10
110.2988621860416
 20
-125.8103980241031
 30
0.0
  0
SEQEND
  5
194
330
191
100
AcDbEntity
  8
_U+30EC_U+30A4_U+30E4_U+30FC 1
 62
   179
420
  2234388
370
    25
  0
POLYLINE
  5
195
330
41
100
AcDbEntity
  8
_U+30EC_U+30A4_U+30E4_U+30FC 1
 62
   179
420
  2234388
370
    25
100
AcDb2dPolyline
 66
     1
 10
0.0
 20
0.0
 30
0.0
  0
VERTEX
  5
196
330
195
100
AcDbEntity
  8
_U+30EC_U+30A4_U+30E4_U+30FC 1
 62
   179
420
  2234388
370
    25
100
AcDbVertex
100
AcDb2dVertex
 10
112.0923843625072
 20
-125.4462608019717
 30
0.0
  0
VERTEX
  5
197
330
195
100
AcDbEntity
  8
_U+30EC_U+30A4_U+30E4_U+30FC 1
 62
   179
420
  2234388
370
    25
100
AcDbVertex
100
AcDb2dVertex
 10
111.4888168779055
 20
-125.8341752463193
 30
0.0
  0
SEQEND
  5
198
330
195
100
AcDbEntity
  8
_U+30EC_U+30A4_U+30E4_U+30FC 1
 62
   179
420
  2234388
370
    25
  0
POLYLINE
  5
199
330
41
100
AcDbEntity
  8
_U+30EC_U+30A4_U+30E4_U+30FC 1
 62
   179
420
  2234388
370
    25
100
AcDb2dPolyline
 66
     1
 10
0.0
 20
0.0
 30
0.0
  0
VERTEX
  5
19A
330
199
100
AcDbEntity
  8
_U+30EC_U+30A4_U+30E4_U+30FC 1
 62
   179
420
  2234388
370
    25
100
AcDbVertex
100
AcDb2dVertex
 10
110.2988621860416
 20
-125.8103980241031
 30
0.0
  0
VERTEX
  5
19B
330
199
100
AcDbEntity
  8
_U+30EC_U+30A4_U+30E4_U+30FC 1
 62
   179
420
  2234388
370
    25
100
AcDbVertex
100
AcDb2dVertex
 10
109.711134423258
 20
-125.3987063575392
 30
0.0
  0
SEQEND
  5
19C
330
199
100
AcDbEntity
  8
_U+30EC_U+30A4_U+30E4_U+30FC 1
 62
   179
420
  2234388
370
    25
  0
POLYLINE
  5
19D
330
41
100
AcDbEntity
  8
_U+30EC_U+30A4_U+30E4_U+30FC 1
 62
   179
420
  2234388
370
    25
100
AcDb2dPolyline
 66
     1
 10
0.0
 20
0.0
 30
0.0
  0
VERTEX
  5
19E
330
19D
100
AcDbEntity
  8
_U+30EC_U+30A4_U+30E4_U+30FC 1
 62
   179
420
  2234388
370
    25
100
AcDbVertex
100
AcDb2dVertex
 10
113.8700668171548
 20
-125.8817296907518
 30
0.0
  0
VERTEX
  5
19F
330
19D
100
AcDbEntity
  8
_U+30EC_U+30A4_U+30E4_U+30FC 1
 62
   179
420
  2234388
370
    25
100
AcDbVertex
100
AcDb2dVertex
 10
113.2830093321319
 20
-125.470038024188
 30
0.0
  0
SEQEND
  5
1A0
330
19D
100
AcDbEntity
  8
_U+30EC_U+30A4_U+30E4_U+30FC 1
 62
   179
420
  2234388
370
    25
  0
POLYLINE
  5
1A1
330
41
100
AcDbEntity
  8
_U+30EC_U+30A4_U+30E4_U+30FC 1
 62
   179
420
  2234388
370
    25
100
AcDb2dPolyline
 66
     1
 10
0.0
 20
0.0
 30
0.0
  0
VERTEX
  5
1A2
330
1A1
100
AcDbEntity
  8
_U+30EC_U+30A4_U+30E4_U+30FC 1
 62
   179
420
  2234388
370
    25
100
AcDbVertex
100
AcDb2dVertex
 10
112.6794418475302
 20
-125.8583052463134
 30
0.0
  0
VERTEX
  5
1A3
330
1A1
100
AcDbEntity
  8
_U+30EC_U+30A4_U+30E4_U+30FC 1
 62
   179
420
  2234388
370
    25
100
AcDbVertex
100
AcDb2dVertex
 10
112.0923843625072
 20
-125.4462608019717
 30
0.0
  0
SEQEND
  5
1A4
330
1A1
100
AcDbEntity
  8
_U+30EC_U+30A4_U+30E4_U+30FC 1
 62
   179
420
  2234388
370
    25
  0
POLYLINE
  5
1A5
330
41
100
AcDbEntity
  8
_U+30EC_U+30A4_U+30E4_U+30FC 1
 62
   179
420
  2234388
370
    25
100
AcDb2dPolyline
 66
     1
 10
0.0
 20
0.0
 30
0.0
  0
VERTEX
  5
1A6
330
1A5
100
AcDbEntity
  8
_U+30EC_U+30A4_U+30E4_U+30FC 1
 62
   179
420
  2234388
370
    25
100
AcDbVertex
100
AcDb2dVertex
 10
114.472928746219
 20
-125.4938152464042
 30
0.0
  0
VERTEX
  5
1A7
330
1A5
100
AcDbEntity
  8
_U+30EC_U+30A4_U+30E4_U+30FC 1
 62
   179
420
  2234388
370
    25
100
AcDbVertex
100
AcDb2dVertex
 10
113.8700668171548
 20
-125.8817296907518
 30
0.0
  0
SEQEND
  5
1A8
330
1A5
100
AcDbEntity
  8
_U+30EC_U+30A4_U+30E4_U+30FC 1
 62
   179
420
  2234388
370
    25
  0
POLYLINE
  5
1A9
330
41
100
AcDbEntity
  8
_U+30EC_U+30A4_U+30E4_U+30FC 1
 62
   179
420
  2234388
370
    25
100
AcDb2dPolyline
 66
     1
 10
0.0
 20
0.0
 30
0.0
  0
VERTEX
  5
1AA
330
1A9
100
AcDbEntity
  8
_U+30EC_U+30A4_U+30E4_U+30FC 1
 62
   179
420
  2234388
370
    25
100
AcDbVertex
100
AcDb2dVertex
 10
90.34832686168882
 20
-125.9940188573904
 30
0.0
  0
VERTEX
  5
1AB
330
1A9
100
AcDbEntity
  8
_U+30EC_U+30A4_U+30E4_U+30FC 1
 62
   179
420
  2234388
370
    25
100
AcDbVertex
100
AcDb2dVertex
 10
90.47303608849279
 20
-133.9942427442791
 30
0.0
  0
SEQEND
  5
1AC
330
1A9
100
AcDbEntity
  8
_U+30EC_U+30A4_U+30E4_U+30FC 1
 62
   179
420
  2234388
370
    25
  0
POLYLINE
  5
1AD
330
41
100
AcDbEntity
  8
_U+30EC_U+30A4_U+30E4_U+30FC 1
 62
   179
420
  2234388
370
    25
100
AcDb2dPolyline
 66
     1
 10
0.0
 20
0.0
 30
0.0
  0
VERTEX
  5
1AE
330
1AD
100
AcDbEntity
  8
_U+30EC_U+30A4_U+30E4_U+30FC 1
 62
   179
420
  2234388
370
    25
100
AcDbVertex
100
AcDb2dVertex
 10
113.2830093321319
 20
-125.470038024188
 30
0.0
  0
VERTEX
  5
1AF
330
1AD
100
AcDbEntity
  8
_U+30EC_U+30A4_U+30E4_U+30FC 1
 62
   179
420
  2234388
370
    25
100
AcDbVertex
100
AcDb2dVertex
 10
112.6794418475302
 20
-125.8583052463134
 30
0.0
  0
SEQEND
  5
1B0
330
1AD
100
AcDbEntity
  8
_U+30EC_U+30A4_U+30E4_U+30FC 1
 62
   179
420
  2234388
370
    25
  0
POLYLINE
  5
1B1
330
41
100
AcDbEntity
  8
_U+30EC_U+30A4_U+30E4_U+30FC 1
 62
   179
420
  2234388
370
    25
100
AcDb2dPolyline
 66
     1
 10
0.0
 20
0.0
 30
0.0
  0
VERTEX
  5
1B2
330
1B1
100
AcDbEntity
  8
_U+30EC_U+30A4_U+30E4_U+30FC 1
 62
   179
420
  2234388
370
    25
100
AcDbVertex
100
AcDb2dVertex
 10
114.472928746219
 20
-125.4938152464042
 30
0.0
  0
VERTEX
  5
1B3
330
1B1
100
AcDbEntity
  8
_U+30EC_U+30A4_U+30E4_U+30FC 1
 62
   179
420
  2234388
370
    25
100
AcDbVertex
100
AcDb2dVertex
 10
114.472928746219
 20
-125.9940188573904
 30
0.0
  0
SEQEND
  5
1B4
330
1B1
100
AcDbEntity
  8
_U+30EC_U+30A4_U+30E4_U+30FC 1
 62
   179
420
  2234388
370
    25
  0
POLYLINE
  5
1B5
330
41
100
AcDbEntity
  8
_U+30EC_U+30A4_U+30E4_U+30FC 1
 62
   179
420
  2234388
370
    25
100
AcDb2dPolyline
 66
     1
 10
0.0
 20
0.0
 30
0.0
  0
VERTEX
  5
1B6
330
1B5
100
AcDbEntity
  8
_U+30EC_U+30A4_U+30E4_U+30FC 1
 62
   179
420
  2234388
370
    25
100
AcDbVertex
100
AcDb2dVertex
 10
89.47326386652058
 20
-124.9939291354183
 30
0.0
  0
VERTEX
  5
1B7
330
1B5
100
AcDbEntity
  8
_U+30EC_U+30A4_U+30E4_U+30FC 1
 62
   179
420
  2234388
370
    25
100
AcDbVertex
100
AcDb2dVertex
 10
89.59796854749872
 20
-132.9937649667516
 30
0.0
  0
SEQEND
  5
1B8
330
1B5
100
AcDbEntity
  8
_U+30EC_U+30A4_U+30E4_U+30FC 1
 62
   179
420
  2234388
370
    25
  0
POLYLINE
  5
1B9
330
41
100
AcDbEntity
  8
_U+30EC_U+30A4_U+30E4_U+30FC 1
 62
   179
420
  2234388
370
    25
100
AcDb2dPolyline
 66
     1
 10
0.0
 20
0.0
 30
0.0
  0
VERTEX
  5
1BA
330
1B9
100
AcDbEntity
  8
_U+30EC_U+30A4_U+30E4_U+30FC 1
 62
   179
420
  2234388
370
    25
100
AcDbVertex
100
AcDb2dVertex
 10
114.472928746219
 20
-125.9940188573904
 30
0.0
  0
VERTEX
  5
1BB
330
1B9
100
AcDbEntity
  8
_U+30EC_U+30A4_U+30E4_U+30FC 1
 62
   179
420
  2234388
370
    25
100
AcDbVertex
100
AcDb2dVertex
 10
90.34832686168882
 20
-125.9940188573904
 30
0.0
  0
SEQEND
  5
1BC
330
1B9
100
AcDbEntity
  8
_U+30EC_U+30A4_U+30E4_U+30FC 1
 62
   179
420
  2234388
370
    25
  0
SPLINE
  5
1BD
330
41
100
AcDbEntity
  8
_U+30EC_U+30A4_U+30E4_U+30FC 1
 62
   179
420
  2234388
370
     9
100
AcDbSpline
210
0.0
220
0.0
230
1.0
 70
    11
 71
     3
 72
    17
 73
    13
 74
     0
 42
0.0000000001
 43
0.0000000001
 12
1.0
 22
0.0
 32
0.0
 13
1.0
 23
0.0
 33
0.0
 40
0.0
 40
0.0
 40
0.0
 40
0.0
 40
1.0
 40
1.0
 40
1.0
 40
2.0
 40
2.0
 40
2.0
 40
3.0
 40
3.0
 40
3.0
 40
4.0
 40
4.0
 40
4.0
 40
4.0
 10
63.57355254477022
 20
-120.9938171919736
 30
0.0
 10
63.57355254477022
 20
-120.9387133030987
 30
0.0
 10
63.52874976813546
 20
-120.893910525332
 30
0.0
 10
63.47364588065238
 20
-120.893910525332
 30
0.0
 10
63.41818921540054
 20
-120.893910525332
 30
0.0
 10
63.37338643876577
 20
-120.9387133030987
 30
0.0
 10
63.37338643876577
 20
-120.9938171919736
 30
0.0
 10
63.37338643876577
 20
-121.0490974697377
 30
0.0
 10
63.41818921540054
 20
-121.0939002475045
 30
0.0
 10
63.47364588065238
 20
-121.0939002475045
 30
0.0
 10
63.52874976813546
 20
-121.0939002475045
 30
0.0
 10
63.57355254477022
 20
-121.0490974697377
 30
0.0
 10
63.57355254477022
 20
-120.9938171919736
 30
0.0
  0
SPLINE
  5
1BE
330
41
100
AcDbEntity
  8
_U+30EC_U+30A4_U+30E4_U+30FC 1
 62
   179
420
  2234388
370
     9
100
AcDbSpline
210
0.0
220
0.0
230
1.0
 70
    11
 71
     3
 72
    17
 73
    13
 74
     0
 42
0.0000000001
 43
0.0000000001
 12
1.0
 22
0.0
 32
0.0
 13
1.0
 23
0.0
 33
0.0
 40
0.0
 40
0.0
 40
0.0
 40
0.0
 40
1.0
 40
1.0
 40
1.0
 40
2.0
 40
2.0
 40
2.0
 40
3.0
 40
3.0
 40
3.0
 40
4.0
 40
4.0
 40
4.0
 40
4.0
 10
59.57344070237713
 20
-125.4938152464042
 30
0.0
 10
59.57344070237713
 20
-125.4386760797515
 30
0.0
 10
59.52867320351925
 20
-125.3939085797626
 30
0.0
 10
59.4735340382593
 20
-125.3939085797626
 30
0.0
 10
59.41843015077622
 20
-125.3939085797626
 30
0.0
 10
59.37362737414146
 20
-125.4386760797515
 30
0.0
 10
59.37362737414146
 20
-125.4938152464042
 30
0.0
 10
59.37362737414146
 20
-125.5489191352794
 30
0.0
 10
59.41843015077622
 20
-125.5937219130462
 30
0.0
 10
59.4735340382593
 20
-125.5937219130462
 30
0.0
 10
59.52867320351925
 20
-125.5937219130462
 30
0.0
 10
59.57344070237713
 20
-125.5489191352794
 30
0.0
 10
59.57344070237713
 20
-125.4938152464042
 30
0.0
  0
SPLINE
  5
1BF
330
41
100
AcDbEntity
  8
_U+30EC_U+30A4_U+30E4_U+30FC 1
 62
   179
420
  2234388
370
     9
100
AcDbSpline
210
0.0
220
0.0
230
1.0
 70
    11
 71
     3
 72
    17
 73
    13
 74
     0
 42
0.0000000001
 43
0.0000000001
 12
1.0
 22
0.0
 32
0.0
 13
1.0
 23
0.0
 33
0.0
 40
0.0
 40
0.0
 40
0.0
 40
0.0
 40
1.0
 40
1.0
 40
1.0
 40
2.0
 40
2.0
 40
2.0
 40
3.0
 40
3.0
 40
3.0
 40
4.0
 40
4.0
 40
4.0
 40
4.0
 10
59.57344070237713
 20
-125.9940188573904
 30
0.0
 10
59.57344070237713
 20
-125.9385621907377
 30
0.0
 10
59.52867320351925
 20
-125.8937946907488
 30
0.0
 10
59.4735340382593
 20
-125.8937946907488
 30
0.0
 10
59.41843015077622
 20
-125.8937946907488
 30
0.0
 10
59.37362737414146
 20
-125.9385621907377
 30
0.0
 10
59.37362737414146
 20
-125.9940188573904
 30
0.0
 10
59.37362737414146
 20
-126.0491580240432
 30
0.0
 10
59.41843015077622
 20
-126.093925524032
 30
0.0
 10
59.4735340382593
 20
-126.093925524032
 30
0.0
 10
59.52867320351925
 20
-126.093925524032
 30
0.0
 10
59.57344070237713
 20
-126.0491580240432
 30
0.0
 10
59.57344070237713
 20
-125.9940188573904
 30
0.0
  0
SPLINE
  5
1C0
330
41
100
AcDbEntity
  8
_U+30EC_U+30A4_U+30E4_U+30FC 1
 62
   179
420
  2234388
370
     9
100
AcDbSpline
210
0.0
220
0.0
230
1.0
 70
    11
 71
     3
 72
    17
 73
    13
 74
     0
 42
0.0000000001
 43
0.0000000001
 12
1.0
 22
0.0
 32
0.0
 13
1.0
 23
0.0
 33
0.0
 40
0.0
 40
0.0
 40
0.0
 40
0.0
 40
1.0
 40
1.0
 40
1.0
 40
2.0
 40
2.0
 40
2.0
 40
3.0
 40
3.0
 40
3.0
 40
4.0
 40
4.0
 40
4.0
 40
4.0
 10
59.57344070237713
 20
-133.9942427442791
 30
0.0
 10
59.57344070237713
 20
-133.9387507998489
 30
0.0
 10
59.52867320351925
 20
-133.8939832998597
 30
0.0
 10
59.4735340382593
 20
-133.8939832998597
 30
0.0
 10
59.41843015077622
 20
-133.8939832998597
 30
0.0
 10
59.37362737414146
 20
-133.9387507998489
 30
0.0
 10
59.37362737414146
 20
-133.9942427442791
 30
0.0
 10
59.37362737414146
 20
-134.0493466331546
 30
0.0
 10
59.41843015077622
 20
-134.0941494109207
 30
0.0
 10
59.4735340382593
 20
-134.0941494109207
 30
0.0
 10
59.52867320351925
 20
-134.0941494109207
 30
0.0
 10
59.57344070237713
 20
-134.0493466331546
 30
0.0
 10
59.57344070237713
 20
-133.9942427442791
 30
0.0
  0
SPLINE
  5
1C1
330
41
100
AcDbEntity
  8
_U+30EC_U+30A4_U+30E4_U+30FC 1
 62
   179
420
  2234388
370
     9
100
AcDbSpline
210
0.0
220
0.0
230
1.0
 70
    11
 71
     3
 72
    17
 73
    13
 74
     0
 42
0.0000000001
 43
0.0000000001
 12
1.0
 22
0.0
 32
0.0
 13
1.0
 23
0.0
 33
0.0
 40
0.0
 40
0.0
 40
0.0
 40
0.0
 40
1.0
 40
1.0
 40
1.0
 40
2.0
 40
2.0
 40
2.0
 40
3.0
 40
3.0
 40
3.0
 40
4.0
 40
4.0
 40
4.0
 40
4.0
 10
88.57339607363774
 20
-120.9938171919736
 30
0.0
 10
88.57339607363774
 20
-120.9387133030987
 30
0.0
 10
88.52862857477986
 20
-120.893910525332
 30
0.0
 10
88.47349164454836
 20
-120.893910525332
 30
0.0
 10
88.41838552203683
 20
-120.893910525332
 30
0.0
 10
88.37358274540208
 20
-120.9387133030987
 30
0.0
 10
88.37358274540208
 20
-120.9938171919736
 30
0.0
 10
88.37358274540208
 20
-121.0490974697377
 30
0.0
 10
88.41838552203683
 20
-121.0939002475045
 30
0.0
 10
88.47349164454836
 20
-121.0939002475045
 30
0.0
 10
88.52862857477986
 20
-121.0939002475045
 30
0.0
 10
88.57339607363774
 20
-121.0490974697377
 30
0.0
 10
88.57339607363774
 20
-120.9938171919736
 30
0.0
  0
SPLINE
  5
1C2
330
41
100
AcDbEntity
  8
_U+30EC_U+30A4_U+30E4_U+30FC 1
 62
   179
420
  2234388
370
     9
100
AcDbSpline
210
0.0
220
0.0
230
1.0
 70
    11
 71
     3
 72
    17
 73
    13
 74
     0
 42
0.0000000001
 43
0.0000000001
 12
1.0
 22
0.0
 32
0.0
 13
1.0
 23
0.0
 33
0.0
 40
0.0
 40
0.0
 40
0.0
 40
0.0
 40
1.0
 40
1.0
 40
1.0
 40
2.0
 40
2.0
 40
2.0
 40
3.0
 40
3.0
 40
3.0
 40
4.0
 40
4.0
 40
4.0
 40
4.0
 10
89.57316827035365
 20
-120.9938171919736
 30
0.0
 10
89.57316827035365
 20
-120.9387133030987
 30
0.0
 10
89.52840077149577
 20
-120.893910525332
 30
0.0
 10
89.47326386652058
 20
-120.893910525332
 30
0.0
 10
89.41815771875274
 20
-120.893910525332
 30
0.0
 10
89.37335494211798
 20
-120.9387133030987
 30
0.0
 10
89.37335494211798
 20
-120.9938171919736
 30
0.0
 10
89.37335494211798
 20
-121.0490974697377
 30
0.0
 10
89.41815771875274
 20
-121.0939002475045
 30
0.0
 10
89.47326386652058
 20
-121.0939002475045
 30
0.0
 10
89.52840077149577
 20
-121.0939002475045
 30
0.0
 10
89.57316827035365
 20
-121.0490974697377
 30
0.0
 10
89.57316827035365
 20
-120.9938171919736
 30
0.0
  0
SPLINE
  5
1C3
330
41
100
AcDbEntity
  8
_U+30EC_U+30A4_U+30E4_U+30FC 1
 62
   179
420
  2234388
370
     9
100
AcDbSpline
210
0.0
220
0.0
230
1.0
 70
    11
 71
     3
 72
    17
 73
    13
 74
     0
 42
0.0000000001
 43
0.0000000001
 12
1.0
 22
0.0
 32
0.0
 13
1.0
 23
0.0
 33
0.0
 40
0.0
 40
0.0
 40
0.0
 40
0.0
 40
1.0
 40
1.0
 40
1.0
 40
2.0
 40
2.0
 40
2.0
 40
3.0
 40
3.0
 40
3.0
 40
4.0
 40
4.0
 40
4.0
 40
4.0
 10
114.5735409658743
 20
-120.9938171919736
 30
0.0
 10
114.5735409658743
 20
-120.9387133030987
 30
0.0
 10
114.5287381892396
 20
-120.893910525332
 30
0.0
 10
114.472928746219
 20
-120.893910525332
 30
0.0
 10
114.4178277491736
 20
-120.893910525332
 30
0.0
 10
114.3730249714069
 20
-120.9387133030987
 30
0.0
 10
114.3730249714069
 20
-120.9938171919736
 30
0.0
 10
114.3730249714069
 20
-121.0490974697377
 30
0.0
 10
114.4178277491736
 20
-121.0939002475045
 30
0.0
 10
114.472928746219
 20
-121.0939002475045
 30
0.0
 10
114.5287381892396
 20
-121.0939002475045
 30
0.0
 10
114.5735409658743
 20
-121.0490974697377
 30
0.0
 10
114.5735409658743
 20
-120.9938171919736
 30
0.0
  0
SPLINE
  5
1C4
330
41
100
AcDbEntity
  8
_U+30EC_U+30A4_U+30E4_U+30FC 1
 62
   179
420
  2234388
370
     9
100
AcDbSpline
210
0.0
220
0.0
230
1.0
 70
    11
 71
     3
 72
    17
 73
    13
 74
     0
 42
0.0000000001
 43
0.0000000001
 12
1.0
 22
0.0
 32
0.0
 13
1.0
 23
0.0
 33
0.0
 40
0.0
 40
0.0
 40
0.0
 40
0.0
 40
1.0
 40
1.0
 40
1.0
 40
2.0
 40
2.0
 40
2.0
 40
3.0
 40
3.0
 40
3.0
 40
4.0
 40
4.0
 40
4.0
 40
4.0
 10
90.57294046706956
 20
-137.994001909946
 30
0.0
 10
90.57294046706956
 20
-137.9388627432929
 30
0.0
 10
90.52813769043479
 20
-137.8940952433043
 30
0.0
 10
90.47303608849279
 20
-137.8940952433043
 30
0.0
 10
90.41789463769177
 20
-137.8940952433043
 30
0.0
 10
90.3731271388339
 20
-137.9388627432929
 30
0.0
 10
90.3731271388339
 20
-137.994001909946
 30
0.0
 10
90.3731271388339
 20
-138.0491057988208
 30
0.0
 10
90.41789463769177
 20
-138.0939085765876
 30
0.0
 10
90.47303608849279
 20
-138.0939085765876
 30
0.0
 10
90.52813769043479
 20
-138.0939085765876
 30
0.0
 10
90.57294046706956
 20
-138.0491057988208
 30
0.0
 10
90.57294046706956
 20
-137.994001909946
 30
0.0
  0
SPLINE
  5
1C5
330
41
100
AcDbEntity
  8
_U+30EC_U+30A4_U+30E4_U+30FC 1
 62
   179
420
  2234388
370
     9
100
AcDbSpline
210
0.0
220
0.0
230
1.0
 70
    11
 71
     3
 72
    17
 73
    13
 74
     0
 42
0.0000000001
 43
0.0000000001
 12
1.0
 22
0.0
 32
0.0
 13
1.0
 23
0.0
 33
0.0
 40
0.0
 40
0.0
 40
0.0
 40
0.0
 40
1.0
 40
1.0
 40
1.0
 40
2.0
 40
2.0
 40
2.0
 40
3.0
 40
3.0
 40
3.0
 40
4.0
 40
4.0
 40
4.0
 40
4.0
 10
87.57362387692183
 20
-137.994001909946
 30
0.0
 10
87.57362387692183
 20
-137.9388627432929
 30
0.0
 10
87.52885637806395
 20
-137.8940952433043
 30
0.0
 10
87.47304693504331
 20
-137.8940952433043
 30
0.0
 10
87.41790776978337
 20
-137.8940952433043
 30
0.0
 10
87.37314027092549
 20
-137.9388627432929
 30
0.0
 10
87.37314027092549
 20
-137.994001909946
 30
0.0
 10
87.37314027092549
 20
-138.0491057988208
 30
0.0
 10
87.41790776978337
 20
-138.0939085765876
 30
0.0
 10
87.47304693504331
 20
-138.0939085765876
 30
0.0
 10
87.52885637806395
 20
-138.0939085765876
 30
0.0
 10
87.57362387692183
 20
-138.0491057988208
 30
0.0
 10
87.57362387692183
 20
-137.994001909946
 30
0.0
  0
POLYLINE
  5
1C6
330
41
100
AcDbEntity
  8
_U+30EC_U+30A4_U+30E4_U+30FC 1
 62
   179
420
  2234388
370
     9
100
AcDb2dPolyline
 66
     1
 10
0.0
 20
0.0
 30
0.0
  0
VERTEX
  5
1C7
330
1C6
100
AcDbEntity
  8
_U+30EC_U+30A4_U+30E4_U+30FC 1
 62
   179
420
  2234388
370
     9
100
AcDbVertex
100
AcDb2dVertex
 10
63.47364588065238
 20
-120.9938171919736
 30
0.0
  0
VERTEX
  5
1C8
330
1C6
100
AcDbEntity
  8
_U+30EC_U+30A4_U+30E4_U+30FC 1
 62
   179
420
  2234388
370
     9
100
AcDbVertex
100
AcDb2dVertex
 10
88.47349164454836
 20
-120.9938171919736
 30
0.0
  0
SEQEND
  5
1C9
330
1C6
100
AcDbEntity
  8
_U+30EC_U+30A4_U+30E4_U+30FC 1
 62
   179
420
  2234388
370
     9
  0
POLYLINE
  5
1CA
330
41
100
AcDbEntity
  8
_U+30EC_U+30A4_U+30E4_U+30FC 1
 62
   179
420
  2234388
370
     9
100
AcDb2dPolyline
 66
     1
 10
0.0
 20
0.0
 30
0.0
  0
VERTEX
  5
1CB
330
1CA
100
AcDbEntity
  8
_U+30EC_U+30A4_U+30E4_U+30FC 1
 62
   179
420
  2234388
370
     9
100
AcDbVertex
100
AcDb2dVertex
 10
63.47364588065238
 20
-122.9539210803728
 30
0.0
  0
VERTEX
  5
1CC
330
1CA
100
AcDbEntity
  8
_U+30EC_U+30A4_U+30E4_U+30FC 1
 62
   179
420
  2234388
370
     9
100
AcDbVertex
100
AcDb2dVertex
 10
63.47364588065238
 20
-119.9938685811125
 30
0.0
  0
SEQEND
  5
1CD
330
1CA
100
AcDbEntity
  8
_U+30EC_U+30A4_U+30E4_U+30FC 1
 62
   179
420
  2234388
370
     9
  0
POLYLINE
  5
1CE
330
41
100
AcDbEntity
  8
_U+30EC_U+30A4_U+30E4_U+30FC 1
 62
   179
420
  2234388
370
     9
100
AcDb2dPolyline
 66
     1
 10
0.0
 20
0.0
 30
0.0
  0
VERTEX
  5
1CF
330
1CE
100
AcDbEntity
  8
_U+30EC_U+30A4_U+30E4_U+30FC 1
 62
   179
420
  2234388
370
     9
100
AcDbVertex
100
AcDb2dVertex
 10
88.47349164454836
 20
-122.9539210803728
 30
0.0
  0
VERTEX
  5
1D0
330
1CE
100
AcDbEntity
  8
_U+30EC_U+30A4_U+30E4_U+30FC 1
 62
   179
420
  2234388
370
     9
100
AcDbVertex
100
AcDb2dVertex
 10
88.47349164454836
 20
-119.9938685811125
 30
0.0
  0
SEQEND
  5
1D1
330
1CE
100
AcDbEntity
  8
_U+30EC_U+30A4_U+30E4_U+30FC 1
 62
   179
420
  2234388
370
     9
  0
INSERT
  5
1D3
330
41
100
AcDbEntity
  8
_U+30EC_U+30A4_U+30E4_U+30FC 1
100
AcDbBlockReference
  2
block 3
 10
0.0
 20
0.0
 30
0.0
  0
POLYLINE
  5
1DA
330
41
100
AcDbEntity
  8
_U+30EC_U+30A4_U+30E4_U+30FC 1
 62
   179
420
  2234388
370
     9
100
AcDb2dPolyline
 66
     1
 10
0.0
 20
0.0
 30
0.0
  0
VERTEX
  5
1DB
330
1DA
100
AcDbEntity
  8
_U+30EC_U+30A4_U+30E4_U+30FC 1
 62
   179
420
  2234388
370
     9
100
AcDbVertex
100
AcDb2dVertex
 10
114.472928746219
 20
-120.9938171919736
 30
0.0
  0
VERTEX
  5
1DC
330
1DA
100
AcDbEntity
  8
_U+30EC_U+30A4_U+30E4_U+30FC 1
 62
   179
420
  2234388
370
     9
100
AcDbVertex
100
AcDb2dVertex
 10
89.47326386652058
 20
-120.9938171919736
 30
0.0
  0
SEQEND
  5
1DD
330
1DA
100
AcDbEntity
  8
_U+30EC_U+30A4_U+30E4_U+30FC 1
 62
   179
420
  2234388
370
     9
  0
POLYLINE
  5
1DE
330
41
100
AcDbEntity
  8
_U+30EC_U+30A4_U+30E4_U+30FC 1
 62
   179
420
  2234388
370
     9
100
AcDb2dPolyline
 66
     1
 10
0.0
 20
0.0
 30
0.0
  0
VERTEX
  5
1DF
330
1DE
100
AcDbEntity
  8
_U+30EC_U+30A4_U+30E4_U+30FC 1
 62
   179
420
  2234388
370
     9
100
AcDbVertex
100
AcDb2dVertex
 10
114.472928746219
 20
-122.9539210803728
 30
0.0
  0
VERTEX
  5
1E0
330
1DE
100
AcDbEntity
  8
_U+30EC_U+30A4_U+30E4_U+30FC 1
 62
   179
420
  2234388
370
     9
100
AcDbVertex
100
AcDb2dVertex
 10
114.472928746219
 20
-119.9938685811125
 30
0.0
  0
SEQEND
  5
1E1
330
1DE
100
AcDbEntity
  8
_U+30EC_U+30A4_U+30E4_U+30FC 1
 62
   179
420
  2234388
370
     9
  0
POLYLINE
  5
1E2
330
41
100
AcDbEntity
  8
_U+30EC_U+30A4_U+30E4_U+30FC 1
 62
   179
420
  2234388
370
     9
100
AcDb2dPolyline
 66
     1
 10
0.0
 20
0.0
 30
0.0
  0
VERTEX
  5
1E3
330
1E2
100
AcDbEntity
  8
_U+30EC_U+30A4_U+30E4_U+30FC 1
 62
   179
420
  2234388
370
     9
100
AcDbVertex
100
AcDb2dVertex
 10
89.47326386652058
 20
-122.9539210803728
 30
0.0
  0
VERTEX
  5
1E4
330
1E2
100
AcDbEntity
  8
_U+30EC_U+30A4_U+30E4_U+30FC 1
 62
   179
420
  2234388
370
     9
100
AcDbVertex
100
AcDb2dVertex
 10
89.47326386652058
 20
-119.9938685811125
 30
0.0
  0
SEQEND
  5
1E5
330
1E2
100
AcDbEntity
  8
_U+30EC_U+30A4_U+30E4_U+30FC 1
 62
   179
420
  2234388
370
     9
  0
INSERT
  5
1E7
330
41
100
AcDbEntity
  8
_U+30EC_U+30A4_U+30E4_U+30FC 1
100
AcDbBlockReference
  2
block 4
 10
0.0
 20
0.0
 30
0.0
  0
POLYLINE
  5
1EE
330
41
100
AcDbEntity
  8
_U+30EC_U+30A4_U+30E4_U+30FC 1
 62
   179
420
  2234388
370
     9
100
AcDb2dPolyline
 66
     1
 10
0.0
 20
0.0
 30
0.0
  0
VERTEX
  5
1EF
330
1EE
100
AcDbEntity
  8
_U+30EC_U+30A4_U+30E4_U+30FC 1
 62
   179
420
  2234388
370
     9
100
AcDbVertex
100
AcDb2dVertex
 10
88.47349164454836
 20
-120.9938171919736
 30
0.0
  0
VERTEX
  5
1F0
330
1EE
100
AcDbEntity
  8
_U+30EC_U+30A4_U+30E4_U+30FC 1
 62
   179
420
  2234388
370
     9
100
AcDbVertex
100
AcDb2dVertex
 10
89.47326386652058
 20
-120.9938171919736
 30
0.0
  0
SEQEND
  5
1F1
330
1EE
100
AcDbEntity
  8
_U+30EC_U+30A4_U+30E4_U+30FC 1
 62
   179
420
  2234388
370
     9
  0
INSERT
  5
1F3
330
41
100
AcDbEntity
  8
_U+30EC_U+30A4_U+30E4_U+30FC 1
100
AcDbBlockReference
  2
block 5
 10
0.0
 20
0.0
 30
0.0
  0
POLYLINE
  5
1F8
330
41
100
AcDbEntity
  8
_U+30EC_U+30A4_U+30E4_U+30FC 1
 62
   179
420
  2234388
370
     9
100
AcDb2dPolyline
 66
     1
 10
0.0
 20
0.0
 30
0.0
  0
VERTEX
  5
1F9
330
1F8
100
AcDbEntity
  8
_U+30EC_U+30A4_U+30E4_U+30FC 1
 62
   179
420
  2234388
370
     9
100
AcDbVertex
100
AcDb2dVertex
 10
87.47304693504331
 20
-137.994001909946
 30
0.0
  0
VERTEX
  5
1FA
330
1F8
100
AcDbEntity
  8
_U+30EC_U+30A4_U+30E4_U+30FC 1
 62
   179
420
  2234388
370
     9
100
AcDbVertex
100
AcDb2dVertex
 10
90.47303608849279
 20
-137.994001909946
 30
0.0
  0
SEQEND
  5
1FB
330
1F8
100
AcDbEntity
  8
_U+30EC_U+30A4_U+30E4_U+30FC 1
 62
   179
420
  2234388
370
     9
  0
POLYLINE
  5
1FC
330
41
100
AcDbEntity
  8
_U+30EC_U+30A4_U+30E4_U+30FC 1
 62
   179
420
  2234388
370
     9
100
AcDb2dPolyline
 66
     1
 10
0.0
 20
0.0
 30
0.0
  0
VERTEX
  5
1FD
330
1FC
100
AcDbEntity
  8
_U+30EC_U+30A4_U+30E4_U+30FC 1
 62
   179
420
  2234388
370
     9
100
AcDbVertex
100
AcDb2dVertex
 10
87.47304693504331
 20
-136.5339605214222
 30
0.0
  0
VERTEX
  5
1FE
330
1FC
100
AcDbEntity
  8
_U+30EC_U+30A4_U+30E4_U+30FC 1
 62
   179
420
  2234388
370
     9
100
AcDbVertex
100
AcDb2dVertex
 10
87.47304693504331
 20
-138.9937388541403
 30
0.0
  0
SEQEND
  5
1FF
330
1FC
100
AcDbEntity
  8
_U+30EC_U+30A4_U+30E4_U+30FC 1
 62
   179
420
  2234388
370
     9
  0
POLYLINE
  5
200
330
41
100
AcDbEntity
  8
_U+30EC_U+30A4_U+30E4_U+30FC 1
 62
   179
420
  2234388
370
     9
100
AcDb2dPolyline
 66
     1
 10
0.0
 20
0.0
 30
0.0
  0
VERTEX
  5
201
330
200
100
AcDbEntity
  8
_U+30EC_U+30A4_U+30E4_U+30FC 1
 62
   179
420
  2234388
370
     9
100
AcDbVertex
100
AcDb2dVertex
 10
90.47303608849279
 20
-136.5339605214222
 30
0.0
  0
VERTEX
  5
202
330
200
100
AcDbEntity
  8
_U+30EC_U+30A4_U+30E4_U+30FC 1
 62
   179
420
  2234388
370
     9
100
AcDbVertex
100
AcDb2dVertex
 10
90.47303608849279
 20
-138.9937388541403
 30
0.0
  0
SEQEND
  5
203
330
200
100
AcDbEntity
  8
_U+30EC_U+30A4_U+30E4_U+30FC 1
 62
   179
420
  2234388
370
     9
  0
INSERT
  5
205
330
41
100
AcDbEntity
  8
_U+30EC_U+30A4_U+30E4_U+30FC 1
100
AcDbBlockReference
  2
block 6
 10
0.0
 20
0.0
 30
0.0
  0
POLYLINE
  5
20A
330
41
100
AcDbEntity
  8
_U+30EC_U+30A4_U+30E4_U+30FC 1
 62
   179
420
  2234388
370
     9
100
AcDb2dPolyline
 66
     1
 10
0.0
 20
0.0
 30
0.0
  0
VERTEX
  5
20B
330
20A
100
AcDbEntity
  8
_U+30EC_U+30A4_U+30E4_U+30FC 1
 62
   179
420
  2234388
370
     9
100
AcDbVertex
100
AcDb2dVertex
 10
59.4735340382593
 20
-125.4938152464042
 30
0.0
  0
VERTEX
  5
20C
330
20A
100
AcDbEntity
  8
_U+30EC_U+30A4_U+30E4_U+30FC 1
 62
   179
420
  2234388
370
     9
100
AcDbVertex
100
AcDb2dVertex
 10
59.4735340382593
 20
-124.1367849689657
 30
0.0
  0
SEQEND
  5
20D
330
20A
100
AcDbEntity
  8
_U+30EC_U+30A4_U+30E4_U+30FC 1
 62
   179
420
  2234388
370
     9
  0
POLYLINE
  5
20E
330
41
100
AcDbEntity
  8
_U+30EC_U+30A4_U+30E4_U+30FC 1
 62
   179
420
  2234388
370
     9
100
AcDb2dPolyline
 66
     1
 10
0.0
 20
0.0
 30
0.0
  0
VERTEX
  5
20F
330
20E
100
AcDbEntity
  8
_U+30EC_U+30A4_U+30E4_U+30FC 1
 62
   179
420
  2234388
370
     9
100
AcDbVertex
100
AcDb2dVertex
 10
59.4735340382593
 20
-125.9940188573904
 30
0.0
  0
VERTEX
  5
210
330
20E
100
AcDbEntity
  8
_U+30EC_U+30A4_U+30E4_U+30FC 1
 62
   179
420
  2234388
370
     9
100
AcDbVertex
100
AcDb2dVertex
 10
59.4735340382593
 20
-125.4938152464042
 30
0.0
  0
SEQEND
  5
211
330
20E
100
AcDbEntity
  8
_U+30EC_U+30A4_U+30E4_U+30FC 1
 62
   179
420
  2234388
370
     9
  0
POLYLINE
  5
212
330
41
100
AcDbEntity
  8
_U+30EC_U+30A4_U+30E4_U+30FC 1
 62
   179
420
  2234388
370
     9
100
AcDb2dPolyline
 66
     1
 10
0.0
 20
0.0
 30
0.0
  0
VERTEX
  5
213
330
212
100
AcDbEntity
  8
_U+30EC_U+30A4_U+30E4_U+30FC 1
 62
   179
420
  2234388
370
     9
100
AcDbVertex
100
AcDb2dVertex
 10
60.93357538989942
 20
-125.9940188573904
 30
0.0
  0
VERTEX
  5
214
330
212
100
AcDbEntity
  8
_U+30EC_U+30A4_U+30E4_U+30FC 1
 62
   179
420
  2234388
370
     9
100
AcDbVertex
100
AcDb2dVertex
 10
58.47376184154339
 20
-125.9940188573904
 30
0.0
  0
SEQEND
  5
215
330
212
100
AcDbEntity
  8
_U+30EC_U+30A4_U+30E4_U+30FC 1
 62
   179
420
  2234388
370
     9
  0
POLYLINE
  5
216
330
41
100
AcDbEntity
  8
_U+30EC_U+30A4_U+30E4_U+30FC 1
 62
   179
420
  2234388
370
     9
100
AcDb2dPolyline
 66
     1
 10
0.0
 20
0.0
 30
0.0
  0
VERTEX
  5
217
330
216
100
AcDbEntity
  8
_U+30EC_U+30A4_U+30E4_U+30FC 1
 62
   179
420
  2234388
370
     9
100
AcDbVertex
100
AcDb2dVertex
 10
60.93357538989942
 20
-125.4938152464042
 30
0.0
  0
VERTEX
  5
218
330
216
100
AcDbEntity
  8
_U+30EC_U+30A4_U+30E4_U+30FC 1
 62
   179
420
  2234388
370
     9
100
AcDbVertex
100
AcDb2dVertex
 10
58.47376184154339
 20
-125.4938152464042
 30
0.0
  0
SEQEND
  5
219
330
216
100
AcDbEntity
  8
_U+30EC_U+30A4_U+30E4_U+30FC 1
 62
   179
420
  2234388
370
     9
  0
INSERT
  5
21B
330
41
100
AcDbEntity
  8
_U+30EC_U+30A4_U+30E4_U+30FC 1
100
AcDbBlockReference
  2
block 7
 10
0.0
 20
0.0
 30
0.0
  0
POLYLINE
  5
22B
330
41
100
AcDbEntity
  8
_U+30EC_U+30A4_U+30E4_U+30FC 1
 62
   179
420
  2234388
370
     9
100
AcDb2dPolyline
 66
     1
 10
0.0
 20
0.0
 30
0.0
  0
VERTEX
  5
22C
330
22B
100
AcDbEntity
  8
_U+30EC_U+30A4_U+30E4_U+30FC 1
 62
   179
420
  2234388
370
     9
100
AcDbVertex
100
AcDb2dVertex
 10
59.4735340382593
 20
-125.9940188573904
 30
0.0
  0
VERTEX
  5
22D
330
22B
100
AcDbEntity
  8
_U+30EC_U+30A4_U+30E4_U+30FC 1
 62
   179
420
  2234388
370
     9
100
AcDbVertex
100
AcDb2dVertex
 10
59.4735340382593
 20
-133.9942427442791
 30
0.0
  0
SEQEND
  5
22E
330
22B
100
AcDbEntity
  8
_U+30EC_U+30A4_U+30E4_U+30FC 1
 62
   179
420
  2234388
370
     9
  0
POLYLINE
  5
22F
330
41
100
AcDbEntity
  8
_U+30EC_U+30A4_U+30E4_U+30FC 1
 62
   179
420
  2234388
370
     9
100
AcDb2dPolyline
 66
     1
 10
0.0
 20
0.0
 30
0.0
  0
VERTEX
  5
230
330
22F
100
AcDbEntity
  8
_U+30EC_U+30A4_U+30E4_U+30FC 1
 62
   179
420
  2234388
370
     9
100
AcDbVertex
100
AcDb2dVertex
 10
84.93332922205914
 20
-133.9942427442791
 30
0.0
  0
VERTEX
  5
231
330
22F
100
AcDbEntity
  8
_U+30EC_U+30A4_U+30E4_U+30FC 1
 62
   179
420
  2234388
370
     9
100
AcDbVertex
100
AcDb2dVertex
 10
58.47376184154339
 20
-133.9942427442791
 30
0.0
  0
SEQEND
  5
232
330
22F
100
AcDbEntity
  8
_U+30EC_U+30A4_U+30E4_U+30FC 1
 62
   179
420
  2234388
370
     9
  0
INSERT
  5
234
330
41
100
AcDbEntity
  8
_U+30EC_U+30A4_U+30E4_U+30FC 1
100
AcDbBlockReference
  2
block 8
 10
0.0
 20
0.0
 30
0.0
  0
ENDBLK
  5
44
330
41
100
AcDbEntity
  8
0
100
AcDbBlockEnd
  0
BLOCK
  5
1D4
330
1D2
100
AcDbEntity
  8
0
100
AcDbBlockBegin
  2
block 3
 70
     0
 10
0.0
 20
0.0
 30
0.0
  3
block 3
  1

  0
SPLINE
  5
1D6
330
1D2
100
AcDbEntity
  8
_U+30EC_U+30A4_U+30E4_U+30FC 1
370
     0
100
AcDbSpline
210
0.0
220
0.0
230
1.0
 70
    11
 71
     3
 72
    44
 73
    40
 74
     0
 42
0.0000000001
 43
0.0000000001
 12
1.0
 22
0.0
 32
0.0
 13
1.0
 23
0.0
 33
0.0
 40
0.0
 40
0.0
 40
0.0
 40
0.0
 40
1.0
 40
1.0
 40
1.0
 40
2.0
 40
2.0
 40
2.0
 40
3.0
 40
3.0
 40
3.0
 40
4.0
 40
4.0
 40
4.0
 40
5.0
 40
5.0
 40
5.0
 40
6.0
 40
6.0
 40
6.0
 40
7.0
 40
7.0
 40
7.0
 40
8.0
 40
8.0
 40
8.0
 40
9.0
 40
9.0
 40
9.0
 40
10.0
 40
10.0
 40
10.0
 40
11.0
 40
11.0
 40
11.0
 40
12.0
 40
12.0
 40
12.0
 40
13.0
 40
13.0
 40
13.0
 40
13.0
 10
75.40211586656613
 20
-119.6989813611343
 30
0.0
 10
75.18421357712408
 20
-119.85762800823
 30
0.0
 10
75.09102374424808
 20
-119.9316975611629
 30
0.0
 10
75.04244789790606
 20
-120.0755302976721
 30
0.0
 10
75.04244789790606
 20
-120.0755302976721
 30
0.0
 10
75.82086722279826
 20
-120.0755302976721
 30
0.0
 10
75.82086722279826
 20
-120.0755302976721
 30
0.0
 10
75.82086722279826
 20
-120.0755302976721
 30
0.0
 10
75.82086722279826
 20
-120.2806857338187
 30
0.0
 10
75.82086722279826
 20
-120.2806857338187
 30
0.0
 10
75.82086722279826
 20
-120.2806857338187
 30
0.0
 10
74.79285072999971
 20
-120.2806857338187
 30
0.0
 10
74.79285072999971
 20
-120.2806857338187
 30
0.0
 10
74.824545608464
 20
-119.9230848224498
 30
0.0
 10
74.89000242268375
 20
-119.8448811549346
 30
0.0
 10
75.27516409793469
 20
-119.546535885912
 30
0.0
 10
75.53113469248875
 20
-119.3477538764131
 30
0.0
 10
75.59659150670849
 20
-119.2800577501279
 30
0.0
 10
75.59659150670849
 20
-119.1425984402664
 30
0.0
 10
75.59659150670849
 20
-119.0240871555738
 30
0.0
 10
75.52476126584104
 20
-118.8930012723601
 30
0.0
 10
75.32804631363327
 20
-118.8930012723601
 30
0.0
 10
75.06776934972264
 20
-118.8930012723601
 30
0.0
 10
75.05932886578378
 20
-119.1234781603233
 30
0.0
 10
75.05502249642721
 20
-119.2399223877247
 30
0.0
 10
75.05502249642721
 20
-119.2399223877247
 30
0.0
 10
74.83091903511172
 20
-119.2399223877247
 30
0.0
 10
74.83091903511172
 20
-119.2399223877247
 30
0.0
 10
74.83935951905057
 20
-119.1129706190933
 30
0.0
 10
74.84986706028059
 20
-119.0008327610484
 30
0.0
 10
74.93031003986117
 20
-118.8823214763558
 30
0.0
 10
75.04020858584065
 20
-118.7216077719689
 30
0.0
 10
75.2264159968184
 20
-118.6876735814392
 30
0.0
 10
75.34286022421985
 20
-118.6876735814392
 30
0.0
 10
75.6200181560082
 20
-118.6876735814392
 30
0.0
 10
75.82724064944597
 20
-118.8718139351258
 30
0.0
 10
75.82724064944597
 20
-119.1446654975576
 30
0.0
 10
75.82724064944597
 20
-119.3730753282297
 30
0.0
 10
75.7109686768188
 20
-119.4726385877534
 30
0.0
 10
75.40211586656613
 20
-119.6989813611343
 30
0.0
  0
HATCH
  5
1D7
330
1D2
100
AcDbEntity
  8
_U+30EC_U+30A4_U+30E4_U+30FC 1
 62
   179
420
  2234388
100
AcDbHatch
 10
0.0
 20
0.0
 30
0.0
210
0.0
220
0.0
230
1.0
  2
SOLID
 70
     1
 71
     0
 91
        1
 92
        1
 93
        1
 72
     4
 94
        3
 73
     0
 74
     1
 95
       44
 96
       40
 40
0.0
 40
0.0
 40
0.0
 40
0.0
 40
1.0
 40
1.0
 40
1.0
 40
2.0
 40
2.0
 40
2.0
 40
3.0
 40
3.0
 40
3.0
 40
4.0
 40
4.0
 40
4.0
 40
5.0
 40
5.0
 40
5.0
 40
6.0
 40
6.0
 40
6.0
 40
7.0
 40
7.0
 40
7.0
 40
8.0
 40
8.0
 40
8.0
 40
9.0
 40
9.0
 40
9.0
 40
10.0
 40
10.0
 40
10.0
 40
11.0
 40
11.0
 40
11.0
 40
12.0
 40
12.0
 40
12.0
 40
13.0
 40
13.0
 40
13.0
 40
13.0
 10
75.40211586656613
 20
-119.6989813611343
 10
75.18421357712408
 20
-119.85762800823
 10
75.09102374424808
 20
-119.9316975611629
 10
75.04244789790606
 20
-120.0755302976721
 10
75.04244789790606
 20
-120.0755302976721
 10
75.82086722279826
 20
-120.0755302976721
 10
75.82086722279826
 20
-120.0755302976721
 10
75.82086722279826
 20
-120.0755302976721
 10
75.82086722279826
 20
-120.2806857338187
 10
75.82086722279826
 20
-120.2806857338187
 10
75.82086722279826
 20
-120.2806857338187
 10
74.79285072999971
 20
-120.2806857338187
 10
74.79285072999971
 20
-120.2806857338187
 10
74.824545608464
 20
-119.9230848224498
 10
74.89000242268375
 20
-119.8448811549346
 10
75.27516409793469
 20
-119.546535885912
 10
75.53113469248875
 20
-119.3477538764131
 10
75.59659150670849
 20
-119.2800577501279
 10
75.59659150670849
 20
-119.1425984402664
 10
75.59659150670849
 20
-119.0240871555738
 10
75.52476126584104
 20
-118.8930012723601
 10
75.32804631363327
 20
-118.8930012723601
 10
75.06776934972264
 20
-118.8930012723601
 10
75.05932886578378
 20
-119.1234781603233
 10
75.05502249642721
 20
-119.2399223877247
 10
75.05502249642721
 20
-119.2399223877247
 10
74.83091903511172
 20
-119.2399223877247
 10
74.83091903511172
 20
-119.2399223877247
 10
74.83935951905057
 20
-119.1129706190933
 10
74.84986706028059
 20
-119.0008327610484
 10
74.93031003986117
 20
-118.8823214763558
 10
75.04020858584065
 20
-118.7216077719689
 10
75.2264159968184
 20
-118.6876735814392
 10
75.34286022421985
 20
-118.6876735814392
 10
75.6200181560082
 20
-118.6876735814392
 10
75.82724064944597
 20
-118.8718139351258
 10
75.82724064944597
 20
-119.1446654975576
 10
75.82724064944597
 20
-119.3730753282297
 10
75.7109686768188
 20
-119.4726385877534
 10
75.40211586656613
 20
-119.6989813611343
 97
        0
 97
        0
 75
     2
 76
     1
 98
        0
  0
SPLINE
  5
1D8
330
1D2
100
AcDbEntity
  8
_U+30EC_U+30A4_U+30E4_U+30FC 1
370
     0
100
AcDbSpline
210
0.0
220
0.0
230
1.0
 70
    11
 71
     3
 72
    53
 73
    49
 74
     0
 42
0.0000000001
 43
0.0000000001
 12
1.0
 22
0.0
 32
0.0
 13
1.0
 23
0.0
 33
0.0
 40
0.0
 40
0.0
 40
0.0
 40
0.0
 40
1.0
 40
1.0
 40
1.0
 40
2.0
 40
2.0
 40
2.0
 40
3.0
 40
3.0
 40
3.0
 40
4.0
 40
4.0
 40
4.0
 40
5.0
 40
5.0
 40
5.0
 40
6.0
 40
6.0
 40
6.0
 40
7.0
 40
7.0
 40
7.0
 40
8.0
 40
8.0
 40
8.0
 40
9.0
 40
9.0
 40
9.0
 40
10.0
 40
10.0
 40
10.0
 40
11.0
 40
11.0
 40
11.0
 40
12.0
 40
12.0
 40
12.0
 40
13.0
 40
13.0
 40
13.0
 40
14.0
 40
14.0
 40
14.0
 40
15.0
 40
15.0
 40
15.0
 40
16.0
 40
16.0
 40
16.0
 40
16.0
 10
76.4668226262826
 20
-120.3315008922262
 30
0.0
 10
76.38844670399317
 20
-120.3315008922262
 30
0.0
 10
76.28698864195256
 20
-120.3144476695742
 30
0.0
 10
76.18535832513768
 20
-120.2510579126456
 30
0.0
 10
76.01189776745537
 20
-120.1409871118918
 30
0.0
 10
75.99071043022107
 20
-120.0099012286781
 30
0.0
 10
75.9717624050522
 20
-119.9020697399898
 30
0.0
 10
75.9717624050522
 20
-119.9020697399898
 30
0.0
 10
76.19379880907655
 20
-119.9020697399898
 30
0.0
 10
76.19379880907655
 20
-119.9020697399898
 30
0.0
 10
76.24892033684056
 20
-120.1008517494887
 30
0.0
 10
76.37587210547201
 20
-120.1304795706618
 30
0.0
 10
76.46888968357375
 20
-120.1304795706618
 30
0.0
 10
76.60841605072638
 20
-120.1304795706618
 30
0.0
 10
76.76086152594868
 20
-120.0310885659124
 30
0.0
 10
76.76086152594868
 20
-119.7983723658838
 30
0.0
 10
76.76086152594868
 20
-119.5424017713297
 30
0.0
 10
76.58102754161864
 20
-119.4726385877534
 30
0.0
 10
76.4604491996349
 20
-119.4726385877534
 30
0.0
 10
76.42875432117059
 20
-119.4726385877534
 30
0.0
 10
76.28698864195256
 20
-119.4726385877534
 30
0.0
 10
76.19810517843311
 20
-119.601657413676
 30
0.0
 10
76.19810517843311
 20
-119.601657413676
 30
0.0
 10
76.02257756345963
 20
-119.5825371337328
 30
0.0
 10
76.02257756345963
 20
-119.5825371337328
 30
0.0
 10
76.02257756345963
 20
-119.5825371337328
 30
0.0
 10
76.14315590544338
 20
-118.7364216825555
 30
0.0
 10
76.14315590544338
 20
-118.7364216825555
 30
0.0
 10
76.14315590544338
 20
-118.7364216825555
 30
0.0
 10
76.92157523033558
 20
-118.7364216825555
 30
0.0
 10
76.92157523033558
 20
-118.7364216825555
 30
0.0
 10
76.92157523033558
 20
-118.7364216825555
 30
0.0
 10
76.92157523033558
 20
-118.9310695774721
 30
0.0
 10
76.92157523033558
 20
-118.9310695774721
 30
0.0
 10
76.92157523033558
 20
-118.9310695774721
 30
0.0
 10
76.30593666712143
 20
-118.9310695774721
 30
0.0
 10
76.30593666712143
 20
-118.9310695774721
 30
0.0
 10
76.30593666712143
 20
-118.9310695774721
 30
0.0
 10
76.24047985290169
 20
-119.3541273030608
 30
0.0
 10
76.24047985290169
 20
-119.3541273030608
 30
0.0
 10
76.30180255253913
 20
-119.3201931125311
 30
0.0
 10
76.38431258941087
 20
-119.2800577501279
 30
0.0
 10
76.5026516193292
 20
-119.2800577501279
 30
0.0
 10
76.75655515659211
 20
-119.2800577501279
 30
0.0
 10
76.9935777259773
 20
-119.4662651611057
 30
0.0
 10
76.9935777259773
 20
-119.7792520859406
 30
0.0
 10
76.9935777259773
 20
-120.0967176349064
 30
0.0
 10
76.76930200988754
 20
-120.3315008922262
 30
0.0
 10
76.4668226262826
 20
-120.3315008922262
 30
0.0
  0
HATCH
  5
1D9
330
1D2
100
AcDbEntity
  8
_U+30EC_U+30A4_U+30E4_U+30FC 1
 62
   179
420
  2234388
100
AcDbHatch
 10
0.0
 20
0.0
 30
0.0
210
0.0
220
0.0
230
1.0
  2
SOLID
 70
     1
 71
     0
 91
        1
 92
        1
 93
        1
 72
     4
 94
        3
 73
     0
 74
     1
 95
       53
 96
       49
 40
0.0
 40
0.0
 40
0.0
 40
0.0
 40
1.0
 40
1.0
 40
1.0
 40
2.0
 40
2.0
 40
2.0
 40
3.0
 40
3.0
 40
3.0
 40
4.0
 40
4.0
 40
4.0
 40
5.0
 40
5.0
 40
5.0
 40
6.0
 40
6.0
 40
6.0
 40
7.0
 40
7.0
 40
7.0
 40
8.0
 40
8.0
 40
8.0
 40
9.0
 40
9.0
 40
9.0
 40
10.0
 40
10.0
 40
10.0
 40
11.0
 40
11.0
 40
11.0
 40
12.0
 40
12.0
 40
12.0
 40
13.0
 40
13.0
 40
13.0
 40
14.0
 40
14.0
 40
14.0
 40
15.0
 40
15.0
 40
15.0
 40
16.0
 40
16.0
 40
16.0
 40
16.0
 10
76.4668226262826
 20
-120.3315008922262
 10
76.38844670399317
 20
-120.3315008922262
 10
76.28698864195256
 20
-120.3144476695742
 10
76.18535832513768
 20
-120.2510579126456
 10
76.01189776745537
 20
-120.1409871118918
 10
75.99071043022107
 20
-120.0099012286781
 10
75.9717624050522
 20
-119.9020697399898
 10
75.9717624050522
 20
-119.9020697399898
 10
76.19379880907655
 20
-119.9020697399898
 10
76.19379880907655
 20
-119.9020697399898
 10
76.24892033684056
 20
-120.1008517494887
 10
76.37587210547201
 20
-120.1304795706618
 10
76.46888968357375
 20
-120.1304795706618
 10
76.60841605072638
 20
-120.1304795706618
 10
76.76086152594868
 20
-120.0310885659124
 10
76.76086152594868
 20
-119.7983723658838
 10
76.76086152594868
 20
-119.5424017713297
 10
76.58102754161864
 20
-119.4726385877534
 10
76.4604491996349
 20
-119.4726385877534
 10
76.42875432117059
 20
-119.4726385877534
 10
76.28698864195256
 20
-119.4726385877534
 10
76.19810517843311
 20
-119.601657413676
 10
76.19810517843311
 20
-119.601657413676
 10
76.02257756345963
 20
-119.5825371337328
 10
76.02257756345963
 20
-119.5825371337328
 10
76.02257756345963
 20
-119.5825371337328
 10
76.14315590544338
 20
-118.7364216825555
 10
76.14315590544338
 20
-118.7364216825555
 10
76.14315590544338
 20
-118.7364216825555
 10
76.92157523033558
 20
-118.7364216825555
 10
76.92157523033558
 20
-118.7364216825555
 10
76.92157523033558
 20
-118.7364216825555
 10
76.92157523033558
 20
-118.9310695774721
 10
76.92157523033558
 20
-118.9310695774721
 10
76.92157523033558
 20
-118.9310695774721
 10
76.30593666712143
 20
-118.9310695774721
 10
76.30593666712143
 20
-118.9310695774721
 10
76.30593666712143
 20
-118.9310695774721
 10
76.24047985290169
 20
-119.3541273030608
 10
76.24047985290169
 20
-119.3541273030608
 10
76.30180255253913
 20
-119.3201931125311
 10
76.38431258941087
 20
-119.2800577501279
 10
76.5026516193292
 20
-119.2800577501279
 10
76.75655515659211
 20
-119.2800577501279
 10
76.9935777259773
 20
-119.4662651611057
 10
76.9935777259773
 20
-119.7792520859406
 10
76.9935777259773
 20
-120.0967176349064
 10
76.76930200988754
 20
-120.3315008922262
 10
76.4668226262826
 20
-120.3315008922262
 97
        0
 97
        0
 75
     2
 76
     1
 98
        0
  0
ENDBLK
  5
1D5
330
1D2
100
AcDbEntity
  8
0
100
AcDbBlockEnd
  0
BLOCK
  5
1E8
330
1E6
100
AcDbEntity
  8
0
100
AcDbBlockBegin
  2
block 4
 70
     0
 10
0.0
 20
0.0
 30
0.0
  3
block 4
  1

  0
SPLINE
  5
1EA
330
1E6
100
AcDbEntity
  8
_U+30EC_U+30A4_U+30E4_U+30FC 1
370
     0
100
AcDbSpline
210
0.0
220
0.0
230
1.0
 70
    11
 71
     3
 72
    44
 73
    40
 74
     0
 42
0.0000000001
 43
0.0000000001
 12
1.0
 22
0.0
 32
0.0
 13
1.0
 23
0.0
 33
0.0
 40
0.0
 40
0.0
 40
0.0
 40
0.0
 40
1.0
 40
1.0
 40
1.0
 40
2.0
 40
2.0
 40
2.0
 40
3.0
 40
3.0
 40
3.0
 40
4.0
 40
4.0
 40
4.0
 40
5.0
 40
5.0
 40
5.0
 40
6.0
 40
6.0
 40
6.0
 40
7.0
 40
7.0
 40
7.0
 40
8.0
 40
8.0
 40
8.0
 40
9.0
 40
9.0
 40
9.0
 40
10.0
 40
10.0
 40
10.0
 40
11.0
 40
11.0
 40
11.0
 40
12.0
 40
12.0
 40
12.0
 40
13.0
 40
13.0
 40
13.0
 40
13.0
 10
101.4022514937467
 20
-119.6989813611343
 30
0.0
 10
101.1845214590789
 20
-119.85762800823
 30
0.0
 10
101.0915038809771
 20
-119.9316975611629
 30
0.0
 10
101.0425835250866
 20
-120.0755302976721
 30
0.0
 10
101.0425835250866
 20
-120.0755302976721
 30
0.0
 10
101.821175104753
 20
-120.0755302976721
 30
0.0
 10
101.821175104753
 20
-120.0755302976721
 30
0.0
 10
101.821175104753
 20
-120.0755302976721
 30
0.0
 10
101.821175104753
 20
-120.2806857338187
 30
0.0
 10
101.821175104753
 20
-120.2806857338187
 30
0.0
 10
101.821175104753
 20
-120.2806857338187
 30
0.0
 10
100.7931586119545
 20
-120.2806857338187
 30
0.0
 10
100.7931586119545
 20
-120.2806857338187
 30
0.0
 10
100.8248534904188
 20
-119.9230848224498
 30
0.0
 10
100.8903103046385
 20
-119.8448811549346
 30
0.0
 10
101.2754719798895
 20
-119.546535885912
 30
0.0
 10
101.531098064895
 20
-119.3477538764131
 30
0.0
 10
101.5965548791147
 20
-119.2800577501279
 30
0.0
 10
101.5965548791147
 20
-119.1425984402664
 30
0.0
 10
101.5965548791147
 20
-119.0240871555738
 30
0.0
 10
101.5248968930216
 20
-118.8930012723601
 30
0.0
 10
101.3278374312653
 20
-118.8930012723601
 30
0.0
 10
101.0680772316774
 20
-118.8930012723601
 30
0.0
 10
101.0591199834158
 20
-119.1234781603233
 30
0.0
 10
101.0549858688335
 20
-119.2399223877247
 30
0.0
 10
101.0549858688335
 20
-119.2399223877247
 30
0.0
 10
100.8310546622922
 20
-119.2399223877247
 30
0.0
 10
100.8310546622922
 20
-119.2399223877247
 30
0.0
 10
100.8393228914568
 20
-119.1129706190933
 30
0.0
 10
100.8503471970096
 20
-119.0008327610484
 30
0.0
 10
100.9302734122674
 20
-118.8823214763558
 30
0.0
 10
101.0405164677954
 20
-118.7216077719689
 30
0.0
 10
101.2265516239989
 20
-118.6876735814392
 30
0.0
 10
101.3429958514004
 20
-118.6876735814392
 30
0.0
 10
101.6199815284145
 20
-118.6876735814392
 30
0.0
 10
101.8273762766265
 20
-118.8718139351258
 30
0.0
 10
101.8273762766265
 20
-119.1446654975576
 30
0.0
 10
101.8273762766265
 20
-119.3730753282297
 30
0.0
 10
101.7109320492251
 20
-119.4726385877534
 30
0.0
 10
101.4022514937467
 20
-119.6989813611343
 30
0.0
  0
HATCH
  5
1EB
330
1E6
100
AcDbEntity
  8
_U+30EC_U+30A4_U+30E4_U+30FC 1
 62
   179
420
  2234388
100
AcDbHatch
 10
0.0
 20
0.0
 30
0.0
210
0.0
220
0.0
230
1.0
  2
SOLID
 70
     1
 71
     0
 91
        1
 92
        1
 93
        1
 72
     4
 94
        3
 73
     0
 74
     1
 95
       44
 96
       40
 40
0.0
 40
0.0
 40
0.0
 40
0.0
 40
1.0
 40
1.0
 40
1.0
 40
2.0
 40
2.0
 40
2.0
 40
3.0
 40
3.0
 40
3.0
 40
4.0
 40
4.0
 40
4.0
 40
5.0
 40
5.0
 40
5.0
 40
6.0
 40
6.0
 40
6.0
 40
7.0
 40
7.0
 40
7.0
 40
8.0
 40
8.0
 40
8.0
 40
9.0
 40
9.0
 40
9.0
 40
10.0
 40
10.0
 40
10.0
 40
11.0
 40
11.0
 40
11.0
 40
12.0
 40
12.0
 40
12.0
 40
13.0
 40
13.0
 40
13.0
 40
13.0
 10
101.4022514937467
 20
-119.6989813611343
 10
101.1845214590789
 20
-119.85762800823
 10
101.0915038809771
 20
-119.9316975611629
 10
101.0425835250866
 20
-120.0755302976721
 10
101.0425835250866
 20
-120.0755302976721
 10
101.821175104753
 20
-120.0755302976721
 10
101.821175104753
 20
-120.0755302976721
 10
101.821175104753
 20
-120.0755302976721
 10
101.821175104753
 20
-120.2806857338187
 10
101.821175104753
 20
-120.2806857338187
 10
101.821175104753
 20
-120.2806857338187
 10
100.7931586119545
 20
-120.2806857338187
 10
100.7931586119545
 20
-120.2806857338187
 10
100.8248534904188
 20
-119.9230848224498
 10
100.8903103046385
 20
-119.8448811549346
 10
101.2754719798895
 20
-119.546535885912
 10
101.531098064895
 20
-119.3477538764131
 10
101.5965548791147
 20
-119.2800577501279
 10
101.5965548791147
 20
-119.1425984402664
 10
101.5965548791147
 20
-119.0240871555738
 10
101.5248968930216
 20
-118.8930012723601
 10
101.3278374312653
 20
-118.8930012723601
 10
101.0680772316774
 20
-118.8930012723601
 10
101.0591199834158
 20
-119.1234781603233
 10
101.0549858688335
 20
-119.2399223877247
 10
101.0549858688335
 20
-119.2399223877247
 10
100.8310546622922
 20
-119.2399223877247
 10
100.8310546622922
 20
-119.2399223877247
 10
100.8393228914568
 20
-119.1129706190933
 10
100.8503471970096
 20
-119.0008327610484
 10
100.9302734122674
 20
-118.8823214763558
 10
101.0405164677954
 20
-118.7216077719689
 10
101.2265516239989
 20
-118.6876735814392
 10
101.3429958514004
 20
-118.6876735814392
 10
101.6199815284145
 20
-118.6876735814392
 10
101.8273762766265
 20
-118.8718139351258
 10
101.8273762766265
 20
-119.1446654975576
 10
101.8273762766265
 20
-119.3730753282297
 10
101.7109320492251
 20
-119.4726385877534
 10
101.4022514937467
 20
-119.6989813611343
 97
        0
 97
        0
 75
     2
 76
     1
 98
        0
  0
SPLINE
  5
1EC
330
1E6
100
AcDbEntity
  8
_U+30EC_U+30A4_U+30E4_U+30FC 1
370
     0
100
AcDbSpline
210
0.0
220
0.0
230
1.0
 70
    11
 71
     3
 72
    53
 73
    49
 74
     0
 42
0.0000000001
 43
0.0000000001
 12
1.0
 22
0.0
 32
0.0
 13
1.0
 23
0.0
 33
0.0
 40
0.0
 40
0.0
 40
0.0
 40
0.0
 40
1.0
 40
1.0
 40
1.0
 40
2.0
 40
2.0
 40
2.0
 40
3.0
 40
3.0
 40
3.0
 40
4.0
 40
4.0
 40
4.0
 40
5.0
 40
5.0
 40
5.0
 40
6.0
 40
6.0
 40
6.0
 40
7.0
 40
7.0
 40
7.0
 40
8.0
 40
8.0
 40
8.0
 40
9.0
 40
9.0
 40
9.0
 40
10.0
 40
10.0
 40
10.0
 40
11.0
 40
11.0
 40
11.0
 40
12.0
 40
12.0
 40
12.0
 40
13.0
 40
13.0
 40
13.0
 40
14.0
 40
14.0
 40
14.0
 40
15.0
 40
15.0
 40
15.0
 40
16.0
 40
16.0
 40
16.0
 40
16.0
 10
102.4667859986889
 20
-120.3315008922262
 30
0.0
 10
102.3889268407222
 20
-120.3315008922262
 30
0.0
 10
102.2869520143588
 20
-120.3144476695742
 30
0.0
 10
102.1856662070925
 20
-120.2510579126456
 30
0.0
 10
102.0120333946359
 20
-120.1409871118918
 30
0.0
 10
101.9906738026273
 20
-120.0099012286781
 30
0.0
 10
101.972070287007
 20
-119.9020697399898
 30
0.0
 10
101.972070287007
 20
-119.9020697399898
 30
0.0
 10
102.1939344362571
 20
-119.9020697399898
 30
0.0
 10
102.1939344362571
 20
-119.9020697399898
 30
0.0
 10
102.2490559640211
 20
-120.1008517494887
 30
0.0
 10
102.3758354778783
 20
-120.1304795706618
 30
0.0
 10
102.46885305598
 20
-120.1304795706618
 30
0.0
 10
102.6087239326812
 20
-120.1304795706618
 30
0.0
 10
102.7609971531292
 20
-120.0310885659124
 30
0.0
 10
102.7609971531292
 20
-119.7983723658838
 30
0.0
 10
102.7609971531292
 20
-119.5424017713297
 30
0.0
 10
102.5811631687992
 20
-119.4726385877534
 30
0.0
 10
102.4605848268154
 20
-119.4726385877534
 30
0.0
 10
102.4288899483511
 20
-119.4726385877534
 30
0.0
 10
102.2869520143588
 20
-119.4726385877534
 30
0.0
 10
102.1980685508394
 20
-119.601657413676
 30
0.0
 10
102.1980685508394
 20
-119.601657413676
 30
0.0
 10
102.0223686810916
 20
-119.5825371337328
 30
0.0
 10
102.0223686810916
 20
-119.5825371337328
 30
0.0
 10
102.0223686810916
 20
-119.5825371337328
 30
0.0
 10
102.1429470230754
 20
-118.7364216825555
 30
0.0
 10
102.1429470230754
 20
-118.7364216825555
 30
0.0
 10
102.1429470230754
 20
-118.7364216825555
 30
0.0
 10
102.9215386027418
 20
-118.7364216825555
 30
0.0
 10
102.9215386027418
 20
-118.7364216825555
 30
0.0
 10
102.9215386027418
 20
-118.7364216825555
 30
0.0
 10
102.9215386027418
 20
-118.9310695774721
 30
0.0
 10
102.9215386027418
 20
-118.9310695774721
 30
0.0
 10
102.9215386027418
 20
-118.9310695774721
 30
0.0
 10
102.3062445490762
 20
-118.9310695774721
 30
0.0
 10
102.3062445490762
 20
-118.9310695774721
 30
0.0
 10
102.3062445490762
 20
-118.9310695774721
 30
0.0
 10
102.2407877348565
 20
-119.3541273030608
 30
0.0
 10
102.2407877348565
 20
-119.3541273030608
 30
0.0
 10
102.3021104344939
 20
-119.3201931125311
 30
0.0
 10
102.3841037070429
 20
-119.2800577501279
 30
0.0
 10
102.5026149917355
 20
-119.2800577501279
 30
0.0
 10
102.7568630385469
 20
-119.2800577501279
 30
0.0
 10
102.9938856079321
 20
-119.4662651611057
 30
0.0
 10
102.9938856079321
 20
-119.7792520859406
 30
0.0
 10
102.9938856079321
 20
-120.0967176349064
 30
0.0
 10
102.7692653822938
 20
-120.3315008922262
 30
0.0
 10
102.4667859986889
 20
-120.3315008922262
 30
0.0
  0
HATCH
  5
1ED
330
1E6
100
AcDbEntity
  8
_U+30EC_U+30A4_U+30E4_U+30FC 1
 62
   179
420
  2234388
100
AcDbHatch
 10
0.0
 20
0.0
 30
0.0
210
0.0
220
0.0
230
1.0
  2
SOLID
 70
     1
 71
     0
 91
        1
 92
        1
 93
        1
 72
     4
 94
        3
 73
     0
 74
     1
 95
       53
 96
       49
 40
0.0
 40
0.0
 40
0.0
 40
0.0
 40
1.0
 40
1.0
 40
1.0
 40
2.0
 40
2.0
 40
2.0
 40
3.0
 40
3.0
 40
3.0
 40
4.0
 40
4.0
 40
4.0
 40
5.0
 40
5.0
 40
5.0
 40
6.0
 40
6.0
 40
6.0
 40
7.0
 40
7.0
 40
7.0
 40
8.0
 40
8.0
 40
8.0
 40
9.0
 40
9.0
 40
9.0
 40
10.0
 40
10.0
 40
10.0
 40
11.0
 40
11.0
 40
11.0
 40
12.0
 40
12.0
 40
12.0
 40
13.0
 40
13.0
 40
13.0
 40
14.0
 40
14.0
 40
14.0
 40
15.0
 40
15.0
 40
15.0
 40
16.0
 40
16.0
 40
16.0
 40
16.0
 10
102.4667859986889
 20
-120.3315008922262
 10
102.3889268407222
 20
-120.3315008922262
 10
102.2869520143588
 20
-120.3144476695742
 10
102.1856662070925
 20
-120.2510579126456
 10
102.0120333946359
 20
-120.1409871118918
 10
101.9906738026273
 20
-120.0099012286781
 10
101.972070287007
 20
-119.9020697399898
 10
101.972070287007
 20
-119.9020697399898
 10
102.1939344362571
 20
-119.9020697399898
 10
102.1939344362571
 20
-119.9020697399898
 10
102.2490559640211
 20
-120.1008517494887
 10
102.3758354778783
 20
-120.1304795706618
 10
102.46885305598
 20
-120.1304795706618
 10
102.6087239326812
 20
-120.1304795706618
 10
102.7609971531292
 20
-120.0310885659124
 10
102.7609971531292
 20
-119.7983723658838
 10
102.7609971531292
 20
-119.5424017713297
 10
102.5811631687992
 20
-119.4726385877534
 10
102.4605848268154
 20
-119.4726385877534
 10
102.4288899483511
 20
-119.4726385877534
 10
102.2869520143588
 20
-119.4726385877534
 10
102.1980685508394
 20
-119.601657413676
 10
102.1980685508394
 20
-119.601657413676
 10
102.0223686810916
 20
-119.5825371337328
 10
102.0223686810916
 20
-119.5825371337328
 10
102.0223686810916
 20
-119.5825371337328
 10
102.1429470230754
 20
-118.7364216825555
 10
102.1429470230754
 20
-118.7364216825555
 10
102.1429470230754
 20
-118.7364216825555
 10
102.9215386027418
 20
-118.7364216825555
 10
102.9215386027418
 20
-118.7364216825555
 10
102.9215386027418
 20
-118.7364216825555
 10
102.9215386027418
 20
-118.9310695774721
 10
102.9215386027418
 20
-118.9310695774721
 10
102.9215386027418
 20
-118.9310695774721
 10
102.3062445490762
 20
-118.9310695774721
 10
102.3062445490762
 20
-118.9310695774721
 10
102.3062445490762
 20
-118.9310695774721
 10
102.2407877348565
 20
-119.3541273030608
 10
102.2407877348565
 20
-119.3541273030608
 10
102.3021104344939
 20
-119.3201931125311
 10
102.3841037070429
 20
-119.2800577501279
 10
102.5026149917355
 20
-119.2800577501279
 10
102.7568630385469
 20
-119.2800577501279
 10
102.9938856079321
 20
-119.4662651611057
 10
102.9938856079321
 20
-119.7792520859406
 10
102.9938856079321
 20
-120.0967176349064
 10
102.7692653822938
 20
-120.3315008922262
 10
102.4667859986889
 20
-120.3315008922262
 97
        0
 97
        0
 75
     2
 76
     1
 98
        0
  0
ENDBLK
  5
1E9
330
1E6
100
AcDbEntity
  8
0
100
AcDbBlockEnd
  0
BLOCK
  5
1F4
330
1F2
100
AcDbEntity
  8
0
100
AcDbBlockBegin
  2
block 5
 70
     0
 10
0.0
 20
0.0
 30
0.0
  3
block 5
  1

  0
SPLINE
  5
1F6
330
1F2
100
AcDbEntity
  8
_U+30EC_U+30A4_U+30E4_U+30FC 1
370
     0
100
AcDbSpline
210
0.0
220
0.0
230
1.0
 70
    11
 71
     3
 72
    26
 73
    22
 74
     0
 42
0.0000000001
 43
0.0000000001
 12
1.0
 22
0.0
 32
0.0
 13
1.0
 23
0.0
 33
0.0
 40
0.0
 40
0.0
 40
0.0
 40
0.0
 40
1.0
 40
1.0
 40
1.0
 40
2.0
 40
2.0
 40
2.0
 40
3.0
 40
3.0
 40
3.0
 40
4.0
 40
4.0
 40
4.0
 40
5.0
 40
5.0
 40
5.0
 40
6.0
 40
6.0
 40
6.0
 40
7.0
 40
7.0
 40
7.0
 40
7.0
 10
88.92687172255995
 20
-120.2803412242702
 30
0.0
 10
88.92687172255995
 20
-120.2803412242702
 30
0.0
 10
88.92687172255995
 20
-119.1760158664734
 30
0.0
 10
88.92687172255995
 20
-119.1760158664734
 30
0.0
 10
88.92687172255995
 20
-119.1760158664734
 30
0.0
 10
88.59683157507301
 20
-119.1760158664734
 30
0.0
 10
88.59683157507301
 20
-119.1760158664734
 30
0.0
 10
88.59683157507301
 20
-119.1760158664734
 30
0.0
 10
88.59683157507301
 20
-119.0280490153819
 30
0.0
 10
88.59683157507301
 20
-119.0280490153819
 30
0.0
 10
88.92893877985111
 20
-119.0132351047953
 30
0.0
 10
88.97544756890197
 20
-118.850282088343
 30
0.0
 10
89.00507539007512
 20
-118.736077173007
 30
0.0
 10
89.00507539007512
 20
-118.736077173007
 30
0.0
 10
89.15114743864972
 20
-118.736077173007
 30
0.0
 10
89.15114743864972
 20
-118.736077173007
 30
0.0
 10
89.15114743864972
 20
-118.736077173007
 30
0.0
 10
89.15114743864972
 20
-120.2803412242702
 30
0.0
 10
89.15114743864972
 20
-120.2803412242702
 30
0.0
 10
89.15114743864972
 20
-120.2803412242702
 30
0.0
 10
88.92687172255995
 20
-120.2803412242702
 30
0.0
 10
88.92687172255995
 20
-120.2803412242702
 30
0.0
  0
HATCH
  5
1F7
330
1F2
100
AcDbEntity
  8
_U+30EC_U+30A4_U+30E4_U+30FC 1
 62
   179
420
  2234388
100
AcDbHatch
 10
0.0
 20
0.0
 30
0.0
210
0.0
220
0.0
230
1.0
  2
SOLID
 70
     1
 71
     0
 91
        1
 92
        1
 93
        1
 72
     4
 94
        3
 73
     0
 74
     1
 95
       26
 96
       22
 40
0.0
 40
0.0
 40
0.0
 40
0.0
 40
1.0
 40
1.0
 40
1.0
 40
2.0
 40
2.0
 40
2.0
 40
3.0
 40
3.0
 40
3.0
 40
4.0
 40
4.0
 40
4.0
 40
5.0
 40
5.0
 40
5.0
 40
6.0
 40
6.0
 40
6.0
 40
7.0
 40
7.0
 40
7.0
 40
7.0
 10
88.92687172255995
 20
-120.2803412242702
 10
88.92687172255995
 20
-120.2803412242702
 10
88.92687172255995
 20
-119.1760158664734
 10
88.92687172255995
 20
-119.1760158664734
 10
88.92687172255995
 20
-119.1760158664734
 10
88.59683157507301
 20
-119.1760158664734
 10
88.59683157507301
 20
-119.1760158664734
 10
88.59683157507301
 20
-119.1760158664734
 10
88.59683157507301
 20
-119.0280490153819
 10
88.59683157507301
 20
-119.0280490153819
 10
88.92893877985111
 20
-119.0132351047953
 10
88.97544756890197
 20
-118.850282088343
 10
89.00507539007512
 20
-118.736077173007
 10
89.00507539007512
 20
-118.736077173007
 10
89.15114743864972
 20
-118.736077173007
 10
89.15114743864972
 20
-118.736077173007
 10
89.15114743864972
 20
-118.736077173007
 10
89.15114743864972
 20
-120.2803412242702
 10
89.15114743864972
 20
-120.2803412242702
 10
89.15114743864972
 20
-120.2803412242702
 10
88.92687172255995
 20
-120.2803412242702
 10
88.92687172255995
 20
-120.2803412242702
 97
        0
 97
        0
 75
     2
 76
     1
 98
        0
  0
ENDBLK
  5
1F5
330
1F2
100
AcDbEntity
  8
0
100
AcDbBlockEnd
  0
BLOCK
  5
206
330
204
100
AcDbEntity
  8
0
100
AcDbBlockBegin
  2
block 6
 70
     0
 10
0.0
 20
0.0
 30
0.0
  3
block 6
  1

  0
SPLINE
  5
208
330
204
100
AcDbEntity
  8
_U+30EC_U+30A4_U+30E4_U+30FC 1
370
     0
100
AcDbSpline
210
0.0
220
0.0
230
1.0
 70
    11
 71
     3
 72
    62
 73
    58
 74
     0
 42
0.0000000001
 43
0.0000000001
 12
1.0
 22
0.0
 32
0.0
 13
1.0
 23
0.0
 33
0.0
 40
0.0
 40
0.0
 40
0.0
 40
0.0
 40
1.0
 40
1.0
 40
1.0
 40
2.0
 40
2.0
 40
2.0
 40
3.0
 40
3.0
 40
3.0
 40
4.0
 40
4.0
 40
4.0
 40
5.0
 40
5.0
 40
5.0
 40
6.0
 40
6.0
 40
6.0
 40
7.0
 40
7.0
 40
7.0
 40
8.0
 40
8.0
 40
8.0
 40
9.0
 40
9.0
 40
9.0
 40
10.0
 40
10.0
 40
10.0
 40
11.0
 40
11.0
 40
11.0
 40
12.0
 40
12.0
 40
12.0
 40
13.0
 40
13.0
 40
13.0
 40
14.0
 40
14.0
 40
14.0
 40
15.0
 40
15.0
 40
15.0
 40
16.0
 40
16.0
 40
16.0
 40
17.0
 40
17.0
 40
17.0
 40
18.0
 40
18.0
 40
18.0
 40
19.0
 40
19.0
 40
19.0
 40
19.0
 10
88.96700708496311
 20
-137.3308077998687
 30
0.0
 10
88.87175019479595
 20
-137.3308077998687
 30
0.0
 10
88.6538479053539
 20
-137.3097927174087
 30
0.0
 10
88.52913544878786
 20
-137.1237575612052
 30
0.0
 10
88.45506589585499
 20
-137.011447448386
 30
0.0
 10
88.45075952649843
 20
-136.9122286984108
 30
0.0
 10
88.44662541191613
 20
-136.8274793494737
 30
0.0
 10
88.44662541191613
 20
-136.8274793494737
 30
0.0
 10
88.66659475864932
 20
-136.8274793494737
 30
0.0
 10
88.66659475864932
 20
-136.8274793494737
 30
0.0
 10
88.66866181594048
 20
-136.9015489024066
 30
0.0
 10
88.67934161194475
 20
-137.1361599049521
 30
0.0
 10
88.96270071560654
 20
-137.1361599049521
 30
0.0
 10
89.10033228024228
 20
-137.1361599049521
 30
0.0
 10
89.25260550069032
 20
-137.06656897615
 30
0.0
 10
89.25260550069032
 20
-136.838159145478
 30
0.0
 10
89.25260550069032
 20
-136.7217149180765
 30
0.0
 10
89.21453719557832
 20
-136.6731390717345
 30
0.0
 10
89.18284231711401
 20
-136.6414441932702
 30
0.0
 10
89.10877276418114
 20
-136.5673746403373
 30
0.0
 10
88.9923285367797
 20
-136.5546277870419
 30
0.0
 10
88.93737926378996
 20
-136.5546277870419
 30
0.0
 10
88.9184312386211
 20
-136.5546277870419
 30
0.0
 10
88.88242999080023
 20
-136.5566948443331
 30
0.0
 10
88.85486922691823
 20
-136.5608289589154
 30
0.0
 10
88.85486922691823
 20
-136.5608289589154
 30
0.0
 10
88.85486922691823
 20
-136.3661810639987
 30
0.0
 10
88.85486922691823
 20
-136.3661810639987
 30
0.0
 10
88.89293753203025
 20
-136.3727267454207
 30
0.0
 10
88.93531220649882
 20
-136.3747938027118
 30
0.0
 10
88.94168563314653
 20
-136.3747938027118
 30
0.0
 10
89.00714244736628
 20
-136.3747938027118
 30
0.0
 10
89.20609671163945
 20
-136.3534342107033
 30
0.0
 10
89.20609671163945
 20
-136.1167561508666
 30
0.0
 10
89.20609671163945
 20
-135.9389892238277
 30
0.0
 10
89.07483857365143
 20
-135.8838676960638
 30
0.0
 10
88.96494002767196
 20
-135.8838676960638
 30
0.0
 10
88.70052894917904
 20
-135.8838676960638
 30
0.0
 10
88.69191621046592
 20
-136.1167561508666
 30
0.0
 10
88.68778209588362
 20
-136.1884141369598
 30
0.0
 10
88.68778209588362
 20
-136.1884141369598
 30
0.0
 10
88.48469371702814
 20
-136.1884141369598
 30
0.0
 10
88.48469371702814
 20
-136.1884141369598
 30
0.0
 10
88.49313420096699
 20
-136.0637016803938
 30
0.0
 10
88.520694964849
 20
-135.687152743856
 30
0.0
 10
88.97751462619313
 20
-135.687152743856
 30
0.0
 10
89.20179034228289
 20
-135.687152743856
 30
0.0
 10
89.44294702625038
 20
-135.8142767672617
 30
0.0
 10
89.44294702625038
 20
-136.1102104694447
 30
0.0
 10
89.44294702625038
 20
-136.2965901351967
 30
0.0
 10
89.34786239085749
 20
-136.3789279172942
 30
0.0
 10
89.24829913133377
 20
-136.4402506169316
 30
0.0
 10
89.30979408574547
 20
-136.4678113808136
 30
0.0
 10
89.49169512736667
 20
-136.5480821056199
 30
0.0
 10
89.49169512736667
 20
-136.8254122921825
 30
0.0
 10
89.49169512736667
 20
-137.1637206688341
 30
0.0
 10
89.24416501675147
 20
-137.3308077998687
 30
0.0
 10
88.96700708496311
 20
-137.3308077998687
 30
0.0
  0
HATCH
  5
209
330
204
100
AcDbEntity
  8
_U+30EC_U+30A4_U+30E4_U+30FC 1
 62
   179
420
  2234388
100
AcDbHatch
 10
0.0
 20
0.0
 30
0.0
210
0.0
220
0.0
230
1.0
  2
SOLID
 70
     1
 71
     0
 91
        1
 92
        1
 93
        1
 72
     4
 94
        3
 73
     0
 74
     1
 95
       62
 96
       58
 40
0.0
 40
0.0
 40
0.0
 40
0.0
 40
1.0
 40
1.0
 40
1.0
 40
2.0
 40
2.0
 40
2.0
 40
3.0
 40
3.0
 40
3.0
 40
4.0
 40
4.0
 40
4.0
 40
5.0
 40
5.0
 40
5.0
 40
6.0
 40
6.0
 40
6.0
 40
7.0
 40
7.0
 40
7.0
 40
8.0
 40
8.0
 40
8.0
 40
9.0
 40
9.0
 40
9.0
 40
10.0
 40
10.0
 40
10.0
 40
11.0
 40
11.0
 40
11.0
 40
12.0
 40
12.0
 40
12.0
 40
13.0
 40
13.0
 40
13.0
 40
14.0
 40
14.0
 40
14.0
 40
15.0
 40
15.0
 40
15.0
 40
16.0
 40
16.0
 40
16.0
 40
17.0
 40
17.0
 40
17.0
 40
18.0
 40
18.0
 40
18.0
 40
19.0
 40
19.0
 40
19.0
 40
19.0
 10
88.96700708496311
 20
-137.3308077998687
 10
88.87175019479595
 20
-137.3308077998687
 10
88.6538479053539
 20
-137.3097927174087
 10
88.52913544878786
 20
-137.1237575612052
 10
88.45506589585499
 20
-137.011447448386
 10
88.45075952649843
 20
-136.9122286984108
 10
88.44662541191613
 20
-136.8274793494737
 10
88.44662541191613
 20
-136.8274793494737
 10
88.66659475864932
 20
-136.8274793494737
 10
88.66659475864932
 20
-136.8274793494737
 10
88.66866181594048
 20
-136.9015489024066
 10
88.67934161194475
 20
-137.1361599049521
 10
88.96270071560654
 20
-137.1361599049521
 10
89.10033228024228
 20
-137.1361599049521
 10
89.25260550069032
 20
-137.06656897615
 10
89.25260550069032
 20
-136.838159145478
 10
89.25260550069032
 20
-136.7217149180765
 10
89.21453719557832
 20
-136.6731390717345
 10
89.18284231711401
 20
-136.6414441932702
 10
89.10877276418114
 20
-136.5673746403373
 10
88.9923285367797
 20
-136.5546277870419
 10
88.93737926378996
 20
-136.5546277870419
 10
88.9184312386211
 20
-136.5546277870419
 10
88.88242999080023
 20
-136.5566948443331
 10
88.85486922691823
 20
-136.5608289589154
 10
88.85486922691823
 20
-136.5608289589154
 10
88.85486922691823
 20
-136.3661810639987
 10
88.85486922691823
 20
-136.3661810639987
 10
88.89293753203025
 20
-136.3727267454207
 10
88.93531220649882
 20
-136.3747938027118
 10
88.94168563314653
 20
-136.3747938027118
 10
89.00714244736628
 20
-136.3747938027118
 10
89.20609671163945
 20
-136.3534342107033
 10
89.20609671163945
 20
-136.1167561508666
 10
89.20609671163945
 20
-135.9389892238277
 10
89.07483857365143
 20
-135.8838676960638
 10
88.96494002767196
 20
-135.8838676960638
 10
88.70052894917904
 20
-135.8838676960638
 10
88.69191621046592
 20
-136.1167561508666
 10
88.68778209588362
 20
-136.1884141369598
 10
88.68778209588362
 20
-136.1884141369598
 10
88.48469371702814
 20
-136.1884141369598
 10
88.48469371702814
 20
-136.1884141369598
 10
88.49313420096699
 20
-136.0637016803938
 10
88.520694964849
 20
-135.687152743856
 10
88.97751462619313
 20
-135.687152743856
 10
89.20179034228289
 20
-135.687152743856
 10
89.44294702625038
 20
-135.8142767672617
 10
89.44294702625038
 20
-136.1102104694447
 10
89.44294702625038
 20
-136.2965901351967
 10
89.34786239085749
 20
-136.3789279172942
 10
89.24829913133377
 20
-136.4402506169316
 10
89.30979408574547
 20
-136.4678113808136
 10
89.49169512736667
 20
-136.5480821056199
 10
89.49169512736667
 20
-136.8254122921825
 10
89.49169512736667
 20
-137.1637206688341
 10
89.24416501675147
 20
-137.3308077998687
 10
88.96700708496311
 20
-137.3308077998687
 97
        0
 97
        0
 75
     2
 76
     1
 98
        0
  0
ENDBLK
  5
207
330
204
100
AcDbEntity
  8
0
100
AcDbBlockEnd
  0
BLOCK
  5
21C
330
21A
100
AcDbEntity
  8
0
100
AcDbBlockBegin
  2
block 7
 70
     0
 10
0.0
 20
0.0
 30
0.0
  3
block 7
  1

  0
SPLINE
  5
21E
330
21A
100
AcDbEntity
  8
_U+30EC_U+30A4_U+30E4_U+30FC 1
370
     0
100
AcDbSpline
210
0.0
220
0.0
230
1.0
 70
    11
 71
     3
 72
    29
 73
    25
 74
     0
 42
0.0000000001
 43
0.0000000001
 12
1.0
 22
0.0
 32
0.0
 13
1.0
 23
0.0
 33
0.0
 40
0.0
 40
0.0
 40
0.0
 40
0.0
 40
1.0
 40
1.0
 40
1.0
 40
2.0
 40
2.0
 40
2.0
 40
3.0
 40
3.0
 40
3.0
 40
4.0
 40
4.0
 40
4.0
 40
5.0
 40
5.0
 40
5.0
 40
6.0
 40
6.0
 40
6.0
 40
7.0
 40
7.0
 40
7.0
 40
8.0
 40
8.0
 40
8.0
 40
8.0
 10
58.58229843370512
 20
-126.1302856129987
 30
0.0
 10
58.79176023920832
 20
-126.238117101687
 30
0.0
 10
58.81088051915145
 20
-126.4115776593693
 30
0.0
 10
58.81088051915145
 20
-126.5280218867708
 30
0.0
 10
58.81088051915145
 20
-126.688907845932
 30
0.0
 10
58.76437173010058
 20
-126.8305012703757
 30
0.0
 10
58.58229843370512
 20
-126.9255859057686
 30
0.0
 10
58.38782279356277
 20
-127.0292832798746
 30
0.0
 10
58.15080022417758
 20
-127.048575814592
 30
0.0
 10
57.98784720772526
 20
-127.048575814592
 30
0.0
 10
57.84401447121608
 20
-127.048575814592
 30
0.0
 10
57.59235024601858
 20
-127.0313503371658
 30
0.0
 10
57.39339598174541
 20
-126.9255859057686
 30
0.0
 10
57.19030760288992
 20
-126.8177544170803
 30
0.0
 10
57.16705320836449
 20
-126.6568684579191
 30
0.0
 10
57.16705320836449
 20
-126.5280218867708
 30
0.0
 10
57.16705320836449
 20
-126.369375239675
 30
0.0
 10
57.21149494012421
 20
-126.2255425031658
 30
0.0
 10
57.39339598174541
 20
-126.1302856129987
 30
0.0
 10
57.58597681937087
 20
-126.0308946082492
 30
0.0
 10
57.81438665004293
 20
-126.0076402137238
 30
0.0
 10
57.98784720772526
 20
-126.0076402137238
 30
0.0
 10
58.15924070811644
 20
-126.0076402137238
 30
0.0
 10
58.38988985085392
 20
-126.0286552961838
 30
0.0
 10
58.58229843370512
 20
-126.1302856129987
 30
0.0
  0
SPLINE
  5
21F
330
21A
100
AcDbEntity
  8
_U+30EC_U+30A4_U+30E4_U+30FC 1
370
     0
100
AcDbSpline
210
0.0
220
0.0
230
1.0
 70
    11
 71
     3
 72
    17
 73
    13
 74
     0
 42
0.0000000001
 43
0.0000000001
 12
1.0
 22
0.0
 32
0.0
 13
1.0
 23
0.0
 33
0.0
 40
0.0
 40
0.0
 40
0.0
 40
0.0
 40
1.0
 40
1.0
 40
1.0
 40
2.0
 40
2.0
 40
2.0
 40
3.0
 40
3.0
 40
3.0
 40
4.0
 40
4.0
 40
4.0
 40
4.0
 10
57.35963404598996
 20
-126.5280218867708
 30
0.0
 10
57.35963404598996
 20
-126.7777913094514
 30
0.0
 10
57.64299314965175
 20
-126.8243000985023
 30
0.0
 10
57.98784720772526
 20
-126.8243000985023
 30
0.0
 10
58.30737981398219
 20
-126.8243000985023
 30
0.0
 10
58.61623262423483
 20
-126.7881265959071
 30
0.0
 10
58.61623262423483
 20
-126.5280218867708
 30
0.0
 10
58.61623262423483
 20
-126.2804917761556
 30
0.0
 10
58.33476832308992
 20
-126.2317436750393
 30
0.0
 10
57.98784720772526
 20
-126.2317436750393
 30
0.0
 10
57.6684868562426
 20
-126.2317436750393
 30
0.0
 10
57.35963404598996
 20
-126.2699842349256
 30
0.0
 10
57.35963404598996
 20
-126.5280218867708
 30
0.0
  0
HATCH
  5
220
330
21A
100
AcDbEntity
  8
_U+30EC_U+30A4_U+30E4_U+30FC 1
 62
   179
420
  2234388
100
AcDbHatch
 10
0.0
 20
0.0
 30
0.0
210
0.0
220
0.0
230
1.0
  2
SOLID
 70
     1
 71
     0
 91
        2
 92
        1
 93
        1
 72
     4
 94
        3
 73
     0
 74
     1
 95
       29
 96
       25
 40
0.0
 40
0.0
 40
0.0
 40
0.0
 40
1.0
 40
1.0
 40
1.0
 40
2.0
 40
2.0
 40
2.0
 40
3.0
 40
3.0
 40
3.0
 40
4.0
 40
4.0
 40
4.0
 40
5.0
 40
5.0
 40
5.0
 40
6.0
 40
6.0
 40
6.0
 40
7.0
 40
7.0
 40
7.0
 40
8.0
 40
8.0
 40
8.0
 40
8.0
 10
58.58229843370512
 20
-126.1302856129987
 10
58.79176023920832
 20
-126.238117101687
 10
58.81088051915145
 20
-126.4115776593693
 10
58.81088051915145
 20
-126.5280218867708
 10
58.81088051915145
 20
-126.688907845932
 10
58.76437173010058
 20
-126.8305012703757
 10
58.58229843370512
 20
-126.9255859057686
 10
58.38782279356277
 20
-127.0292832798746
 10
58.15080022417758
 20
-127.048575814592
 10
57.98784720772526
 20
-127.048575814592
 10
57.84401447121608
 20
-127.048575814592
 10
57.59235024601858
 20
-127.0313503371658
 10
57.39339598174541
 20
-126.9255859057686
 10
57.19030760288992
 20
-126.8177544170803
 10
57.16705320836449
 20
-126.6568684579191
 10
57.16705320836449
 20
-126.5280218867708
 10
57.16705320836449
 20
-126.369375239675
 10
57.21149494012421
 20
-126.2255425031658
 10
57.39339598174541
 20
-126.1302856129987
 10
57.58597681937087
 20
-126.0308946082492
 10
57.81438665004293
 20
-126.0076402137238
 10
57.98784720772526
 20
-126.0076402137238
 10
58.15924070811644
 20
-126.0076402137238
 10
58.38988985085392
 20
-126.0286552961838
 10
58.58229843370512
 20
-126.1302856129987
 97
        0
 97
        0
 92
        1
 93
        1
 72
     4
 94
        3
 73
     0
 74
     1
 95
       17
 96
       13
 40
0.0
 40
0.0
 40
0.0
 40
0.0
 40
1.0
 40
1.0
 40
1.0
 40
2.0
 40
2.0
 40
2.0
 40
3.0
 40
3.0
 40
3.0
 40
4.0
 40
4.0
 40
4.0
 40
4.0
 10
57.35963404598996
 20
-126.5280218867708
 10
57.35963404598996
 20
-126.7777913094514
 10
57.64299314965175
 20
-126.8243000985023
 10
57.98784720772526
 20
-126.8243000985023
 10
58.30737981398219
 20
-126.8243000985023
 10
58.61623262423483
 20
-126.7881265959071
 10
58.61623262423483
 20
-126.5280218867708
 10
58.61623262423483
 20
-126.2804917761556
 10
58.33476832308992
 20
-126.2317436750393
 10
57.98784720772526
 20
-126.2317436750393
 10
57.6684868562426
 20
-126.2317436750393
 10
57.35963404598996
 20
-126.2699842349256
 10
57.35963404598996
 20
-126.5280218867708
 97
        0
 97
        0
 75
     2
 76
     1
 98
        0
  0
POLYLINE
  5
221
330
21A
100
AcDbEntity
  8
_U+30EC_U+30A4_U+30E4_U+30FC 1
370
     0
100
AcDb2dPolyline
 66
     1
 10
0.0
 20
0.0
 30
0.0
  0
VERTEX
  5
222
330
221
100
AcDbEntity
  8
_U+30EC_U+30A4_U+30E4_U+30FC 1
370
     0
100
AcDbVertex
100
AcDb2dVertex
 10
58.76006536074402
 20
-125.7911159624758
 30
0.0
  0
VERTEX
  5
223
330
221
100
AcDbEntity
  8
_U+30EC_U+30A4_U+30E4_U+30FC 1
370
     0
100
AcDbVertex
100
AcDb2dVertex
 10
58.50840113554651
 20
-125.7911159624758
 30
0.0
  0
VERTEX
  5
224
330
221
100
AcDbEntity
  8
_U+30EC_U+30A4_U+30E4_U+30FC 1
370
     0
100
AcDbVertex
100
AcDb2dVertex
 10
58.50840113554651
 20
-125.5394517372783
 30
0.0
  0
VERTEX
  5
225
330
221
100
AcDbEntity
  8
_U+30EC_U+30A4_U+30E4_U+30FC 1
370
     0
100
AcDbVertex
100
AcDb2dVertex
 10
58.76006536074402
 20
-125.5394517372783
 30
0.0
  0
VERTEX
  5
226
330
221
100
AcDbEntity
  8
_U+30EC_U+30A4_U+30E4_U+30FC 1
370
     0
100
AcDbVertex
100
AcDb2dVertex
 10
58.76006536074402
 20
-125.7911159624758
 30
0.0
  0
SEQEND
  5
227
330
221
100
AcDbEntity
  8
_U+30EC_U+30A4_U+30E4_U+30FC 1
370
     0
  0
HATCH
  5
228
330
21A
100
AcDbEntity
  8
_U+30EC_U+30A4_U+30E4_U+30FC 1
 62
   179
420
  2234388
100
AcDbHatch
 10
0.0
 20
0.0
 30
0.0
210
0.0
220
0.0
230
1.0
  2
SOLID
 70
     1
 71
     0
 91
        1
 92
        1
 93
        4
 72
     1
 10
58.76006536074402
 20
-125.7911159624758
 11
58.50840113554651
 21
-125.7911159624758
 72
     1
 10
58.50840113554651
 20
-125.7911159624758
 11
58.50840113554651
 21
-125.5394517372783
 72
     1
 10
58.50840113554651
 20
-125.5394517372783
 11
58.76006536074402
 21
-125.5394517372783
 72
     1
 10
58.76006536074402
 20
-125.5394517372783
 11
58.76006536074402
 21
-125.7911159624758
 97
        0
 75
     2
 76
     1
 98
        0
  0
SPLINE
  5
229
330
21A
100
AcDbEntity
  8
_U+30EC_U+30A4_U+30E4_U+30FC 1
370
     0
100
AcDbSpline
210
0.0
220
0.0
230
1.0
 70
    11
 71
     3
 72
    53
 73
    49
 74
     0
 42
0.0000000001
 43
0.0000000001
 12
1.0
 22
0.0
 32
0.0
 13
1.0
 23
0.0
 33
0.0
 40
0.0
 40
0.0
 40
0.0
 40
0.0
 40
1.0
 40
1.0
 40
1.0
 40
2.0
 40
2.0
 40
2.0
 40
3.0
 40
3.0
 40
3.0
 40
4.0
 40
4.0
 40
4.0
 40
5.0
 40
5.0
 40
5.0
 40
6.0
 40
6.0
 40
6.0
 40
7.0
 40
7.0
 40
7.0
 40
8.0
 40
8.0
 40
8.0
 40
9.0
 40
9.0
 40
9.0
 40
10.0
 40
10.0
 40
10.0
 40
11.0
 40
11.0
 40
11.0
 40
12.0
 40
12.0
 40
12.0
 40
13.0
 40
13.0
 40
13.0
 40
14.0
 40
14.0
 40
14.0
 40
15.0
 40
15.0
 40
15.0
 40
16.0
 40
16.0
 40
16.0
 40
16.0
 10
58.81088051915145
 20
-124.8218383477008
 30
0.0
 10
58.81088051915145
 20
-124.9002142699902
 30
0.0
 10
58.79399955127373
 20
-125.0016723320308
 30
0.0
 10
58.73043753957086
 20
-125.1033026488457
 30
0.0
 10
58.62036673881713
 20
-125.276763206528
 30
0.0
 10
58.48928085560338
 20
-125.2979505437623
 30
0.0
 10
58.38144936691506
 20
-125.3168985689312
 30
0.0
 10
58.38144936691506
 20
-125.3168985689312
 30
0.0
 10
58.38144936691506
 20
-125.0948621649068
 30
0.0
 10
58.38144936691506
 20
-125.0948621649068
 30
0.0
 10
58.58023137641397
 20
-125.0397406371428
 30
0.0
 10
58.60985919758712
 20
-124.9127888685114
 30
0.0
 10
58.60985919758712
 20
-124.8197712904096
 30
0.0
 10
58.60985919758712
 20
-124.6800726684828
 30
0.0
 10
58.51046819283766
 20
-124.5277994480347
 30
0.0
 10
58.27775199280904
 20
-124.5277994480347
 30
0.0
 10
58.02178139825497
 20
-124.5277994480347
 30
0.0
 10
57.95201821467867
 20
-124.7076334323648
 30
0.0
 10
57.95201821467867
 20
-124.8282117743485
 30
0.0
 10
57.95201821467867
 20
-124.8599066528128
 30
0.0
 10
57.95201821467867
 20
-125.0016723320308
 30
0.0
 10
58.08103704060127
 20
-125.0905557955503
 30
0.0
 10
58.08103704060127
 20
-125.0905557955503
 30
0.0
 10
58.06191676065814
 20
-125.2660834105238
 30
0.0
 10
58.06191676065814
 20
-125.2660834105238
 30
0.0
 10
58.06191676065814
 20
-125.2660834105238
 30
0.0
 10
57.21580130948077
 20
-125.14550506854
 30
0.0
 10
57.21580130948077
 20
-125.14550506854
 30
0.0
 10
57.21580130948077
 20
-125.14550506854
 30
0.0
 10
57.21580130948077
 20
-124.3670857436478
 30
0.0
 10
57.21580130948077
 20
-124.3670857436478
 30
0.0
 10
57.21580130948077
 20
-124.3670857436478
 30
0.0
 10
57.41044920439739
 20
-124.3670857436478
 30
0.0
 10
57.41044920439739
 20
-124.3670857436478
 30
0.0
 10
57.41044920439739
 20
-124.3670857436478
 30
0.0
 10
57.41044920439739
 20
-124.982724306862
 30
0.0
 10
57.41044920439739
 20
-124.982724306862
 30
0.0
 10
57.41044920439739
 20
-124.982724306862
 30
0.0
 10
57.83350692998607
 20
-125.0481811210817
 30
0.0
 10
57.83350692998607
 20
-125.0481811210817
 30
0.0
 10
57.79957273945636
 20
-124.9868584214443
 30
0.0
 10
57.7594373770532
 20
-124.9043483845725
 30
0.0
 10
57.7594373770532
 20
-124.7860093546542
 30
0.0
 10
57.7594373770532
 20
-124.5321058173913
 30
0.0
 10
57.94564478803095
 20
-124.2950832480061
 30
0.0
 10
58.2586317128659
 20
-124.2950832480061
 30
0.0
 10
58.57609726183167
 20
-124.2950832480061
 30
0.0
 10
58.81088051915145
 20
-124.5193589640959
 30
0.0
 10
58.81088051915145
 20
-124.8218383477008
 30
0.0
  0
HATCH
  5
22A
330
21A
100
AcDbEntity
  8
_U+30EC_U+30A4_U+30E4_U+30FC 1
 62
   179
420
  2234388
100
AcDbHatch
 10
0.0
 20
0.0
 30
0.0
210
0.0
220
0.0
230
1.0
  2
SOLID
 70
     1
 71
     0
 91
        1
 92
        1
 93
        1
 72
     4
 94
        3
 73
     0
 74
     1
 95
       53
 96
       49
 40
0.0
 40
0.0
 40
0.0
 40
0.0
 40
1.0
 40
1.0
 40
1.0
 40
2.0
 40
2.0
 40
2.0
 40
3.0
 40
3.0
 40
3.0
 40
4.0
 40
4.0
 40
4.0
 40
5.0
 40
5.0
 40
5.0
 40
6.0
 40
6.0
 40
6.0
 40
7.0
 40
7.0
 40
7.0
 40
8.0
 40
8.0
 40
8.0
 40
9.0
 40
9.0
 40
9.0
 40
10.0
 40
10.0
 40
10.0
 40
11.0
 40
11.0
 40
11.0
 40
12.0
 40
12.0
 40
12.0
 40
13.0
 40
13.0
 40
13.0
 40
14.0
 40
14.0
 40
14.0
 40
15.0
 40
15.0
 40
15.0
 40
16.0
 40
16.0
 40
16.0
 40
16.0
 10
58.81088051915145
 20
-124.8218383477008
 10
58.81088051915145
 20
-124.9002142699902
 10
58.79399955127373
 20
-125.0016723320308
 10
58.73043753957086
 20
-125.1033026488457
 10
58.62036673881713
 20
-125.276763206528
 10
58.48928085560338
 20
-125.2979505437623
 10
58.38144936691506
 20
-125.3168985689312
 10
58.38144936691506
 20
-125.3168985689312
 10
58.38144936691506
 20
-125.0948621649068
 10
58.38144936691506
 20
-125.0948621649068
 10
58.58023137641397
 20
-125.0397406371428
 10
58.60985919758712
 20
-124.9127888685114
 10
58.60985919758712
 20
-124.8197712904096
 10
58.60985919758712
 20
-124.6800726684828
 10
58.51046819283766
 20
-124.5277994480347
 10
58.27775199280904
 20
-124.5277994480347
 10
58.02178139825497
 20
-124.5277994480347
 10
57.95201821467867
 20
-124.7076334323648
 10
57.95201821467867
 20
-124.8282117743485
 10
57.95201821467867
 20
-124.8599066528128
 10
57.95201821467867
 20
-125.0016723320308
 10
58.08103704060127
 20
-125.0905557955503
 10
58.08103704060127
 20
-125.0905557955503
 10
58.06191676065814
 20
-125.2660834105238
 10
58.06191676065814
 20
-125.2660834105238
 10
58.06191676065814
 20
-125.2660834105238
 10
57.21580130948077
 20
-125.14550506854
 10
57.21580130948077
 20
-125.14550506854
 10
57.21580130948077
 20
-125.14550506854
 10
57.21580130948077
 20
-124.3670857436478
 10
57.21580130948077
 20
-124.3670857436478
 10
57.21580130948077
 20
-124.3670857436478
 10
57.41044920439739
 20
-124.3670857436478
 10
57.41044920439739
 20
-124.3670857436478
 10
57.41044920439739
 20
-124.3670857436478
 10
57.41044920439739
 20
-124.982724306862
 10
57.41044920439739
 20
-124.982724306862
 10
57.41044920439739
 20
-124.982724306862
 10
57.83350692998607
 20
-125.0481811210817
 10
57.83350692998607
 20
-125.0481811210817
 10
57.79957273945636
 20
-124.9868584214443
 10
57.7594373770532
 20
-124.9043483845725
 10
57.7594373770532
 20
-124.7860093546542
 10
57.7594373770532
 20
-124.5321058173913
 10
57.94564478803095
 20
-124.2950832480061
 10
58.2586317128659
 20
-124.2950832480061
 10
58.57609726183167
 20
-124.2950832480061
 10
58.81088051915145
 20
-124.5193589640959
 10
58.81088051915145
 20
-124.8218383477008
 97
        0
 97
        0
 75
     2
 76
     1
 98
        0
  0
ENDBLK
  5
21D
330
21A
100
AcDbEntity
  8
0
100
AcDbBlockEnd
  0
BLOCK
  5
235
330
233
100
AcDbEntity
  8
0
100
AcDbBlockBegin
  2
block 8
 70
     0
 10
0.0
 20
0.0
 30
0.0
  3
block 8
  1

  0
SPLINE
  5
237
330
233
100
AcDbEntity
  8
_U+30EC_U+30A4_U+30E4_U+30FC 1
370
     0
100
AcDbSpline
210
0.0
220
0.0
230
1.0
 70
    11
 71
     3
 72
    29
 73
    25
 74
     0
 42
0.0000000001
 43
0.0000000001
 12
1.0
 22
0.0
 32
0.0
 13
1.0
 23
0.0
 33
0.0
 40
0.0
 40
0.0
 40
0.0
 40
0.0
 40
1.0
 40
1.0
 40
1.0
 40
2.0
 40
2.0
 40
2.0
 40
3.0
 40
3.0
 40
3.0
 40
4.0
 40
4.0
 40
4.0
 40
5.0
 40
5.0
 40
5.0
 40
6.0
 40
6.0
 40
6.0
 40
7.0
 40
7.0
 40
7.0
 40
8.0
 40
8.0
 40
8.0
 40
8.0
 10
58.81088051915145
 20
-129.9913763780924
 30
0.0
 10
58.81088051915145
 20
-130.2580267686508
 30
0.0
 10
58.67324895451572
 20
-130.5119303059137
 30
0.0
 10
58.32426078185991
 20
-130.5119303059137
 30
0.0
 10
58.06829018730585
 20
-130.5119303059137
 30
0.0
 10
57.97303329713869
 20
-130.3699923719214
 30
0.0
 10
57.91171059750124
 20
-130.2642279405242
 30
0.0
 10
57.85245495515495
 20
-130.3889403970903
 30
0.0
 10
57.73825003981892
 20
-130.4650770073143
 30
0.0
 10
57.57753633543201
 20
-130.4650770073143
 30
0.0
 10
57.30244546093481
 20
-130.4650770073143
 30
0.0
 10
57.16705320836449
 20
-130.2662949978154
 30
0.0
 10
57.16705320836449
 20
-129.9913763780924
 30
0.0
 10
57.16705320836449
 20
-129.7078450196564
 30
0.0
 10
57.31088594487367
 20
-129.5173312393221
 30
0.0
 10
57.57753633543201
 20
-129.5173312393221
 30
0.0
 10
57.73825003981892
 20
-129.5173312393221
 30
0.0
 10
57.85245495515495
 20
-129.5958794163858
 30
0.0
 10
57.91171059750124
 20
-129.7205918729518
 30
0.0
 10
57.96252575590868
 20
-129.6317084094323
 30
0.0
 10
58.05778264607584
 20
-129.4728895075623
 30
0.0
 10
58.31995441250335
 20
-129.4728895075623
 30
0.0
 10
58.69443629175
 20
-129.4728895075623
 30
0.0
 10
58.81088051915145
 20
-129.7522867514161
 30
0.0
 10
58.81088051915145
 20
-129.9913763780924
 30
0.0
  0
SPLINE
  5
238
330
233
100
AcDbEntity
  8
_U+30EC_U+30A4_U+30E4_U+30FC 1
370
     0
100
AcDbSpline
210
0.0
220
0.0
230
1.0
 70
    11
 71
     3
 72
    17
 73
    13
 74
     0
 42
0.0000000001
 43
0.0000000001
 12
1.0
 22
0.0
 32
0.0
 13
1.0
 23
0.0
 33
0.0
 40
0.0
 40
0.0
 40
0.0
 40
0.0
 40
1.0
 40
1.0
 40
1.0
 40
2.0
 40
2.0
 40
2.0
 40
3.0
 40
3.0
 40
3.0
 40
4.0
 40
4.0
 40
4.0
 40
4.0
 10
57.35963404598996
 20
-129.9913763780924
 30
0.0
 10
57.35963404598996
 20
-130.1563964518359
 30
0.0
 10
57.45471868138285
 20
-130.241145800773
 30
0.0
 10
57.59011093395317
 20
-130.241145800773
 30
0.0
 10
57.71292858800233
 20
-130.241145800773
 30
0.0
 10
57.83143987269492
 20
-130.1691433051313
 30
0.0
 10
57.83143987269492
 20
-129.9913763780924
 30
0.0
 10
57.83143987269492
 20
-129.8136094510535
 30
0.0
 10
57.71292858800233
 20
-129.7416069554118
 30
0.0
 10
57.59011093395317
 20
-129.7416069554118
 30
0.0
 10
57.45471868138285
 20
-129.7416069554118
 30
0.0
 10
57.35963404598996
 20
-129.8284233616401
 30
0.0
 10
57.35963404598996
 20
-129.9913763780924
 30
0.0
  0
SPLINE
  5
239
330
233
100
AcDbEntity
  8
_U+30EC_U+30A4_U+30E4_U+30FC 1
370
     0
100
AcDbSpline
210
0.0
220
0.0
230
1.0
 70
    11
 71
     3
 72
    17
 73
    13
 74
     0
 42
0.0000000001
 43
0.0000000001
 12
1.0
 22
0.0
 32
0.0
 13
1.0
 23
0.0
 33
0.0
 40
0.0
 40
0.0
 40
0.0
 40
0.0
 40
1.0
 40
1.0
 40
1.0
 40
2.0
 40
2.0
 40
2.0
 40
3.0
 40
3.0
 40
3.0
 40
4.0
 40
4.0
 40
4.0
 40
4.0
 10
58.01971434096382
 20
-129.9913763780924
 30
0.0
 10
58.01971434096382
 20
-130.1350368598274
 30
0.0
 10
58.10635849241785
 20
-130.2876545898239
 30
0.0
 10
58.30944687127334
 20
-130.2876545898239
 30
0.0
 10
58.51460230741996
 20
-130.2876545898239
 30
0.0
 10
58.61623262423483
 20
-130.1605305664182
 30
0.0
 10
58.61623262423483
 20
-129.9913763780924
 30
0.0
 10
58.61623262423483
 20
-129.8053412218889
 30
0.0
 10
58.49358722495994
 20
-129.695098166361
 30
0.0
 10
58.31582029792105
 20
-129.695098166361
 30
0.0
 10
58.09361163912244
 20
-129.695098166361
 30
0.0
 10
58.01971434096382
 20
-129.8580511828133
 30
0.0
 10
58.01971434096382
 20
-129.9913763780924
 30
0.0
  0
HATCH
  5
23A
330
233
100
AcDbEntity
  8
_U+30EC_U+30A4_U+30E4_U+30FC 1
 62
   179
420
  2234388
100
AcDbHatch
 10
0.0
 20
0.0
 30
0.0
210
0.0
220
0.0
230
1.0
  2
SOLID
 70
     1
 71
     0
 91
        3
 92
        1
 93
        1
 72
     4
 94
        3
 73
     0
 74
     1
 95
       29
 96
       25
 40
0.0
 40
0.0
 40
0.0
 40
0.0
 40
1.0
 40
1.0
 40
1.0
 40
2.0
 40
2.0
 40
2.0
 40
3.0
 40
3.0
 40
3.0
 40
4.0
 40
4.0
 40
4.0
 40
5.0
 40
5.0
 40
5.0
 40
6.0
 40
6.0
 40
6.0
 40
7.0
 40
7.0
 40
7.0
 40
8.0
 40
8.0
 40
8.0
 40
8.0
 10
58.81088051915145
 20
-129.9913763780924
 10
58.81088051915145
 20
-130.2580267686508
 10
58.67324895451572
 20
-130.5119303059137
 10
58.32426078185991
 20
-130.5119303059137
 10
58.06829018730585
 20
-130.5119303059137
 10
57.97303329713869
 20
-130.3699923719214
 10
57.91171059750124
 20
-130.2642279405242
 10
57.85245495515495
 20
-130.3889403970903
 10
57.73825003981892
 20
-130.4650770073143
 10
57.57753633543201
 20
-130.4650770073143
 10
57.30244546093481
 20
-130.4650770073143
 10
57.16705320836449
 20
-130.2662949978154
 10
57.16705320836449
 20
-129.9913763780924
 10
57.16705320836449
 20
-129.7078450196564
 10
57.31088594487367
 20
-129.5173312393221
 10
57.57753633543201
 20
-129.5173312393221
 10
57.73825003981892
 20
-129.5173312393221
 10
57.85245495515495
 20
-129.5958794163858
 10
57.91171059750124
 20
-129.7205918729518
 10
57.96252575590868
 20
-129.6317084094323
 10
58.05778264607584
 20
-129.4728895075623
 10
58.31995441250335
 20
-129.4728895075623
 10
58.69443629175
 20
-129.4728895075623
 10
58.81088051915145
 20
-129.7522867514161
 10
58.81088051915145
 20
-129.9913763780924
 97
        0
 97
        0
 92
        1
 93
        1
 72
     4
 94
        3
 73
     0
 74
     1
 95
       17
 96
       13
 40
0.0
 40
0.0
 40
0.0
 40
0.0
 40
1.0
 40
1.0
 40
1.0
 40
2.0
 40
2.0
 40
2.0
 40
3.0
 40
3.0
 40
3.0
 40
4.0
 40
4.0
 40
4.0
 40
4.0
 10
57.35963404598996
 20
-129.9913763780924
 10
57.35963404598996
 20
-130.1563964518359
 10
57.45471868138285
 20
-130.241145800773
 10
57.59011093395317
 20
-130.241145800773
 10
57.71292858800233
 20
-130.241145800773
 10
57.83143987269492
 20
-130.1691433051313
 10
57.83143987269492
 20
-129.9913763780924
 10
57.83143987269492
 20
-129.8136094510535
 10
57.71292858800233
 20
-129.7416069554118
 10
57.59011093395317
 20
-129.7416069554118
 10
57.45471868138285
 20
-129.7416069554118
 10
57.35963404598996
 20
-129.8284233616401
 10
57.35963404598996
 20
-129.9913763780924
 97
        0
 97
        0
 92
        1
 93
        1
 72
     4
 94
        3
 73
     0
 74
     1
 95
       17
 96
       13
 40
0.0
 40
0.0
 40
0.0
 40
0.0
 40
1.0
 40
1.0
 40
1.0
 40
2.0
 40
2.0
 40
2.0
 40
3.0
 40
3.0
 40
3.0
 40
4.0
 40
4.0
 40
4.0
 40
4.0
 10
58.01971434096382
 20
-129.9913763780924
 10
58.01971434096382
 20
-130.1350368598274
 10
58.10635849241785
 20
-130.2876545898239
 10
58.30944687127334
 20
-130.2876545898239
 10
58.51460230741996
 20
-130.2876545898239
 10
58.61623262423483
 20
-130.1605305664182
 10
58.61623262423483
 20
-129.9913763780924
 10
58.61623262423483
 20
-129.8053412218889
 10
58.49358722495994
 20
-129.695098166361
 10
58.31582029792105
 20
-129.695098166361
 10
58.09361163912244
 20
-129.695098166361
 10
58.01971434096382
 20
-129.8580511828133
 10
58.01971434096382
 20
-129.9913763780924
 97
        0
 97
        0
 75
     2
 76
     1
 98
        0
  0
ENDBLK
  5
236
330
233
100
AcDbEntity
  8
0
100
AcDbBlockEnd
  0
BLOCK
  5
241
330
23F
100
AcDbEntity
  8
0
100
AcDbBlockBegin
  2
block 9
 70
     0
 10
0.0
 20
0.0
 30
0.0
  3
block 9
  1

  0
SPLINE
  5
243
330
23F
100
AcDbEntity
  8
_U+30EC_U+30A4_U+30E4_U+30FC 1
370
     0
100
AcDbSpline
210
0.0
220
0.0
230
1.0
 70
    11
 71
     3
 72
    26
 73
    22
 74
     0
 42
0.0000000001
 43
0.0000000001
 12
1.0
 22
0.0
 32
0.0
 13
1.0
 23
0.0
 33
0.0
 40
0.0
 40
0.0
 40
0.0
 40
0.0
 40
1.0
 40
1.0
 40
1.0
 40
2.0
 40
2.0
 40
2.0
 40
3.0
 40
3.0
 40
3.0
 40
4.0
 40
4.0
 40
4.0
 40
5.0
 40
5.0
 40
5.0
 40
6.0
 40
6.0
 40
6.0
 40
7.0
 40
7.0
 40
7.0
 40
7.0
 10
93.87196178208757
 20
-130.3413980793938
 30
0.0
 10
93.87196178208757
 20
-130.3413980793938
 30
0.0
 10
93.87196178208757
 20
-129.2372449763712
 30
0.0
 10
93.87196178208757
 20
-129.2372449763712
 30
0.0
 10
93.87196178208757
 20
-129.2372449763712
 30
0.0
 10
93.54192163460064
 20
-129.2372449763712
 30
0.0
 10
93.54192163460064
 20
-129.2372449763712
 30
0.0
 10
93.54192163460064
 20
-129.2372449763712
 30
0.0
 10
93.54192163460064
 20
-129.0891058705055
 30
0.0
 10
93.54192163460064
 20
-129.0891058705055
 30
0.0
 10
93.87402883937872
 20
-129.0742919599189
 30
0.0
 10
93.92053762842959
 20
-128.9113389434666
 30
0.0
 10
93.95016544960274
 20
-128.7973062829049
 30
0.0
 10
93.95016544960274
 20
-128.7973062829049
 30
0.0
 10
94.09623749817733
 20
-128.7973062829049
 30
0.0
 10
94.09623749817733
 20
-128.7973062829049
 30
0.0
 10
94.09623749817733
 20
-128.7973062829049
 30
0.0
 10
94.09623749817733
 20
-130.3413980793938
 30
0.0
 10
94.09623749817733
 20
-130.3413980793938
 30
0.0
 10
94.09623749817733
 20
-130.3413980793938
 30
0.0
 10
93.87196178208757
 20
-130.3413980793938
 30
0.0
 10
93.87196178208757
 20
-130.3413980793938
 30
0.0
  0
HATCH
  5
244
330
23F
100
AcDbEntity
  8
_U+30EC_U+30A4_U+30E4_U+30FC 1
 62
   179
420
  2234388
100
AcDbHatch
 10
0.0
 20
0.0
 30
0.0
210
0.0
220
0.0
230
1.0
  2
SOLID
 70
     1
 71
     0
 91
        1
 92
        1
 93
        1
 72
     4
 94
        3
 73
     0
 74
     1
 95
       26
 96
       22
 40
0.0
 40
0.0
 40
0.0
 40
0.0
 40
1.0
 40
1.0
 40
1.0
 40
2.0
 40
2.0
 40
2.0
 40
3.0
 40
3.0
 40
3.0
 40
4.0
 40
4.0
 40
4.0
 40
5.0
 40
5.0
 40
5.0
 40
6.0
 40
6.0
 40
6.0
 40
7.0
 40
7.0
 40
7.0
 40
7.0
 10
93.87196178208757
 20
-130.3413980793938
 10
93.87196178208757
 20
-130.3413980793938
 10
93.87196178208757
 20
-129.2372449763712
 10
93.87196178208757
 20
-129.2372449763712
 10
93.87196178208757
 20
-129.2372449763712
 10
93.54192163460064
 20
-129.2372449763712
 10
93.54192163460064
 20
-129.2372449763712
 10
93.54192163460064
 20
-129.2372449763712
 10
93.54192163460064
 20
-129.0891058705055
 10
93.54192163460064
 20
-129.0891058705055
 10
93.87402883937872
 20
-129.0742919599189
 10
93.92053762842959
 20
-128.9113389434666
 10
93.95016544960274
 20
-128.7973062829049
 10
93.95016544960274
 20
-128.7973062829049
 10
94.09623749817733
 20
-128.7973062829049
 10
94.09623749817733
 20
-128.7973062829049
 10
94.09623749817733
 20
-128.7973062829049
 10
94.09623749817733
 20
-130.3413980793938
 10
94.09623749817733
 20
-130.3413980793938
 10
94.09623749817733
 20
-130.3413980793938
 10
93.87196178208757
 20
-130.3413980793938
 10
93.87196178208757
 20
-130.3413980793938
 97
        0
 97
        0
 75
     2
 76
     1
 98
        0
  0
ENDBLK
  5
242
330
23F
100
AcDbEntity
  8
0
100
AcDbBlockEnd
  0
BLOCK
  5
251
330
24F
100
AcDbEntity
  8
0
100
AcDbBlockBegin
  2
block 10
 70
     0
 10
0.0
 20
0.0
 30
0.0
  3
block 10
  1

  0
INSERT
  5
254
330
24F
100
AcDbEntity
  8
_U+30EC_U+30A4_U+30E4_U+30FC 1
100
AcDbBlockReference
  2
block 11
 10
0.0
 20
0.0
 30
0.0
  0
INSERT
  5
264
330
24F
100
AcDbEntity
  8
_U+30EC_U+30A4_U+30E4_U+30FC 1
100
AcDbBlockReference
  2
block 12
 10
0.0
 20
0.0
 30
0.0
  0
ENDBLK
  5
252
330
24F
100
AcDbEntity
  8
0
100
AcDbBlockEnd
  0
BLOCK
  5
255
330
253
100
AcDbEntity
  8
0
100
AcDbBlockBegin
  2
block 11
 70
     0
 10
0.0
 20
0.0
 30
0.0
  3
block 11
  1

  0
POLYLINE
  5
257
330
253
100
AcDbEntity
  8
_U+30EC_U+30A4_U+30E4_U+30FC 1
 62
     7
420
 16777215
370
     9
100
AcDb2dPolyline
 66
     1
 10
0.0
 20
0.0
 30
0.0
  0
VERTEX
  5
258
330
257
100
AcDbEntity
  8
_U+30EC_U+30A4_U+30E4_U+30FC 1
 62
     7
420
 16777215
370
     9
100
AcDbVertex
100
AcDb2dVertex
 10
108.9938694171962
 20
-126.9801738571439
 30
0.0
  0
VERTEX
  5
259
330
257
100
AcDbEntity
  8
_U+30EC_U+30A4_U+30E4_U+30FC 1
 62
     7
420
 16777215
370
     9
100
AcDbVertex
100
AcDb2dVertex
 10
109.8051849764141
 20
-127.5648324681087
 30
0.0
  0
SEQEND
  5
25A
330
257
100
AcDbEntity
  8
_U+30EC_U+30A4_U+30E4_U+30FC 1
 62
     7
420
 16777215
370
     9
  0
POLYLINE
  5
25B
330
253
100
AcDbEntity
  8
_U+30EC_U+30A4_U+30E4_U+30FC 1
 62
     7
420
 16777215
370
     9
100
AcDb2dPolyline
 66
     1
 10
0.0
 20
0.0
 30
0.0
  0
VERTEX
  5
25C
330
25B
100
AcDbEntity
  8
_U+30EC_U+30A4_U+30E4_U+30FC 1
 62
     7
420
 16777215
370
     9
100
AcDbVertex
100
AcDb2dVertex
 10
108.9938694171962
 20
-126.9801738571439
 30
0.0
  0
VERTEX
  5
25D
330
25B
100
AcDbEntity
  8
_U+30EC_U+30A4_U+30E4_U+30FC 1
 62
     7
420
 16777215
370
     9
100
AcDbVertex
100
AcDb2dVertex
 10
111.5714727091301
 20
-130.1371116341321
 30
0.0
  0
SEQEND
  5
25E
330
25B
100
AcDbEntity
  8
_U+30EC_U+30A4_U+30E4_U+30FC 1
 62
     7
420
 16777215
370
     9
  0
POLYLINE
  5
25F
330
253
100
AcDbEntity
  8
_U+30EC_U+30A4_U+30E4_U+30FC 1
 62
     7
420
 16777215
370
     9
100
AcDb2dPolyline
 66
     1
 10
0.0
 20
0.0
 30
0.0
  0
VERTEX
  5
260
330
25F
100
AcDbEntity
  8
_U+30EC_U+30A4_U+30E4_U+30FC 1
 62
     7
420
 16777215
370
     9
100
AcDbVertex
100
AcDb2dVertex
 10
108.9938694171962
 20
-126.9801738571439
 30
0.0
  0
VERTEX
  5
261
330
25F
100
AcDbEntity
  8
_U+30EC_U+30A4_U+30E4_U+30FC 1
 62
     7
420
 16777215
370
     9
100
AcDbVertex
100
AcDb2dVertex
 10
109.4041824866446
 20
-127.8922808013603
 30
0.0
  0
SEQEND
  5
262
330
25F
100
AcDbEntity
  8
_U+30EC_U+30A4_U+30E4_U+30FC 1
 62
     7
420
 16777215
370
     9
  0
ENDBLK
  5
256
330
253
100
AcDbEntity
  8
0
100
AcDbBlockEnd
  0
BLOCK
  5
265
330
263
100
AcDbEntity
  8
0
100
AcDbBlockBegin
  2
block 12
 70
     0
 10
0.0
 20
0.0
 30
0.0
  3
block 12
  1

  0
SPLINE
  5
267
330
263
100
AcDbEntity
  8
_U+30EC_U+30A4_U+30E4_U+30FC 1
370
     0
100
AcDbSpline
210
0.0
220
0.0
230
1.0
 70
    11
 71
     3
 72
   242
 73
   238
 74
     0
 42
0.0000000001
 43
0.0000000001
 12
1.0
 22
0.0
 32
0.0
 13
1.0
 23
0.0
 33
0.0
 40
0.0
 40
0.0
 40
0.0
 40
0.0
 40
1.0
 40
1.0
 40
1.0
 40
2.0
 40
2.0
 40
2.0
 40
3.0
 40
3.0
 40
3.0
 40
4.0
 40
4.0
 40
4.0
 40
5.0
 40
5.0
 40
5.0
 40
6.0
 40
6.0
 40
6.0
 40
7.0
 40
7.0
 40
7.0
 40
8.0
 40
8.0
 40
8.0
 40
9.0
 40
9.0
 40
9.0
 40
10.0
 40
10.0
 40
10.0
 40
11.0
 40
11.0
 40
11.0
 40
12.0
 40
12.0
 40
12.0
 40
13.0
 40
13.0
 40
13.0
 40
14.0
 40
14.0
 40
14.0
 40
15.0
 40
15.0
 40
15.0
 40
16.0
 40
16.0
 40
16.0
 40
17.0
 40
17.0
 40
17.0
 40
18.0
 40
18.0
 40
18.0
 40
19.0
 40
19.0
 40
19.0
 40
20.0
 40
20.0
 40
20.0
 40
21.0
 40
21.0
 40
21.0
 40
22.0
 40
22.0
 40
22.0
 40
23.0
 40
23.0
 40
23.0
 40
24.0
 40
24.0
 40
24.0
 40
25.0
 40
25.0
 40
25.0
 40
26.0
 40
26.0
 40
26.0
 40
27.0
 40
27.0
 40
27.0
 40
28.0
 40
28.0
 40
28.0
 40
29.0
 40
29.0
 40
29.0
 40
30.0
 40
30.0
 40
30.0
 40
31.0
 40
31.0
 40
31.0
 40
32.0
 40
32.0
 40
32.0
 40
33.0
 40
33.0
 40
33.0
 40
34.0
 40
34.0
 40
34.0
 40
35.0
 40
35.0
 40
35.0
 40
36.0
 40
36.0
 40
36.0
 40
37.0
 40
37.0
 40
37.0
 40
38.0
 40
38.0
 40
38.0
 40
39.0
 40
39.0
 40
39.0
 40
40.0
 40
40.0
 40
40.0
 40
41.0
 40
41.0
 40
41.0
 40
42.0
 40
42.0
 40
42.0
 40
43.0
 40
43.0
 40
43.0
 40
44.0
 40
44.0
 40
44.0
 40
45.0
 40
45.0
 40
45.0
 40
46.0
 40
46.0
 40
46.0
 40
47.0
 40
47.0
 40
47.0
 40
48.0
 40
48.0
 40
48.0
 40
49.0
 40
49.0
 40
49.0
 40
50.0
 40
50.0
 40
50.0
 40
51.0
 40
51.0
 40
51.0
 40
52.0
 40
52.0
 40
52.0
 40
53.0
 40
53.0
 40
53.0
 40
54.0
 40
54.0
 40
54.0
 40
55.0
 40
55.0
 40
55.0
 40
56.0
 40
56.0
 40
56.0
 40
57.0
 40
57.0
 40
57.0
 40
58.0
 40
58.0
 40
58.0
 40
59.0
 40
59.0
 40
59.0
 40
60.0
 40
60.0
 40
60.0
 40
61.0
 40
61.0
 40
61.0
 40
62.0
 40
62.0
 40
62.0
 40
63.0
 40
63.0
 40
63.0
 40
64.0
 40
64.0
 40
64.0
 40
65.0
 40
65.0
 40
65.0
 40
66.0
 40
66.0
 40
66.0
 40
67.0
 40
67.0
 40
67.0
 40
68.0
 40
68.0
 40
68.0
 40
69.0
 40
69.0
 40
69.0
 40
70.0
 40
70.0
 40
70.0
 40
71.0
 40
71.0
 40
71.0
 40
72.0
 40
72.0
 40
72.0
 40
73.0
 40
73.0
 40
73.0
 40
74.0
 40
74.0
 40
74.0
 40
75.0
 40
75.0
 40
75.0
 40
76.0
 40
76.0
 40
76.0
 40
77.0
 40
77.0
 40
77.0
 40
78.0
 40
78.0
 40
78.0
 40
79.0
 40
79.0
 40
79.0
 40
79.0
 10
113.8028726929034
 20
-130.19980465495
 30
0.0
 10
113.8028726929034
 20
-130.19980465495
 30
0.0
 10
113.5489691556405
 20
-130.19980465495
 30
0.0
 10
113.5489691556405
 20
-130.19980465495
 30
0.0
 10
113.5489691556405
 20
-130.19980465495
 30
0.0
 10
113.2716389690779
 20
-130.19980465495
 30
0.0
 10
113.2716389690779
 20
-130.19980465495
 30
0.0
 10
113.2716389690779
 20
-130.19980465495
 30
0.0
 10
113.3987629924837
 20
-130.2421793294186
 30
0.0
 10
113.3987629924837
 20
-130.2421793294186
 30
0.0
 10
113.4094427884879
 20
-130.2463134440009
 30
0.0
 10
113.4218451322348
 20
-130.2525146158744
 30
0.0
 10
113.4218451322348
 20
-130.2652614691698
 30
0.0
 10
113.4218451322348
 20
-130.2866210611784
 30
0.0
 10
113.3901502537705
 20
-130.2928222330518
 30
0.0
 10
113.3691351713105
 20
-130.2969563476341
 30
0.0
 10
113.3584553753062
 20
-130.3203829969338
 30
0.0
 10
113.3288275541331
 20
-130.3858398111535
 30
0.0
 10
113.3098795289642
 20
-130.4302815429133
 30
0.0
 10
113.3098795289642
 20
-130.4302815429133
 30
0.0
 10
113.5806640341048
 20
-130.4302815429133
 30
0.0
 10
113.5806640341048
 20
-130.4302815429133
 30
0.0
 10
113.6716145549154
 20
-130.4302815429133
 30
0.0
 10
113.8683295071232
 20
-130.426147428331
 30
0.0
 10
114.009922931567
 20
-130.4175346896178
 30
0.0
 10
114.009922931567
 20
-130.4175346896178
 30
0.0
 10
114.009922931567
 20
-130.5953016166567
 30
0.0
 10
114.009922931567
 20
-130.5953016166567
 30
0.0
 10
113.9275851494695
 20
-130.5911675020744
 30
0.0
 10
113.9065700670095
 20
-130.5911675020744
 30
0.0
 10
113.7267360826794
 20
-130.5870333874921
 30
0.0
 10
113.6950412042151
 20
-130.7413736652313
 30
0.0
 10
113.6505994724554
 20
-130.8216443900376
 30
0.0
 10
113.6061577406957
 20
-130.8915798283882
 30
0.0
 10
113.7267360826794
 20
-130.9508354707345
 30
0.0
 10
113.8325005140766
 20
-131.0183593422454
 30
0.0
 10
113.9361978881826
 20
-131.1010416338914
 30
0.0
 10
113.9361978881826
 20
-131.1010416338914
 30
0.0
 10
113.81768660349
 20
-131.268128764926
 30
0.0
 10
113.81768660349
 20
-131.268128764926
 30
0.0
 10
113.7942599541903
 20
-131.2491807397572
 30
0.0
 10
113.7815131008949
 20
-131.240568001044
 30
0.0
 10
113.6695474976243
 20
-131.1558186521069
 30
0.0
 10
113.6209716512823
 20
-131.1179226017691
 30
0.0
 10
113.561716008936
 20
-131.081749099174
 30
0.0
 10
113.4811007745811
 20
-131.0373073674143
 30
0.0
 10
113.2695719117868
 20
-131.2236870331663
 30
0.0
 10
113.0645887304144
 20
-131.2467691729175
 30
0.0
 10
112.7745116905564
 20
-131.2763969940906
 30
0.0
 10
112.7745116905564
 20
-131.2763969940906
 30
0.0
 10
112.6708143164504
 20
-131.0965630097606
 30
0.0
 10
112.6708143164504
 20
-131.0965630097606
 30
0.0
 10
112.9884521201904
 20
-131.0924288951783
 30
0.0
 10
113.1638074803896
 20
-131.0669351885875
 30
0.0
 10
113.3160807008376
 20
-130.957036642608
 30
0.0
 10
113.1975694161451
 20
-130.9063937389748
 30
0.0
 10
113.1090304621741
 20
-130.8788329750928
 30
0.0
 10
113.072856959579
 20
-130.8660861217974
 30
0.0
 10
113.0539089344101
 20
-130.8936468856794
 30
0.0
 10
113.0390950238236
 20
-130.9125949108482
 30
0.0
 10
113.0115342599416
 20
-130.9463568466037
 30
0.0
 10
113.0115342599416
 20
-130.9463568466037
 30
0.0
 10
112.8148193077338
 20
-130.8640190645062
 30
0.0
 10
112.8148193077338
 20
-130.8640190645062
 30
0.0
 10
112.8971570898313
 20
-130.7837483396999
 30
0.0
 10
112.9588242990172
 20
-130.6883191947585
 30
0.0
 10
113.0156683745239
 20
-130.5870333874921
 30
0.0
 10
112.8254991037381
 20
-130.5911675020744
 30
0.0
 10
112.8041395117295
 20
-130.5911675020744
 30
0.0
 10
112.721801729632
 20
-130.5953016166567
 30
0.0
 10
112.721801729632
 20
-130.5953016166567
 30
0.0
 10
112.721801729632
 20
-130.4175346896178
 30
0.0
 10
112.721801729632
 20
-130.4175346896178
 30
0.0
 10
112.8613280967847
 20
-130.4240803710398
 30
0.0
 10
113.0707899022879
 20
-130.4282144856221
 30
0.0
 10
113.0962836088787
 20
-130.4282144856221
 30
0.0
 10
113.1131645767564
 20
-130.3944525498667
 30
0.0
 10
113.1679415949719
 20
-130.2738742078829
 30
0.0
 10
113.1872341296893
 20
-130.19980465495
 30
0.0
 10
113.1679415949719
 20
-130.19980465495
 30
0.0
 10
112.9905191774815
 20
-130.2060058268235
 30
0.0
 10
112.7958712825649
 20
-130.2187526801189
 30
0.0
 10
112.7958712825649
 20
-130.2187526801189
 30
0.0
 10
112.7958712825649
 20
-130.3520778753981
 30
0.0
 10
112.7958712825649
 20
-130.3520778753981
 30
0.0
 10
112.7472954362229
 20
-130.3775715819889
 30
0.0
 10
112.6880397938766
 20
-130.4092664604532
 30
0.0
 10
112.5547145985974
 20
-130.474723274673
 30
0.0
 10
112.5547145985974
 20
-130.474723274673
 30
0.0
 10
112.5547145985974
 20
-130.6207953232476
 30
0.0
 10
112.5547145985974
 20
-130.6207953232476
 30
0.0
 10
112.5547145985974
 20
-130.6207953232476
 30
0.0
 10
112.5547145985974
 20
-131.088294780596
 30
0.0
 10
112.5547145985974
 20
-131.088294780596
 30
0.0
 10
112.5547145985974
 20
-131.2150742944532
 30
0.0
 10
112.5185410960023
 20
-131.2743299367995
 30
0.0
 10
112.2350097375663
 20
-131.2660617076349
 30
0.0
 10
112.2350097375663
 20
-131.2660617076349
 30
0.0
 10
112.1316568730088
 20
-131.0586669594229
 30
0.0
 10
112.1316568730088
 20
-131.0586669594229
 30
0.0
 10
112.1950466299374
 20
-131.0714138127183
 30
0.0
 10
112.2436224762794
 20
-131.0755479273006
 30
0.0
 10
112.2839300934568
 20
-131.0755479273006
 30
0.0
 10
112.3600667036808
 20
-131.0755479273006
 30
0.0
 10
112.3704019901366
 20
-131.0521212780009
 30
0.0
 10
112.3704019901366
 20
-130.9866644637811
 30
0.0
 10
112.3704019901366
 20
-130.9866644637811
 30
0.0
 10
112.3704019901366
 20
-130.557405566319
 30
0.0
 10
112.3704019901366
 20
-130.557405566319
 30
0.0
 10
112.2732502974525
 20
-130.5973686739479
 30
0.0
 10
112.2563693295748
 20
-130.6039143553699
 30
0.0
 10
112.2098605405239
 20
-130.6228623805387
 30
0.0
 10
112.2057264259416
 20
-130.6438774629987
 30
0.0
 10
112.2012478018108
 20
-130.6735052841719
 30
0.0
 10
112.1822997766419
 20
-130.6735052841719
 30
0.0
 10
112.1736870379288
 20
-130.6735052841719
 30
0.0
 10
112.1633517514731
 20
-130.6693711695896
 30
0.0
 10
112.1568060700511
 20
-130.6459445202899
 30
0.0
 10
112.1568060700511
 20
-130.6459445202899
 30
0.0
 10
112.1040961091268
 20
-130.453708192213
 30
0.0
 10
112.1040961091268
 20
-130.453708192213
 30
0.0
 10
112.2498236481528
 20
-130.4071994031621
 30
0.0
 10
112.3156249719211
 20
-130.3837727538624
 30
0.0
 10
112.3704019901366
 20
-130.3627576714024
 30
0.0
 10
112.3704019901366
 20
-130.3627576714024
 30
0.0
 10
112.3704019901366
 20
-129.9500352322694
 30
0.0
 10
112.3704019901366
 20
-129.9500352322694
 30
0.0
 10
112.3704019901366
 20
-129.9500352322694
 30
0.0
 10
112.3176920292123
 20
-129.9500352322694
 30
0.0
 10
112.3176920292123
 20
-129.9500352322694
 30
0.0
 10
112.3176920292123
 20
-129.9500352322694
 30
0.0
 10
112.2394883616971
 20
-129.9500352322694
 30
0.0
 10
112.2394883616971
 20
-129.9500352322694
 30
0.0
 10
112.1716199806377
 20
-129.9500352322694
 30
0.0
 10
112.1633517514731
 20
-129.9500352322694
 30
0.0
 10
112.1271782488779
 20
-129.9565809136914
 30
0.0
 10
112.1271782488779
 20
-129.9565809136914
 30
0.0
 10
112.1271782488779
 20
-129.7619330187748
 30
0.0
 10
112.1271782488779
 20
-129.7619330187748
 30
0.0
 10
112.1547390127599
 20
-129.7681341906483
 30
0.0
 10
112.1633517514731
 20
-129.7681341906483
 30
0.0
 10
112.2329426802751
 20
-129.7681341906483
 30
0.0
 10
112.2329426802751
 20
-129.7681341906483
 30
0.0
 10
112.3662678755543
 20
-129.7681341906483
 30
0.0
 10
112.3662678755543
 20
-129.7681341906483
 30
0.0
 10
112.3662678755543
 20
-129.6981987522977
 30
0.0
 10
112.3662678755543
 20
-129.6158609702002
 30
0.0
 10
112.3642008182631
 20
-129.6117268556179
 30
0.0
 10
112.35558807955
 20
-129.4318928712879
 30
0.0
 10
112.35558807955
 20
-129.4126003365705
 30
0.0
 10
112.3535210222588
 20
-129.3660915475196
 30
0.0
 10
112.3535210222588
 20
-129.3660915475196
 30
0.0
 10
112.569528509184
 20
-129.3747042862327
 30
0.0
 10
112.569528509184
 20
-129.3747042862327
 30
0.0
 10
112.5798637956398
 20
-129.3747042862327
 30
0.0
 10
112.6012233876483
 20
-129.3767713435239
 30
0.0
 10
112.6012233876483
 20
-129.3936523114016
 30
0.0
 10
112.6012233876483
 20
-129.4126003365705
 30
0.0
 10
112.5864094770617
 20
-129.4232801325747
 30
0.0
 10
112.5609157704709
 20
-129.4422281577436
 30
0.0
 10
112.5609157704709
 20
-129.4932155709253
 30
0.0
 10
112.5547145985974
 20
-129.7216254015974
 30
0.0
 10
112.5567816558886
 20
-129.7681341906483
 30
0.0
 10
112.6856282270369
 20
-129.7681341906483
 30
0.0
 10
112.6983750803324
 20
-129.7681341906483
 30
0.0
 10
112.7958712825649
 20
-129.7598659614837
 30
0.0
 10
112.7958712825649
 20
-129.7598659614837
 30
0.0
 10
112.7958712825649
 20
-129.9541693468517
 30
0.0
 10
112.7958712825649
 20
-129.9541693468517
 30
0.0
 10
112.7576307226787
 20
-129.9521022895606
 30
0.0
 10
112.6901068511678
 20
-129.9479681749783
 30
0.0
 10
112.5547145985974
 20
-129.9500352322694
 30
0.0
 10
112.5547145985974
 20
-129.9500352322694
 30
0.0
 10
112.5547145985974
 20
-130.2886881184695
 30
0.0
 10
112.5547145985974
 20
-130.2886881184695
 30
0.0
 10
112.6094916168129
 20
-130.2652614691698
 30
0.0
 10
112.6752929405812
 20
-130.2377007052878
 30
0.0
 10
112.7238687869232
 20
-130.2146185655366
 30
0.0
 10
112.7238687869232
 20
-130.2146185655366
 30
0.0
 10
112.7238687869232
 20
-130.0368516384978
 30
0.0
 10
112.7238687869232
 20
-130.0368516384978
 30
0.0
 10
112.8382459570335
 20
-130.0495984917931
 30
0.0
 10
112.9564127321776
 20
-130.0495984917931
 30
0.0
 10
113.072856959579
 20
-130.0495984917931
 30
0.0
 10
113.0497748198278
 20
-129.9541693468517
 30
0.0
 10
113.0222140559458
 20
-129.8718315647543
 30
0.0
 10
112.9588242990172
 20
-129.7385063694751
 30
0.0
 10
112.9143825672575
 20
-129.7405734267662
 30
0.0
 10
112.8317002756115
 20
-129.7450520508971
 30
0.0
 10
112.7938042252738
 20
-129.7471191081882
 30
0.0
 10
112.7938042252738
 20
-129.7471191081882
 30
0.0
 10
112.7938042252738
 20
-129.5672851238582
 30
0.0
 10
112.7938042252738
 20
-129.5672851238582
 30
0.0
 10
112.9185166818398
 20
-129.5755533530228
 30
0.0
 10
113.0918049847479
 20
-129.5800319771536
 30
0.0
 10
113.1744872763939
 20
-129.5800319771536
 30
0.0
 10
113.1744872763939
 20
-129.5800319771536
 30
0.0
 10
113.2568250584914
 20
-129.5800319771536
 30
0.0
 10
113.2568250584914
 20
-129.5800319771536
 30
0.0
 10
113.2568250584914
 20
-129.4170789607013
 30
0.0
 10
113.2568250584914
 20
-129.406399164697
 30
0.0
 10
113.2547580012002
 20
-129.351277636933
 30
0.0
 10
113.2547580012002
 20
-129.351277636933
 30
0.0
 10
113.47903371729
 20
-129.3767713435239
 30
0.0
 10
113.47903371729
 20
-129.3767713435239
 30
0.0
 10
113.4831678318723
 20
-129.3767713435239
 30
0.0
 10
113.5045274238808
 20
-129.378838400815
 30
0.0
 10
113.5045274238808
 20
-129.3957193686927
 30
0.0
 10
113.5045274238808
 20
-129.4105332792793
 30
0.0
 10
113.4938476278765
 20
-129.4191460179924
 30
0.0
 10
113.4662868639945
 20
-129.433959928579
 30
0.0
 10
113.4600856921211
 20
-129.4994167427988
 30
0.0
 10
113.4580186348299
 20
-129.5207763348073
 30
0.0
 10
113.4580186348299
 20
-129.5800319771536
 30
0.0
 10
113.4580186348299
 20
-129.5800319771536
 30
0.0
 10
113.5531032702228
 20
-129.5800319771536
 30
0.0
 10
113.5531032702228
 20
-129.5800319771536
 30
0.0
 10
113.6357855618688
 20
-129.5800319771536
 30
0.0
 10
113.8090738647769
 20
-129.5755533530228
 30
0.0
 10
113.933786321343
 20
-129.5672851238582
 30
0.0
 10
113.933786321343
 20
-129.5672851238582
 30
0.0
 10
113.933786321343
 20
-129.7471191081882
 30
0.0
 10
113.933786321343
 20
-129.7471191081882
 30
0.0
 10
113.9041585001698
 20
-129.7450520508971
 30
0.0
 10
113.7859917250257
 20
-129.7405734267662
 30
0.0
 10
113.7456841078483
 20
-129.7385063694751
 30
0.0
 10
113.7308701972617
 20
-129.7891492731083
 30
0.0
 10
113.6971082615063
 20
-129.9014593859274
 30
0.0
 10
113.631306937738
 20
-130.04098575308
 30
0.0
 10
113.6736816122066
 20
-130.04098575308
 30
0.0
 10
113.9510117987692
 20
-130.0220377279112
 30
0.0
 10
114.0123344984066
 20
-130.01997067062
 30
0.0
 10
114.0123344984066
 20
-130.01997067062
 30
0.0
 10
114.0123344984066
 20
-130.2039387695324
 30
0.0
 10
114.0123344984066
 20
-130.2039387695324
 30
0.0
 10
113.9827066772335
 20
-130.2039387695324
 30
0.0
 10
113.9658257093558
 20
-130.19980465495
 30
0.0
 10
113.8028726929034
 20
-130.19980465495
 30
0.0
  0
SPLINE
  5
268
330
263
100
AcDbEntity
  8
_U+30EC_U+30A4_U+30E4_U+30FC 1
370
     0
100
AcDbSpline
210
0.0
220
0.0
230
1.0
 70
    11
 71
     3
 72
    20
 73
    16
 74
     0
 42
0.0000000001
 43
0.0000000001
 12
1.0
 22
0.0
 32
0.0
 13
1.0
 23
0.0
 33
0.0
 40
0.0
 40
0.0
 40
0.0
 40
0.0
 40
1.0
 40
1.0
 40
1.0
 40
2.0
 40
2.0
 40
2.0
 40
3.0
 40
3.0
 40
3.0
 40
4.0
 40
4.0
 40
4.0
 40
5.0
 40
5.0
 40
5.0
 40
5.0
 10
113.1744872763939
 20
-129.7343722548928
 30
0.0
 10
113.1744872763939
 20
-129.7343722548928
 30
0.0
 10
113.1427923979296
 20
-129.7343722548928
 30
0.0
 10
113.1427923979296
 20
-129.7343722548928
 30
0.0
 10
113.1893011869805
 20
-129.833591004868
 30
0.0
 10
113.2209960654448
 20
-129.9142062392228
 30
0.0
 10
113.2547580012002
 20
-130.04098575308
 30
0.0
 10
113.2547580012002
 20
-130.04098575308
 30
0.0
 10
113.4621527494122
 20
-130.04098575308
 30
0.0
 10
113.4621527494122
 20
-130.04098575308
 30
0.0
 10
113.4938476278765
 20
-129.9479681749783
 30
0.0
 10
113.5172742771762
 20
-129.8632188260411
 30
0.0
 10
113.5403564169274
 20
-129.7343722548928
 30
0.0
 10
113.5403564169274
 20
-129.7343722548928
 30
0.0
 10
113.1744872763939
 20
-129.7343722548928
 30
0.0
 10
113.1744872763939
 20
-129.7343722548928
 30
0.0
  0
SPLINE
  5
269
330
263
100
AcDbEntity
  8
_U+30EC_U+30A4_U+30E4_U+30FC 1
370
     0
100
AcDbSpline
210
0.0
220
0.0
230
1.0
 70
    11
 71
     3
 72
    17
 73
    13
 74
     0
 42
0.0000000001
 43
0.0000000001
 12
1.0
 22
0.0
 32
0.0
 13
1.0
 23
0.0
 33
0.0
 40
0.0
 40
0.0
 40
0.0
 40
0.0
 40
1.0
 40
1.0
 40
1.0
 40
2.0
 40
2.0
 40
2.0
 40
3.0
 40
3.0
 40
3.0
 40
4.0
 40
4.0
 40
4.0
 40
4.0
 10
113.2378770333225
 20
-130.5846218206525
 30
0.0
 10
113.2209960654448
 20
-130.6142496418256
 30
0.0
 10
113.1703531618116
 20
-130.7076117294759
 30
0.0
 10
113.1596733658073
 20
-130.7265597546448
 30
0.0
 10
113.3501871461416
 20
-130.785815396991
 30
0.0
 10
113.3712022286016
 20
-130.7920165688645
 30
0.0
 10
113.4432047242434
 20
-130.8195773327465
 30
0.0
 10
113.4979817424588
 20
-130.7327609265182
 30
0.0
 10
113.5214083917585
 20
-130.6586913735853
 30
0.0
 10
113.5362223023451
 20
-130.5846218206525
 30
0.0
 10
113.5362223023451
 20
-130.5846218206525
 30
0.0
 10
113.2378770333225
 20
-130.5846218206525
 30
0.0
 10
113.2378770333225
 20
-130.5846218206525
 30
0.0
  0
HATCH
  5
26A
330
263
100
AcDbEntity
  8
_U+30EC_U+30A4_U+30E4_U+30FC 1
 62
     7
420
 16777215
100
AcDbHatch
 10
0.0
 20
0.0
 30
0.0
210
0.0
220
0.0
230
1.0
  2
SOLID
 70
     1
 71
     0
 91
        3
 92
        1
 93
        1
 72
     4
 94
        3
 73
     0
 74
     1
 95
      242
 96
      238
 40
0.0
 40
0.0
 40
0.0
 40
0.0
 40
1.0
 40
1.0
 40
1.0
 40
2.0
 40
2.0
 40
2.0
 40
3.0
 40
3.0
 40
3.0
 40
4.0
 40
4.0
 40
4.0
 40
5.0
 40
5.0
 40
5.0
 40
6.0
 40
6.0
 40
6.0
 40
7.0
 40
7.0
 40
7.0
 40
8.0
 40
8.0
 40
8.0
 40
9.0
 40
9.0
 40
9.0
 40
10.0
 40
10.0
 40
10.0
 40
11.0
 40
11.0
 40
11.0
 40
12.0
 40
12.0
 40
12.0
 40
13.0
 40
13.0
 40
13.0
 40
14.0
 40
14.0
 40
14.0
 40
15.0
 40
15.0
 40
15.0
 40
16.0
 40
16.0
 40
16.0
 40
17.0
 40
17.0
 40
17.0
 40
18.0
 40
18.0
 40
18.0
 40
19.0
 40
19.0
 40
19.0
 40
20.0
 40
20.0
 40
20.0
 40
21.0
 40
21.0
 40
21.0
 40
22.0
 40
22.0
 40
22.0
 40
23.0
 40
23.0
 40
23.0
 40
24.0
 40
24.0
 40
24.0
 40
25.0
 40
25.0
 40
25.0
 40
26.0
 40
26.0
 40
26.0
 40
27.0
 40
27.0
 40
27.0
 40
28.0
 40
28.0
 40
28.0
 40
29.0
 40
29.0
 40
29.0
 40
30.0
 40
30.0
 40
30.0
 40
31.0
 40
31.0
 40
31.0
 40
32.0
 40
32.0
 40
32.0
 40
33.0
 40
33.0
 40
33.0
 40
34.0
 40
34.0
 40
34.0
 40
35.0
 40
35.0
 40
35.0
 40
36.0
 40
36.0
 40
36.0
 40
37.0
 40
37.0
 40
37.0
 40
38.0
 40
38.0
 40
38.0
 40
39.0
 40
39.0
 40
39.0
 40
40.0
 40
40.0
 40
40.0
 40
41.0
 40
41.0
 40
41.0
 40
42.0
 40
42.0
 40
42.0
 40
43.0
 40
43.0
 40
43.0
 40
44.0
 40
44.0
 40
44.0
 40
45.0
 40
45.0
 40
45.0
 40
46.0
 40
46.0
 40
46.0
 40
47.0
 40
47.0
 40
47.0
 40
48.0
 40
48.0
 40
48.0
 40
49.0
 40
49.0
 40
49.0
 40
50.0
 40
50.0
 40
50.0
 40
51.0
 40
51.0
 40
51.0
 40
52.0
 40
52.0
 40
52.0
 40
53.0
 40
53.0
 40
53.0
 40
54.0
 40
54.0
 40
54.0
 40
55.0
 40
55.0
 40
55.0
 40
56.0
 40
56.0
 40
56.0
 40
57.0
 40
57.0
 40
57.0
 40
58.0
 40
58.0
 40
58.0
 40
59.0
 40
59.0
 40
59.0
 40
60.0
 40
60.0
 40
60.0
 40
61.0
 40
61.0
 40
61.0
 40
62.0
 40
62.0
 40
62.0
 40
63.0
 40
63.0
 40
63.0
 40
64.0
 40
64.0
 40
64.0
 40
65.0
 40
65.0
 40
65.0
 40
66.0
 40
66.0
 40
66.0
 40
67.0
 40
67.0
 40
67.0
 40
68.0
 40
68.0
 40
68.0
 40
69.0
 40
69.0
 40
69.0
 40
70.0
 40
70.0
 40
70.0
 40
71.0
 40
71.0
 40
71.0
 40
72.0
 40
72.0
 40
72.0
 40
73.0
 40
73.0
 40
73.0
 40
74.0
 40
74.0
 40
74.0
 40
75.0
 40
75.0
 40
75.0
 40
76.0
 40
76.0
 40
76.0
 40
77.0
 40
77.0
 40
77.0
 40
78.0
 40
78.0
 40
78.0
 40
79.0
 40
79.0
 40
79.0
 40
79.0
 10
113.8028726929034
 20
-130.19980465495
 10
113.8028726929034
 20
-130.19980465495
 10
113.5489691556405
 20
-130.19980465495
 10
113.5489691556405
 20
-130.19980465495
 10
113.5489691556405
 20
-130.19980465495
 10
113.2716389690779
 20
-130.19980465495
 10
113.2716389690779
 20
-130.19980465495
 10
113.2716389690779
 20
-130.19980465495
 10
113.3987629924837
 20
-130.2421793294186
 10
113.3987629924837
 20
-130.2421793294186
 10
113.4094427884879
 20
-130.2463134440009
 10
113.4218451322348
 20
-130.2525146158744
 10
113.4218451322348
 20
-130.2652614691698
 10
113.4218451322348
 20
-130.2866210611784
 10
113.3901502537705
 20
-130.2928222330518
 10
113.3691351713105
 20
-130.2969563476341
 10
113.3584553753062
 20
-130.3203829969338
 10
113.3288275541331
 20
-130.3858398111535
 10
113.3098795289642
 20
-130.4302815429133
 10
113.3098795289642
 20
-130.4302815429133
 10
113.5806640341048
 20
-130.4302815429133
 10
113.5806640341048
 20
-130.4302815429133
 10
113.6716145549154
 20
-130.4302815429133
 10
113.8683295071232
 20
-130.426147428331
 10
114.009922931567
 20
-130.4175346896178
 10
114.009922931567
 20
-130.4175346896178
 10
114.009922931567
 20
-130.5953016166567
 10
114.009922931567
 20
-130.5953016166567
 10
113.9275851494695
 20
-130.5911675020744
 10
113.9065700670095
 20
-130.5911675020744
 10
113.7267360826794
 20
-130.5870333874921
 10
113.6950412042151
 20
-130.7413736652313
 10
113.6505994724554
 20
-130.8216443900376
 10
113.6061577406957
 20
-130.8915798283882
 10
113.7267360826794
 20
-130.9508354707345
 10
113.8325005140766
 20
-131.0183593422454
 10
113.9361978881826
 20
-131.1010416338914
 10
113.9361978881826
 20
-131.1010416338914
 10
113.81768660349
 20
-131.268128764926
 10
113.81768660349
 20
-131.268128764926
 10
113.7942599541903
 20
-131.2491807397572
 10
113.7815131008949
 20
-131.240568001044
 10
113.6695474976243
 20
-131.1558186521069
 10
113.6209716512823
 20
-131.1179226017691
 10
113.561716008936
 20
-131.081749099174
 10
113.4811007745811
 20
-131.0373073674143
 10
113.2695719117868
 20
-131.2236870331663
 10
113.0645887304144
 20
-131.2467691729175
 10
112.7745116905564
 20
-131.2763969940906
 10
112.7745116905564
 20
-131.2763969940906
 10
112.6708143164504
 20
-131.0965630097606
 10
112.6708143164504
 20
-131.0965630097606
 10
112.9884521201904
 20
-131.0924288951783
 10
113.1638074803896
 20
-131.0669351885875
 10
113.3160807008376
 20
-130.957036642608
 10
113.1975694161451
 20
-130.9063937389748
 10
113.1090304621741
 20
-130.8788329750928
 10
113.072856959579
 20
-130.8660861217974
 10
113.0539089344101
 20
-130.8936468856794
 10
113.0390950238236
 20
-130.9125949108482
 10
113.0115342599416
 20
-130.9463568466037
 10
113.0115342599416
 20
-130.9463568466037
 10
112.8148193077338
 20
-130.8640190645062
 10
112.8148193077338
 20
-130.8640190645062
 10
112.8971570898313
 20
-130.7837483396999
 10
112.9588242990172
 20
-130.6883191947585
 10
113.0156683745239
 20
-130.5870333874921
 10
112.8254991037381
 20
-130.5911675020744
 10
112.8041395117295
 20
-130.5911675020744
 10
112.721801729632
 20
-130.5953016166567
 10
112.721801729632
 20
-130.5953016166567
 10
112.721801729632
 20
-130.4175346896178
 10
112.721801729632
 20
-130.4175346896178
 10
112.8613280967847
 20
-130.4240803710398
 10
113.0707899022879
 20
-130.4282144856221
 10
113.0962836088787
 20
-130.4282144856221
 10
113.1131645767564
 20
-130.3944525498667
 10
113.1679415949719
 20
-130.2738742078829
 10
113.1872341296893
 20
-130.19980465495
 10
113.1679415949719
 20
-130.19980465495
 10
112.9905191774815
 20
-130.2060058268235
 10
112.7958712825649
 20
-130.2187526801189
 10
112.7958712825649
 20
-130.2187526801189
 10
112.7958712825649
 20
-130.3520778753981
 10
112.7958712825649
 20
-130.3520778753981
 10
112.7472954362229
 20
-130.3775715819889
 10
112.6880397938766
 20
-130.4092664604532
 10
112.5547145985974
 20
-130.474723274673
 10
112.5547145985974
 20
-130.474723274673
 10
112.5547145985974
 20
-130.6207953232476
 10
112.5547145985974
 20
-130.6207953232476
 10
112.5547145985974
 20
-130.6207953232476
 10
112.5547145985974
 20
-131.088294780596
 10
112.5547145985974
 20
-131.088294780596
 10
112.5547145985974
 20
-131.2150742944532
 10
112.5185410960023
 20
-131.2743299367995
 10
112.2350097375663
 20
-131.2660617076349
 10
112.2350097375663
 20
-131.2660617076349
 10
112.1316568730088
 20
-131.0586669594229
 10
112.1316568730088
 20
-131.0586669594229
 10
112.1950466299374
 20
-131.0714138127183
 10
112.2436224762794
 20
-131.0755479273006
 10
112.2839300934568
 20
-131.0755479273006
 10
112.3600667036808
 20
-131.0755479273006
 10
112.3704019901366
 20
-131.0521212780009
 10
112.3704019901366
 20
-130.9866644637811
 10
112.3704019901366
 20
-130.9866644637811
 10
112.3704019901366
 20
-130.557405566319
 10
112.3704019901366
 20
-130.557405566319
 10
112.2732502974525
 20
-130.5973686739479
 10
112.2563693295748
 20
-130.6039143553699
 10
112.2098605405239
 20
-130.6228623805387
 10
112.2057264259416
 20
-130.6438774629987
 10
112.2012478018108
 20
-130.6735052841719
 10
112.1822997766419
 20
-130.6735052841719
 10
112.1736870379288
 20
-130.6735052841719
 10
112.1633517514731
 20
-130.6693711695896
 10
112.1568060700511
 20
-130.6459445202899
 10
112.1568060700511
 20
-130.6459445202899
 10
112.1040961091268
 20
-130.453708192213
 10
112.1040961091268
 20
-130.453708192213
 10
112.2498236481528
 20
-130.4071994031621
 10
112.3156249719211
 20
-130.3837727538624
 10
112.3704019901366
 20
-130.3627576714024
 10
112.3704019901366
 20
-130.3627576714024
 10
112.3704019901366
 20
-129.9500352322694
 10
112.3704019901366
 20
-129.9500352322694
 10
112.3704019901366
 20
-129.9500352322694
 10
112.3176920292123
 20
-129.9500352322694
 10
112.3176920292123
 20
-129.9500352322694
 10
112.3176920292123
 20
-129.9500352322694
 10
112.2394883616971
 20
-129.9500352322694
 10
112.2394883616971
 20
-129.9500352322694
 10
112.1716199806377
 20
-129.9500352322694
 10
112.1633517514731
 20
-129.9500352322694
 10
112.1271782488779
 20
-129.9565809136914
 10
112.1271782488779
 20
-129.9565809136914
 10
112.1271782488779
 20
-129.7619330187748
 10
112.1271782488779
 20
-129.7619330187748
 10
112.1547390127599
 20
-129.7681341906483
 10
112.1633517514731
 20
-129.7681341906483
 10
112.2329426802751
 20
-129.7681341906483
 10
112.2329426802751
 20
-129.7681341906483
 10
112.3662678755543
 20
-129.7681341906483
 10
112.3662678755543
 20
-129.7681341906483
 10
112.3662678755543
 20
-129.6981987522977
 10
112.3662678755543
 20
-129.6158609702002
 10
112.3642008182631
 20
-129.6117268556179
 10
112.35558807955
 20
-129.4318928712879
 10
112.35558807955
 20
-129.4126003365705
 10
112.3535210222588
 20
-129.3660915475196
 10
112.3535210222588
 20
-129.3660915475196
 10
112.569528509184
 20
-129.3747042862327
 10
112.569528509184
 20
-129.3747042862327
 10
112.5798637956398
 20
-129.3747042862327
 10
112.6012233876483
 20
-129.3767713435239
 10
112.6012233876483
 20
-129.3936523114016
 10
112.6012233876483
 20
-129.4126003365705
 10
112.5864094770617
 20
-129.4232801325747
 10
112.5609157704709
 20
-129.4422281577436
 10
112.5609157704709
 20
-129.4932155709253
 10
112.5547145985974
 20
-129.7216254015974
 10
112.5567816558886
 20
-129.7681341906483
 10
112.6856282270369
 20
-129.7681341906483
 10
112.6983750803324
 20
-129.7681341906483
 10
112.7958712825649
 20
-129.7598659614837
 10
112.7958712825649
 20
-129.7598659614837
 10
112.7958712825649
 20
-129.9541693468517
 10
112.7958712825649
 20
-129.9541693468517
 10
112.7576307226787
 20
-129.9521022895606
 10
112.6901068511678
 20
-129.9479681749783
 10
112.5547145985974
 20
-129.9500352322694
 10
112.5547145985974
 20
-129.9500352322694
 10
112.5547145985974
 20
-130.2886881184695
 10
112.5547145985974
 20
-130.2886881184695
 10
112.6094916168129
 20
-130.2652614691698
 10
112.6752929405812
 20
-130.2377007052878
 10
112.7238687869232
 20
-130.2146185655366
 10
112.7238687869232
 20
-130.2146185655366
 10
112.7238687869232
 20
-130.0368516384978
 10
112.7238687869232
 20
-130.0368516384978
 10
112.8382459570335
 20
-130.0495984917931
 10
112.9564127321776
 20
-130.0495984917931
 10
113.072856959579
 20
-130.0495984917931
 10
113.0497748198278
 20
-129.9541693468517
 10
113.0222140559458
 20
-129.8718315647543
 10
112.9588242990172
 20
-129.7385063694751
 10
112.9143825672575
 20
-129.7405734267662
 10
112.8317002756115
 20
-129.7450520508971
 10
112.7938042252738
 20
-129.7471191081882
 10
112.7938042252738
 20
-129.7471191081882
 10
112.7938042252738
 20
-129.5672851238582
 10
112.7938042252738
 20
-129.5672851238582
 10
112.9185166818398
 20
-129.5755533530228
 10
113.0918049847479
 20
-129.5800319771536
 10
113.1744872763939
 20
-129.5800319771536
 10
113.1744872763939
 20
-129.5800319771536
 10
113.2568250584914
 20
-129.5800319771536
 10
113.2568250584914
 20
-129.5800319771536
 10
113.2568250584914
 20
-129.4170789607013
 10
113.2568250584914
 20
-129.406399164697
 10
113.2547580012002
 20
-129.351277636933
 10
113.2547580012002
 20
-129.351277636933
 10
113.47903371729
 20
-129.3767713435239
 10
113.47903371729
 20
-129.3767713435239
 10
113.4831678318723
 20
-129.3767713435239
 10
113.5045274238808
 20
-129.378838400815
 10
113.5045274238808
 20
-129.3957193686927
 10
113.5045274238808
 20
-129.4105332792793
 10
113.4938476278765
 20
-129.4191460179924
 10
113.4662868639945
 20
-129.433959928579
 10
113.4600856921211
 20
-129.4994167427988
 10
113.4580186348299
 20
-129.5207763348073
 10
113.4580186348299
 20
-129.5800319771536
 10
113.4580186348299
 20
-129.5800319771536
 10
113.5531032702228
 20
-129.5800319771536
 10
113.5531032702228
 20
-129.5800319771536
 10
113.6357855618688
 20
-129.5800319771536
 10
113.8090738647769
 20
-129.5755533530228
 10
113.933786321343
 20
-129.5672851238582
 10
113.933786321343
 20
-129.5672851238582
 10
113.933786321343
 20
-129.7471191081882
 10
113.933786321343
 20
-129.7471191081882
 10
113.9041585001698
 20
-129.7450520508971
 10
113.7859917250257
 20
-129.7405734267662
 10
113.7456841078483
 20
-129.7385063694751
 10
113.7308701972617
 20
-129.7891492731083
 10
113.6971082615063
 20
-129.9014593859274
 10
113.631306937738
 20
-130.04098575308
 10
113.6736816122066
 20
-130.04098575308
 10
113.9510117987692
 20
-130.0220377279112
 10
114.0123344984066
 20
-130.01997067062
 10
114.0123344984066
 20
-130.01997067062
 10
114.0123344984066
 20
-130.2039387695324
 10
114.0123344984066
 20
-130.2039387695324
 10
113.9827066772335
 20
-130.2039387695324
 10
113.9658257093558
 20
-130.19980465495
 10
113.8028726929034
 20
-130.19980465495
 97
        0
 97
        0
 92
        1
 93
        1
 72
     4
 94
        3
 73
     0
 74
     1
 95
       20
 96
       16
 40
0.0
 40
0.0
 40
0.0
 40
0.0
 40
1.0
 40
1.0
 40
1.0
 40
2.0
 40
2.0
 40
2.0
 40
3.0
 40
3.0
 40
3.0
 40
4.0
 40
4.0
 40
4.0
 40
5.0
 40
5.0
 40
5.0
 40
5.0
 10
113.1744872763939
 20
-129.7343722548928
 10
113.1744872763939
 20
-129.7343722548928
 10
113.1427923979296
 20
-129.7343722548928
 10
113.1427923979296
 20
-129.7343722548928
 10
113.1893011869805
 20
-129.833591004868
 10
113.2209960654448
 20
-129.9142062392228
 10
113.2547580012002
 20
-130.04098575308
 10
113.2547580012002
 20
-130.04098575308
 10
113.4621527494122
 20
-130.04098575308
 10
113.4621527494122
 20
-130.04098575308
 10
113.4938476278765
 20
-129.9479681749783
 10
113.5172742771762
 20
-129.8632188260411
 10
113.5403564169274
 20
-129.7343722548928
 10
113.5403564169274
 20
-129.7343722548928
 10
113.1744872763939
 20
-129.7343722548928
 10
113.1744872763939
 20
-129.7343722548928
 97
        0
 97
        0
 92
        1
 93
        1
 72
     4
 94
        3
 73
     0
 74
     1
 95
       17
 96
       13
 40
0.0
 40
0.0
 40
0.0
 40
0.0
 40
1.0
 40
1.0
 40
1.0
 40
2.0
 40
2.0
 40
2.0
 40
3.0
 40
3.0
 40
3.0
 40
4.0
 40
4.0
 40
4.0
 40
4.0
 10
113.2378770333225
 20
-130.5846218206525
 10
113.2209960654448
 20
-130.6142496418256
 10
113.1703531618116
 20
-130.7076117294759
 10
113.1596733658073
 20
-130.7265597546448
 10
113.3501871461416
 20
-130.785815396991
 10
113.3712022286016
 20
-130.7920165688645
 10
113.4432047242434
 20
-130.8195773327465
 10
113.4979817424588
 20
-130.7327609265182
 10
113.5214083917585
 20
-130.6586913735853
 10
113.5362223023451
 20
-130.5846218206525
 10
113.5362223023451
 20
-130.5846218206525
 10
113.2378770333225
 20
-130.5846218206525
 10
113.2378770333225
 20
-130.5846218206525
 97
        0
 97
        0
 75
     2
 76
     1
 98
        0
  0
SPLINE
  5
26B
330
263
100
AcDbEntity
  8
_U+30EC_U+30A4_U+30E4_U+30FC 1
370
     0
100
AcDbSpline
210
0.0
220
0.0
230
1.0
 70
    11
 71
     3
 72
   203
 73
   199
 74
     0
 42
0.0000000001
 43
0.0000000001
 12
1.0
 22
0.0
 32
0.0
 13
1.0
 23
0.0
 33
0.0
 40
0.0
 40
0.0
 40
0.0
 40
0.0
 40
1.0
 40
1.0
 40
1.0
 40
2.0
 40
2.0
 40
2.0
 40
3.0
 40
3.0
 40
3.0
 40
4.0
 40
4.0
 40
4.0
 40
5.0
 40
5.0
 40
5.0
 40
6.0
 40
6.0
 40
6.0
 40
7.0
 40
7.0
 40
7.0
 40
8.0
 40
8.0
 40
8.0
 40
9.0
 40
9.0
 40
9.0
 40
10.0
 40
10.0
 40
10.0
 40
11.0
 40
11.0
 40
11.0
 40
12.0
 40
12.0
 40
12.0
 40
13.0
 40
13.0
 40
13.0
 40
14.0
 40
14.0
 40
14.0
 40
15.0
 40
15.0
 40
15.0
 40
16.0
 40
16.0
 40
16.0
 40
17.0
 40
17.0
 40
17.0
 40
18.0
 40
18.0
 40
18.0
 40
19.0
 40
19.0
 40
19.0
 40
20.0
 40
20.0
 40
20.0
 40
21.0
 40
21.0
 40
21.0
 40
22.0
 40
22.0
 40
22.0
 40
23.0
 40
23.0
 40
23.0
 40
24.0
 40
24.0
 40
24.0
 40
25.0
 40
25.0
 40
25.0
 40
26.0
 40
26.0
 40
26.0
 40
27.0
 40
27.0
 40
27.0
 40
28.0
 40
28.0
 40
28.0
 40
29.0
 40
29.0
 40
29.0
 40
30.0
 40
30.0
 40
30.0
 40
31.0
 40
31.0
 40
31.0
 40
32.0
 40
32.0
 40
32.0
 40
33.0
 40
33.0
 40
33.0
 40
34.0
 40
34.0
 40
34.0
 40
35.0
 40
35.0
 40
35.0
 40
36.0
 40
36.0
 40
36.0
 40
37.0
 40
37.0
 40
37.0
 40
38.0
 40
38.0
 40
38.0
 40
39.0
 40
39.0
 40
39.0
 40
40.0
 40
40.0
 40
40.0
 40
41.0
 40
41.0
 40
41.0
 40
42.0
 40
42.0
 40
42.0
 40
43.0
 40
43.0
 40
43.0
 40
44.0
 40
44.0
 40
44.0
 40
45.0
 40
45.0
 40
45.0
 40
46.0
 40
46.0
 40
46.0
 40
47.0
 40
47.0
 40
47.0
 40
48.0
 40
48.0
 40
48.0
 40
49.0
 40
49.0
 40
49.0
 40
50.0
 40
50.0
 40
50.0
 40
51.0
 40
51.0
 40
51.0
 40
52.0
 40
52.0
 40
52.0
 40
53.0
 40
53.0
 40
53.0
 40
54.0
 40
54.0
 40
54.0
 40
55.0
 40
55.0
 40
55.0
 40
56.0
 40
56.0
 40
56.0
 40
57.0
 40
57.0
 40
57.0
 40
58.0
 40
58.0
 40
58.0
 40
59.0
 40
59.0
 40
59.0
 40
60.0
 40
60.0
 40
60.0
 40
61.0
 40
61.0
 40
61.0
 40
62.0
 40
62.0
 40
62.0
 40
63.0
 40
63.0
 40
63.0
 40
64.0
 40
64.0
 40
64.0
 40
65.0
 40
65.0
 40
65.0
 40
66.0
 40
66.0
 40
66.0
 40
66.0
 10
115.4940700666126
 20
-130.2673285264609
 30
0.0
 10
115.4940700666126
 20
-130.2673285264609
 30
0.0
 10
114.9356200884536
 20
-130.2673285264609
 30
0.0
 10
114.9356200884536
 20
-130.2673285264609
 30
0.0
 10
114.9252848019978
 20
-130.3117702582207
 30
0.0
 10
114.9166720632847
 20
-130.343465136685
 30
0.0
 10
114.9039252099893
 20
-130.3817056965713
 30
0.0
 10
114.9294189165801
 20
-130.3817056965713
 30
0.0
 10
114.9442328271667
 20
-130.3837727538624
 30
0.0
 10
114.9504339990402
 20
-130.3837727538624
 30
0.0
 10
114.9504339990402
 20
-130.3837727538624
 30
0.0
 10
115.1388807220833
 20
-130.3837727538624
 30
0.0
 10
115.1388807220833
 20
-130.3837727538624
 30
0.0
 10
115.1388807220833
 20
-130.3837727538624
 30
0.0
 10
115.51336260133
 20
-130.3837727538624
 30
0.0
 10
115.51336260133
 20
-130.3837727538624
 30
0.0
 10
115.5640055049632
 20
-130.3837727538624
 30
0.0
 10
115.8475368633992
 20
-130.371025900567
 30
0.0
 10
115.8792317418635
 20
-130.371025900567
 30
0.0
 10
115.8771646845724
 20
-130.398586664449
 30
0.0
 10
115.8750976272812
 20
-130.4175346896178
 30
0.0
 10
115.8750976272812
 20
-130.447162510791
 30
0.0
 10
115.8730305699901
 20
-130.4788573892553
 30
0.0
 10
115.8730305699901
 20
-130.6142496418256
 30
0.0
 10
115.8730305699901
 20
-130.6418104057076
 30
0.0
 10
115.8730305699901
 20
-130.6418104057076
 30
0.0
 10
115.8730305699901
 20
-130.8871012042574
 30
0.0
 10
115.8730305699901
 20
-130.8871012042574
 30
0.0
 10
115.8730305699901
 20
-130.9315429360171
 30
0.0
 10
115.8771646845724
 20
-131.1286023977734
 30
0.0
 10
115.8812987991547
 20
-131.2808756182214
 30
0.0
 10
115.8812987991547
 20
-131.2808756182214
 30
0.0
 10
115.6549560257738
 20
-131.2808756182214
 30
0.0
 10
115.6549560257738
 20
-131.2808756182214
 30
0.0
 10
115.6549560257738
 20
-131.2808756182214
 30
0.0
 10
115.6570230830649
 20
-131.2467691729175
 30
0.0
 10
115.6570230830649
 20
-131.2467691729175
 30
0.0
 10
115.6570230830649
 20
-131.2467691729175
 30
0.0
 10
114.954912623171
 20
-131.2467691729175
 30
0.0
 10
114.954912623171
 20
-131.2467691729175
 30
0.0
 10
114.954912623171
 20
-131.2467691729175
 30
0.0
 10
114.9569796804622
 20
-131.2808756182214
 30
0.0
 10
114.9569796804622
 20
-131.2808756182214
 30
0.0
 10
114.9569796804622
 20
-131.2808756182214
 30
0.0
 10
114.7389051362458
 20
-131.2808756182214
 30
0.0
 10
114.7389051362458
 20
-131.2808756182214
 30
0.0
 10
114.7430392508281
 20
-131.2257540904575
 30
0.0
 10
114.7430392508281
 20
-131.213007237162
 30
0.0
 10
114.7495849322501
 20
-131.0989745766003
 30
0.0
 10
114.7516519895413
 20
-131.0714138127183
 30
0.0
 10
114.7537190468324
 20
-130.9380886174391
 30
0.0
 10
114.7537190468324
 20
-130.9191405922702
 30
0.0
 10
114.7537190468324
 20
-130.9191405922702
 30
0.0
 10
114.7537190468324
 20
-130.7158799586405
 30
0.0
 10
114.7537190468324
 20
-130.7158799586405
 30
0.0
 10
114.6141926796798
 20
-130.9656493813211
 30
0.0
 10
114.445038491354
 20
-131.0965630097606
 30
0.0
 10
114.3392740599568
 20
-131.1623643335289
 30
0.0
 10
114.3392740599568
 20
-131.1623643335289
 30
0.0
 10
114.1656412475003
 20
-131.0224934568277
 30
0.0
 10
114.1656412475003
 20
-131.0224934568277
 30
0.0
 10
114.2545247110197
 20
-130.9718505531945
 30
0.0
 10
114.3985297023032
 20
-130.8850341469662
 30
0.0
 10
114.5359890121646
 20
-130.6903862520496
 30
0.0
 10
114.6269395329752
 20
-130.5636067381924
 30
0.0
 10
114.692396347195
 20
-130.419601746909
 30
0.0
 10
114.7261582829504
 20
-130.2673285264609
 30
0.0
 10
114.4977484522783
 20
-130.2693955837521
 30
0.0
 10
114.3179144679483
 20
-130.2759412651741
 30
0.0
 10
114.2228298325554
 20
-130.2780083224652
 30
0.0
 10
114.2228298325554
 20
-130.2780083224652
 30
0.0
 10
114.2228298325554
 20
-130.1002413954263
 30
0.0
 10
114.2228298325554
 20
-130.1002413954263
 30
0.0
 10
114.4195447847632
 20
-130.1067870768483
 30
0.0
 10
114.7030761431992
 20
-130.1109211914306
 30
0.0
 10
114.8532823063561
 20
-130.1109211914306
 30
0.0
 10
114.8532823063561
 20
-130.1109211914306
 30
0.0
 10
115.0668782264416
 20
-130.1109211914306
 30
0.0
 10
115.0668782264416
 20
-130.1109211914306
 30
0.0
 10
115.0668782264416
 20
-130.1109211914306
 30
0.0
 10
115.0668782264416
 20
-130.0030897027423
 30
0.0
 10
115.0668782264416
 20
-130.0030897027423
 30
0.0
 10
115.0668782264416
 20
-130.0030897027423
 30
0.0
 10
114.920806177867
 20
-130.0030897027423
 30
0.0
 10
114.920806177867
 20
-130.0030897027423
 30
0.0
 10
114.7516519895413
 20
-130.0030897027423
 30
0.0
 10
114.5824978012155
 20
-130.0072238173246
 30
0.0
 10
114.4154106701809
 20
-130.013424989198
 30
0.0
 10
114.4154106701809
 20
-130.013424989198
 30
0.0
 10
114.4154106701809
 20
-129.8422037435811
 30
0.0
 10
114.4154106701809
 20
-129.8422037435811
 30
0.0
 10
114.5697509479201
 20
-129.8528835395854
 30
0.0
 10
114.7557861041236
 20
-129.8528835395854
 30
0.0
 10
114.920806177867
 20
-129.8528835395854
 30
0.0
 10
114.920806177867
 20
-129.8528835395854
 30
0.0
 10
115.0668782264416
 20
-129.8528835395854
 30
0.0
 10
115.0668782264416
 20
-129.8528835395854
 30
0.0
 10
115.0668782264416
 20
-129.8528835395854
 30
0.0
 10
115.0668782264416
 20
-129.7343722548928
 30
0.0
 10
115.0668782264416
 20
-129.7343722548928
 30
0.0
 10
115.0668782264416
 20
-129.7343722548928
 30
0.0
 10
114.9356200884536
 20
-129.7343722548928
 30
0.0
 10
114.9356200884536
 20
-129.7343722548928
 30
0.0
 10
114.8891112994027
 20
-129.7343722548928
 30
0.0
 10
114.6861951753215
 20
-129.7426404840574
 30
0.0
 10
114.6438205008529
 20
-129.7426404840574
 30
0.0
 10
114.4405598672232
 20
-129.7471191081882
 30
0.0
 10
114.3644232569992
 20
-129.7491861654794
 30
0.0
 10
114.286219589484
 20
-129.7512532227705
 30
0.0
 10
114.286219589484
 20
-129.7512532227705
 30
0.0
 10
114.286219589484
 20
-129.5672851238582
 30
0.0
 10
114.286219589484
 20
-129.5672851238582
 30
0.0
 10
114.4005967595943
 20
-129.5755533530228
 30
0.0
 10
114.445038491354
 20
-129.5755533530228
 30
0.0
 10
114.8277885997653
 20
-129.5841660917359
 30
0.0
 10
114.7643988428367
 20
-129.489081456343
 30
0.0
 10
114.7368380789547
 20
-129.461520692461
 30
0.0
 10
114.7010090859081
 20
-129.4253471898659
 30
0.0
 10
114.7010090859081
 20
-129.4253471898659
 30
0.0
 10
114.8763644461073
 20
-129.3430094077684
 30
0.0
 10
114.8763644461073
 20
-129.3430094077684
 30
0.0
 10
114.9166720632847
 20
-129.378838400815
 30
0.0
 10
114.9611137950445
 20
-129.4212130752836
 30
0.0
 10
115.0351833479773
 20
-129.5311116212631
 30
0.0
 10
115.0351833479773
 20
-129.5311116212631
 30
0.0
 10
114.920806177867
 20
-129.5862331490271
 30
0.0
 10
114.920806177867
 20
-129.5862331490271
 30
0.0
 10
114.920806177867
 20
-129.5862331490271
 30
0.0
 10
114.9314859738713
 20
-129.5862331490271
 30
0.0
 10
114.9314859738713
 20
-129.5862331490271
 30
0.0
 10
114.9314859738713
 20
-129.5862331490271
 30
0.0
 10
115.4541069589837
 20
-129.5862331490271
 30
0.0
 10
115.4541069589837
 20
-129.5862331490271
 30
0.0
 10
115.4541069589837
 20
-129.5862331490271
 30
0.0
 10
115.3586778140423
 20
-129.5417914172673
 30
0.0
 10
115.3586778140423
 20
-129.5417914172673
 30
0.0
 10
115.3862385779243
 20
-129.5038953669296
 30
0.0
 10
115.4434271629794
 20
-129.4232801325747
 30
0.0
 10
115.458241073566
 20
-129.3492105796419
 30
0.0
 10
115.458241073566
 20
-129.3492105796419
 30
0.0
 10
115.6718369936515
 20
-129.4126003365705
 30
0.0
 10
115.6718369936515
 20
-129.4126003365705
 30
0.0
 10
115.6804497323646
 20
-129.4150119034101
 30
0.0
 10
115.7014648148246
 20
-129.4253471898659
 30
0.0
 10
115.7014648148246
 20
-129.4467067818744
 30
0.0
 10
115.7014648148246
 20
-129.4846028322122
 30
0.0
 10
115.6360080006049
 20
-129.4846028322122
 30
0.0
 10
115.617059975436
 20
-129.4846028322122
 30
0.0
 10
115.6063801794317
 20
-129.5038953669296
 30
0.0
 10
115.582953530132
 20
-129.5438584745585
 30
0.0
 10
115.5533257089589
 20
-129.5841660917359
 30
0.0
 10
115.9533012947964
 20
-129.5776204103139
 30
0.0
 10
115.9829291159696
 20
-129.5755533530228
 30
0.0
 10
116.0590657261936
 20
-129.5693521811493
 30
0.0
 10
116.0590657261936
 20
-129.5693521811493
 30
0.0
 10
116.0590657261936
 20
-129.7512532227705
 30
0.0
 10
116.0590657261936
 20
-129.7512532227705
 30
0.0
 10
116.0401177010247
 20
-129.7512532227705
 30
0.0
 10
116.0146239944338
 20
-129.7491861654794
 30
0.0
 10
115.7944823929264
 20
-129.7405734267662
 30
0.0
 10
115.7438394892932
 20
-129.7385063694751
 30
0.0
 10
115.5236978877857
 20
-129.7343722548928
 30
0.0
 10
115.479256156026
 20
-129.7343722548928
 30
0.0
 10
115.479256156026
 20
-129.7343722548928
 30
0.0
 10
115.2635931786494
 20
-129.7343722548928
 30
0.0
 10
115.2635931786494
 20
-129.7343722548928
 30
0.0
 10
115.2635931786494
 20
-129.7343722548928
 30
0.0
 10
115.2635931786494
 20
-129.8528835395854
 30
0.0
 10
115.2635931786494
 20
-129.8528835395854
 30
0.0
 10
115.2635931786494
 20
-129.8528835395854
 30
0.0
 10
115.437225991106
 20
-129.8528835395854
 30
0.0
 10
115.437225991106
 20
-129.8528835395854
 30
0.0
 10
115.5998344980098
 20
-129.8528835395854
 30
0.0
 10
115.7903482783441
 20
-129.8528835395854
 30
0.0
 10
115.9471001229229
 20
-129.8422037435811
 30
0.0
 10
115.9471001229229
 20
-129.8422037435811
 30
0.0
 10
115.9471001229229
 20
-130.013424989198
 30
0.0
 10
115.9471001229229
 20
-130.013424989198
 30
0.0
 10
115.7376383174198
 20
-130.0051567600334
 30
0.0
 10
115.540923365212
 20
-130.0030897027423
 30
0.0
 10
115.437225991106
 20
-130.0030897027423
 30
0.0
 10
115.437225991106
 20
-130.0030897027423
 30
0.0
 10
115.2635931786494
 20
-130.0030897027423
 30
0.0
 10
115.2635931786494
 20
-130.0030897027423
 30
0.0
 10
115.2635931786494
 20
-130.0030897027423
 30
0.0
 10
115.2635931786494
 20
-130.1109211914306
 30
0.0
 10
115.2635931786494
 20
-130.1109211914306
 30
0.0
 10
115.2635931786494
 20
-130.1109211914306
 30
0.0
 10
115.4940700666126
 20
-130.1109211914306
 30
0.0
 10
115.4940700666126
 20
-130.1109211914306
 30
0.0
 10
115.6273952618918
 20
-130.1109211914306
 30
0.0
 10
115.9150607349101
 20
-130.1067870768483
 30
0.0
 10
116.1245225404133
 20
-130.1002413954263
 30
0.0
 10
116.1245225404133
 20
-130.1002413954263
 30
0.0
 10
116.1245225404133
 20
-130.2780083224652
 30
0.0
 10
116.1245225404133
 20
-130.2780083224652
 30
0.0
 10
115.9322862123364
 20
-130.2718071505918
 30
0.0
 10
115.6191270327272
 20
-130.2673285264609
 30
0.0
 10
115.4940700666126
 20
-130.2673285264609
 30
0.0
  0
POLYLINE
  5
26C
330
263
100
AcDbEntity
  8
_U+30EC_U+30A4_U+30E4_U+30FC 1
370
     0
100
AcDb2dPolyline
 66
     1
 10
0.0
 20
0.0
 30
0.0
  0
VERTEX
  5
26D
330
26C
100
AcDbEntity
  8
_U+30EC_U+30A4_U+30E4_U+30FC 1
370
     0
100
AcDbVertex
100
AcDb2dVertex
 10
115.6590901403561
 20
-130.523299121015
 30
0.0
  0
VERTEX
  5
26E
330
26C
100
AcDbEntity
  8
_U+30EC_U+30A4_U+30E4_U+30FC 1
370
     0
100
AcDbVertex
100
AcDb2dVertex
 10
114.9525010563313
 20
-130.523299121015
 30
0.0
  0
VERTEX
  5
26F
330
26C
100
AcDbEntity
  8
_U+30EC_U+30A4_U+30E4_U+30FC 1
370
     0
100
AcDbVertex
100
AcDb2dVertex
 10
114.9525010563313
 20
-130.6311306097033
 30
0.0
  0
VERTEX
  5
270
330
26C
100
AcDbEntity
  8
_U+30EC_U+30A4_U+30E4_U+30FC 1
370
     0
100
AcDbVertex
100
AcDb2dVertex
 10
115.6590901403561
 20
-130.6311306097033
 30
0.0
  0
VERTEX
  5
271
330
26C
100
AcDbEntity
  8
_U+30EC_U+30A4_U+30E4_U+30FC 1
370
     0
100
AcDbVertex
100
AcDb2dVertex
 10
115.6590901403561
 20
-130.523299121015
 30
0.0
  0
SEQEND
  5
272
330
26C
100
AcDbEntity
  8
_U+30EC_U+30A4_U+30E4_U+30FC 1
370
     0
  0
POLYLINE
  5
273
330
263
100
AcDbEntity
  8
_U+30EC_U+30A4_U+30E4_U+30FC 1
370
     0
100
AcDb2dPolyline
 66
     1
 10
0.0
 20
0.0
 30
0.0
  0
VERTEX
  5
274
330
273
100
AcDbEntity
  8
_U+30EC_U+30A4_U+30E4_U+30FC 1
370
     0
100
AcDbVertex
100
AcDb2dVertex
 10
115.6590901403561
 20
-130.7561875758179
 30
0.0
  0
VERTEX
  5
275
330
273
100
AcDbEntity
  8
_U+30EC_U+30A4_U+30E4_U+30FC 1
370
     0
100
AcDbVertex
100
AcDb2dVertex
 10
114.9525010563313
 20
-130.7561875758179
 30
0.0
  0
VERTEX
  5
276
330
273
100
AcDbEntity
  8
_U+30EC_U+30A4_U+30E4_U+30FC 1
370
     0
100
AcDbVertex
100
AcDb2dVertex
 10
114.9525010563313
 20
-130.8702202363797
 30
0.0
  0
VERTEX
  5
277
330
273
100
AcDbEntity
  8
_U+30EC_U+30A4_U+30E4_U+30FC 1
370
     0
100
AcDbVertex
100
AcDb2dVertex
 10
115.6590901403561
 20
-130.8702202363797
 30
0.0
  0
VERTEX
  5
278
330
273
100
AcDbEntity
  8
_U+30EC_U+30A4_U+30E4_U+30FC 1
370
     0
100
AcDbVertex
100
AcDb2dVertex
 10
115.6590901403561
 20
-130.7561875758179
 30
0.0
  0
SEQEND
  5
279
330
273
100
AcDbEntity
  8
_U+30EC_U+30A4_U+30E4_U+30FC 1
370
     0
  0
POLYLINE
  5
27A
330
263
100
AcDbEntity
  8
_U+30EC_U+30A4_U+30E4_U+30FC 1
370
     0
100
AcDb2dPolyline
 66
     1
 10
0.0
 20
0.0
 30
0.0
  0
VERTEX
  5
27B
330
27A
100
AcDbEntity
  8
_U+30EC_U+30A4_U+30E4_U+30FC 1
370
     0
100
AcDbVertex
100
AcDb2dVertex
 10
115.6590901403561
 20
-130.9994113170766
 30
0.0
  0
VERTEX
  5
27C
330
27A
100
AcDbEntity
  8
_U+30EC_U+30A4_U+30E4_U+30FC 1
370
     0
100
AcDbVertex
100
AcDb2dVertex
 10
114.9525010563313
 20
-130.9994113170766
 30
0.0
  0
VERTEX
  5
27D
330
27A
100
AcDbEntity
  8
_U+30EC_U+30A4_U+30E4_U+30FC 1
370
     0
100
AcDbVertex
100
AcDb2dVertex
 10
114.9525010563313
 20
-131.1137884871868
 30
0.0
  0
VERTEX
  5
27E
330
27A
100
AcDbEntity
  8
_U+30EC_U+30A4_U+30E4_U+30FC 1
370
     0
100
AcDbVertex
100
AcDb2dVertex
 10
115.6590901403561
 20
-131.1137884871868
 30
0.0
  0
VERTEX
  5
27F
330
27A
100
AcDbEntity
  8
_U+30EC_U+30A4_U+30E4_U+30FC 1
370
     0
100
AcDbVertex
100
AcDb2dVertex
 10
115.6590901403561
 20
-130.9994113170766
 30
0.0
  0
SEQEND
  5
280
330
27A
100
AcDbEntity
  8
_U+30EC_U+30A4_U+30E4_U+30FC 1
370
     0
  0
HATCH
  5
281
330
263
100
AcDbEntity
  8
_U+30EC_U+30A4_U+30E4_U+30FC 1
 62
     7
420
 16777215
100
AcDbHatch
 10
0.0
 20
0.0
 30
0.0
210
0.0
220
0.0
230
1.0
  2
SOLID
 70
     1
 71
     0
 91
        4
 92
        1
 93
        1
 72
     4
 94
        3
 73
     0
 74
     1
 95
      203
 96
      199
 40
0.0
 40
0.0
 40
0.0
 40
0.0
 40
1.0
 40
1.0
 40
1.0
 40
2.0
 40
2.0
 40
2.0
 40
3.0
 40
3.0
 40
3.0
 40
4.0
 40
4.0
 40
4.0
 40
5.0
 40
5.0
 40
5.0
 40
6.0
 40
6.0
 40
6.0
 40
7.0
 40
7.0
 40
7.0
 40
8.0
 40
8.0
 40
8.0
 40
9.0
 40
9.0
 40
9.0
 40
10.0
 40
10.0
 40
10.0
 40
11.0
 40
11.0
 40
11.0
 40
12.0
 40
12.0
 40
12.0
 40
13.0
 40
13.0
 40
13.0
 40
14.0
 40
14.0
 40
14.0
 40
15.0
 40
15.0
 40
15.0
 40
16.0
 40
16.0
 40
16.0
 40
17.0
 40
17.0
 40
17.0
 40
18.0
 40
18.0
 40
18.0
 40
19.0
 40
19.0
 40
19.0
 40
20.0
 40
20.0
 40
20.0
 40
21.0
 40
21.0
 40
21.0
 40
22.0
 40
22.0
 40
22.0
 40
23.0
 40
23.0
 40
23.0
 40
24.0
 40
24.0
 40
24.0
 40
25.0
 40
25.0
 40
25.0
 40
26.0
 40
26.0
 40
26.0
 40
27.0
 40
27.0
 40
27.0
 40
28.0
 40
28.0
 40
28.0
 40
29.0
 40
29.0
 40
29.0
 40
30.0
 40
30.0
 40
30.0
 40
31.0
 40
31.0
 40
31.0
 40
32.0
 40
32.0
 40
32.0
 40
33.0
 40
33.0
 40
33.0
 40
34.0
 40
34.0
 40
34.0
 40
35.0
 40
35.0
 40
35.0
 40
36.0
 40
36.0
 40
36.0
 40
37.0
 40
37.0
 40
37.0
 40
38.0
 40
38.0
 40
38.0
 40
39.0
 40
39.0
 40
39.0
 40
40.0
 40
40.0
 40
40.0
 40
41.0
 40
41.0
 40
41.0
 40
42.0
 40
42.0
 40
42.0
 40
43.0
 40
43.0
 40
43.0
 40
44.0
 40
44.0
 40
44.0
 40
45.0
 40
45.0
 40
45.0
 40
46.0
 40
46.0
 40
46.0
 40
47.0
 40
47.0
 40
47.0
 40
48.0
 40
48.0
 40
48.0
 40
49.0
 40
49.0
 40
49.0
 40
50.0
 40
50.0
 40
50.0
 40
51.0
 40
51.0
 40
51.0
 40
52.0
 40
52.0
 40
52.0
 40
53.0
 40
53.0
 40
53.0
 40
54.0
 40
54.0
 40
54.0
 40
55.0
 40
55.0
 40
55.0
 40
56.0
 40
56.0
 40
56.0
 40
57.0
 40
57.0
 40
57.0
 40
58.0
 40
58.0
 40
58.0
 40
59.0
 40
59.0
 40
59.0
 40
60.0
 40
60.0
 40
60.0
 40
61.0
 40
61.0
 40
61.0
 40
62.0
 40
62.0
 40
62.0
 40
63.0
 40
63.0
 40
63.0
 40
64.0
 40
64.0
 40
64.0
 40
65.0
 40
65.0
 40
65.0
 40
66.0
 40
66.0
 40
66.0
 40
66.0
 10
115.4940700666126
 20
-130.2673285264609
 10
115.4940700666126
 20
-130.2673285264609
 10
114.9356200884536
 20
-130.2673285264609
 10
114.9356200884536
 20
-130.2673285264609
 10
114.9252848019978
 20
-130.3117702582207
 10
114.9166720632847
 20
-130.343465136685
 10
114.9039252099893
 20
-130.3817056965713
 10
114.9294189165801
 20
-130.3817056965713
 10
114.9442328271667
 20
-130.3837727538624
 10
114.9504339990402
 20
-130.3837727538624
 10
114.9504339990402
 20
-130.3837727538624
 10
115.1388807220833
 20
-130.3837727538624
 10
115.1388807220833
 20
-130.3837727538624
 10
115.1388807220833
 20
-130.3837727538624
 10
115.51336260133
 20
-130.3837727538624
 10
115.51336260133
 20
-130.3837727538624
 10
115.5640055049632
 20
-130.3837727538624
 10
115.8475368633992
 20
-130.371025900567
 10
115.8792317418635
 20
-130.371025900567
 10
115.8771646845724
 20
-130.398586664449
 10
115.8750976272812
 20
-130.4175346896178
 10
115.8750976272812
 20
-130.447162510791
 10
115.8730305699901
 20
-130.4788573892553
 10
115.8730305699901
 20
-130.6142496418256
 10
115.8730305699901
 20
-130.6418104057076
 10
115.8730305699901
 20
-130.6418104057076
 10
115.8730305699901
 20
-130.8871012042574
 10
115.8730305699901
 20
-130.8871012042574
 10
115.8730305699901
 20
-130.9315429360171
 10
115.8771646845724
 20
-131.1286023977734
 10
115.8812987991547
 20
-131.2808756182214
 10
115.8812987991547
 20
-131.2808756182214
 10
115.6549560257738
 20
-131.2808756182214
 10
115.6549560257738
 20
-131.2808756182214
 10
115.6549560257738
 20
-131.2808756182214
 10
115.6570230830649
 20
-131.2467691729175
 10
115.6570230830649
 20
-131.2467691729175
 10
115.6570230830649
 20
-131.2467691729175
 10
114.954912623171
 20
-131.2467691729175
 10
114.954912623171
 20
-131.2467691729175
 10
114.954912623171
 20
-131.2467691729175
 10
114.9569796804622
 20
-131.2808756182214
 10
114.9569796804622
 20
-131.2808756182214
 10
114.9569796804622
 20
-131.2808756182214
 10
114.7389051362458
 20
-131.2808756182214
 10
114.7389051362458
 20
-131.2808756182214
 10
114.7430392508281
 20
-131.2257540904575
 10
114.7430392508281
 20
-131.213007237162
 10
114.7495849322501
 20
-131.0989745766003
 10
114.7516519895413
 20
-131.0714138127183
 10
114.7537190468324
 20
-130.9380886174391
 10
114.7537190468324
 20
-130.9191405922702
 10
114.7537190468324
 20
-130.9191405922702
 10
114.7537190468324
 20
-130.7158799586405
 10
114.7537190468324
 20
-130.7158799586405
 10
114.6141926796798
 20
-130.9656493813211
 10
114.445038491354
 20
-131.0965630097606
 10
114.3392740599568
 20
-131.1623643335289
 10
114.3392740599568
 20
-131.1623643335289
 10
114.1656412475003
 20
-131.0224934568277
 10
114.1656412475003
 20
-131.0224934568277
 10
114.2545247110197
 20
-130.9718505531945
 10
114.3985297023032
 20
-130.8850341469662
 10
114.5359890121646
 20
-130.6903862520496
 10
114.6269395329752
 20
-130.5636067381924
 10
114.692396347195
 20
-130.419601746909
 10
114.7261582829504
 20
-130.2673285264609
 10
114.4977484522783
 20
-130.2693955837521
 10
114.3179144679483
 20
-130.2759412651741
 10
114.2228298325554
 20
-130.2780083224652
 10
114.2228298325554
 20
-130.2780083224652
 10
114.2228298325554
 20
-130.1002413954263
 10
114.2228298325554
 20
-130.1002413954263
 10
114.4195447847632
 20
-130.1067870768483
 10
114.7030761431992
 20
-130.1109211914306
 10
114.8532823063561
 20
-130.1109211914306
 10
114.8532823063561
 20
-130.1109211914306
 10
115.0668782264416
 20
-130.1109211914306
 10
115.0668782264416
 20
-130.1109211914306
 10
115.0668782264416
 20
-130.1109211914306
 10
115.0668782264416
 20
-130.0030897027423
 10
115.0668782264416
 20
-130.0030897027423
 10
115.0668782264416
 20
-130.0030897027423
 10
114.920806177867
 20
-130.0030897027423
 10
114.920806177867
 20
-130.0030897027423
 10
114.7516519895413
 20
-130.0030897027423
 10
114.5824978012155
 20
-130.0072238173246
 10
114.4154106701809
 20
-130.013424989198
 10
114.4154106701809
 20
-130.013424989198
 10
114.4154106701809
 20
-129.8422037435811
 10
114.4154106701809
 20
-129.8422037435811
 10
114.5697509479201
 20
-129.8528835395854
 10
114.7557861041236
 20
-129.8528835395854
 10
114.920806177867
 20
-129.8528835395854
 10
114.920806177867
 20
-129.8528835395854
 10
115.0668782264416
 20
-129.8528835395854
 10
115.0668782264416
 20
-129.8528835395854
 10
115.0668782264416
 20
-129.8528835395854
 10
115.0668782264416
 20
-129.7343722548928
 10
115.0668782264416
 20
-129.7343722548928
 10
115.0668782264416
 20
-129.7343722548928
 10
114.9356200884536
 20
-129.7343722548928
 10
114.9356200884536
 20
-129.7343722548928
 10
114.8891112994027
 20
-129.7343722548928
 10
114.6861951753215
 20
-129.7426404840574
 10
114.6438205008529
 20
-129.7426404840574
 10
114.4405598672232
 20
-129.7471191081882
 10
114.3644232569992
 20
-129.7491861654794
 10
114.286219589484
 20
-129.7512532227705
 10
114.286219589484
 20
-129.7512532227705
 10
114.286219589484
 20
-129.5672851238582
 10
114.286219589484
 20
-129.5672851238582
 10
114.4005967595943
 20
-129.5755533530228
 10
114.445038491354
 20
-129.5755533530228
 10
114.8277885997653
 20
-129.5841660917359
 10
114.7643988428367
 20
-129.489081456343
 10
114.7368380789547
 20
-129.461520692461
 10
114.7010090859081
 20
-129.4253471898659
 10
114.7010090859081
 20
-129.4253471898659
 10
114.8763644461073
 20
-129.3430094077684
 10
114.8763644461073
 20
-129.3430094077684
 10
114.9166720632847
 20
-129.378838400815
 10
114.9611137950445
 20
-129.4212130752836
 10
115.0351833479773
 20
-129.5311116212631
 10
115.0351833479773
 20
-129.5311116212631
 10
114.920806177867
 20
-129.5862331490271
 10
114.920806177867
 20
-129.5862331490271
 10
114.920806177867
 20
-129.5862331490271
 10
114.9314859738713
 20
-129.5862331490271
 10
114.9314859738713
 20
-129.5862331490271
 10
114.9314859738713
 20
-129.5862331490271
 10
115.4541069589837
 20
-129.5862331490271
 10
115.4541069589837
 20
-129.5862331490271
 10
115.4541069589837
 20
-129.5862331490271
 10
115.3586778140423
 20
-129.5417914172673
 10
115.3586778140423
 20
-129.5417914172673
 10
115.3862385779243
 20
-129.5038953669296
 10
115.4434271629794
 20
-129.4232801325747
 10
115.458241073566
 20
-129.3492105796419
 10
115.458241073566
 20
-129.3492105796419
 10
115.6718369936515
 20
-129.4126003365705
 10
115.6718369936515
 20
-129.4126003365705
 10
115.6804497323646
 20
-129.4150119034101
 10
115.7014648148246
 20
-129.4253471898659
 10
115.7014648148246
 20
-129.4467067818744
 10
115.7014648148246
 20
-129.4846028322122
 10
115.6360080006049
 20
-129.4846028322122
 10
115.617059975436
 20
-129.4846028322122
 10
115.6063801794317
 20
-129.5038953669296
 10
115.582953530132
 20
-129.5438584745585
 10
115.5533257089589
 20
-129.5841660917359
 10
115.9533012947964
 20
-129.5776204103139
 10
115.9829291159696
 20
-129.5755533530228
 10
116.0590657261936
 20
-129.5693521811493
 10
116.0590657261936
 20
-129.5693521811493
 10
116.0590657261936
 20
-129.7512532227705
 10
116.0590657261936
 20
-129.7512532227705
 10
116.0401177010247
 20
-129.7512532227705
 10
116.0146239944338
 20
-129.7491861654794
 10
115.7944823929264
 20
-129.7405734267662
 10
115.7438394892932
 20
-129.7385063694751
 10
115.5236978877857
 20
-129.7343722548928
 10
115.479256156026
 20
-129.7343722548928
 10
115.479256156026
 20
-129.7343722548928
 10
115.2635931786494
 20
-129.7343722548928
 10
115.2635931786494
 20
-129.7343722548928
 10
115.2635931786494
 20
-129.7343722548928
 10
115.2635931786494
 20
-129.8528835395854
 10
115.2635931786494
 20
-129.8528835395854
 10
115.2635931786494
 20
-129.8528835395854
 10
115.437225991106
 20
-129.8528835395854
 10
115.437225991106
 20
-129.8528835395854
 10
115.5998344980098
 20
-129.8528835395854
 10
115.7903482783441
 20
-129.8528835395854
 10
115.9471001229229
 20
-129.8422037435811
 10
115.9471001229229
 20
-129.8422037435811
 10
115.9471001229229
 20
-130.013424989198
 10
115.9471001229229
 20
-130.013424989198
 10
115.7376383174198
 20
-130.0051567600334
 10
115.540923365212
 20
-130.0030897027423
 10
115.437225991106
 20
-130.0030897027423
 10
115.437225991106
 20
-130.0030897027423
 10
115.2635931786494
 20
-130.0030897027423
 10
115.2635931786494
 20
-130.0030897027423
 10
115.2635931786494
 20
-130.0030897027423
 10
115.2635931786494
 20
-130.1109211914306
 10
115.2635931786494
 20
-130.1109211914306
 10
115.2635931786494
 20
-130.1109211914306
 10
115.4940700666126
 20
-130.1109211914306
 10
115.4940700666126
 20
-130.1109211914306
 10
115.6273952618918
 20
-130.1109211914306
 10
115.9150607349101
 20
-130.1067870768483
 10
116.1245225404133
 20
-130.1002413954263
 10
116.1245225404133
 20
-130.1002413954263
 10
116.1245225404133
 20
-130.2780083224652
 10
116.1245225404133
 20
-130.2780083224652
 10
115.9322862123364
 20
-130.2718071505918
 10
115.6191270327272
 20
-130.2673285264609
 10
115.4940700666126
 20
-130.2673285264609
 97
        0
 97
        0
 92
        1
 93
        4
 72
     1
 10
115.6590901403561
 20
-130.523299121015
 11
114.9525010563313
 21
-130.523299121015
 72
     1
 10
114.9525010563313
 20
-130.523299121015
 11
114.9525010563313
 21
-130.6311306097033
 72
     1
 10
114.9525010563313
 20
-130.6311306097033
 11
115.6590901403561
 21
-130.6311306097033
 72
     1
 10
115.6590901403561
 20
-130.6311306097033
 11
115.6590901403561
 21
-130.523299121015
 97
        0
 92
        1
 93
        4
 72
     1
 10
115.6590901403561
 20
-130.7561875758179
 11
114.9525010563313
 21
-130.7561875758179
 72
     1
 10
114.9525010563313
 20
-130.7561875758179
 11
114.9525010563313
 21
-130.8702202363797
 72
     1
 10
114.9525010563313
 20
-130.8702202363797
 11
115.6590901403561
 21
-130.8702202363797
 72
     1
 10
115.6590901403561
 20
-130.8702202363797
 11
115.6590901403561
 21
-130.7561875758179
 97
        0
 92
        1
 93
        4
 72
     1
 10
115.6590901403561
 20
-130.9994113170766
 11
114.9525010563313
 21
-130.9994113170766
 72
     1
 10
114.9525010563313
 20
-130.9994113170766
 11
114.9525010563313
 21
-131.1137884871868
 72
     1
 10
114.9525010563313
 20
-131.1137884871868
 11
115.6590901403561
 21
-131.1137884871868
 72
     1
 10
115.6590901403561
 20
-131.1137884871868
 11
115.6590901403561
 21
-130.9994113170766
 97
        0
 75
     2
 76
     1
 98
        0
  0
SPLINE
  5
282
330
263
100
AcDbEntity
  8
_U+30EC_U+30A4_U+30E4_U+30FC 1
370
     0
100
AcDbSpline
210
0.0
220
0.0
230
1.0
 70
    11
 71
     3
 72
    47
 73
    43
 74
     0
 42
0.0000000001
 43
0.0000000001
 12
1.0
 22
0.0
 32
0.0
 13
1.0
 23
0.0
 33
0.0
 40
0.0
 40
0.0
 40
0.0
 40
0.0
 40
1.0
 40
1.0
 40
1.0
 40
2.0
 40
2.0
 40
2.0
 40
3.0
 40
3.0
 40
3.0
 40
4.0
 40
4.0
 40
4.0
 40
5.0
 40
5.0
 40
5.0
 40
6.0
 40
6.0
 40
6.0
 40
7.0
 40
7.0
 40
7.0
 40
8.0
 40
8.0
 40
8.0
 40
9.0
 40
9.0
 40
9.0
 40
10.0
 40
10.0
 40
10.0
 40
11.0
 40
11.0
 40
11.0
 40
12.0
 40
12.0
 40
12.0
 40
13.0
 40
13.0
 40
13.0
 40
14.0
 40
14.0
 40
14.0
 40
14.0
 10
117.4712103655975
 20
-130.2442463867098
 30
0.0
 10
117.4712103655975
 20
-130.2442463867098
 30
0.0
 10
117.3695800487826
 20
-130.2442463867098
 30
0.0
 10
117.3695800487826
 20
-130.2442463867098
 30
0.0
 10
117.3695800487826
 20
-130.3307182833896
 30
0.0
 10
117.3485649663226
 20
-130.7200140732228
 30
0.0
 10
117.1518500141148
 20
-130.9401556747302
 30
0.0
 10
116.9995767936668
 20
-131.109309863056
 30
0.0
 10
116.7921820454547
 20
-131.1792453014066
 30
0.0
 10
116.7074326965176
 20
-131.2068060652886
 30
0.0
 10
116.7074326965176
 20
-131.2068060652886
 30
0.0
 10
116.512784801601
 20
-131.039718934254
 30
0.0
 10
116.512784801601
 20
-131.039718934254
 30
0.0
 10
116.6102810038335
 20
-131.0269720809585
 30
0.0
 10
116.7856363640328
 20
-131.0035454316588
 30
0.0
 10
116.9740830870759
 20
-130.8154432181642
 30
0.0
 10
117.0481526400088
 20
-130.7434407225225
 30
0.0
 10
117.1518500141148
 20
-130.6039143553699
 30
0.0
 10
117.1518500141148
 20
-130.2442463867098
 30
0.0
 10
117.1518500141148
 20
-130.2442463867098
 30
0.0
 10
116.9210286166031
 20
-130.2442463867098
 30
0.0
 10
116.9210286166031
 20
-130.2442463867098
 30
0.0
 10
116.7349934603996
 20
-130.2442463867098
 30
0.0
 10
116.5489583041961
 20
-130.2483805012921
 30
0.0
 10
116.3625786384441
 20
-130.2631944118787
 30
0.0
 10
116.3625786384441
 20
-130.2631944118787
 30
0.0
 10
116.3625786384441
 20
-130.0430528103712
 30
0.0
 10
116.3625786384441
 20
-130.0430528103712
 30
0.0
 10
116.5510253614872
 20
-130.0578667209577
 30
0.0
 10
116.8366237772145
 20
-130.0623453450886
 30
0.0
 10
116.9210286166031
 20
-130.0623453450886
 30
0.0
 10
116.9210286166031
 20
-130.0623453450886
 30
0.0
 10
117.4712103655975
 20
-130.0623453450886
 30
0.0
 10
117.4712103655975
 20
-130.0623453450886
 30
0.0
 10
117.4901583907664
 20
-130.0623453450886
 30
0.0
 10
117.8074516849579
 20
-130.0623453450886
 30
0.0
 10
118.0362060251785
 20
-130.0430528103712
 30
0.0
 10
118.0362060251785
 20
-130.0430528103712
 30
0.0
 10
118.0362060251785
 20
-130.2631944118787
 30
0.0
 10
118.0362060251785
 20
-130.2631944118787
 30
0.0
 10
117.8477593021353
 20
-130.2483805012921
 30
0.0
 10
117.6596570886406
 20
-130.2442463867098
 30
0.0
 10
117.4712103655975
 20
-130.2442463867098
 30
0.0
  0
SPLINE
  5
283
330
263
100
AcDbEntity
  8
_U+30EC_U+30A4_U+30E4_U+30FC 1
370
     0
100
AcDbSpline
210
0.0
220
0.0
230
1.0
 70
    11
 71
     3
 72
    29
 73
    25
 74
     0
 42
0.0000000001
 43
0.0000000001
 12
1.0
 22
0.0
 32
0.0
 13
1.0
 23
0.0
 33
0.0
 40
0.0
 40
0.0
 40
0.0
 40
0.0
 40
1.0
 40
1.0
 40
1.0
 40
2.0
 40
2.0
 40
2.0
 40
3.0
 40
3.0
 40
3.0
 40
4.0
 40
4.0
 40
4.0
 40
5.0
 40
5.0
 40
5.0
 40
6.0
 40
6.0
 40
6.0
 40
7.0
 40
7.0
 40
7.0
 40
8.0
 40
8.0
 40
8.0
 40
8.0
 10
117.3695800487826
 20
-129.7154242297239
 30
0.0
 10
117.3695800487826
 20
-129.7154242297239
 30
0.0
 10
117.0164577615445
 20
-129.7154242297239
 30
0.0
 10
117.0164577615445
 20
-129.7154242297239
 30
0.0
 10
116.9041476487254
 20
-129.7154242297239
 30
0.0
 10
116.7646212815727
 20
-129.7216254015974
 30
0.0
 10
116.6567897928844
 20
-129.7343722548928
 30
0.0
 10
116.6567897928844
 20
-129.7343722548928
 30
0.0
 10
116.6567897928844
 20
-129.4994167427988
 30
0.0
 10
116.6567897928844
 20
-129.4994167427988
 30
0.0
 10
116.775301077577
 20
-129.5142306533853
 30
0.0
 10
116.9592691764894
 20
-129.5183647679676
 30
0.0
 10
117.0164577615445
 20
-129.5183647679676
 30
0.0
 10
117.0164577615445
 20
-129.5183647679676
 30
0.0
 10
117.3695800487826
 20
-129.5183647679676
 30
0.0
 10
117.3695800487826
 20
-129.5183647679676
 30
0.0
 10
117.3888725835
 20
-129.5183647679676
 30
0.0
 10
117.5917887075812
 20
-129.5183647679676
 30
0.0
 10
117.733382132025
 20
-129.4994167427988
 30
0.0
 10
117.733382132025
 20
-129.4994167427988
 30
0.0
 10
117.733382132025
 20
-129.7343722548928
 30
0.0
 10
117.733382132025
 20
-129.7343722548928
 30
0.0
 10
117.5769747969946
 20
-129.7154242297239
 30
0.0
 10
117.3864610166603
 20
-129.7154242297239
 30
0.0
 10
117.3695800487826
 20
-129.7154242297239
 30
0.0
  0
HATCH
  5
284
330
263
100
AcDbEntity
  8
_U+30EC_U+30A4_U+30E4_U+30FC 1
 62
     7
420
 16777215
100
AcDbHatch
 10
0.0
 20
0.0
 30
0.0
210
0.0
220
0.0
230
1.0
  2
SOLID
 70
     1
 71
     0
 91
        2
 92
        1
 93
        1
 72
     4
 94
        3
 73
     0
 74
     1
 95
       47
 96
       43
 40
0.0
 40
0.0
 40
0.0
 40
0.0
 40
1.0
 40
1.0
 40
1.0
 40
2.0
 40
2.0
 40
2.0
 40
3.0
 40
3.0
 40
3.0
 40
4.0
 40
4.0
 40
4.0
 40
5.0
 40
5.0
 40
5.0
 40
6.0
 40
6.0
 40
6.0
 40
7.0
 40
7.0
 40
7.0
 40
8.0
 40
8.0
 40
8.0
 40
9.0
 40
9.0
 40
9.0
 40
10.0
 40
10.0
 40
10.0
 40
11.0
 40
11.0
 40
11.0
 40
12.0
 40
12.0
 40
12.0
 40
13.0
 40
13.0
 40
13.0
 40
14.0
 40
14.0
 40
14.0
 40
14.0
 10
117.4712103655975
 20
-130.2442463867098
 10
117.4712103655975
 20
-130.2442463867098
 10
117.3695800487826
 20
-130.2442463867098
 10
117.3695800487826
 20
-130.2442463867098
 10
117.3695800487826
 20
-130.3307182833896
 10
117.3485649663226
 20
-130.7200140732228
 10
117.1518500141148
 20
-130.9401556747302
 10
116.9995767936668
 20
-131.109309863056
 10
116.7921820454547
 20
-131.1792453014066
 10
116.7074326965176
 20
-131.2068060652886
 10
116.7074326965176
 20
-131.2068060652886
 10
116.512784801601
 20
-131.039718934254
 10
116.512784801601
 20
-131.039718934254
 10
116.6102810038335
 20
-131.0269720809585
 10
116.7856363640328
 20
-131.0035454316588
 10
116.9740830870759
 20
-130.8154432181642
 10
117.0481526400088
 20
-130.7434407225225
 10
117.1518500141148
 20
-130.6039143553699
 10
117.1518500141148
 20
-130.2442463867098
 10
117.1518500141148
 20
-130.2442463867098
 10
116.9210286166031
 20
-130.2442463867098
 10
116.9210286166031
 20
-130.2442463867098
 10
116.7349934603996
 20
-130.2442463867098
 10
116.5489583041961
 20
-130.2483805012921
 10
116.3625786384441
 20
-130.2631944118787
 10
116.3625786384441
 20
-130.2631944118787
 10
116.3625786384441
 20
-130.0430528103712
 10
116.3625786384441
 20
-130.0430528103712
 10
116.5510253614872
 20
-130.0578667209577
 10
116.8366237772145
 20
-130.0623453450886
 10
116.9210286166031
 20
-130.0623453450886
 10
116.9210286166031
 20
-130.0623453450886
 10
117.4712103655975
 20
-130.0623453450886
 10
117.4712103655975
 20
-130.0623453450886
 10
117.4901583907664
 20
-130.0623453450886
 10
117.8074516849579
 20
-130.0623453450886
 10
118.0362060251785
 20
-130.0430528103712
 10
118.0362060251785
 20
-130.0430528103712
 10
118.0362060251785
 20
-130.2631944118787
 10
118.0362060251785
 20
-130.2631944118787
 10
117.8477593021353
 20
-130.2483805012921
 10
117.6596570886406
 20
-130.2442463867098
 10
117.4712103655975
 20
-130.2442463867098
 97
        0
 97
        0
 92
        1
 93
        1
 72
     4
 94
        3
 73
     0
 74
     1
 95
       29
 96
       25
 40
0.0
 40
0.0
 40
0.0
 40
0.0
 40
1.0
 40
1.0
 40
1.0
 40
2.0
 40
2.0
 40
2.0
 40
3.0
 40
3.0
 40
3.0
 40
4.0
 40
4.0
 40
4.0
 40
5.0
 40
5.0
 40
5.0
 40
6.0
 40
6.0
 40
6.0
 40
7.0
 40
7.0
 40
7.0
 40
8.0
 40
8.0
 40
8.0
 40
8.0
 10
117.3695800487826
 20
-129.7154242297239
 10
117.3695800487826
 20
-129.7154242297239
 10
117.0164577615445
 20
-129.7154242297239
 10
117.0164577615445
 20
-129.7154242297239
 10
116.9041476487254
 20
-129.7154242297239
 10
116.7646212815727
 20
-129.7216254015974
 10
116.6567897928844
 20
-129.7343722548928
 10
116.6567897928844
 20
-129.7343722548928
 10
116.6567897928844
 20
-129.4994167427988
 10
116.6567897928844
 20
-129.4994167427988
 10
116.775301077577
 20
-129.5142306533853
 10
116.9592691764894
 20
-129.5183647679676
 10
117.0164577615445
 20
-129.5183647679676
 10
117.0164577615445
 20
-129.5183647679676
 10
117.3695800487826
 20
-129.5183647679676
 10
117.3695800487826
 20
-129.5183647679676
 10
117.3888725835
 20
-129.5183647679676
 10
117.5917887075812
 20
-129.5183647679676
 10
117.733382132025
 20
-129.4994167427988
 10
117.733382132025
 20
-129.4994167427988
 10
117.733382132025
 20
-129.7343722548928
 10
117.733382132025
 20
-129.7343722548928
 10
117.5769747969946
 20
-129.7154242297239
 10
117.3864610166603
 20
-129.7154242297239
 10
117.3695800487826
 20
-129.7154242297239
 97
        0
 97
        0
 75
     2
 76
     1
 98
        0
  0
SPLINE
  5
285
330
263
100
AcDbEntity
  8
_U+30EC_U+30A4_U+30E4_U+30FC 1
370
     0
100
AcDbSpline
210
0.0
220
0.0
230
1.0
 70
    11
 71
     3
 72
    29
 73
    25
 74
     0
 42
0.0000000001
 43
0.0000000001
 12
1.0
 22
0.0
 32
0.0
 13
1.0
 23
0.0
 33
0.0
 40
0.0
 40
0.0
 40
0.0
 40
0.0
 40
1.0
 40
1.0
 40
1.0
 40
2.0
 40
2.0
 40
2.0
 40
3.0
 40
3.0
 40
3.0
 40
4.0
 40
4.0
 40
4.0
 40
5.0
 40
5.0
 40
5.0
 40
6.0
 40
6.0
 40
6.0
 40
7.0
 40
7.0
 40
7.0
 40
8.0
 40
8.0
 40
8.0
 40
8.0
 10
119.3170925265943
 20
-130.4071994031621
 30
0.0
 10
119.3170925265943
 20
-130.4071994031621
 30
0.0
 10
118.8327121013682
 20
-130.4071994031621
 30
0.0
 10
118.8327121013682
 20
-130.4071994031621
 30
0.0
 10
118.8051513374862
 20
-130.4071994031621
 30
0.0
 10
118.4878580432947
 20
-130.4071994031621
 30
0.0
 10
118.2763291805004
 20
-130.4323486002044
 30
0.0
 10
118.2763291805004
 20
-130.4323486002044
 30
0.0
 10
118.2763291805004
 20
-130.2018717122412
 30
0.0
 10
118.2763291805004
 20
-130.2018717122412
 30
0.0
 10
118.4348035728219
 20
-130.2249538519924
 30
0.0
 10
118.6253173531562
 20
-130.2273654188321
 30
0.0
 10
118.8327121013682
 20
-130.2273654188321
 30
0.0
 10
118.8327121013682
 20
-130.2273654188321
 30
0.0
 10
119.3170925265943
 20
-130.2273654188321
 30
0.0
 10
119.3170925265943
 20
-130.2273654188321
 30
0.0
 10
119.5031276827978
 20
-130.2273654188321
 30
0.0
 10
119.6891628390013
 20
-130.2249538519924
 30
0.0
 10
119.8734754474622
 20
-130.2018717122412
 30
0.0
 10
119.8734754474622
 20
-130.2018717122412
 30
0.0
 10
119.8734754474622
 20
-130.4323486002044
 30
0.0
 10
119.8734754474622
 20
-130.4323486002044
 30
0.0
 10
119.6891628390013
 20
-130.4092664604532
 30
0.0
 10
119.4418049831604
 20
-130.4071994031621
 30
0.0
 10
119.3170925265943
 20
-130.4071994031621
 30
0.0
  0
HATCH
  5
286
330
263
100
AcDbEntity
  8
_U+30EC_U+30A4_U+30E4_U+30FC 1
 62
     7
420
 16777215
100
AcDbHatch
 10
0.0
 20
0.0
 30
0.0
210
0.0
220
0.0
230
1.0
  2
SOLID
 70
     1
 71
     0
 91
        1
 92
        1
 93
        1
 72
     4
 94
        3
 73
     0
 74
     1
 95
       29
 96
       25
 40
0.0
 40
0.0
 40
0.0
 40
0.0
 40
1.0
 40
1.0
 40
1.0
 40
2.0
 40
2.0
 40
2.0
 40
3.0
 40
3.0
 40
3.0
 40
4.0
 40
4.0
 40
4.0
 40
5.0
 40
5.0
 40
5.0
 40
6.0
 40
6.0
 40
6.0
 40
7.0
 40
7.0
 40
7.0
 40
8.0
 40
8.0
 40
8.0
 40
8.0
 10
119.3170925265943
 20
-130.4071994031621
 10
119.3170925265943
 20
-130.4071994031621
 10
118.8327121013682
 20
-130.4071994031621
 10
118.8327121013682
 20
-130.4071994031621
 10
118.8051513374862
 20
-130.4071994031621
 10
118.4878580432947
 20
-130.4071994031621
 10
118.2763291805004
 20
-130.4323486002044
 10
118.2763291805004
 20
-130.4323486002044
 10
118.2763291805004
 20
-130.2018717122412
 10
118.2763291805004
 20
-130.2018717122412
 10
118.4348035728219
 20
-130.2249538519924
 10
118.6253173531562
 20
-130.2273654188321
 10
118.8327121013682
 20
-130.2273654188321
 10
118.8327121013682
 20
-130.2273654188321
 10
119.3170925265943
 20
-130.2273654188321
 10
119.3170925265943
 20
-130.2273654188321
 10
119.5031276827978
 20
-130.2273654188321
 10
119.6891628390013
 20
-130.2249538519924
 10
119.8734754474622
 20
-130.2018717122412
 10
119.8734754474622
 20
-130.2018717122412
 10
119.8734754474622
 20
-130.4323486002044
 10
119.8734754474622
 20
-130.4323486002044
 10
119.6891628390013
 20
-130.4092664604532
 10
119.4418049831604
 20
-130.4071994031621
 10
119.3170925265943
 20
-130.4071994031621
 97
        0
 97
        0
 75
     2
 76
     1
 98
        0
  0
SPLINE
  5
287
330
263
100
AcDbEntity
  8
_U+30EC_U+30A4_U+30E4_U+30FC 1
370
     0
100
AcDbSpline
210
0.0
220
0.0
230
1.0
 70
    11
 71
     3
 72
    47
 73
    43
 74
     0
 42
0.0000000001
 43
0.0000000001
 12
1.0
 22
0.0
 32
0.0
 13
1.0
 23
0.0
 33
0.0
 40
0.0
 40
0.0
 40
0.0
 40
0.0
 40
1.0
 40
1.0
 40
1.0
 40
2.0
 40
2.0
 40
2.0
 40
3.0
 40
3.0
 40
3.0
 40
4.0
 40
4.0
 40
4.0
 40
5.0
 40
5.0
 40
5.0
 40
6.0
 40
6.0
 40
6.0
 40
7.0
 40
7.0
 40
7.0
 40
8.0
 40
8.0
 40
8.0
 40
9.0
 40
9.0
 40
9.0
 40
10.0
 40
10.0
 40
10.0
 40
11.0
 40
11.0
 40
11.0
 40
12.0
 40
12.0
 40
12.0
 40
13.0
 40
13.0
 40
13.0
 40
14.0
 40
14.0
 40
14.0
 40
14.0
 10
121.5371120572893
 20
-129.812575922408
 30
0.0
 10
121.4671766189388
 20
-130.0919731662617
 30
0.0
 10
121.3910400087147
 20
-130.3965196071578
 30
0.0
 10
121.0782253386541
 20
-130.7286268119359
 30
0.0
 10
120.8412027692689
 20
-130.9783962346165
 30
0.0
 10
120.5959119707191
 20
-131.0776149845917
 30
0.0
 10
120.4901475393219
 20
-131.1199896590603
 30
0.0
 10
120.4901475393219
 20
-131.1199896590603
 30
0.0
 10
120.2954996444053
 20
-130.9380886174391
 30
0.0
 10
120.2954996444053
 20
-130.9380886174391
 30
0.0
 10
120.4815348006088
 20
-130.8915798283882
 30
0.0
 10
120.84326982656
 20
-130.7985622502865
 30
0.0
 10
121.1395480382915
 20
-130.3035020290561
 30
0.0
 10
121.3000894879041
 20
-130.0368516384978
 30
0.0
 10
121.3128363411996
 20
-129.8632188260411
 30
0.0
 10
121.3214490799127
 20
-129.7722683052305
 30
0.0
 10
121.3214490799127
 20
-129.7722683052305
 30
0.0
 10
120.815709062678
 20
-129.7722683052305
 30
0.0
 10
120.815709062678
 20
-129.7722683052305
 30
0.0
 10
120.6971977779854
 20
-129.7722683052305
 30
0.0
 10
120.2762071096879
 20
-129.7915608399479
 30
0.0
 10
120.1239338892399
 20
-129.8018961264037
 30
0.0
 10
120.1239338892399
 20
-129.8018961264037
 30
0.0
 10
120.1239338892399
 20
-129.5924343209005
 30
0.0
 10
120.1239338892399
 20
-129.5924343209005
 30
0.0
 10
120.2658718232321
 20
-129.6051811741959
 30
0.0
 10
120.5428575002462
 20
-129.6096597983268
 30
0.0
 10
120.6593017276477
 20
-129.6096597983268
 30
0.0
 10
120.6593017276477
 20
-129.6096597983268
 30
0.0
 10
121.0144910721769
 20
-129.6096597983268
 30
0.0
 10
121.0144910721769
 20
-129.6096597983268
 30
0.0
 10
121.0420518360589
 20
-129.6096597983268
 30
0.0
 10
121.2029377952201
 20
-129.6072482314871
 30
0.0
 10
121.3128363411996
 20
-129.5924343209005
 30
0.0
 10
121.3700249262547
 20
-129.5862331490271
 30
0.0
 10
121.3869058941324
 20
-129.5672851238582
 30
0.0
 10
121.4103325434321
 20
-129.5438584745585
 30
0.0
 10
121.4103325434321
 20
-129.5438584745585
 30
0.0
 10
121.5984347569268
 20
-129.6940646377154
 30
0.0
 10
121.5984347569268
 20
-129.6940646377154
 30
0.0
 10
121.5836208463402
 20
-129.7236924588885
 30
0.0
 10
121.5732855598845
 20
-129.7426404840574
 30
0.0
 10
121.5371120572893
 20
-129.812575922408
 30
0.0
  0
HATCH
  5
288
330
263
100
AcDbEntity
  8
_U+30EC_U+30A4_U+30E4_U+30FC 1
 62
     7
420
 16777215
100
AcDbHatch
 10
0.0
 20
0.0
 30
0.0
210
0.0
220
0.0
230
1.0
  2
SOLID
 70
     1
 71
     0
 91
        1
 92
        1
 93
        1
 72
     4
 94
        3
 73
     0
 74
     1
 95
       47
 96
       43
 40
0.0
 40
0.0
 40
0.0
 40
0.0
 40
1.0
 40
1.0
 40
1.0
 40
2.0
 40
2.0
 40
2.0
 40
3.0
 40
3.0
 40
3.0
 40
4.0
 40
4.0
 40
4.0
 40
5.0
 40
5.0
 40
5.0
 40
6.0
 40
6.0
 40
6.0
 40
7.0
 40
7.0
 40
7.0
 40
8.0
 40
8.0
 40
8.0
 40
9.0
 40
9.0
 40
9.0
 40
10.0
 40
10.0
 40
10.0
 40
11.0
 40
11.0
 40
11.0
 40
12.0
 40
12.0
 40
12.0
 40
13.0
 40
13.0
 40
13.0
 40
14.0
 40
14.0
 40
14.0
 40
14.0
 10
121.5371120572893
 20
-129.812575922408
 10
121.4671766189388
 20
-130.0919731662617
 10
121.3910400087147
 20
-130.3965196071578
 10
121.0782253386541
 20
-130.7286268119359
 10
120.8412027692689
 20
-130.9783962346165
 10
120.5959119707191
 20
-131.0776149845917
 10
120.4901475393219
 20
-131.1199896590603
 10
120.4901475393219
 20
-131.1199896590603
 10
120.2954996444053
 20
-130.9380886174391
 10
120.2954996444053
 20
-130.9380886174391
 10
120.4815348006088
 20
-130.8915798283882
 10
120.84326982656
 20
-130.7985622502865
 10
121.1395480382915
 20
-130.3035020290561
 10
121.3000894879041
 20
-130.0368516384978
 10
121.3128363411996
 20
-129.8632188260411
 10
121.3214490799127
 20
-129.7722683052305
 10
121.3214490799127
 20
-129.7722683052305
 10
120.815709062678
 20
-129.7722683052305
 10
120.815709062678
 20
-129.7722683052305
 10
120.6971977779854
 20
-129.7722683052305
 10
120.2762071096879
 20
-129.7915608399479
 10
120.1239338892399
 20
-129.8018961264037
 10
120.1239338892399
 20
-129.8018961264037
 10
120.1239338892399
 20
-129.5924343209005
 10
120.1239338892399
 20
-129.5924343209005
 10
120.2658718232321
 20
-129.6051811741959
 10
120.5428575002462
 20
-129.6096597983268
 10
120.6593017276477
 20
-129.6096597983268
 10
120.6593017276477
 20
-129.6096597983268
 10
121.0144910721769
 20
-129.6096597983268
 10
121.0144910721769
 20
-129.6096597983268
 10
121.0420518360589
 20
-129.6096597983268
 10
121.2029377952201
 20
-129.6072482314871
 10
121.3128363411996
 20
-129.5924343209005
 10
121.3700249262547
 20
-129.5862331490271
 10
121.3869058941324
 20
-129.5672851238582
 10
121.4103325434321
 20
-129.5438584745585
 10
121.4103325434321
 20
-129.5438584745585
 10
121.5984347569268
 20
-129.6940646377154
 10
121.5984347569268
 20
-129.6940646377154
 10
121.5836208463402
 20
-129.7236924588885
 10
121.5732855598845
 20
-129.7426404840574
 10
121.5371120572893
 20
-129.812575922408
 97
        0
 97
        0
 75
     2
 76
     1
 98
        0
  0
SPLINE
  5
289
330
263
100
AcDbEntity
  8
_U+30EC_U+30A4_U+30E4_U+30FC 1
370
     0
100
AcDbSpline
210
0.0
220
0.0
230
1.0
 70
    11
 71
     3
 72
    17
 73
    13
 74
     0
 42
0.0000000001
 43
0.0000000001
 12
1.0
 22
0.0
 32
0.0
 13
1.0
 23
0.0
 33
0.0
 40
0.0
 40
0.0
 40
0.0
 40
0.0
 40
1.0
 40
1.0
 40
1.0
 40
2.0
 40
2.0
 40
2.0
 40
3.0
 40
3.0
 40
3.0
 40
4.0
 40
4.0
 40
4.0
 40
4.0
 10
122.2426676126685
 20
-129.5948458877402
 30
0.0
 10
122.2426676126685
 20
-129.708878548302
 30
0.0
 10
122.1496500345668
 20
-129.8039631836949
 30
0.0
 10
122.0332058071653
 20
-129.8039631836949
 30
0.0
 10
121.918828637055
 20
-129.8039631836949
 30
0.0
 10
121.8237440016621
 20
-129.708878548302
 30
0.0
 10
121.8237440016621
 20
-129.5948458877402
 30
0.0
 10
121.8237440016621
 20
-129.4784016603387
 30
0.0
 10
121.918828637055
 20
-129.385384082237
 30
0.0
 10
122.0332058071653
 20
-129.385384082237
 30
0.0
 10
122.1475829772756
 20
-129.385384082237
 30
0.0
 10
122.2426676126685
 20
-129.4784016603387
 30
0.0
 10
122.2426676126685
 20
-129.5948458877402
 30
0.0
  0
SPLINE
  5
28A
330
263
100
AcDbEntity
  8
_U+30EC_U+30A4_U+30E4_U+30FC 1
370
     0
100
AcDbSpline
210
0.0
220
0.0
230
1.0
 70
    11
 71
     3
 72
    17
 73
    13
 74
     0
 42
0.0000000001
 43
0.0000000001
 12
1.0
 22
0.0
 32
0.0
 13
1.0
 23
0.0
 33
0.0
 40
0.0
 40
0.0
 40
0.0
 40
0.0
 40
1.0
 40
1.0
 40
1.0
 40
2.0
 40
2.0
 40
2.0
 40
3.0
 40
3.0
 40
3.0
 40
4.0
 40
4.0
 40
4.0
 40
4.0
 10
121.9274413757681
 20
-129.5948458877402
 30
0.0
 10
121.9274413757681
 20
-129.6541015300865
 30
0.0
 10
121.973950164819
 20
-129.7006103191374
 30
0.0
 10
122.0332058071653
 20
-129.7006103191374
 30
0.0
 10
122.0924614495116
 20
-129.7006103191374
 30
0.0
 10
122.1410372958536
 20
-129.6541015300865
 30
0.0
 10
122.1410372958536
 20
-129.5948458877402
 30
0.0
 10
122.1410372958536
 20
-129.5355902453939
 30
0.0
 10
122.0924614495116
 20
-129.4866698895033
 30
0.0
 10
122.0332058071653
 20
-129.4866698895033
 30
0.0
 10
121.973950164819
 20
-129.4866698895033
 30
0.0
 10
121.9274413757681
 20
-129.5355902453939
 30
0.0
 10
121.9274413757681
 20
-129.5948458877402
 30
0.0
  0
HATCH
  5
28B
330
263
100
AcDbEntity
  8
_U+30EC_U+30A4_U+30E4_U+30FC 1
 62
     7
420
 16777215
100
AcDbHatch
 10
0.0
 20
0.0
 30
0.0
210
0.0
220
0.0
230
1.0
  2
SOLID
 70
     1
 71
     0
 91
        2
 92
        1
 93
        1
 72
     4
 94
        3
 73
     0
 74
     1
 95
       17
 96
       13
 40
0.0
 40
0.0
 40
0.0
 40
0.0
 40
1.0
 40
1.0
 40
1.0
 40
2.0
 40
2.0
 40
2.0
 40
3.0
 40
3.0
 40
3.0
 40
4.0
 40
4.0
 40
4.0
 40
4.0
 10
122.2426676126685
 20
-129.5948458877402
 10
122.2426676126685
 20
-129.708878548302
 10
122.1496500345668
 20
-129.8039631836949
 10
122.0332058071653
 20
-129.8039631836949
 10
121.918828637055
 20
-129.8039631836949
 10
121.8237440016621
 20
-129.708878548302
 10
121.8237440016621
 20
-129.5948458877402
 10
121.8237440016621
 20
-129.4784016603387
 10
121.918828637055
 20
-129.385384082237
 10
122.0332058071653
 20
-129.385384082237
 10
122.1475829772756
 20
-129.385384082237
 10
122.2426676126685
 20
-129.4784016603387
 10
122.2426676126685
 20
-129.5948458877402
 97
        0
 97
        0
 92
        1
 93
        1
 72
     4
 94
        3
 73
     0
 74
     1
 95
       17
 96
       13
 40
0.0
 40
0.0
 40
0.0
 40
0.0
 40
1.0
 40
1.0
 40
1.0
 40
2.0
 40
2.0
 40
2.0
 40
3.0
 40
3.0
 40
3.0
 40
4.0
 40
4.0
 40
4.0
 40
4.0
 10
121.9274413757681
 20
-129.5948458877402
 10
121.9274413757681
 20
-129.6541015300865
 10
121.973950164819
 20
-129.7006103191374
 10
122.0332058071653
 20
-129.7006103191374
 10
122.0924614495116
 20
-129.7006103191374
 10
122.1410372958536
 20
-129.6541015300865
 10
122.1410372958536
 20
-129.5948458877402
 10
122.1410372958536
 20
-129.5355902453939
 10
122.0924614495116
 20
-129.4866698895033
 10
122.0332058071653
 20
-129.4866698895033
 10
121.973950164819
 20
-129.4866698895033
 10
121.9274413757681
 20
-129.5355902453939
 10
121.9274413757681
 20
-129.5948458877402
 97
        0
 97
        0
 75
     2
 76
     1
 98
        0
  0
ENDBLK
  5
266
330
263
100
AcDbEntity
  8
0
100
AcDbBlockEnd
  0
ENDSEC
  0
SECTION
  2
ENTITIES
  0
INSERT
  5
42
330
1F
100
AcDbEntity
  8
_U+30EC_U+30A4_U+30E4_U+30FC 1
100
AcDbBlockReference
  2
block 2
 10
0.0
 20
0.0
 30
0.0
  0
POLYLINE
  5
23B
330
1F
100
AcDbEntity
  8
_U+30EC_U+30A4_U+30E4_U+30FC 1
 62
   179
420
  2234388
370
     9
100
AcDb2dPolyline
 66
     1
 10
0.0
 20
0.0
 30
0.0
  0
VERTEX
  5
23C
330
23B
100
AcDbEntity
  8
_U+30EC_U+30A4_U+30E4_U+30FC 1
 62
   179
420
  2234388
370
     9
100
AcDbVertex
100
AcDb2dVertex
 10
88.91170995389552
 20
-131.1089791338891
 30
0.0
  0
VERTEX
  5
23D
330
23B
100
AcDbEntity
  8
_U+30EC_U+30A4_U+30E4_U+30FC 1
 62
   179
420
  2234388
370
     9
100
AcDbVertex
100
AcDb2dVertex
 10
96.91189836090483
 20
-131.1089791338891
 30
0.0
  0
SEQEND
  5
23E
330
23B
100
AcDbEntity
  8
_U+30EC_U+30A4_U+30E4_U+30FC 1
 62
   179
420
  2234388
370
     9
  0
INSERT
  5
240
330
1F
100
AcDbEntity
  8
_U+30EC_U+30A4_U+30E4_U+30FC 1
100
AcDbBlockReference
  2
block 9
 10
0.0
 20
0.0
 30
0.0
  0
POLYLINE
  5
245
330
1F
100
AcDbEntity
  8
_U+30EC_U+30A4_U+30E4_U+30FC 1
  6
AI-Linetype-1
 62
   154
420
    23468
370
    25
100
AcDb2dPolyline
 66
     1
 10
0.0
 20
0.0
 30
0.0
  0
VERTEX
  5
246
330
245
100
AcDbEntity
  8
_U+30EC_U+30A4_U+30E4_U+30FC 1
  6
AI-Linetype-1
 62
   154
420
    23468
370
    25
100
AcDbVertex
100
AcDb2dVertex
 10
104.6571721960577
 20
-126.8944135793876
 30
0.0
  0
VERTEX
  5
247
330
245
100
AcDbEntity
  8
_U+30EC_U+30A4_U+30E4_U+30FC 1
  6
AI-Linetype-1
 62
   154
420
    23468
370
    25
100
AcDbVertex
100
AcDb2dVertex
 10
114.6569023526365
 20
-126.8944135793876
 30
0.0
  0
SEQEND
  5
249
330
245
100
AcDbEntity
  8
_U+30EC_U+30A4_U+30E4_U+30FC 1
  6
AI-Linetype-1
 62
   154
420
    23468
370
    25
  0
POLYLINE
  5
24A
330
1F
100
AcDbEntity
  8
_U+30EC_U+30A4_U+30E4_U+30FC 1
  6
AI-Linetype-2
 62
   154
420
    23468
370
    25
100
AcDb2dPolyline
 66
     1
 10
0.0
 20
0.0
 30
0.0
  0
VERTEX
  5
24B
330
24A
100
AcDbEntity
  8
_U+30EC_U+30A4_U+30E4_U+30FC 1
  6
AI-Linetype-2
 62
   154
420
    23468
370
    25
100
AcDbVertex
100
AcDb2dVertex
 10
63.39783393814206
 20
-126.8944135793876
 30
0.0
  0
VERTEX
  5
24C
330
24A
100
AcDbEntity
  8
_U+30EC_U+30A4_U+30E4_U+30FC 1
  6
AI-Linetype-2
 62
   154
420
    23468
370
    25
100
AcDbVertex
100
AcDb2dVertex
 10
73.39742562747567
 20
-126.8944135793876
 30
0.0
  0
SEQEND
  5
24E
330
24A
100
AcDbEntity
  8
_U+30EC_U+30A4_U+30E4_U+30FC 1
  6
AI-Linetype-2
 62
   154
420
    23468
370
    25
  0
INSERT
  5
250
330
1F
100
AcDbEntity
  8
_U+30EC_U+30A4_U+30E4_U+30FC 1
100
AcDbBlockReference
  2
block 10
 10
0.0
 20
0.0
 30
0.0
  0
ENDSEC
  0
SECTION
  2
OBJECTS
  0
DICTIONARY
  5
C
330
0
100
AcDbDictionary
281
     1
  3
ACAD_GROUP
350
D
  3
ACAD_LAYOUT
350
1A
  3
ACAD_MATERIAL
350
3B
  3
ACAD_MLEADERSTYLE
350
28D
  3
ACAD_MLINESTYLE
350
17
  3
ACAD_PLOTSETTINGS
350
19
  3
ACAD_PLOTSTYLENAME
350
E
  3
ACAD_TABLESTYLE
350
28C
  3
ACAD_VISUALSTYLE
350
2A
  0
SUN
  5
3F
330
29
100
AcDbSun
 90
        1
290
     0
 63
     7
421
 16777215
 40
1.0
291
     1
 91
  2455826
 92
 54000000
292
     0
 70
     2
 71
   256
280
     1
  0
DICTIONARY
  5
D
102
{ACAD_REACTORS
330
C
102
}
330
C
100
AcDbDictionary
281
     1
  0
DICTIONARY
  5
1A
102
{ACAD_REACTORS
330
C
102
}
330
C
100
AcDbDictionary
281
     1
  3
Layout1
350
1E
  3
Layout2
350
26
  3
Model
350
22
  0
DICTIONARY
  5
3B
102
{ACAD_REACTORS
330
C
102
}
330
C
100
AcDbDictionary
281
     1
  3
ByBlock
350
3D
  3
ByLayer
350
3C
  3
Global
350
3E
  0
DICTIONARY
  5
28D
102
{ACAD_REACTORS
330
C
102
}
330
C
100
AcDbDictionary
281
     1
  0
DICTIONARY
  5
17
102
{ACAD_REACTORS
330
C
102
}
330
C
100
AcDbDictionary
281
     1
  3
Standard
350
18
  0
DICTIONARY
  5
19
102
{ACAD_REACTORS
330
C
102
}
330
C
100
AcDbDictionary
281
     1
  0
ACDBDICTIONARYWDFLT
  5
E
102
{ACAD_REACTORS
330
C
102
}
330
C
100
AcDbDictionary
281
     1
  3
Normal
350
F
100
AcDbDictionaryWithDefault
340
F
  0
DICTIONARY
  5
28C
102
{ACAD_REACTORS
330
C
102
}
330
C
100
AcDbDictionary
281
     1
  0
DICTIONARY
  5
2A
102
{ACAD_REACTORS
330
C
102
}
330
C
100
AcDbDictionary
281
     1
  3
2dWireframe
350
2F
  3
3D Hidden
350
31
  3
3dWireframe
350
30
  3
Basic
350
32
  3
Brighten
350
36
  3
ColorChange
350
3A
  3
Conceptual
350
34
  3
Dim
350
35
  3
Facepattern
350
39
  3
Flat
350
2B
  3
FlatWithEdges
350
2C
  3
Gouraud
350
2D
  3
GouraudWithEdges
350
2E
  3
Linepattern
350
38
  3
Realistic
350
33
  3
Thicken
350
37
  0
LAYOUT
  5
1E
102
{ACAD_REACTORS
330
1A
102
}
330
1A
100
AcDbPlotSettings
  1

  2
none_device
  4

  6

 40
0.0
 41
0.0
 42
0.0
 43
0.0
 44
0.0
 45
0.0
 46
0.0
 47
0.0
 48
0.0
 49
0.0
140
0.0
141
0.0
142
1.0
143
1.0
 70
   688
 72
     0
 73
     0
 74
     5
  7

 75
    16
 76
     0
 77
     2
 78
   300
147
1.0
148
0.0
149
0.0
100
AcDbLayout
  1
Layout1
 70
     1
 71
     1
 10
0.0
 20
0.0
 11
12.0
 21
9.0
 12
0.0
 22
0.0
 32
0.0
 14
1.000000000000000E+20
 24
1.000000000000000E+20
 34
1.000000000000000E+20
 15
-1.000000000000000E+20
 25
-1.000000000000000E+20
 35
-1.000000000000000E+20
146
0.0
 13
0.0
 23
0.0
 33
0.0
 16
1.0
 26
0.0
 36
0.0
 17
0.0
 27
1.0
 37
0.0
 76
     0
330
1B
  0
LAYOUT
  5
26
102
{ACAD_REACTORS
330
1A
102
}
330
1A
100
AcDbPlotSettings
  1

  2
none_device
  4

  6

 40
0.0
 41
0.0
 42
0.0
 43
0.0
 44
0.0
 45
0.0
 46
0.0
 47
0.0
 48
0.0
 49
0.0
140
0.0
141
0.0
142
1.0
143
1.0
 70
   688
 72
     0
 73
     0
 74
     5
  7

 75
    16
 76
     0
 77
     2
 78
   300
147
1.0
148
0.0
149
0.0
100
AcDbLayout
  1
Layout2
 70
     1
 71
     2
 10
0.0
 20
0.0
 11
0.0
 21
0.0
 12
0.0
 22
0.0
 32
0.0
 14
0.0
 24
0.0
 34
0.0
 15
0.0
 25
0.0
 35
0.0
146
0.0
 13
0.0
 23
0.0
 33
0.0
 16
1.0
 26
0.0
 36
0.0
 17
0.0
 27
1.0
 37
0.0
 76
     0
330
23
  0
LAYOUT
  5
22
102
{ACAD_REACTORS
330
1A
102
}
330
1A
100
AcDbPlotSettings
  1

  2
none_device
  4

  6

 40
0.0
 41
0.0
 42
0.0
 43
0.0
 44
0.0
 45
0.0
 46
0.0
 47
0.0
 48
0.0
 49
0.0
140
0.0
141
0.0
142
1.0
143
1.0
 70
  1712
 72
     0
 73
     0
 74
     0
  7

 75
     0
 76
     0
 77
     2
 78
   300
147
1.0
148
0.0
149
0.0
100
AcDbLayout
  1
Model
 70
     1
 71
     0
 10
0.0
 20
0.0
 11
12.0
 21
9.0
 12
0.0
 22
0.0
 32
0.0
 14
1.000000000000000E+20
 24
1.000000000000000E+20
 34
1.000000000000000E+20
 15
-1.000000000000000E+20
 25
-1.000000000000000E+20
 35
-1.000000000000000E+20
146
0.0
 13
0.0
 23
0.0
 33
0.0
 16
1.0
 26
0.0
 36
0.0
 17
0.0
 27
1.0
 37
0.0
 76
     0
330
1F
331
29
  0
MATERIAL
  5
3D
102
{ACAD_REACTORS
330
3B
102
}
330
3B
100
AcDbMaterial
  1
ByBlock
 72
     1
 94
      127
  0
MATERIAL
  5
3C
102
{ACAD_REACTORS
330
3B
102
}
330
3B
100
AcDbMaterial
  1
ByLayer
 72
     1
 94
      127
  0
MATERIAL
  5
3E
102
{ACAD_REACTORS
330
3B
102
}
330
3B
100
AcDbMaterial
  1
Global
 72
     1
 94
      127
  0
MLINESTYLE
  5
18
102
{ACAD_REACTORS
330
17
102
}
330
17
100
AcDbMlineStyle
  2
Standard
 70
     0
  3

 62
   256
 51
90.0
 52
90.0
 71
     2
 49
0.5
 62
   256
  6
BYLAYER
 49
-0.5
 62
   256
  6
BYLAYER
  0
ACDBPLACEHOLDER
  5
F
102
{ACAD_REACTORS
330
E
102
}
330
E
  0
VISUALSTYLE
  5
2F
102
{ACAD_REACTORS
330
2A
102
}
330
2A
100
AcDbVisualStyle
  2
2dWireframe
 70
     4
177
     2
291
     0
 71
     0
176
     1
 72
     2
176
     1
 73
     0
176
     1
 90
        0
176
     1
 40
-0.6
176
     1
 41
-30.0
176
     1
 62
     5
 63
     7
421
 16777215
176
     1
 74
     1
176
     1
 91
        4
176
     1
 64
     7
176
     1
 65
   257
176
     1
 75
     1
176
     1
175
     1
176
     1
 42
1.0
176
     1
 92
        0
176
     1
 66
   257
176
     1
 43
1.0
176
     1
 76
     1
176
     1
 77
     6
176
     1
 78
     2
176
     1
 67
     7
176
     1
 79
     5
176
     1
170
     0
176
     1
171
     0
176
     1
290
     0
176
     1
 93
        1
176
     1
 44
0.0
176
     1
173
     0
176
     1
  0
VISUALSTYLE
  5
31
102
{ACAD_REACTORS
330
2A
102
}
330
2A
100
AcDbVisualStyle
  2
3D Hidden
 70
     6
177
     2
291
     0
 71
     1
176
     1
 72
     2
176
     1
 73
     2
176
     1
 90
        0
176
     1
 40
-0.6
176
     1
 41
-30.0
176
     1
 62
     5
 63
     7
421
 16777215
176
     1
 74
     2
176
     1
 91
        2
176
     1
 64
     7
176
     1
 65
   257
176
     1
 75
     2
176
     1
175
     1
176
     1
 42
40.0
176
     1
 92
        0
176
     1
 66
   257
176
     1
 43
1.0
176
     1
 76
     1
176
     1
 77
     6
176
     1
 78
     2
176
     1
 67
     7
176
     1
 79
     3
176
     1
170
     0
176
     1
171
     0
176
     1
290
     0
176
     1
 93
        1
176
     1
 44
0.0
176
     1
173
     0
176
     1
  0
VISUALSTYLE
  5
30
102
{ACAD_REACTORS
330
2A
102
}
330
2A
100
AcDbVisualStyle
  2
3dWireframe
 70
     5
177
     2
291
     0
 71
     0
176
     1
 72
     2
176
     1
 73
     0
176
     1
 90
        0
176
     1
 40
-0.6
176
     1
 41
-30.0
176
     1
 62
     5
 63
     7
421
 16777215
176
     1
 74
     1
176
     1
 91
        4
176
     1
 64
     7
176
     1
 65
   257
176
     1
 75
     1
176
     1
175
     1
176
     1
 42
1.0
176
     1
 92
        0
176
     1
 66
   257
176
     1
 43
1.0
176
     1
 76
     1
176
     1
 77
     6
176
     1
 78
     2
176
     1
 67
     7
176
     1
 79
     5
176
     1
170
     0
176
     1
171
     0
176
     1
290
     0
176
     1
 93
        1
176
     1
 44
0.0
176
     1
173
     0
176
     1
  0
VISUALSTYLE
  5
32
102
{ACAD_REACTORS
330
2A
102
}
330
2A
100
AcDbVisualStyle
  2
Basic
 70
     7
177
     2
291
     1
 71
     1
176
     1
 72
     0
176
     1
 73
     1
176
     1
 90
        0
176
     1
 40
-0.6
176
     1
 41
-30.0
176
     1
 62
     5
 63
     7
421
 16777215
176
     1
 74
     0
176
     1
 91
        4
176
     1
 64
     7
176
     1
 65
   257
176
     1
 75
     1
176
     1
175
     1
176
     1
 42
1.0
176
     1
 92
        8
176
     1
 66
     7
176
     1
 43
1.0
176
     1
 76
     1
176
     1
 77
     6
176
     1
 78
     2
176
     1
 67
     7
176
     1
 79
     5
176
     1
170
     0
176
     1
171
     0
176
     1
290
     0
176
     1
 93
        1
176
     1
 44
0.0
176
     1
173
     0
176
     1
  0
VISUALSTYLE
  5
36
102
{ACAD_REACTORS
330
2A
102
}
330
2A
100
AcDbVisualStyle
  2
Brighten
 70
    12
177
     2
291
     1
 71
     2
176
     1
 72
     2
176
     1
 73
     0
176
     1
 90
        0
176
     1
 40
-0.6
176
     1
 41
-30.0
176
     1
 62
     5
 63
     7
421
 16777215
176
     1
 74
     1
176
     1
 91
        4
176
     1
 64
     7
176
     1
 65
   257
176
     1
 75
     1
176
     1
175
     1
176
     1
 42
1.0
176
     1
 92
        8
176
     1
 66
     7
176
     1
 43
1.0
176
     1
 76
     1
176
     1
 77
     6
176
     1
 78
     2
176
     1
 67
     7
176
     1
 79
     5
176
     1
170
     0
176
     1
171
     0
176
     1
290
     0
176
     1
 93
        1
176
     1
 44
50.0
176
     1
173
     0
176
     1
  0
VISUALSTYLE
  5
3A
102
{ACAD_REACTORS
330
2A
102
}
330
2A
100
AcDbVisualStyle
  2
ColorChange
 70
    16
177
     2
291
     1
 71
     2
176
     1
 72
     2
176
     1
 73
     3
176
     1
 90
        0
176
     1
 40
-0.6
176
     1
 41
-30.0
176
     1
 62
     5
 63
     8
421
  8421504
176
     1
 74
     1
176
     1
 91
        4
176
     1
 64
     7
176
     1
 65
   257
176
     1
 75
     1
176
     1
175
     1
176
     1
 42
1.0
176
     1
 92
        8
176
     1
 66
     8
424
  8421504
176
     1
 43
1.0
176
     1
 76
     1
176
     1
 77
     6
176
     1
 78
     2
176
     1
 67
     7
176
     1
 79
     5
176
     1
170
     0
176
     1
171
     0
176
     1
290
     0
176
     1
 93
        1
176
     1
 44
0.0
176
     1
173
     0
176
     1
  0
VISUALSTYLE
  5
34
102
{ACAD_REACTORS
330
2A
102
}
330
2A
100
AcDbVisualStyle
  2
Conceptual
 70
     9
177
     2
291
     0
 71
     3
176
     1
 72
     2
176
     1
 73
     0
176
     1
 90
        0
176
     1
 40
-0.6
176
     1
 41
-30.0
176
     1
 62
     5
 63
     7
421
 16777215
176
     1
 74
     2
176
     1
 91
        2
176
     1
 64
     7
176
     1
 65
   257
176
     1
 75
     1
176
     1
175
     1
176
     1
 42
40.0
176
     1
 92
        8
176
     1
 66
     7
176
     1
 43
1.0
176
     1
 76
     1
176
     1
 77
     6
176
     1
 78
     2
176
     1
 67
     7
176
     1
 79
     3
176
     1
170
     0
176
     1
171
     0
176
     1
290
     0
176
     1
 93
        1
176
     1
 44
0.0
176
     1
173
     0
176
     1
  0
VISUALSTYLE
  5
35
102
{ACAD_REACTORS
330
2A
102
}
330
2A
100
AcDbVisualStyle
  2
Dim
 70
    11
177
     2
291
     1
 71
     2
176
     1
 72
     2
176
     1
 73
     0
176
     1
 90
        0
176
     1
 40
-0.6
176
     1
 41
-30.0
176
     1
 62
     5
 63
     7
421
 16777215
176
     1
 74
     1
176
     1
 91
        4
176
     1
 64
     7
176
     1
 65
   257
176
     1
 75
     1
176
     1
175
     1
176
     1
 42
1.0
176
     1
 92
        8
176
     1
 66
     7
176
     1
 43
1.0
176
     1
 76
     1
176
     1
 77
     6
176
     1
 78
     2
176
     1
 67
     7
176
     1
 79
     5
176
     1
170
     0
176
     1
171
     0
176
     1
290
     0
176
     1
 93
        1
176
     1
 44
-50.0
176
     1
173
     0
176
     1
  0
VISUALSTYLE
  5
39
102
{ACAD_REACTORS
330
2A
102
}
330
2A
100
AcDbVisualStyle
  2
Facepattern
 70
    15
177
     2
291
     1
 71
     2
176
     1
 72
     2
176
     1
 73
     0
176
     1
 90
        0
176
     1
 40
-0.6
176
     1
 41
-30.0
176
     1
 62
     5
 63
     7
421
 16777215
176
     1
 74
     1
176
     1
 91
        4
176
     1
 64
     7
176
     1
 65
   257
176
     1
 75
     1
176
     1
175
     1
176
     1
 42
1.0
176
     1
 92
        8
176
     1
 66
     7
176
     1
 43
1.0
176
     1
 76
     1
176
     1
 77
     6
176
     1
 78
     2
176
     1
 67
     7
176
     1
 79
     5
176
     1
170
     0
176
     1
171
     0
176
     1
290
     0
176
     1
 93
        1
176
     1
 44
0.0
176
     1
173
     0
176
     1
  0
VISUALSTYLE
  5
2B
102
{ACAD_REACTORS
330
2A
102
}
330
2A
100
AcDbVisualStyle
  2
Flat
 70
     0
177
     2
291
     1
 71
     2
176
     1
 72
     1
176
     1
 73
     1
176
     1
 90
        2
176
     1
 40
-0.6
176
     1
 41
30.0
176
     1
 62
     5
 63
     7
421
 16777215
176
     1
 74
     0
176
     1
 91
        4
176
     1
 64
     7
176
     1
 65
   257
176
     1
 75
     1
176
     1
175
     1
176
     1
 42
1.0
176
     1
 92
        8
176
     1
 66
     7
176
     1
 43
1.0
176
     1
 76
     1
176
     1
 77
     6
176
     1
 78
     2
176
     1
 67
     7
176
     1
 79
     5
176
     1
170
     0
176
     1
171
     0
176
     1
290
     0
176
     1
 93
       13
176
     1
 44
0.0
176
     1
173
     0
176
     1
  0
VISUALSTYLE
  5
2C
102
{ACAD_REACTORS
330
2A
102
}
330
2A
100
AcDbVisualStyle
  2
FlatWithEdges
 70
     1
177
     2
291
     1
 71
     2
176
     1
 72
     1
176
     1
 73
     1
176
     1
 90
        2
176
     1
 40
-0.6
176
     1
 41
30.0
176
     1
 62
     5
 63
     7
421
 16777215
176
     1
 74
     1
176
     1
 91
        4
176
     1
 64
     7
176
     1
 65
   257
176
     1
 75
     1
176
     1
175
     1
176
     1
 42
1.0
176
     1
 92
        0
176
     1
 66
   257
176
     1
 43
1.0
176
     1
 76
     1
176
     1
 77
     6
176
     1
 78
     2
176
     1
 67
     7
176
     1
 79
     5
176
     1
170
     0
176
     1
171
     0
176
     1
290
     0
176
     1
 93
       13
176
     1
 44
0.0
176
     1
173
     0
176
     1
  0
VISUALSTYLE
  5
2D
102
{ACAD_REACTORS
330
2A
102
}
330
2A
100
AcDbVisualStyle
  2
Gouraud
 70
     2
177
     2
291
     1
 71
     2
176
     1
 72
     2
176
     1
 73
     1
176
     1
 90
        2
176
     1
 40
-0.6
176
     1
 41
30.0
176
     1
 62
     5
 63
     7
421
 16777215
176
     1
 74
     0
176
     1
 91
        4
176
     1
 64
     7
176
     1
 65
   257
176
     1
 75
     1
176
     1
175
     1
176
     1
 42
1.0
176
     1
 92
        0
176
     1
 66
     7
176
     1
 43
1.0
176
     1
 76
     1
176
     1
 77
     6
176
     1
 78
     2
176
     1
 67
     7
176
     1
 79
     5
176
     1
170
     0
176
     1
171
     0
176
     1
290
     0
176
     1
 93
       13
176
     1
 44
0.0
176
     1
173
     0
176
     1
  0
VISUALSTYLE
  5
2E
102
{ACAD_REACTORS
330
2A
102
}
330
2A
100
AcDbVisualStyle
  2
GouraudWithEdges
 70
     3
177
     2
291
     1
 71
     2
176
     1
 72
     2
176
     1
 73
     1
176
     1
 90
        2
176
     1
 40
-0.6
176
     1
 41
30.0
176
     1
 62
     5
 63
     7
421
 16777215
176
     1
 74
     1
176
     1
 91
        4
176
     1
 64
     7
176
     1
 65
   257
176
     1
 75
     1
176
     1
175
     1
176
     1
 42
1.0
176
     1
 92
        0
176
     1
 66
   257
176
     1
 43
1.0
176
     1
 76
     1
176
     1
 77
     6
176
     1
 78
     2
176
     1
 67
     7
176
     1
 79
     5
176
     1
170
     0
176
     1
171
     0
176
     1
290
     0
176
     1
 93
       13
176
     1
 44
0.0
176
     1
173
     0
176
     1
  0
VISUALSTYLE
  5
38
102
{ACAD_REACTORS
330
2A
102
}
330
2A
100
AcDbVisualStyle
  2
Linepattern
 70
    14
177
     2
291
     1
 71
     2
176
     1
 72
     2
176
     1
 73
     0
176
     1
 90
        0
176
     1
 40
-0.6
176
     1
 41
-30.0
176
     1
 62
     5
 63
     7
421
 16777215
176
     1
 74
     1
176
     1
 91
        4
176
     1
 64
     7
176
     1
 65
   257
176
     1
 75
     7
176
     1
175
     7
176
     1
 42
1.0
176
     1
 92
        8
176
     1
 66
     7
176
     1
 43
1.0
176
     1
 76
     1
176
     1
 77
     6
176
     1
 78
     2
176
     1
 67
     7
176
     1
 79
     5
176
     1
170
     0
176
     1
171
     0
176
     1
290
     0
176
     1
 93
        1
176
     1
 44
0.0
176
     1
173
     0
176
     1
  0
VISUALSTYLE
  5
33
102
{ACAD_REACTORS
330
2A
102
}
330
2A
100
AcDbVisualStyle
  2
Realistic
 70
     8
177
     2
291
     0
 71
     2
176
     1
 72
     2
176
     1
 73
     0
176
     1
 90
        0
176
     1
 40
-0.6
176
     1
 41
-30.0
176
     1
 62
     5
 63
     7
421
 16777215
176
     1
 74
     1
176
     1
 91
        0
176
     1
 64
     7
176
     1
 65
   257
176
     1
 75
     1
176
     1
175
     1
176
     1
 42
1.0
176
     1
 92
        8
176
     1
 66
     8
424
  7895160
176
     1
 43
1.0
176
     1
 76
     1
176
     1
 77
     6
176
     1
 78
     2
176
     1
 67
     7
176
     1
 79
     5
176
     1
170
     0
176
     1
171
     0
176
     1
290
     0
176
     1
 93
       13
176
     1
 44
0.0
176
     1
173
     0
176
     1
  0
VISUALSTYLE
  5
37
102
{ACAD_REACTORS
330
2A
102
}
330
2A
100
AcDbVisualStyle
  2
Thicken
 70
    13
177
     2
291
     1
 71
     2
176
     1
 72
     2
176
     1
 73
     0
176
     1
 90
        0
176
     1
 40
-0.6
176
     1
 41
-30.0
176
     1
 62
     5
 63
     7
421
 16777215
176
     1
 74
     1
176
     1
 91
        4
176
     1
 64
     7
176
     1
 65
   257
176
     1
 75
     1
176
     1
175
     1
176
     1
 42
1.0
176
     1
 92
       12
176
     1
 66
     7
176
     1
 43
1.0
176
     1
 76
     1
176
     1
 77
     6
176
     1
 78
     2
176
     1
 67
     7
176
     1
 79
     5
176
     1
170
     0
176
     1
171
     0
176
     1
290
     0
176
     1
 93
        1
176
     1
 44
0.0
176
     1
173
     0
176
     1
  0
ENDSEC
  0
EOF
