  0
SECTION
  2
HEADER
  9
$ACADVER
  1
AC1024
  9
$ACADMAINTVER
 70
   226
  9
$DWGCODEPAGE
  3
ANSI_932
  9
$INSBASE
 10
0.0
 20
0.0
 30
0.0
  9
$EXTMIN
 10
1.000000000000000E+20
 20
1.000000000000000E+20
 30
1.000000000000000E+20
  9
$EXTMAX
 10
-1.000000000000000E+20
 20
-1.000000000000000E+20
 30
-1.000000000000000E+20
  9
$LIMMIN
 10
0.0
 20
0.0
  9
$LIMMAX
 10
12.0
 20
9.0
  9
$ORTHOMODE
 70
     0
  9
$REGENMODE
 70
     1
  9
$FILLMODE
 70
     1
  9
$QTEXTMODE
 70
     0
  9
$MIRRTEXT
 70
     0
  9
$LTSCALE
 40
1.0
  9
$ATTMODE
 70
     1
  9
$TEXTSIZE
 40
0.2
  9
$TRACEWID
 40
0.05
  9
$TEXTSTYLE
  7
Standard
  9
$CLAYER
  8
0
  9
$CELTYPE
  6
ByLayer
  9
$CECOLOR
 62
   256
  9
$CELTSCALE
 40
1.0
  9
$DISPSILH
 70
     0
  9
$DIMSCALE
 40
1.0
  9
$DIMASZ
 40
0.18
  9
$DIMEXO
 40
0.0625
  9
$DIMDLI
 40
0.38
  9
$DIMRND
 40
0.0
  9
$DIMDLE
 40
0.0
  9
$DIMEXE
 40
0.18
  9
$DIMTP
 40
0.0
  9
$DIMTM
 40
0.0
  9
$DIMTXT
 40
0.18
  9
$DIMCEN
 40
0.09
  9
$DIMTSZ
 40
0.0
  9
$DIMTOL
 70
     0
  9
$DIMLIM
 70
     0
  9
$DIMTIH
 70
     1
  9
$DIMTOH
 70
     1
  9
$DIMSE1
 70
     0
  9
$DIMSE2
 70
     0
  9
$DIMTAD
 70
     0
  9
$DIMZIN
 70
     0
  9
$DIMBLK
  1

  9
$DIMASO
 70
     1
  9
$DIMSHO
 70
     1
  9
$DIMPOST
  1

  9
$DIMAPOST
  1

  9
$DIMALT
 70
     0
  9
$DIMALTD
 70
     2
  9
$DIMALTF
 40
25.4
  9
$DIMLFAC
 40
1.0
  9
$DIMTOFL
 70
     0
  9
$DIMTVP
 40
0.0
  9
$DIMTIX
 70
     0
  9
$DIMSOXD
 70
     0
  9
$DIMSAH
 70
     0
  9
$DIMBLK1
  1

  9
$DIMBLK2
  1

  9
$DIMSTYLE
  2
Standard
  9
$DIMCLRD
 70
     0
  9
$DIMCLRE
 70
     0
  9
$DIMCLRT
 70
     0
  9
$DIMTFAC
 40
1.0
  9
$DIMGAP
 40
0.09
  9
$DIMJUST
 70
     0
  9
$DIMSD1
 70
     0
  9
$DIMSD2
 70
     0
  9
$DIMTOLJ
 70
     1
  9
$DIMTZIN
 70
     0
  9
$DIMALTZ
 70
     0
  9
$DIMALTTZ
 70
     0
  9
$DIMUPT
 70
     0
  9
$DIMDEC
 70
     4
  9
$DIMTDEC
 70
     4
  9
$DIMALTU
 70
     2
  9
$DIMALTTD
 70
     2
  9
$DIMTXSTY
  7
Standard
  9
$DIMAUNIT
 70
     0
  9
$DIMADEC
 70
     0
  9
$DIMALTRND
 40
0.0
  9
$DIMAZIN
 70
     0
  9
$DIMDSEP
 70
    46
  9
$DIMATFIT
 70
     3
  9
$DIMFRAC
 70
     0
  9
$DIMLDRBLK
  1

  9
$DIMLUNIT
 70
     2
  9
$DIMLWD
 70
    -2
  9
$DIMLWE
 70
    -2
  9
$DIMTMOVE
 70
     0
  9
$DIMFXL
 40
1.0
  9
$DIMFXLON
 70
     0
  9
$DIMJOGANG
 40
0.7853981633974483
  9
$DIMTFILL
 70
     0
  9
$DIMTFILLCLR
 70
     0
  9
$DIMARCSYM
 70
     0
  9
$DIMLTYPE
  6

  9
$DIMLTEX1
  6

  9
$DIMLTEX2
  6

  9
$DIMTXTDIRECTION
 70
     0
  9
$LUNITS
 70
     2
  9
$LUPREC
 70
     4
  9
$SKETCHINC
 40
0.1
  9
$FILLETRAD
 40
0.0
  9
$AUNITS
 70
     0
  9
$AUPREC
 70
     0
  9
$MENU
  1
.
  9
$ELEVATION
 40
0.0
  9
$PELEVATION
 40
0.0
  9
$THICKNESS
 40
0.0
  9
$LIMCHECK
 70
     0
  9
$CHAMFERA
 40
0.0
  9
$CHAMFERB
 40
0.0
  9
$CHAMFERC
 40
0.0
  9
$CHAMFERD
 40
0.0
  9
$SKPOLY
 70
     0
  9
$TDCREATE
 40
2459569.503321759
  9
$TDUCREATE
 40
2459569.128321760
  9
$TDUPDATE
 40
2459569.503321759
  9
$TDUUPDATE
 40
2459569.128321760
  9
$TDINDWG
 40
0.0000000000
  9
$TDUSRTIMER
 40
0.0000000000
  9
$USRTIMER
 70
     1
  9
$ANGBASE
 50
0.0
  9
$ANGDIR
 70
     0
  9
$PDMODE
 70
     0
  9
$PDSIZE
 40
0.0
  9
$PLINEWID
 40
0.0
  9
$SPLFRAME
 70
     0
  9
$SPLINETYPE
 70
     6
  9
$SPLINESEGS
 70
     8
  9
$HANDSEED
  5
195
  9
$SURFTAB1
 70
     6
  9
$SURFTAB2
 70
     6
  9
$SURFTYPE
 70
     6
  9
$SURFU
 70
     6
  9
$SURFV
 70
     6
  9
$UCSBASE
  2

  9
$UCSNAME
  2

  9
$UCSORG
 10
0.0
 20
0.0
 30
0.0
  9
$UCSXDIR
 10
1.0
 20
0.0
 30
0.0
  9
$UCSYDIR
 10
0.0
 20
1.0
 30
0.0
  9
$UCSORTHOREF
  2

  9
$UCSORTHOVIEW
 70
     0
  9
$UCSORGTOP
 10
0.0
 20
0.0
 30
0.0
  9
$UCSORGBOTTOM
 10
0.0
 20
0.0
 30
0.0
  9
$UCSORGLEFT
 10
0.0
 20
0.0
 30
0.0
  9
$UCSORGRIGHT
 10
0.0
 20
0.0
 30
0.0
  9
$UCSORGFRONT
 10
0.0
 20
0.0
 30
0.0
  9
$UCSORGBACK
 10
0.0
 20
0.0
 30
0.0
  9
$PUCSBASE
  2

  9
$PUCSNAME
  2

  9
$PUCSORG
 10
0.0
 20
0.0
 30
0.0
  9
$PUCSXDIR
 10
1.0
 20
0.0
 30
0.0
  9
$PUCSYDIR
 10
0.0
 20
1.0
 30
0.0
  9
$PUCSORTHOREF
  2

  9
$PUCSORTHOVIEW
 70
     0
  9
$PUCSORGTOP
 10
0.0
 20
0.0
 30
0.0
  9
$PUCSORGBOTTOM
 10
0.0
 20
0.0
 30
0.0
  9
$PUCSORGLEFT
 10
0.0
 20
0.0
 30
0.0
  9
$PUCSORGRIGHT
 10
0.0
 20
0.0
 30
0.0
  9
$PUCSORGFRONT
 10
0.0
 20
0.0
 30
0.0
  9
$PUCSORGBACK
 10
0.0
 20
0.0
 30
0.0
  9
$USERI1
 70
     0
  9
$USERI2
 70
     0
  9
$USERI3
 70
     0
  9
$USERI4
 70
     0
  9
$USERI5
 70
     0
  9
$USERR1
 40
0.0
  9
$USERR2
 40
0.0
  9
$USERR3
 40
0.0
  9
$USERR4
 40
0.0
  9
$USERR5
 40
0.0
  9
$WORLDVIEW
 70
     1
  9
$SHADEDGE
 70
     3
  9
$SHADEDIF
 70
    70
  9
$TILEMODE
 70
     1
  9
$MAXACTVP
 70
    64
  9
$PINSBASE
 10
0.0
 20
0.0
 30
0.0
  9
$PLIMCHECK
 70
     0
  9
$PEXTMIN
 10
1.000000000000000E+20
 20
1.000000000000000E+20
 30
1.000000000000000E+20
  9
$PEXTMAX
 10
-1.000000000000000E+20
 20
-1.000000000000000E+20
 30
-1.000000000000000E+20
  9
$PLIMMIN
 10
0.0
 20
0.0
  9
$PLIMMAX
 10
12.0
 20
9.0
  9
$UNITMODE
 70
     0
  9
$VISRETAIN
 70
     1
  9
$PLINEGEN
 70
     0
  9
$PSLTSCALE
 70
     1
  9
$TREEDEPTH
 70
  3020
  9
$CMLSTYLE
  2
Standard
  9
$CMLJUST
 70
     0
  9
$CMLSCALE
 40
1.0
  9
$PROXYGRAPHICS
 70
     1
  9
$MEASUREMENT
 70
     0
  9
$CELWEIGHT
370
    -1
  9
$ENDCAPS
280
     0
  9
$JOINSTYLE
280
     0
  9
$LWDISPLAY
290
     1
  9
$INSUNITS
 70
     4
  9
$HYPERLINKBASE
  1

  9
$STYLESHEET
  1

  9
$XEDIT
290
     1
  9
$CEPSNTYPE
380
     0
  9
$PSTYLEMODE
290
     1
  9
$FINGERPRINTGUID
  2
{88E5CB46-2D56-F54E-8BDF-B287C08DFFCC}
  9
$VERSIONGUID
  2
{C1260378-6665-B94D-AE8E-AD82DA1E864D}
  9
$EXTNAMES
290
     1
  9
$PSVPSCALE
 40
0.0
  9
$OLESTARTUP
290
     0
  9
$SORTENTS
280
   127
  9
$INDEXCTL
280
     0
  9
$HIDETEXT
280
     1
  9
$XCLIPFRAME
280
     2
  9
$HALOGAP
280
     0
  9
$OBSCOLOR
 70
   257
  9
$OBSLTYPE
280
     0
  9
$INTERSECTIONDISPLAY
280
     0
  9
$INTERSECTIONCOLOR
 70
   257
  9
$DIMASSOC
280
     2
  9
$PROJECTNAME
  1

  9
$CAMERADISPLAY
290
     0
  9
$LENSLENGTH
 40
50.0
  9
$CAMERAHEIGHT
 40
0.0
  9
$STEPSPERSEC
 40
2.0
  9
$STEPSIZE
 40
6.0
  9
$3DDWFPREC
 40
2.0
  9
$PSOLWIDTH
 40
0.25
  9
$PSOLHEIGHT
 40
4.0
  9
$LOFTANG1
 40
1.570796326794896
  9
$LOFTANG2
 40
1.570796326794896
  9
$LOFTMAG1
 40
0.0
  9
$LOFTMAG2
 40
0.0
  9
$LOFTPARAM
 70
     7
  9
$LOFTNORMALS
280
     1
  9
$LATITUDE
 40
37.795
  9
$LONGITUDE
 40
-122.394
  9
$NORTHDIRECTION
 40
0.0
  9
$TIMEZONE
 70
 -8000
  9
$LIGHTGLYPHDISPLAY
280
     1
  9
$TILEMODELIGHTSYNCH
280
     1
  9
$CMATERIAL
347
11
  9
$SOLIDHIST
280
     0
  9
$SHOWHIST
280
     1
  9
$DWFFRAME
280
     2
  9
$DGNFRAME
280
     0
  9
$REALWORLDSCALE
290
     1
  9
$INTERFERECOLOR
 62
     1
  9
$INTERFEREOBJVS
345
33
  9
$INTERFEREVPVS
346
30
  9
$CSHADOW
280
     0
  9
$SHADOWPLANELOCATION
 40
0.0
  0
ENDSEC
  0
SECTION
  2
CLASSES
  0
CLASS
  1
ACDBDICTIONARYWDFLT
  2
AcDbDictionaryWithDefault
  3
ObjectDBX Classes
 90
        0
 91
        1
280
     0
281
     0
  0
CLASS
  1
MATERIAL
  2
AcDbMaterial
  3
ObjectDBX Classes
 90
     1153
 91
        3
280
     0
281
     0
  0
CLASS
  1
VISUALSTYLE
  2
AcDbVisualStyle
  3
ObjectDBX Classes
 90
     4095
 91
       24
280
     0
281
     0
  0
CLASS
  1
SCALE
  2
AcDbScale
  3
ObjectDBX Classes
 90
     1153
 91
       17
280
     0
281
     0
  0
CLASS
  1
TABLESTYLE
  2
AcDbTableStyle
  3
ObjectDBX Classes
 90
     4095
 91
        1
280
     0
281
     0
  0
CLASS
  1
MLEADERSTYLE
  2
AcDbMLeaderStyle
  3
ACDB_MLEADERSTYLE_CLASS
 90
     4095
 91
        1
280
     0
281
     0
  0
CLASS
  1
ACDBSECTIONVIEWSTYLE
  2
AcDbSectionViewStyle
  3
ObjectDBX Classes
 90
     1025
 91
        1
280
     0
281
     0
  0
CLASS
  1
ACDBDETAILVIEWSTYLE
  2
AcDbDetailViewStyle
  3
ObjectDBX Classes
 90
     1025
 91
        1
280
     0
281
     0
  0
CLASS
  1
DICTIONARYVAR
  2
AcDbDictionaryVar
  3
ObjectDBX Classes
 90
        0
 91
        5
280
     0
281
     0
  0
CLASS
  1
CELLSTYLEMAP
  2
AcDbCellStyleMap
  3
ObjectDBX Classes
 90
     1152
 91
        1
280
     0
281
     0
  0
ENDSEC
  0
SECTION
  2
TABLES
  0
TABLE
  2
VPORT
  5
8
330
0
100
AcDbSymbolTable
 70
     1
  0
VPORT
  5
57
330
8
100
AcDbSymbolTableRecord
100
AcDbViewportTableRecord
  2
*Active
 70
     0
 10
0.0
 20
0.0
 11
1.0
 21
1.0
 12
0.0
 22
0.0
 13
0.0
 23
0.0
 14
1.0
 24
1.0
 15
0.0
 25
0.0
 16
0.0
 26
0.0
 36
1.0
 17
104.9999999737534
 27
-148.4999999628701
 37
0.0
 40
302.939999924255
 41
0.7070707070707534
 42
50.0
 43
0.0
 44
0.0
 50
0.0
 51
0.0
 71
     0
 72
   100
 73
     1
 74
     0
 75
     1
 76
     0
 77
     0
 78
     0
281
     0
 65
     1
110
0.0
120
0.0
130
0.0
111
1.0
121
0.0
131
0.0
112
0.0
122
1.0
132
0.0
 79
     0
146
0.0
 60
     3
 61
     5
292
     1
282
     1
141
0.0
142
0.0
 63
   250
421
  3355443
  0
ENDTAB
  0
TABLE
  2
LTYPE
  5
5
330
0
100
AcDbSymbolTable
 70
     2
  0
LTYPE
  5
5B
330
5
100
AcDbSymbolTableRecord
100
AcDbLinetypeTableRecord
  2
ByBlock
 70
     0
  3

 72
    65
 73
     0
 40
0.0
  0
LTYPE
  5
5C
330
5
100
AcDbSymbolTableRecord
100
AcDbLinetypeTableRecord
  2
ByLayer
 70
     0
  3

 72
    65
 73
     0
 40
0.0
  0
LTYPE
  5
5D
330
5
100
AcDbSymbolTableRecord
100
AcDbLinetypeTableRecord
  2
Continuous
 70
     0
  3
Solid line
 72
    65
 73
     0
 40
0.0
  0
LTYPE
  5
B1
330
5
100
AcDbSymbolTableRecord
100
AcDbLinetypeTableRecord
  2
AI-Linetype-0
 70
     0
  3
Adobe Illustrator Linetype No. 0
 72
    65
 73
     2
 40
1.411111110758333
 49
0.7055555553791667
 74
     0
 49
-0.7055555553791667
 74
     0
  0
ENDTAB
  0
TABLE
  2
LAYER
  5
2
330
0
100
AcDbSymbolTable
 70
     2
  0
LAYER
  5
54
330
2
100
AcDbSymbolTableRecord
100
AcDbLayerTableRecord
  2
0
 70
     0
 62
     7
  6
Continuous
370
    -3
390
F
347
21
  0
LAYER
  5
78
330
2
100
AcDbSymbolTableRecord
100
AcDbLayerTableRecord
  2
レイヤー 1
 70
     0
 62
     7
  6
Continuous
370
     0
390
F
347
21
  0
ENDTAB
  0
TABLE
  2
STYLE
  5
3
330
0
100
AcDbSymbolTable
 70
     2
  0
STYLE
  5
55
330
3
100
AcDbSymbolTableRecord
100
AcDbTextStyleTableRecord
  2
Standard
 70
     0
 40
0.0
 41
1.0
 50
0.0
 71
     0
 42
0.2
  3
txt
  4

  0
STYLE
  5
5A
330
3
100
AcDbSymbolTableRecord
100
AcDbTextStyleTableRecord
  2
Annotative
 70
     0
 40
0.0
 41
1.0
 50
0.0
 71
     0
 42
0.2
  3
txt
  4

1001
AcadAnnotative
1000
AnnotativeData
1002
{
1070
     1
1070
     1
1002
}
  0
ENDTAB
  0
TABLE
  2
VIEW
  5
6
330
0
100
AcDbSymbolTable
 70
     0
  0
ENDTAB
  0
TABLE
  2
UCS
  5
7
330
0
100
AcDbSymbolTable
 70
     0
  0
ENDTAB
  0
TABLE
  2
APPID
  5
9
330
0
100
AcDbSymbolTable
 70
     2
  0
APPID
  5
56
330
9
100
AcDbSymbolTableRecord
100
AcDbRegAppTableRecord
  2
ACAD
 70
     0
  0
APPID
  5
5E
330
9
100
AcDbSymbolTableRecord
100
AcDbRegAppTableRecord
  2
AcadAnnotative
 70
     0
  0
ENDTAB
  0
TABLE
  2
DIMSTYLE
  5
A
330
0
100
AcDbSymbolTable
 70
     2
100
AcDbDimStyleTable
 71
     0
  0
DIMSTYLE
105
58
330
A
100
AcDbSymbolTableRecord
100
AcDbDimStyleTableRecord
  2
Standard
 70
     0
340
55
  0
DIMSTYLE
105
59
330
A
100
AcDbSymbolTableRecord
100
AcDbDimStyleTableRecord
  2
Annotative
 70
     0
340
55
1001
AcadAnnotative
1000
AnnotativeData
1002
{
1070
     1
1070
     1
1002
}
  0
ENDTAB
  0
TABLE
  2
BLOCK_RECORD
  5
1
330
0
100
AcDbSymbolTable
 70
    18
  0
BLOCK_RECORD
  5
70
330
1
100
AcDbSymbolTableRecord
100
AcDbBlockTableRecord
  2
*Model_Space
340
73
 70
     0
280
     1
281
     0
  0
BLOCK_RECORD
  5
6C
330
1
100
AcDbSymbolTableRecord
100
AcDbBlockTableRecord
  2
*Paper_Space
340
6F
 70
     0
280
     1
281
     0
  0
BLOCK_RECORD
  5
74
330
1
100
AcDbSymbolTableRecord
100
AcDbBlockTableRecord
  2
*Paper_Space0
340
77
 70
     0
280
     1
281
     0
  0
BLOCK_RECORD
  5
79
330
1
100
AcDbSymbolTableRecord
100
AcDbBlockTableRecord
  2
Block_0
340
0
102
{BLKREFS
331
7A
102
}
 70
     0
280
     1
281
     0
  0
BLOCK_RECORD
  5
7D
330
1
100
AcDbSymbolTableRecord
100
AcDbBlockTableRecord
  2
Block_1
340
0
102
{BLKREFS
331
7E
102
}
 70
     0
280
     1
281
     0
  0
BLOCK_RECORD
  5
82
330
1
100
AcDbSymbolTableRecord
100
AcDbBlockTableRecord
  2
Block_2
340
0
102
{BLKREFS
331
83
102
}
 70
     0
280
     1
281
     0
  0
BLOCK_RECORD
  5
A7
330
1
100
AcDbSymbolTableRecord
100
AcDbBlockTableRecord
  2
Block_3
340
0
102
{BLKREFS
331
A8
102
}
 70
     0
280
     1
281
     0
  0
BLOCK_RECORD
  5
AC
330
1
100
AcDbSymbolTableRecord
100
AcDbBlockTableRecord
  2
Block_4
340
0
102
{BLKREFS
331
AD
102
}
 70
     0
280
     1
281
     0
  0
BLOCK_RECORD
  5
EE
330
1
100
AcDbSymbolTableRecord
100
AcDbBlockTableRecord
  2
Block_5
340
0
102
{BLKREFS
331
EF
102
}
 70
     0
280
     1
281
     0
  0
BLOCK_RECORD
  5
F7
330
1
100
AcDbSymbolTableRecord
100
AcDbBlockTableRecord
  2
Block_6
340
0
102
{BLKREFS
331
F8
102
}
 70
     0
280
     1
281
     0
  0
BLOCK_RECORD
  5
102
330
1
100
AcDbSymbolTableRecord
100
AcDbBlockTableRecord
  2
Block_7
340
0
102
{BLKREFS
331
103
102
}
 70
     0
280
     1
281
     0
  0
BLOCK_RECORD
  5
106
330
1
100
AcDbSymbolTableRecord
100
AcDbBlockTableRecord
  2
Block_8
340
0
102
{BLKREFS
331
107
102
}
 70
     0
280
     1
281
     0
  0
BLOCK_RECORD
  5
113
330
1
100
AcDbSymbolTableRecord
100
AcDbBlockTableRecord
  2
Block_9
340
0
102
{BLKREFS
331
114
102
}
 70
     0
280
     1
281
     0
  0
BLOCK_RECORD
  5
117
330
1
100
AcDbSymbolTableRecord
100
AcDbBlockTableRecord
  2
Block_10
340
0
102
{BLKREFS
331
118
102
}
 70
     0
280
     1
281
     0
  0
BLOCK_RECORD
  5
121
330
1
100
AcDbSymbolTableRecord
100
AcDbBlockTableRecord
  2
Block_11
340
0
102
{BLKREFS
331
122
102
}
 70
     0
280
     1
281
     0
  0
BLOCK_RECORD
  5
12A
330
1
100
AcDbSymbolTableRecord
100
AcDbBlockTableRecord
  2
Block_12
340
0
102
{BLKREFS
331
12B
102
}
 70
     0
280
     1
281
     0
  0
BLOCK_RECORD
  5
130
330
1
100
AcDbSymbolTableRecord
100
AcDbBlockTableRecord
  2
Block_13
340
0
102
{BLKREFS
331
131
102
}
 70
     0
280
     1
281
     0
  0
BLOCK_RECORD
  5
134
330
1
100
AcDbSymbolTableRecord
100
AcDbBlockTableRecord
  2
Block_14
340
0
102
{BLKREFS
331
135
102
}
 70
     0
280
     1
281
     0
  0
BLOCK_RECORD
  5
13B
330
1
100
AcDbSymbolTableRecord
100
AcDbBlockTableRecord
  2
Block_15
340
0
102
{BLKREFS
331
13C
102
}
 70
     0
280
     1
281
     0
  0
BLOCK_RECORD
  5
13F
330
1
100
AcDbSymbolTableRecord
100
AcDbBlockTableRecord
  2
Block_16
340
0
102
{BLKREFS
331
140
102
}
 70
     0
280
     1
281
     0
  0
ENDTAB
  0
ENDSEC
  0
SECTION
  2
BLOCKS
  0
BLOCK
  5
71
330
70
100
AcDbEntity
  8
0
100
AcDbBlockBegin
  2
*Model_Space
 70
     0
 10
0.0
 20
0.0
 30
0.0
  3
*Model_Space
  1

  0
ENDBLK
  5
72
330
70
100
AcDbEntity
  8
0
100
AcDbBlockEnd
  0
BLOCK
  5
6D
330
6C
100
AcDbEntity
 67
     1
  8
0
100
AcDbBlockBegin
  2
*Paper_Space
 70
     0
 10
0.0
 20
0.0
 30
0.0
  3
*Paper_Space
  1

  0
ENDBLK
  5
6E
330
6C
100
AcDbEntity
 67
     1
  8
0
100
AcDbBlockEnd
  0
BLOCK
  5
75
330
74
100
AcDbEntity
 67
     1
  8
0
100
AcDbBlockBegin
  2
*Paper_Space0
 70
     0
 10
0.0
 20
0.0
 30
0.0
  3
*Paper_Space0
  1

  0
ENDBLK
  5
76
330
74
100
AcDbEntity
 67
     1
  8
0
100
AcDbBlockEnd
  0
BLOCK
  5
7B
330
79
100
AcDbEntity
  8
0
100
AcDbBlockBegin
  2
Block_0
 70
     0
 10
0.0
 20
0.0
 30
0.0
  3
Block_0
  1

  0
INSERT
  5
7E
330
79
100
AcDbEntity
  8
レイヤー 1
100
AcDbBlockReference
  2
Block_1
 10
0.0
 20
0.0
 30
0.0
  0
LINE
  5
A6
330
79
100
AcDbEntity
  8
レイヤー 1
 62
   250
420
  2299925
370
     9
100
AcDbLine
 10
132.1766727202448
 20
-148.3838574369833
 30
0.0
 11
123.1036871183826
 21
-152.1366016027115
 31
0.0
  0
ENDBLK
  5
7C
330
79
100
AcDbEntity
  8
0
100
AcDbBlockEnd
  0
BLOCK
  5
7F
330
7D
100
AcDbEntity
  8
0
100
AcDbBlockBegin
  2
Block_1
 70
     0
 10
0.0
 20
0.0
 30
0.0
  3
Block_1
  1

  0
LINE
  5
81
330
7D
100
AcDbEntity
  8
レイヤー 1
 62
   250
420
  2299925
370
     9
100
AcDbLine
 10
122.1590188091498
 20
-154.3652046577101
 30
0.0
 11
123.4895201640947
 21
-155.0731943797555
 31
0.0
  0
INSERT
  5
83
330
7D
100
AcDbEntity
  8
レイヤー 1
100
AcDbBlockReference
  2
Block_2
 10
0.0
 20
0.0
 30
0.0
  0
ENDBLK
  5
80
330
7D
100
AcDbEntity
  8
0
100
AcDbBlockEnd
  0
BLOCK
  5
84
330
82
100
AcDbEntity
  8
0
100
AcDbBlockBegin
  2
Block_2
 70
     0
 10
0.0
 20
0.0
 30
0.0
  3
Block_2
  1

  0
LWPOLYLINE
  5
86
330
82
100
AcDbEntity
  8
レイヤー 1
 62
   250
420
  2299925
370
     9
100
AcDbPolyline
 90
        5
 70
     0
 43
0.0
 10
116.5504167300149
 20
-149.1868854923379
 10
122.1397218651976
 20
-151.8572016027815
 10
122.0336415901262
 20
-154.4568563243538
 10
123.7382637688599
 20
-155.3515360463528
 10
132.8794765912037
 20
-151.5802004917396
  0
LINE
  5
87
330
82
100
AcDbEntity
  8
レイヤー 1
 62
   250
420
  2299925
370
     9
100
AcDbLine
 10
125.8053298272357
 20
-145.2725691044276
 30
0.0
 11
116.5504167300149
 21
-149.1868854923379
 31
0.0
  0
LINE
  5
88
330
82
100
AcDbEntity
  8
レイヤー 1
 62
   250
420
  2299925
370
     9
100
AcDbLine
 10
122.8887043460895
 20
-152.0318618805157
 30
0.0
 11
131.58206579097
 21
-148.45585938141
 31
0.0
  0
LINE
  5
89
330
82
100
AcDbEntity
  8
レイヤー 1
 62
   250
420
  2299925
370
     9
100
AcDbLine
 10
123.4984807194217
 20
-155.0818021575311
 30
0.0
 11
122.8887043460895
 21
-152.0539104916213
 31
0.0
  0
LINE
  5
8A
330
82
100
AcDbEntity
  8
レイヤー 1
 62
   250
420
  2299925
370
     9
100
AcDbLine
 10
123.0981485074128
 20
-152.1531116027074
 30
0.0
 11
123.6741993260499
 21
-155.2664460463739
 31
0.0
  0
LINE
  5
8B
330
82
100
AcDbEntity
  8
レイヤー 1
 62
   250
420
  2299925
370
     9
100
AcDbLine
 10
122.176269642043
 20
-154.3655574354879
 30
0.0
 11
123.2690340586087
 21
-154.0520438244553
 31
0.0
  0
LINE
  5
8C
330
82
100
AcDbEntity
  8
レイヤー 1
 62
   250
420
  2299925
370
     9
100
AcDbLine
 10
122.2892674883601
 20
-151.8147977139035
 30
0.0
 11
122.1514693648979
 21
-154.3655574354879
 31
0.0
  0
LINE
  5
8D
330
82
100
AcDbEntity
  8
レイヤー 1
 62
   250
420
  2299925
370
     9
100
AcDbLine
 10
131.6220355121725
 20
-147.8936021593281
 30
0.0
 11
122.2961435278737
 21
-151.8327188250097
 31
0.0
  0
SPLINE
  5
8E
330
82
100
AcDbEntity
  8
レイヤー 1
 62
   250
420
  2299925
370
     9
100
AcDbSpline
210
0.0
220
0.0
230
1.0
 70
     9
 71
     3
 72
    17
 73
    13
 74
     0
 42
0.0000000001
 43
0.0000000001
 40
0.0
 40
0.0
 40
0.0
 40
0.0
 40
1.0
 40
1.0
 40
1.0
 40
2.0
 40
2.0
 40
2.0
 40
3.0
 40
3.0
 40
3.0
 40
4.0
 40
4.0
 40
4.0
 40
4.0
 10
128.9789539129365
 20
-147.5594157705229
 30
0.0
 10
128.9789539129365
 20
-147.7671666038038
 30
0.0
 10
128.6888647536706
 20
-147.9359707704287
 30
0.0
 10
128.3298813757387
 20
-147.9359707704287
 30
0.0
 10
127.9708914386543
 20
-147.9359707704287
 30
0.0
 10
127.6801320016277
 20
-147.7671666038038
 30
0.0
 10
127.6801320016277
 20
-147.5594157705229
 30
0.0
 10
127.6801320016277
 20
-147.3506771594639
 30
0.0
 10
127.9708914386543
 20
-147.1825432706168
 30
0.0
 10
128.3298813757387
 20
-147.1825432706168
 30
0.0
 10
128.6888647536706
 20
-147.1825432706168
 30
0.0
 10
128.9789539129365
 20
-147.3506771594639
 30
0.0
 10
128.9789539129365
 20
-147.5594157705229
 30
0.0
  0
SPLINE
  5
8F
330
82
100
AcDbEntity
  8
レイヤー 1
 62
   250
420
  2299925
370
     9
100
AcDbSpline
210
0.0
220
0.0
230
1.0
 70
     8
 71
     3
 72
    11
 73
     7
 74
     0
 42
0.0000000001
 43
0.0000000001
 40
0.0
 40
0.0
 40
0.0
 40
0.0
 40
1.0
 40
1.0
 40
1.0
 40
2.0
 40
2.0
 40
2.0
 40
2.0
 10
127.7924564432066
 20
-147.7661435482487
 30
0.0
 10
127.7924564432066
 20
-147.7661435482487
 30
0.0
 10
127.773865054792
 20
-147.3141293816949
 30
0.0
 10
128.5076428138495
 20
-147.3520529927965
 30
0.0
 10
128.5076428138495
 20
-147.3520529927965
 30
0.0
 10
128.9417358583305
 20
-147.407862437227
 30
0.0
 10
128.865959193597
 20
-147.7471993815866
 30
0.0
  0
SPLINE
  5
90
330
82
100
AcDbEntity
  8
レイヤー 1
 62
   250
420
  2299925
370
     9
100
AcDbSpline
210
0.0
220
0.0
230
1.0
 70
     9
 71
     3
 72
    17
 73
    13
 74
     0
 42
0.0000000001
 43
0.0000000001
 40
0.0
 40
0.0
 40
0.0
 40
0.0
 40
1.0
 40
1.0
 40
1.0
 40
2.0
 40
2.0
 40
2.0
 40
3.0
 40
3.0
 40
3.0
 40
4.0
 40
4.0
 40
4.0
 40
4.0
 10
124.029728761424
 20
-147.5594157705229
 30
0.0
 10
124.029728761424
 20
-147.7671666038038
 30
0.0
 10
123.7382637688599
 20
-147.9359707704287
 30
0.0
 10
123.3799826668893
 20
-147.9359707704287
 30
0.0
 10
123.0209960093811
 20
-147.9359707704287
 30
0.0
 10
122.730239710472
 20
-147.7671666038038
 30
0.0
 10
122.730239710472
 20
-147.5594157705229
 30
0.0
 10
122.730239710472
 20
-147.3506771594639
 30
0.0
 10
123.0209960093811
 20
-147.1825432706168
 30
0.0
 10
123.3799826668893
 20
-147.1825432706168
 30
0.0
 10
123.7382637688599
 20
-147.1825432706168
 30
0.0
 10
124.029728761424
 20
-147.3506771594639
 30
0.0
 10
124.029728761424
 20
-147.5594157705229
 30
0.0
  0
SPLINE
  5
91
330
82
100
AcDbEntity
  8
レイヤー 1
 62
   250
420
  2299925
370
     9
100
AcDbSpline
210
0.0
220
0.0
230
1.0
 70
     8
 71
     3
 72
    11
 73
     7
 74
     0
 42
0.0000000001
 43
0.0000000001
 40
0.0
 40
0.0
 40
0.0
 40
0.0
 40
1.0
 40
1.0
 40
1.0
 40
2.0
 40
2.0
 40
2.0
 40
2.0
 10
122.8425257361565
 20
-147.7661435482487
 30
0.0
 10
122.8425257361565
 20
-147.7661435482487
 30
0.0
 10
122.8239343477419
 20
-147.3141293816949
 30
0.0
 10
123.558417662337
 20
-147.3520529927965
 30
0.0
 10
123.558417662337
 20
-147.3520529927965
 30
0.0
 10
123.9925107068179
 20
-147.407862437227
 30
0.0
 10
123.9167340420845
 20
-147.7471993815866
 30
0.0
  0
SPLINE
  5
92
330
82
100
AcDbEntity
  8
レイヤー 1
 62
   250
420
  2299925
370
     9
100
AcDbSpline
210
0.0
220
0.0
230
1.0
 70
     9
 71
     3
 72
    17
 73
    13
 74
     0
 42
0.0000000001
 43
0.0000000001
 40
0.0
 40
0.0
 40
0.0
 40
0.0
 40
1.0
 40
1.0
 40
1.0
 40
2.0
 40
2.0
 40
2.0
 40
3.0
 40
3.0
 40
3.0
 40
4.0
 40
4.0
 40
4.0
 40
4.0
 10
126.6528078611703
 20
-146.3997999374796
 30
0.0
 10
126.6528078611703
 20
-146.6071979929828
 30
0.0
 10
126.3613428686062
 20
-146.776002159608
 30
0.0
 10
126.0023914888749
 20
-146.776002159608
 30
0.0
 10
125.6440751091275
 20
-146.776002159608
 30
0.0
 10
125.3533156721009
 20
-146.6071979929828
 30
0.0
 10
125.3533156721009
 20
-146.3997999374796
 30
0.0
 10
125.3533156721009
 20
-146.1910260486428
 30
0.0
 10
125.6440751091275
 20
-146.022221882018
 30
0.0
 10
126.0023914888749
 20
-146.022221882018
 30
0.0
 10
126.3613428686062
 20
-146.022221882018
 30
0.0
 10
126.6528078611703
 20
-146.1910260486428
 30
0.0
 10
126.6528078611703
 20
-146.3997999374796
 30
0.0
  0
SPLINE
  5
93
330
82
100
AcDbEntity
  8
レイヤー 1
 62
   250
420
  2299925
370
     9
100
AcDbSpline
210
0.0
220
0.0
230
1.0
 70
     8
 71
     3
 72
    11
 73
     7
 74
     0
 42
0.0000000001
 43
0.0000000001
 40
0.0
 40
0.0
 40
0.0
 40
0.0
 40
1.0
 40
1.0
 40
1.0
 40
2.0
 40
2.0
 40
2.0
 40
2.0
 10
125.4656401136797
 20
-146.6058221596499
 30
0.0
 10
125.4656401136797
 20
-146.6058221596499
 30
0.0
 10
125.4470134474882
 20
-146.1545135486516
 30
0.0
 10
126.1815320398602
 20
-146.1917316041977
 30
0.0
 10
126.1815320398602
 20
-146.1917316041977
 30
0.0
 10
126.6149195288036
 20
-146.248246604184
 30
0.0
 10
126.5391428640702
 20
-146.5872307707656
 30
0.0
  0
SPLINE
  5
94
330
82
100
AcDbEntity
  8
レイヤー 1
 62
   250
420
  2299925
370
     9
100
AcDbSpline
210
0.0
220
0.0
230
1.0
 70
     9
 71
     3
 72
    17
 73
    13
 74
     0
 42
0.0000000001
 43
0.0000000001
 40
0.0
 40
0.0
 40
0.0
 40
0.0
 40
1.0
 40
1.0
 40
1.0
 40
2.0
 40
2.0
 40
2.0
 40
3.0
 40
3.0
 40
3.0
 40
4.0
 40
4.0
 40
4.0
 40
4.0
 10
126.6528078611703
 20
-147.4340385483318
 30
0.0
 10
126.6528078611703
 20
-147.6414366038357
 30
0.0
 10
126.3613428686062
 20
-147.8102407704599
 30
0.0
 10
126.0023914888749
 20
-147.8102407704599
 30
0.0
 10
125.6440751091275
 20
-147.8102407704599
 30
0.0
 10
125.3533156721009
 20
-147.6414366038357
 30
0.0
 10
125.3533156721009
 20
-147.4340385483318
 30
0.0
 10
125.3533156721009
 20
-147.2252646594951
 30
0.0
 10
125.6440751091275
 20
-147.0567779928705
 30
0.0
 10
126.0023914888749
 20
-147.0567779928705
 30
0.0
 10
126.3613428686062
 20
-147.0567779928705
 30
0.0
 10
126.6528078611703
 20
-147.2252646594951
 30
0.0
 10
126.6528078611703
 20
-147.4340385483318
 30
0.0
  0
SPLINE
  5
95
330
82
100
AcDbEntity
  8
レイヤー 1
 62
   250
420
  2299925
370
     9
100
AcDbSpline
210
0.0
220
0.0
230
1.0
 70
     8
 71
     3
 72
    11
 73
     7
 74
     0
 42
0.0000000001
 43
0.0000000001
 40
0.0
 40
0.0
 40
0.0
 40
0.0
 40
1.0
 40
1.0
 40
1.0
 40
2.0
 40
2.0
 40
2.0
 40
2.0
 10
125.4656401136797
 20
-147.6400607705028
 30
0.0
 10
125.4656401136797
 20
-147.6400607705028
 30
0.0
 10
125.4470134474882
 20
-147.1887521595045
 30
0.0
 10
126.1815320398602
 20
-147.2259349372725
 30
0.0
 10
126.1815320398602
 20
-147.2259349372725
 30
0.0
 10
126.6149195288036
 20
-147.2824499372584
 30
0.0
 10
126.5391428640702
 20
-147.6214341038404
 30
0.0
  0
SPLINE
  5
96
330
82
100
AcDbEntity
  8
レイヤー 1
 62
   250
420
  2299925
370
     9
100
AcDbSpline
210
0.0
220
0.0
230
1.0
 70
     9
 71
     3
 72
    17
 73
    13
 74
     0
 42
0.0000000001
 43
0.0000000001
 40
0.0
 40
0.0
 40
0.0
 40
0.0
 40
1.0
 40
1.0
 40
1.0
 40
2.0
 40
2.0
 40
2.0
 40
3.0
 40
3.0
 40
3.0
 40
4.0
 40
4.0
 40
4.0
 40
4.0
 10
126.6528078611703
 20
-148.6012391035957
 30
0.0
 10
126.6528078611703
 20
-148.8086371590996
 30
0.0
 10
126.3613428686062
 20
-148.9774413257238
 30
0.0
 10
126.0023914888749
 20
-148.9774413257238
 30
0.0
 10
125.6440751091275
 20
-148.9774413257238
 30
0.0
 10
125.3533156721009
 20
-148.8086371590996
 30
0.0
 10
125.3533156721009
 20
-148.6012391035957
 30
0.0
 10
125.3533156721009
 20
-148.3928179925367
 30
0.0
 10
125.6440751091275
 20
-148.2243313259121
 30
0.0
 10
126.0023914888749
 20
-148.2243313259121
 30
0.0
 10
126.3613428686062
 20
-148.2243313259121
 30
0.0
 10
126.6528078611703
 20
-148.3928179925367
 30
0.0
 10
126.6528078611703
 20
-148.6012391035957
 30
0.0
  0
SPLINE
  5
97
330
82
100
AcDbEntity
  8
レイヤー 1
 62
   250
420
  2299925
370
     9
100
AcDbSpline
210
0.0
220
0.0
230
1.0
 70
     8
 71
     3
 72
    11
 73
     7
 74
     0
 42
0.0000000001
 43
0.0000000001
 40
0.0
 40
0.0
 40
0.0
 40
0.0
 40
1.0
 40
1.0
 40
1.0
 40
2.0
 40
2.0
 40
2.0
 40
2.0
 10
125.4656401136797
 20
-148.807931603544
 30
0.0
 10
125.4656401136797
 20
-148.807931603544
 30
0.0
 10
125.4470134474882
 20
-148.3559527147677
 30
0.0
 10
126.1815320398602
 20
-148.3934882703141
 30
0.0
 10
126.1815320398602
 20
-148.3934882703141
 30
0.0
 10
126.6149195288036
 20
-148.4496504925223
 30
0.0
 10
126.5391428640702
 20
-148.7886346591042
 30
0.0
  0
ELLIPSE
  5
98
330
82
100
AcDbEntity
  8
レイヤー 1
 62
   250
420
  2299925
370
     9
100
AcDbEllipse
 10
119.2279302059976
 20
-149.1255727145757
 30
0.0
 11
0.6497468610487016
 21
0.0
 31
0.0
210
0.0
220
0.0
230
1.0
 40
0.5800840300713971
 41
0.0
 42
6.283185307179586
  0
SPLINE
  5
99
330
82
100
AcDbEntity
  8
レイヤー 1
 62
   250
420
  2299925
370
     9
100
AcDbSpline
210
0.0
220
0.0
230
1.0
 70
     8
 71
     3
 72
    11
 73
     7
 74
     0
 42
0.0000000001
 43
0.0000000001
 40
0.0
 40
0.0
 40
0.0
 40
0.0
 40
1.0
 40
1.0
 40
1.0
 40
2.0
 40
2.0
 40
2.0
 40
2.0
 10
118.6912133420653
 20
-149.331947714524
 30
0.0
 10
118.6912133420653
 20
-149.331947714524
 30
0.0
 10
118.6725897114863
 20
-148.8802863257479
 30
0.0
 10
119.4071052682458
 20
-148.9178218812943
 30
0.0
 10
119.4071052682458
 20
-148.9178218812943
 30
0.0
 10
119.8397872016516
 20
-148.9743368812803
 30
0.0
 10
119.7646808146789
 20
-149.3133210478622
 30
0.0
  0
SPLINE
  5
9A
330
82
100
AcDbEntity
  8
レイヤー 1
 62
   250
420
  2299925
370
     9
100
AcDbSpline
210
0.0
220
0.0
230
1.0
 70
     9
 71
     3
 72
    17
 73
    13
 74
     0
 42
0.0000000001
 43
0.0000000001
 40
0.0
 40
0.0
 40
0.0
 40
0.0
 40
1.0
 40
1.0
 40
1.0
 40
2.0
 40
2.0
 40
2.0
 40
3.0
 40
3.0
 40
3.0
 40
4.0
 40
4.0
 40
4.0
 40
4.0
 10
124.36941847498
 20
-149.4500929922722
 30
0.0
 10
124.36941847498
 20
-149.6588668811089
 30
0.0
 10
124.0786237601765
 20
-149.8270007699558
 30
0.0
 10
123.720342658206
 20
-149.8270007699558
 30
0.0
 10
123.361359154759
 20
-149.8270007699558
 30
0.0
 10
123.0699262859106
 20
-149.6588668811089
 30
0.0
 10
123.0699262859106
 20
-149.4500929922722
 30
0.0
 10
123.0699262859106
 20
-149.2420246589909
 30
0.0
 10
123.361359154759
 20
-149.0738907701441
 30
0.0
 10
123.720342658206
 20
-149.0738907701441
 30
0.0
 10
124.0786237601765
 20
-149.0738907701441
 30
0.0
 10
124.36941847498
 20
-149.2420246589909
 30
0.0
 10
124.36941847498
 20
-149.4500929922722
 30
0.0
  0
SPLINE
  5
9B
330
82
100
AcDbEntity
  8
レイヤー 1
 62
   250
420
  2299925
370
     9
100
AcDbSpline
210
0.0
220
0.0
230
1.0
 70
     8
 71
     3
 72
    11
 73
     7
 74
     0
 42
0.0000000001
 43
0.0000000001
 40
0.0
 40
0.0
 40
0.0
 40
0.0
 40
1.0
 40
1.0
 40
1.0
 40
2.0
 40
2.0
 40
2.0
 40
2.0
 10
123.1829210052501
 20
-149.6571382699983
 30
0.0
 10
123.1829210052501
 20
-149.6571382699983
 30
0.0
 10
123.1642943390586
 20
-149.2055121590003
 30
0.0
 10
123.8988129314306
 20
-149.2426949367683
 30
0.0
 10
123.8988129314306
 20
-149.2426949367683
 30
0.0
 10
124.3322035989602
 20
-149.2992099367543
 30
0.0
 10
124.2557182001029
 20
-149.6388996588917
 30
0.0
  0
SPLINE
  5
9C
330
82
100
AcDbEntity
  8
レイヤー 1
 62
   250
420
  2299925
370
     9
100
AcDbSpline
210
0.0
220
0.0
230
1.0
 70
     9
 71
     3
 72
    17
 73
    13
 74
     0
 42
0.0000000001
 43
0.0000000001
 40
0.0
 40
0.0
 40
0.0
 40
0.0
 40
1.0
 40
1.0
 40
1.0
 40
2.0
 40
2.0
 40
2.0
 40
3.0
 40
3.0
 40
3.0
 40
4.0
 40
4.0
 40
4.0
 40
4.0
 10
122.2120765855739
 20
-148.1499304925973
 30
0.0
 10
122.2120765855739
 20
-148.3573285481012
 30
0.0
 10
121.92132026623
 20
-148.5264854925032
 30
0.0
 10
121.5630360465768
 20
-148.5264854925032
 30
0.0
 10
121.2040493890686
 20
-148.5264854925032
 30
0.0
 10
120.9132899520421
 20
-148.3573285481012
 30
0.0
 10
120.9132899520421
 20
-148.1499304925973
 30
0.0
 10
120.9132899520421
 20
-147.9415093815384
 30
0.0
 10
121.2040493890686
 20
-147.7730227149138
 30
0.0
 10
121.5630360465768
 20
-147.7730227149138
 30
0.0
 10
121.92132026623
 20
-147.7730227149138
 30
0.0
 10
122.2120765855739
 20
-147.9415093815384
 30
0.0
 10
122.2120765855739
 20
-148.1499304925973
 30
0.0
  0
SPLINE
  5
9D
330
82
100
AcDbEntity
  8
レイヤー 1
 62
   250
420
  2299925
370
     9
100
AcDbSpline
210
0.0
220
0.0
230
1.0
 70
     8
 71
     3
 72
    11
 73
     7
 74
     0
 42
0.0000000001
 43
0.0000000001
 40
0.0
 40
0.0
 40
0.0
 40
0.0
 40
1.0
 40
1.0
 40
1.0
 40
2.0
 40
2.0
 40
2.0
 40
2.0
 10
121.025579115844
 20
-148.3566229925457
 30
0.0
 10
121.025579115844
 20
-148.3566229925457
 30
0.0
 10
121.0069877274294
 20
-147.90464410377
 30
0.0
 10
121.7408007642639
 20
-147.9421796593161
 30
0.0
 10
121.7408007642639
 20
-147.9421796593161
 30
0.0
 10
122.1741882532072
 20
-147.9983418815239
 30
0.0
 10
122.0990818662344
 20
-148.3376788258836
 30
0.0
  0
SPLINE
  5
9E
330
82
100
AcDbEntity
  8
レイヤー 1
 62
   250
420
  2299925
370
     9
100
AcDbSpline
210
0.0
220
0.0
230
1.0
 70
     9
 71
     3
 72
    17
 73
    13
 74
     0
 42
0.0000000001
 43
0.0000000001
 40
0.0
 40
0.0
 40
0.0
 40
0.0
 40
1.0
 40
1.0
 40
1.0
 40
2.0
 40
2.0
 40
2.0
 40
3.0
 40
3.0
 40
3.0
 40
4.0
 40
4.0
 40
4.0
 40
4.0
 10
122.2120765855739
 20
-149.1841338256721
 30
0.0
 10
122.2120765855739
 20
-149.3922374367309
 30
0.0
 10
121.92132026623
 20
-149.5603360478002
 30
0.0
 10
121.5630360465768
 20
-149.5603360478002
 30
0.0
 10
121.2040493890686
 20
-149.5603360478002
 30
0.0
 10
120.9132899520421
 20
-149.3922374367309
 30
0.0
 10
120.9132899520421
 20
-149.1841338256721
 30
0.0
 10
120.9132899520421
 20
-148.9760654923909
 30
0.0
 10
121.2040493890686
 20
-148.807261325766
 30
0.0
 10
121.5630360465768
 20
-148.807261325766
 30
0.0
 10
121.92132026623
 20
-148.807261325766
 30
0.0
 10
122.2120765855739
 20
-148.9760654923909
 30
0.0
 10
122.2120765855739
 20
-149.1841338256721
 30
0.0
  0
SPLINE
  5
9F
330
82
100
AcDbEntity
  8
レイヤー 1
 62
   250
420
  2299925
370
     9
100
AcDbSpline
210
0.0
220
0.0
230
1.0
 70
     8
 71
     3
 72
    11
 73
     7
 74
     0
 42
0.0000000001
 43
0.0000000001
 40
0.0
 40
0.0
 40
0.0
 40
0.0
 40
1.0
 40
1.0
 40
1.0
 40
2.0
 40
2.0
 40
2.0
 40
2.0
 10
121.025579115844
 20
-149.390861603398
 30
0.0
 10
121.025579115844
 20
-149.390861603398
 30
0.0
 10
121.0069877274294
 20
-148.9395529923996
 30
0.0
 10
121.7408007642639
 20
-148.9764182701686
 30
0.0
 10
121.7408007642639
 20
-148.9764182701686
 30
0.0
 10
122.1741882532072
 20
-149.0325452145987
 30
0.0
 10
122.0990818662344
 20
-149.3725877145139
 30
0.0
  0
SPLINE
  5
A0
330
82
100
AcDbEntity
  8
レイヤー 1
 62
   250
420
  2299925
370
     9
100
AcDbSpline
210
0.0
220
0.0
230
1.0
 70
     9
 71
     3
 72
    17
 73
    13
 74
     0
 42
0.0000000001
 43
0.0000000001
 40
0.0
 40
0.0
 40
0.0
 40
0.0
 40
1.0
 40
1.0
 40
1.0
 40
2.0
 40
2.0
 40
2.0
 40
3.0
 40
3.0
 40
3.0
 40
4.0
 40
4.0
 40
4.0
 40
4.0
 10
124.2577995889387
 20
-148.5023554925092
 30
0.0
 10
124.2577995889387
 20
-148.7104238257904
 30
0.0
 10
123.9663345963746
 20
-148.8785577146373
 30
0.0
 10
123.608053494404
 20
-148.8785577146373
 30
0.0
 10
123.2490668368959
 20
-148.8785577146373
 30
0.0
 10
122.9583073998693
 20
-148.7104238257904
 30
0.0
 10
122.9583073998693
 20
-148.5023554925092
 30
0.0
 10
122.9583073998693
 20
-148.2939343814502
 30
0.0
 10
123.2490668368959
 20
-148.1254477148256
 30
0.0
 10
123.608053494404
 20
-148.1254477148256
 30
0.0
 10
123.9663345963746
 20
-148.1254477148256
 30
0.0
 10
124.2577995889387
 20
-148.2939343814502
 30
0.0
 10
124.2577995889387
 20
-148.5023554925092
 30
0.0
  0
SPLINE
  5
A1
330
82
100
AcDbEntity
  8
レイヤー 1
 62
   250
420
  2299925
370
     9
100
AcDbSpline
210
0.0
220
0.0
230
1.0
 70
     8
 71
     3
 72
    11
 73
     7
 74
     0
 42
0.0000000001
 43
0.0000000001
 40
0.0
 40
0.0
 40
0.0
 40
0.0
 40
1.0
 40
1.0
 40
1.0
 40
2.0
 40
2.0
 40
2.0
 40
2.0
 10
123.0713021192088
 20
-148.7090479924575
 30
0.0
 10
123.0713021192088
 20
-148.7090479924575
 30
0.0
 10
123.0526785992806
 20
-148.2574218814596
 30
0.0
 10
123.7864884898518
 20
-148.2946046592276
 30
0.0
 10
123.7864884898518
 20
-148.2946046592276
 30
0.0
 10
124.2205815343327
 20
-148.3511196592135
 30
0.0
 10
124.1447695918224
 20
-148.6904566035732
 30
0.0
  0
SPLINE
  5
A2
330
82
100
AcDbEntity
  8
レイヤー 1
 62
   250
420
  2299925
370
     9
100
AcDbSpline
210
0.0
220
0.0
230
1.0
 70
     9
 71
     3
 72
    17
 73
    13
 74
     0
 42
0.0000000001
 43
0.0000000001
 40
0.0
 40
0.0
 40
0.0
 40
0.0
 40
1.0
 40
1.0
 40
1.0
 40
2.0
 40
2.0
 40
2.0
 40
3.0
 40
3.0
 40
3.0
 40
4.0
 40
4.0
 40
4.0
 40
4.0
 10
122.2120765855739
 20
-150.3513343809359
 30
0.0
 10
122.2120765855739
 20
-150.5594379919947
 30
0.0
 10
121.92132026623
 20
-150.727536603064
 30
0.0
 10
121.5630360465768
 20
-150.727536603064
 30
0.0
 10
121.2040493890686
 20
-150.727536603064
 30
0.0
 10
120.9132899520421
 20
-150.5594379919947
 30
0.0
 10
120.9132899520421
 20
-150.3513343809359
 30
0.0
 10
120.9132899520421
 20
-150.1432660476547
 30
0.0
 10
121.2040493890686
 20
-149.9751321588079
 30
0.0
 10
121.5630360465768
 20
-149.9751321588079
 30
0.0
 10
121.92132026623
 20
-149.9751321588079
 30
0.0
 10
122.2120765855739
 20
-150.1432660476547
 30
0.0
 10
122.2120765855739
 20
-150.3513343809359
 30
0.0
  0
SPLINE
  5
A3
330
82
100
AcDbEntity
  8
レイヤー 1
 62
   250
420
  2299925
370
     9
100
AcDbSpline
210
0.0
220
0.0
230
1.0
 70
     8
 71
     3
 72
    11
 73
     7
 74
     0
 42
0.0000000001
 43
0.0000000001
 40
0.0
 40
0.0
 40
0.0
 40
0.0
 40
1.0
 40
1.0
 40
1.0
 40
2.0
 40
2.0
 40
2.0
 40
2.0
 10
121.025579115844
 20
-150.5577093808841
 30
0.0
 10
121.025579115844
 20
-150.5577093808841
 30
0.0
 10
121.0069877274294
 20
-150.1067535476635
 30
0.0
 10
121.7408007642639
 20
-150.1439363254321
 30
0.0
 10
121.7408007642639
 20
-150.1439363254321
 30
0.0
 10
122.1741882532072
 20
-150.1997457698625
 30
0.0
 10
122.0990818662344
 20
-150.5390827142222
 30
0.0
  0
LINE
  5
A4
330
82
100
AcDbEntity
  8
レイヤー 1
 62
   250
420
  2299925
370
     9
100
AcDbLine
 10
116.8528883889649
 20
-149.1979274367798
 30
0.0
 11
122.2575496399694
 21
-151.7838238250219
 31
0.0
  0
LINE
  5
A5
330
82
100
AcDbEntity
  8
レイヤー 1
 62
   250
420
  2299925
370
     9
100
AcDbLine
 10
125.8266728822468
 20
-145.4221116043902
 30
0.0
 11
116.829463945118
 21
-149.1868854923379
 31
0.0
  0
ENDBLK
  5
85
330
82
100
AcDbEntity
  8
0
100
AcDbBlockEnd
  0
BLOCK
  5
A9
330
A7
100
AcDbEntity
  8
0
100
AcDbBlockBegin
  2
Block_3
 70
     0
 10
0.0
 20
0.0
 30
0.0
  3
Block_3
  1

  0
LINE
  5
AB
330
A7
100
AcDbEntity
  8
レイヤー 1
 62
   250
420
  2299925
370
    25
100
AcDbLine
 10
108.8130830385218
 20
-144.9525291045078
 30
0.0
 11
109.5909932964535
 21
-144.9525291045078
 31
0.0
  0
INSERT
  5
AD
330
A7
100
AcDbEntity
  8
レイヤー 1
100
AcDbBlockReference
  2
Block_4
 10
0.0
 20
0.0
 30
0.0
  0
ENDBLK
  5
AA
330
A7
100
AcDbEntity
  8
0
100
AcDbBlockEnd
  0
BLOCK
  5
AE
330
AC
100
AcDbEntity
  8
0
100
AcDbBlockBegin
  2
Block_4
 70
     0
 10
0.0
 20
0.0
 30
0.0
  3
Block_4
  1

  0
LINE
  5
B0
330
AC
100
AcDbEntity
  8
レイヤー 1
  6
AI-Linetype-0
 62
   154
420
    23468
370
    25
100
AcDbLine
 10
84.81470503966006
 20
-146.8108213262651
 30
0.0
 11
94.81514339563906
 21
-146.8108213262651
 31
0.0
  0
LINE
  5
B2
330
AC
100
AcDbEntity
  8
レイヤー 1
 62
   250
420
  2299925
370
    25
100
AcDbLine
 10
109.5909932964535
 20
-154.21467437997
 30
0.0
 11
103.5913397152566
 21
-154.21467437997
 31
0.0
  0
LINE
  5
B3
330
AC
100
AcDbEntity
  8
レイヤー 1
 62
   250
420
  2299925
370
    25
100
AcDbLine
 10
84.81470503966006
 20
-145.7145996598729
 30
0.0
 11
84.81470503966006
 21
-146.2148032708591
 31
0.0
  0
LINE
  5
B4
330
AC
100
AcDbEntity
  8
レイヤー 1
 62
   250
420
  2299925
370
    25
100
AcDbLine
 10
104.9052931382179
 20
-146.2148032708591
 30
0.0
 11
84.81470503966006
 21
-146.2148032708591
 31
0.0
  0
LINE
  5
B5
330
AC
100
AcDbEntity
  8
レイヤー 1
 62
   250
420
  2299925
370
    25
100
AcDbLine
 10
108.8130830385218
 20
-153.2145493802203
 30
0.0
 11
104.4739897150361
 21
-153.2145493802203
 31
0.0
  0
LINE
  5
B6
330
AC
100
AcDbEntity
  8
レイヤー 1
 62
   250
420
  2299925
370
    25
100
AcDbLine
 10
103.5913397152566
 20
-154.21467437997
 30
0.0
 11
104.9052931382179
 21
-146.2148032708591
 31
0.0
  0
LINE
  5
B7
330
AC
100
AcDbEntity
  8
レイヤー 1
 62
   250
420
  2299925
370
    25
100
AcDbLine
 10
104.4739897150361
 20
-153.2145493802203
 30
0.0
 11
105.8158478372099
 21
-144.9525291045078
 31
0.0
  0
LINE
  5
B8
330
AC
100
AcDbEntity
  8
レイヤー 1
 62
   250
420
  2299925
370
    25
100
AcDbLine
 10
84.81470503966006
 20
-145.7145996598729
 30
0.0
 11
85.32873971982231
 21
-146.0966579931109
 31
0.0
  0
LINE
  5
B9
330
AC
100
AcDbEntity
  8
レイヤー 1
 62
   250
420
  2299925
370
    25
100
AcDbLine
 10
85.32873971982231
 20
-146.0966579931109
 30
0.0
 11
85.81412445860751
 21
-145.6791102154374
 31
0.0
  0
LINE
  5
BA
330
AC
100
AcDbEntity
  8
レイヤー 1
 62
   250
420
  2299925
370
    25
100
AcDbLine
 10
86.32815916401709
 20
-146.0611685486748
 30
0.0
 11
86.81389665532375
 21
-145.6432679932245
 31
0.0
  0
LINE
  5
BB
330
AC
100
AcDbEntity
  8
レイヤー 1
 62
   250
420
  2299925
370
    25
100
AcDbLine
 10
85.81412445860751
 20
-145.6791102154374
 30
0.0
 11
86.32815916401709
 21
-146.0611685486748
 31
0.0
  0
LINE
  5
BC
330
AC
100
AcDbEntity
  8
レイヤー 1
 62
   250
420
  2299925
370
    25
100
AcDbLine
 10
86.81389665532375
 20
-145.6432679932245
 30
0.0
 11
87.32757860821122
 21
-146.0253263264615
 31
0.0
  0
LINE
  5
BD
330
AC
100
AcDbEntity
  8
レイヤー 1
 62
   250
420
  2299925
370
    25
100
AcDbLine
 10
87.32757860821122
 20
-146.0253263264615
 30
0.0
 11
87.81331607427055
 21
-145.6077785487887
 31
0.0
  0
LINE
  5
BE
330
AC
100
AcDbEntity
  8
レイヤー 1
 62
   250
420
  2299925
370
    25
100
AcDbLine
 10
87.81331607427055
 20
-145.6077785487887
 30
0.0
 11
88.32664527462856
 21
-145.9895193820264
 31
0.0
  0
LINE
  5
BF
330
AC
100
AcDbEntity
  8
レイヤー 1
 62
   250
420
  2299925
370
    25
100
AcDbLine
 10
88.32664527462856
 20
-145.9895193820264
 30
0.0
 11
88.81242027450694
 21
-145.571971604353
 31
0.0
  0
LINE
  5
C0
330
AC
100
AcDbEntity
  8
レイヤー 1
 62
   250
420
  2299925
370
    25
100
AcDbLine
 10
88.81242027450694
 20
-145.571971604353
 30
0.0
 11
89.32641749660078
 21
-145.9536771598132
 31
0.0
  0
LINE
  5
C1
330
AC
100
AcDbEntity
  8
レイヤー 1
 62
   250
420
  2299925
370
    25
100
AcDbLine
 10
89.32641749660078
 20
-145.9536771598132
 30
0.0
 11
89.81148694092395
 21
-145.5361293821397
 31
0.0
  0
LINE
  5
C2
330
AC
100
AcDbEntity
  8
レイヤー 1
 62
   250
420
  2299925
370
    25
100
AcDbLine
 10
89.81148694092395
 20
-145.5361293821397
 30
0.0
 11
90.3254841630178
 21
-145.9181877153777
 31
0.0
  0
LINE
  5
C3
330
AC
100
AcDbEntity
  8
レイヤー 1
 62
   250
420
  2299925
370
    25
100
AcDbLine
 10
90.3254841630178
 20
-145.9181877153777
 30
0.0
 11
90.81125916289584
 21
-145.5006399377042
 31
0.0
  0
LINE
  5
C4
330
AC
100
AcDbEntity
  8
レイヤー 1
 62
   250
420
  2299925
370
    25
100
AcDbLine
 10
90.81125916289584
 20
-145.5006399377042
 30
0.0
 11
91.32525638499002
 21
-145.8826982709416
 31
0.0
  0
LINE
  5
C5
330
AC
100
AcDbEntity
  8
レイヤー 1
 62
   250
420
  2299925
370
    25
100
AcDbLine
 10
91.32525638499002
 20
-145.8826982709416
 30
0.0
 11
91.81032582931321
 21
-145.464797715491
 31
0.0
  0
LINE
  5
C6
330
AC
100
AcDbEntity
  8
レイヤー 1
 62
   250
420
  2299925
370
    25
100
AcDbLine
 10
92.32432305140672
 20
-145.8468913265065
 30
0.0
 11
92.81009805128542
 21
-145.429343548833
 31
0.0
  0
LINE
  5
C7
330
AC
100
AcDbEntity
  8
レイヤー 1
 62
   250
420
  2299925
370
    25
100
AcDbLine
 10
91.81032582931321
 20
-145.464797715491
 30
0.0
 11
92.32432305140672
 21
-145.8468913265065
 31
0.0
  0
LINE
  5
C8
330
AC
100
AcDbEntity
  8
レイヤー 1
 62
   250
420
  2299925
370
    25
100
AcDbLine
 10
92.81009805128542
 20
-145.429343548833
 30
0.0
 11
93.32409527337926
 21
-145.8110491042932
 31
0.0
  0
LINE
  5
C9
330
AC
100
AcDbEntity
  8
レイヤー 1
 62
   250
420
  2299925
370
    25
100
AcDbLine
 10
93.32409527337926
 20
-145.8110491042932
 30
0.0
 11
93.80916471770243
 21
-145.3935013266197
 31
0.0
  0
LINE
  5
CA
330
AC
100
AcDbEntity
  8
レイヤー 1
 62
   250
420
  2299925
370
    25
100
AcDbLine
 10
94.3231947970786
 20
-145.77520688208
 30
0.0
 11
94.80826422914789
 21
-145.3576591044065
 31
0.0
  0
LINE
  5
CB
330
AC
100
AcDbEntity
  8
レイヤー 1
 62
   250
420
  2299925
370
    25
100
AcDbLine
 10
93.80916471770243
 20
-145.3935013266197
 30
0.0
 11
94.3231947970786
 21
-145.77520688208
 31
0.0
  0
LINE
  5
CC
330
AC
100
AcDbEntity
  8
レイヤー 1
 62
   250
420
  2299925
370
    25
100
AcDbLine
 10
95.32226143825727
 20
-145.7397174376448
 30
0.0
 11
95.80800360609135
 21
-145.3222049377489
 31
0.0
  0
LINE
  5
CD
330
AC
100
AcDbEntity
  8
レイヤー 1
 62
   250
420
  2299925
370
    25
100
AcDbLine
 10
94.80826422914789
 20
-145.3576591044065
 30
0.0
 11
95.32226143825727
 21
-145.7397174376448
 31
0.0
  0
LINE
  5
CE
330
AC
100
AcDbEntity
  8
レイヤー 1
 62
   250
420
  2299925
370
    25
100
AcDbLine
 10
95.80800360609135
 20
-145.3222049377489
 30
0.0
 11
96.32203363497287
 21
-145.7042632709865
 31
0.0
  0
LINE
  5
CF
330
AC
100
AcDbEntity
  8
レイヤー 1
 62
   250
420
  2299925
370
    25
100
AcDbLine
 10
96.32203363497287
 20
-145.7042632709865
 30
0.0
 11
96.80710306704215
 21
-145.2863627155353
 31
0.0
  0
LINE
  5
D0
330
AC
100
AcDbEntity
  8
レイヤー 1
 62
   250
420
  2299925
370
    25
100
AcDbLine
 10
96.80710306704215
 20
-145.2863627155353
 30
0.0
 11
97.32110027615121
 21
-145.6684210487733
 31
0.0
  0
LINE
  5
D1
330
AC
100
AcDbEntity
  8
レイヤー 1
 62
   250
420
  2299925
370
    25
100
AcDbLine
 10
97.32110027615121
 20
-145.6684210487733
 30
0.0
 11
97.80687526375807
 21
-145.2508732710998
 31
0.0
  0
LINE
  5
D2
330
AC
100
AcDbEntity
  8
レイヤー 1
 62
   250
420
  2299925
370
    25
100
AcDbLine
 10
97.80687526375807
 20
-145.2508732710998
 30
0.0
 11
98.32087247286713
 21
-145.63257882656
 31
0.0
  0
LINE
  5
D3
330
AC
100
AcDbEntity
  8
レイヤー 1
 62
   250
420
  2299925
370
    25
100
AcDbLine
 10
98.32087247286713
 20
-145.63257882656
 30
0.0
 11
98.80594190493642
 21
-145.2150310488866
 31
0.0
  0
LINE
  5
D4
330
AC
100
AcDbEntity
  8
レイヤー 1
 62
   250
420
  2299925
370
    25
100
AcDbLine
 10
98.80594190493642
 20
-145.2150310488866
 30
0.0
 11
99.31993911404548
 21
-145.5967718821243
 31
0.0
  0
LINE
  5
D5
330
AC
100
AcDbEntity
  8
レイヤー 1
 62
   250
420
  2299925
370
    25
100
AcDbLine
 10
99.31993911404548
 20
-145.5967718821243
 30
0.0
 11
99.80571410165232
 21
-145.1792241044508
 31
0.0
  0
LINE
  5
D6
330
AC
100
AcDbEntity
  8
レイヤー 1
 62
   250
420
  2299925
370
    25
100
AcDbLine
 10
99.80571410165232
 20
-145.1792241044508
 30
0.0
 11
100.3197113107614
 21
-145.5612824376888
 31
0.0
  0
LINE
  5
D7
330
AC
100
AcDbEntity
  8
レイヤー 1
 62
   250
420
  2299925
370
    25
100
AcDbLine
 10
100.3197113107614
 20
-145.5612824376888
 30
0.0
 11
100.8047807428307
 21
-145.1437346600153
 31
0.0
  0
LINE
  5
D8
330
AC
100
AcDbEntity
  8
レイヤー 1
 62
   250
420
  2299925
370
    25
100
AcDbLine
 10
100.8047807428307
 20
-145.1437346600153
 30
0.0
 11
101.3187779519397
 21
-145.5257929932533
 31
0.0
  0
LINE
  5
D9
330
AC
100
AcDbEntity
  8
レイヤー 1
 62
   250
420
  2299925
370
    25
100
AcDbLine
 10
101.3187779519397
 20
-145.5257929932533
 30
0.0
 11
101.8045529395469
 21
-145.1078924378021
 31
0.0
  0
LINE
  5
DA
330
AC
100
AcDbEntity
  8
レイヤー 1
 62
   250
420
  2299925
370
    25
100
AcDbLine
 10
101.8045529395469
 20
-145.1078924378021
 30
0.0
 11
102.3185501486556
 21
-145.4899507710401
 31
0.0
  0
LINE
  5
DB
330
AC
100
AcDbEntity
  8
レイヤー 1
 62
   250
420
  2299925
370
    25
100
AcDbLine
 10
102.3185501486556
 20
-145.4899507710401
 30
0.0
 11
102.8036195807249
 21
-145.0724029933666
 31
0.0
  0
LINE
  5
DC
330
AC
100
AcDbEntity
  8
レイヤー 1
 62
   250
420
  2299925
370
    25
100
AcDbLine
 10
102.8036195807249
 20
-145.0724029933666
 30
0.0
 11
103.317616789834
 21
-145.4541438266043
 31
0.0
  0
LINE
  5
DD
330
AC
100
AcDbEntity
  8
レイヤー 1
 62
   250
420
  2299925
370
    25
100
AcDbLine
 10
103.317616789834
 20
-145.4541438266043
 30
0.0
 11
103.802192333027
 21
-145.0365960489315
 31
0.0
  0
LINE
  5
DE
330
AC
100
AcDbEntity
  8
レイヤー 1
 62
   250
420
  2299925
370
    25
100
AcDbLine
 10
103.802192333027
 20
-145.0365960489315
 30
0.0
 11
104.316189542136
 21
-145.4183016043911
 31
0.0
  0
LINE
  5
DF
330
AC
100
AcDbEntity
  8
レイヤー 1
 62
   250
420
  2299925
370
    25
100
AcDbLine
 10
104.316189542136
 20
-145.4183016043911
 30
0.0
 11
104.8019645297429
 21
-145.0007538267176
 31
0.0
  0
LINE
  5
E0
330
AC
100
AcDbEntity
  8
レイヤー 1
 62
   250
420
  2299925
370
    25
100
AcDbLine
 10
104.8756089611924
 20
-144.9525291045078
 30
0.0
 11
105.8158478372099
 21
-144.9525291045078
 31
0.0
  0
LINE
  5
E1
330
AC
100
AcDbEntity
  8
レイヤー 1
 62
   250
420
  2299925
370
    25
100
AcDbLine
 10
108.8130830385218
 20
-153.2145493802203
 30
0.0
 11
108.8130830385218
 21
-144.9525291045078
 31
0.0
  0
LINE
  5
E2
330
AC
100
AcDbEntity
  8
レイヤー 1
 62
   250
420
  2299925
370
    25
100
AcDbLine
 10
109.5909932964535
 20
-154.21467437997
 30
0.0
 11
109.5909932964535
 21
-144.9525291045078
 31
0.0
  0
CIRCLE
  5
E3
330
AC
100
AcDbEntity
  8
レイヤー 1
 62
   250
420
  2299925
370
     9
100
AcDbCircle
 10
84.81470503966022
 20
-140.9524171610631
 30
0.0
 40
0.0999066653796563
  0
SPLINE
  5
E4
330
AC
100
AcDbEntity
  8
レイヤー 1
 62
   250
420
  2299925
370
     9
100
AcDbSpline
210
0.0
220
0.0
230
1.0
 70
     9
 71
     3
 72
    17
 73
    13
 74
     0
 42
0.0000000001
 43
0.0000000001
 40
0.0
 40
0.0
 40
0.0
 40
0.0
 40
1.0
 40
1.0
 40
1.0
 40
2.0
 40
2.0
 40
2.0
 40
3.0
 40
3.0
 40
3.0
 40
4.0
 40
4.0
 40
4.0
 40
4.0
 10
80.91485263915391
 20
-145.7145996598729
 30
0.0
 10
80.91485263915391
 20
-145.6594604932198
 30
0.0
 10
80.87008514029603
 20
-145.6146929932312
 30
0.0
 10
80.81494805428405
 20
-145.6146929932312
 30
0.0
 10
80.75984208755299
 20
-145.6146929932312
 30
0.0
 10
80.71503931091823
 20
-145.6594604932198
 30
0.0
 10
80.71503931091823
 20
-145.7145996598729
 30
0.0
 10
80.71503931091823
 20
-145.7697035487478
 30
0.0
 10
80.75984208755299
 20
-145.8145063265145
 30
0.0
 10
80.81494805428405
 20
-145.8145063265145
 30
0.0
 10
80.87008514029603
 20
-145.8145063265145
 30
0.0
 10
80.91485263915391
 20
-145.7697035487478
 30
0.0
 10
80.91485263915391
 20
-145.7145996598729
 30
0.0
  0
SPLINE
  5
E5
330
AC
100
AcDbEntity
  8
レイヤー 1
 62
   250
420
  2299925
370
     9
100
AcDbSpline
210
0.0
220
0.0
230
1.0
 70
     9
 71
     3
 72
    17
 73
    13
 74
     0
 42
0.0000000001
 43
0.0000000001
 40
0.0
 40
0.0
 40
0.0
 40
0.0
 40
1.0
 40
1.0
 40
1.0
 40
2.0
 40
2.0
 40
2.0
 40
3.0
 40
3.0
 40
3.0
 40
4.0
 40
4.0
 40
4.0
 40
4.0
 10
80.91485263915391
 20
-146.2148032708591
 30
0.0
 10
80.91485263915391
 20
-146.1596993819835
 30
0.0
 10
80.87008514029603
 20
-146.1148966042174
 30
0.0
 10
80.81494805428405
 20
-146.1148966042174
 30
0.0
 10
80.75984208755299
 20
-146.1148966042174
 30
0.0
 10
80.71503931091823
 20
-146.1596993819835
 30
0.0
 10
80.71503931091823
 20
-146.2148032708591
 30
0.0
 10
80.71503931091823
 20
-146.2699424375115
 30
0.0
 10
80.75984208755299
 20
-146.3147099375007
 30
0.0
 10
80.81494805428405
 20
-146.3147099375007
 30
0.0
 10
80.87008514029603
 20
-146.3147099375007
 30
0.0
 10
80.91485263915391
 20
-146.2699424375115
 30
0.0
 10
80.91485263915391
 20
-146.2148032708591
 30
0.0
  0
SPLINE
  5
E6
330
AC
100
AcDbEntity
  8
レイヤー 1
 62
   250
420
  2299925
370
     9
100
AcDbSpline
210
0.0
220
0.0
230
1.0
 70
     9
 71
     3
 72
    17
 73
    13
 74
     0
 42
0.0000000001
 43
0.0000000001
 40
0.0
 40
0.0
 40
0.0
 40
0.0
 40
1.0
 40
1.0
 40
1.0
 40
2.0
 40
2.0
 40
2.0
 40
3.0
 40
3.0
 40
3.0
 40
4.0
 40
4.0
 40
4.0
 40
4.0
 10
80.91485263915391
 20
-154.21467437997
 30
0.0
 10
80.91485263915391
 20
-154.1595352133169
 30
0.0
 10
80.87008514029603
 20
-154.1147677133283
 30
0.0
 10
80.81494805428405
 20
-154.1147677133283
 30
0.0
 10
80.75984208755299
 20
-154.1147677133283
 30
0.0
 10
80.71503931091823
 20
-154.1595352133169
 30
0.0
 10
80.71503931091823
 20
-154.21467437997
 30
0.0
 10
80.71503931091823
 20
-154.2697782688449
 30
0.0
 10
80.75984208755299
 20
-154.3145810466116
 30
0.0
 10
80.81494805428405
 20
-154.3145810466116
 30
0.0
 10
80.87008514029603
 20
-154.3145810466116
 30
0.0
 10
80.91485263915391
 20
-154.2697782688449
 30
0.0
 10
80.91485263915391
 20
-154.21467437997
 30
0.0
  0
SPLINE
  5
E7
330
AC
100
AcDbEntity
  8
レイヤー 1
 62
   250
420
  2299925
370
     9
100
AcDbSpline
210
0.0
220
0.0
230
1.0
 70
     9
 71
     3
 72
    17
 73
    13
 74
     0
 42
0.0000000001
 43
0.0000000001
 40
0.0
 40
0.0
 40
0.0
 40
0.0
 40
1.0
 40
1.0
 40
1.0
 40
2.0
 40
2.0
 40
2.0
 40
3.0
 40
3.0
 40
3.0
 40
4.0
 40
4.0
 40
4.0
 40
4.0
 10
103.6912437247464
 20
-158.2147863234146
 30
0.0
 10
103.6912437247464
 20
-158.1596471567615
 30
0.0
 10
103.6464762258885
 20
-158.1148443789948
 30
0.0
 10
103.5913397152566
 20
-158.1148443789948
 30
0.0
 10
103.5364095620299
 20
-158.1148443789948
 30
0.0
 10
103.4916067853951
 20
-158.1596471567615
 30
0.0
 10
103.4916067853951
 20
-158.2147863234146
 30
0.0
 10
103.4916067853951
 20
-158.2698902122895
 30
0.0
 10
103.5364095620299
 20
-158.3146929900562
 30
0.0
 10
103.5913397152566
 20
-158.3146929900562
 30
0.0
 10
103.6464762258885
 20
-158.3146929900562
 30
0.0
 10
103.6912437247464
 20
-158.2698902122895
 30
0.0
 10
103.6912437247464
 20
-158.2147863234146
 30
0.0
  0
SPLINE
  5
E8
330
AC
100
AcDbEntity
  8
レイヤー 1
 62
   250
420
  2299925
370
     9
100
AcDbSpline
210
0.0
220
0.0
230
1.0
 70
     9
 71
     3
 72
    17
 73
    13
 74
     0
 42
0.0000000001
 43
0.0000000001
 40
0.0
 40
0.0
 40
0.0
 40
0.0
 40
1.0
 40
1.0
 40
1.0
 40
2.0
 40
2.0
 40
2.0
 40
3.0
 40
3.0
 40
3.0
 40
4.0
 40
4.0
 40
4.0
 40
4.0
 10
109.6908999605713
 20
-158.2147863234146
 30
0.0
 10
109.6908999605713
 20
-158.1596471567615
 30
0.0
 10
109.6460971839366
 20
-158.1148443789948
 30
0.0
 10
109.5909932964535
 20
-158.1148443789948
 30
0.0
 10
109.5351838534329
 20
-158.1148443789948
 30
0.0
 10
109.4910866323356
 20
-158.1596471567615
 30
0.0
 10
109.4910866323356
 20
-158.2147863234146
 30
0.0
 10
109.4910866323356
 20
-158.2698902122895
 30
0.0
 10
109.5351838534329
 20
-158.3146929900562
 30
0.0
 10
109.5909932964535
 20
-158.3146929900562
 30
0.0
 10
109.6460971839366
 20
-158.3146929900562
 30
0.0
 10
109.6908999605713
 20
-158.2698902122895
 30
0.0
 10
109.6908999605713
 20
-158.2147863234146
 30
0.0
  0
SPLINE
  5
E9
330
AC
100
AcDbEntity
  8
レイヤー 1
 62
   250
420
  2299925
370
     9
100
AcDbSpline
210
0.0
220
0.0
230
1.0
 70
     9
 71
     3
 72
    17
 73
    13
 74
     0
 42
0.0000000001
 43
0.0000000001
 40
0.0
 40
0.0
 40
0.0
 40
0.0
 40
1.0
 40
1.0
 40
1.0
 40
2.0
 40
2.0
 40
2.0
 40
3.0
 40
3.0
 40
3.0
 40
4.0
 40
4.0
 40
4.0
 40
4.0
 10
108.9129924917043
 20
-140.9524171610631
 30
0.0
 10
108.9129924917043
 20
-140.8973132721882
 30
0.0
 10
108.8681897139376
 20
-140.8525104944215
 30
0.0
 10
108.8130830385218
 20
-140.8525104944215
 30
0.0
 10
108.7579438732619
 20
-140.8525104944215
 30
0.0
 10
108.713176374404
 20
-140.8973132721882
 30
0.0
 10
108.713176374404
 20
-140.9524171610631
 30
0.0
 10
108.713176374404
 20
-141.007909105494
 30
0.0
 10
108.7579438732619
 20
-141.0523238277048
 30
0.0
 10
108.8130830385218
 20
-141.0523238277048
 30
0.0
 10
108.8681897139376
 20
-141.0523238277048
 30
0.0
 10
108.9129924917043
 20
-141.007909105494
 30
0.0
 10
108.9129924917043
 20
-140.9524171610631
 30
0.0
  0
SPLINE
  5
EA
330
AC
100
AcDbEntity
  8
レイヤー 1
 62
   250
420
  2299925
370
     9
100
AcDbSpline
210
0.0
220
0.0
230
1.0
 70
     9
 71
     3
 72
    17
 73
    13
 74
     0
 42
0.0000000001
 43
0.0000000001
 40
0.0
 40
0.0
 40
0.0
 40
0.0
 40
1.0
 40
1.0
 40
1.0
 40
2.0
 40
2.0
 40
2.0
 40
3.0
 40
3.0
 40
3.0
 40
4.0
 40
4.0
 40
4.0
 40
4.0
 10
105.9157545013277
 20
-140.9524171610631
 30
0.0
 10
105.9157545013277
 20
-140.8973132721882
 30
0.0
 10
105.870951724693
 20
-140.8525104944215
 30
0.0
 10
105.8158478372099
 20
-140.8525104944215
 30
0.0
 10
105.7600383941893
 20
-140.8525104944215
 30
0.0
 10
105.7152356175545
 20
-140.8973132721882
 30
0.0
 10
105.7152356175545
 20
-140.9524171610631
 30
0.0
 10
105.7152356175545
 20
-141.007909105494
 30
0.0
 10
105.7600383941893
 20
-141.0523238277048
 30
0.0
 10
105.8158478372099
 20
-141.0523238277048
 30
0.0
 10
105.870951724693
 20
-141.0523238277048
 30
0.0
 10
105.9157545013277
 20
-141.007909105494
 30
0.0
 10
105.9157545013277
 20
-140.9524171610631
 30
0.0
  0
LINE
  5
EB
330
AC
100
AcDbEntity
  8
レイヤー 1
 62
   250
420
  2299925
370
     9
100
AcDbLine
 10
105.8158478372099
 20
-140.9524171610631
 30
0.0
 11
108.8130830385218
 21
-140.9524171610631
 31
0.0
  0
LINE
  5
EC
330
AC
100
AcDbEntity
  8
レイヤー 1
 62
   250
420
  2299925
370
     9
100
AcDbLine
 10
105.8158478372099
 20
-142.4124585495875
 30
0.0
 11
105.8158478372099
 21
-139.9526449390912
 31
0.0
  0
LINE
  5
ED
330
AC
100
AcDbEntity
  8
レイヤー 1
 62
   250
420
  2299925
370
     9
100
AcDbLine
 10
108.8130830385218
 20
-142.4124585495875
 30
0.0
 11
108.8130830385218
 21
-139.9526449390912
 31
0.0
  0
INSERT
  5
EF
330
AC
100
AcDbEntity
  8
レイヤー 1
100
AcDbBlockReference
  2
Block_5
 10
0.0
 20
0.0
 30
0.0
  0
LINE
  5
F4
330
AC
100
AcDbEntity
  8
レイヤー 1
 62
   250
420
  2299925
370
     9
100
AcDbLine
 10
109.5909932964535
 20
-158.2147863234146
 30
0.0
 11
103.5913397152566
 21
-158.2147863234146
 31
0.0
  0
LINE
  5
F5
330
AC
100
AcDbEntity
  8
レイヤー 1
 62
   250
420
  2299925
370
     9
100
AcDbLine
 10
109.5909932964535
 20
-156.7547449348903
 30
0.0
 11
109.5909932964535
 21
-159.2148760453867
 31
0.0
  0
LINE
  5
F6
330
AC
100
AcDbEntity
  8
レイヤー 1
 62
   250
420
  2299925
370
     9
100
AcDbLine
 10
103.5913397152566
 20
-156.7547449348903
 30
0.0
 11
103.5913397152566
 21
-159.2148760453867
 31
0.0
  0
INSERT
  5
F8
330
AC
100
AcDbEntity
  8
レイヤー 1
100
AcDbBlockReference
  2
Block_6
 10
0.0
 20
0.0
 30
0.0
  0
LINE
  5
FE
330
AC
100
AcDbEntity
  8
レイヤー 1
 62
   250
420
  2299925
370
     9
100
AcDbLine
 10
80.81494805428405
 20
-145.7145996598729
 30
0.0
 11
80.81494805428405
 21
-140.4570113278536
 31
0.0
  0
LINE
  5
FF
330
AC
100
AcDbEntity
  8
レイヤー 1
 62
   250
420
  2299925
370
     9
100
AcDbLine
 10
80.81494805428405
 20
-145.7145996598729
 30
0.0
 11
80.81494805428405
 21
-146.2148032708591
 31
0.0
  0
LINE
  5
100
330
AC
100
AcDbEntity
  8
レイヤー 1
 62
   250
420
  2299925
370
     9
100
AcDbLine
 10
82.27498732667619
 20
-145.7145996598729
 30
0.0
 11
79.81485627832859
 21
-145.7145996598729
 31
0.0
  0
LINE
  5
101
330
AC
100
AcDbEntity
  8
レイヤー 1
 62
   250
420
  2299925
370
     9
100
AcDbLine
 10
82.27498732667619
 20
-146.2148032708591
 30
0.0
 11
79.81485627832859
 21
-146.2148032708591
 31
0.0
  0
INSERT
  5
103
330
AC
100
AcDbEntity
  8
レイヤー 1
100
AcDbBlockReference
  2
Block_7
 10
0.0
 20
0.0
 30
0.0
  0
LINE
  5
111
330
AC
100
AcDbEntity
  8
レイヤー 1
 62
   250
420
  2299925
370
     9
100
AcDbLine
 10
84.81470503966006
 20
-140.9524171610631
 30
0.0
 11
105.8158478372099
 21
-140.9524171610631
 31
0.0
  0
LINE
  5
112
330
AC
100
AcDbEntity
  8
レイヤー 1
 62
   250
420
  2299925
370
     9
100
AcDbLine
 10
84.81470503966006
 20
-143.1745291049519
 30
0.0
 11
84.81470503966006
 21
-139.9526449390912
 31
0.0
  0
INSERT
  5
114
330
AC
100
AcDbEntity
  8
レイヤー 1
100
AcDbBlockReference
  2
Block_9
 10
0.0
 20
0.0
 30
0.0
  0
LINE
  5
11F
330
AC
100
AcDbEntity
  8
レイヤー 1
 62
   250
420
  2299925
370
     9
100
AcDbLine
 10
80.81494805428405
 20
-146.2148032708591
 30
0.0
 11
80.81494805428405
 21
-154.21467437997
 31
0.0
  0
LINE
  5
120
330
AC
100
AcDbEntity
  8
レイヤー 1
 62
   250
420
  2299925
370
     9
100
AcDbLine
 10
101.5248001689059
 20
-154.21467437997
 30
0.0
 11
79.81485627832859
 21
-154.21467437997
 31
0.0
  0
INSERT
  5
122
330
AC
100
AcDbEntity
  8
レイヤー 1
100
AcDbBlockReference
  2
Block_11
 10
0.0
 20
0.0
 30
0.0
  0
LINE
  5
129
330
AC
100
AcDbEntity
  8
レイヤー 1
 62
   250
420
  2299925
370
     9
100
AcDbLine
 10
107.765086120814
 20
-150.0702057698947
 30
0.0
 11
115.7646042500626
 21
-150.0702057698947
 31
0.0
  0
INSERT
  5
12B
330
AC
100
AcDbEntity
  8
レイヤー 1
100
AcDbBlockReference
  2
Block_12
 10
0.0
 20
0.0
 30
0.0
  0
INSERT
  5
131
330
AC
100
AcDbEntity
  8
レイヤー 1
100
AcDbBlockReference
  2
Block_13
 10
0.0
 20
0.0
 30
0.0
  0
ENDBLK
  5
AF
330
AC
100
AcDbEntity
  8
0
100
AcDbBlockEnd
  0
BLOCK
  5
F0
330
EE
100
AcDbEntity
  8
0
100
AcDbBlockBegin
  2
Block_5
 70
     0
 10
0.0
 20
0.0
 30
0.0
  3
Block_5
  1

  0
SPLINE
  5
F2
330
EE
100
AcDbEntity
  8
レイヤー 1
100
AcDbSpline
210
0.0
220
0.0
230
1.0
 70
     9
 71
     3
 72
    62
 73
    58
 74
     0
 42
0.0000000001
 43
0.0000000001
 40
0.0
 40
0.0
 40
0.0
 40
0.0
 40
1.0
 40
1.0
 40
1.0
 40
2.0
 40
2.0
 40
2.0
 40
3.0
 40
3.0
 40
3.0
 40
4.0
 40
4.0
 40
4.0
 40
5.0
 40
5.0
 40
5.0
 40
6.0
 40
6.0
 40
6.0
 40
7.0
 40
7.0
 40
7.0
 40
8.0
 40
8.0
 40
8.0
 40
9.0
 40
9.0
 40
9.0
 40
10.0
 40
10.0
 40
10.0
 40
11.0
 40
11.0
 40
11.0
 40
12.0
 40
12.0
 40
12.0
 40
13.0
 40
13.0
 40
13.0
 40
14.0
 40
14.0
 40
14.0
 40
15.0
 40
15.0
 40
15.0
 40
16.0
 40
16.0
 40
16.0
 40
17.0
 40
17.0
 40
17.0
 40
18.0
 40
18.0
 40
18.0
 40
19.0
 40
19.0
 40
19.0
 40
19.0
 10
107.3078341745619
 20
-140.2901448216983
 30
0.0
 10
107.2124050296205
 20
-140.2901448216983
 30
0.0
 10
106.9946749949527
 20
-140.268957484464
 30
0.0
 10
106.8696180288381
 20
-140.0827500734862
 30
0.0
 10
106.7958929854538
 20
-139.9706122154414
 30
0.0
 10
106.791414361323
 20
-139.8712212106919
 30
0.0
 10
106.7872802467407
 20
-139.786644116529
 30
0.0
 10
106.7872802467407
 20
-139.786644116529
 30
0.0
 10
107.0074218482481
 20
-139.786644116529
 30
0.0
 10
107.0074218482481
 20
-139.786644116529
 30
0.0
 10
107.0094889055393
 20
-139.8607136694619
 30
0.0
 10
107.019824191995
 20
-140.0954969267817
 30
0.0
 10
107.3033555504311
 20
-140.0954969267817
 30
0.0
 10
107.4408148602925
 20
-140.0954969267817
 30
0.0
 10
107.5934325902891
 20
-140.0257337432053
 30
0.0
 10
107.5934325902891
 20
-139.797151657759
 30
0.0
 10
107.5934325902891
 20
-139.6808796851318
 30
0.0
 10
107.5551920304029
 20
-139.6321315840156
 30
0.0
 10
107.5234971519385
 20
-139.6004367055513
 30
0.0
 10
107.4494275990057
 20
-139.5263671526184
 30
0.0
 10
107.3329833716042
 20
-139.5137925540972
 30
0.0
 10
107.2782063533888
 20
-139.5137925540972
 30
0.0
 10
107.2589138186714
 20
-139.5137925540972
 30
0.0
 10
107.2230848256248
 20
-139.5158596113884
 30
0.0
 10
107.1955240617428
 20
-139.5199937259707
 30
0.0
 10
107.1955240617428
 20
-139.5199937259707
 30
0.0
 10
107.1955240617428
 20
-139.3255180858283
 30
0.0
 10
107.1955240617428
 20
-139.3255180858283
 30
0.0
 10
107.233764621629
 20
-139.3317192577018
 30
0.0
 10
107.2757947865491
 20
-139.3339585697672
 30
0.0
 10
107.2823404679711
 20
-139.3339585697672
 30
0.0
 10
107.3477972821908
 20
-139.3339585697672
 30
0.0
 10
107.5465792916897
 20
-139.3127712325329
 30
0.0
 10
107.5465792916897
 20
-139.0757486631477
 30
0.0
 10
107.5465792916897
 20
-138.8981539908831
 30
0.0
 10
107.4156656632502
 20
-138.8430324631191
 30
0.0
 10
107.3054226077222
 20
-138.8430324631191
 30
0.0
 10
107.0411837840036
 20
-138.8430324631191
 30
0.0
 10
107.0325710452904
 20
-139.0757486631477
 30
0.0
 10
107.0284369307081
 20
-139.1477511587894
 30
0.0
 10
107.0284369307081
 20
-139.1477511587894
 30
0.0
 10
106.8251762970784
 20
-139.1477511587894
 30
0.0
 10
106.8251762970784
 20
-139.1477511587894
 30
0.0
 10
106.8337890357915
 20
-139.0228664474491
 30
0.0
 10
106.8613497996735
 20
-138.6463175109113
 30
0.0
 10
107.3181694610177
 20
-138.6463175109113
 30
0.0
 10
107.5424451771074
 20
-138.6463175109113
 30
0.0
 10
107.7836018610749
 20
-138.7732692795428
 30
0.0
 10
107.7836018610749
 20
-139.0693752365
 30
0.0
 10
107.7836018610749
 20
-139.2555826474778
 30
0.0
 10
107.688517225682
 20
-139.3380926843495
 30
0.0
 10
107.5889539661583
 20
-139.3994153839869
 30
0.0
 10
107.6502766657958
 20
-139.4269761478689
 30
0.0
 10
107.8321777074169
 20
-139.5074191274495
 30
0.0
 10
107.8321777074169
 20
-139.7845770592379
 30
0.0
 10
107.8321777074169
 20
-140.1230576906637
 30
0.0
 10
107.584819851576
 20
-140.2901448216983
 30
0.0
 10
107.3078341745619
 20
-140.2901448216983
 30
0.0
  0
HATCH
  5
F3
330
EE
100
AcDbEntity
  8
レイヤー 1
 62
   250
420
  2299925
440
 33554687
100
AcDbHatch
 10
0.0
 20
0.0
 30
0.0
210
0.0
220
0.0
230
1.0
  2
SOLID
 70
     1
 71
     1
 91
        1
 92
        1
 93
        1
 72
     4
 94
        3
 73
     0
 74
     0
 95
       62
 96
       58
 40
0.0
 40
0.0
 40
0.0
 40
0.0
 40
1.0
 40
1.0
 40
1.0
 40
2.0
 40
2.0
 40
2.0
 40
3.0
 40
3.0
 40
3.0
 40
4.0
 40
4.0
 40
4.0
 40
5.0
 40
5.0
 40
5.0
 40
6.0
 40
6.0
 40
6.0
 40
7.0
 40
7.0
 40
7.0
 40
8.0
 40
8.0
 40
8.0
 40
9.0
 40
9.0
 40
9.0
 40
10.0
 40
10.0
 40
10.0
 40
11.0
 40
11.0
 40
11.0
 40
12.0
 40
12.0
 40
12.0
 40
13.0
 40
13.0
 40
13.0
 40
14.0
 40
14.0
 40
14.0
 40
15.0
 40
15.0
 40
15.0
 40
16.0
 40
16.0
 40
16.0
 40
17.0
 40
17.0
 40
17.0
 40
18.0
 40
18.0
 40
18.0
 40
19.0
 40
19.0
 40
19.0
 40
19.0
 10
107.3078341745619
 20
-140.2901448216983
 10
107.2124050296205
 20
-140.2901448216983
 10
106.9946749949527
 20
-140.268957484464
 10
106.8696180288381
 20
-140.0827500734862
 10
106.7958929854538
 20
-139.9706122154414
 10
106.791414361323
 20
-139.8712212106919
 10
106.7872802467407
 20
-139.786644116529
 10
106.7872802467407
 20
-139.786644116529
 10
107.0074218482481
 20
-139.786644116529
 10
107.0074218482481
 20
-139.786644116529
 10
107.0094889055393
 20
-139.8607136694619
 10
107.019824191995
 20
-140.0954969267817
 10
107.3033555504311
 20
-140.0954969267817
 10
107.4408148602925
 20
-140.0954969267817
 10
107.5934325902891
 20
-140.0257337432053
 10
107.5934325902891
 20
-139.797151657759
 10
107.5934325902891
 20
-139.6808796851318
 10
107.5551920304029
 20
-139.6321315840156
 10
107.5234971519385
 20
-139.6004367055513
 10
107.4494275990057
 20
-139.5263671526184
 10
107.3329833716042
 20
-139.5137925540972
 10
107.2782063533888
 20
-139.5137925540972
 10
107.2589138186714
 20
-139.5137925540972
 10
107.2230848256248
 20
-139.5158596113884
 10
107.1955240617428
 20
-139.5199937259707
 10
107.1955240617428
 20
-139.5199937259707
 10
107.1955240617428
 20
-139.3255180858283
 10
107.1955240617428
 20
-139.3255180858283
 10
107.233764621629
 20
-139.3317192577018
 10
107.2757947865491
 20
-139.3339585697672
 10
107.2823404679711
 20
-139.3339585697672
 10
107.3477972821908
 20
-139.3339585697672
 10
107.5465792916897
 20
-139.3127712325329
 10
107.5465792916897
 20
-139.0757486631477
 10
107.5465792916897
 20
-138.8981539908831
 10
107.4156656632502
 20
-138.8430324631191
 10
107.3054226077222
 20
-138.8430324631191
 10
107.0411837840036
 20
-138.8430324631191
 10
107.0325710452904
 20
-139.0757486631477
 10
107.0284369307081
 20
-139.1477511587894
 10
107.0284369307081
 20
-139.1477511587894
 10
106.8251762970784
 20
-139.1477511587894
 10
106.8251762970784
 20
-139.1477511587894
 10
106.8337890357915
 20
-139.0228664474491
 10
106.8613497996735
 20
-138.6463175109113
 10
107.3181694610177
 20
-138.6463175109113
 10
107.5424451771074
 20
-138.6463175109113
 10
107.7836018610749
 20
-138.7732692795428
 10
107.7836018610749
 20
-139.0693752365
 10
107.7836018610749
 20
-139.2555826474778
 10
107.688517225682
 20
-139.3380926843495
 10
107.5889539661583
 20
-139.3994153839869
 10
107.6502766657958
 20
-139.4269761478689
 10
107.8321777074169
 20
-139.5074191274495
 10
107.8321777074169
 20
-139.7845770592379
 10
107.8321777074169
 20
-140.1230576906637
 10
107.584819851576
 20
-140.2901448216983
 10
107.3078341745619
 20
-140.2901448216983
 97
        0
 97
        1
330
F2
 75
     2
 76
     1
 98
        1
 10
0.0
 20
0.0
450
        0
451
        0
460
0.0
461
0.0
452
        0
462
0.0
453
        0
470

  0
ENDBLK
  5
F1
330
EE
100
AcDbEntity
  8
0
100
AcDbBlockEnd
  0
BLOCK
  5
F9
330
F7
100
AcDbEntity
  8
0
100
AcDbBlockBegin
  2
Block_6
 70
     0
 10
0.0
 20
0.0
 30
0.0
  3
Block_6
  1

  0
SPLINE
  5
FB
330
F7
100
AcDbEntity
  8
レイヤー 1
100
AcDbSpline
210
0.0
220
0.0
230
1.0
 70
     9
 71
     3
 72
    17
 73
    13
 74
     0
 42
0.0000000001
 43
0.0000000001
 40
0.0
 40
0.0
 40
0.0
 40
0.0
 40
1.0
 40
1.0
 40
1.0
 40
2.0
 40
2.0
 40
2.0
 40
3.0
 40
3.0
 40
3.0
 40
4.0
 40
4.0
 40
4.0
 40
4.0
 10
106.6126139056385
 20
-156.6925889365213
 30
0.0
 10
106.350442139211
 20
-156.6925889365213
 30
0.0
 10
106.3125460888732
 20
-156.9041177993156
 30
0.0
 10
106.3125460888732
 20
-157.0205620267171
 30
0.0
 10
106.3125460888732
 20
-157.1962618964648
 30
0.0
 10
106.4076307242661
 20
-157.3592149129171
 30
0.0
 10
106.5915988231785
 20
-157.3592149129171
 30
0.0
 10
106.7121771651622
 20
-157.3592149129171
 30
0.0
 10
106.88787703491
 20
-157.2999592705708
 30
0.0
 10
106.88787703491
 20
-157.0143608548436
 30
0.0
 10
106.88787703491
 20
-156.7900851387538
 30
0.0
 10
106.7483506677573
 20
-156.6925889365213
 30
0.0
 10
106.6126139056385
 20
-156.6925889365213
 30
0.0
  0
SPLINE
  5
FC
330
F7
100
AcDbEntity
  8
レイヤー 1
100
AcDbSpline
210
0.0
220
0.0
230
1.0
 70
     9
 71
     3
 72
    32
 73
    28
 74
     0
 42
0.0000000001
 43
0.0000000001
 40
0.0
 40
0.0
 40
0.0
 40
0.0
 40
1.0
 40
1.0
 40
1.0
 40
2.0
 40
2.0
 40
2.0
 40
3.0
 40
3.0
 40
3.0
 40
4.0
 40
4.0
 40
4.0
 40
5.0
 40
5.0
 40
5.0
 40
6.0
 40
6.0
 40
6.0
 40
7.0
 40
7.0
 40
7.0
 40
8.0
 40
8.0
 40
8.0
 40
9.0
 40
9.0
 40
9.0
 40
9.0
 10
106.5957329377608
 20
-157.5514512409941
 30
0.0
 10
106.0796576340703
 20
-157.5514512409941
 30
0.0
 10
106.0710448953572
 20
-156.9974798869659
 30
0.0
 10
106.0710448953572
 20
-156.7835394573319
 30
0.0
 10
106.0710448953572
 20
-156.5530625693686
 30
0.0
 10
106.0903374300746
 20
-155.9057291276902
 30
0.0
 10
106.633973497647
 20
-155.9057291276902
 30
0.0
 10
106.8072618005551
 20
-155.9057291276902
 30
0.0
 10
107.0528971086534
 20
-155.9756645660408
 30
0.0
 10
107.0907931589912
 20
-156.3077717708189
 30
0.0
 10
107.0907931589912
 20
-156.3077717708189
 30
0.0
 10
106.8771972389057
 20
-156.3077717708189
 30
0.0
 10
106.8771972389057
 20
-156.3077717708189
 30
0.0
 10
106.8665174429014
 20
-156.2505831857637
 30
0.0
 10
106.8348225644371
 20
-156.102444079898
 30
0.0
 10
106.6319064403559
 20
-156.102444079898
 30
0.0
 10
106.3397623432067
 20
-156.102444079898
 30
0.0
 10
106.2997992355778
 20
-156.4304171700938
 30
0.0
 10
106.2870523822824
 20
-156.6354003514661
 30
0.0
 10
106.3800699603841
 20
-156.557196683951
 30
0.0
 10
106.4479383414435
 20
-156.4979410416047
 30
0.0
 10
106.6298393830647
 20
-156.4979410416047
 30
0.0
 10
106.8096733673948
 20
-156.4979410416047
 30
0.0
 10
107.1121527509997
 20
-156.6061170398415
 30
0.0
 10
107.1121527509997
 20
-157.0122937975525
 30
0.0
 10
107.1121527509997
 20
-157.3316541490351
 30
0.0
 10
106.9130262319523
 20
-157.5514512409941
 30
0.0
 10
106.5957329377608
 20
-157.5514512409941
 30
0.0
  0
HATCH
  5
FD
330
F7
100
AcDbEntity
  8
レイヤー 1
 62
   250
420
  2299925
440
 33554687
100
AcDbHatch
 10
0.0
 20
0.0
 30
0.0
210
0.0
220
0.0
230
1.0
  2
SOLID
 70
     1
 71
     1
 91
        2
 92
        1
 93
        1
 72
     4
 94
        3
 73
     0
 74
     0
 95
       17
 96
       13
 40
0.0
 40
0.0
 40
0.0
 40
0.0
 40
1.0
 40
1.0
 40
1.0
 40
2.0
 40
2.0
 40
2.0
 40
3.0
 40
3.0
 40
3.0
 40
4.0
 40
4.0
 40
4.0
 40
4.0
 10
106.6126139056385
 20
-156.6925889365213
 10
106.350442139211
 20
-156.6925889365213
 10
106.3125460888732
 20
-156.9041177993156
 10
106.3125460888732
 20
-157.0205620267171
 10
106.3125460888732
 20
-157.1962618964648
 10
106.4076307242661
 20
-157.3592149129171
 10
106.5915988231785
 20
-157.3592149129171
 10
106.7121771651622
 20
-157.3592149129171
 10
106.88787703491
 20
-157.2999592705708
 10
106.88787703491
 20
-157.0143608548436
 10
106.88787703491
 20
-156.7900851387538
 10
106.7483506677573
 20
-156.6925889365213
 10
106.6126139056385
 20
-156.6925889365213
 97
        0
 97
        1
330
FB
 92
        1
 93
        1
 72
     4
 94
        3
 73
     0
 74
     0
 95
       32
 96
       28
 40
0.0
 40
0.0
 40
0.0
 40
0.0
 40
1.0
 40
1.0
 40
1.0
 40
2.0
 40
2.0
 40
2.0
 40
3.0
 40
3.0
 40
3.0
 40
4.0
 40
4.0
 40
4.0
 40
5.0
 40
5.0
 40
5.0
 40
6.0
 40
6.0
 40
6.0
 40
7.0
 40
7.0
 40
7.0
 40
8.0
 40
8.0
 40
8.0
 40
9.0
 40
9.0
 40
9.0
 40
9.0
 10
106.5957329377608
 20
-157.5514512409941
 10
106.0796576340703
 20
-157.5514512409941
 10
106.0710448953572
 20
-156.9974798869659
 10
106.0710448953572
 20
-156.7835394573319
 10
106.0710448953572
 20
-156.5530625693686
 10
106.0903374300746
 20
-155.9057291276902
 10
106.633973497647
 20
-155.9057291276902
 10
106.8072618005551
 20
-155.9057291276902
 10
107.0528971086534
 20
-155.9756645660408
 10
107.0907931589912
 20
-156.3077717708189
 10
107.0907931589912
 20
-156.3077717708189
 10
106.8771972389057
 20
-156.3077717708189
 10
106.8771972389057
 20
-156.3077717708189
 10
106.8665174429014
 20
-156.2505831857637
 10
106.8348225644371
 20
-156.102444079898
 10
106.6319064403559
 20
-156.102444079898
 10
106.3397623432067
 20
-156.102444079898
 10
106.2997992355778
 20
-156.4304171700938
 10
106.2870523822824
 20
-156.6354003514661
 10
106.3800699603841
 20
-156.557196683951
 10
106.4479383414435
 20
-156.4979410416047
 10
106.6298393830647
 20
-156.4979410416047
 10
106.8096733673948
 20
-156.4979410416047
 10
107.1121527509997
 20
-156.6061170398415
 10
107.1121527509997
 20
-157.0122937975525
 10
107.1121527509997
 20
-157.3316541490351
 10
106.9130262319523
 20
-157.5514512409941
 10
106.5957329377608
 20
-157.5514512409941
 97
        0
 97
        1
330
FC
 75
     2
 76
     1
 98
        1
 10
0.0
 20
0.0
450
        0
451
        0
460
0.0
461
0.0
452
        0
462
0.0
453
        0
470

  0
ENDBLK
  5
FA
330
F7
100
AcDbEntity
  8
0
100
AcDbBlockEnd
  0
BLOCK
  5
104
330
102
100
AcDbEntity
  8
0
100
AcDbBlockBegin
  2
Block_7
 70
     0
 10
0.0
 20
0.0
 30
0.0
  3
Block_7
  1

  0
INSERT
  5
107
330
102
100
AcDbEntity
  8
レイヤー 1
100
AcDbBlockReference
  2
Block_8
 10
0.0
 20
0.0
 30
0.0
  0
ENDBLK
  5
105
330
102
100
AcDbEntity
  8
0
100
AcDbBlockEnd
  0
BLOCK
  5
108
330
106
100
AcDbEntity
  8
0
100
AcDbBlockBegin
  2
Block_8
 70
     0
 10
0.0
 20
0.0
 30
0.0
  3
Block_8
  1

  0
SPLINE
  5
10A
330
106
100
AcDbEntity
  8
レイヤー 1
100
AcDbSpline
210
0.0
220
0.0
230
1.0
 70
     9
 71
     3
 72
    17
 73
    13
 74
     0
 42
0.0000000001
 43
0.0000000001
 40
0.0
 40
0.0
 40
0.0
 40
0.0
 40
1.0
 40
1.0
 40
1.0
 40
2.0
 40
2.0
 40
2.0
 40
3.0
 40
3.0
 40
3.0
 40
4.0
 40
4.0
 40
4.0
 40
4.0
 10
77.97026229604563
 20
-146.8692436698799
 30
0.0
 10
77.97026229604563
 20
-147.1190130925605
 30
0.0
 10
78.25362139970742
 20
-147.1655218816114
 30
0.0
 10
78.59847545778094
 20
-147.1655218816114
 30
0.0
 10
78.91800806403786
 20
-147.1655218816114
 30
0.0
 10
79.22686087429051
 20
-147.1293483790162
 30
0.0
 10
79.22686087429051
 20
-146.8692436698799
 30
0.0
 10
79.22686087429051
 20
-146.6217135592647
 30
0.0
 10
78.9453965731456
 20
-146.5729654581484
 30
0.0
 10
78.59847545778094
 20
-146.5729654581484
 30
0.0
 10
78.27911510629828
 20
-146.5729654581484
 30
0.0
 10
77.97026229604563
 20
-146.6112060180347
 30
0.0
 10
77.97026229604563
 20
-146.8692436698799
 30
0.0
  0
SPLINE
  5
10B
330
106
100
AcDbEntity
  8
レイヤー 1
100
AcDbSpline
210
0.0
220
0.0
230
1.0
 70
     9
 71
     3
 72
    29
 73
    25
 74
     0
 42
0.0000000001
 43
0.0000000001
 40
0.0
 40
0.0
 40
0.0
 40
0.0
 40
1.0
 40
1.0
 40
1.0
 40
2.0
 40
2.0
 40
2.0
 40
3.0
 40
3.0
 40
3.0
 40
4.0
 40
4.0
 40
4.0
 40
5.0
 40
5.0
 40
5.0
 40
6.0
 40
6.0
 40
6.0
 40
7.0
 40
7.0
 40
7.0
 40
8.0
 40
8.0
 40
8.0
 40
8.0
 10
79.1929266837608
 20
-146.4715073961078
 30
0.0
 10
79.40238848926398
 20
-146.5793388847961
 30
0.0
 10
79.42150876920712
 20
-146.7527994424784
 30
0.0
 10
79.42150876920712
 20
-146.8692436698799
 30
0.0
 10
79.42150876920712
 20
-147.0301296290411
 30
0.0
 10
79.37499998015624
 20
-147.1717230534848
 30
0.0
 10
79.1929266837608
 20
-147.2668076888777
 30
0.0
 10
78.99845104361844
 20
-147.3705050629837
 30
0.0
 10
78.76142847423325
 20
-147.3897975977012
 30
0.0
 10
78.59847545778094
 20
-147.3897975977012
 30
0.0
 10
78.45464272127175
 20
-147.3897975977012
 30
0.0
 10
78.20297849607427
 20
-147.3725721202749
 30
0.0
 10
78.00402423180108
 20
-147.2668076888777
 30
0.0
 10
77.8009358529456
 20
-147.1589762001894
 30
0.0
 10
77.77768145842016
 20
-146.9980902410282
 30
0.0
 10
77.77768145842016
 20
-146.8692436698799
 30
0.0
 10
77.77768145842016
 20
-146.7104247680099
 30
0.0
 10
77.8221231901799
 20
-146.5667642862749
 30
0.0
 10
78.00402423180108
 20
-146.4715073961078
 30
0.0
 10
78.19660506942655
 20
-146.3721163913583
 30
0.0
 10
78.42501490009862
 20
-146.3488619968329
 30
0.0
 10
78.59847545778094
 20
-146.3488619968329
 30
0.0
 10
78.76986895817212
 20
-146.3488619968329
 30
0.0
 10
79.0005181009096
 20
-146.3698770792929
 30
0.0
 10
79.1929266837608
 20
-146.4715073961078
 30
0.0
  0
HATCH
  5
10C
330
106
100
AcDbEntity
  8
レイヤー 1
 62
   250
420
  2299925
440
 33554687
100
AcDbHatch
 10
0.0
 20
0.0
 30
0.0
210
0.0
220
0.0
230
1.0
  2
SOLID
 70
     1
 71
     1
 91
        2
 92
        1
 93
        1
 72
     4
 94
        3
 73
     0
 74
     0
 95
       17
 96
       13
 40
0.0
 40
0.0
 40
0.0
 40
0.0
 40
1.0
 40
1.0
 40
1.0
 40
2.0
 40
2.0
 40
2.0
 40
3.0
 40
3.0
 40
3.0
 40
4.0
 40
4.0
 40
4.0
 40
4.0
 10
77.97026229604563
 20
-146.8692436698799
 10
77.97026229604563
 20
-147.1190130925605
 10
78.25362139970742
 20
-147.1655218816114
 10
78.59847545778094
 20
-147.1655218816114
 10
78.91800806403786
 20
-147.1655218816114
 10
79.22686087429051
 20
-147.1293483790162
 10
79.22686087429051
 20
-146.8692436698799
 10
79.22686087429051
 20
-146.6217135592647
 10
78.9453965731456
 20
-146.5729654581484
 10
78.59847545778094
 20
-146.5729654581484
 10
78.27911510629828
 20
-146.5729654581484
 10
77.97026229604563
 20
-146.6112060180347
 10
77.97026229604563
 20
-146.8692436698799
 97
        0
 97
        1
330
10A
 92
        1
 93
        1
 72
     4
 94
        3
 73
     0
 74
     0
 95
       29
 96
       25
 40
0.0
 40
0.0
 40
0.0
 40
0.0
 40
1.0
 40
1.0
 40
1.0
 40
2.0
 40
2.0
 40
2.0
 40
3.0
 40
3.0
 40
3.0
 40
4.0
 40
4.0
 40
4.0
 40
5.0
 40
5.0
 40
5.0
 40
6.0
 40
6.0
 40
6.0
 40
7.0
 40
7.0
 40
7.0
 40
8.0
 40
8.0
 40
8.0
 40
8.0
 10
79.1929266837608
 20
-146.4715073961078
 10
79.40238848926398
 20
-146.5793388847961
 10
79.42150876920712
 20
-146.7527994424784
 10
79.42150876920712
 20
-146.8692436698799
 10
79.42150876920712
 20
-147.0301296290411
 10
79.37499998015624
 20
-147.1717230534848
 10
79.1929266837608
 20
-147.2668076888777
 10
78.99845104361844
 20
-147.3705050629837
 10
78.76142847423325
 20
-147.3897975977012
 10
78.59847545778094
 20
-147.3897975977012
 10
78.45464272127175
 20
-147.3897975977012
 10
78.20297849607427
 20
-147.3725721202749
 10
78.00402423180108
 20
-147.2668076888777
 10
77.8009358529456
 20
-147.1589762001894
 10
77.77768145842016
 20
-146.9980902410282
 10
77.77768145842016
 20
-146.8692436698799
 10
77.77768145842016
 20
-146.7104247680099
 10
77.8221231901799
 20
-146.5667642862749
 10
78.00402423180108
 20
-146.4715073961078
 10
78.19660506942655
 20
-146.3721163913583
 10
78.42501490009862
 20
-146.3488619968329
 10
78.59847545778094
 20
-146.3488619968329
 10
78.76986895817212
 20
-146.3488619968329
 10
79.0005181009096
 20
-146.3698770792929
 10
79.1929266837608
 20
-146.4715073961078
 97
        0
 97
        1
330
10B
 75
     2
 76
     1
 98
        1
 10
0.0
 20
0.0
450
        0
451
        0
460
0.0
461
0.0
452
        0
462
0.0
453
        0
470

  0
SPLINE
  5
10D
330
106
100
AcDbEntity
  8
レイヤー 1
100
AcDbSpline
210
0.0
220
0.0
230
1.0
 70
    11
 71
     3
 72
    17
 73
    13
 74
     0
 42
0.0000000001
 43
0.0000000001
 40
0.0
 40
0.0
 40
0.0
 40
0.0
 40
1.0
 40
1.0
 40
1.0
 40
2.0
 40
2.0
 40
2.0
 40
3.0
 40
3.0
 40
3.0
 40
4.0
 40
4.0
 40
4.0
 40
4.0
 10
79.37069361079969
 20
-146.132337745585
 30
0.0
 10
79.37069361079969
 20
-146.132337745585
 30
0.0
 10
79.11902938560219
 20
-146.132337745585
 30
0.0
 10
79.11902938560219
 20
-146.132337745585
 30
0.0
 10
79.11902938560219
 20
-146.132337745585
 30
0.0
 10
79.11902938560219
 20
-145.8806735203875
 30
0.0
 10
79.11902938560219
 20
-145.8806735203875
 30
0.0
 10
79.11902938560219
 20
-145.8806735203875
 30
0.0
 10
79.37069361079969
 20
-145.8806735203875
 30
0.0
 10
79.37069361079969
 20
-145.8806735203875
 30
0.0
 10
79.37069361079969
 20
-145.8806735203875
 30
0.0
 10
79.37069361079969
 20
-146.132337745585
 30
0.0
 10
79.37069361079969
 20
-146.132337745585
 30
0.0
  0
HATCH
  5
10E
330
106
100
AcDbEntity
  8
レイヤー 1
 62
   250
420
  2299925
440
 33554687
100
AcDbHatch
 10
0.0
 20
0.0
 30
0.0
210
0.0
220
0.0
230
1.0
  2
SOLID
 70
     1
 71
     1
 91
        1
 92
        1
 93
        1
 72
     4
 94
        3
 73
     0
 74
     0
 95
       17
 96
       13
 40
0.0
 40
0.0
 40
0.0
 40
0.0
 40
1.0
 40
1.0
 40
1.0
 40
2.0
 40
2.0
 40
2.0
 40
3.0
 40
3.0
 40
3.0
 40
4.0
 40
4.0
 40
4.0
 40
4.0
 10
79.37069361079969
 20
-146.132337745585
 10
79.37069361079969
 20
-146.132337745585
 10
79.11902938560219
 20
-146.132337745585
 10
79.11902938560219
 20
-146.132337745585
 10
79.11902938560219
 20
-146.132337745585
 10
79.11902938560219
 20
-145.8806735203875
 10
79.11902938560219
 20
-145.8806735203875
 10
79.11902938560219
 20
-145.8806735203875
 10
79.37069361079969
 20
-145.8806735203875
 10
79.37069361079969
 20
-145.8806735203875
 10
79.37069361079969
 20
-145.8806735203875
 10
79.37069361079969
 20
-146.132337745585
 10
79.37069361079969
 20
-146.132337745585
 97
        0
 97
        1
330
10D
 75
     2
 76
     1
 98
        1
 10
0.0
 20
0.0
450
        0
451
        0
460
0.0
461
0.0
452
        0
462
0.0
453
        0
470

  0
SPLINE
  5
10F
330
106
100
AcDbEntity
  8
レイヤー 1
100
AcDbSpline
210
0.0
220
0.0
230
1.0
 70
     9
 71
     3
 72
    53
 73
    49
 74
     0
 42
0.0000000001
 43
0.0000000001
 40
0.0
 40
0.0
 40
0.0
 40
0.0
 40
1.0
 40
1.0
 40
1.0
 40
2.0
 40
2.0
 40
2.0
 40
3.0
 40
3.0
 40
3.0
 40
4.0
 40
4.0
 40
4.0
 40
5.0
 40
5.0
 40
5.0
 40
6.0
 40
6.0
 40
6.0
 40
7.0
 40
7.0
 40
7.0
 40
8.0
 40
8.0
 40
8.0
 40
9.0
 40
9.0
 40
9.0
 40
10.0
 40
10.0
 40
10.0
 40
11.0
 40
11.0
 40
11.0
 40
12.0
 40
12.0
 40
12.0
 40
13.0
 40
13.0
 40
13.0
 40
14.0
 40
14.0
 40
14.0
 40
15.0
 40
15.0
 40
15.0
 40
16.0
 40
16.0
 40
16.0
 40
16.0
 10
79.42150876920712
 20
-145.1630601308099
 30
0.0
 10
79.42150876920712
 20
-145.2414360530993
 30
0.0
 10
79.40462780132939
 20
-145.34289411514
 30
0.0
 10
79.34106578962654
 20
-145.4445244319548
 30
0.0
 10
79.23099498887281
 20
-145.6179849896371
 30
0.0
 10
79.09990910565905
 20
-145.6391723268714
 30
0.0
 10
78.99207761697073
 20
-145.6581203520403
 30
0.0
 10
78.99207761697073
 20
-145.6581203520403
 30
0.0
 10
78.99207761697073
 20
-145.4360839480159
 30
0.0
 10
78.99207761697073
 20
-145.4360839480159
 30
0.0
 10
79.19085962646964
 20
-145.380962420252
 30
0.0
 10
79.22048744764279
 20
-145.2540106516205
 30
0.0
 10
79.22048744764279
 20
-145.1609930735188
 30
0.0
 10
79.22048744764279
 20
-145.0212944515919
 30
0.0
 10
79.12109644289334
 20
-144.8690212311438
 30
0.0
 10
78.88838024286471
 20
-144.8690212311438
 30
0.0
 10
78.63240964831065
 20
-144.8690212311438
 30
0.0
 10
78.56264646473434
 20
-145.0488552154739
 30
0.0
 10
78.56264646473434
 20
-145.1694335574576
 30
0.0
 10
78.56264646473434
 20
-145.2011284359219
 30
0.0
 10
78.56264646473434
 20
-145.34289411514
 30
0.0
 10
78.69166529065694
 20
-145.4317775786594
 30
0.0
 10
78.69166529065694
 20
-145.4317775786594
 30
0.0
 10
78.67254501071382
 20
-145.6073051936329
 30
0.0
 10
78.67254501071382
 20
-145.6073051936329
 30
0.0
 10
78.67254501071382
 20
-145.6073051936329
 30
0.0
 10
77.82642955953645
 20
-145.4867268516491
 30
0.0
 10
77.82642955953645
 20
-145.4867268516491
 30
0.0
 10
77.82642955953645
 20
-145.4867268516491
 30
0.0
 10
77.82642955953645
 20
-144.7083075267569
 30
0.0
 10
77.82642955953645
 20
-144.7083075267569
 30
0.0
 10
77.82642955953645
 20
-144.7083075267569
 30
0.0
 10
78.02107745445306
 20
-144.7083075267569
 30
0.0
 10
78.02107745445306
 20
-144.7083075267569
 30
0.0
 10
78.02107745445306
 20
-144.7083075267569
 30
0.0
 10
78.02107745445306
 20
-145.3239460899711
 30
0.0
 10
78.02107745445306
 20
-145.3239460899711
 30
0.0
 10
78.02107745445306
 20
-145.3239460899711
 30
0.0
 10
78.44413518004174
 20
-145.3894029041908
 30
0.0
 10
78.44413518004174
 20
-145.3894029041908
 30
0.0
 10
78.41020098951203
 20
-145.3280802045534
 30
0.0
 10
78.37006562710887
 20
-145.2455701676816
 30
0.0
 10
78.37006562710887
 20
-145.1272311377633
 30
0.0
 10
78.37006562710887
 20
-144.8733276005004
 30
0.0
 10
78.55627303808663
 20
-144.6363050311152
 30
0.0
 10
78.86925996292157
 20
-144.6363050311152
 30
0.0
 10
79.18672551188734
 20
-144.6363050311152
 30
0.0
 10
79.42150876920712
 20
-144.860580747205
 30
0.0
 10
79.42150876920712
 20
-145.1630601308099
 30
0.0
  0
HATCH
  5
110
330
106
100
AcDbEntity
  8
レイヤー 1
 62
   250
420
  2299925
440
 33554687
100
AcDbHatch
 10
0.0
 20
0.0
 30
0.0
210
0.0
220
0.0
230
1.0
  2
SOLID
 70
     1
 71
     1
 91
        1
 92
        1
 93
        1
 72
     4
 94
        3
 73
     0
 74
     0
 95
       53
 96
       49
 40
0.0
 40
0.0
 40
0.0
 40
0.0
 40
1.0
 40
1.0
 40
1.0
 40
2.0
 40
2.0
 40
2.0
 40
3.0
 40
3.0
 40
3.0
 40
4.0
 40
4.0
 40
4.0
 40
5.0
 40
5.0
 40
5.0
 40
6.0
 40
6.0
 40
6.0
 40
7.0
 40
7.0
 40
7.0
 40
8.0
 40
8.0
 40
8.0
 40
9.0
 40
9.0
 40
9.0
 40
10.0
 40
10.0
 40
10.0
 40
11.0
 40
11.0
 40
11.0
 40
12.0
 40
12.0
 40
12.0
 40
13.0
 40
13.0
 40
13.0
 40
14.0
 40
14.0
 40
14.0
 40
15.0
 40
15.0
 40
15.0
 40
16.0
 40
16.0
 40
16.0
 40
16.0
 10
79.42150876920712
 20
-145.1630601308099
 10
79.42150876920712
 20
-145.2414360530993
 10
79.40462780132939
 20
-145.34289411514
 10
79.34106578962654
 20
-145.4445244319548
 10
79.23099498887281
 20
-145.6179849896371
 10
79.09990910565905
 20
-145.6391723268714
 10
78.99207761697073
 20
-145.6581203520403
 10
78.99207761697073
 20
-145.6581203520403
 10
78.99207761697073
 20
-145.4360839480159
 10
78.99207761697073
 20
-145.4360839480159
 10
79.19085962646964
 20
-145.380962420252
 10
79.22048744764279
 20
-145.2540106516205
 10
79.22048744764279
 20
-145.1609930735188
 10
79.22048744764279
 20
-145.0212944515919
 10
79.12109644289334
 20
-144.8690212311438
 10
78.88838024286471
 20
-144.8690212311438
 10
78.63240964831065
 20
-144.8690212311438
 10
78.56264646473434
 20
-145.0488552154739
 10
78.56264646473434
 20
-145.1694335574576
 10
78.56264646473434
 20
-145.2011284359219
 10
78.56264646473434
 20
-145.34289411514
 10
78.69166529065694
 20
-145.4317775786594
 10
78.69166529065694
 20
-145.4317775786594
 10
78.67254501071382
 20
-145.6073051936329
 10
78.67254501071382
 20
-145.6073051936329
 10
78.67254501071382
 20
-145.6073051936329
 10
77.82642955953645
 20
-145.4867268516491
 10
77.82642955953645
 20
-145.4867268516491
 10
77.82642955953645
 20
-145.4867268516491
 10
77.82642955953645
 20
-144.7083075267569
 10
77.82642955953645
 20
-144.7083075267569
 10
77.82642955953645
 20
-144.7083075267569
 10
78.02107745445306
 20
-144.7083075267569
 10
78.02107745445306
 20
-144.7083075267569
 10
78.02107745445306
 20
-144.7083075267569
 10
78.02107745445306
 20
-145.3239460899711
 10
78.02107745445306
 20
-145.3239460899711
 10
78.02107745445306
 20
-145.3239460899711
 10
78.44413518004174
 20
-145.3894029041908
 10
78.44413518004174
 20
-145.3894029041908
 10
78.41020098951203
 20
-145.3280802045534
 10
78.37006562710887
 20
-145.2455701676816
 10
78.37006562710887
 20
-145.1272311377633
 10
78.37006562710887
 20
-144.8733276005004
 10
78.55627303808663
 20
-144.6363050311152
 10
78.86925996292157
 20
-144.6363050311152
 10
79.18672551188734
 20
-144.6363050311152
 10
79.42150876920712
 20
-144.860580747205
 10
79.42150876920712
 20
-145.1630601308099
 97
        0
 97
        1
330
10F
 75
     2
 76
     1
 98
        1
 10
0.0
 20
0.0
450
        0
451
        0
460
0.0
461
0.0
452
        0
462
0.0
453
        0
470

  0
ENDBLK
  5
109
330
106
100
AcDbEntity
  8
0
100
AcDbBlockEnd
  0
BLOCK
  5
115
330
113
100
AcDbEntity
  8
0
100
AcDbBlockBegin
  2
Block_9
 70
     0
 10
0.0
 20
0.0
 30
0.0
  3
Block_9
  1

  0
INSERT
  5
118
330
113
100
AcDbEntity
  8
レイヤー 1
100
AcDbBlockReference
  2
Block_10
 10
0.0
 20
0.0
 30
0.0
  0
ENDBLK
  5
116
330
113
100
AcDbEntity
  8
0
100
AcDbBlockEnd
  0
BLOCK
  5
119
330
117
100
AcDbEntity
  8
0
100
AcDbBlockBegin
  2
Block_10
 70
     0
 10
0.0
 20
0.0
 30
0.0
  3
Block_10
  1

  0
SPLINE
  5
11B
330
117
100
AcDbEntity
  8
レイヤー 1
100
AcDbSpline
210
0.0
220
0.0
230
1.0
 70
     9
 71
     3
 72
    44
 73
    40
 74
     0
 42
0.0000000001
 43
0.0000000001
 40
0.0
 40
0.0
 40
0.0
 40
0.0
 40
1.0
 40
1.0
 40
1.0
 40
2.0
 40
2.0
 40
2.0
 40
3.0
 40
3.0
 40
3.0
 40
4.0
 40
4.0
 40
4.0
 40
5.0
 40
5.0
 40
5.0
 40
6.0
 40
6.0
 40
6.0
 40
7.0
 40
7.0
 40
7.0
 40
8.0
 40
8.0
 40
8.0
 40
9.0
 40
9.0
 40
9.0
 40
10.0
 40
10.0
 40
10.0
 40
11.0
 40
11.0
 40
11.0
 40
12.0
 40
12.0
 40
12.0
 40
13.0
 40
13.0
 40
13.0
 40
13.0
 10
94.74357093985577
 20
-139.6564195071866
 30
0.0
 10
94.52584090518799
 20
-139.8150661542823
 30
0.0
 10
94.43282332708625
 20
-139.8891357072152
 30
0.0
 10
94.38390297119569
 20
-140.0329684437244
 30
0.0
 10
94.38390297119569
 20
-140.0329684437244
 30
0.0
 10
95.16249455086216
 20
-140.0329684437244
 30
0.0
 10
95.16249455086216
 20
-140.0329684437244
 30
0.0
 10
95.16249455086216
 20
-140.0329684437244
 30
0.0
 10
95.16249455086216
 20
-140.238123879871
 30
0.0
 10
95.16249455086216
 20
-140.238123879871
 30
0.0
 10
95.16249455086216
 20
-140.238123879871
 30
0.0
 10
94.13447805806361
 20
-140.238123879871
 30
0.0
 10
94.13447805806361
 20
-140.238123879871
 30
0.0
 10
94.16617293652789
 20
-139.8805229685021
 30
0.0
 10
94.23162975074765
 20
-139.8023193009869
 30
0.0
 10
94.61679142599859
 20
-139.5039740319643
 30
0.0
 10
94.87276202055264
 20
-139.3051920224654
 30
0.0
 10
94.9382188347724
 20
-139.2374958961802
 30
0.0
 10
94.9382188347724
 20
-139.1000365863187
 30
0.0
 10
94.9382188347724
 20
-138.9815253016261
 30
0.0
 10
94.86621633913067
 20
-138.8504394184124
 30
0.0
 10
94.6695013869229
 20
-138.8504394184124
 30
0.0
 10
94.40939667778655
 20
-138.8504394184124
 30
0.0
 10
94.40078393907342
 20
-139.0809163063756
 30
0.0
 10
94.39664982449112
 20
-139.197360533777
 30
0.0
 10
94.39664982449112
 20
-139.197360533777
 30
0.0
 10
94.17237410840135
 20
-139.197360533777
 30
0.0
 10
94.17237410840135
 20
-139.197360533777
 30
0.0
 10
94.18098684711448
 20
-139.0704087651456
 30
0.0
 10
94.19166664311875
 20
-138.9582709071007
 30
0.0
 10
94.27193736792508
 20
-138.8397596224081
 30
0.0
 10
94.38183591390453
 20
-138.6790459180212
 30
0.0
 10
94.56821557965657
 20
-138.6451117274915
 30
0.0
 10
94.68431529750949
 20
-138.6451117274915
 30
0.0
 10
94.96164548407209
 20
-138.6451117274915
 30
0.0
 10
95.16904023228413
 20
-138.8292520811781
 30
0.0
 10
95.16904023228413
 20
-139.1021036436099
 30
0.0
 10
95.16904023228413
 20
-139.3305134742819
 30
0.0
 10
95.05259600488269
 20
-139.4300767338057
 30
0.0
 10
94.74357093985577
 20
-139.6564195071866
 30
0.0
  0
HATCH
  5
11C
330
117
100
AcDbEntity
  8
レイヤー 1
 62
   250
420
  2299925
440
 33554687
100
AcDbHatch
 10
0.0
 20
0.0
 30
0.0
210
0.0
220
0.0
230
1.0
  2
SOLID
 70
     1
 71
     1
 91
        1
 92
        1
 93
        1
 72
     4
 94
        3
 73
     0
 74
     0
 95
       44
 96
       40
 40
0.0
 40
0.0
 40
0.0
 40
0.0
 40
1.0
 40
1.0
 40
1.0
 40
2.0
 40
2.0
 40
2.0
 40
3.0
 40
3.0
 40
3.0
 40
4.0
 40
4.0
 40
4.0
 40
5.0
 40
5.0
 40
5.0
 40
6.0
 40
6.0
 40
6.0
 40
7.0
 40
7.0
 40
7.0
 40
8.0
 40
8.0
 40
8.0
 40
9.0
 40
9.0
 40
9.0
 40
10.0
 40
10.0
 40
10.0
 40
11.0
 40
11.0
 40
11.0
 40
12.0
 40
12.0
 40
12.0
 40
13.0
 40
13.0
 40
13.0
 40
13.0
 10
94.74357093985577
 20
-139.6564195071866
 10
94.52584090518799
 20
-139.8150661542823
 10
94.43282332708625
 20
-139.8891357072152
 10
94.38390297119569
 20
-140.0329684437244
 10
94.38390297119569
 20
-140.0329684437244
 10
95.16249455086216
 20
-140.0329684437244
 10
95.16249455086216
 20
-140.0329684437244
 10
95.16249455086216
 20
-140.0329684437244
 10
95.16249455086216
 20
-140.238123879871
 10
95.16249455086216
 20
-140.238123879871
 10
95.16249455086216
 20
-140.238123879871
 10
94.13447805806361
 20
-140.238123879871
 10
94.13447805806361
 20
-140.238123879871
 10
94.16617293652789
 20
-139.8805229685021
 10
94.23162975074765
 20
-139.8023193009869
 10
94.61679142599859
 20
-139.5039740319643
 10
94.87276202055264
 20
-139.3051920224654
 10
94.9382188347724
 20
-139.2374958961802
 10
94.9382188347724
 20
-139.1000365863187
 10
94.9382188347724
 20
-138.9815253016261
 10
94.86621633913067
 20
-138.8504394184124
 10
94.6695013869229
 20
-138.8504394184124
 10
94.40939667778655
 20
-138.8504394184124
 10
94.40078393907342
 20
-139.0809163063756
 10
94.39664982449112
 20
-139.197360533777
 10
94.39664982449112
 20
-139.197360533777
 10
94.17237410840135
 20
-139.197360533777
 10
94.17237410840135
 20
-139.197360533777
 10
94.18098684711448
 20
-139.0704087651456
 10
94.19166664311875
 20
-138.9582709071007
 10
94.27193736792508
 20
-138.8397596224081
 10
94.38183591390453
 20
-138.6790459180212
 10
94.56821557965657
 20
-138.6451117274915
 10
94.68431529750949
 20
-138.6451117274915
 10
94.96164548407209
 20
-138.6451117274915
 10
95.16904023228413
 20
-138.8292520811781
 10
95.16904023228413
 20
-139.1021036436099
 10
95.16904023228413
 20
-139.3305134742819
 10
95.05259600488269
 20
-139.4300767338057
 10
94.74357093985577
 20
-139.6564195071866
 97
        0
 97
        1
330
11B
 75
     2
 76
     1
 98
        1
 10
0.0
 20
0.0
450
        0
451
        0
460
0.0
461
0.0
452
        0
462
0.0
453
        0
470

  0
SPLINE
  5
11D
330
117
100
AcDbEntity
  8
レイヤー 1
100
AcDbSpline
210
0.0
220
0.0
230
1.0
 70
    11
 71
     3
 72
    26
 73
    22
 74
     0
 42
0.0000000001
 43
0.0000000001
 40
0.0
 40
0.0
 40
0.0
 40
0.0
 40
1.0
 40
1.0
 40
1.0
 40
2.0
 40
2.0
 40
2.0
 40
3.0
 40
3.0
 40
3.0
 40
4.0
 40
4.0
 40
4.0
 40
5.0
 40
5.0
 40
5.0
 40
6.0
 40
6.0
 40
6.0
 40
7.0
 40
7.0
 40
7.0
 40
7.0
 10
95.77882213317336
 20
-140.238123879871
 30
0.0
 10
95.77882213317336
 20
-140.238123879871
 30
0.0
 10
95.77882213317336
 20
-139.1337985220742
 30
0.0
 10
95.77882213317336
 20
-139.1337985220742
 30
0.0
 10
95.77882213317336
 20
-139.1337985220742
 30
0.0
 10
95.44878198568643
 20
-139.1337985220742
 30
0.0
 10
95.44878198568643
 20
-139.1337985220742
 30
0.0
 10
95.44878198568643
 20
-139.1337985220742
 30
0.0
 10
95.44878198568643
 20
-138.9858316709827
 30
0.0
 10
95.44878198568643
 20
-138.9858316709827
 30
0.0
 10
95.7808891904645
 20
-138.9710177603961
 30
0.0
 10
95.82739797951537
 20
-138.8080647439438
 30
0.0
 10
95.85702580068852
 20
-138.6938598286078
 30
0.0
 10
95.85702580068852
 20
-138.6938598286078
 30
0.0
 10
96.00309784926311
 20
-138.6938598286078
 30
0.0
 10
96.00309784926311
 20
-138.6938598286078
 30
0.0
 10
96.00309784926311
 20
-138.6938598286078
 30
0.0
 10
96.00309784926311
 20
-140.238123879871
 30
0.0
 10
96.00309784926311
 20
-140.238123879871
 30
0.0
 10
96.00309784926311
 20
-140.238123879871
 30
0.0
 10
95.77882213317336
 20
-140.238123879871
 30
0.0
 10
95.77882213317336
 20
-140.238123879871
 30
0.0
  0
HATCH
  5
11E
330
117
100
AcDbEntity
  8
レイヤー 1
 62
   250
420
  2299925
440
 33554687
100
AcDbHatch
 10
0.0
 20
0.0
 30
0.0
210
0.0
220
0.0
230
1.0
  2
SOLID
 70
     1
 71
     1
 91
        1
 92
        1
 93
        1
 72
     4
 94
        3
 73
     0
 74
     0
 95
       26
 96
       22
 40
0.0
 40
0.0
 40
0.0
 40
0.0
 40
1.0
 40
1.0
 40
1.0
 40
2.0
 40
2.0
 40
2.0
 40
3.0
 40
3.0
 40
3.0
 40
4.0
 40
4.0
 40
4.0
 40
5.0
 40
5.0
 40
5.0
 40
6.0
 40
6.0
 40
6.0
 40
7.0
 40
7.0
 40
7.0
 40
7.0
 10
95.77882213317336
 20
-140.238123879871
 10
95.77882213317336
 20
-140.238123879871
 10
95.77882213317336
 20
-139.1337985220742
 10
95.77882213317336
 20
-139.1337985220742
 10
95.77882213317336
 20
-139.1337985220742
 10
95.44878198568643
 20
-139.1337985220742
 10
95.44878198568643
 20
-139.1337985220742
 10
95.44878198568643
 20
-139.1337985220742
 10
95.44878198568643
 20
-138.9858316709827
 10
95.44878198568643
 20
-138.9858316709827
 10
95.7808891904645
 20
-138.9710177603961
 10
95.82739797951537
 20
-138.8080647439438
 10
95.85702580068852
 20
-138.6938598286078
 10
95.85702580068852
 20
-138.6938598286078
 10
96.00309784926311
 20
-138.6938598286078
 10
96.00309784926311
 20
-138.6938598286078
 10
96.00309784926311
 20
-138.6938598286078
 10
96.00309784926311
 20
-140.238123879871
 10
96.00309784926311
 20
-140.238123879871
 10
96.00309784926311
 20
-140.238123879871
 10
95.77882213317336
 20
-140.238123879871
 10
95.77882213317336
 20
-140.238123879871
 97
        0
 97
        1
330
11D
 75
     2
 76
     1
 98
        1
 10
0.0
 20
0.0
450
        0
451
        0
460
0.0
461
0.0
452
        0
462
0.0
453
        0
470

  0
ENDBLK
  5
11A
330
117
100
AcDbEntity
  8
0
100
AcDbBlockEnd
  0
BLOCK
  5
123
330
121
100
AcDbEntity
  8
0
100
AcDbBlockBegin
  2
Block_11
 70
     0
 10
0.0
 20
0.0
 30
0.0
  3
Block_11
  1

  0
SPLINE
  5
125
330
121
100
AcDbEntity
  8
レイヤー 1
100
AcDbSpline
210
0.0
220
0.0
230
1.0
 70
     9
 71
     3
 72
    17
 73
    13
 74
     0
 42
0.0000000001
 43
0.0000000001
 40
0.0
 40
0.0
 40
0.0
 40
0.0
 40
1.0
 40
1.0
 40
1.0
 40
2.0
 40
2.0
 40
2.0
 40
3.0
 40
3.0
 40
3.0
 40
4.0
 40
4.0
 40
4.0
 40
4.0
 10
79.36070283389246
 20
-150.2123643287663
 30
0.0
 10
79.36070283389246
 20
-150.3560248105013
 30
0.0
 10
79.4473469853465
 20
-150.5086425404978
 30
0.0
 10
79.65043536420198
 20
-150.5086425404978
 30
0.0
 10
79.8555908003486
 20
-150.5086425404978
 30
0.0
 10
79.95722111716347
 20
-150.3815185170921
 30
0.0
 10
79.95722111716347
 20
-150.2123643287663
 30
0.0
 10
79.95722111716347
 20
-150.0263291725628
 30
0.0
 10
79.83457571788858
 20
-149.9160861170348
 30
0.0
 10
79.6568087908497
 20
-149.9160861170348
 30
0.0
 10
79.43460013205108
 20
-149.9160861170348
 30
0.0
 10
79.36070283389246
 20
-150.0790391334872
 30
0.0
 10
79.36070283389246
 20
-150.2123643287663
 30
0.0
  0
SPLINE
  5
126
330
121
100
AcDbEntity
  8
レイヤー 1
100
AcDbSpline
210
0.0
220
0.0
230
1.0
 70
     9
 71
     3
 72
    17
 73
    13
 74
     0
 42
0.0000000001
 43
0.0000000001
 40
0.0
 40
0.0
 40
0.0
 40
0.0
 40
1.0
 40
1.0
 40
1.0
 40
2.0
 40
2.0
 40
2.0
 40
3.0
 40
3.0
 40
3.0
 40
4.0
 40
4.0
 40
4.0
 40
4.0
 10
78.70062253891859
 20
-150.2123643287663
 30
0.0
 10
78.70062253891859
 20
-150.3773844025098
 30
0.0
 10
78.79570717431149
 20
-150.4617892418984
 30
0.0
 10
78.93109942688181
 20
-150.4617892418984
 30
0.0
 10
79.05391708093097
 20
-150.4617892418984
 30
0.0
 10
79.17242836562356
 20
-150.3901312558052
 30
0.0
 10
79.17242836562356
 20
-150.2123643287663
 30
0.0
 10
79.17242836562356
 20
-150.0345974017274
 30
0.0
 10
79.05391708093097
 20
-149.9625949060857
 30
0.0
 10
78.93109942688181
 20
-149.9625949060857
 30
0.0
 10
78.79570717431149
 20
-149.9625949060857
 30
0.0
 10
78.70062253891859
 20
-150.049411312314
 30
0.0
 10
78.70062253891859
 20
-150.2123643287663
 30
0.0
  0
SPLINE
  5
127
330
121
100
AcDbEntity
  8
レイヤー 1
100
AcDbSpline
210
0.0
220
0.0
230
1.0
 70
     9
 71
     3
 72
    29
 73
    25
 74
     0
 42
0.0000000001
 43
0.0000000001
 40
0.0
 40
0.0
 40
0.0
 40
0.0
 40
1.0
 40
1.0
 40
1.0
 40
2.0
 40
2.0
 40
2.0
 40
3.0
 40
3.0
 40
3.0
 40
4.0
 40
4.0
 40
4.0
 40
5.0
 40
5.0
 40
5.0
 40
6.0
 40
6.0
 40
6.0
 40
7.0
 40
7.0
 40
7.0
 40
8.0
 40
8.0
 40
8.0
 40
8.0
 10
80.15186901208009
 20
-150.2123643287663
 30
0.0
 10
80.15186901208009
 20
-150.4790147193247
 30
0.0
 10
80.01423744744435
 20
-150.7325737470391
 30
0.0
 10
79.66524927478855
 20
-150.7325737470391
 30
0.0
 10
79.40927868023449
 20
-150.7325737470391
 30
0.0
 10
79.31402179006733
 20
-150.5909803225953
 30
0.0
 10
79.25269909042988
 20
-150.4852158911981
 30
0.0
 10
79.19344344808358
 20
-150.6099283477642
 30
0.0
 10
79.07923853274755
 20
-150.6860649579882
 30
0.0
 10
78.91852482836064
 20
-150.6860649579882
 30
0.0
 10
78.64343395386345
 20
-150.6860649579882
 30
0.0
 10
78.50804170129314
 20
-150.4872829484893
 30
0.0
 10
78.50804170129314
 20
-150.2123643287663
 30
0.0
 10
78.50804170129314
 20
-149.9288329703303
 30
0.0
 10
78.6518744378023
 20
-149.738319189996
 30
0.0
 10
78.91852482836064
 20
-149.738319189996
 30
0.0
 10
79.07923853274755
 20
-149.738319189996
 30
0.0
 10
79.19344344808358
 20
-149.8168673670597
 30
0.0
 10
79.25269909042988
 20
-149.9415798236257
 30
0.0
 10
79.30351424883731
 20
-149.8526963601062
 30
0.0
 10
79.39877113900448
 20
-149.6938774582362
 30
0.0
 10
79.660942905432
 20
-149.6938774582362
 30
0.0
 10
80.03542478467865
 20
-149.6938774582362
 30
0.0
 10
80.15186901208009
 20
-149.97327470209
 30
0.0
 10
80.15186901208009
 20
-150.2123643287663
 30
0.0
  0
HATCH
  5
128
330
121
100
AcDbEntity
  8
レイヤー 1
 62
   250
420
  2299925
440
 33554687
100
AcDbHatch
 10
0.0
 20
0.0
 30
0.0
210
0.0
220
0.0
230
1.0
  2
SOLID
 70
     1
 71
     1
 91
        3
 92
        1
 93
        1
 72
     4
 94
        3
 73
     0
 74
     0
 95
       17
 96
       13
 40
0.0
 40
0.0
 40
0.0
 40
0.0
 40
1.0
 40
1.0
 40
1.0
 40
2.0
 40
2.0
 40
2.0
 40
3.0
 40
3.0
 40
3.0
 40
4.0
 40
4.0
 40
4.0
 40
4.0
 10
79.36070283389246
 20
-150.2123643287663
 10
79.36070283389246
 20
-150.3560248105013
 10
79.4473469853465
 20
-150.5086425404978
 10
79.65043536420198
 20
-150.5086425404978
 10
79.8555908003486
 20
-150.5086425404978
 10
79.95722111716347
 20
-150.3815185170921
 10
79.95722111716347
 20
-150.2123643287663
 10
79.95722111716347
 20
-150.0263291725628
 10
79.83457571788858
 20
-149.9160861170348
 10
79.6568087908497
 20
-149.9160861170348
 10
79.43460013205108
 20
-149.9160861170348
 10
79.36070283389246
 20
-150.0790391334872
 10
79.36070283389246
 20
-150.2123643287663
 97
        0
 97
        1
330
125
 92
        1
 93
        1
 72
     4
 94
        3
 73
     0
 74
     0
 95
       17
 96
       13
 40
0.0
 40
0.0
 40
0.0
 40
0.0
 40
1.0
 40
1.0
 40
1.0
 40
2.0
 40
2.0
 40
2.0
 40
3.0
 40
3.0
 40
3.0
 40
4.0
 40
4.0
 40
4.0
 40
4.0
 10
78.70062253891859
 20
-150.2123643287663
 10
78.70062253891859
 20
-150.3773844025098
 10
78.79570717431149
 20
-150.4617892418984
 10
78.93109942688181
 20
-150.4617892418984
 10
79.05391708093097
 20
-150.4617892418984
 10
79.17242836562356
 20
-150.3901312558052
 10
79.17242836562356
 20
-150.2123643287663
 10
79.17242836562356
 20
-150.0345974017274
 10
79.05391708093097
 20
-149.9625949060857
 10
78.93109942688181
 20
-149.9625949060857
 10
78.79570717431149
 20
-149.9625949060857
 10
78.70062253891859
 20
-150.049411312314
 10
78.70062253891859
 20
-150.2123643287663
 97
        0
 97
        1
330
126
 92
        1
 93
        1
 72
     4
 94
        3
 73
     0
 74
     0
 95
       29
 96
       25
 40
0.0
 40
0.0
 40
0.0
 40
0.0
 40
1.0
 40
1.0
 40
1.0
 40
2.0
 40
2.0
 40
2.0
 40
3.0
 40
3.0
 40
3.0
 40
4.0
 40
4.0
 40
4.0
 40
5.0
 40
5.0
 40
5.0
 40
6.0
 40
6.0
 40
6.0
 40
7.0
 40
7.0
 40
7.0
 40
8.0
 40
8.0
 40
8.0
 40
8.0
 10
80.15186901208009
 20
-150.2123643287663
 10
80.15186901208009
 20
-150.4790147193247
 10
80.01423744744435
 20
-150.7325737470391
 10
79.66524927478855
 20
-150.7325737470391
 10
79.40927868023449
 20
-150.7325737470391
 10
79.31402179006733
 20
-150.5909803225953
 10
79.25269909042988
 20
-150.4852158911981
 10
79.19344344808358
 20
-150.6099283477642
 10
79.07923853274755
 20
-150.6860649579882
 10
78.91852482836064
 20
-150.6860649579882
 10
78.64343395386345
 20
-150.6860649579882
 10
78.50804170129314
 20
-150.4872829484893
 10
78.50804170129314
 20
-150.2123643287663
 10
78.50804170129314
 20
-149.9288329703303
 10
78.6518744378023
 20
-149.738319189996
 10
78.91852482836064
 20
-149.738319189996
 10
79.07923853274755
 20
-149.738319189996
 10
79.19344344808358
 20
-149.8168673670597
 10
79.25269909042988
 20
-149.9415798236257
 10
79.30351424883731
 20
-149.8526963601062
 10
79.39877113900448
 20
-149.6938774582362
 10
79.660942905432
 20
-149.6938774582362
 10
80.03542478467865
 20
-149.6938774582362
 10
80.15186901208009
 20
-149.97327470209
 10
80.15186901208009
 20
-150.2123643287663
 97
        0
 97
        1
330
127
 75
     2
 76
     1
 98
        1
 10
0.0
 20
0.0
450
        0
451
        0
460
0.0
461
0.0
452
        0
462
0.0
453
        0
470

  0
ENDBLK
  5
124
330
121
100
AcDbEntity
  8
0
100
AcDbBlockEnd
  0
BLOCK
  5
12C
330
12A
100
AcDbEntity
  8
0
100
AcDbBlockBegin
  2
Block_12
 70
     0
 10
0.0
 20
0.0
 30
0.0
  3
Block_12
  1

  0
SPLINE
  5
12E
330
12A
100
AcDbEntity
  8
レイヤー 1
100
AcDbSpline
210
0.0
220
0.0
230
1.0
 70
    11
 71
     3
 72
    26
 73
    22
 74
     0
 42
0.0000000001
 43
0.0000000001
 40
0.0
 40
0.0
 40
0.0
 40
0.0
 40
1.0
 40
1.0
 40
1.0
 40
2.0
 40
2.0
 40
2.0
 40
3.0
 40
3.0
 40
3.0
 40
4.0
 40
4.0
 40
4.0
 40
5.0
 40
5.0
 40
5.0
 40
6.0
 40
6.0
 40
6.0
 40
7.0
 40
7.0
 40
7.0
 40
7.0
 10
112.7252468251173
 20
-149.3018255920148
 30
0.0
 10
112.7252468251173
 20
-149.3018255920148
 30
0.0
 10
112.7252468251173
 20
-148.1976724889922
 30
0.0
 10
112.7252468251173
 20
-148.1976724889922
 30
0.0
 10
112.7252468251173
 20
-148.1976724889922
 30
0.0
 10
112.3952066776303
 20
-148.1976724889922
 30
0.0
 10
112.3952066776303
 20
-148.1976724889922
 30
0.0
 10
112.3952066776303
 20
-148.1976724889922
 30
0.0
 10
112.3952066776303
 20
-148.0495333831265
 30
0.0
 10
112.3952066776303
 20
-148.0495333831265
 30
0.0
 10
112.7273138824084
 20
-148.0348917273142
 30
0.0
 10
112.7738226714593
 20
-147.8719387108619
 30
0.0
 10
112.8034504926324
 20
-147.7577337955258
 30
0.0
 10
112.8034504926324
 20
-147.7577337955258
 30
0.0
 10
112.949522541207
 20
-147.7577337955258
 30
0.0
 10
112.949522541207
 20
-147.7577337955258
 30
0.0
 10
112.949522541207
 20
-147.7577337955258
 30
0.0
 10
112.949522541207
 20
-149.3018255920148
 30
0.0
 10
112.949522541207
 20
-149.3018255920148
 30
0.0
 10
112.949522541207
 20
-149.3018255920148
 30
0.0
 10
112.7252468251173
 20
-149.3018255920148
 30
0.0
 10
112.7252468251173
 20
-149.3018255920148
 30
0.0
  0
HATCH
  5
12F
330
12A
100
AcDbEntity
  8
レイヤー 1
 62
   250
420
  2299925
440
 33554687
100
AcDbHatch
 10
0.0
 20
0.0
 30
0.0
210
0.0
220
0.0
230
1.0
  2
SOLID
 70
     1
 71
     1
 91
        1
 92
        1
 93
        1
 72
     4
 94
        3
 73
     0
 74
     0
 95
       26
 96
       22
 40
0.0
 40
0.0
 40
0.0
 40
0.0
 40
1.0
 40
1.0
 40
1.0
 40
2.0
 40
2.0
 40
2.0
 40
3.0
 40
3.0
 40
3.0
 40
4.0
 40
4.0
 40
4.0
 40
5.0
 40
5.0
 40
5.0
 40
6.0
 40
6.0
 40
6.0
 40
7.0
 40
7.0
 40
7.0
 40
7.0
 10
112.7252468251173
 20
-149.3018255920148
 10
112.7252468251173
 20
-149.3018255920148
 10
112.7252468251173
 20
-148.1976724889922
 10
112.7252468251173
 20
-148.1976724889922
 10
112.7252468251173
 20
-148.1976724889922
 10
112.3952066776303
 20
-148.1976724889922
 10
112.3952066776303
 20
-148.1976724889922
 10
112.3952066776303
 20
-148.1976724889922
 10
112.3952066776303
 20
-148.0495333831265
 10
112.3952066776303
 20
-148.0495333831265
 10
112.7273138824084
 20
-148.0348917273142
 10
112.7738226714593
 20
-147.8719387108619
 10
112.8034504926324
 20
-147.7577337955258
 10
112.8034504926324
 20
-147.7577337955258
 10
112.949522541207
 20
-147.7577337955258
 10
112.949522541207
 20
-147.7577337955258
 10
112.949522541207
 20
-147.7577337955258
 10
112.949522541207
 20
-149.3018255920148
 10
112.949522541207
 20
-149.3018255920148
 10
112.949522541207
 20
-149.3018255920148
 10
112.7252468251173
 20
-149.3018255920148
 10
112.7252468251173
 20
-149.3018255920148
 97
        0
 97
        1
330
12E
 75
     2
 76
     1
 98
        1
 10
0.0
 20
0.0
450
        0
451
        0
460
0.0
461
0.0
452
        0
462
0.0
453
        0
470

  0
ENDBLK
  5
12D
330
12A
100
AcDbEntity
  8
0
100
AcDbBlockEnd
  0
BLOCK
  5
132
330
130
100
AcDbEntity
  8
0
100
AcDbBlockBegin
  2
Block_13
 70
     0
 10
0.0
 20
0.0
 30
0.0
  3
Block_13
  1

  0
INSERT
  5
135
330
130
100
AcDbEntity
  8
レイヤー 1
100
AcDbBlockReference
  2
Block_14
 10
0.0
 20
0.0
 30
0.0
  0
INSERT
  5
13C
330
130
100
AcDbEntity
  8
レイヤー 1
100
AcDbBlockReference
  2
Block_15
 10
0.0
 20
0.0
 30
0.0
  0
ENDBLK
  5
133
330
130
100
AcDbEntity
  8
0
100
AcDbBlockEnd
  0
BLOCK
  5
136
330
134
100
AcDbEntity
  8
0
100
AcDbBlockBegin
  2
Block_14
 70
     0
 10
0.0
 20
0.0
 30
0.0
  3
Block_14
  1

  0
LINE
  5
138
330
134
100
AcDbEntity
  8
レイヤー 1
 62
    18
420
        0
370
     9
100
AcDbLine
 10
89.25441325972732
 20
-147.0426668817632
 30
0.0
 11
90.06537879459342
 21
-147.6276429927284
 31
0.0
  0
LINE
  5
139
330
134
100
AcDbEntity
  8
レイヤー 1
 62
    18
420
        0
370
     9
100
AcDbLine
 10
89.25441325972732
 20
-147.0426668817632
 30
0.0
 11
91.83201930507822
 21
-150.1997457698625
 31
0.0
  0
LINE
  5
13A
330
134
100
AcDbEntity
  8
レイヤー 1
 62
    18
420
        0
370
     9
100
AcDbLine
 10
89.25441325972732
 20
-147.0426668817632
 30
0.0
 11
89.66437860762727
 21
-147.9549149370907
 31
0.0
  0
ENDBLK
  5
137
330
134
100
AcDbEntity
  8
0
100
AcDbBlockEnd
  0
BLOCK
  5
13D
330
13B
100
AcDbEntity
  8
0
100
AcDbBlockBegin
  2
Block_15
 70
     0
 10
0.0
 20
0.0
 30
0.0
  3
Block_15
  1

  0
INSERT
  5
140
330
13B
100
AcDbEntity
  8
レイヤー 1
100
AcDbBlockReference
  2
Block_16
 10
0.0
 20
0.0
 30
0.0
  0
ENDBLK
  5
13E
330
13B
100
AcDbEntity
  8
0
100
AcDbBlockEnd
  0
BLOCK
  5
141
330
13F
100
AcDbEntity
  8
0
100
AcDbBlockBegin
  2
Block_16
 70
     0
 10
0.0
 20
0.0
 30
0.0
  3
Block_16
  1

  0
SPLINE
  5
143
330
13F
100
AcDbEntity
  8
レイヤー 1
100
AcDbSpline
210
0.0
220
0.0
230
1.0
 70
     9
 71
     3
 72
    17
 73
    13
 74
     0
 42
0.0000000001
 43
0.0000000001
 40
0.0
 40
0.0
 40
0.0
 40
0.0
 40
1.0
 40
1.0
 40
1.0
 40
2.0
 40
2.0
 40
2.0
 40
3.0
 40
3.0
 40
3.0
 40
4.0
 40
4.0
 40
4.0
 40
4.0
 10
93.49834117671223
 20
-150.6474798885534
 30
0.0
 10
93.48146020883451
 20
-150.6771077097265
 30
0.0
 10
93.43064505042706
 20
-150.7704697973768
 30
0.0
 10
93.42013750919704
 20
-150.7894178225457
 30
0.0
 10
93.61047903475711
 20
-150.848673464892
 30
0.0
 10
93.63166637199139
 20
-150.8548746367654
 30
0.0
 10
93.70366886763312
 20
-150.8824354006474
 30
0.0
 10
93.75861814062284
 20
-150.7956189944191
 30
0.0
 10
93.78187253514829
 20
-150.7215494414863
 30
0.0
 10
93.79668644573486
 20
-150.6474798885534
 30
0.0
 10
93.79668644573486
 20
-150.6474798885534
 30
0.0
 10
93.49834117671223
 20
-150.6474798885534
 30
0.0
 10
93.49834117671223
 20
-150.6474798885534
 30
0.0
  0
SPLINE
  5
144
330
13F
100
AcDbEntity
  8
レイヤー 1
100
AcDbSpline
210
0.0
220
0.0
230
1.0
 70
    11
 71
     3
 72
    20
 73
    16
 74
     0
 42
0.0000000001
 43
0.0000000001
 40
0.0
 40
0.0
 40
0.0
 40
0.0
 40
1.0
 40
1.0
 40
1.0
 40
2.0
 40
2.0
 40
2.0
 40
3.0
 40
3.0
 40
3.0
 40
4.0
 40
4.0
 40
4.0
 40
5.0
 40
5.0
 40
5.0
 40
5.0
 10
93.43495141978364
 20
-149.7972303227937
 30
0.0
 10
93.43495141978364
 20
-149.7972303227937
 30
0.0
 10
93.40325654131932
 20
-149.7972303227937
 30
0.0
 10
93.40325654131932
 20
-149.7972303227937
 30
0.0
 10
93.44976533037019
 20
-149.8964490727689
 30
0.0
 10
93.48146020883451
 20
-149.9770643071238
 30
0.0
 10
93.51539439936422
 20
-150.103843820981
 30
0.0
 10
93.51539439936422
 20
-150.103843820981
 30
0.0
 10
93.72261689280199
 20
-150.103843820981
 30
0.0
 10
93.72261689280199
 20
-150.103843820981
 30
0.0
 10
93.75431177126628
 20
-150.0108262428792
 30
0.0
 10
93.77756616579173
 20
-149.9260768939421
 30
0.0
 10
93.80099281509142
 20
-149.7972303227937
 30
0.0
 10
93.80099281509142
 20
-149.7972303227937
 30
0.0
 10
93.43495141978364
 20
-149.7972303227937
 30
0.0
 10
93.43495141978364
 20
-149.7972303227937
 30
0.0
  0
SPLINE
  5
145
330
13F
100
AcDbEntity
  8
レイヤー 1
100
AcDbSpline
210
0.0
220
0.0
230
1.0
 70
     9
 71
     3
 72
   242
 73
   238
 74
     0
 42
0.0000000001
 43
0.0000000001
 40
0.0
 40
0.0
 40
0.0
 40
0.0
 40
1.0
 40
1.0
 40
1.0
 40
2.0
 40
2.0
 40
2.0
 40
3.0
 40
3.0
 40
3.0
 40
4.0
 40
4.0
 40
4.0
 40
5.0
 40
5.0
 40
5.0
 40
6.0
 40
6.0
 40
6.0
 40
7.0
 40
7.0
 40
7.0
 40
8.0
 40
8.0
 40
8.0
 40
9.0
 40
9.0
 40
9.0
 40
10.0
 40
10.0
 40
10.0
 40
11.0
 40
11.0
 40
11.0
 40
12.0
 40
12.0
 40
12.0
 40
13.0
 40
13.0
 40
13.0
 40
14.0
 40
14.0
 40
14.0
 40
15.0
 40
15.0
 40
15.0
 40
16.0
 40
16.0
 40
16.0
 40
17.0
 40
17.0
 40
17.0
 40
18.0
 40
18.0
 40
18.0
 40
19.0
 40
19.0
 40
19.0
 40
20.0
 40
20.0
 40
20.0
 40
21.0
 40
21.0
 40
21.0
 40
22.0
 40
22.0
 40
22.0
 40
23.0
 40
23.0
 40
23.0
 40
24.0
 40
24.0
 40
24.0
 40
25.0
 40
25.0
 40
25.0
 40
26.0
 40
26.0
 40
26.0
 40
27.0
 40
27.0
 40
27.0
 40
28.0
 40
28.0
 40
28.0
 40
29.0
 40
29.0
 40
29.0
 40
30.0
 40
30.0
 40
30.0
 40
31.0
 40
31.0
 40
31.0
 40
32.0
 40
32.0
 40
32.0
 40
33.0
 40
33.0
 40
33.0
 40
34.0
 40
34.0
 40
34.0
 40
35.0
 40
35.0
 40
35.0
 40
36.0
 40
36.0
 40
36.0
 40
37.0
 40
37.0
 40
37.0
 40
38.0
 40
38.0
 40
38.0
 40
39.0
 40
39.0
 40
39.0
 40
40.0
 40
40.0
 40
40.0
 40
41.0
 40
41.0
 40
41.0
 40
42.0
 40
42.0
 40
42.0
 40
43.0
 40
43.0
 40
43.0
 40
44.0
 40
44.0
 40
44.0
 40
45.0
 40
45.0
 40
45.0
 40
46.0
 40
46.0
 40
46.0
 40
47.0
 40
47.0
 40
47.0
 40
48.0
 40
48.0
 40
48.0
 40
49.0
 40
49.0
 40
49.0
 40
50.0
 40
50.0
 40
50.0
 40
51.0
 40
51.0
 40
51.0
 40
52.0
 40
52.0
 40
52.0
 40
53.0
 40
53.0
 40
53.0
 40
54.0
 40
54.0
 40
54.0
 40
55.0
 40
55.0
 40
55.0
 40
56.0
 40
56.0
 40
56.0
 40
57.0
 40
57.0
 40
57.0
 40
58.0
 40
58.0
 40
58.0
 40
59.0
 40
59.0
 40
59.0
 40
60.0
 40
60.0
 40
60.0
 40
61.0
 40
61.0
 40
61.0
 40
62.0
 40
62.0
 40
62.0
 40
63.0
 40
63.0
 40
63.0
 40
64.0
 40
64.0
 40
64.0
 40
65.0
 40
65.0
 40
65.0
 40
66.0
 40
66.0
 40
66.0
 40
67.0
 40
67.0
 40
67.0
 40
68.0
 40
68.0
 40
68.0
 40
69.0
 40
69.0
 40
69.0
 40
70.0
 40
70.0
 40
70.0
 40
71.0
 40
71.0
 40
71.0
 40
72.0
 40
72.0
 40
72.0
 40
73.0
 40
73.0
 40
73.0
 40
74.0
 40
74.0
 40
74.0
 40
75.0
 40
75.0
 40
75.0
 40
76.0
 40
76.0
 40
76.0
 40
77.0
 40
77.0
 40
77.0
 40
78.0
 40
78.0
 40
78.0
 40
79.0
 40
79.0
 40
79.0
 40
79.0
 10
94.06316458151893
 20
-150.262662722851
 30
0.0
 10
94.06316458151893
 20
-150.262662722851
 30
0.0
 10
93.80943329903029
 20
-150.262662722851
 30
0.0
 10
93.80943329903029
 20
-150.262662722851
 30
0.0
 10
93.80943329903029
 20
-150.262662722851
 30
0.0
 10
93.53227536724194
 20
-150.262662722851
 30
0.0
 10
93.53227536724194
 20
-150.262662722851
 30
0.0
 10
93.53227536724194
 20
-150.262662722851
 30
0.0
 10
93.65922713587339
 20
-150.3050373973195
 30
0.0
 10
93.65922713587339
 20
-150.3050373973195
 30
0.0
 10
93.66973467710341
 20
-150.3091715119019
 30
0.0
 10
93.68248153039884
 20
-150.3153726837753
 30
0.0
 10
93.68248153039884
 20
-150.3281195370707
 30
0.0
 10
93.68248153039884
 20
-150.3494791290793
 30
0.0
 10
93.65078665193452
 20
-150.3556803009527
 30
0.0
 10
93.62959931470024
 20
-150.359814415535
 30
0.0
 10
93.61891951869598
 20
-150.3832410648347
 30
0.0
 10
93.58929169752283
 20
-150.4486978790545
 30
0.0
 10
93.57034367235394
 20
-150.4931396108142
 30
0.0
 10
93.57034367235394
 20
-150.4931396108142
 30
0.0
 10
93.84112817749459
 20
-150.4931396108142
 30
0.0
 10
93.84112817749459
 20
-150.4931396108142
 30
0.0
 10
93.93207869830517
 20
-150.4931396108142
 30
0.0
 10
94.12879365051294
 20
-150.4890054962319
 30
0.0
 10
94.27055932973097
 20
-150.4803927575188
 30
0.0
 10
94.27055932973097
 20
-150.4803927575188
 30
0.0
 10
94.27055932973097
 20
-150.6581596845577
 30
0.0
 10
94.27055932973097
 20
-150.6581596845577
 30
0.0
 10
94.18804929285924
 20
-150.6540255699754
 30
0.0
 10
94.16686195562496
 20
-150.6540255699754
 30
0.0
 10
93.98702797129491
 20
-150.6498914553931
 30
0.0
 10
93.95533309283061
 20
-150.8042317331322
 30
0.0
 10
93.91089136107089
 20
-150.8845024579386
 30
0.0
 10
93.86644962931118
 20
-150.9544378962891
 30
0.0
 10
93.98702797129491
 20
-151.0136935386355
 30
0.0
 10
94.09279240269208
 20
-151.0812174101463
 30
0.0
 10
94.19648977679811
 20
-151.1638997017923
 30
0.0
 10
94.19648977679811
 20
-151.1638997017923
 30
0.0
 10
94.07797849210551
 20
-151.330986832827
 30
0.0
 10
94.07797849210551
 20
-151.330986832827
 30
0.0
 10
94.05472409758008
 20
-151.3120388076581
 30
0.0
 10
94.0421494990589
 20
-151.3034260689449
 30
0.0
 10
93.93001164101404
 20
-151.2186767200078
 30
0.0
 10
93.88126353989774
 20
-151.1807806696701
 30
0.0
 10
93.82200789755144
 20
-151.144607167075
 30
0.0
 10
93.74173717274514
 20
-151.1001654353152
 30
0.0
 10
93.53020830995077
 20
-151.2865451010672
 30
0.0
 10
93.3248806190299
 20
-151.3096272408184
 30
0.0
 10
93.03514808872039
 20
-151.3392550619916
 30
0.0
 10
93.03514808872039
 20
-151.3392550619916
 30
0.0
 10
92.93145071461436
 20
-151.1594210776615
 30
0.0
 10
92.93145071461436
 20
-151.1594210776615
 30
0.0
 10
93.24874400880586
 20
-151.1552869630792
 30
0.0
 10
93.42427162377935
 20
-151.1297932564884
 30
0.0
 10
93.57671709900165
 20
-151.0198947105089
 30
0.0
 10
93.45820581430906
 20
-150.9692518068757
 30
0.0
 10
93.36932235078961
 20
-150.9416910429937
 30
0.0
 10
93.33332110296876
 20
-150.9289441896983
 30
0.0
 10
93.31437307779989
 20
-150.9565049535803
 30
0.0
 10
93.29955916721329
 20
-150.9754529787492
 30
0.0
 10
93.27199840333131
 20
-151.0092149145046
 30
0.0
 10
93.27199840333131
 20
-151.0092149145046
 30
0.0
 10
93.07528345112354
 20
-150.9268771324071
 30
0.0
 10
93.07528345112354
 20
-150.9268771324071
 30
0.0
 10
93.15779348799528
 20
-150.8466064076008
 30
0.0
 10
93.21911618763271
 20
-150.7511772626594
 30
0.0
 10
93.27630477268789
 20
-150.6498914553931
 30
0.0
 10
93.08579099235355
 20
-150.6540255699754
 30
0.0
 10
93.06477590989352
 20
-150.6540255699754
 30
0.0
 10
92.98226587302179
 20
-150.6581596845577
 30
0.0
 10
92.98226587302179
 20
-150.6581596845577
 30
0.0
 10
92.98226587302179
 20
-150.4803927575188
 30
0.0
 10
92.98226587302179
 20
-150.4803927575188
 30
0.0
 10
93.12179224017441
 20
-150.4869384389407
 30
0.0
 10
93.33125404567761
 20
-150.491072553523
 30
0.0
 10
93.35657549749418
 20
-150.491072553523
 30
0.0
 10
93.37362872014619
 20
-150.4573106177676
 30
0.0
 10
93.42857799313591
 20
-150.3367322757839
 30
0.0
 10
93.44769827307905
 20
-150.262662722851
 30
0.0
 10
93.42857799313591
 20
-150.262662722851
 30
0.0
 10
93.25081106609703
 20
-150.2688638947244
 30
0.0
 10
93.0561631711804
 20
-150.2816107480199
 30
0.0
 10
93.0561631711804
 20
-150.2816107480199
 30
0.0
 10
93.0561631711804
 20
-150.414935943299
 30
0.0
 10
93.0561631711804
 20
-150.414935943299
 30
0.0
 10
93.00758732483838
 20
-150.4404296498899
 30
0.0
 10
92.94833168249208
 20
-150.4721245283542
 30
0.0
 10
92.81500648721292
 20
-150.5375813425739
 30
0.0
 10
92.81500648721292
 20
-150.5375813425739
 30
0.0
 10
92.81500648721292
 20
-150.6836533911485
 30
0.0
 10
92.81500648721292
 20
-150.6836533911485
 30
0.0
 10
92.81500648721292
 20
-150.6836533911485
 30
0.0
 10
92.81500648721292
 20
-151.1511528484969
 30
0.0
 10
92.81500648721292
 20
-151.1511528484969
 30
0.0
 10
92.81500648721292
 20
-151.2779323623541
 30
0.0
 10
92.77917749416632
 20
-151.3371880047004
 30
0.0
 10
92.49564613573026
 20
-151.3289197755358
 30
0.0
 10
92.49564613573026
 20
-151.3289197755358
 30
0.0
 10
92.39194876162423
 20
-151.1215250273238
 30
0.0
 10
92.39194876162423
 20
-151.1215250273238
 30
0.0
 10
92.45551077332711
 20
-151.1342718806192
 30
0.0
 10
92.50408661966913
 20
-151.1384059952015
 30
0.0
 10
92.54422198207228
 20
-151.1384059952015
 30
0.0
 10
92.62053084707057
 20
-151.1384059952015
 30
0.0
 10
92.63103838830058
 20
-151.1149793459018
 30
0.0
 10
92.63103838830058
 20
-151.049522531682
 30
0.0
 10
92.63103838830058
 20
-151.049522531682
 30
0.0
 10
92.63103838830058
 20
-150.6202636342199
 30
0.0
 10
92.63103838830058
 20
-150.6202636342199
 30
0.0
 10
92.53371444084228
 20
-150.6602267418488
 30
0.0
 10
92.51683347296454
 20
-150.6667724232708
 30
0.0
 10
92.47032468391367
 20
-150.6857204484397
 30
0.0
 10
92.46601831455711
 20
-150.7067355308997
 30
0.0
 10
92.46171194520055
 20
-150.7363633520728
 30
0.0
 10
92.44276392003168
 20
-150.7363633520728
 30
0.0
 10
92.43432343609281
 20
-150.7363633520728
 30
0.0
 10
92.42364364008855
 20
-150.7322292374905
 30
0.0
 10
92.41744246821509
 20
-150.7088025881908
 30
0.0
 10
92.41744246821509
 20
-150.7088025881908
 30
0.0
 10
92.3645602525165
 20
-150.5165662601139
 30
0.0
 10
92.3645602525165
 20
-150.5165662601139
 30
0.0
 10
92.51046004631684
 20
-150.470057471063
 30
0.0
 10
92.57608911531084
 20
-150.4466308217633
 30
0.0
 10
92.63103838830058
 20
-150.4256157393033
 30
0.0
 10
92.63103838830058
 20
-150.4256157393033
 30
0.0
 10
92.63103838830058
 20
-150.0128933001704
 30
0.0
 10
92.63103838830058
 20
-150.0128933001704
 30
0.0
 10
92.63103838830058
 20
-150.0128933001704
 30
0.0
 10
92.57815617260199
 20
-150.0128933001704
 30
0.0
 10
92.57815617260199
 20
-150.0128933001704
 30
0.0
 10
92.57815617260199
 20
-150.0128933001704
 30
0.0
 10
92.49995250508682
 20
-150.0128933001704
 30
0.0
 10
92.49995250508682
 20
-150.0128933001704
 30
0.0
 10
92.43225637880167
 20
-150.0128933001704
 30
0.0
 10
92.42364364008855
 20
-150.0128933001704
 30
0.0
 10
92.38781464704194
 20
-150.0194389815924
 30
0.0
 10
92.38781464704194
 20
-150.0194389815924
 30
0.0
 10
92.38781464704194
 20
-149.8247910866757
 30
0.0
 10
92.38781464704194
 20
-149.8247910866757
 30
0.0
 10
92.41520315614968
 20
-149.8309922585492
 30
0.0
 10
92.42364364008855
 20
-149.8309922585492
 30
0.0
 10
92.49357907843911
 20
-149.8309922585492
 30
0.0
 10
92.49357907843911
 20
-149.8309922585492
 30
0.0
 10
92.62673201894401
 20
-149.8309922585492
 30
0.0
 10
92.62673201894401
 20
-149.8309922585492
 30
0.0
 10
92.62673201894401
 20
-149.7610568201986
 30
0.0
 10
92.62673201894401
 20
-149.6787190381011
 30
0.0
 10
92.62466496165286
 20
-149.6745849235188
 30
0.0
 10
92.61622447771399
 20
-149.4947509391888
 30
0.0
 10
92.61622447771399
 20
-149.4754584044714
 30
0.0
 10
92.61415742042286
 20
-149.4289496154205
 30
0.0
 10
92.61415742042286
 20
-149.4289496154205
 30
0.0
 10
92.8298203977995
 20
-149.4375623541336
 30
0.0
 10
92.8298203977995
 20
-149.4375623541336
 30
0.0
 10
92.84050019380376
 20
-149.4375623541336
 30
0.0
 10
92.86168753103806
 20
-149.4396294114248
 30
0.0
 10
92.86168753103806
 20
-149.4565103793025
 30
0.0
 10
92.86168753103806
 20
-149.4754584044714
 30
0.0
 10
92.84687362045147
 20
-149.4861382004757
 30
0.0
 10
92.82137991386063
 20
-149.5050862256445
 30
0.0
 10
92.82137991386063
 20
-149.5560736388262
 30
0.0
 10
92.81500648721292
 20
-149.7844834694983
 30
0.0
 10
92.81724579927832
 20
-149.8309922585492
 30
0.0
 10
92.94626462520094
 20
-149.8309922585492
 30
0.0
 10
92.95901147849637
 20
-149.8309922585492
 30
0.0
 10
93.0561631711804
 20
-149.8227240293846
 30
0.0
 10
93.0561631711804
 20
-149.8227240293846
 30
0.0
 10
93.0561631711804
 20
-150.0170274147527
 30
0.0
 10
93.0561631711804
 20
-150.0170274147527
 30
0.0
 10
93.0180948660684
 20
-150.0149603574615
 30
0.0
 10
92.95039873978323
 20
-150.0108262428792
 30
0.0
 10
92.81500648721292
 20
-150.0128933001704
 30
0.0
 10
92.81500648721292
 20
-150.0128933001704
 30
0.0
 10
92.81500648721292
 20
-150.3515461863704
 30
0.0
 10
92.81500648721292
 20
-150.3515461863704
 30
0.0
 10
92.87012801497692
 20
-150.3281195370707
 30
0.0
 10
92.93558482919666
 20
-150.3005587731887
 30
0.0
 10
92.98433293031294
 20
-150.2774766334376
 30
0.0
 10
92.98433293031294
 20
-150.2774766334376
 30
0.0
 10
92.98433293031294
 20
-150.0997097063987
 30
0.0
 10
92.98433293031294
 20
-150.0997097063987
 30
0.0
 10
93.09853784564898
 20
-150.1124565596941
 30
0.0
 10
93.21704913034158
 20
-150.1124565596941
 30
0.0
 10
93.33332110296876
 20
-150.1124565596941
 30
0.0
 10
93.31006670844331
 20
-150.0170274147527
 30
0.0
 10
93.28267819933557
 20
-149.9346896326552
 30
0.0
 10
93.21911618763271
 20
-149.801364437376
 30
0.0
 10
93.17467445587301
 20
-149.8034314946672
 30
0.0
 10
93.09216441900126
 20
-149.807910118798
 30
0.0
 10
93.05409611388926
 20
-149.8099771760891
 30
0.0
 10
93.05409611388926
 20
-149.8099771760891
 30
0.0
 10
93.05409611388926
 20
-149.6301431917591
 30
0.0
 10
93.05409611388926
 20
-149.6301431917591
 30
0.0
 10
93.17898082522956
 20
-149.6384114209237
 30
0.0
 10
93.35244138291189
 20
-149.6428900450545
 30
0.0
 10
93.43495141978364
 20
-149.6428900450545
 30
0.0
 10
93.43495141978364
 20
-149.6428900450545
 30
0.0
 10
93.51746145665535
 20
-149.6428900450545
 30
0.0
 10
93.51746145665535
 20
-149.6428900450545
 30
0.0
 10
93.51746145665535
 20
-149.4799370286022
 30
0.0
 10
93.51746145665535
 20
-149.469257232598
 30
0.0
 10
93.51539439936422
 20
-149.4141357048339
 30
0.0
 10
93.51539439936422
 20
-149.4141357048339
 30
0.0
 10
93.73949786067973
 20
-149.4396294114248
 30
0.0
 10
93.73949786067973
 20
-149.4396294114248
 30
0.0
 10
93.74380423003627
 20
-149.4396294114248
 30
0.0
 10
93.76499156727055
 20
-149.4416964687159
 30
0.0
 10
93.76499156727055
 20
-149.4585774365937
 30
0.0
 10
93.76499156727055
 20
-149.4733913471802
 30
0.0
 10
93.75431177126628
 20
-149.4820040858934
 30
0.0
 10
93.72692326215855
 20
-149.4968179964799
 30
0.0
 10
93.72054983551084
 20
-149.5622748106997
 30
0.0
 10
93.71848277821969
 20
-149.5836344027082
 30
0.0
 10
93.71848277821969
 20
-149.6428900450545
 30
0.0
 10
93.71848277821969
 20
-149.6428900450545
 30
0.0
 10
93.81356741361258
 20
-149.6428900450545
 30
0.0
 10
93.81356741361258
 20
-149.6428900450545
 30
0.0
 10
93.89607745048431
 20
-149.6428900450545
 30
0.0
 10
94.06953800816664
 20
-149.6384114209237
 30
0.0
 10
94.19442271950696
 20
-149.6301431917591
 30
0.0
 10
94.19442271950696
 20
-149.6301431917591
 30
0.0
 10
94.19442271950696
 20
-149.8099771760891
 30
0.0
 10
94.19442271950696
 20
-149.8099771760891
 30
0.0
 10
94.16479489833381
 20
-149.807910118798
 30
0.0
 10
94.04628361364121
 20
-149.8034314946672
 30
0.0
 10
94.00614825123804
 20
-149.801364437376
 30
0.0
 10
93.99133434065147
 20
-149.8520073410092
 30
0.0
 10
93.95740015012178
 20
-149.9643174538284
 30
0.0
 10
93.89194333590202
 20
-150.103843820981
 30
0.0
 10
93.93414575559633
 20
-150.103843820981
 30
0.0
 10
94.21130368738468
 20
-150.0848957958121
 30
0.0
 10
94.27262638702213
 20
-150.0828287385209
 30
0.0
 10
94.27262638702213
 20
-150.0828287385209
 30
0.0
 10
94.27262638702213
 20
-150.2667968374333
 30
0.0
 10
94.27262638702213
 20
-150.2667968374333
 30
0.0
 10
94.24299856584898
 20
-150.2667968374333
 30
0.0
 10
94.22611759797126
 20
-150.262662722851
 30
0.0
 10
94.06316458151893
 20
-150.262662722851
 30
0.0
  0
HATCH
  5
146
330
13F
100
AcDbEntity
  8
レイヤー 1
 62
    18
420
        0
440
 33554687
100
AcDbHatch
 10
0.0
 20
0.0
 30
0.0
210
0.0
220
0.0
230
1.0
  2
SOLID
 70
     1
 71
     1
 91
        3
 92
        1
 93
        1
 72
     4
 94
        3
 73
     0
 74
     0
 95
       17
 96
       13
 40
0.0
 40
0.0
 40
0.0
 40
0.0
 40
1.0
 40
1.0
 40
1.0
 40
2.0
 40
2.0
 40
2.0
 40
3.0
 40
3.0
 40
3.0
 40
4.0
 40
4.0
 40
4.0
 40
4.0
 10
93.49834117671223
 20
-150.6474798885534
 10
93.48146020883451
 20
-150.6771077097265
 10
93.43064505042706
 20
-150.7704697973768
 10
93.42013750919704
 20
-150.7894178225457
 10
93.61047903475711
 20
-150.848673464892
 10
93.63166637199139
 20
-150.8548746367654
 10
93.70366886763312
 20
-150.8824354006474
 10
93.75861814062284
 20
-150.7956189944191
 10
93.78187253514829
 20
-150.7215494414863
 10
93.79668644573486
 20
-150.6474798885534
 10
93.79668644573486
 20
-150.6474798885534
 10
93.49834117671223
 20
-150.6474798885534
 10
93.49834117671223
 20
-150.6474798885534
 97
        0
 97
        1
330
143
 92
        1
 93
        1
 72
     4
 94
        3
 73
     0
 74
     0
 95
       20
 96
       16
 40
0.0
 40
0.0
 40
0.0
 40
0.0
 40
1.0
 40
1.0
 40
1.0
 40
2.0
 40
2.0
 40
2.0
 40
3.0
 40
3.0
 40
3.0
 40
4.0
 40
4.0
 40
4.0
 40
5.0
 40
5.0
 40
5.0
 40
5.0
 10
93.43495141978364
 20
-149.7972303227937
 10
93.43495141978364
 20
-149.7972303227937
 10
93.40325654131932
 20
-149.7972303227937
 10
93.40325654131932
 20
-149.7972303227937
 10
93.44976533037019
 20
-149.8964490727689
 10
93.48146020883451
 20
-149.9770643071238
 10
93.51539439936422
 20
-150.103843820981
 10
93.51539439936422
 20
-150.103843820981
 10
93.72261689280199
 20
-150.103843820981
 10
93.72261689280199
 20
-150.103843820981
 10
93.75431177126628
 20
-150.0108262428792
 10
93.77756616579173
 20
-149.9260768939421
 10
93.80099281509142
 20
-149.7972303227937
 10
93.80099281509142
 20
-149.7972303227937
 10
93.43495141978364
 20
-149.7972303227937
 10
93.43495141978364
 20
-149.7972303227937
 97
        0
 97
        1
330
144
 92
        1
 93
        1
 72
     4
 94
        3
 73
     0
 74
     0
 95
      242
 96
      238
 40
0.0
 40
0.0
 40
0.0
 40
0.0
 40
1.0
 40
1.0
 40
1.0
 40
2.0
 40
2.0
 40
2.0
 40
3.0
 40
3.0
 40
3.0
 40
4.0
 40
4.0
 40
4.0
 40
5.0
 40
5.0
 40
5.0
 40
6.0
 40
6.0
 40
6.0
 40
7.0
 40
7.0
 40
7.0
 40
8.0
 40
8.0
 40
8.0
 40
9.0
 40
9.0
 40
9.0
 40
10.0
 40
10.0
 40
10.0
 40
11.0
 40
11.0
 40
11.0
 40
12.0
 40
12.0
 40
12.0
 40
13.0
 40
13.0
 40
13.0
 40
14.0
 40
14.0
 40
14.0
 40
15.0
 40
15.0
 40
15.0
 40
16.0
 40
16.0
 40
16.0
 40
17.0
 40
17.0
 40
17.0
 40
18.0
 40
18.0
 40
18.0
 40
19.0
 40
19.0
 40
19.0
 40
20.0
 40
20.0
 40
20.0
 40
21.0
 40
21.0
 40
21.0
 40
22.0
 40
22.0
 40
22.0
 40
23.0
 40
23.0
 40
23.0
 40
24.0
 40
24.0
 40
24.0
 40
25.0
 40
25.0
 40
25.0
 40
26.0
 40
26.0
 40
26.0
 40
27.0
 40
27.0
 40
27.0
 40
28.0
 40
28.0
 40
28.0
 40
29.0
 40
29.0
 40
29.0
 40
30.0
 40
30.0
 40
30.0
 40
31.0
 40
31.0
 40
31.0
 40
32.0
 40
32.0
 40
32.0
 40
33.0
 40
33.0
 40
33.0
 40
34.0
 40
34.0
 40
34.0
 40
35.0
 40
35.0
 40
35.0
 40
36.0
 40
36.0
 40
36.0
 40
37.0
 40
37.0
 40
37.0
 40
38.0
 40
38.0
 40
38.0
 40
39.0
 40
39.0
 40
39.0
 40
40.0
 40
40.0
 40
40.0
 40
41.0
 40
41.0
 40
41.0
 40
42.0
 40
42.0
 40
42.0
 40
43.0
 40
43.0
 40
43.0
 40
44.0
 40
44.0
 40
44.0
 40
45.0
 40
45.0
 40
45.0
 40
46.0
 40
46.0
 40
46.0
 40
47.0
 40
47.0
 40
47.0
 40
48.0
 40
48.0
 40
48.0
 40
49.0
 40
49.0
 40
49.0
 40
50.0
 40
50.0
 40
50.0
 40
51.0
 40
51.0
 40
51.0
 40
52.0
 40
52.0
 40
52.0
 40
53.0
 40
53.0
 40
53.0
 40
54.0
 40
54.0
 40
54.0
 40
55.0
 40
55.0
 40
55.0
 40
56.0
 40
56.0
 40
56.0
 40
57.0
 40
57.0
 40
57.0
 40
58.0
 40
58.0
 40
58.0
 40
59.0
 40
59.0
 40
59.0
 40
60.0
 40
60.0
 40
60.0
 40
61.0
 40
61.0
 40
61.0
 40
62.0
 40
62.0
 40
62.0
 40
63.0
 40
63.0
 40
63.0
 40
64.0
 40
64.0
 40
64.0
 40
65.0
 40
65.0
 40
65.0
 40
66.0
 40
66.0
 40
66.0
 40
67.0
 40
67.0
 40
67.0
 40
68.0
 40
68.0
 40
68.0
 40
69.0
 40
69.0
 40
69.0
 40
70.0
 40
70.0
 40
70.0
 40
71.0
 40
71.0
 40
71.0
 40
72.0
 40
72.0
 40
72.0
 40
73.0
 40
73.0
 40
73.0
 40
74.0
 40
74.0
 40
74.0
 40
75.0
 40
75.0
 40
75.0
 40
76.0
 40
76.0
 40
76.0
 40
77.0
 40
77.0
 40
77.0
 40
78.0
 40
78.0
 40
78.0
 40
79.0
 40
79.0
 40
79.0
 40
79.0
 10
94.06316458151893
 20
-150.262662722851
 10
94.06316458151893
 20
-150.262662722851
 10
93.80943329903029
 20
-150.262662722851
 10
93.80943329903029
 20
-150.262662722851
 10
93.80943329903029
 20
-150.262662722851
 10
93.53227536724194
 20
-150.262662722851
 10
93.53227536724194
 20
-150.262662722851
 10
93.53227536724194
 20
-150.262662722851
 10
93.65922713587339
 20
-150.3050373973195
 10
93.65922713587339
 20
-150.3050373973195
 10
93.66973467710341
 20
-150.3091715119019
 10
93.68248153039884
 20
-150.3153726837753
 10
93.68248153039884
 20
-150.3281195370707
 10
93.68248153039884
 20
-150.3494791290793
 10
93.65078665193452
 20
-150.3556803009527
 10
93.62959931470024
 20
-150.359814415535
 10
93.61891951869598
 20
-150.3832410648347
 10
93.58929169752283
 20
-150.4486978790545
 10
93.57034367235394
 20
-150.4931396108142
 10
93.57034367235394
 20
-150.4931396108142
 10
93.84112817749459
 20
-150.4931396108142
 10
93.84112817749459
 20
-150.4931396108142
 10
93.93207869830517
 20
-150.4931396108142
 10
94.12879365051294
 20
-150.4890054962319
 10
94.27055932973097
 20
-150.4803927575188
 10
94.27055932973097
 20
-150.4803927575188
 10
94.27055932973097
 20
-150.6581596845577
 10
94.27055932973097
 20
-150.6581596845577
 10
94.18804929285924
 20
-150.6540255699754
 10
94.16686195562496
 20
-150.6540255699754
 10
93.98702797129491
 20
-150.6498914553931
 10
93.95533309283061
 20
-150.8042317331322
 10
93.91089136107089
 20
-150.8845024579386
 10
93.86644962931118
 20
-150.9544378962891
 10
93.98702797129491
 20
-151.0136935386355
 10
94.09279240269208
 20
-151.0812174101463
 10
94.19648977679811
 20
-151.1638997017923
 10
94.19648977679811
 20
-151.1638997017923
 10
94.07797849210551
 20
-151.330986832827
 10
94.07797849210551
 20
-151.330986832827
 10
94.05472409758008
 20
-151.3120388076581
 10
94.0421494990589
 20
-151.3034260689449
 10
93.93001164101404
 20
-151.2186767200078
 10
93.88126353989774
 20
-151.1807806696701
 10
93.82200789755144
 20
-151.144607167075
 10
93.74173717274514
 20
-151.1001654353152
 10
93.53020830995077
 20
-151.2865451010672
 10
93.3248806190299
 20
-151.3096272408184
 10
93.03514808872039
 20
-151.3392550619916
 10
93.03514808872039
 20
-151.3392550619916
 10
92.93145071461436
 20
-151.1594210776615
 10
92.93145071461436
 20
-151.1594210776615
 10
93.24874400880586
 20
-151.1552869630792
 10
93.42427162377935
 20
-151.1297932564884
 10
93.57671709900165
 20
-151.0198947105089
 10
93.45820581430906
 20
-150.9692518068757
 10
93.36932235078961
 20
-150.9416910429937
 10
93.33332110296876
 20
-150.9289441896983
 10
93.31437307779989
 20
-150.9565049535803
 10
93.29955916721329
 20
-150.9754529787492
 10
93.27199840333131
 20
-151.0092149145046
 10
93.27199840333131
 20
-151.0092149145046
 10
93.07528345112354
 20
-150.9268771324071
 10
93.07528345112354
 20
-150.9268771324071
 10
93.15779348799528
 20
-150.8466064076008
 10
93.21911618763271
 20
-150.7511772626594
 10
93.27630477268789
 20
-150.6498914553931
 10
93.08579099235355
 20
-150.6540255699754
 10
93.06477590989352
 20
-150.6540255699754
 10
92.98226587302179
 20
-150.6581596845577
 10
92.98226587302179
 20
-150.6581596845577
 10
92.98226587302179
 20
-150.4803927575188
 10
92.98226587302179
 20
-150.4803927575188
 10
93.12179224017441
 20
-150.4869384389407
 10
93.33125404567761
 20
-150.491072553523
 10
93.35657549749418
 20
-150.491072553523
 10
93.37362872014619
 20
-150.4573106177676
 10
93.42857799313591
 20
-150.3367322757839
 10
93.44769827307905
 20
-150.262662722851
 10
93.42857799313591
 20
-150.262662722851
 10
93.25081106609703
 20
-150.2688638947244
 10
93.0561631711804
 20
-150.2816107480199
 10
93.0561631711804
 20
-150.2816107480199
 10
93.0561631711804
 20
-150.414935943299
 10
93.0561631711804
 20
-150.414935943299
 10
93.00758732483838
 20
-150.4404296498899
 10
92.94833168249208
 20
-150.4721245283542
 10
92.81500648721292
 20
-150.5375813425739
 10
92.81500648721292
 20
-150.5375813425739
 10
92.81500648721292
 20
-150.6836533911485
 10
92.81500648721292
 20
-150.6836533911485
 10
92.81500648721292
 20
-150.6836533911485
 10
92.81500648721292
 20
-151.1511528484969
 10
92.81500648721292
 20
-151.1511528484969
 10
92.81500648721292
 20
-151.2779323623541
 10
92.77917749416632
 20
-151.3371880047004
 10
92.49564613573026
 20
-151.3289197755358
 10
92.49564613573026
 20
-151.3289197755358
 10
92.39194876162423
 20
-151.1215250273238
 10
92.39194876162423
 20
-151.1215250273238
 10
92.45551077332711
 20
-151.1342718806192
 10
92.50408661966913
 20
-151.1384059952015
 10
92.54422198207228
 20
-151.1384059952015
 10
92.62053084707057
 20
-151.1384059952015
 10
92.63103838830058
 20
-151.1149793459018
 10
92.63103838830058
 20
-151.049522531682
 10
92.63103838830058
 20
-151.049522531682
 10
92.63103838830058
 20
-150.6202636342199
 10
92.63103838830058
 20
-150.6202636342199
 10
92.53371444084228
 20
-150.6602267418488
 10
92.51683347296454
 20
-150.6667724232708
 10
92.47032468391367
 20
-150.6857204484397
 10
92.46601831455711
 20
-150.7067355308997
 10
92.46171194520055
 20
-150.7363633520728
 10
92.44276392003168
 20
-150.7363633520728
 10
92.43432343609281
 20
-150.7363633520728
 10
92.42364364008855
 20
-150.7322292374905
 10
92.41744246821509
 20
-150.7088025881908
 10
92.41744246821509
 20
-150.7088025881908
 10
92.3645602525165
 20
-150.5165662601139
 10
92.3645602525165
 20
-150.5165662601139
 10
92.51046004631684
 20
-150.470057471063
 10
92.57608911531084
 20
-150.4466308217633
 10
92.63103838830058
 20
-150.4256157393033
 10
92.63103838830058
 20
-150.4256157393033
 10
92.63103838830058
 20
-150.0128933001704
 10
92.63103838830058
 20
-150.0128933001704
 10
92.63103838830058
 20
-150.0128933001704
 10
92.57815617260199
 20
-150.0128933001704
 10
92.57815617260199
 20
-150.0128933001704
 10
92.57815617260199
 20
-150.0128933001704
 10
92.49995250508682
 20
-150.0128933001704
 10
92.49995250508682
 20
-150.0128933001704
 10
92.43225637880167
 20
-150.0128933001704
 10
92.42364364008855
 20
-150.0128933001704
 10
92.38781464704194
 20
-150.0194389815924
 10
92.38781464704194
 20
-150.0194389815924
 10
92.38781464704194
 20
-149.8247910866757
 10
92.38781464704194
 20
-149.8247910866757
 10
92.41520315614968
 20
-149.8309922585492
 10
92.42364364008855
 20
-149.8309922585492
 10
92.49357907843911
 20
-149.8309922585492
 10
92.49357907843911
 20
-149.8309922585492
 10
92.62673201894401
 20
-149.8309922585492
 10
92.62673201894401
 20
-149.8309922585492
 10
92.62673201894401
 20
-149.7610568201986
 10
92.62673201894401
 20
-149.6787190381011
 10
92.62466496165286
 20
-149.6745849235188
 10
92.61622447771399
 20
-149.4947509391888
 10
92.61622447771399
 20
-149.4754584044714
 10
92.61415742042286
 20
-149.4289496154205
 10
92.61415742042286
 20
-149.4289496154205
 10
92.8298203977995
 20
-149.4375623541336
 10
92.8298203977995
 20
-149.4375623541336
 10
92.84050019380376
 20
-149.4375623541336
 10
92.86168753103806
 20
-149.4396294114248
 10
92.86168753103806
 20
-149.4565103793025
 10
92.86168753103806
 20
-149.4754584044714
 10
92.84687362045147
 20
-149.4861382004757
 10
92.82137991386063
 20
-149.5050862256445
 10
92.82137991386063
 20
-149.5560736388262
 10
92.81500648721292
 20
-149.7844834694983
 10
92.81724579927832
 20
-149.8309922585492
 10
92.94626462520094
 20
-149.8309922585492
 10
92.95901147849637
 20
-149.8309922585492
 10
93.0561631711804
 20
-149.8227240293846
 10
93.0561631711804
 20
-149.8227240293846
 10
93.0561631711804
 20
-150.0170274147527
 10
93.0561631711804
 20
-150.0170274147527
 10
93.0180948660684
 20
-150.0149603574615
 10
92.95039873978323
 20
-150.0108262428792
 10
92.81500648721292
 20
-150.0128933001704
 10
92.81500648721292
 20
-150.0128933001704
 10
92.81500648721292
 20
-150.3515461863704
 10
92.81500648721292
 20
-150.3515461863704
 10
92.87012801497692
 20
-150.3281195370707
 10
92.93558482919666
 20
-150.3005587731887
 10
92.98433293031294
 20
-150.2774766334376
 10
92.98433293031294
 20
-150.2774766334376
 10
92.98433293031294
 20
-150.0997097063987
 10
92.98433293031294
 20
-150.0997097063987
 10
93.09853784564898
 20
-150.1124565596941
 10
93.21704913034158
 20
-150.1124565596941
 10
93.33332110296876
 20
-150.1124565596941
 10
93.31006670844331
 20
-150.0170274147527
 10
93.28267819933557
 20
-149.9346896326552
 10
93.21911618763271
 20
-149.801364437376
 10
93.17467445587301
 20
-149.8034314946672
 10
93.09216441900126
 20
-149.807910118798
 10
93.05409611388926
 20
-149.8099771760891
 10
93.05409611388926
 20
-149.8099771760891
 10
93.05409611388926
 20
-149.6301431917591
 10
93.05409611388926
 20
-149.6301431917591
 10
93.17898082522956
 20
-149.6384114209237
 10
93.35244138291189
 20
-149.6428900450545
 10
93.43495141978364
 20
-149.6428900450545
 10
93.43495141978364
 20
-149.6428900450545
 10
93.51746145665535
 20
-149.6428900450545
 10
93.51746145665535
 20
-149.6428900450545
 10
93.51746145665535
 20
-149.4799370286022
 10
93.51746145665535
 20
-149.469257232598
 10
93.51539439936422
 20
-149.4141357048339
 10
93.51539439936422
 20
-149.4141357048339
 10
93.73949786067973
 20
-149.4396294114248
 10
93.73949786067973
 20
-149.4396294114248
 10
93.74380423003627
 20
-149.4396294114248
 10
93.76499156727055
 20
-149.4416964687159
 10
93.76499156727055
 20
-149.4585774365937
 10
93.76499156727055
 20
-149.4733913471802
 10
93.75431177126628
 20
-149.4820040858934
 10
93.72692326215855
 20
-149.4968179964799
 10
93.72054983551084
 20
-149.5622748106997
 10
93.71848277821969
 20
-149.5836344027082
 10
93.71848277821969
 20
-149.6428900450545
 10
93.71848277821969
 20
-149.6428900450545
 10
93.81356741361258
 20
-149.6428900450545
 10
93.81356741361258
 20
-149.6428900450545
 10
93.89607745048431
 20
-149.6428900450545
 10
94.06953800816664
 20
-149.6384114209237
 10
94.19442271950696
 20
-149.6301431917591
 10
94.19442271950696
 20
-149.6301431917591
 10
94.19442271950696
 20
-149.8099771760891
 10
94.19442271950696
 20
-149.8099771760891
 10
94.16479489833381
 20
-149.807910118798
 10
94.04628361364121
 20
-149.8034314946672
 10
94.00614825123804
 20
-149.801364437376
 10
93.99133434065147
 20
-149.8520073410092
 10
93.95740015012178
 20
-149.9643174538284
 10
93.89194333590202
 20
-150.103843820981
 10
93.93414575559633
 20
-150.103843820981
 10
94.21130368738468
 20
-150.0848957958121
 10
94.27262638702213
 20
-150.0828287385209
 10
94.27262638702213
 20
-150.0828287385209
 10
94.27262638702213
 20
-150.2667968374333
 10
94.27262638702213
 20
-150.2667968374333
 10
94.24299856584898
 20
-150.2667968374333
 10
94.22611759797126
 20
-150.262662722851
 10
94.06316458151893
 20
-150.262662722851
 97
        0
 97
        1
330
145
 75
     2
 76
     1
 98
        1
 10
0.0
 20
0.0
450
        0
451
        0
460
0.0
461
0.0
452
        0
462
0.0
453
        0
470

  0
SPLINE
  5
147
330
13F
100
AcDbEntity
  8
レイヤー 1
100
AcDbSpline
210
0.0
220
0.0
230
1.0
 70
    11
 71
     3
 72
    17
 73
    13
 74
     0
 42
0.0000000001
 43
0.0000000001
 40
0.0
 40
0.0
 40
0.0
 40
0.0
 40
1.0
 40
1.0
 40
1.0
 40
2.0
 40
2.0
 40
2.0
 40
3.0
 40
3.0
 40
3.0
 40
4.0
 40
4.0
 40
4.0
 40
4.0
 10
95.91972653852007
 20
-151.0622693849775
 30
0.0
 10
95.91972653852007
 20
-151.0622693849775
 30
0.0
 10
95.21313745449532
 20
-151.0622693849775
 30
0.0
 10
95.21313745449532
 20
-151.0622693849775
 30
0.0
 10
95.21313745449532
 20
-151.0622693849775
 30
0.0
 10
95.21313745449532
 20
-151.1766465550878
 30
0.0
 10
95.21313745449532
 20
-151.1766465550878
 30
0.0
 10
95.21313745449532
 20
-151.1766465550878
 30
0.0
 10
95.91972653852007
 20
-151.1766465550878
 30
0.0
 10
95.91972653852007
 20
-151.1766465550878
 30
0.0
 10
95.91972653852007
 20
-151.1766465550878
 30
0.0
 10
95.91972653852007
 20
-151.0622693849775
 30
0.0
 10
95.91972653852007
 20
-151.0622693849775
 30
0.0
  0
SPLINE
  5
148
330
13F
100
AcDbEntity
  8
レイヤー 1
100
AcDbSpline
210
0.0
220
0.0
230
1.0
 70
    11
 71
     3
 72
    17
 73
    13
 74
     0
 42
0.0000000001
 43
0.0000000001
 40
0.0
 40
0.0
 40
0.0
 40
0.0
 40
1.0
 40
1.0
 40
1.0
 40
2.0
 40
2.0
 40
2.0
 40
3.0
 40
3.0
 40
3.0
 40
4.0
 40
4.0
 40
4.0
 40
4.0
 10
95.91972653852007
 20
-150.8190456437188
 30
0.0
 10
95.91972653852007
 20
-150.8190456437188
 30
0.0
 10
95.21313745449532
 20
-150.8190456437188
 30
0.0
 10
95.21313745449532
 20
-150.8190456437188
 30
0.0
 10
95.21313745449532
 20
-150.8190456437188
 30
0.0
 10
95.21313745449532
 20
-150.9330783042806
 30
0.0
 10
95.21313745449532
 20
-150.9330783042806
 30
0.0
 10
95.21313745449532
 20
-150.9330783042806
 30
0.0
 10
95.91972653852007
 20
-150.9330783042806
 30
0.0
 10
95.91972653852007
 20
-150.9330783042806
 30
0.0
 10
95.91972653852007
 20
-150.9330783042806
 30
0.0
 10
95.91972653852007
 20
-150.8190456437188
 30
0.0
 10
95.91972653852007
 20
-150.8190456437188
 30
0.0
  0
SPLINE
  5
149
330
13F
100
AcDbEntity
  8
レイヤー 1
100
AcDbSpline
210
0.0
220
0.0
230
1.0
 70
    11
 71
     3
 72
    17
 73
    13
 74
     0
 42
0.0000000001
 43
0.0000000001
 40
0.0
 40
0.0
 40
0.0
 40
0.0
 40
1.0
 40
1.0
 40
1.0
 40
2.0
 40
2.0
 40
2.0
 40
3.0
 40
3.0
 40
3.0
 40
4.0
 40
4.0
 40
4.0
 40
4.0
 10
95.91972653852007
 20
-150.5861571889159
 30
0.0
 10
95.91972653852007
 20
-150.5861571889159
 30
0.0
 10
95.21313745449532
 20
-150.5861571889159
 30
0.0
 10
95.21313745449532
 20
-150.5861571889159
 30
0.0
 10
95.21313745449532
 20
-150.5861571889159
 30
0.0
 10
95.21313745449532
 20
-150.6939886776043
 30
0.0
 10
95.21313745449532
 20
-150.6939886776043
 30
0.0
 10
95.21313745449532
 20
-150.6939886776043
 30
0.0
 10
95.91972653852007
 20
-150.6939886776043
 30
0.0
 10
95.91972653852007
 20
-150.6939886776043
 30
0.0
 10
95.91972653852007
 20
-150.6939886776043
 30
0.0
 10
95.91972653852007
 20
-150.5861571889159
 30
0.0
 10
95.91972653852007
 20
-150.5861571889159
 30
0.0
  0
SPLINE
  5
14A
330
13F
100
AcDbEntity
  8
レイヤー 1
100
AcDbSpline
210
0.0
220
0.0
230
1.0
 70
     9
 71
     3
 72
   203
 73
   199
 74
     0
 42
0.0000000001
 43
0.0000000001
 40
0.0
 40
0.0
 40
0.0
 40
0.0
 40
1.0
 40
1.0
 40
1.0
 40
2.0
 40
2.0
 40
2.0
 40
3.0
 40
3.0
 40
3.0
 40
4.0
 40
4.0
 40
4.0
 40
5.0
 40
5.0
 40
5.0
 40
6.0
 40
6.0
 40
6.0
 40
7.0
 40
7.0
 40
7.0
 40
8.0
 40
8.0
 40
8.0
 40
9.0
 40
9.0
 40
9.0
 40
10.0
 40
10.0
 40
10.0
 40
11.0
 40
11.0
 40
11.0
 40
12.0
 40
12.0
 40
12.0
 40
13.0
 40
13.0
 40
13.0
 40
14.0
 40
14.0
 40
14.0
 40
15.0
 40
15.0
 40
15.0
 40
16.0
 40
16.0
 40
16.0
 40
17.0
 40
17.0
 40
17.0
 40
18.0
 40
18.0
 40
18.0
 40
19.0
 40
19.0
 40
19.0
 40
20.0
 40
20.0
 40
20.0
 40
21.0
 40
21.0
 40
21.0
 40
22.0
 40
22.0
 40
22.0
 40
23.0
 40
23.0
 40
23.0
 40
24.0
 40
24.0
 40
24.0
 40
25.0
 40
25.0
 40
25.0
 40
26.0
 40
26.0
 40
26.0
 40
27.0
 40
27.0
 40
27.0
 40
28.0
 40
28.0
 40
28.0
 40
29.0
 40
29.0
 40
29.0
 40
30.0
 40
30.0
 40
30.0
 40
31.0
 40
31.0
 40
31.0
 40
32.0
 40
32.0
 40
32.0
 40
33.0
 40
33.0
 40
33.0
 40
34.0
 40
34.0
 40
34.0
 40
35.0
 40
35.0
 40
35.0
 40
36.0
 40
36.0
 40
36.0
 40
37.0
 40
37.0
 40
37.0
 40
38.0
 40
38.0
 40
38.0
 40
39.0
 40
39.0
 40
39.0
 40
40.0
 40
40.0
 40
40.0
 40
41.0
 40
41.0
 40
41.0
 40
42.0
 40
42.0
 40
42.0
 40
43.0
 40
43.0
 40
43.0
 40
44.0
 40
44.0
 40
44.0
 40
45.0
 40
45.0
 40
45.0
 40
46.0
 40
46.0
 40
46.0
 40
47.0
 40
47.0
 40
47.0
 40
48.0
 40
48.0
 40
48.0
 40
49.0
 40
49.0
 40
49.0
 40
50.0
 40
50.0
 40
50.0
 40
51.0
 40
51.0
 40
51.0
 40
52.0
 40
52.0
 40
52.0
 40
53.0
 40
53.0
 40
53.0
 40
54.0
 40
54.0
 40
54.0
 40
55.0
 40
55.0
 40
55.0
 40
56.0
 40
56.0
 40
56.0
 40
57.0
 40
57.0
 40
57.0
 40
58.0
 40
58.0
 40
58.0
 40
59.0
 40
59.0
 40
59.0
 40
60.0
 40
60.0
 40
60.0
 40
61.0
 40
61.0
 40
61.0
 40
62.0
 40
62.0
 40
62.0
 40
63.0
 40
63.0
 40
63.0
 40
64.0
 40
64.0
 40
64.0
 40
65.0
 40
65.0
 40
65.0
 40
66.0
 40
66.0
 40
66.0
 40
66.0
 10
95.75470646477659
 20
-150.3301865943619
 30
0.0
 10
95.75470646477659
 20
-150.3301865943619
 30
0.0
 10
95.19625648661762
 20
-150.3301865943619
 30
0.0
 10
95.19625648661762
 20
-150.3301865943619
 30
0.0
 10
95.18557669061333
 20
-150.3746283261216
 30
0.0
 10
95.17713620667448
 20
-150.4063232045859
 30
0.0
 10
95.16438935337905
 20
-150.4445637644722
 30
0.0
 10
95.18988305996989
 20
-150.4445637644722
 30
0.0
 10
95.20469697055647
 20
-150.4466308217633
 30
0.0
 10
95.21107039720417
 20
-150.4466308217633
 30
0.0
 10
95.21107039720417
 20
-150.4466308217633
 30
0.0
 10
95.39934486547307
 20
-150.4466308217633
 30
0.0
 10
95.39934486547307
 20
-150.4466308217633
 30
0.0
 10
95.39934486547307
 20
-150.4466308217633
 30
0.0
 10
95.77365448994548
 20
-150.4466308217633
 30
0.0
 10
95.77365448994548
 20
-150.4466308217633
 30
0.0
 10
95.82446964835291
 20
-150.4466308217633
 30
0.0
 10
96.10800100678899
 20
-150.4338839684679
 30
0.0
 10
96.13969588525328
 20
-150.4338839684679
 30
0.0
 10
96.13762882796214
 20
-150.4614447323499
 30
0.0
 10
96.13538951589672
 20
-150.4803927575188
 30
0.0
 10
96.13538951589672
 20
-150.5100205786919
 30
0.0
 10
96.13332245860556
 20
-150.5417154571562
 30
0.0
 10
96.13332245860556
 20
-150.6771077097265
 30
0.0
 10
96.13332245860556
 20
-150.7046684736085
 30
0.0
 10
96.13332245860556
 20
-150.7046684736085
 30
0.0
 10
96.13332245860556
 20
-150.9499592721583
 30
0.0
 10
96.13332245860556
 20
-150.9499592721583
 30
0.0
 10
96.13332245860556
 20
-150.9944010039181
 30
0.0
 10
96.13762882796214
 20
-151.1914604656744
 30
0.0
 10
96.14176294254443
 20
-151.3437336861224
 30
0.0
 10
96.14176294254443
 20
-151.3437336861224
 30
0.0
 10
95.91542016916351
 20
-151.3437336861224
 30
0.0
 10
95.91542016916351
 20
-151.3437336861224
 30
0.0
 10
95.91542016916351
 20
-151.3437336861224
 30
0.0
 10
95.91765948122892
 20
-151.3096272408184
 30
0.0
 10
95.91765948122892
 20
-151.3096272408184
 30
0.0
 10
95.91765948122892
 20
-151.3096272408184
 30
0.0
 10
95.21520451178648
 20
-151.3096272408184
 30
0.0
 10
95.21520451178648
 20
-151.3096272408184
 30
0.0
 10
95.21520451178648
 20
-151.3096272408184
 30
0.0
 10
95.21727156907763
 20
-151.3437336861224
 30
0.0
 10
95.21727156907763
 20
-151.3437336861224
 30
0.0
 10
95.21727156907763
 20
-151.3437336861224
 30
0.0
 10
94.99936927963558
 20
-151.3437336861224
 30
0.0
 10
94.99936927963558
 20
-151.3437336861224
 30
0.0
 10
95.00367564899214
 20
-151.2886121583584
 30
0.0
 10
95.00367564899214
 20
-151.275865305063
 30
0.0
 10
95.01004907563986
 20
-151.1618326445012
 30
0.0
 10
95.01211613293099
 20
-151.1342718806192
 30
0.0
 10
95.01418319022215
 20
-151.00094668534
 30
0.0
 10
95.01418319022215
 20
-150.9819986601711
 30
0.0
 10
95.01418319022215
 20
-150.9819986601711
 30
0.0
 10
95.01418319022215
 20
-150.7787380265414
 30
0.0
 10
95.01418319022215
 20
-150.7787380265414
 30
0.0
 10
94.87465682306952
 20
-151.028507449222
 30
0.0
 10
94.70533037996951
 20
-151.1594210776615
 30
0.0
 10
94.59956594857233
 20
-151.2252224014298
 30
0.0
 10
94.59956594857233
 20
-151.2252224014298
 30
0.0
 10
94.42610539089001
 20
-151.0853515247287
 30
0.0
 10
94.42610539089001
 20
-151.0853515247287
 30
0.0
 10
94.51498885440946
 20
-151.0347086210955
 30
0.0
 10
94.65882159091863
 20
-150.9478922148672
 30
0.0
 10
94.7962809007801
 20
-150.7532443199506
 30
0.0
 10
94.88740367636495
 20
-150.6264648060934
 30
0.0
 10
94.95286049058471
 20
-150.4824598148099
 30
0.0
 10
94.98679468111442
 20
-150.3301865943619
 30
0.0
 10
94.75821259566808
 20
-150.332253651653
 30
0.0
 10
94.57837861133805
 20
-150.338799333075
 30
0.0
 10
94.48329397594516
 20
-150.3408663903662
 30
0.0
 10
94.48329397594516
 20
-150.3408663903662
 30
0.0
 10
94.48329397594516
 20
-150.1630994633273
 30
0.0
 10
94.48329397594516
 20
-150.1630994633273
 30
0.0
 10
94.68000892815291
 20
-150.1696451447492
 30
0.0
 10
94.96354028658897
 20
-150.1737792593315
 30
0.0
 10
95.11374644974587
 20
-150.1737792593315
 30
0.0
 10
95.11374644974587
 20
-150.1737792593315
 30
0.0
 10
95.32734236983136
 20
-150.1737792593315
 30
0.0
 10
95.32734236983136
 20
-150.1737792593315
 30
0.0
 10
95.32734236983136
 20
-150.1737792593315
 30
0.0
 10
95.32734236983136
 20
-150.0659477706432
 30
0.0
 10
95.32734236983136
 20
-150.0659477706432
 30
0.0
 10
95.32734236983136
 20
-150.0659477706432
 30
0.0
 10
95.18144257603102
 20
-150.0659477706432
 30
0.0
 10
95.18144257603102
 20
-150.0659477706432
 30
0.0
 10
95.01211613293099
 20
-150.0659477706432
 30
0.0
 10
94.84296194460524
 20
-150.0700818852255
 30
0.0
 10
94.67570255879635
 20
-150.076283057099
 30
0.0
 10
94.67570255879635
 20
-150.076283057099
 30
0.0
 10
94.67570255879635
 20
-149.9050618114821
 30
0.0
 10
94.67570255879635
 20
-149.9050618114821
 30
0.0
 10
94.83021509130981
 20
-149.9157416074863
 30
0.0
 10
95.01642250228757
 20
-149.9157416074863
 30
0.0
 10
95.18144257603102
 20
-149.9157416074863
 30
0.0
 10
95.18144257603102
 20
-149.9157416074863
 30
0.0
 10
95.32734236983136
 20
-149.9157416074863
 30
0.0
 10
95.32734236983136
 20
-149.9157416074863
 30
0.0
 10
95.32734236983136
 20
-149.9157416074863
 30
0.0
 10
95.32734236983136
 20
-149.7972303227937
 30
0.0
 10
95.32734236983136
 20
-149.7972303227937
 30
0.0
 10
95.32734236983136
 20
-149.7972303227937
 30
0.0
 10
95.19625648661762
 20
-149.7972303227937
 30
0.0
 10
95.19625648661762
 20
-149.7972303227937
 30
0.0
 10
95.14957544279246
 20
-149.7972303227937
 30
0.0
 10
94.946487063937
 20
-149.8054985519583
 30
0.0
 10
94.90428464424267
 20
-149.8054985519583
 30
0.0
 10
94.70119626538721
 20
-149.8099771760891
 30
0.0
 10
94.62505965516319
 20
-149.8120442333803
 30
0.0
 10
94.54668373287374
 20
-149.8141112906715
 30
0.0
 10
94.54668373287374
 20
-149.8141112906715
 30
0.0
 10
94.54668373287374
 20
-149.6301431917591
 30
0.0
 10
94.54668373287374
 20
-149.6301431917591
 30
0.0
 10
94.66088864820978
 20
-149.6384114209237
 30
0.0
 10
94.70533037996951
 20
-149.6384114209237
 30
0.0
 10
95.08825274315503
 20
-149.6470241596368
 30
0.0
 10
95.02486298622642
 20
-149.5519395242439
 30
0.0
 10
94.99730222234443
 20
-149.5243787603619
 30
0.0
 10
94.96130097452356
 20
-149.4882052577668
 30
0.0
 10
94.96130097452356
 20
-149.4882052577668
 30
0.0
 10
95.13700084427131
 20
-149.4058674756693
 30
0.0
 10
95.13700084427131
 20
-149.4058674756693
 30
0.0
 10
95.17713620667448
 20
-149.4416964687159
 30
0.0
 10
95.22157793843419
 20
-149.4840711431845
 30
0.0
 10
95.29564749136707
 20
-149.593969689164
 30
0.0
 10
95.29564749136707
 20
-149.593969689164
 30
0.0
 10
95.18144257603102
 20
-149.649091216928
 30
0.0
 10
95.18144257603102
 20
-149.649091216928
 30
0.0
 10
95.18144257603102
 20
-149.649091216928
 30
0.0
 10
95.19195011726104
 20
-149.649091216928
 30
0.0
 10
95.19195011726104
 20
-149.649091216928
 30
0.0
 10
95.19195011726104
 20
-149.649091216928
 30
0.0
 10
95.71439884759918
 20
-149.649091216928
 30
0.0
 10
95.71439884759918
 20
-149.649091216928
 30
0.0
 10
95.71439884759918
 20
-149.649091216928
 30
0.0
 10
95.61931421220629
 20
-149.6046494851683
 30
0.0
 10
95.61931421220629
 20
-149.6046494851683
 30
0.0
 10
95.64687497608828
 20
-149.5667534348305
 30
0.0
 10
95.70389130636916
 20
-149.4861382004757
 30
0.0
 10
95.71870521695574
 20
-149.4120686475428
 30
0.0
 10
95.71870521695574
 20
-149.4120686475428
 30
0.0
 10
95.93230113704123
 20
-149.4754584044714
 30
0.0
 10
95.93230113704123
 20
-149.4754584044714
 30
0.0
 10
95.94091387575437
 20
-149.4778699713111
 30
0.0
 10
95.96192895821438
 20
-149.4882052577668
 30
0.0
 10
95.96192895821438
 20
-149.5095648497754
 30
0.0
 10
95.96192895821438
 20
-149.5474609001131
 30
0.0
 10
95.89647214399464
 20
-149.5474609001131
 30
0.0
 10
95.87735186405151
 20
-149.5474609001131
 30
0.0
 10
95.86684432282149
 20
-149.5667534348305
 30
0.0
 10
95.84358992829605
 20
-149.6067165424594
 30
0.0
 10
95.8139621071229
 20
-149.6470241596368
 30
0.0
 10
96.21376543818614
 20
-149.6404784782148
 30
0.0
 10
96.24339325935929
 20
-149.6384114209237
 30
0.0
 10
96.31952986958332
 20
-149.6322102490502
 30
0.0
 10
96.31952986958332
 20
-149.6322102490502
 30
0.0
 10
96.31952986958332
 20
-149.8141112906715
 30
0.0
 10
96.31952986958332
 20
-149.8141112906715
 30
0.0
 10
96.30040958964018
 20
-149.8141112906715
 30
0.0
 10
96.27508813782359
 20
-149.8120442333803
 30
0.0
 10
96.05511879109039
 20
-149.8034314946672
 30
0.0
 10
96.00430363268296
 20
-149.801364437376
 30
0.0
 10
95.78433428594975
 20
-149.7972303227937
 30
0.0
 10
95.73989255419004
 20
-149.7972303227937
 30
0.0
 10
95.73989255419004
 20
-149.7972303227937
 30
0.0
 10
95.52405732203913
 20
-149.7972303227937
 30
0.0
 10
95.52405732203913
 20
-149.7972303227937
 30
0.0
 10
95.52405732203913
 20
-149.7972303227937
 30
0.0
 10
95.52405732203913
 20
-149.9157416074863
 30
0.0
 10
95.52405732203913
 20
-149.9157416074863
 30
0.0
 10
95.52405732203913
 20
-149.9157416074863
 30
0.0
 10
95.69751787972146
 20
-149.9157416074863
 30
0.0
 10
95.69751787972146
 20
-149.9157416074863
 30
0.0
 10
95.86047089617379
 20
-149.9157416074863
 30
0.0
 10
96.05081242173383
 20
-149.9157416074863
 30
0.0
 10
96.20739201153844
 20
-149.9050618114821
 30
0.0
 10
96.20739201153844
 20
-149.9050618114821
 30
0.0
 10
96.20739201153844
 20
-150.076283057099
 30
0.0
 10
96.20739201153844
 20
-150.076283057099
 30
0.0
 10
95.99793020603526
 20
-150.0680148279344
 30
0.0
 10
95.80121525382748
 20
-150.0659477706432
 30
0.0
 10
95.69751787972146
 20
-150.0659477706432
 30
0.0
 10
95.69751787972146
 20
-150.0659477706432
 30
0.0
 10
95.52405732203913
 20
-150.0659477706432
 30
0.0
 10
95.52405732203913
 20
-150.0659477706432
 30
0.0
 10
95.52405732203913
 20
-150.0659477706432
 30
0.0
 10
95.52405732203913
 20
-150.1737792593315
 30
0.0
 10
95.52405732203913
 20
-150.1737792593315
 30
0.0
 10
95.52405732203913
 20
-150.1737792593315
 30
0.0
 10
95.75470646477659
 20
-150.1737792593315
 30
0.0
 10
95.75470646477659
 20
-150.1737792593315
 30
0.0
 10
95.88803166005577
 20
-150.1737792593315
 30
0.0
 10
96.17569713307414
 20
-150.1696451447492
 30
0.0
 10
96.38515893857732
 20
-150.1630994633273
 30
0.0
 10
96.38515893857732
 20
-150.1630994633273
 30
0.0
 10
96.38515893857732
 20
-150.3408663903662
 30
0.0
 10
96.38515893857732
 20
-150.3408663903662
 30
0.0
 10
96.19257810095186
 20
-150.3346652184927
 30
0.0
 10
95.87941892134265
 20
-150.3301865943619
 30
0.0
 10
95.75470646477659
 20
-150.3301865943619
 30
0.0
  0
HATCH
  5
14B
330
13F
100
AcDbEntity
  8
レイヤー 1
 62
    18
420
        0
440
 33554687
100
AcDbHatch
 10
0.0
 20
0.0
 30
0.0
210
0.0
220
0.0
230
1.0
  2
SOLID
 70
     1
 71
     1
 91
        4
 92
        1
 93
        1
 72
     4
 94
        3
 73
     0
 74
     0
 95
       17
 96
       13
 40
0.0
 40
0.0
 40
0.0
 40
0.0
 40
1.0
 40
1.0
 40
1.0
 40
2.0
 40
2.0
 40
2.0
 40
3.0
 40
3.0
 40
3.0
 40
4.0
 40
4.0
 40
4.0
 40
4.0
 10
95.91972653852007
 20
-151.0622693849775
 10
95.91972653852007
 20
-151.0622693849775
 10
95.21313745449532
 20
-151.0622693849775
 10
95.21313745449532
 20
-151.0622693849775
 10
95.21313745449532
 20
-151.0622693849775
 10
95.21313745449532
 20
-151.1766465550878
 10
95.21313745449532
 20
-151.1766465550878
 10
95.21313745449532
 20
-151.1766465550878
 10
95.91972653852007
 20
-151.1766465550878
 10
95.91972653852007
 20
-151.1766465550878
 10
95.91972653852007
 20
-151.1766465550878
 10
95.91972653852007
 20
-151.0622693849775
 10
95.91972653852007
 20
-151.0622693849775
 97
        0
 97
        1
330
147
 92
        1
 93
        1
 72
     4
 94
        3
 73
     0
 74
     0
 95
       17
 96
       13
 40
0.0
 40
0.0
 40
0.0
 40
0.0
 40
1.0
 40
1.0
 40
1.0
 40
2.0
 40
2.0
 40
2.0
 40
3.0
 40
3.0
 40
3.0
 40
4.0
 40
4.0
 40
4.0
 40
4.0
 10
95.91972653852007
 20
-150.8190456437188
 10
95.91972653852007
 20
-150.8190456437188
 10
95.21313745449532
 20
-150.8190456437188
 10
95.21313745449532
 20
-150.8190456437188
 10
95.21313745449532
 20
-150.8190456437188
 10
95.21313745449532
 20
-150.9330783042806
 10
95.21313745449532
 20
-150.9330783042806
 10
95.21313745449532
 20
-150.9330783042806
 10
95.91972653852007
 20
-150.9330783042806
 10
95.91972653852007
 20
-150.9330783042806
 10
95.91972653852007
 20
-150.9330783042806
 10
95.91972653852007
 20
-150.8190456437188
 10
95.91972653852007
 20
-150.8190456437188
 97
        0
 97
        1
330
148
 92
        1
 93
        1
 72
     4
 94
        3
 73
     0
 74
     0
 95
       17
 96
       13
 40
0.0
 40
0.0
 40
0.0
 40
0.0
 40
1.0
 40
1.0
 40
1.0
 40
2.0
 40
2.0
 40
2.0
 40
3.0
 40
3.0
 40
3.0
 40
4.0
 40
4.0
 40
4.0
 40
4.0
 10
95.91972653852007
 20
-150.5861571889159
 10
95.91972653852007
 20
-150.5861571889159
 10
95.21313745449532
 20
-150.5861571889159
 10
95.21313745449532
 20
-150.5861571889159
 10
95.21313745449532
 20
-150.5861571889159
 10
95.21313745449532
 20
-150.6939886776043
 10
95.21313745449532
 20
-150.6939886776043
 10
95.21313745449532
 20
-150.6939886776043
 10
95.91972653852007
 20
-150.6939886776043
 10
95.91972653852007
 20
-150.6939886776043
 10
95.91972653852007
 20
-150.6939886776043
 10
95.91972653852007
 20
-150.5861571889159
 10
95.91972653852007
 20
-150.5861571889159
 97
        0
 97
        1
330
149
 92
        1
 93
        1
 72
     4
 94
        3
 73
     0
 74
     0
 95
      203
 96
      199
 40
0.0
 40
0.0
 40
0.0
 40
0.0
 40
1.0
 40
1.0
 40
1.0
 40
2.0
 40
2.0
 40
2.0
 40
3.0
 40
3.0
 40
3.0
 40
4.0
 40
4.0
 40
4.0
 40
5.0
 40
5.0
 40
5.0
 40
6.0
 40
6.0
 40
6.0
 40
7.0
 40
7.0
 40
7.0
 40
8.0
 40
8.0
 40
8.0
 40
9.0
 40
9.0
 40
9.0
 40
10.0
 40
10.0
 40
10.0
 40
11.0
 40
11.0
 40
11.0
 40
12.0
 40
12.0
 40
12.0
 40
13.0
 40
13.0
 40
13.0
 40
14.0
 40
14.0
 40
14.0
 40
15.0
 40
15.0
 40
15.0
 40
16.0
 40
16.0
 40
16.0
 40
17.0
 40
17.0
 40
17.0
 40
18.0
 40
18.0
 40
18.0
 40
19.0
 40
19.0
 40
19.0
 40
20.0
 40
20.0
 40
20.0
 40
21.0
 40
21.0
 40
21.0
 40
22.0
 40
22.0
 40
22.0
 40
23.0
 40
23.0
 40
23.0
 40
24.0
 40
24.0
 40
24.0
 40
25.0
 40
25.0
 40
25.0
 40
26.0
 40
26.0
 40
26.0
 40
27.0
 40
27.0
 40
27.0
 40
28.0
 40
28.0
 40
28.0
 40
29.0
 40
29.0
 40
29.0
 40
30.0
 40
30.0
 40
30.0
 40
31.0
 40
31.0
 40
31.0
 40
32.0
 40
32.0
 40
32.0
 40
33.0
 40
33.0
 40
33.0
 40
34.0
 40
34.0
 40
34.0
 40
35.0
 40
35.0
 40
35.0
 40
36.0
 40
36.0
 40
36.0
 40
37.0
 40
37.0
 40
37.0
 40
38.0
 40
38.0
 40
38.0
 40
39.0
 40
39.0
 40
39.0
 40
40.0
 40
40.0
 40
40.0
 40
41.0
 40
41.0
 40
41.0
 40
42.0
 40
42.0
 40
42.0
 40
43.0
 40
43.0
 40
43.0
 40
44.0
 40
44.0
 40
44.0
 40
45.0
 40
45.0
 40
45.0
 40
46.0
 40
46.0
 40
46.0
 40
47.0
 40
47.0
 40
47.0
 40
48.0
 40
48.0
 40
48.0
 40
49.0
 40
49.0
 40
49.0
 40
50.0
 40
50.0
 40
50.0
 40
51.0
 40
51.0
 40
51.0
 40
52.0
 40
52.0
 40
52.0
 40
53.0
 40
53.0
 40
53.0
 40
54.0
 40
54.0
 40
54.0
 40
55.0
 40
55.0
 40
55.0
 40
56.0
 40
56.0
 40
56.0
 40
57.0
 40
57.0
 40
57.0
 40
58.0
 40
58.0
 40
58.0
 40
59.0
 40
59.0
 40
59.0
 40
60.0
 40
60.0
 40
60.0
 40
61.0
 40
61.0
 40
61.0
 40
62.0
 40
62.0
 40
62.0
 40
63.0
 40
63.0
 40
63.0
 40
64.0
 40
64.0
 40
64.0
 40
65.0
 40
65.0
 40
65.0
 40
66.0
 40
66.0
 40
66.0
 40
66.0
 10
95.75470646477659
 20
-150.3301865943619
 10
95.75470646477659
 20
-150.3301865943619
 10
95.19625648661762
 20
-150.3301865943619
 10
95.19625648661762
 20
-150.3301865943619
 10
95.18557669061333
 20
-150.3746283261216
 10
95.17713620667448
 20
-150.4063232045859
 10
95.16438935337905
 20
-150.4445637644722
 10
95.18988305996989
 20
-150.4445637644722
 10
95.20469697055647
 20
-150.4466308217633
 10
95.21107039720417
 20
-150.4466308217633
 10
95.21107039720417
 20
-150.4466308217633
 10
95.39934486547307
 20
-150.4466308217633
 10
95.39934486547307
 20
-150.4466308217633
 10
95.39934486547307
 20
-150.4466308217633
 10
95.77365448994548
 20
-150.4466308217633
 10
95.77365448994548
 20
-150.4466308217633
 10
95.82446964835291
 20
-150.4466308217633
 10
96.10800100678899
 20
-150.4338839684679
 10
96.13969588525328
 20
-150.4338839684679
 10
96.13762882796214
 20
-150.4614447323499
 10
96.13538951589672
 20
-150.4803927575188
 10
96.13538951589672
 20
-150.5100205786919
 10
96.13332245860556
 20
-150.5417154571562
 10
96.13332245860556
 20
-150.6771077097265
 10
96.13332245860556
 20
-150.7046684736085
 10
96.13332245860556
 20
-150.7046684736085
 10
96.13332245860556
 20
-150.9499592721583
 10
96.13332245860556
 20
-150.9499592721583
 10
96.13332245860556
 20
-150.9944010039181
 10
96.13762882796214
 20
-151.1914604656744
 10
96.14176294254443
 20
-151.3437336861224
 10
96.14176294254443
 20
-151.3437336861224
 10
95.91542016916351
 20
-151.3437336861224
 10
95.91542016916351
 20
-151.3437336861224
 10
95.91542016916351
 20
-151.3437336861224
 10
95.91765948122892
 20
-151.3096272408184
 10
95.91765948122892
 20
-151.3096272408184
 10
95.91765948122892
 20
-151.3096272408184
 10
95.21520451178648
 20
-151.3096272408184
 10
95.21520451178648
 20
-151.3096272408184
 10
95.21520451178648
 20
-151.3096272408184
 10
95.21727156907763
 20
-151.3437336861224
 10
95.21727156907763
 20
-151.3437336861224
 10
95.21727156907763
 20
-151.3437336861224
 10
94.99936927963558
 20
-151.3437336861224
 10
94.99936927963558
 20
-151.3437336861224
 10
95.00367564899214
 20
-151.2886121583584
 10
95.00367564899214
 20
-151.275865305063
 10
95.01004907563986
 20
-151.1618326445012
 10
95.01211613293099
 20
-151.1342718806192
 10
95.01418319022215
 20
-151.00094668534
 10
95.01418319022215
 20
-150.9819986601711
 10
95.01418319022215
 20
-150.9819986601711
 10
95.01418319022215
 20
-150.7787380265414
 10
95.01418319022215
 20
-150.7787380265414
 10
94.87465682306952
 20
-151.028507449222
 10
94.70533037996951
 20
-151.1594210776615
 10
94.59956594857233
 20
-151.2252224014298
 10
94.59956594857233
 20
-151.2252224014298
 10
94.42610539089001
 20
-151.0853515247287
 10
94.42610539089001
 20
-151.0853515247287
 10
94.51498885440946
 20
-151.0347086210955
 10
94.65882159091863
 20
-150.9478922148672
 10
94.7962809007801
 20
-150.7532443199506
 10
94.88740367636495
 20
-150.6264648060934
 10
94.95286049058471
 20
-150.4824598148099
 10
94.98679468111442
 20
-150.3301865943619
 10
94.75821259566808
 20
-150.332253651653
 10
94.57837861133805
 20
-150.338799333075
 10
94.48329397594516
 20
-150.3408663903662
 10
94.48329397594516
 20
-150.3408663903662
 10
94.48329397594516
 20
-150.1630994633273
 10
94.48329397594516
 20
-150.1630994633273
 10
94.68000892815291
 20
-150.1696451447492
 10
94.96354028658897
 20
-150.1737792593315
 10
95.11374644974587
 20
-150.1737792593315
 10
95.11374644974587
 20
-150.1737792593315
 10
95.32734236983136
 20
-150.1737792593315
 10
95.32734236983136
 20
-150.1737792593315
 10
95.32734236983136
 20
-150.1737792593315
 10
95.32734236983136
 20
-150.0659477706432
 10
95.32734236983136
 20
-150.0659477706432
 10
95.32734236983136
 20
-150.0659477706432
 10
95.18144257603102
 20
-150.0659477706432
 10
95.18144257603102
 20
-150.0659477706432
 10
95.01211613293099
 20
-150.0659477706432
 10
94.84296194460524
 20
-150.0700818852255
 10
94.67570255879635
 20
-150.076283057099
 10
94.67570255879635
 20
-150.076283057099
 10
94.67570255879635
 20
-149.9050618114821
 10
94.67570255879635
 20
-149.9050618114821
 10
94.83021509130981
 20
-149.9157416074863
 10
95.01642250228757
 20
-149.9157416074863
 10
95.18144257603102
 20
-149.9157416074863
 10
95.18144257603102
 20
-149.9157416074863
 10
95.32734236983136
 20
-149.9157416074863
 10
95.32734236983136
 20
-149.9157416074863
 10
95.32734236983136
 20
-149.9157416074863
 10
95.32734236983136
 20
-149.7972303227937
 10
95.32734236983136
 20
-149.7972303227937
 10
95.32734236983136
 20
-149.7972303227937
 10
95.19625648661762
 20
-149.7972303227937
 10
95.19625648661762
 20
-149.7972303227937
 10
95.14957544279246
 20
-149.7972303227937
 10
94.946487063937
 20
-149.8054985519583
 10
94.90428464424267
 20
-149.8054985519583
 10
94.70119626538721
 20
-149.8099771760891
 10
94.62505965516319
 20
-149.8120442333803
 10
94.54668373287374
 20
-149.8141112906715
 10
94.54668373287374
 20
-149.8141112906715
 10
94.54668373287374
 20
-149.6301431917591
 10
94.54668373287374
 20
-149.6301431917591
 10
94.66088864820978
 20
-149.6384114209237
 10
94.70533037996951
 20
-149.6384114209237
 10
95.08825274315503
 20
-149.6470241596368
 10
95.02486298622642
 20
-149.5519395242439
 10
94.99730222234443
 20
-149.5243787603619
 10
94.96130097452356
 20
-149.4882052577668
 10
94.96130097452356
 20
-149.4882052577668
 10
95.13700084427131
 20
-149.4058674756693
 10
95.13700084427131
 20
-149.4058674756693
 10
95.17713620667448
 20
-149.4416964687159
 10
95.22157793843419
 20
-149.4840711431845
 10
95.29564749136707
 20
-149.593969689164
 10
95.29564749136707
 20
-149.593969689164
 10
95.18144257603102
 20
-149.649091216928
 10
95.18144257603102
 20
-149.649091216928
 10
95.18144257603102
 20
-149.649091216928
 10
95.19195011726104
 20
-149.649091216928
 10
95.19195011726104
 20
-149.649091216928
 10
95.19195011726104
 20
-149.649091216928
 10
95.71439884759918
 20
-149.649091216928
 10
95.71439884759918
 20
-149.649091216928
 10
95.71439884759918
 20
-149.649091216928
 10
95.61931421220629
 20
-149.6046494851683
 10
95.61931421220629
 20
-149.6046494851683
 10
95.64687497608828
 20
-149.5667534348305
 10
95.70389130636916
 20
-149.4861382004757
 10
95.71870521695574
 20
-149.4120686475428
 10
95.71870521695574
 20
-149.4120686475428
 10
95.93230113704123
 20
-149.4754584044714
 10
95.93230113704123
 20
-149.4754584044714
 10
95.94091387575437
 20
-149.4778699713111
 10
95.96192895821438
 20
-149.4882052577668
 10
95.96192895821438
 20
-149.5095648497754
 10
95.96192895821438
 20
-149.5474609001131
 10
95.89647214399464
 20
-149.5474609001131
 10
95.87735186405151
 20
-149.5474609001131
 10
95.86684432282149
 20
-149.5667534348305
 10
95.84358992829605
 20
-149.6067165424594
 10
95.8139621071229
 20
-149.6470241596368
 10
96.21376543818614
 20
-149.6404784782148
 10
96.24339325935929
 20
-149.6384114209237
 10
96.31952986958332
 20
-149.6322102490502
 10
96.31952986958332
 20
-149.6322102490502
 10
96.31952986958332
 20
-149.8141112906715
 10
96.31952986958332
 20
-149.8141112906715
 10
96.30040958964018
 20
-149.8141112906715
 10
96.27508813782359
 20
-149.8120442333803
 10
96.05511879109039
 20
-149.8034314946672
 10
96.00430363268296
 20
-149.801364437376
 10
95.78433428594975
 20
-149.7972303227937
 10
95.73989255419004
 20
-149.7972303227937
 10
95.73989255419004
 20
-149.7972303227937
 10
95.52405732203913
 20
-149.7972303227937
 10
95.52405732203913
 20
-149.7972303227937
 10
95.52405732203913
 20
-149.7972303227937
 10
95.52405732203913
 20
-149.9157416074863
 10
95.52405732203913
 20
-149.9157416074863
 10
95.52405732203913
 20
-149.9157416074863
 10
95.69751787972146
 20
-149.9157416074863
 10
95.69751787972146
 20
-149.9157416074863
 10
95.86047089617379
 20
-149.9157416074863
 10
96.05081242173383
 20
-149.9157416074863
 10
96.20739201153844
 20
-149.9050618114821
 10
96.20739201153844
 20
-149.9050618114821
 10
96.20739201153844
 20
-150.076283057099
 10
96.20739201153844
 20
-150.076283057099
 10
95.99793020603526
 20
-150.0680148279344
 10
95.80121525382748
 20
-150.0659477706432
 10
95.69751787972146
 20
-150.0659477706432
 10
95.69751787972146
 20
-150.0659477706432
 10
95.52405732203913
 20
-150.0659477706432
 10
95.52405732203913
 20
-150.0659477706432
 10
95.52405732203913
 20
-150.0659477706432
 10
95.52405732203913
 20
-150.1737792593315
 10
95.52405732203913
 20
-150.1737792593315
 10
95.52405732203913
 20
-150.1737792593315
 10
95.75470646477659
 20
-150.1737792593315
 10
95.75470646477659
 20
-150.1737792593315
 10
95.88803166005577
 20
-150.1737792593315
 10
96.17569713307414
 20
-150.1696451447492
 10
96.38515893857732
 20
-150.1630994633273
 10
96.38515893857732
 20
-150.1630994633273
 10
96.38515893857732
 20
-150.3408663903662
 10
96.38515893857732
 20
-150.3408663903662
 10
96.19257810095186
 20
-150.3346652184927
 10
95.87941892134265
 20
-150.3301865943619
 10
95.75470646477659
 20
-150.3301865943619
 97
        0
 97
        1
330
14A
 75
     2
 76
     1
 98
        1
 10
0.0
 20
0.0
450
        0
451
        0
460
0.0
461
0.0
452
        0
462
0.0
453
        0
470

  0
SPLINE
  5
14C
330
13F
100
AcDbEntity
  8
レイヤー 1
100
AcDbSpline
210
0.0
220
0.0
230
1.0
 70
     9
 71
     3
 72
    29
 73
    25
 74
     0
 42
0.0000000001
 43
0.0000000001
 40
0.0
 40
0.0
 40
0.0
 40
0.0
 40
1.0
 40
1.0
 40
1.0
 40
2.0
 40
2.0
 40
2.0
 40
3.0
 40
3.0
 40
3.0
 40
4.0
 40
4.0
 40
4.0
 40
5.0
 40
5.0
 40
5.0
 40
6.0
 40
6.0
 40
6.0
 40
7.0
 40
7.0
 40
7.0
 40
8.0
 40
8.0
 40
8.0
 40
8.0
 10
97.63021644694662
 20
-149.7782822976249
 30
0.0
 10
97.63021644694662
 20
-149.7782822976249
 30
0.0
 10
97.27692190493424
 20
-149.7782822976249
 30
0.0
 10
97.27692190493424
 20
-149.7782822976249
 30
0.0
 10
97.16478404688936
 20
-149.7782822976249
 30
0.0
 10
97.02508542496248
 20
-149.7844834694983
 30
0.0
 10
96.91725393627416
 20
-149.7972303227937
 30
0.0
 10
96.91725393627416
 20
-149.7972303227937
 30
0.0
 10
96.91725393627416
 20
-149.5622748106997
 30
0.0
 10
96.91725393627416
 20
-149.5622748106997
 30
0.0
 10
97.03576522096675
 20
-149.5770887212863
 30
0.0
 10
97.21973331987911
 20
-149.5812228358686
 30
0.0
 10
97.27692190493424
 20
-149.5812228358686
 30
0.0
 10
97.27692190493424
 20
-149.5812228358686
 30
0.0
 10
97.63021644694662
 20
-149.5812228358686
 30
0.0
 10
97.63021644694662
 20
-149.5812228358686
 30
0.0
 10
97.64916447211549
 20
-149.5812228358686
 30
0.0
 10
97.85225285097098
 20
-149.5812228358686
 30
0.0
 10
97.99401853018899
 20
-149.5622748106997
 30
0.0
 10
97.99401853018899
 20
-149.5622748106997
 30
0.0
 10
97.99401853018899
 20
-149.7972303227937
 30
0.0
 10
97.99401853018899
 20
-149.7972303227937
 30
0.0
 10
97.83743894038439
 20
-149.7782822976249
 30
0.0
 10
97.64709741482434
 20
-149.7782822976249
 30
0.0
 10
97.63021644694662
 20
-149.7782822976249
 30
0.0
  0
SPLINE
  5
14D
330
13F
100
AcDbEntity
  8
レイヤー 1
100
AcDbSpline
210
0.0
220
0.0
230
1.0
 70
     9
 71
     3
 72
    47
 73
    43
 74
     0
 42
0.0000000001
 43
0.0000000001
 40
0.0
 40
0.0
 40
0.0
 40
0.0
 40
1.0
 40
1.0
 40
1.0
 40
2.0
 40
2.0
 40
2.0
 40
3.0
 40
3.0
 40
3.0
 40
4.0
 40
4.0
 40
4.0
 40
5.0
 40
5.0
 40
5.0
 40
6.0
 40
6.0
 40
6.0
 40
7.0
 40
7.0
 40
7.0
 40
8.0
 40
8.0
 40
8.0
 40
9.0
 40
9.0
 40
9.0
 40
10.0
 40
10.0
 40
10.0
 40
11.0
 40
11.0
 40
11.0
 40
12.0
 40
12.0
 40
12.0
 40
13.0
 40
13.0
 40
13.0
 40
14.0
 40
14.0
 40
14.0
 40
14.0
 10
97.73167450898723
 20
-150.3071044546107
 30
0.0
 10
97.73167450898723
 20
-150.3071044546107
 30
0.0
 10
97.63021644694662
 20
-150.3071044546107
 30
0.0
 10
97.63021644694662
 20
-150.3071044546107
 30
0.0
 10
97.63021644694662
 20
-150.3935763512905
 30
0.0
 10
97.60902910971232
 20
-150.7828721411237
 30
0.0
 10
97.41231415750457
 20
-151.0030137426312
 30
0.0
 10
97.25986868228226
 20
-151.1721679309569
 30
0.0
 10
97.05264618884449
 20
-151.2421033693075
 30
0.0
 10
96.96806909468159
 20
-151.2696641331895
 30
0.0
 10
96.96806909468159
 20
-151.2696641331895
 30
0.0
 10
96.77342119976499
 20
-151.1025770021549
 30
0.0
 10
96.77342119976499
 20
-151.1025770021549
 30
0.0
 10
96.87074514722329
 20
-151.0898301488595
 30
0.0
 10
97.04627276219676
 20
-151.0664034995597
 30
0.0
 10
97.23454723046568
 20
-150.8783012860651
 30
0.0
 10
97.30861678339856
 20
-150.8062987904234
 30
0.0
 10
97.41231415750457
 20
-150.6667724232708
 30
0.0
 10
97.41231415750457
 20
-150.3071044546107
 30
0.0
 10
97.41231415750457
 20
-150.3071044546107
 30
0.0
 10
97.18166501476709
 20
-150.3071044546107
 30
0.0
 10
97.18166501476709
 20
-150.3071044546107
 30
0.0
 10
96.99545760378933
 20
-150.3071044546107
 30
0.0
 10
96.80925019281158
 20
-150.311238569193
 30
0.0
 10
96.62321503660809
 20
-150.3260524797796
 30
0.0
 10
96.62321503660809
 20
-150.3260524797796
 30
0.0
 10
96.62321503660809
 20
-150.1059108782721
 30
0.0
 10
96.62321503660809
 20
-150.1059108782721
 30
0.0
 10
96.81148950487699
 20
-150.1207247888587
 30
0.0
 10
97.09708792060421
 20
-150.1252034129895
 30
0.0
 10
97.18166501476709
 20
-150.1252034129895
 30
0.0
 10
97.18166501476709
 20
-150.1252034129895
 30
0.0
 10
97.73167450898723
 20
-150.1252034129895
 30
0.0
 10
97.73167450898723
 20
-150.1252034129895
 30
0.0
 10
97.75079478893037
 20
-150.1252034129895
 30
0.0
 10
98.06808808312187
 20
-150.1252034129895
 30
0.0
 10
98.29649791379395
 20
-150.1059108782721
 30
0.0
 10
98.29649791379395
 20
-150.1059108782721
 30
0.0
 10
98.29649791379395
 20
-150.3260524797796
 30
0.0
 10
98.29649791379395
 20
-150.3260524797796
 30
0.0
 10
98.10822344552503
 20
-150.311238569193
 30
0.0
 10
97.91994897725613
 20
-150.3071044546107
 30
0.0
 10
97.73167450898723
 20
-150.3071044546107
 30
0.0
  0
HATCH
  5
14E
330
13F
100
AcDbEntity
  8
レイヤー 1
 62
    18
420
        0
440
 33554687
100
AcDbHatch
 10
0.0
 20
0.0
 30
0.0
210
0.0
220
0.0
230
1.0
  2
SOLID
 70
     1
 71
     1
 91
        2
 92
        1
 93
        1
 72
     4
 94
        3
 73
     0
 74
     0
 95
       29
 96
       25
 40
0.0
 40
0.0
 40
0.0
 40
0.0
 40
1.0
 40
1.0
 40
1.0
 40
2.0
 40
2.0
 40
2.0
 40
3.0
 40
3.0
 40
3.0
 40
4.0
 40
4.0
 40
4.0
 40
5.0
 40
5.0
 40
5.0
 40
6.0
 40
6.0
 40
6.0
 40
7.0
 40
7.0
 40
7.0
 40
8.0
 40
8.0
 40
8.0
 40
8.0
 10
97.63021644694662
 20
-149.7782822976249
 10
97.63021644694662
 20
-149.7782822976249
 10
97.27692190493424
 20
-149.7782822976249
 10
97.27692190493424
 20
-149.7782822976249
 10
97.16478404688936
 20
-149.7782822976249
 10
97.02508542496248
 20
-149.7844834694983
 10
96.91725393627416
 20
-149.7972303227937
 10
96.91725393627416
 20
-149.7972303227937
 10
96.91725393627416
 20
-149.5622748106997
 10
96.91725393627416
 20
-149.5622748106997
 10
97.03576522096675
 20
-149.5770887212863
 10
97.21973331987911
 20
-149.5812228358686
 10
97.27692190493424
 20
-149.5812228358686
 10
97.27692190493424
 20
-149.5812228358686
 10
97.63021644694662
 20
-149.5812228358686
 10
97.63021644694662
 20
-149.5812228358686
 10
97.64916447211549
 20
-149.5812228358686
 10
97.85225285097098
 20
-149.5812228358686
 10
97.99401853018899
 20
-149.5622748106997
 10
97.99401853018899
 20
-149.5622748106997
 10
97.99401853018899
 20
-149.7972303227937
 10
97.99401853018899
 20
-149.7972303227937
 10
97.83743894038439
 20
-149.7782822976249
 10
97.64709741482434
 20
-149.7782822976249
 10
97.63021644694662
 20
-149.7782822976249
 97
        0
 97
        1
330
14C
 92
        1
 93
        1
 72
     4
 94
        3
 73
     0
 74
     0
 95
       47
 96
       43
 40
0.0
 40
0.0
 40
0.0
 40
0.0
 40
1.0
 40
1.0
 40
1.0
 40
2.0
 40
2.0
 40
2.0
 40
3.0
 40
3.0
 40
3.0
 40
4.0
 40
4.0
 40
4.0
 40
5.0
 40
5.0
 40
5.0
 40
6.0
 40
6.0
 40
6.0
 40
7.0
 40
7.0
 40
7.0
 40
8.0
 40
8.0
 40
8.0
 40
9.0
 40
9.0
 40
9.0
 40
10.0
 40
10.0
 40
10.0
 40
11.0
 40
11.0
 40
11.0
 40
12.0
 40
12.0
 40
12.0
 40
13.0
 40
13.0
 40
13.0
 40
14.0
 40
14.0
 40
14.0
 40
14.0
 10
97.73167450898723
 20
-150.3071044546107
 10
97.73167450898723
 20
-150.3071044546107
 10
97.63021644694662
 20
-150.3071044546107
 10
97.63021644694662
 20
-150.3071044546107
 10
97.63021644694662
 20
-150.3935763512905
 10
97.60902910971232
 20
-150.7828721411237
 10
97.41231415750457
 20
-151.0030137426312
 10
97.25986868228226
 20
-151.1721679309569
 10
97.05264618884449
 20
-151.2421033693075
 10
96.96806909468159
 20
-151.2696641331895
 10
96.96806909468159
 20
-151.2696641331895
 10
96.77342119976499
 20
-151.1025770021549
 10
96.77342119976499
 20
-151.1025770021549
 10
96.87074514722329
 20
-151.0898301488595
 10
97.04627276219676
 20
-151.0664034995597
 10
97.23454723046568
 20
-150.8783012860651
 10
97.30861678339856
 20
-150.8062987904234
 10
97.41231415750457
 20
-150.6667724232708
 10
97.41231415750457
 20
-150.3071044546107
 10
97.41231415750457
 20
-150.3071044546107
 10
97.18166501476709
 20
-150.3071044546107
 10
97.18166501476709
 20
-150.3071044546107
 10
96.99545760378933
 20
-150.3071044546107
 10
96.80925019281158
 20
-150.311238569193
 10
96.62321503660809
 20
-150.3260524797796
 10
96.62321503660809
 20
-150.3260524797796
 10
96.62321503660809
 20
-150.1059108782721
 10
96.62321503660809
 20
-150.1059108782721
 10
96.81148950487699
 20
-150.1207247888587
 10
97.09708792060421
 20
-150.1252034129895
 10
97.18166501476709
 20
-150.1252034129895
 10
97.18166501476709
 20
-150.1252034129895
 10
97.73167450898723
 20
-150.1252034129895
 10
97.73167450898723
 20
-150.1252034129895
 10
97.75079478893037
 20
-150.1252034129895
 10
98.06808808312187
 20
-150.1252034129895
 10
98.29649791379395
 20
-150.1059108782721
 10
98.29649791379395
 20
-150.1059108782721
 10
98.29649791379395
 20
-150.3260524797796
 10
98.29649791379395
 20
-150.3260524797796
 10
98.10822344552503
 20
-150.311238569193
 10
97.91994897725613
 20
-150.3071044546107
 10
97.73167450898723
 20
-150.3071044546107
 97
        0
 97
        1
330
14D
 75
     2
 76
     1
 98
        1
 10
0.0
 20
0.0
450
        0
451
        0
460
0.0
461
0.0
452
        0
462
0.0
453
        0
470

  0
SPLINE
  5
14F
330
13F
100
AcDbEntity
  8
レイヤー 1
100
AcDbSpline
210
0.0
220
0.0
230
1.0
 70
     9
 71
     3
 72
    29
 73
    25
 74
     0
 42
0.0000000001
 43
0.0000000001
 40
0.0
 40
0.0
 40
0.0
 40
0.0
 40
1.0
 40
1.0
 40
1.0
 40
2.0
 40
2.0
 40
2.0
 40
3.0
 40
3.0
 40
3.0
 40
4.0
 40
4.0
 40
4.0
 40
5.0
 40
5.0
 40
5.0
 40
6.0
 40
6.0
 40
6.0
 40
7.0
 40
7.0
 40
7.0
 40
8.0
 40
8.0
 40
8.0
 40
8.0
 10
99.57738441520982
 20
-150.470057471063
 30
0.0
 10
99.57738441520982
 20
-150.470057471063
 30
0.0
 10
99.0930039899837
 20
-150.470057471063
 30
0.0
 10
99.0930039899837
 20
-150.470057471063
 30
0.0
 10
99.06544322610169
 20
-150.470057471063
 30
0.0
 10
98.74814993191019
 20
-150.470057471063
 30
0.0
 10
98.53662106911585
 20
-150.4952066681053
 30
0.0
 10
98.53662106911585
 20
-150.4952066681053
 30
0.0
 10
98.53662106911585
 20
-150.2647297801421
 30
0.0
 10
98.53662106911585
 20
-150.2647297801421
 30
0.0
 10
98.6952677162116
 20
-150.2878119198933
 30
0.0
 10
98.88560924177166
 20
-150.290223486733
 30
0.0
 10
99.0930039899837
 20
-150.290223486733
 30
0.0
 10
99.0930039899837
 20
-150.290223486733
 30
0.0
 10
99.57738441520982
 20
-150.290223486733
 30
0.0
 10
99.57738441520982
 20
-150.290223486733
 30
0.0
 10
99.76359182618757
 20
-150.290223486733
 30
0.0
 10
99.94979923716535
 20
-150.2878119198933
 30
0.0
 10
100.1337673360776
 20
-150.2647297801421
 30
0.0
 10
100.1337673360776
 20
-150.2647297801421
 30
0.0
 10
100.1337673360776
 20
-150.4952066681053
 30
0.0
 10
100.1337673360776
 20
-150.4952066681053
 30
0.0
 10
99.94979923716535
 20
-150.4721245283542
 30
0.0
 10
99.70226912655014
 20
-150.470057471063
 30
0.0
 10
99.57738441520982
 20
-150.470057471063
 30
0.0
  0
HATCH
  5
150
330
13F
100
AcDbEntity
  8
レイヤー 1
 62
    18
420
        0
440
 33554687
100
AcDbHatch
 10
0.0
 20
0.0
 30
0.0
210
0.0
220
0.0
230
1.0
  2
SOLID
 70
     1
 71
     1
 91
        1
 92
        1
 93
        1
 72
     4
 94
        3
 73
     0
 74
     0
 95
       29
 96
       25
 40
0.0
 40
0.0
 40
0.0
 40
0.0
 40
1.0
 40
1.0
 40
1.0
 40
2.0
 40
2.0
 40
2.0
 40
3.0
 40
3.0
 40
3.0
 40
4.0
 40
4.0
 40
4.0
 40
5.0
 40
5.0
 40
5.0
 40
6.0
 40
6.0
 40
6.0
 40
7.0
 40
7.0
 40
7.0
 40
8.0
 40
8.0
 40
8.0
 40
8.0
 10
99.57738441520982
 20
-150.470057471063
 10
99.57738441520982
 20
-150.470057471063
 10
99.0930039899837
 20
-150.470057471063
 10
99.0930039899837
 20
-150.470057471063
 10
99.06544322610169
 20
-150.470057471063
 10
98.74814993191019
 20
-150.470057471063
 10
98.53662106911585
 20
-150.4952066681053
 10
98.53662106911585
 20
-150.4952066681053
 10
98.53662106911585
 20
-150.2647297801421
 10
98.53662106911585
 20
-150.2647297801421
 10
98.6952677162116
 20
-150.2878119198933
 10
98.88560924177166
 20
-150.290223486733
 10
99.0930039899837
 20
-150.290223486733
 10
99.0930039899837
 20
-150.290223486733
 10
99.57738441520982
 20
-150.290223486733
 10
99.57738441520982
 20
-150.290223486733
 10
99.76359182618757
 20
-150.290223486733
 10
99.94979923716535
 20
-150.2878119198933
 10
100.1337673360776
 20
-150.2647297801421
 10
100.1337673360776
 20
-150.2647297801421
 10
100.1337673360776
 20
-150.4952066681053
 10
100.1337673360776
 20
-150.4952066681053
 10
99.94979923716535
 20
-150.4721245283542
 10
99.70226912655014
 20
-150.470057471063
 10
99.57738441520982
 20
-150.470057471063
 97
        0
 97
        1
330
14F
 75
     2
 76
     1
 98
        1
 10
0.0
 20
0.0
450
        0
451
        0
460
0.0
461
0.0
452
        0
462
0.0
453
        0
470

  0
SPLINE
  5
151
330
13F
100
AcDbEntity
  8
レイヤー 1
100
AcDbSpline
210
0.0
220
0.0
230
1.0
 70
     9
 71
     3
 72
    47
 73
    43
 74
     0
 42
0.0000000001
 43
0.0000000001
 40
0.0
 40
0.0
 40
0.0
 40
0.0
 40
1.0
 40
1.0
 40
1.0
 40
2.0
 40
2.0
 40
2.0
 40
3.0
 40
3.0
 40
3.0
 40
4.0
 40
4.0
 40
4.0
 40
5.0
 40
5.0
 40
5.0
 40
6.0
 40
6.0
 40
6.0
 40
7.0
 40
7.0
 40
7.0
 40
8.0
 40
8.0
 40
8.0
 40
9.0
 40
9.0
 40
9.0
 40
10.0
 40
10.0
 40
10.0
 40
11.0
 40
11.0
 40
11.0
 40
12.0
 40
12.0
 40
12.0
 40
13.0
 40
13.0
 40
13.0
 40
14.0
 40
14.0
 40
14.0
 40
14.0
 10
101.7975762006791
 20
-149.8754339903089
 30
0.0
 10
101.7278130171028
 20
-150.1548312341627
 30
0.0
 10
101.6516764068787
 20
-150.4593776750587
 30
0.0
 10
101.3385172272695
 20
-150.7914848798368
 30
0.0
 10
101.1016669126586
 20
-151.0412543025174
 30
0.0
 10
100.8562038593346
 20
-151.1404730524926
 30
0.0
 10
100.7504394279374
 20
-151.1828477269612
 30
0.0
 10
100.7504394279374
 20
-151.1828477269612
 30
0.0
 10
100.5557915330208
 20
-151.00094668534
 30
0.0
 10
100.5557915330208
 20
-151.00094668534
 30
0.0
 10
100.7419989439985
 20
-150.9544378962891
 30
0.0
 10
101.1037339699498
 20
-150.8614203181874
 30
0.0
 10
101.399839926907
 20
-150.366360096957
 30
0.0
 10
101.5607258860681
 20
-150.0997097063987
 30
0.0
 10
101.5733004845893
 20
-149.9260768939421
 30
0.0
 10
101.5819132233024
 20
-149.8351263731315
 30
0.0
 10
101.5819132233024
 20
-149.8351263731315
 30
0.0
 10
101.0761732060677
 20
-149.8351263731315
 30
0.0
 10
101.0761732060677
 20
-149.8351263731315
 30
0.0
 10
100.9578341761494
 20
-149.8351263731315
 30
0.0
 10
100.5368435078519
 20
-149.8544189078489
 30
0.0
 10
100.3843980326296
 20
-149.8647541943046
 30
0.0
 10
100.3843980326296
 20
-149.8647541943046
 30
0.0
 10
100.3843980326296
 20
-149.6552923888014
 30
0.0
 10
100.3843980326296
 20
-149.6552923888014
 30
0.0
 10
100.5261637118476
 20
-149.6680392420969
 30
0.0
 10
100.803321643636
 20
-149.6725178662277
 30
0.0
 10
100.9197658710374
 20
-149.6725178662277
 30
0.0
 10
100.9197658710374
 20
-149.6725178662277
 30
0.0
 10
101.2751274703409
 20
-149.6725178662277
 30
0.0
 10
101.2751274703409
 20
-149.6725178662277
 30
0.0
 10
101.3025159794487
 20
-149.6725178662277
 30
0.0
 10
101.4634019386098
 20
-149.670106299388
 30
0.0
 10
101.5733004845893
 20
-149.6552923888014
 30
0.0
 10
101.6304890696444
 20
-149.649091216928
 30
0.0
 10
101.6473700375222
 20
-149.6301431917591
 30
0.0
 10
101.6706244320476
 20
-149.6067165424594
 30
0.0
 10
101.6706244320476
 20
-149.6067165424594
 30
0.0
 10
101.8588989003165
 20
-149.7569227056163
 30
0.0
 10
101.8588989003165
 20
-149.7569227056163
 30
0.0
 10
101.8440849897299
 20
-149.7865505267895
 30
0.0
 10
101.8335774484999
 20
-149.8054985519583
 30
0.0
 10
101.7975762006791
 20
-149.8754339903089
 30
0.0
  0
HATCH
  5
152
330
13F
100
AcDbEntity
  8
レイヤー 1
 62
    18
420
        0
440
 33554687
100
AcDbHatch
 10
0.0
 20
0.0
 30
0.0
210
0.0
220
0.0
230
1.0
  2
SOLID
 70
     1
 71
     1
 91
        1
 92
        1
 93
        1
 72
     4
 94
        3
 73
     0
 74
     0
 95
       47
 96
       43
 40
0.0
 40
0.0
 40
0.0
 40
0.0
 40
1.0
 40
1.0
 40
1.0
 40
2.0
 40
2.0
 40
2.0
 40
3.0
 40
3.0
 40
3.0
 40
4.0
 40
4.0
 40
4.0
 40
5.0
 40
5.0
 40
5.0
 40
6.0
 40
6.0
 40
6.0
 40
7.0
 40
7.0
 40
7.0
 40
8.0
 40
8.0
 40
8.0
 40
9.0
 40
9.0
 40
9.0
 40
10.0
 40
10.0
 40
10.0
 40
11.0
 40
11.0
 40
11.0
 40
12.0
 40
12.0
 40
12.0
 40
13.0
 40
13.0
 40
13.0
 40
14.0
 40
14.0
 40
14.0
 40
14.0
 10
101.7975762006791
 20
-149.8754339903089
 10
101.7278130171028
 20
-150.1548312341627
 10
101.6516764068787
 20
-150.4593776750587
 10
101.3385172272695
 20
-150.7914848798368
 10
101.1016669126586
 20
-151.0412543025174
 10
100.8562038593346
 20
-151.1404730524926
 10
100.7504394279374
 20
-151.1828477269612
 10
100.7504394279374
 20
-151.1828477269612
 10
100.5557915330208
 20
-151.00094668534
 10
100.5557915330208
 20
-151.00094668534
 10
100.7419989439985
 20
-150.9544378962891
 10
101.1037339699498
 20
-150.8614203181874
 10
101.399839926907
 20
-150.366360096957
 10
101.5607258860681
 20
-150.0997097063987
 10
101.5733004845893
 20
-149.9260768939421
 10
101.5819132233024
 20
-149.8351263731315
 10
101.5819132233024
 20
-149.8351263731315
 10
101.0761732060677
 20
-149.8351263731315
 10
101.0761732060677
 20
-149.8351263731315
 10
100.9578341761494
 20
-149.8351263731315
 10
100.5368435078519
 20
-149.8544189078489
 10
100.3843980326296
 20
-149.8647541943046
 10
100.3843980326296
 20
-149.8647541943046
 10
100.3843980326296
 20
-149.6552923888014
 10
100.3843980326296
 20
-149.6552923888014
 10
100.5261637118476
 20
-149.6680392420969
 10
100.803321643636
 20
-149.6725178662277
 10
100.9197658710374
 20
-149.6725178662277
 10
100.9197658710374
 20
-149.6725178662277
 10
101.2751274703409
 20
-149.6725178662277
 10
101.2751274703409
 20
-149.6725178662277
 10
101.3025159794487
 20
-149.6725178662277
 10
101.4634019386098
 20
-149.670106299388
 10
101.5733004845893
 20
-149.6552923888014
 10
101.6304890696444
 20
-149.649091216928
 10
101.6473700375222
 20
-149.6301431917591
 10
101.6706244320476
 20
-149.6067165424594
 10
101.6706244320476
 20
-149.6067165424594
 10
101.8588989003165
 20
-149.7569227056163
 10
101.8588989003165
 20
-149.7569227056163
 10
101.8440849897299
 20
-149.7865505267895
 10
101.8335774484999
 20
-149.8054985519583
 10
101.7975762006791
 20
-149.8754339903089
 97
        0
 97
        1
330
151
 75
     2
 76
     1
 98
        1
 10
0.0
 20
0.0
450
        0
451
        0
460
0.0
461
0.0
452
        0
462
0.0
453
        0
470

  0
SPLINE
  5
153
330
13F
100
AcDbEntity
  8
レイヤー 1
100
AcDbSpline
210
0.0
220
0.0
230
1.0
 70
    11
 71
     3
 72
    17
 73
    13
 74
     0
 42
0.0000000001
 43
0.0000000001
 40
0.0
 40
0.0
 40
0.0
 40
0.0
 40
1.0
 40
1.0
 40
1.0
 40
2.0
 40
2.0
 40
2.0
 40
3.0
 40
3.0
 40
3.0
 40
4.0
 40
4.0
 40
4.0
 40
4.0
 10
102.1879055191579
 20
-149.6577039556411
 30
0.0
 10
102.1879055191579
 20
-149.7169595979874
 30
0.0
 10
102.2344143082087
 20
-149.7634683870383
 30
0.0
 10
102.293669950555
 20
-149.7634683870383
 30
0.0
 10
102.3529255929013
 20
-149.7634683870383
 30
0.0
 10
102.4015014392434
 20
-149.7169595979874
 30
0.0
 10
102.4015014392434
 20
-149.6577039556411
 30
0.0
 10
102.4015014392434
 20
-149.5984483132948
 30
0.0
 10
102.3529255929013
 20
-149.5495279574043
 30
0.0
 10
102.293669950555
 20
-149.5495279574043
 30
0.0
 10
102.2344143082087
 20
-149.5495279574043
 30
0.0
 10
102.1879055191579
 20
-149.5984483132948
 30
0.0
 10
102.1879055191579
 20
-149.6577039556411
 30
0.0
  0
SPLINE
  5
154
330
13F
100
AcDbEntity
  8
レイヤー 1
100
AcDbSpline
210
0.0
220
0.0
230
1.0
 70
     9
 71
     3
 72
    17
 73
    13
 74
     0
 42
0.0000000001
 43
0.0000000001
 40
0.0
 40
0.0
 40
0.0
 40
0.0
 40
1.0
 40
1.0
 40
1.0
 40
2.0
 40
2.0
 40
2.0
 40
3.0
 40
3.0
 40
3.0
 40
4.0
 40
4.0
 40
4.0
 40
4.0
 10
102.5031317560582
 20
-149.6577039556411
 30
0.0
 10
102.5031317560582
 20
-149.7717366162029
 30
0.0
 10
102.4099419231822
 20
-149.8668212515958
 30
0.0
 10
102.293669950555
 20
-149.8668212515958
 30
0.0
 10
102.179465035219
 20
-149.8668212515958
 30
0.0
 10
102.0842081450519
 20
-149.7717366162029
 30
0.0
 10
102.0842081450519
 20
-149.6577039556411
 30
0.0
 10
102.0842081450519
 20
-149.5412597282397
 30
0.0
 10
102.179465035219
 20
-149.4482421501379
 30
0.0
 10
102.293669950555
 20
-149.4482421501379
 30
0.0
 10
102.4078748658911
 20
-149.4482421501379
 30
0.0
 10
102.5031317560582
 20
-149.5412597282397
 30
0.0
 10
102.5031317560582
 20
-149.6577039556411
 30
0.0
  0
HATCH
  5
155
330
13F
100
AcDbEntity
  8
レイヤー 1
 62
    18
420
        0
440
 33554687
100
AcDbHatch
 10
0.0
 20
0.0
 30
0.0
210
0.0
220
0.0
230
1.0
  2
SOLID
 70
     1
 71
     1
 91
        2
 92
        1
 93
        1
 72
     4
 94
        3
 73
     0
 74
     0
 95
       17
 96
       13
 40
0.0
 40
0.0
 40
0.0
 40
0.0
 40
1.0
 40
1.0
 40
1.0
 40
2.0
 40
2.0
 40
2.0
 40
3.0
 40
3.0
 40
3.0
 40
4.0
 40
4.0
 40
4.0
 40
4.0
 10
102.1879055191579
 20
-149.6577039556411
 10
102.1879055191579
 20
-149.7169595979874
 10
102.2344143082087
 20
-149.7634683870383
 10
102.293669950555
 20
-149.7634683870383
 10
102.3529255929013
 20
-149.7634683870383
 10
102.4015014392434
 20
-149.7169595979874
 10
102.4015014392434
 20
-149.6577039556411
 10
102.4015014392434
 20
-149.5984483132948
 10
102.3529255929013
 20
-149.5495279574043
 10
102.293669950555
 20
-149.5495279574043
 10
102.2344143082087
 20
-149.5495279574043
 10
102.1879055191579
 20
-149.5984483132948
 10
102.1879055191579
 20
-149.6577039556411
 97
        0
 97
        1
330
153
 92
        1
 93
        1
 72
     4
 94
        3
 73
     0
 74
     0
 95
       17
 96
       13
 40
0.0
 40
0.0
 40
0.0
 40
0.0
 40
1.0
 40
1.0
 40
1.0
 40
2.0
 40
2.0
 40
2.0
 40
3.0
 40
3.0
 40
3.0
 40
4.0
 40
4.0
 40
4.0
 40
4.0
 10
102.5031317560582
 20
-149.6577039556411
 10
102.5031317560582
 20
-149.7717366162029
 10
102.4099419231822
 20
-149.8668212515958
 10
102.293669950555
 20
-149.8668212515958
 10
102.179465035219
 20
-149.8668212515958
 10
102.0842081450519
 20
-149.7717366162029
 10
102.0842081450519
 20
-149.6577039556411
 10
102.0842081450519
 20
-149.5412597282397
 10
102.179465035219
 20
-149.4482421501379
 10
102.293669950555
 20
-149.4482421501379
 10
102.4078748658911
 20
-149.4482421501379
 10
102.5031317560582
 20
-149.5412597282397
 10
102.5031317560582
 20
-149.6577039556411
 97
        0
 97
        1
330
154
 75
     2
 76
     1
 98
        1
 10
0.0
 20
0.0
450
        0
451
        0
460
0.0
461
0.0
452
        0
462
0.0
453
        0
470

  0
ENDBLK
  5
142
330
13F
100
AcDbEntity
  8
0
100
AcDbBlockEnd
  0
ENDSEC
  0
SECTION
  2
ENTITIES
  0
INSERT
  5
7A
330
70
100
AcDbEntity
  8
レイヤー 1
100
AcDbBlockReference
  2
Block_0
 10
0.0
 20
0.0
 30
0.0
  0
INSERT
  5
A8
330
70
100
AcDbEntity
  8
レイヤー 1
100
AcDbBlockReference
  2
Block_3
 10
0.0
 20
0.0
 30
0.0
  0
ENDSEC
  0
SECTION
  2
OBJECTS
  0
DICTIONARY
  5
C
330
0
100
AcDbDictionary
281
     1
  3
ACAD_COLOR
350
63
  3
ACAD_DETAILVIEWSTYLE
350
6A
  3
ACAD_GROUP
350
D
  3
ACAD_LAYOUT
350
62
  3
ACAD_MATERIAL
350
10
  3
ACAD_MLEADERSTYLE
350
66
  3
ACAD_MLINESTYLE
350
5F
  3
ACAD_PLOTSETTINGS
350
61
  3
ACAD_PLOTSTYLENAME
350
E
  3
ACAD_SCALELIST
350
42
  3
ACAD_SECTIONVIEWSTYLE
350
68
  3
ACAD_TABLESTYLE
350
64
  3
ACAD_VISUALSTYLE
350
29
  3
ACDB_RECOMPOSE_DATA
350
15E
  3
AcDbVariableDictionary
350
156
  0
DICTIONARY
  5
63
102
{ACAD_REACTORS
330
C
102
}
330
C
100
AcDbDictionary
281
     1
  0
DICTIONARY
  5
6A
102
{ACAD_REACTORS
330
C
102
}
330
C
100
AcDbDictionary
281
     1
  3
Imperial24
350
6B
  0
DICTIONARY
  5
D
102
{ACAD_REACTORS
330
C
102
}
330
C
100
AcDbDictionary
281
     1
  0
DICTIONARY
  5
62
102
{ACAD_REACTORS
330
C
102
}
330
C
100
AcDbDictionary
281
     1
  3
Layout1
350
6F
  3
Layout2
350
77
  3
Model
350
73
  0
DICTIONARY
  5
10
102
{ACAD_REACTORS
330
C
102
}
330
C
100
AcDbDictionary
281
     1
  3
ByBlock
350
19
  3
ByLayer
350
11
  3
Global
350
21
  0
DICTIONARY
  5
66
102
{ACAD_REACTORS
330
C
102
}
330
C
100
AcDbDictionary
281
     1
  3
Standard
350
67
  0
DICTIONARY
  5
5F
102
{ACAD_REACTORS
330
C
102
}
330
C
100
AcDbDictionary
281
     1
  3
Standard
350
60
  0
DICTIONARY
  5
61
102
{ACAD_REACTORS
330
C
102
}
330
C
100
AcDbDictionary
281
     1
  0
ACDBDICTIONARYWDFLT
  5
E
102
{ACAD_REACTORS
330
C
102
}
330
C
100
AcDbDictionary
281
     1
  3
Normal
350
F
100
AcDbDictionaryWithDefault
340
F
  0
DICTIONARY
  5
42
102
{ACAD_REACTORS
330
C
102
}
330
C
100
AcDbDictionary
281
     1
  3
A0
350
43
  3
A1
350
44
  3
A2
350
45
  3
A3
350
46
  3
A4
350
47
  3
A5
350
48
  3
A6
350
49
  3
A7
350
4A
  3
A8
350
4B
  3
A9
350
4C
  3
B0
350
4D
  3
B1
350
4E
  3
B2
350
4F
  3
B3
350
50
  3
B4
350
51
  3
B5
350
52
  3
B6
350
53
  0
DICTIONARY
  5
68
102
{ACAD_REACTORS
330
C
102
}
330
C
100
AcDbDictionary
281
     1
  3
Imperial24
350
69
  0
DICTIONARY
  5
64
102
{ACAD_REACTORS
330
C
102
}
330
C
100
AcDbDictionary
281
     1
  3
Standard
350
65
  0
DICTIONARY
  5
29
102
{ACAD_REACTORS
330
C
102
}
330
C
100
AcDbDictionary
281
     1
  3
2dWireframe
350
2F
  3
Basic
350
2E
  3
Brighten
350
35
  3
ColorChange
350
39
  3
Conceptual
350
32
  3
Dim
350
34
  3
EdgeColorOff
350
41
  3
Facepattern
350
38
  3
Flat
350
2A
  3
FlatWithEdges
350
2B
  3
Gouraud
350
2C
  3
GouraudWithEdges
350
2D
  3
Hidden
350
31
  3
JitterOff
350
3F
  3
Linepattern
350
37
  3
OverhangOff
350
40
  3
Realistic
350
33
  3
Shaded
350
3E
  3
Shaded with edges
350
3D
  3
Shades of Gray
350
3A
  3
Sketchy
350
3B
  3
Thicken
350
36
  3
Wireframe
350
30
  3
X-Ray
350
3C
  0
XRECORD
  5
15E
102
{ACAD_REACTORS
330
C
102
}
330
C
100
AcDbXrecord
280
     1
 90
        1
330
65
  0
DICTIONARY
  5
156
102
{ACAD_REACTORS
330
C
102
}
330
C
100
AcDbDictionary
281
     1
  3
CANNOSCALE
350
15B
  3
CMLEADERSTYLE
350
158
  3
CTABLESTYLE
350
157
  3
CVIEWDETAILSTYLE
350
159
  3
CVIEWSECTIONSTYLE
350
15A
  0
ACDBDETAILVIEWSTYLE
  5
6B
102
{ACAD_XDICTIONARY
360
193
102
}
102
{ACAD_REACTORS
330
6A
102
}
330
6A
100
AcDbModelDocViewStyle
 70
     0
  3
Imperial24
290
     0
100
AcDbDetailViewStyle
 70
     0
 71
     0
 90
        3
 71
     1
340
55
 62
   256
 40
0.24
340
0
 62
   256
 40
0.24
300

 40
0.36
280
     3
 71
     2
340
5D
 90
       25
 62
   256
 71
     3
340
55
 62
   256
 40
0.24
 90
        1
 40
0.75
 90
        1
300
%<\AcVar ViewType \f "%tc1">% %<\AcVar ViewDetailId>%\PSCALE %<\AcVar ViewScale \f "%sn">%
 71
     4
340
5D
 90
       25
 62
   256
340
5D
 90
       25
 62
   256
280
     0
  0
LAYOUT
  5
6F
102
{ACAD_REACTORS
330
62
102
}
330
62
100
AcDbPlotSettings
  1

  2

  4

  6

 40
0.0
 41
0.0
 42
0.0
 43
0.0
 44
0.0
 45
0.0
 46
0.0
 47
0.0
 48
0.0
 49
0.0
140
0.0
141
0.0
142
1.0
143
1.0
 70
   688
 72
     0
 73
     0
 74
     5
  7

 75
    16
147
1.0
 76
     0
 77
     2
 78
   300
148
0.0
149
0.0
100
AcDbLayout
  1
Layout1
 70
     1
 71
     1
 10
0.0
 20
0.0
 11
12.0
 21
9.0
 12
0.0
 22
0.0
 32
0.0
 14
0.0
 24
0.0
 34
0.0
 15
0.0
 25
0.0
 35
0.0
146
0.0
 13
0.0
 23
0.0
 33
0.0
 16
1.0
 26
0.0
 36
0.0
 17
0.0
 27
1.0
 37
0.0
 76
     0
330
6C
  0
LAYOUT
  5
77
102
{ACAD_REACTORS
330
62
102
}
330
62
100
AcDbPlotSettings
  1

  2

  4

  6

 40
0.0
 41
0.0
 42
0.0
 43
0.0
 44
0.0
 45
0.0
 46
0.0
 47
0.0
 48
0.0
 49
0.0
140
0.0
141
0.0
142
1.0
143
1.0
 70
   688
 72
     0
 73
     0
 74
     5
  7

 75
    16
147
1.0
 76
     0
 77
     2
 78
   300
148
0.0
149
0.0
100
AcDbLayout
  1
Layout2
 70
     1
 71
     2
 10
0.0
 20
0.0
 11
12.0
 21
9.0
 12
0.0
 22
0.0
 32
0.0
 14
0.0
 24
0.0
 34
0.0
 15
0.0
 25
0.0
 35
0.0
146
0.0
 13
0.0
 23
0.0
 33
0.0
 16
1.0
 26
0.0
 36
0.0
 17
0.0
 27
1.0
 37
0.0
 76
     0
330
74
  0
LAYOUT
  5
73
102
{ACAD_REACTORS
330
62
102
}
330
62
100
AcDbPlotSettings
  1

  2

  4

  6

 40
0.0
 41
0.0
 42
0.0
 43
0.0
 44
0.0
 45
0.0
 46
0.0
 47
0.0
 48
0.0
 49
0.0
140
0.0
141
0.0
142
1.0
143
1.0
 70
  1712
 72
     0
 73
     0
 74
     0
  7

 75
     0
147
1.0
 76
     0
 77
     2
 78
   300
148
0.0
149
0.0
100
AcDbLayout
  1
Model
 70
     1
 71
     0
 10
0.0
 20
0.0
 11
12.0
 21
9.0
 12
0.0
 22
0.0
 32
0.0
 14
0.0
 24
0.0
 34
0.0
 15
0.0
 25
0.0
 35
0.0
146
0.0
 13
0.0
 23
0.0
 33
0.0
 16
1.0
 26
0.0
 36
0.0
 17
0.0
 27
1.0
 37
0.0
 76
     0
330
70
  0
MATERIAL
  5
19
102
{ACAD_XDICTIONARY
360
1A
102
}
102
{ACAD_REACTORS
330
10
102
}
330
10
100
AcDbMaterial
  1
ByBlock
 72
     0
 43
0.0208333333333333
 43
0.0
 43
0.0
 43
0.0
 43
0.0
 43
0.0208333333333333
 43
0.0
 43
0.0
 43
0.0
 43
0.0
 43
1.0
 43
0.0
 43
0.0
 43
0.0
 43
0.0
 43
1.0
 77
     0
 47
0.0208333333333333
 47
0.0
 47
0.0
 47
0.0
 47
0.0
 47
0.0208333333333333
 47
0.0
 47
0.0
 47
0.0
 47
0.0
 47
1.0
 47
0.0
 47
0.0
 47
0.0
 47
0.0
 47
1.0
171
     0
 49
0.0208333333333333
 49
0.0
 49
0.0
 49
0.0
 49
0.0
 49
0.0208333333333333
 49
0.0
 49
0.0
 49
0.0
 49
0.0
 49
1.0
 49
0.0
 49
0.0
 49
0.0
 49
0.0
 49
1.0
175
     0
142
0.0208333333333333
142
0.0
142
0.0
142
0.0
142
0.0
142
0.0208333333333333
142
0.0
142
0.0
142
0.0
142
0.0
142
1.0
142
0.0
142
0.0
142
0.0
142
0.0
142
1.0
179
     0
144
0.0208333333333333
144
0.0
144
0.0
144
0.0
144
0.0
144
0.0208333333333333
144
0.0
144
0.0
144
0.0
144
0.0
144
1.0
144
0.0
144
0.0
144
0.0
144
0.0
144
1.0
147
0.0208333333333333
147
0.0
147
0.0
147
0.0
147
0.0
147
0.0208333333333333
147
0.0
147
0.0
147
0.0
147
0.0
147
1.0
147
0.0
147
0.0
147
0.0
147
0.0
147
1.0
  0
MATERIAL
  5
11
102
{ACAD_XDICTIONARY
360
12
102
}
102
{ACAD_REACTORS
330
10
102
}
330
10
100
AcDbMaterial
  1
ByLayer
 72
     0
 43
0.0208333333333333
 43
0.0
 43
0.0
 43
0.0
 43
0.0
 43
0.0208333333333333
 43
0.0
 43
0.0
 43
0.0
 43
0.0
 43
1.0
 43
0.0
 43
0.0
 43
0.0
 43
0.0
 43
1.0
 77
     0
 47
0.0208333333333333
 47
0.0
 47
0.0
 47
0.0
 47
0.0
 47
0.0208333333333333
 47
0.0
 47
0.0
 47
0.0
 47
0.0
 47
1.0
 47
0.0
 47
0.0
 47
0.0
 47
0.0
 47
1.0
171
     0
 49
0.0208333333333333
 49
0.0
 49
0.0
 49
0.0
 49
0.0
 49
0.0208333333333333
 49
0.0
 49
0.0
 49
0.0
 49
0.0
 49
1.0
 49
0.0
 49
0.0
 49
0.0
 49
0.0
 49
1.0
175
     0
142
0.0208333333333333
142
0.0
142
0.0
142
0.0
142
0.0
142
0.0208333333333333
142
0.0
142
0.0
142
0.0
142
0.0
142
1.0
142
0.0
142
0.0
142
0.0
142
0.0
142
1.0
179
     0
144
0.0208333333333333
144
0.0
144
0.0
144
0.0
144
0.0
144
0.0208333333333333
144
0.0
144
0.0
144
0.0
144
0.0
144
1.0
144
0.0
144
0.0
144
0.0
144
0.0
144
1.0
147
0.0208333333333333
147
0.0
147
0.0
147
0.0
147
0.0
147
0.0208333333333333
147
0.0
147
0.0
147
0.0
147
0.0
147
1.0
147
0.0
147
0.0
147
0.0
147
0.0
147
1.0
  0
MATERIAL
  5
21
102
{ACAD_XDICTIONARY
360
22
102
}
102
{ACAD_REACTORS
330
10
102
}
330
10
100
AcDbMaterial
  1
Global
 72
     0
 43
0.0208333333333333
 43
0.0
 43
0.0
 43
0.0
 43
0.0
 43
0.0208333333333333
 43
0.0
 43
0.0
 43
0.0
 43
0.0
 43
1.0
 43
0.0
 43
0.0
 43
0.0
 43
0.0
 43
1.0
 77
     0
 47
0.0208333333333333
 47
0.0
 47
0.0
 47
0.0
 47
0.0
 47
0.0208333333333333
 47
0.0
 47
0.0
 47
0.0
 47
0.0
 47
1.0
 47
0.0
 47
0.0
 47
0.0
 47
0.0
 47
1.0
171
     0
 49
0.0208333333333333
 49
0.0
 49
0.0
 49
0.0
 49
0.0
 49
0.0208333333333333
 49
0.0
 49
0.0
 49
0.0
 49
0.0
 49
1.0
 49
0.0
 49
0.0
 49
0.0
 49
0.0
 49
1.0
175
     0
142
0.0208333333333333
142
0.0
142
0.0
142
0.0
142
0.0
142
0.0208333333333333
142
0.0
142
0.0
142
0.0
142
0.0
142
1.0
142
0.0
142
0.0
142
0.0
142
0.0
142
1.0
179
     0
144
0.0208333333333333
144
0.0
144
0.0
144
0.0
144
0.0
144
0.0208333333333333
144
0.0
144
0.0
144
0.0
144
0.0
144
1.0
144
0.0
144
0.0
144
0.0
144
0.0
144
1.0
147
0.0208333333333333
147
0.0
147
0.0
147
0.0
147
0.0
147
0.0208333333333333
147
0.0
147
0.0
147
0.0
147
0.0
147
1.0
147
0.0
147
0.0
147
0.0
147
0.0
147
1.0
  0
MLEADERSTYLE
  5
67
102
{ACAD_XDICTIONARY
360
18F
102
}
102
{ACAD_REACTORS
330
66
102
}
330
66
100
AcDbMLeaderStyle
179
     2
170
     2
171
     1
172
     0
 90
        2
 40
0.0
 41
0.0
173
     1
 91
-1056964608
340
5B
 92
       -2
290
     1
 42
0.09
291
     1
 43
0.36
  3
Standard
 44
0.18
300

342
55
174
     1
178
     6
175
     1
176
     0
 93
-1056964608
 45
0.18
292
     0
297
     0
 46
0.18
 94
-1056964608
 47
1.0
 49
1.0
140
1.0
293
     1
141
0.0
294
     1
177
     0
142
1.0
295
     0
296
     0
143
0.125
271
     0
272
     9
273
     9
  0
MLINESTYLE
  5
60
102
{ACAD_REACTORS
330
5F
102
}
330
5F
100
AcDbMlineStyle
  2
STANDARD
 70
     0
  3

 62
   256
 51
90.0
 52
90.0
 71
     2
 49
0.5
 62
   256
  6
BYLAYER
 49
-0.5
 62
   256
  6
BYLAYER
  0
ACDBPLACEHOLDER
  5
F
102
{ACAD_REACTORS
330
E
102
}
330
E
  0
SCALE
  5
43
102
{ACAD_REACTORS
330
42
102
}
330
42
100
AcDbScale
 70
     0
300
1:1
140
1.0
141
1.0
290
     1
  0
SCALE
  5
44
102
{ACAD_REACTORS
330
42
102
}
330
42
100
AcDbScale
 70
     0
300
1/128" = 1'-0"
140
0.0078125
141
12.0
290
     0
  0
SCALE
  5
45
102
{ACAD_REACTORS
330
42
102
}
330
42
100
AcDbScale
 70
     0
300
1/64" = 1'-0"
140
0.015625
141
12.0
290
     0
  0
SCALE
  5
46
102
{ACAD_REACTORS
330
42
102
}
330
42
100
AcDbScale
 70
     0
300
1/32" = 1'-0"
140
0.03125
141
12.0
290
     0
  0
SCALE
  5
47
102
{ACAD_REACTORS
330
42
102
}
330
42
100
AcDbScale
 70
     0
300
1/16" = 1'-0"
140
0.0625
141
12.0
290
     0
  0
SCALE
  5
48
102
{ACAD_REACTORS
330
42
102
}
330
42
100
AcDbScale
 70
     0
300
3/32" = 1'-0"
140
0.09375
141
12.0
290
     0
  0
SCALE
  5
49
102
{ACAD_REACTORS
330
42
102
}
330
42
100
AcDbScale
 70
     0
300
1/8" = 1'-0"
140
0.125
141
12.0
290
     0
  0
SCALE
  5
4A
102
{ACAD_REACTORS
330
42
102
}
330
42
100
AcDbScale
 70
     0
300
3/16" = 1'-0"
140
0.1875
141
12.0
290
     0
  0
SCALE
  5
4B
102
{ACAD_REACTORS
330
42
102
}
330
42
100
AcDbScale
 70
     0
300
1/4" = 1'-0"
140
0.25
141
12.0
290
     0
  0
SCALE
  5
4C
102
{ACAD_REACTORS
330
42
102
}
330
42
100
AcDbScale
 70
     0
300
3/8" = 1'-0"
140
0.375
141
12.0
290
     0
  0
SCALE
  5
4D
102
{ACAD_REACTORS
330
42
102
}
330
42
100
AcDbScale
 70
     0
300
1/2" = 1'-0"
140
0.5
141
12.0
290
     0
  0
SCALE
  5
4E
102
{ACAD_REACTORS
330
42
102
}
330
42
100
AcDbScale
 70
     0
300
3/4" = 1'-0"
140
0.75
141
12.0
290
     0
  0
SCALE
  5
4F
102
{ACAD_REACTORS
330
42
102
}
330
42
100
AcDbScale
 70
     0
300
1" = 1'-0"
140
1.0
141
12.0
290
     0
  0
SCALE
  5
50
102
{ACAD_REACTORS
330
42
102
}
330
42
100
AcDbScale
 70
     0
300
1-1/2" = 1'-0"
140
1.5
141
12.0
290
     0
  0
SCALE
  5
51
102
{ACAD_REACTORS
330
42
102
}
330
42
100
AcDbScale
 70
     0
300
3" = 1'-0"
140
3.0
141
12.0
290
     0
  0
SCALE
  5
52
102
{ACAD_REACTORS
330
42
102
}
330
42
100
AcDbScale
 70
     0
300
6" = 1'-0"
140
6.0
141
12.0
290
     0
  0
SCALE
  5
53
102
{ACAD_REACTORS
330
42
102
}
330
42
100
AcDbScale
 70
     0
300
1'-0" = 1'-0"
140
12.0
141
12.0
290
     0
  0
ACDBSECTIONVIEWSTYLE
  5
69
102
{ACAD_XDICTIONARY
360
191
102
}
102
{ACAD_REACTORS
330
68
102
}
330
68
100
AcDbModelDocViewStyle
 70
     0
  3
Imperial24
290
     0
100
AcDbSectionViewStyle
 70
     0
 71
     0
 90
       78
 71
     1
340
55
 62
   256
 40
0.24
340
0
340
0
 62
   256
 40
0.24
300
I, O, Q, S, X, Z
 40
0.48
 90
        3
 40
0.18
 90
        1
 71
     2
340
5D
 90
       25
 62
   256
340
5D
 90
       50
 62
   256
 40
0.24
 40
0.0
 40
0.24
 71
     3
340
55
 62
   256
 40
0.24
 90
        1
 40
0.75
 90
        1
300
%<\AcVar ViewType \f "%tc1">% %<\AcVar ViewSectionStartId>%-%<\AcVar ViewSectionEndId>%\PSCALE %<\AcVar ViewScale \f "%sn">%
 71
     4
 62
   256
 62
   257
300
ANSI31
 40
1.0
 90
        0
290
     0
290
     0
 90
        6
 40
0.0
 40
1.570796326794896
 40
0.2617993877991494
 40
1.308996938995747
 40
-0.2617993877991494
 40
1.832595714594046
  0
TABLESTYLE
  5
65
102
{ACAD_XDICTIONARY
360
15C
102
}
102
{ACAD_REACTORS
330
64
102
}
330
64
100
AcDbTableStyle
280
     0
  3
Standard
 70
     0
 71
     0
 40
0.06
 41
0.06
280
     0
281
     0
  7
Standard
140
0.18
170
     2
 62
     0
 63
     7
283
     0
 90
      512
 91
        0
  1

274
    -2
284
     1
 64
     0
275
    -2
285
     1
 65
     0
276
    -2
286
     1
 66
     0
277
    -2
287
     1
 67
     0
278
    -2
288
     1
 68
     0
279
    -2
289
     1
 69
     0
  7
Standard
140
0.25
170
     5
 62
     0
 63
     7
283
     0
 90
      512
 91
        0
  1

274
    -2
284
     1
 64
     0
275
    -2
285
     1
 65
     0
276
    -2
286
     1
 66
     0
277
    -2
287
     1
 67
     0
278
    -2
288
     1
 68
     0
279
    -2
289
     1
 69
     0
  7
Standard
140
0.18
170
     5
 62
     0
 63
     7
283
     0
 90
      512
 91
        0
  1

274
    -2
284
     1
 64
     0
275
    -2
285
     1
 65
     0
276
    -2
286
     1
 66
     0
277
    -2
287
     1
 67
     0
278
    -2
288
     1
 68
     0
279
    -2
289
     1
 69
     0
  0
VISUALSTYLE
  5
2F
102
{ACAD_XDICTIONARY
360
169
102
}
102
{ACAD_REACTORS
330
29
102
}
330
29
100
AcDbVisualStyle
  2
2dWireframe
 70
     4
177
     2
291
     0
 71
     0
176
     1
 72
     2
176
     1
 73
     0
176
     1
 90
        0
176
     1
 40
0.6
176
     1
 41
30.0
176
     1
 63
     7
421
 16777215
176
     1
 74
     1
176
     1
 91
        4
176
     1
 64
     7
176
     1
 65
   257
176
     1
 75
     1
176
     1
175
     1
176
     1
 42
1.0
176
     1
 92
        0
176
     1
 66
   257
176
     1
 43
1.0
176
     1
 76
     1
176
     1
 77
     6
176
     1
 78
     2
176
     1
 67
     7
176
     1
 79
     5
176
     1
170
     0
176
     1
171
     0
176
     1
290
     0
176
     1
 93
        1
176
     1
 44
0.0
176
     1
173
     0
176
     1
1001
ACAD
1000
AcDbSavedByObjectVersion
1070
     0
  0
VISUALSTYLE
  5
2E
102
{ACAD_XDICTIONARY
360
167
102
}
102
{ACAD_REACTORS
330
29
102
}
330
29
100
AcDbVisualStyle
  2
Basic
 70
     7
177
     2
291
     1
 71
     1
176
     1
 72
     0
176
     1
 73
     1
176
     1
 90
        0
176
     1
 40
0.6
176
     1
 41
30.0
176
     1
 63
     7
421
 16777215
176
     1
 74
     0
176
     1
 91
        4
176
     1
 64
     7
176
     1
 65
   257
176
     1
 75
     1
176
     1
175
     1
176
     1
 42
1.0
176
     1
 92
        8
176
     1
 66
     7
176
     1
 43
1.0
176
     1
 76
     1
176
     1
 77
     6
176
     1
 78
     2
176
     1
 67
     7
176
     1
 79
     5
176
     1
170
     0
176
     1
171
     0
176
     1
290
     0
176
     1
 93
        1
176
     1
 44
0.0
176
     1
173
     0
176
     1
1001
ACAD
1000
AcDbSavedByObjectVersion
1070
     0
  0
VISUALSTYLE
  5
35
102
{ACAD_XDICTIONARY
360
175
102
}
102
{ACAD_REACTORS
330
29
102
}
330
29
100
AcDbVisualStyle
  2
Brighten
 70
    12
177
     2
291
     1
 71
     2
176
     1
 72
     2
176
     1
 73
     0
176
     1
 90
        0
176
     1
 40
0.6
176
     1
 41
30.0
176
     1
 63
     7
421
 16777215
176
     1
 74
     1
176
     1
 91
        4
176
     1
 64
     7
176
     1
 65
   257
176
     1
 75
     1
176
     1
175
     1
176
     1
 42
1.0
176
     1
 92
        8
176
     1
 66
     7
176
     1
 43
1.0
176
     1
 76
     1
176
     1
 77
     6
176
     1
 78
     2
176
     1
 67
     7
176
     1
 79
     5
176
     1
170
     0
176
     1
171
     0
176
     1
290
     0
176
     1
 93
        1
176
     1
 44
50.0
176
     1
173
     0
176
     1
1001
ACAD
1000
AcDbSavedByObjectVersion
1070
     0
  0
VISUALSTYLE
  5
39
102
{ACAD_XDICTIONARY
360
17D
102
}
102
{ACAD_REACTORS
330
29
102
}
330
29
100
AcDbVisualStyle
  2
ColorChange
 70
    16
177
     2
291
     1
 71
     2
176
     1
 72
     2
176
     1
 73
     3
176
     1
 90
        0
176
     1
 40
0.6
176
     1
 41
30.0
176
     1
 63
     8
421
  8421504
176
     1
 74
     1
176
     1
 91
        4
176
     1
 64
     7
176
     1
 65
   257
176
     1
 75
     1
176
     1
175
     1
176
     1
 42
1.0
176
     1
 92
        8
176
     1
 66
     8
424
  8421504
176
     1
 43
1.0
176
     1
 76
     1
176
     1
 77
     6
176
     1
 78
     2
176
     1
 67
     7
176
     1
 79
     5
176
     1
170
     0
176
     1
171
     0
176
     1
290
     0
176
     1
 93
        1
176
     1
 44
0.0
176
     1
173
     0
176
     1
1001
ACAD
1000
AcDbSavedByObjectVersion
1070
     0
  0
VISUALSTYLE
  5
32
102
{ACAD_XDICTIONARY
360
16F
102
}
102
{ACAD_REACTORS
330
29
102
}
330
29
100
AcDbVisualStyle
  2
Conceptual
 70
     9
177
     2
291
     0
 71
     3
176
     1
 72
     2
176
     1
 73
     0
176
     1
 90
        0
176
     1
 40
0.6
176
     1
 41
30.0
176
     1
 63
     7
421
 16777215
176
     1
 74
     2
176
     1
 91
        2
176
     1
 64
     7
176
     1
 65
   257
176
     1
 75
     1
176
     1
175
     1
176
     1
 42
179.0
176
     1
 92
        8
176
     1
 66
     7
176
     1
 43
1.0
176
     1
 76
     1
176
     1
 77
     6
176
     1
 78
     2
176
     1
 67
     7
176
     1
 79
     3
176
     1
170
     0
176
     1
171
     0
176
     1
290
     0
176
     1
 93
        1
176
     1
 44
0.0
176
     1
173
     0
176
     1
1001
ACAD
1000
AcDbSavedByObjectVersion
1070
     0
  0
VISUALSTYLE
  5
34
102
{ACAD_XDICTIONARY
360
173
102
}
102
{ACAD_REACTORS
330
29
102
}
330
29
100
AcDbVisualStyle
  2
Dim
 70
    11
177
     2
291
     1
 71
     2
176
     1
 72
     2
176
     1
 73
     0
176
     1
 90
        0
176
     1
 40
0.6
176
     1
 41
30.0
176
     1
 63
     7
421
 16777215
176
     1
 74
     1
176
     1
 91
        4
176
     1
 64
     7
176
     1
 65
   257
176
     1
 75
     1
176
     1
175
     1
176
     1
 42
1.0
176
     1
 92
        8
176
     1
 66
     7
176
     1
 43
1.0
176
     1
 76
     1
176
     1
 77
     6
176
     1
 78
     2
176
     1
 67
     7
176
     1
 79
     5
176
     1
170
     0
176
     1
171
     0
176
     1
290
     0
176
     1
 93
        1
176
     1
 44
-50.0
176
     1
173
     0
176
     1
1001
ACAD
1000
AcDbSavedByObjectVersion
1070
     0
  0
VISUALSTYLE
  5
41
102
{ACAD_XDICTIONARY
360
18D
102
}
102
{ACAD_REACTORS
330
29
102
}
330
29
100
AcDbVisualStyle
  2
EdgeColorOff
 70
    22
177
     2
291
     1
 71
     2
176
     0
 72
     2
176
     0
 73
     0
176
     0
 90
        0
176
     0
 40
0.6
176
     0
 41
30.0
176
     0
 63
     7
421
 16777215
176
     0
 74
     1
176
     0
 91
        4
176
     0
 64
     7
176
     0
 65
   257
176
     0
 75
     1
176
     0
175
     1
176
     0
 42
1.0
176
     0
 92
        8
176
     2
 66
     7
176
     0
 43
1.0
176
     0
 76
     1
176
     0
 77
     6
176
     0
 78
     2
176
     0
 67
     7
176
     0
 79
     5
176
     0
170
     0
176
     0
171
     0
176
     0
290
     0
176
     0
 93
        1
176
     0
 44
0.0
176
     0
173
     0
176
     0
1001
ACAD
1000
AcDbSavedByObjectVersion
1070
     0
  0
VISUALSTYLE
  5
38
102
{ACAD_XDICTIONARY
360
17B
102
}
102
{ACAD_REACTORS
330
29
102
}
330
29
100
AcDbVisualStyle
  2
Facepattern
 70
    15
177
     2
291
     1
 71
     2
176
     1
 72
     2
176
     1
 73
     0
176
     1
 90
        0
176
     1
 40
0.6
176
     1
 41
30.0
176
     1
 63
     7
421
 16777215
176
     1
 74
     1
176
     1
 91
        4
176
     1
 64
     7
176
     1
 65
   257
176
     1
 75
     1
176
     1
175
     1
176
     1
 42
1.0
176
     1
 92
        8
176
     1
 66
     7
176
     1
 43
1.0
176
     1
 76
     1
176
     1
 77
     6
176
     1
 78
     2
176
     1
 67
     7
176
     1
 79
     5
176
     1
170
     0
176
     1
171
     0
176
     1
290
     0
176
     1
 93
        1
176
     1
 44
0.0
176
     1
173
     0
176
     1
1001
ACAD
1000
AcDbSavedByObjectVersion
1070
     0
  0
VISUALSTYLE
  5
2A
102
{ACAD_XDICTIONARY
360
15F
102
}
102
{ACAD_REACTORS
330
29
102
}
330
29
100
AcDbVisualStyle
  2
Flat
 70
     0
177
     2
291
     1
 71
     2
176
     1
 72
     1
176
     1
 73
     1
176
     1
 90
        2
176
     1
 40
0.6
176
     1
 41
30.0
176
     1
 63
     7
421
 16777215
176
     1
 74
     0
176
     1
 91
        0
176
     1
 64
     7
176
     1
 65
   257
176
     1
 75
     1
176
     1
175
     1
176
     1
 42
1.0
176
     1
 92
        8
176
     1
 66
     7
176
     1
 43
1.0
176
     1
 76
     1
176
     1
 77
     6
176
     1
 78
     2
176
     1
 67
     7
176
     1
 79
     5
176
     1
170
     0
176
     1
171
     0
176
     1
290
     0
176
     1
 93
       13
176
     1
 44
0.0
176
     1
173
     0
176
     1
1001
ACAD
1000
AcDbSavedByObjectVersion
1070
     0
  0
VISUALSTYLE
  5
2B
102
{ACAD_XDICTIONARY
360
161
102
}
102
{ACAD_REACTORS
330
29
102
}
330
29
100
AcDbVisualStyle
  2
FlatWithEdges
 70
     1
177
     2
291
     1
 71
     2
176
     1
 72
     1
176
     1
 73
     1
176
     1
 90
        2
176
     1
 40
0.6
176
     1
 41
30.0
176
     1
 63
     7
421
 16777215
176
     1
 74
     1
176
     1
 91
        0
176
     1
 64
     7
176
     1
 65
   257
176
     1
 75
     1
176
     1
175
     1
176
     1
 42
1.0
176
     1
 92
        0
176
     1
 66
   257
176
     1
 43
1.0
176
     1
 76
     1
176
     1
 77
     6
176
     1
 78
     2
176
     1
 67
     7
176
     1
 79
     5
176
     1
170
     0
176
     1
171
     0
176
     1
290
     0
176
     1
 93
       13
176
     1
 44
0.0
176
     1
173
     0
176
     1
1001
ACAD
1000
AcDbSavedByObjectVersion
1070
     0
  0
VISUALSTYLE
  5
2C
102
{ACAD_XDICTIONARY
360
163
102
}
102
{ACAD_REACTORS
330
29
102
}
330
29
100
AcDbVisualStyle
  2
Gouraud
 70
     2
177
     2
291
     1
 71
     2
176
     1
 72
     2
176
     1
 73
     1
176
     1
 90
        2
176
     1
 40
0.6
176
     1
 41
30.0
176
     1
 63
     7
421
 16777215
176
     1
 74
     0
176
     1
 91
        0
176
     1
 64
     7
176
     1
 65
   257
176
     1
 75
     1
176
     1
175
     1
176
     1
 42
1.0
176
     1
 92
        0
176
     1
 66
     7
176
     1
 43
1.0
176
     1
 76
     1
176
     1
 77
     6
176
     1
 78
     2
176
     1
 67
     7
176
     1
 79
     5
176
     1
170
     0
176
     1
171
     0
176
     1
290
     0
176
     1
 93
       13
176
     1
 44
0.0
176
     1
173
     0
176
     1
1001
ACAD
1000
AcDbSavedByObjectVersion
1070
     0
  0
VISUALSTYLE
  5
2D
102
{ACAD_XDICTIONARY
360
165
102
}
102
{ACAD_REACTORS
330
29
102
}
330
29
100
AcDbVisualStyle
  2
GouraudWithEdges
 70
     3
177
     2
291
     1
 71
     2
176
     1
 72
     2
176
     1
 73
     1
176
     1
 90
        2
176
     1
 40
0.6
176
     1
 41
30.0
176
     1
 63
     7
421
 16777215
176
     1
 74
     1
176
     1
 91
        0
176
     1
 64
     7
176
     1
 65
   257
176
     1
 75
     1
176
     1
175
     1
176
     1
 42
1.0
176
     1
 92
        0
176
     1
 66
   257
176
     1
 43
1.0
176
     1
 76
     1
176
     1
 77
     6
176
     1
 78
     2
176
     1
 67
     7
176
     1
 79
     5
176
     1
170
     0
176
     1
171
     0
176
     1
290
     0
176
     1
 93
       13
176
     1
 44
0.0
176
     1
173
     0
176
     1
1001
ACAD
1000
AcDbSavedByObjectVersion
1070
     0
  0
VISUALSTYLE
  5
31
102
{ACAD_XDICTIONARY
360
16D
102
}
102
{ACAD_REACTORS
330
29
102
}
330
29
100
AcDbVisualStyle
  2
Hidden
 70
     6
177
     2
291
     0
 71
     1
176
     1
 72
     2
176
     1
 73
     2
176
     1
 90
        0
176
     1
 40
0.6
176
     1
 41
30.0
176
     1
 63
     7
421
 16777215
176
     1
 74
     2
176
     1
 91
        2
176
     1
 64
     7
176
     1
 65
   257
176
     1
 75
     2
176
     1
175
     1
176
     1
 42
40.0
176
     1
 92
        0
176
     1
 66
   257
176
     1
 43
1.0
176
     1
 76
     1
176
     1
 77
     6
176
     1
 78
     2
176
     1
 67
     7
176
     1
 79
     3
176
     1
170
     0
176
     1
171
     0
176
     1
290
     0
176
     1
 93
        1
176
     1
 44
0.0
176
     1
173
     0
176
     1
1001
ACAD
1000
AcDbSavedByObjectVersion
1070
     0
  0
VISUALSTYLE
  5
3F
102
{ACAD_XDICTIONARY
360
189
102
}
102
{ACAD_REACTORS
330
29
102
}
330
29
100
AcDbVisualStyle
  2
JitterOff
 70
    20
177
     2
291
     1
 71
     2
176
     0
 72
     2
176
     0
 73
     0
176
     0
 90
        0
176
     0
 40
0.6
176
     0
 41
30.0
176
     0
 63
     7
421
 16777215
176
     0
 74
     1
176
     0
 91
        4
176
     0
 64
     7
176
     0
 65
   257
176
     0
 75
     1
176
     0
175
     1
176
     0
 42
1.0
176
     0
 92
       10
176
     2
 66
     7
176
     0
 43
1.0
176
     0
 76
     1
176
     0
 77
     6
176
     0
 78
     2
176
     0
 67
     7
176
     0
 79
     5
176
     0
170
     0
176
     0
171
     0
176
     0
290
     0
176
     0
 93
        1
176
     0
 44
0.0
176
     0
173
     0
176
     0
1001
ACAD
1000
AcDbSavedByObjectVersion
1070
     0
  0
VISUALSTYLE
  5
37
102
{ACAD_XDICTIONARY
360
179
102
}
102
{ACAD_REACTORS
330
29
102
}
330
29
100
AcDbVisualStyle
  2
Linepattern
 70
    14
177
     2
291
     1
 71
     2
176
     1
 72
     2
176
     1
 73
     0
176
     1
 90
        0
176
     1
 40
0.6
176
     1
 41
30.0
176
     1
 63
     7
421
 16777215
176
     1
 74
     1
176
     1
 91
        4
176
     1
 64
     7
176
     1
 65
   257
176
     1
 75
     7
176
     1
175
     7
176
     1
 42
1.0
176
     1
 92
        8
176
     1
 66
     7
176
     1
 43
1.0
176
     1
 76
     1
176
     1
 77
     6
176
     1
 78
     2
176
     1
 67
     7
176
     1
 79
     5
176
     1
170
     0
176
     1
171
     0
176
     1
290
     0
176
     1
 93
        1
176
     1
 44
0.0
176
     1
173
     0
176
     1
1001
ACAD
1000
AcDbSavedByObjectVersion
1070
     0
  0
VISUALSTYLE
  5
40
102
{ACAD_XDICTIONARY
360
18B
102
}
102
{ACAD_REACTORS
330
29
102
}
330
29
100
AcDbVisualStyle
  2
OverhangOff
 70
    21
177
     2
291
     1
 71
     2
176
     0
 72
     2
176
     0
 73
     0
176
     0
 90
        0
176
     0
 40
0.6
176
     0
 41
30.0
176
     0
 63
     7
421
 16777215
176
     0
 74
     1
176
     0
 91
        4
176
     0
 64
     7
176
     0
 65
   257
176
     0
 75
     1
176
     0
175
     1
176
     0
 42
1.0
176
     0
 92
        9
176
     2
 66
     7
176
     0
 43
1.0
176
     0
 76
     1
176
     0
 77
     6
176
     0
 78
     2
176
     0
 67
     7
176
     0
 79
     5
176
     0
170
     0
176
     0
171
     0
176
     0
290
     0
176
     0
 93
        1
176
     0
 44
0.0
176
     0
173
     0
176
     0
1001
ACAD
1000
AcDbSavedByObjectVersion
1070
     0
  0
VISUALSTYLE
  5
33
102
{ACAD_XDICTIONARY
360
171
102
}
102
{ACAD_REACTORS
330
29
102
}
330
29
100
AcDbVisualStyle
  2
Realistic
 70
     8
177
     2
291
     0
 71
     2
176
     1
 72
     3
176
     1
 73
     0
176
     1
 90
        2
176
     1
 40
0.6
176
     1
 41
30.0
176
     1
 63
     7
421
 16777215
176
     1
 74
     0
176
     1
 91
        0
176
     1
 64
     7
176
     1
 65
   257
176
     1
 75
     1
176
     1
175
     1
176
     1
 42
1.0
176
     1
 92
        8
176
     1
 66
   257
176
     1
 43
1.0
176
     1
 76
     1
176
     1
 77
     6
176
     1
 78
     2
176
     1
 67
     7
176
     1
 79
     3
176
     1
170
     0
176
     1
171
     0
176
     1
290
     0
176
     1
 93
       13
176
     1
 44
0.0
176
     1
173
     0
176
     1
1001
ACAD
1000
AcDbSavedByObjectVersion
1070
     0
  0
VISUALSTYLE
  5
3E
102
{ACAD_XDICTIONARY
360
187
102
}
102
{ACAD_REACTORS
330
29
102
}
330
29
100
AcDbVisualStyle
  2
Shaded
 70
    27
177
     2
291
     0
 71
     2
176
     1
 72
     2
176
     1
 73
     1
176
     1
 90
        2
176
     1
 40
0.6
176
     1
 41
30.0
176
     1
 63
     7
421
 16777215
176
     1
 74
     0
176
     1
 91
        4
176
     1
 64
     7
176
     1
 65
   257
176
     1
 75
     1
176
     1
175
     1
176
     1
 42
1.0
176
     1
 92
        8
176
     1
 66
   257
176
     1
 43
1.0
176
     1
 76
     1
176
     1
 77
     6
176
     1
 78
     2
176
     1
 67
     8
425
  7895160
176
     1
 79
     3
176
     1
170
     0
176
     1
171
     0
176
     1
290
     0
176
     1
 93
        5
176
     1
 44
0.0
176
     1
173
     0
176
     1
1001
ACAD
1000
AcDbSavedByObjectVersion
1070
     0
  0
VISUALSTYLE
  5
3D
102
{ACAD_XDICTIONARY
360
185
102
}
102
{ACAD_REACTORS
330
29
102
}
330
29
100
AcDbVisualStyle
  2
Shaded with edges
 70
    26
177
     2
291
     0
 71
     2
176
     1
 72
     2
176
     1
 73
     1
176
     1
 90
        2
176
     1
 40
0.6
176
     1
 41
30.0
176
     1
 63
     7
421
 16777215
176
     1
 74
     1
176
     1
 91
        2
176
     1
 64
     7
176
     1
 65
   257
176
     1
 75
     2
176
     1
175
     1
176
     1
 42
1.0
176
     1
 92
        8
176
     1
 66
   257
176
     1
 43
1.0
176
     1
 76
     1
176
     1
 77
     6
176
     1
 78
     2
176
     1
 67
     7
176
     1
 79
     3
176
     1
170
     0
176
     1
171
     0
176
     1
290
     0
176
     1
 93
        5
176
     1
 44
0.0
176
     1
173
     0
176
     1
1001
ACAD
1000
AcDbSavedByObjectVersion
1070
     0
  0
VISUALSTYLE
  5
3A
102
{ACAD_XDICTIONARY
360
17F
102
}
102
{ACAD_REACTORS
330
29
102
}
330
29
100
AcDbVisualStyle
  2
Shades of Gray
 70
    23
177
     2
291
     0
 71
     2
176
     1
 72
     2
176
     1
 73
     3
176
     1
 90
        0
176
     1
 40
0.6
176
     1
 41
30.0
176
     1
 63
     7
421
 16777215
176
     1
 74
     2
176
     1
 91
        2
176
     1
 64
     7
176
     1
 65
     7
176
     1
 75
     1
176
     1
175
     1
176
     1
 42
40.0
176
     1
 92
        8
176
     1
 66
     7
176
     1
 43
1.0
176
     1
 76
     1
176
     1
 77
     6
176
     1
 78
     2
176
     1
 67
     7
176
     1
 79
     3
176
     1
170
     0
176
     1
171
     0
176
     1
290
     0
176
     1
 93
        1
176
     1
 44
0.0
176
     1
173
     0
176
     1
1001
ACAD
1000
AcDbSavedByObjectVersion
1070
     0
  0
VISUALSTYLE
  5
3B
102
{ACAD_XDICTIONARY
360
181
102
}
102
{ACAD_REACTORS
330
29
102
}
330
29
100
AcDbVisualStyle
  2
Sketchy
 70
    24
177
     2
291
     0
 71
     1
176
     1
 72
     2
176
     1
 73
     2
176
     1
 90
        0
176
     1
 40
0.6
176
     1
 41
30.0
176
     1
 63
     7
421
 16777215
176
     1
 74
     2
176
     1
 91
        2
176
     1
 64
     7
176
     1
 65
     7
176
     1
 75
     1
176
     1
175
     1
176
     1
 42
40.0
176
     1
 92
       11
176
     1
 66
     7
176
     1
 43
1.0
176
     1
 76
     1
176
     1
 77
     6
176
     1
 78
     2
176
     1
 67
     7
176
     1
 79
     6
176
     1
170
     0
176
     1
171
     0
176
     1
290
     0
176
     1
 93
        1
176
     1
 44
0.0
176
     1
173
     0
176
     1
1001
ACAD
1000
AcDbSavedByObjectVersion
1070
     0
  0
VISUALSTYLE
  5
36
102
{ACAD_XDICTIONARY
360
177
102
}
102
{ACAD_REACTORS
330
29
102
}
330
29
100
AcDbVisualStyle
  2
Thicken
 70
    13
177
     2
291
     1
 71
     2
176
     1
 72
     2
176
     1
 73
     0
176
     1
 90
        0
176
     1
 40
0.6
176
     1
 41
30.0
176
     1
 63
     7
421
 16777215
176
     1
 74
     1
176
     1
 91
        4
176
     1
 64
     7
176
     1
 65
   257
176
     1
 75
     1
176
     1
175
     1
176
     1
 42
1.0
176
     1
 92
       12
176
     1
 66
     7
176
     1
 43
1.0
176
     1
 76
     1
176
     1
 77
     6
176
     1
 78
     2
176
     1
 67
     7
176
     1
 79
     5
176
     1
170
     0
176
     1
171
     0
176
     1
290
     0
176
     1
 93
        1
176
     1
 44
0.0
176
     1
173
     0
176
     1
1001
ACAD
1000
AcDbSavedByObjectVersion
1070
     0
  0
VISUALSTYLE
  5
30
102
{ACAD_XDICTIONARY
360
16B
102
}
102
{ACAD_REACTORS
330
29
102
}
330
29
100
AcDbVisualStyle
  2
Wireframe
 70
     5
177
     2
291
     0
 71
     0
176
     1
 72
     2
176
     1
 73
     0
176
     1
 90
        0
176
     1
 40
0.6
176
     1
 41
30.0
176
     1
 63
     7
421
 16777215
176
     1
 74
     1
176
     1
 91
        4
176
     1
 64
     7
176
     1
 65
   257
176
     1
 75
     1
176
     1
175
     1
176
     1
 42
1.0
176
     1
 92
        0
176
     1
 66
   257
176
     1
 43
1.0
176
     1
 76
     1
176
     1
 77
     6
176
     1
 78
     2
176
     1
 67
     7
176
     1
 79
     3
176
     1
170
     0
176
     1
171
     0
176
     1
290
     0
176
     1
 93
        1
176
     1
 44
0.0
176
     1
173
     0
176
     1
1001
ACAD
1000
AcDbSavedByObjectVersion
1070
     0
  0
VISUALSTYLE
  5
3C
102
{ACAD_XDICTIONARY
360
183
102
}
102
{ACAD_REACTORS
330
29
102
}
330
29
100
AcDbVisualStyle
  2
X-Ray
 70
    25
177
     2
291
     0
 71
     2
176
     1
 72
     2
176
     1
 73
     1
176
     1
 90
        1
176
     1
 40
0.5
176
     1
 41
30.0
176
     1
 63
     7
421
 16777215
176
     1
 74
     1
176
     1
 91
        0
176
     1
 64
     7
176
     1
 65
   257
176
     1
 75
     1
176
     1
175
     1
176
     1
 42
1.0
176
     1
 92
        8
176
     1
 66
     7
176
     1
 43
1.0
176
     1
 76
     1
176
     1
 77
     6
176
     1
 78
     2
176
     1
 67
     7
176
     1
 79
     3
176
     1
170
     0
176
     1
171
     0
176
     1
290
     0
176
     1
 93
       13
176
     1
 44
0.0
176
     1
173
     0
176
     1
1001
ACAD
1000
AcDbSavedByObjectVersion
1070
     0
  0
DICTIONARYVAR
  5
15B
102
{ACAD_REACTORS
330
156
102
}
330
156
100
DictionaryVariables
280
     0
  1
1:1
  0
DICTIONARYVAR
  5
158
102
{ACAD_REACTORS
330
156
102
}
330
156
100
DictionaryVariables
280
     0
  1
STANDARD
  0
DICTIONARYVAR
  5
157
102
{ACAD_REACTORS
330
156
102
}
330
156
100
DictionaryVariables
280
     0
  1
STANDARD
  0
DICTIONARYVAR
  5
159
102
{ACAD_REACTORS
330
156
102
}
330
156
100
DictionaryVariables
280
     0
  1
Imperial24
  0
DICTIONARYVAR
  5
15A
102
{ACAD_REACTORS
330
156
102
}
330
156
100
DictionaryVariables
280
     0
  1
Imperial24
  0
DICTIONARY
  5
193
330
6B
100
AcDbDictionary
280
     1
281
     1
  3
ACAD_XREC_ROUNDTRIP
360
194
  0
DICTIONARY
  5
1A
330
19
100
AcDbDictionary
280
     1
281
     1
  3
BUMPTILE
360
1C
  3
DIFFUSETILE
360
1B
  3
OPACITYTILE
360
1F
  3
REFLECTIONTILE
360
1E
  3
REFRACTIONTILE
360
20
  3
SPECULARTILE
360
1D
  0
DICTIONARY
  5
12
330
11
100
AcDbDictionary
280
     1
281
     1
  3
BUMPTILE
360
14
  3
DIFFUSETILE
360
13
  3
OPACITYTILE
360
17
  3
REFLECTIONTILE
360
16
  3
REFRACTIONTILE
360
18
  3
SPECULARTILE
360
15
  0
DICTIONARY
  5
22
330
21
100
AcDbDictionary
280
     1
281
     1
  3
BUMPTILE
360
24
  3
DIFFUSETILE
360
23
  3
OPACITYTILE
360
27
  3
REFLECTIONTILE
360
26
  3
REFRACTIONTILE
360
28
  3
SPECULARTILE
360
25
  0
DICTIONARY
  5
18F
330
67
100
AcDbDictionary
280
     1
281
     1
  3
ACAD_XREC_ROUNDTRIP
360
190
  0
DICTIONARY
  5
191
330
69
100
AcDbDictionary
280
     1
281
     1
  3
ACAD_XREC_ROUNDTRIP
360
192
  0
DICTIONARY
  5
15C
330
65
100
AcDbDictionary
280
     1
281
     1
  3
ACAD_ROUNDTRIP_2008_TABLESTYLE_CELLSTYLEMAP
360
15D
  0
DICTIONARY
  5
169
330
2F
100
AcDbDictionary
280
     1
281
     1
  3
ACAD_XREC_ROUNDTRIP
360
16A
  0
DICTIONARY
  5
167
330
2E
100
AcDbDictionary
280
     1
281
     1
  3
ACAD_XREC_ROUNDTRIP
360
168
  0
DICTIONARY
  5
175
330
35
100
AcDbDictionary
280
     1
281
     1
  3
ACAD_XREC_ROUNDTRIP
360
176
  0
DICTIONARY
  5
17D
330
39
100
AcDbDictionary
280
     1
281
     1
  3
ACAD_XREC_ROUNDTRIP
360
17E
  0
DICTIONARY
  5
16F
330
32
100
AcDbDictionary
280
     1
281
     1
  3
ACAD_XREC_ROUNDTRIP
360
170
  0
DICTIONARY
  5
173
330
34
100
AcDbDictionary
280
     1
281
     1
  3
ACAD_XREC_ROUNDTRIP
360
174
  0
DICTIONARY
  5
18D
330
41
100
AcDbDictionary
280
     1
281
     1
  3
ACAD_XREC_ROUNDTRIP
360
18E
  0
DICTIONARY
  5
17B
330
38
100
AcDbDictionary
280
     1
281
     1
  3
ACAD_XREC_ROUNDTRIP
360
17C
  0
DICTIONARY
  5
15F
330
2A
100
AcDbDictionary
280
     1
281
     1
  3
ACAD_XREC_ROUNDTRIP
360
160
  0
DICTIONARY
  5
161
330
2B
100
AcDbDictionary
280
     1
281
     1
  3
ACAD_XREC_ROUNDTRIP
360
162
  0
DICTIONARY
  5
163
330
2C
100
AcDbDictionary
280
     1
281
     1
  3
ACAD_XREC_ROUNDTRIP
360
164
  0
DICTIONARY
  5
165
330
2D
100
AcDbDictionary
280
     1
281
     1
  3
ACAD_XREC_ROUNDTRIP
360
166
  0
DICTIONARY
  5
16D
330
31
100
AcDbDictionary
280
     1
281
     1
  3
ACAD_XREC_ROUNDTRIP
360
16E
  0
DICTIONARY
  5
189
330
3F
100
AcDbDictionary
280
     1
281
     1
  3
ACAD_XREC_ROUNDTRIP
360
18A
  0
DICTIONARY
  5
179
330
37
100
AcDbDictionary
280
     1
281
     1
  3
ACAD_XREC_ROUNDTRIP
360
17A
  0
DICTIONARY
  5
18B
330
40
100
AcDbDictionary
280
     1
281
     1
  3
ACAD_XREC_ROUNDTRIP
360
18C
  0
DICTIONARY
  5
171
330
33
100
AcDbDictionary
280
     1
281
     1
  3
ACAD_XREC_ROUNDTRIP
360
172
  0
DICTIONARY
  5
187
330
3E
100
AcDbDictionary
280
     1
281
     1
  3
ACAD_XREC_ROUNDTRIP
360
188
  0
DICTIONARY
  5
185
330
3D
100
AcDbDictionary
280
     1
281
     1
  3
ACAD_XREC_ROUNDTRIP
360
186
  0
DICTIONARY
  5
17F
330
3A
100
AcDbDictionary
280
     1
281
     1
  3
ACAD_XREC_ROUNDTRIP
360
180
  0
DICTIONARY
  5
181
330
3B
100
AcDbDictionary
280
     1
281
     1
  3
ACAD_XREC_ROUNDTRIP
360
182
  0
DICTIONARY
  5
177
330
36
100
AcDbDictionary
280
     1
281
     1
  3
ACAD_XREC_ROUNDTRIP
360
178
  0
DICTIONARY
  5
16B
330
30
100
AcDbDictionary
280
     1
281
     1
  3
ACAD_XREC_ROUNDTRIP
360
16C
  0
DICTIONARY
  5
183
330
3C
100
AcDbDictionary
280
     1
281
     1
  3
ACAD_XREC_ROUNDTRIP
360
184
  0
XRECORD
  5
194
102
{ACAD_REACTORS
330
193
102
}
330
193
100
AcDbXrecord
280
     1
102
DISPLAYNAME
  1
Imperial24
102
FLAGS
 90
        0
  0
XRECORD
  5
1C
102
{ACAD_REACTORS
330
1A
102
}
330
1A
100
AcDbXrecord
280
     1
270
     1
271
     1
  0
XRECORD
  5
1B
102
{ACAD_REACTORS
330
1A
102
}
330
1A
100
AcDbXrecord
280
     1
270
     1
271
     1
  0
XRECORD
  5
1F
102
{ACAD_REACTORS
330
1A
102
}
330
1A
100
AcDbXrecord
280
     1
270
     1
271
     1
  0
XRECORD
  5
1E
102
{ACAD_REACTORS
330
1A
102
}
330
1A
100
AcDbXrecord
280
     1
270
     1
271
     1
  0
XRECORD
  5
20
102
{ACAD_REACTORS
330
1A
102
}
330
1A
100
AcDbXrecord
280
     1
270
     1
271
     1
  0
XRECORD
  5
1D
102
{ACAD_REACTORS
330
1A
102
}
330
1A
100
AcDbXrecord
280
     1
270
     1
271
     1
  0
XRECORD
  5
14
102
{ACAD_REACTORS
330
12
102
}
330
12
100
AcDbXrecord
280
     1
270
     1
271
     1
  0
XRECORD
  5
13
102
{ACAD_REACTORS
330
12
102
}
330
12
100
AcDbXrecord
280
     1
270
     1
271
     1
  0
XRECORD
  5
17
102
{ACAD_REACTORS
330
12
102
}
330
12
100
AcDbXrecord
280
     1
270
     1
271
     1
  0
XRECORD
  5
16
102
{ACAD_REACTORS
330
12
102
}
330
12
100
AcDbXrecord
280
     1
270
     1
271
     1
  0
XRECORD
  5
18
102
{ACAD_REACTORS
330
12
102
}
330
12
100
AcDbXrecord
280
     1
270
     1
271
     1
  0
XRECORD
  5
15
102
{ACAD_REACTORS
330
12
102
}
330
12
100
AcDbXrecord
280
     1
270
     1
271
     1
  0
XRECORD
  5
24
102
{ACAD_REACTORS
330
22
102
}
330
22
100
AcDbXrecord
280
     1
270
     1
271
     1
  0
XRECORD
  5
23
102
{ACAD_REACTORS
330
22
102
}
330
22
100
AcDbXrecord
280
     1
270
     1
271
     1
  0
XRECORD
  5
27
102
{ACAD_REACTORS
330
22
102
}
330
22
100
AcDbXrecord
280
     1
270
     1
271
     1
  0
XRECORD
  5
26
102
{ACAD_REACTORS
330
22
102
}
330
22
100
AcDbXrecord
280
     1
270
     1
271
     1
  0
XRECORD
  5
28
102
{ACAD_REACTORS
330
22
102
}
330
22
100
AcDbXrecord
280
     1
270
     1
271
     1
  0
XRECORD
  5
25
102
{ACAD_REACTORS
330
22
102
}
330
22
100
AcDbXrecord
280
     1
270
     1
271
     1
  0
XRECORD
  5
190
102
{ACAD_REACTORS
330
18F
102
}
330
18F
100
AcDbXrecord
280
     1
102
ACAD_ROUNDTRIP_2012_MLEADER_STYLE
298
     1
  0
XRECORD
  5
192
102
{ACAD_REACTORS
330
191
102
}
330
191
100
AcDbXrecord
280
     1
102
DISPLAYNAME
  1
Imperial24
102
FLAGS
 90
        0
  0
CELLSTYLEMAP
  5
15D
102
{ACAD_REACTORS
330
15C
102
}
330
15C
100
AcDbCellStyleMap
 90
        3
300
CELLSTYLE
  1
TABLEFORMAT_BEGIN
 90
        5
170
     1
 91
        0
 92
    32768
 62
   257
 93
        1
300
CONTENTFORMAT
  1
CONTENTFORMAT_BEGIN
 90
        0
 91
        0
 92
      512
 93
        0
300

 40
0.0
140
1.0
 94
        5
 62
     0
340
55
144
0.25
309
CONTENTFORMAT_END
171
     0
 94
        0
309
TABLEFORMAT_END
  1
CELLSTYLE_BEGIN
 90
        1
 91
        1
300
_TITLE
309
CELLSTYLE_END
300
CELLSTYLE
  1
TABLEFORMAT_BEGIN
 90
        5
170
     1
 91
        0
 92
        0
 62
   257
 93
        1
300
CONTENTFORMAT
  1
CONTENTFORMAT_BEGIN
 90
        0
 91
        0
 92
      512
 93
        0
300

 40
0.0
140
1.0
 94
        5
 62
     0
340
55
144
0.18
309
CONTENTFORMAT_END
171
     0
 94
        0
309
TABLEFORMAT_END
  1
CELLSTYLE_BEGIN
 90
        2
 91
        1
300
_HEADER
309
CELLSTYLE_END
300
CELLSTYLE
  1
TABLEFORMAT_BEGIN
 90
        5
170
     1
 91
        0
 92
        0
 62
   257
 93
        1
300
CONTENTFORMAT
  1
CONTENTFORMAT_BEGIN
 90
        0
 91
        0
 92
      512
 93
        0
300

 40
0.0
140
1.0
 94
        2
 62
     0
340
55
144
0.18
309
CONTENTFORMAT_END
171
     0
 94
        0
309
TABLEFORMAT_END
  1
CELLSTYLE_BEGIN
 90
        3
 91
        2
300
_DATA
309
CELLSTYLE_END
  0
XRECORD
  5
16A
102
{ACAD_REACTORS
330
169
102
}
330
169
100
AcDbXrecord
280
     1
102
RTVSPost2010Prop28
280
     1
102
RTVSPost2010PropOp28
 70
     1
102
RTVSPost2010Prop29
280
     1
102
RTVSPost2010PropOp29
 70
     1
102
RTVSPost2010Prop30
280
     0
102
RTVSPost2010PropOp30
 70
     1
102
RTVSPost2010Prop31
280
     0
102
RTVSPost2010PropOp31
 70
     1
102
RTVSPost2010Prop32
280
     0
102
RTVSPost2010PropOp32
 70
     1
102
RTVSPost2010Prop33
280
     0
102
RTVSPost2010PropOp33
 70
     1
102
RTVSPost2010Prop34
280
     0
102
RTVSPost2010PropOp34
 70
     1
102
RTVSPost2010Prop35
280
     0
102
RTVSPost2010PropOp35
 70
     1
102
RTVSPost2010Prop36
280
     0
102
RTVSPost2010PropOp36
 70
     1
102
RTVSPost2010Prop37
 90
       50
102
RTVSPost2010PropOp37
 70
     1
102
RTVSPost2010Prop38
140
0.0
102
RTVSPost2010PropOp38
 70
     1
102
RTVSPost2010Prop39
140
1.0
102
RTVSPost2010PropOp39
 70
     1
102
RTVSPost2010Prop40
 90
        0
102
RTVSPost2010PropOp40
 70
     1
102
RTVSPost2010Prop41ColorIndex
 90
       18
102
RTVSPost2010Prop41ColorRGB
 90
        0
102
RTVSPost2010PropOp41
 70
     1
102
RTVSPost2010Prop42
 90
       50
102
RTVSPost2010PropOp42
 70
     1
102
RTVSPost2010Prop43
 90
        3
102
RTVSPost2010PropOp43
 70
     1
102
RTVSPost2010Prop44ColorIndex
 90
        5
102
RTVSPost2010Prop44ColorRGB
 90
      255
102
RTVSPost2010PropOp44
 70
     1
102
RTVSPost2010Prop45
280
     0
102
RTVSPost2010PropOp45
 70
     1
102
RTVSPost2010Prop46
 90
       50
102
RTVSPost2010PropOp46
 70
     1
102
RTVSPost2010Prop47
 90
       50
102
RTVSPost2010PropOp47
 70
     1
102
RTVSPost2010Prop48
 90
       50
102
RTVSPost2010PropOp48
 70
     1
102
RTVSPost2010Prop49
280
     0
102
RTVSPost2010PropOp49
 70
     1
102
RTVSPost2010Prop50
 90
       50
102
RTVSPost2010PropOp50
 70
     1
102
RTVSPost2010Prop51ColorIndex
 90
      256
102
RTVSPost2010Prop51ColorRGB
 90
-16777216
102
RTVSPost2010PropOp51
 70
     0
102
RTVSPost2010Prop52
140
1.0
102
RTVSPost2010PropOp52
 70
     0
102
RTVSPost2010Prop53
 90
        2
102
RTVSPost2010PropOp53
 70
     1
102
RTVSPost2010Prop54
  1
strokes_ogs.tif
102
RTVSPost2010PropOp54
 70
     1
102
RTVSPost2010Prop55
280
     0
102
RTVSPost2010PropOp55
 70
     1
102
RTVSPost2010Prop56
140
1.0
102
RTVSPost2010PropOp56
 70
     1
102
RTVSPost2010Prop57
140
1.0
102
RTVSPost2010PropOp57
 70
     1
  0
XRECORD
  5
168
102
{ACAD_REACTORS
330
167
102
}
330
167
100
AcDbXrecord
280
     1
102
RTVSPost2010Prop28
280
     0
102
RTVSPost2010PropOp28
 70
     1
102
RTVSPost2010Prop29
280
     1
102
RTVSPost2010PropOp29
 70
     1
102
RTVSPost2010Prop30
280
     1
102
RTVSPost2010PropOp30
 70
     1
102
RTVSPost2010Prop31
280
     0
102
RTVSPost2010PropOp31
 70
     1
102
RTVSPost2010Prop32
280
     0
102
RTVSPost2010PropOp32
 70
     1
102
RTVSPost2010Prop33
280
     0
102
RTVSPost2010PropOp33
 70
     1
102
RTVSPost2010Prop34
280
     0
102
RTVSPost2010PropOp34
 70
     1
102
RTVSPost2010Prop35
280
     0
102
RTVSPost2010PropOp35
 70
     1
102
RTVSPost2010Prop36
280
     0
102
RTVSPost2010PropOp36
 70
     1
102
RTVSPost2010Prop37
 90
       50
102
RTVSPost2010PropOp37
 70
     1
102
RTVSPost2010Prop38
140
0.0
102
RTVSPost2010PropOp38
 70
     1
102
RTVSPost2010Prop39
140
1.0
102
RTVSPost2010PropOp39
 70
     1
102
RTVSPost2010Prop40
 90
        0
102
RTVSPost2010PropOp40
 70
     1
102
RTVSPost2010Prop41ColorIndex
 90
       18
102
RTVSPost2010Prop41ColorRGB
 90
        0
102
RTVSPost2010PropOp41
 70
     1
102
RTVSPost2010Prop42
 90
       50
102
RTVSPost2010PropOp42
 70
     1
102
RTVSPost2010Prop43
 90
        3
102
RTVSPost2010PropOp43
 70
     1
102
RTVSPost2010Prop44ColorIndex
 90
        5
102
RTVSPost2010Prop44ColorRGB
 90
      255
102
RTVSPost2010PropOp44
 70
     1
102
RTVSPost2010Prop45
280
     0
102
RTVSPost2010PropOp45
 70
     1
102
RTVSPost2010Prop46
 90
       50
102
RTVSPost2010PropOp46
 70
     1
102
RTVSPost2010Prop47
 90
       50
102
RTVSPost2010PropOp47
 70
     1
102
RTVSPost2010Prop48
 90
       50
102
RTVSPost2010PropOp48
 70
     1
102
RTVSPost2010Prop49
280
     0
102
RTVSPost2010PropOp49
 70
     1
102
RTVSPost2010Prop50
 90
       50
102
RTVSPost2010PropOp50
 70
     1
102
RTVSPost2010Prop51ColorIndex
 90
      256
102
RTVSPost2010Prop51ColorRGB
 90
-16777216
102
RTVSPost2010PropOp51
 70
     0
102
RTVSPost2010Prop52
140
1.0
102
RTVSPost2010PropOp52
 70
     0
102
RTVSPost2010Prop53
 90
        2
102
RTVSPost2010PropOp53
 70
     1
102
RTVSPost2010Prop54
  1
strokes_ogs.tif
102
RTVSPost2010PropOp54
 70
     1
102
RTVSPost2010Prop55
280
     0
102
RTVSPost2010PropOp55
 70
     1
102
RTVSPost2010Prop56
140
1.0
102
RTVSPost2010PropOp56
 70
     1
102
RTVSPost2010Prop57
140
1.0
102
RTVSPost2010PropOp57
 70
     1
  0
XRECORD
  5
176
102
{ACAD_REACTORS
330
175
102
}
330
175
100
AcDbXrecord
280
     1
102
RTVSPost2010Prop28
280
     0
102
RTVSPost2010PropOp28
 70
     1
102
RTVSPost2010Prop29
280
     1
102
RTVSPost2010PropOp29
 70
     1
102
RTVSPost2010Prop30
280
     1
102
RTVSPost2010PropOp30
 70
     1
102
RTVSPost2010Prop31
280
     0
102
RTVSPost2010PropOp31
 70
     1
102
RTVSPost2010Prop32
280
     0
102
RTVSPost2010PropOp32
 70
     1
102
RTVSPost2010Prop33
280
     0
102
RTVSPost2010PropOp33
 70
     1
102
RTVSPost2010Prop34
280
     0
102
RTVSPost2010PropOp34
 70
     1
102
RTVSPost2010Prop35
280
     0
102
RTVSPost2010PropOp35
 70
     1
102
RTVSPost2010Prop36
280
     0
102
RTVSPost2010PropOp36
 70
     1
102
RTVSPost2010Prop37
 90
       50
102
RTVSPost2010PropOp37
 70
     1
102
RTVSPost2010Prop38
140
0.0
102
RTVSPost2010PropOp38
 70
     1
102
RTVSPost2010Prop39
140
1.0
102
RTVSPost2010PropOp39
 70
     1
102
RTVSPost2010Prop40
 90
        0
102
RTVSPost2010PropOp40
 70
     1
102
RTVSPost2010Prop41ColorIndex
 90
       18
102
RTVSPost2010Prop41ColorRGB
 90
        0
102
RTVSPost2010PropOp41
 70
     1
102
RTVSPost2010Prop42
 90
       50
102
RTVSPost2010PropOp42
 70
     1
102
RTVSPost2010Prop43
 90
        3
102
RTVSPost2010PropOp43
 70
     1
102
RTVSPost2010Prop44ColorIndex
 90
        5
102
RTVSPost2010Prop44ColorRGB
 90
      255
102
RTVSPost2010PropOp44
 70
     1
102
RTVSPost2010Prop45
280
     0
102
RTVSPost2010PropOp45
 70
     1
102
RTVSPost2010Prop46
 90
       50
102
RTVSPost2010PropOp46
 70
     1
102
RTVSPost2010Prop47
 90
       50
102
RTVSPost2010PropOp47
 70
     1
102
RTVSPost2010Prop48
 90
       50
102
RTVSPost2010PropOp48
 70
     1
102
RTVSPost2010Prop49
280
     0
102
RTVSPost2010PropOp49
 70
     1
102
RTVSPost2010Prop50
 90
       50
102
RTVSPost2010PropOp50
 70
     1
102
RTVSPost2010Prop51ColorIndex
 90
      256
102
RTVSPost2010Prop51ColorRGB
 90
-16777216
102
RTVSPost2010PropOp51
 70
     0
102
RTVSPost2010Prop52
140
1.0
102
RTVSPost2010PropOp52
 70
     0
102
RTVSPost2010Prop53
 90
        2
102
RTVSPost2010PropOp53
 70
     1
102
RTVSPost2010Prop54
  1
strokes_ogs.tif
102
RTVSPost2010PropOp54
 70
     1
102
RTVSPost2010Prop55
280
     0
102
RTVSPost2010PropOp55
 70
     1
102
RTVSPost2010Prop56
140
1.0
102
RTVSPost2010PropOp56
 70
     1
102
RTVSPost2010Prop57
140
1.0
102
RTVSPost2010PropOp57
 70
     1
  0
XRECORD
  5
17E
102
{ACAD_REACTORS
330
17D
102
}
330
17D
100
AcDbXrecord
280
     1
102
RTVSPost2010Prop28
280
     0
102
RTVSPost2010PropOp28
 70
     1
102
RTVSPost2010Prop29
280
     1
102
RTVSPost2010PropOp29
 70
     1
102
RTVSPost2010Prop30
280
     1
102
RTVSPost2010PropOp30
 70
     1
102
RTVSPost2010Prop31
280
     0
102
RTVSPost2010PropOp31
 70
     1
102
RTVSPost2010Prop32
280
     0
102
RTVSPost2010PropOp32
 70
     1
102
RTVSPost2010Prop33
280
     0
102
RTVSPost2010PropOp33
 70
     1
102
RTVSPost2010Prop34
280
     0
102
RTVSPost2010PropOp34
 70
     1
102
RTVSPost2010Prop35
280
     0
102
RTVSPost2010PropOp35
 70
     1
102
RTVSPost2010Prop36
280
     0
102
RTVSPost2010PropOp36
 70
     1
102
RTVSPost2010Prop37
 90
       50
102
RTVSPost2010PropOp37
 70
     1
102
RTVSPost2010Prop38
140
0.0
102
RTVSPost2010PropOp38
 70
     1
102
RTVSPost2010Prop39
140
1.0
102
RTVSPost2010PropOp39
 70
     1
102
RTVSPost2010Prop40
 90
        0
102
RTVSPost2010PropOp40
 70
     1
102
RTVSPost2010Prop41ColorIndex
 90
       18
102
RTVSPost2010Prop41ColorRGB
 90
        0
102
RTVSPost2010PropOp41
 70
     1
102
RTVSPost2010Prop42
 90
       50
102
RTVSPost2010PropOp42
 70
     1
102
RTVSPost2010Prop43
 90
        3
102
RTVSPost2010PropOp43
 70
     1
102
RTVSPost2010Prop44ColorIndex
 90
        5
102
RTVSPost2010Prop44ColorRGB
 90
      255
102
RTVSPost2010PropOp44
 70
     1
102
RTVSPost2010Prop45
280
     0
102
RTVSPost2010PropOp45
 70
     1
102
RTVSPost2010Prop46
 90
       50
102
RTVSPost2010PropOp46
 70
     1
102
RTVSPost2010Prop47
 90
       50
102
RTVSPost2010PropOp47
 70
     1
102
RTVSPost2010Prop48
 90
       50
102
RTVSPost2010PropOp48
 70
     1
102
RTVSPost2010Prop49
280
     0
102
RTVSPost2010PropOp49
 70
     1
102
RTVSPost2010Prop50
 90
       50
102
RTVSPost2010PropOp50
 70
     1
102
RTVSPost2010Prop51ColorIndex
 90
      256
102
RTVSPost2010Prop51ColorRGB
 90
-16777216
102
RTVSPost2010PropOp51
 70
     0
102
RTVSPost2010Prop52
140
1.0
102
RTVSPost2010PropOp52
 70
     0
102
RTVSPost2010Prop53
 90
        2
102
RTVSPost2010PropOp53
 70
     1
102
RTVSPost2010Prop54
  1
strokes_ogs.tif
102
RTVSPost2010PropOp54
 70
     1
102
RTVSPost2010Prop55
280
     0
102
RTVSPost2010PropOp55
 70
     1
102
RTVSPost2010Prop56
140
1.0
102
RTVSPost2010PropOp56
 70
     1
102
RTVSPost2010Prop57
140
1.0
102
RTVSPost2010PropOp57
 70
     1
  0
XRECORD
  5
170
102
{ACAD_REACTORS
330
16F
102
}
330
16F
100
AcDbXrecord
280
     1
102
RTVSPost2010Prop28
280
     0
102
RTVSPost2010PropOp28
 70
     1
102
RTVSPost2010Prop29
280
     1
102
RTVSPost2010PropOp29
 70
     1
102
RTVSPost2010Prop30
280
     1
102
RTVSPost2010PropOp30
 70
     1
102
RTVSPost2010Prop31
280
     0
102
RTVSPost2010PropOp31
 70
     1
102
RTVSPost2010Prop32
280
     0
102
RTVSPost2010PropOp32
 70
     1
102
RTVSPost2010Prop33
280
     0
102
RTVSPost2010PropOp33
 70
     1
102
RTVSPost2010Prop34
280
     0
102
RTVSPost2010PropOp34
 70
     1
102
RTVSPost2010Prop35
280
     0
102
RTVSPost2010PropOp35
 70
     1
102
RTVSPost2010Prop36
280
     0
102
RTVSPost2010PropOp36
 70
     1
102
RTVSPost2010Prop37
 90
       50
102
RTVSPost2010PropOp37
 70
     1
102
RTVSPost2010Prop38
140
0.0
102
RTVSPost2010PropOp38
 70
     1
102
RTVSPost2010Prop39
140
1.0
102
RTVSPost2010PropOp39
 70
     1
102
RTVSPost2010Prop40
 90
        0
102
RTVSPost2010PropOp40
 70
     1
102
RTVSPost2010Prop41ColorIndex
 90
       18
102
RTVSPost2010Prop41ColorRGB
 90
        0
102
RTVSPost2010PropOp41
 70
     1
102
RTVSPost2010Prop42
 90
       50
102
RTVSPost2010PropOp42
 70
     1
102
RTVSPost2010Prop43
 90
        3
102
RTVSPost2010PropOp43
 70
     1
102
RTVSPost2010Prop44ColorIndex
 90
        5
102
RTVSPost2010Prop44ColorRGB
 90
      255
102
RTVSPost2010PropOp44
 70
     1
102
RTVSPost2010Prop45
280
     0
102
RTVSPost2010PropOp45
 70
     1
102
RTVSPost2010Prop46
 90
       50
102
RTVSPost2010PropOp46
 70
     1
102
RTVSPost2010Prop47
 90
       50
102
RTVSPost2010PropOp47
 70
     1
102
RTVSPost2010Prop48
 90
       50
102
RTVSPost2010PropOp48
 70
     1
102
RTVSPost2010Prop49
280
     0
102
RTVSPost2010PropOp49
 70
     1
102
RTVSPost2010Prop50
 90
       50
102
RTVSPost2010PropOp50
 70
     1
102
RTVSPost2010Prop51ColorIndex
 90
      256
102
RTVSPost2010Prop51ColorRGB
 90
-16777216
102
RTVSPost2010PropOp51
 70
     0
102
RTVSPost2010Prop52
140
1.0
102
RTVSPost2010PropOp52
 70
     0
102
RTVSPost2010Prop53
 90
        2
102
RTVSPost2010PropOp53
 70
     1
102
RTVSPost2010Prop54
  1
strokes_ogs.tif
102
RTVSPost2010PropOp54
 70
     1
102
RTVSPost2010Prop55
280
     0
102
RTVSPost2010PropOp55
 70
     1
102
RTVSPost2010Prop56
140
1.0
102
RTVSPost2010PropOp56
 70
     1
102
RTVSPost2010Prop57
140
1.0
102
RTVSPost2010PropOp57
 70
     1
  0
XRECORD
  5
174
102
{ACAD_REACTORS
330
173
102
}
330
173
100
AcDbXrecord
280
     1
102
RTVSPost2010Prop28
280
     0
102
RTVSPost2010PropOp28
 70
     1
102
RTVSPost2010Prop29
280
     1
102
RTVSPost2010PropOp29
 70
     1
102
RTVSPost2010Prop30
280
     1
102
RTVSPost2010PropOp30
 70
     1
102
RTVSPost2010Prop31
280
     0
102
RTVSPost2010PropOp31
 70
     1
102
RTVSPost2010Prop32
280
     0
102
RTVSPost2010PropOp32
 70
     1
102
RTVSPost2010Prop33
280
     0
102
RTVSPost2010PropOp33
 70
     1
102
RTVSPost2010Prop34
280
     0
102
RTVSPost2010PropOp34
 70
     1
102
RTVSPost2010Prop35
280
     0
102
RTVSPost2010PropOp35
 70
     1
102
RTVSPost2010Prop36
280
     0
102
RTVSPost2010PropOp36
 70
     1
102
RTVSPost2010Prop37
 90
       50
102
RTVSPost2010PropOp37
 70
     1
102
RTVSPost2010Prop38
140
0.0
102
RTVSPost2010PropOp38
 70
     1
102
RTVSPost2010Prop39
140
1.0
102
RTVSPost2010PropOp39
 70
     1
102
RTVSPost2010Prop40
 90
        0
102
RTVSPost2010PropOp40
 70
     1
102
RTVSPost2010Prop41ColorIndex
 90
       18
102
RTVSPost2010Prop41ColorRGB
 90
        0
102
RTVSPost2010PropOp41
 70
     1
102
RTVSPost2010Prop42
 90
       50
102
RTVSPost2010PropOp42
 70
     1
102
RTVSPost2010Prop43
 90
        3
102
RTVSPost2010PropOp43
 70
     1
102
RTVSPost2010Prop44ColorIndex
 90
        5
102
RTVSPost2010Prop44ColorRGB
 90
      255
102
RTVSPost2010PropOp44
 70
     1
102
RTVSPost2010Prop45
280
     0
102
RTVSPost2010PropOp45
 70
     1
102
RTVSPost2010Prop46
 90
       50
102
RTVSPost2010PropOp46
 70
     1
102
RTVSPost2010Prop47
 90
       50
102
RTVSPost2010PropOp47
 70
     1
102
RTVSPost2010Prop48
 90
       50
102
RTVSPost2010PropOp48
 70
     1
102
RTVSPost2010Prop49
280
     0
102
RTVSPost2010PropOp49
 70
     1
102
RTVSPost2010Prop50
 90
       50
102
RTVSPost2010PropOp50
 70
     1
102
RTVSPost2010Prop51ColorIndex
 90
      256
102
RTVSPost2010Prop51ColorRGB
 90
-16777216
102
RTVSPost2010PropOp51
 70
     0
102
RTVSPost2010Prop52
140
1.0
102
RTVSPost2010PropOp52
 70
     0
102
RTVSPost2010Prop53
 90
        2
102
RTVSPost2010PropOp53
 70
     1
102
RTVSPost2010Prop54
  1
strokes_ogs.tif
102
RTVSPost2010PropOp54
 70
     1
102
RTVSPost2010Prop55
280
     0
102
RTVSPost2010PropOp55
 70
     1
102
RTVSPost2010Prop56
140
1.0
102
RTVSPost2010PropOp56
 70
     1
102
RTVSPost2010Prop57
140
1.0
102
RTVSPost2010PropOp57
 70
     1
  0
XRECORD
  5
18E
102
{ACAD_REACTORS
330
18D
102
}
330
18D
100
AcDbXrecord
280
     1
102
RTVSPost2010Prop28
280
     0
102
RTVSPost2010PropOp28
 70
     0
102
RTVSPost2010Prop29
280
     1
102
RTVSPost2010PropOp29
 70
     0
102
RTVSPost2010Prop30
280
     1
102
RTVSPost2010PropOp30
 70
     0
102
RTVSPost2010Prop31
280
     0
102
RTVSPost2010PropOp31
 70
     0
102
RTVSPost2010Prop32
280
     0
102
RTVSPost2010PropOp32
 70
     0
102
RTVSPost2010Prop33
280
     0
102
RTVSPost2010PropOp33
 70
     0
102
RTVSPost2010Prop34
280
     0
102
RTVSPost2010PropOp34
 70
     0
102
RTVSPost2010Prop35
280
     0
102
RTVSPost2010PropOp35
 70
     0
102
RTVSPost2010Prop36
280
     0
102
RTVSPost2010PropOp36
 70
     0
102
RTVSPost2010Prop37
 90
       50
102
RTVSPost2010PropOp37
 70
     0
102
RTVSPost2010Prop38
140
0.0
102
RTVSPost2010PropOp38
 70
     0
102
RTVSPost2010Prop39
140
1.0
102
RTVSPost2010PropOp39
 70
     0
102
RTVSPost2010Prop40
 90
        0
102
RTVSPost2010PropOp40
 70
     0
102
RTVSPost2010Prop41ColorIndex
 90
       18
102
RTVSPost2010Prop41ColorRGB
 90
        0
102
RTVSPost2010PropOp41
 70
     0
102
RTVSPost2010Prop42
 90
       50
102
RTVSPost2010PropOp42
 70
     0
102
RTVSPost2010Prop43
 90
        3
102
RTVSPost2010PropOp43
 70
     0
102
RTVSPost2010Prop44ColorIndex
 90
        5
102
RTVSPost2010Prop44ColorRGB
 90
      255
102
RTVSPost2010PropOp44
 70
     0
102
RTVSPost2010Prop45
280
     0
102
RTVSPost2010PropOp45
 70
     0
102
RTVSPost2010Prop46
 90
       50
102
RTVSPost2010PropOp46
 70
     0
102
RTVSPost2010Prop47
 90
       50
102
RTVSPost2010PropOp47
 70
     0
102
RTVSPost2010Prop48
 90
       50
102
RTVSPost2010PropOp48
 70
     0
102
RTVSPost2010Prop49
280
     0
102
RTVSPost2010PropOp49
 70
     0
102
RTVSPost2010Prop50
 90
       50
102
RTVSPost2010PropOp50
 70
     0
102
RTVSPost2010Prop51ColorIndex
 90
      256
102
RTVSPost2010Prop51ColorRGB
 90
-16777216
102
RTVSPost2010PropOp51
 70
     0
102
RTVSPost2010Prop52
140
1.0
102
RTVSPost2010PropOp52
 70
     0
102
RTVSPost2010Prop53
 90
        2
102
RTVSPost2010PropOp53
 70
     0
102
RTVSPost2010Prop54
  1
strokes_ogs.tif
102
RTVSPost2010PropOp54
 70
     0
102
RTVSPost2010Prop55
280
     0
102
RTVSPost2010PropOp55
 70
     0
102
RTVSPost2010Prop56
140
1.0
102
RTVSPost2010PropOp56
 70
     0
102
RTVSPost2010Prop57
140
1.0
102
RTVSPost2010PropOp57
 70
     0
  0
XRECORD
  5
17C
102
{ACAD_REACTORS
330
17B
102
}
330
17B
100
AcDbXrecord
280
     1
102
RTVSPost2010Prop28
280
     0
102
RTVSPost2010PropOp28
 70
     1
102
RTVSPost2010Prop29
280
     1
102
RTVSPost2010PropOp29
 70
     1
102
RTVSPost2010Prop30
280
     1
102
RTVSPost2010PropOp30
 70
     1
102
RTVSPost2010Prop31
280
     0
102
RTVSPost2010PropOp31
 70
     1
102
RTVSPost2010Prop32
280
     0
102
RTVSPost2010PropOp32
 70
     1
102
RTVSPost2010Prop33
280
     0
102
RTVSPost2010PropOp33
 70
     1
102
RTVSPost2010Prop34
280
     0
102
RTVSPost2010PropOp34
 70
     1
102
RTVSPost2010Prop35
280
     0
102
RTVSPost2010PropOp35
 70
     1
102
RTVSPost2010Prop36
280
     0
102
RTVSPost2010PropOp36
 70
     1
102
RTVSPost2010Prop37
 90
       50
102
RTVSPost2010PropOp37
 70
     1
102
RTVSPost2010Prop38
140
0.0
102
RTVSPost2010PropOp38
 70
     1
102
RTVSPost2010Prop39
140
1.0
102
RTVSPost2010PropOp39
 70
     1
102
RTVSPost2010Prop40
 90
        0
102
RTVSPost2010PropOp40
 70
     1
102
RTVSPost2010Prop41ColorIndex
 90
       18
102
RTVSPost2010Prop41ColorRGB
 90
        0
102
RTVSPost2010PropOp41
 70
     1
102
RTVSPost2010Prop42
 90
       50
102
RTVSPost2010PropOp42
 70
     1
102
RTVSPost2010Prop43
 90
        3
102
RTVSPost2010PropOp43
 70
     1
102
RTVSPost2010Prop44ColorIndex
 90
        5
102
RTVSPost2010Prop44ColorRGB
 90
      255
102
RTVSPost2010PropOp44
 70
     1
102
RTVSPost2010Prop45
280
     0
102
RTVSPost2010PropOp45
 70
     1
102
RTVSPost2010Prop46
 90
       50
102
RTVSPost2010PropOp46
 70
     1
102
RTVSPost2010Prop47
 90
       50
102
RTVSPost2010PropOp47
 70
     1
102
RTVSPost2010Prop48
 90
       50
102
RTVSPost2010PropOp48
 70
     1
102
RTVSPost2010Prop49
280
     0
102
RTVSPost2010PropOp49
 70
     1
102
RTVSPost2010Prop50
 90
       50
102
RTVSPost2010PropOp50
 70
     1
102
RTVSPost2010Prop51ColorIndex
 90
      256
102
RTVSPost2010Prop51ColorRGB
 90
-16777216
102
RTVSPost2010PropOp51
 70
     0
102
RTVSPost2010Prop52
140
1.0
102
RTVSPost2010PropOp52
 70
     0
102
RTVSPost2010Prop53
 90
        2
102
RTVSPost2010PropOp53
 70
     1
102
RTVSPost2010Prop54
  1
strokes_ogs.tif
102
RTVSPost2010PropOp54
 70
     1
102
RTVSPost2010Prop55
280
     0
102
RTVSPost2010PropOp55
 70
     1
102
RTVSPost2010Prop56
140
1.0
102
RTVSPost2010PropOp56
 70
     1
102
RTVSPost2010Prop57
140
1.0
102
RTVSPost2010PropOp57
 70
     1
  0
XRECORD
  5
160
102
{ACAD_REACTORS
330
15F
102
}
330
15F
100
AcDbXrecord
280
     1
102
RTVSPost2010Prop28
280
     0
102
RTVSPost2010PropOp28
 70
     1
102
RTVSPost2010Prop29
280
     1
102
RTVSPost2010PropOp29
 70
     1
102
RTVSPost2010Prop30
280
     1
102
RTVSPost2010PropOp30
 70
     1
102
RTVSPost2010Prop31
280
     0
102
RTVSPost2010PropOp31
 70
     1
102
RTVSPost2010Prop32
280
     0
102
RTVSPost2010PropOp32
 70
     1
102
RTVSPost2010Prop33
280
     0
102
RTVSPost2010PropOp33
 70
     1
102
RTVSPost2010Prop34
280
     0
102
RTVSPost2010PropOp34
 70
     1
102
RTVSPost2010Prop35
280
     0
102
RTVSPost2010PropOp35
 70
     1
102
RTVSPost2010Prop36
280
     0
102
RTVSPost2010PropOp36
 70
     1
102
RTVSPost2010Prop37
 90
       50
102
RTVSPost2010PropOp37
 70
     1
102
RTVSPost2010Prop38
140
0.0
102
RTVSPost2010PropOp38
 70
     1
102
RTVSPost2010Prop39
140
1.0
102
RTVSPost2010PropOp39
 70
     1
102
RTVSPost2010Prop40
 90
        0
102
RTVSPost2010PropOp40
 70
     1
102
RTVSPost2010Prop41ColorIndex
 90
       18
102
RTVSPost2010Prop41ColorRGB
 90
        0
102
RTVSPost2010PropOp41
 70
     1
102
RTVSPost2010Prop42
 90
       50
102
RTVSPost2010PropOp42
 70
     1
102
RTVSPost2010Prop43
 90
        3
102
RTVSPost2010PropOp43
 70
     1
102
RTVSPost2010Prop44ColorIndex
 90
        5
102
RTVSPost2010Prop44ColorRGB
 90
      255
102
RTVSPost2010PropOp44
 70
     1
102
RTVSPost2010Prop45
280
     0
102
RTVSPost2010PropOp45
 70
     1
102
RTVSPost2010Prop46
 90
       50
102
RTVSPost2010PropOp46
 70
     1
102
RTVSPost2010Prop47
 90
       50
102
RTVSPost2010PropOp47
 70
     1
102
RTVSPost2010Prop48
 90
       50
102
RTVSPost2010PropOp48
 70
     1
102
RTVSPost2010Prop49
280
     0
102
RTVSPost2010PropOp49
 70
     1
102
RTVSPost2010Prop50
 90
       50
102
RTVSPost2010PropOp50
 70
     1
102
RTVSPost2010Prop51ColorIndex
 90
      256
102
RTVSPost2010Prop51ColorRGB
 90
-16777216
102
RTVSPost2010PropOp51
 70
     0
102
RTVSPost2010Prop52
140
1.0
102
RTVSPost2010PropOp52
 70
     0
102
RTVSPost2010Prop53
 90
        2
102
RTVSPost2010PropOp53
 70
     1
102
RTVSPost2010Prop54
  1
strokes_ogs.tif
102
RTVSPost2010PropOp54
 70
     1
102
RTVSPost2010Prop55
280
     0
102
RTVSPost2010PropOp55
 70
     1
102
RTVSPost2010Prop56
140
1.0
102
RTVSPost2010PropOp56
 70
     1
102
RTVSPost2010Prop57
140
1.0
102
RTVSPost2010PropOp57
 70
     1
  0
XRECORD
  5
162
102
{ACAD_REACTORS
330
161
102
}
330
161
100
AcDbXrecord
280
     1
102
RTVSPost2010Prop28
280
     0
102
RTVSPost2010PropOp28
 70
     1
102
RTVSPost2010Prop29
280
     1
102
RTVSPost2010PropOp29
 70
     1
102
RTVSPost2010Prop30
280
     1
102
RTVSPost2010PropOp30
 70
     1
102
RTVSPost2010Prop31
280
     0
102
RTVSPost2010PropOp31
 70
     1
102
RTVSPost2010Prop32
280
     0
102
RTVSPost2010PropOp32
 70
     1
102
RTVSPost2010Prop33
280
     0
102
RTVSPost2010PropOp33
 70
     1
102
RTVSPost2010Prop34
280
     0
102
RTVSPost2010PropOp34
 70
     1
102
RTVSPost2010Prop35
280
     0
102
RTVSPost2010PropOp35
 70
     1
102
RTVSPost2010Prop36
280
     0
102
RTVSPost2010PropOp36
 70
     1
102
RTVSPost2010Prop37
 90
       50
102
RTVSPost2010PropOp37
 70
     1
102
RTVSPost2010Prop38
140
0.0
102
RTVSPost2010PropOp38
 70
     1
102
RTVSPost2010Prop39
140
1.0
102
RTVSPost2010PropOp39
 70
     1
102
RTVSPost2010Prop40
 90
        0
102
RTVSPost2010PropOp40
 70
     1
102
RTVSPost2010Prop41ColorIndex
 90
       18
102
RTVSPost2010Prop41ColorRGB
 90
        0
102
RTVSPost2010PropOp41
 70
     1
102
RTVSPost2010Prop42
 90
       50
102
RTVSPost2010PropOp42
 70
     1
102
RTVSPost2010Prop43
 90
        3
102
RTVSPost2010PropOp43
 70
     1
102
RTVSPost2010Prop44ColorIndex
 90
        5
102
RTVSPost2010Prop44ColorRGB
 90
      255
102
RTVSPost2010PropOp44
 70
     1
102
RTVSPost2010Prop45
280
     0
102
RTVSPost2010PropOp45
 70
     1
102
RTVSPost2010Prop46
 90
       50
102
RTVSPost2010PropOp46
 70
     1
102
RTVSPost2010Prop47
 90
       50
102
RTVSPost2010PropOp47
 70
     1
102
RTVSPost2010Prop48
 90
       50
102
RTVSPost2010PropOp48
 70
     1
102
RTVSPost2010Prop49
280
     0
102
RTVSPost2010PropOp49
 70
     1
102
RTVSPost2010Prop50
 90
       50
102
RTVSPost2010PropOp50
 70
     1
102
RTVSPost2010Prop51ColorIndex
 90
      256
102
RTVSPost2010Prop51ColorRGB
 90
-16777216
102
RTVSPost2010PropOp51
 70
     0
102
RTVSPost2010Prop52
140
1.0
102
RTVSPost2010PropOp52
 70
     0
102
RTVSPost2010Prop53
 90
        2
102
RTVSPost2010PropOp53
 70
     1
102
RTVSPost2010Prop54
  1
strokes_ogs.tif
102
RTVSPost2010PropOp54
 70
     1
102
RTVSPost2010Prop55
280
     0
102
RTVSPost2010PropOp55
 70
     1
102
RTVSPost2010Prop56
140
1.0
102
RTVSPost2010PropOp56
 70
     1
102
RTVSPost2010Prop57
140
1.0
102
RTVSPost2010PropOp57
 70
     1
  0
XRECORD
  5
164
102
{ACAD_REACTORS
330
163
102
}
330
163
100
AcDbXrecord
280
     1
102
RTVSPost2010Prop28
280
     0
102
RTVSPost2010PropOp28
 70
     1
102
RTVSPost2010Prop29
280
     1
102
RTVSPost2010PropOp29
 70
     1
102
RTVSPost2010Prop30
280
     1
102
RTVSPost2010PropOp30
 70
     1
102
RTVSPost2010Prop31
280
     0
102
RTVSPost2010PropOp31
 70
     1
102
RTVSPost2010Prop32
280
     0
102
RTVSPost2010PropOp32
 70
     1
102
RTVSPost2010Prop33
280
     0
102
RTVSPost2010PropOp33
 70
     1
102
RTVSPost2010Prop34
280
     0
102
RTVSPost2010PropOp34
 70
     1
102
RTVSPost2010Prop35
280
     0
102
RTVSPost2010PropOp35
 70
     1
102
RTVSPost2010Prop36
280
     0
102
RTVSPost2010PropOp36
 70
     1
102
RTVSPost2010Prop37
 90
       50
102
RTVSPost2010PropOp37
 70
     1
102
RTVSPost2010Prop38
140
0.0
102
RTVSPost2010PropOp38
 70
     1
102
RTVSPost2010Prop39
140
1.0
102
RTVSPost2010PropOp39
 70
     1
102
RTVSPost2010Prop40
 90
        0
102
RTVSPost2010PropOp40
 70
     1
102
RTVSPost2010Prop41ColorIndex
 90
       18
102
RTVSPost2010Prop41ColorRGB
 90
        0
102
RTVSPost2010PropOp41
 70
     1
102
RTVSPost2010Prop42
 90
       50
102
RTVSPost2010PropOp42
 70
     1
102
RTVSPost2010Prop43
 90
        3
102
RTVSPost2010PropOp43
 70
     1
102
RTVSPost2010Prop44ColorIndex
 90
        5
102
RTVSPost2010Prop44ColorRGB
 90
      255
102
RTVSPost2010PropOp44
 70
     1
102
RTVSPost2010Prop45
280
     0
102
RTVSPost2010PropOp45
 70
     1
102
RTVSPost2010Prop46
 90
       50
102
RTVSPost2010PropOp46
 70
     1
102
RTVSPost2010Prop47
 90
       50
102
RTVSPost2010PropOp47
 70
     1
102
RTVSPost2010Prop48
 90
       50
102
RTVSPost2010PropOp48
 70
     1
102
RTVSPost2010Prop49
280
     0
102
RTVSPost2010PropOp49
 70
     1
102
RTVSPost2010Prop50
 90
       50
102
RTVSPost2010PropOp50
 70
     1
102
RTVSPost2010Prop51ColorIndex
 90
      256
102
RTVSPost2010Prop51ColorRGB
 90
-16777216
102
RTVSPost2010PropOp51
 70
     0
102
RTVSPost2010Prop52
140
1.0
102
RTVSPost2010PropOp52
 70
     0
102
RTVSPost2010Prop53
 90
        2
102
RTVSPost2010PropOp53
 70
     1
102
RTVSPost2010Prop54
  1
strokes_ogs.tif
102
RTVSPost2010PropOp54
 70
     1
102
RTVSPost2010Prop55
280
     0
102
RTVSPost2010PropOp55
 70
     1
102
RTVSPost2010Prop56
140
1.0
102
RTVSPost2010PropOp56
 70
     1
102
RTVSPost2010Prop57
140
1.0
102
RTVSPost2010PropOp57
 70
     1
  0
XRECORD
  5
166
102
{ACAD_REACTORS
330
165
102
}
330
165
100
AcDbXrecord
280
     1
102
RTVSPost2010Prop28
280
     0
102
RTVSPost2010PropOp28
 70
     1
102
RTVSPost2010Prop29
280
     1
102
RTVSPost2010PropOp29
 70
     1
102
RTVSPost2010Prop30
280
     1
102
RTVSPost2010PropOp30
 70
     1
102
RTVSPost2010Prop31
280
     0
102
RTVSPost2010PropOp31
 70
     1
102
RTVSPost2010Prop32
280
     0
102
RTVSPost2010PropOp32
 70
     1
102
RTVSPost2010Prop33
280
     0
102
RTVSPost2010PropOp33
 70
     1
102
RTVSPost2010Prop34
280
     0
102
RTVSPost2010PropOp34
 70
     1
102
RTVSPost2010Prop35
280
     0
102
RTVSPost2010PropOp35
 70
     1
102
RTVSPost2010Prop36
280
     0
102
RTVSPost2010PropOp36
 70
     1
102
RTVSPost2010Prop37
 90
       50
102
RTVSPost2010PropOp37
 70
     1
102
RTVSPost2010Prop38
140
0.0
102
RTVSPost2010PropOp38
 70
     1
102
RTVSPost2010Prop39
140
1.0
102
RTVSPost2010PropOp39
 70
     1
102
RTVSPost2010Prop40
 90
        0
102
RTVSPost2010PropOp40
 70
     1
102
RTVSPost2010Prop41ColorIndex
 90
       18
102
RTVSPost2010Prop41ColorRGB
 90
        0
102
RTVSPost2010PropOp41
 70
     1
102
RTVSPost2010Prop42
 90
       50
102
RTVSPost2010PropOp42
 70
     1
102
RTVSPost2010Prop43
 90
        3
102
RTVSPost2010PropOp43
 70
     1
102
RTVSPost2010Prop44ColorIndex
 90
        5
102
RTVSPost2010Prop44ColorRGB
 90
      255
102
RTVSPost2010PropOp44
 70
     1
102
RTVSPost2010Prop45
280
     0
102
RTVSPost2010PropOp45
 70
     1
102
RTVSPost2010Prop46
 90
       50
102
RTVSPost2010PropOp46
 70
     1
102
RTVSPost2010Prop47
 90
       50
102
RTVSPost2010PropOp47
 70
     1
102
RTVSPost2010Prop48
 90
       50
102
RTVSPost2010PropOp48
 70
     1
102
RTVSPost2010Prop49
280
     0
102
RTVSPost2010PropOp49
 70
     1
102
RTVSPost2010Prop50
 90
       50
102
RTVSPost2010PropOp50
 70
     1
102
RTVSPost2010Prop51ColorIndex
 90
      256
102
RTVSPost2010Prop51ColorRGB
 90
-16777216
102
RTVSPost2010PropOp51
 70
     0
102
RTVSPost2010Prop52
140
1.0
102
RTVSPost2010PropOp52
 70
     0
102
RTVSPost2010Prop53
 90
        2
102
RTVSPost2010PropOp53
 70
     1
102
RTVSPost2010Prop54
  1
strokes_ogs.tif
102
RTVSPost2010PropOp54
 70
     1
102
RTVSPost2010Prop55
280
     0
102
RTVSPost2010PropOp55
 70
     1
102
RTVSPost2010Prop56
140
1.0
102
RTVSPost2010PropOp56
 70
     1
102
RTVSPost2010Prop57
140
1.0
102
RTVSPost2010PropOp57
 70
     1
  0
XRECORD
  5
16E
102
{ACAD_REACTORS
330
16D
102
}
330
16D
100
AcDbXrecord
280
     1
102
RTVSPost2010Prop28
280
     0
102
RTVSPost2010PropOp28
 70
     1
102
RTVSPost2010Prop29
280
     1
102
RTVSPost2010PropOp29
 70
     1
102
RTVSPost2010Prop30
280
     1
102
RTVSPost2010PropOp30
 70
     1
102
RTVSPost2010Prop31
280
     0
102
RTVSPost2010PropOp31
 70
     1
102
RTVSPost2010Prop32
280
     0
102
RTVSPost2010PropOp32
 70
     1
102
RTVSPost2010Prop33
280
     0
102
RTVSPost2010PropOp33
 70
     1
102
RTVSPost2010Prop34
280
     0
102
RTVSPost2010PropOp34
 70
     1
102
RTVSPost2010Prop35
280
     0
102
RTVSPost2010PropOp35
 70
     1
102
RTVSPost2010Prop36
280
     0
102
RTVSPost2010PropOp36
 70
     1
102
RTVSPost2010Prop37
 90
       50
102
RTVSPost2010PropOp37
 70
     1
102
RTVSPost2010Prop38
140
0.0
102
RTVSPost2010PropOp38
 70
     1
102
RTVSPost2010Prop39
140
1.0
102
RTVSPost2010PropOp39
 70
     1
102
RTVSPost2010Prop40
 90
        0
102
RTVSPost2010PropOp40
 70
     1
102
RTVSPost2010Prop41ColorIndex
 90
       18
102
RTVSPost2010Prop41ColorRGB
 90
        0
102
RTVSPost2010PropOp41
 70
     1
102
RTVSPost2010Prop42
 90
       50
102
RTVSPost2010PropOp42
 70
     1
102
RTVSPost2010Prop43
 90
        3
102
RTVSPost2010PropOp43
 70
     1
102
RTVSPost2010Prop44ColorIndex
 90
        5
102
RTVSPost2010Prop44ColorRGB
 90
      255
102
RTVSPost2010PropOp44
 70
     1
102
RTVSPost2010Prop45
280
     0
102
RTVSPost2010PropOp45
 70
     1
102
RTVSPost2010Prop46
 90
       50
102
RTVSPost2010PropOp46
 70
     1
102
RTVSPost2010Prop47
 90
       50
102
RTVSPost2010PropOp47
 70
     1
102
RTVSPost2010Prop48
 90
       50
102
RTVSPost2010PropOp48
 70
     1
102
RTVSPost2010Prop49
280
     0
102
RTVSPost2010PropOp49
 70
     1
102
RTVSPost2010Prop50
 90
       50
102
RTVSPost2010PropOp50
 70
     1
102
RTVSPost2010Prop51ColorIndex
 90
      256
102
RTVSPost2010Prop51ColorRGB
 90
-16777216
102
RTVSPost2010PropOp51
 70
     0
102
RTVSPost2010Prop52
140
1.0
102
RTVSPost2010PropOp52
 70
     0
102
RTVSPost2010Prop53
 90
        2
102
RTVSPost2010PropOp53
 70
     1
102
RTVSPost2010Prop54
  1
strokes_ogs.tif
102
RTVSPost2010PropOp54
 70
     1
102
RTVSPost2010Prop55
280
     0
102
RTVSPost2010PropOp55
 70
     1
102
RTVSPost2010Prop56
140
1.0
102
RTVSPost2010PropOp56
 70
     1
102
RTVSPost2010Prop57
140
1.0
102
RTVSPost2010PropOp57
 70
     1
  0
XRECORD
  5
18A
102
{ACAD_REACTORS
330
189
102
}
330
189
100
AcDbXrecord
280
     1
102
RTVSPost2010Prop28
280
     0
102
RTVSPost2010PropOp28
 70
     0
102
RTVSPost2010Prop29
280
     1
102
RTVSPost2010PropOp29
 70
     0
102
RTVSPost2010Prop30
280
     1
102
RTVSPost2010PropOp30
 70
     0
102
RTVSPost2010Prop31
280
     0
102
RTVSPost2010PropOp31
 70
     0
102
RTVSPost2010Prop32
280
     0
102
RTVSPost2010PropOp32
 70
     0
102
RTVSPost2010Prop33
280
     0
102
RTVSPost2010PropOp33
 70
     0
102
RTVSPost2010Prop34
280
     0
102
RTVSPost2010PropOp34
 70
     0
102
RTVSPost2010Prop35
280
     0
102
RTVSPost2010PropOp35
 70
     0
102
RTVSPost2010Prop36
280
     0
102
RTVSPost2010PropOp36
 70
     0
102
RTVSPost2010Prop37
 90
       50
102
RTVSPost2010PropOp37
 70
     0
102
RTVSPost2010Prop38
140
0.0
102
RTVSPost2010PropOp38
 70
     0
102
RTVSPost2010Prop39
140
1.0
102
RTVSPost2010PropOp39
 70
     0
102
RTVSPost2010Prop40
 90
        0
102
RTVSPost2010PropOp40
 70
     0
102
RTVSPost2010Prop41ColorIndex
 90
       18
102
RTVSPost2010Prop41ColorRGB
 90
        0
102
RTVSPost2010PropOp41
 70
     0
102
RTVSPost2010Prop42
 90
       50
102
RTVSPost2010PropOp42
 70
     0
102
RTVSPost2010Prop43
 90
        3
102
RTVSPost2010PropOp43
 70
     0
102
RTVSPost2010Prop44ColorIndex
 90
        5
102
RTVSPost2010Prop44ColorRGB
 90
      255
102
RTVSPost2010PropOp44
 70
     0
102
RTVSPost2010Prop45
280
     0
102
RTVSPost2010PropOp45
 70
     0
102
RTVSPost2010Prop46
 90
       50
102
RTVSPost2010PropOp46
 70
     0
102
RTVSPost2010Prop47
 90
       50
102
RTVSPost2010PropOp47
 70
     0
102
RTVSPost2010Prop48
 90
       50
102
RTVSPost2010PropOp48
 70
     0
102
RTVSPost2010Prop49
280
     0
102
RTVSPost2010PropOp49
 70
     0
102
RTVSPost2010Prop50
 90
       50
102
RTVSPost2010PropOp50
 70
     0
102
RTVSPost2010Prop51ColorIndex
 90
      256
102
RTVSPost2010Prop51ColorRGB
 90
-16777216
102
RTVSPost2010PropOp51
 70
     0
102
RTVSPost2010Prop52
140
1.0
102
RTVSPost2010PropOp52
 70
     0
102
RTVSPost2010Prop53
 90
        2
102
RTVSPost2010PropOp53
 70
     0
102
RTVSPost2010Prop54
  1
strokes_ogs.tif
102
RTVSPost2010PropOp54
 70
     0
102
RTVSPost2010Prop55
280
     0
102
RTVSPost2010PropOp55
 70
     0
102
RTVSPost2010Prop56
140
1.0
102
RTVSPost2010PropOp56
 70
     0
102
RTVSPost2010Prop57
140
1.0
102
RTVSPost2010PropOp57
 70
     0
  0
XRECORD
  5
17A
102
{ACAD_REACTORS
330
179
102
}
330
179
100
AcDbXrecord
280
     1
102
RTVSPost2010Prop28
280
     0
102
RTVSPost2010PropOp28
 70
     1
102
RTVSPost2010Prop29
280
     1
102
RTVSPost2010PropOp29
 70
     1
102
RTVSPost2010Prop30
280
     1
102
RTVSPost2010PropOp30
 70
     1
102
RTVSPost2010Prop31
280
     0
102
RTVSPost2010PropOp31
 70
     1
102
RTVSPost2010Prop32
280
     0
102
RTVSPost2010PropOp32
 70
     1
102
RTVSPost2010Prop33
280
     0
102
RTVSPost2010PropOp33
 70
     1
102
RTVSPost2010Prop34
280
     0
102
RTVSPost2010PropOp34
 70
     1
102
RTVSPost2010Prop35
280
     0
102
RTVSPost2010PropOp35
 70
     1
102
RTVSPost2010Prop36
280
     0
102
RTVSPost2010PropOp36
 70
     1
102
RTVSPost2010Prop37
 90
       50
102
RTVSPost2010PropOp37
 70
     1
102
RTVSPost2010Prop38
140
0.0
102
RTVSPost2010PropOp38
 70
     1
102
RTVSPost2010Prop39
140
1.0
102
RTVSPost2010PropOp39
 70
     1
102
RTVSPost2010Prop40
 90
        0
102
RTVSPost2010PropOp40
 70
     1
102
RTVSPost2010Prop41ColorIndex
 90
       18
102
RTVSPost2010Prop41ColorRGB
 90
        0
102
RTVSPost2010PropOp41
 70
     1
102
RTVSPost2010Prop42
 90
       50
102
RTVSPost2010PropOp42
 70
     1
102
RTVSPost2010Prop43
 90
        3
102
RTVSPost2010PropOp43
 70
     1
102
RTVSPost2010Prop44ColorIndex
 90
        5
102
RTVSPost2010Prop44ColorRGB
 90
      255
102
RTVSPost2010PropOp44
 70
     1
102
RTVSPost2010Prop45
280
     0
102
RTVSPost2010PropOp45
 70
     1
102
RTVSPost2010Prop46
 90
       50
102
RTVSPost2010PropOp46
 70
     1
102
RTVSPost2010Prop47
 90
       50
102
RTVSPost2010PropOp47
 70
     1
102
RTVSPost2010Prop48
 90
       50
102
RTVSPost2010PropOp48
 70
     1
102
RTVSPost2010Prop49
280
     0
102
RTVSPost2010PropOp49
 70
     1
102
RTVSPost2010Prop50
 90
       50
102
RTVSPost2010PropOp50
 70
     1
102
RTVSPost2010Prop51ColorIndex
 90
      256
102
RTVSPost2010Prop51ColorRGB
 90
-16777216
102
RTVSPost2010PropOp51
 70
     0
102
RTVSPost2010Prop52
140
1.0
102
RTVSPost2010PropOp52
 70
     0
102
RTVSPost2010Prop53
 90
        2
102
RTVSPost2010PropOp53
 70
     1
102
RTVSPost2010Prop54
  1
strokes_ogs.tif
102
RTVSPost2010PropOp54
 70
     1
102
RTVSPost2010Prop55
280
     0
102
RTVSPost2010PropOp55
 70
     1
102
RTVSPost2010Prop56
140
1.0
102
RTVSPost2010PropOp56
 70
     1
102
RTVSPost2010Prop57
140
1.0
102
RTVSPost2010PropOp57
 70
     1
  0
XRECORD
  5
18C
102
{ACAD_REACTORS
330
18B
102
}
330
18B
100
AcDbXrecord
280
     1
102
RTVSPost2010Prop28
280
     0
102
RTVSPost2010PropOp28
 70
     0
102
RTVSPost2010Prop29
280
     1
102
RTVSPost2010PropOp29
 70
     0
102
RTVSPost2010Prop30
280
     1
102
RTVSPost2010PropOp30
 70
     0
102
RTVSPost2010Prop31
280
     0
102
RTVSPost2010PropOp31
 70
     0
102
RTVSPost2010Prop32
280
     0
102
RTVSPost2010PropOp32
 70
     0
102
RTVSPost2010Prop33
280
     0
102
RTVSPost2010PropOp33
 70
     0
102
RTVSPost2010Prop34
280
     0
102
RTVSPost2010PropOp34
 70
     0
102
RTVSPost2010Prop35
280
     0
102
RTVSPost2010PropOp35
 70
     0
102
RTVSPost2010Prop36
280
     0
102
RTVSPost2010PropOp36
 70
     0
102
RTVSPost2010Prop37
 90
       50
102
RTVSPost2010PropOp37
 70
     0
102
RTVSPost2010Prop38
140
0.0
102
RTVSPost2010PropOp38
 70
     0
102
RTVSPost2010Prop39
140
1.0
102
RTVSPost2010PropOp39
 70
     0
102
RTVSPost2010Prop40
 90
        0
102
RTVSPost2010PropOp40
 70
     0
102
RTVSPost2010Prop41ColorIndex
 90
       18
102
RTVSPost2010Prop41ColorRGB
 90
        0
102
RTVSPost2010PropOp41
 70
     0
102
RTVSPost2010Prop42
 90
       50
102
RTVSPost2010PropOp42
 70
     0
102
RTVSPost2010Prop43
 90
        3
102
RTVSPost2010PropOp43
 70
     0
102
RTVSPost2010Prop44ColorIndex
 90
        5
102
RTVSPost2010Prop44ColorRGB
 90
      255
102
RTVSPost2010PropOp44
 70
     0
102
RTVSPost2010Prop45
280
     0
102
RTVSPost2010PropOp45
 70
     0
102
RTVSPost2010Prop46
 90
       50
102
RTVSPost2010PropOp46
 70
     0
102
RTVSPost2010Prop47
 90
       50
102
RTVSPost2010PropOp47
 70
     0
102
RTVSPost2010Prop48
 90
       50
102
RTVSPost2010PropOp48
 70
     0
102
RTVSPost2010Prop49
280
     0
102
RTVSPost2010PropOp49
 70
     0
102
RTVSPost2010Prop50
 90
       50
102
RTVSPost2010PropOp50
 70
     0
102
RTVSPost2010Prop51ColorIndex
 90
      256
102
RTVSPost2010Prop51ColorRGB
 90
-16777216
102
RTVSPost2010PropOp51
 70
     0
102
RTVSPost2010Prop52
140
1.0
102
RTVSPost2010PropOp52
 70
     0
102
RTVSPost2010Prop53
 90
        2
102
RTVSPost2010PropOp53
 70
     0
102
RTVSPost2010Prop54
  1
strokes_ogs.tif
102
RTVSPost2010PropOp54
 70
     0
102
RTVSPost2010Prop55
280
     0
102
RTVSPost2010PropOp55
 70
     0
102
RTVSPost2010Prop56
140
1.0
102
RTVSPost2010PropOp56
 70
     0
102
RTVSPost2010Prop57
140
1.0
102
RTVSPost2010PropOp57
 70
     0
  0
XRECORD
  5
172
102
{ACAD_REACTORS
330
171
102
}
330
171
100
AcDbXrecord
280
     1
102
RTVSPost2010Prop28
280
     0
102
RTVSPost2010PropOp28
 70
     1
102
RTVSPost2010Prop29
280
     1
102
RTVSPost2010PropOp29
 70
     1
102
RTVSPost2010Prop30
280
     1
102
RTVSPost2010PropOp30
 70
     1
102
RTVSPost2010Prop31
280
     0
102
RTVSPost2010PropOp31
 70
     1
102
RTVSPost2010Prop32
280
     0
102
RTVSPost2010PropOp32
 70
     1
102
RTVSPost2010Prop33
280
     0
102
RTVSPost2010PropOp33
 70
     1
102
RTVSPost2010Prop34
280
     0
102
RTVSPost2010PropOp34
 70
     1
102
RTVSPost2010Prop35
280
     0
102
RTVSPost2010PropOp35
 70
     1
102
RTVSPost2010Prop36
280
     0
102
RTVSPost2010PropOp36
 70
     1
102
RTVSPost2010Prop37
 90
       50
102
RTVSPost2010PropOp37
 70
     1
102
RTVSPost2010Prop38
140
0.0
102
RTVSPost2010PropOp38
 70
     1
102
RTVSPost2010Prop39
140
1.0
102
RTVSPost2010PropOp39
 70
     1
102
RTVSPost2010Prop40
 90
        0
102
RTVSPost2010PropOp40
 70
     1
102
RTVSPost2010Prop41ColorIndex
 90
       18
102
RTVSPost2010Prop41ColorRGB
 90
        0
102
RTVSPost2010PropOp41
 70
     1
102
RTVSPost2010Prop42
 90
       50
102
RTVSPost2010PropOp42
 70
     1
102
RTVSPost2010Prop43
 90
        3
102
RTVSPost2010PropOp43
 70
     1
102
RTVSPost2010Prop44ColorIndex
 90
        5
102
RTVSPost2010Prop44ColorRGB
 90
      255
102
RTVSPost2010PropOp44
 70
     1
102
RTVSPost2010Prop45
280
     0
102
RTVSPost2010PropOp45
 70
     1
102
RTVSPost2010Prop46
 90
       50
102
RTVSPost2010PropOp46
 70
     1
102
RTVSPost2010Prop47
 90
       50
102
RTVSPost2010PropOp47
 70
     1
102
RTVSPost2010Prop48
 90
       50
102
RTVSPost2010PropOp48
 70
     1
102
RTVSPost2010Prop49
280
     0
102
RTVSPost2010PropOp49
 70
     1
102
RTVSPost2010Prop50
 90
       50
102
RTVSPost2010PropOp50
 70
     1
102
RTVSPost2010Prop51ColorIndex
 90
      256
102
RTVSPost2010Prop51ColorRGB
 90
-16777216
102
RTVSPost2010PropOp51
 70
     0
102
RTVSPost2010Prop52
140
1.0
102
RTVSPost2010PropOp52
 70
     0
102
RTVSPost2010Prop53
 90
        2
102
RTVSPost2010PropOp53
 70
     1
102
RTVSPost2010Prop54
  1
strokes_ogs.tif
102
RTVSPost2010PropOp54
 70
     1
102
RTVSPost2010Prop55
280
     0
102
RTVSPost2010PropOp55
 70
     1
102
RTVSPost2010Prop56
140
1.0
102
RTVSPost2010PropOp56
 70
     1
102
RTVSPost2010Prop57
140
1.0
102
RTVSPost2010PropOp57
 70
     1
  0
XRECORD
  5
188
102
{ACAD_REACTORS
330
187
102
}
330
187
100
AcDbXrecord
280
     1
102
RTVSPost2010Prop28
280
     0
102
RTVSPost2010PropOp28
 70
     1
102
RTVSPost2010Prop29
280
     1
102
RTVSPost2010PropOp29
 70
     1
102
RTVSPost2010Prop30
280
     1
102
RTVSPost2010PropOp30
 70
     1
102
RTVSPost2010Prop31
280
     0
102
RTVSPost2010PropOp31
 70
     1
102
RTVSPost2010Prop32
280
     0
102
RTVSPost2010PropOp32
 70
     1
102
RTVSPost2010Prop33
280
     0
102
RTVSPost2010PropOp33
 70
     1
102
RTVSPost2010Prop34
280
     0
102
RTVSPost2010PropOp34
 70
     1
102
RTVSPost2010Prop35
280
     0
102
RTVSPost2010PropOp35
 70
     1
102
RTVSPost2010Prop36
280
     0
102
RTVSPost2010PropOp36
 70
     1
102
RTVSPost2010Prop37
 90
       50
102
RTVSPost2010PropOp37
 70
     1
102
RTVSPost2010Prop38
140
0.0
102
RTVSPost2010PropOp38
 70
     1
102
RTVSPost2010Prop39
140
1.0
102
RTVSPost2010PropOp39
 70
     1
102
RTVSPost2010Prop40
 90
        0
102
RTVSPost2010PropOp40
 70
     1
102
RTVSPost2010Prop41ColorIndex
 90
       18
102
RTVSPost2010Prop41ColorRGB
 90
        0
102
RTVSPost2010PropOp41
 70
     1
102
RTVSPost2010Prop42
 90
       50
102
RTVSPost2010PropOp42
 70
     1
102
RTVSPost2010Prop43
 90
        3
102
RTVSPost2010PropOp43
 70
     1
102
RTVSPost2010Prop44ColorIndex
 90
        5
102
RTVSPost2010Prop44ColorRGB
 90
      255
102
RTVSPost2010PropOp44
 70
     1
102
RTVSPost2010Prop45
280
     0
102
RTVSPost2010PropOp45
 70
     1
102
RTVSPost2010Prop46
 90
       50
102
RTVSPost2010PropOp46
 70
     1
102
RTVSPost2010Prop47
 90
       50
102
RTVSPost2010PropOp47
 70
     1
102
RTVSPost2010Prop48
 90
       50
102
RTVSPost2010PropOp48
 70
     1
102
RTVSPost2010Prop49
280
     0
102
RTVSPost2010PropOp49
 70
     1
102
RTVSPost2010Prop50
 90
       50
102
RTVSPost2010PropOp50
 70
     1
102
RTVSPost2010Prop51ColorIndex
 90
      256
102
RTVSPost2010Prop51ColorRGB
 90
-16777216
102
RTVSPost2010PropOp51
 70
     0
102
RTVSPost2010Prop52
140
1.0
102
RTVSPost2010PropOp52
 70
     0
102
RTVSPost2010Prop53
 90
        2
102
RTVSPost2010PropOp53
 70
     1
102
RTVSPost2010Prop54
  1
strokes_ogs.tif
102
RTVSPost2010PropOp54
 70
     1
102
RTVSPost2010Prop55
280
     0
102
RTVSPost2010PropOp55
 70
     1
102
RTVSPost2010Prop56
140
1.0
102
RTVSPost2010PropOp56
 70
     1
102
RTVSPost2010Prop57
140
1.0
102
RTVSPost2010PropOp57
 70
     1
  0
XRECORD
  5
186
102
{ACAD_REACTORS
330
185
102
}
330
185
100
AcDbXrecord
280
     1
102
RTVSPost2010Prop28
280
     0
102
RTVSPost2010PropOp28
 70
     1
102
RTVSPost2010Prop29
280
     1
102
RTVSPost2010PropOp29
 70
     1
102
RTVSPost2010Prop30
280
     1
102
RTVSPost2010PropOp30
 70
     1
102
RTVSPost2010Prop31
280
     0
102
RTVSPost2010PropOp31
 70
     1
102
RTVSPost2010Prop32
280
     0
102
RTVSPost2010PropOp32
 70
     1
102
RTVSPost2010Prop33
280
     0
102
RTVSPost2010PropOp33
 70
     1
102
RTVSPost2010Prop34
280
     0
102
RTVSPost2010PropOp34
 70
     1
102
RTVSPost2010Prop35
280
     0
102
RTVSPost2010PropOp35
 70
     1
102
RTVSPost2010Prop36
280
     0
102
RTVSPost2010PropOp36
 70
     1
102
RTVSPost2010Prop37
 90
       50
102
RTVSPost2010PropOp37
 70
     1
102
RTVSPost2010Prop38
140
0.0
102
RTVSPost2010PropOp38
 70
     1
102
RTVSPost2010Prop39
140
1.0
102
RTVSPost2010PropOp39
 70
     1
102
RTVSPost2010Prop40
 90
        0
102
RTVSPost2010PropOp40
 70
     1
102
RTVSPost2010Prop41ColorIndex
 90
       18
102
RTVSPost2010Prop41ColorRGB
 90
        0
102
RTVSPost2010PropOp41
 70
     1
102
RTVSPost2010Prop42
 90
       50
102
RTVSPost2010PropOp42
 70
     1
102
RTVSPost2010Prop43
 90
        3
102
RTVSPost2010PropOp43
 70
     1
102
RTVSPost2010Prop44ColorIndex
 90
        5
102
RTVSPost2010Prop44ColorRGB
 90
      255
102
RTVSPost2010PropOp44
 70
     1
102
RTVSPost2010Prop45
280
     0
102
RTVSPost2010PropOp45
 70
     1
102
RTVSPost2010Prop46
 90
       50
102
RTVSPost2010PropOp46
 70
     1
102
RTVSPost2010Prop47
 90
       50
102
RTVSPost2010PropOp47
 70
     1
102
RTVSPost2010Prop48
 90
       50
102
RTVSPost2010PropOp48
 70
     1
102
RTVSPost2010Prop49
280
     0
102
RTVSPost2010PropOp49
 70
     1
102
RTVSPost2010Prop50
 90
       50
102
RTVSPost2010PropOp50
 70
     1
102
RTVSPost2010Prop51ColorIndex
 90
      256
102
RTVSPost2010Prop51ColorRGB
 90
-16777216
102
RTVSPost2010PropOp51
 70
     0
102
RTVSPost2010Prop52
140
1.0
102
RTVSPost2010PropOp52
 70
     0
102
RTVSPost2010Prop53
 90
        2
102
RTVSPost2010PropOp53
 70
     1
102
RTVSPost2010Prop54
  1
strokes_ogs.tif
102
RTVSPost2010PropOp54
 70
     1
102
RTVSPost2010Prop55
280
     0
102
RTVSPost2010PropOp55
 70
     1
102
RTVSPost2010Prop56
140
1.0
102
RTVSPost2010PropOp56
 70
     1
102
RTVSPost2010Prop57
140
1.0
102
RTVSPost2010PropOp57
 70
     1
  0
XRECORD
  5
180
102
{ACAD_REACTORS
330
17F
102
}
330
17F
100
AcDbXrecord
280
     1
102
RTVSPost2010Prop28
280
     0
102
RTVSPost2010PropOp28
 70
     1
102
RTVSPost2010Prop29
280
     1
102
RTVSPost2010PropOp29
 70
     1
102
RTVSPost2010Prop30
280
     1
102
RTVSPost2010PropOp30
 70
     1
102
RTVSPost2010Prop31
280
     0
102
RTVSPost2010PropOp31
 70
     1
102
RTVSPost2010Prop32
280
     0
102
RTVSPost2010PropOp32
 70
     1
102
RTVSPost2010Prop33
280
     0
102
RTVSPost2010PropOp33
 70
     1
102
RTVSPost2010Prop34
280
     0
102
RTVSPost2010PropOp34
 70
     1
102
RTVSPost2010Prop35
280
     0
102
RTVSPost2010PropOp35
 70
     1
102
RTVSPost2010Prop36
280
     0
102
RTVSPost2010PropOp36
 70
     1
102
RTVSPost2010Prop37
 90
       50
102
RTVSPost2010PropOp37
 70
     1
102
RTVSPost2010Prop38
140
0.0
102
RTVSPost2010PropOp38
 70
     1
102
RTVSPost2010Prop39
140
1.0
102
RTVSPost2010PropOp39
 70
     1
102
RTVSPost2010Prop40
 90
        0
102
RTVSPost2010PropOp40
 70
     1
102
RTVSPost2010Prop41ColorIndex
 90
       18
102
RTVSPost2010Prop41ColorRGB
 90
        0
102
RTVSPost2010PropOp41
 70
     1
102
RTVSPost2010Prop42
 90
       50
102
RTVSPost2010PropOp42
 70
     1
102
RTVSPost2010Prop43
 90
        3
102
RTVSPost2010PropOp43
 70
     1
102
RTVSPost2010Prop44ColorIndex
 90
        5
102
RTVSPost2010Prop44ColorRGB
 90
      255
102
RTVSPost2010PropOp44
 70
     1
102
RTVSPost2010Prop45
280
     0
102
RTVSPost2010PropOp45
 70
     1
102
RTVSPost2010Prop46
 90
       50
102
RTVSPost2010PropOp46
 70
     1
102
RTVSPost2010Prop47
 90
       50
102
RTVSPost2010PropOp47
 70
     1
102
RTVSPost2010Prop48
 90
       50
102
RTVSPost2010PropOp48
 70
     1
102
RTVSPost2010Prop49
280
     0
102
RTVSPost2010PropOp49
 70
     1
102
RTVSPost2010Prop50
 90
       50
102
RTVSPost2010PropOp50
 70
     1
102
RTVSPost2010Prop51ColorIndex
 90
      256
102
RTVSPost2010Prop51ColorRGB
 90
-16777216
102
RTVSPost2010PropOp51
 70
     0
102
RTVSPost2010Prop52
140
1.0
102
RTVSPost2010PropOp52
 70
     0
102
RTVSPost2010Prop53
 90
        2
102
RTVSPost2010PropOp53
 70
     1
102
RTVSPost2010Prop54
  1
strokes_ogs.tif
102
RTVSPost2010PropOp54
 70
     1
102
RTVSPost2010Prop55
280
     0
102
RTVSPost2010PropOp55
 70
     1
102
RTVSPost2010Prop56
140
1.0
102
RTVSPost2010PropOp56
 70
     1
102
RTVSPost2010Prop57
140
1.0
102
RTVSPost2010PropOp57
 70
     1
  0
XRECORD
  5
182
102
{ACAD_REACTORS
330
181
102
}
330
181
100
AcDbXrecord
280
     1
102
RTVSPost2010Prop28
280
     0
102
RTVSPost2010PropOp28
 70
     1
102
RTVSPost2010Prop29
280
     1
102
RTVSPost2010PropOp29
 70
     1
102
RTVSPost2010Prop30
280
     1
102
RTVSPost2010PropOp30
 70
     1
102
RTVSPost2010Prop31
280
     0
102
RTVSPost2010PropOp31
 70
     1
102
RTVSPost2010Prop32
280
     0
102
RTVSPost2010PropOp32
 70
     1
102
RTVSPost2010Prop33
280
     0
102
RTVSPost2010PropOp33
 70
     1
102
RTVSPost2010Prop34
280
     0
102
RTVSPost2010PropOp34
 70
     1
102
RTVSPost2010Prop35
280
     0
102
RTVSPost2010PropOp35
 70
     1
102
RTVSPost2010Prop36
280
     0
102
RTVSPost2010PropOp36
 70
     1
102
RTVSPost2010Prop37
 90
       50
102
RTVSPost2010PropOp37
 70
     1
102
RTVSPost2010Prop38
140
0.0
102
RTVSPost2010PropOp38
 70
     1
102
RTVSPost2010Prop39
140
1.0
102
RTVSPost2010PropOp39
 70
     1
102
RTVSPost2010Prop40
 90
        0
102
RTVSPost2010PropOp40
 70
     1
102
RTVSPost2010Prop41ColorIndex
 90
       18
102
RTVSPost2010Prop41ColorRGB
 90
        0
102
RTVSPost2010PropOp41
 70
     1
102
RTVSPost2010Prop42
 90
       50
102
RTVSPost2010PropOp42
 70
     1
102
RTVSPost2010Prop43
 90
        3
102
RTVSPost2010PropOp43
 70
     1
102
RTVSPost2010Prop44ColorIndex
 90
        5
102
RTVSPost2010Prop44ColorRGB
 90
      255
102
RTVSPost2010PropOp44
 70
     1
102
RTVSPost2010Prop45
280
     0
102
RTVSPost2010PropOp45
 70
     1
102
RTVSPost2010Prop46
 90
       50
102
RTVSPost2010PropOp46
 70
     1
102
RTVSPost2010Prop47
 90
       50
102
RTVSPost2010PropOp47
 70
     1
102
RTVSPost2010Prop48
 90
       50
102
RTVSPost2010PropOp48
 70
     1
102
RTVSPost2010Prop49
280
     0
102
RTVSPost2010PropOp49
 70
     1
102
RTVSPost2010Prop50
 90
       50
102
RTVSPost2010PropOp50
 70
     1
102
RTVSPost2010Prop51ColorIndex
 90
      256
102
RTVSPost2010Prop51ColorRGB
 90
-16777216
102
RTVSPost2010PropOp51
 70
     0
102
RTVSPost2010Prop52
140
1.0
102
RTVSPost2010PropOp52
 70
     0
102
RTVSPost2010Prop53
 90
        2
102
RTVSPost2010PropOp53
 70
     1
102
RTVSPost2010Prop54
  1
strokes_ogs.tif
102
RTVSPost2010PropOp54
 70
     1
102
RTVSPost2010Prop55
280
     0
102
RTVSPost2010PropOp55
 70
     1
102
RTVSPost2010Prop56
140
1.0
102
RTVSPost2010PropOp56
 70
     1
102
RTVSPost2010Prop57
140
1.0
102
RTVSPost2010PropOp57
 70
     1
  0
XRECORD
  5
178
102
{ACAD_REACTORS
330
177
102
}
330
177
100
AcDbXrecord
280
     1
102
RTVSPost2010Prop28
280
     0
102
RTVSPost2010PropOp28
 70
     1
102
RTVSPost2010Prop29
280
     1
102
RTVSPost2010PropOp29
 70
     1
102
RTVSPost2010Prop30
280
     1
102
RTVSPost2010PropOp30
 70
     1
102
RTVSPost2010Prop31
280
     0
102
RTVSPost2010PropOp31
 70
     1
102
RTVSPost2010Prop32
280
     0
102
RTVSPost2010PropOp32
 70
     1
102
RTVSPost2010Prop33
280
     0
102
RTVSPost2010PropOp33
 70
     1
102
RTVSPost2010Prop34
280
     0
102
RTVSPost2010PropOp34
 70
     1
102
RTVSPost2010Prop35
280
     0
102
RTVSPost2010PropOp35
 70
     1
102
RTVSPost2010Prop36
280
     0
102
RTVSPost2010PropOp36
 70
     1
102
RTVSPost2010Prop37
 90
       50
102
RTVSPost2010PropOp37
 70
     1
102
RTVSPost2010Prop38
140
0.0
102
RTVSPost2010PropOp38
 70
     1
102
RTVSPost2010Prop39
140
1.0
102
RTVSPost2010PropOp39
 70
     1
102
RTVSPost2010Prop40
 90
        0
102
RTVSPost2010PropOp40
 70
     1
102
RTVSPost2010Prop41ColorIndex
 90
       18
102
RTVSPost2010Prop41ColorRGB
 90
        0
102
RTVSPost2010PropOp41
 70
     1
102
RTVSPost2010Prop42
 90
       50
102
RTVSPost2010PropOp42
 70
     1
102
RTVSPost2010Prop43
 90
        3
102
RTVSPost2010PropOp43
 70
     1
102
RTVSPost2010Prop44ColorIndex
 90
        5
102
RTVSPost2010Prop44ColorRGB
 90
      255
102
RTVSPost2010PropOp44
 70
     1
102
RTVSPost2010Prop45
280
     0
102
RTVSPost2010PropOp45
 70
     1
102
RTVSPost2010Prop46
 90
       50
102
RTVSPost2010PropOp46
 70
     1
102
RTVSPost2010Prop47
 90
       50
102
RTVSPost2010PropOp47
 70
     1
102
RTVSPost2010Prop48
 90
       50
102
RTVSPost2010PropOp48
 70
     1
102
RTVSPost2010Prop49
280
     0
102
RTVSPost2010PropOp49
 70
     1
102
RTVSPost2010Prop50
 90
       50
102
RTVSPost2010PropOp50
 70
     1
102
RTVSPost2010Prop51ColorIndex
 90
      256
102
RTVSPost2010Prop51ColorRGB
 90
-16777216
102
RTVSPost2010PropOp51
 70
     0
102
RTVSPost2010Prop52
140
1.0
102
RTVSPost2010PropOp52
 70
     0
102
RTVSPost2010Prop53
 90
        2
102
RTVSPost2010PropOp53
 70
     1
102
RTVSPost2010Prop54
  1
strokes_ogs.tif
102
RTVSPost2010PropOp54
 70
     1
102
RTVSPost2010Prop55
280
     0
102
RTVSPost2010PropOp55
 70
     1
102
RTVSPost2010Prop56
140
1.0
102
RTVSPost2010PropOp56
 70
     1
102
RTVSPost2010Prop57
140
1.0
102
RTVSPost2010PropOp57
 70
     1
  0
XRECORD
  5
16C
102
{ACAD_REACTORS
330
16B
102
}
330
16B
100
AcDbXrecord
280
     1
102
RTVSPost2010Prop28
280
     0
102
RTVSPost2010PropOp28
 70
     1
102
RTVSPost2010Prop29
280
     1
102
RTVSPost2010PropOp29
 70
     1
102
RTVSPost2010Prop30
280
     1
102
RTVSPost2010PropOp30
 70
     1
102
RTVSPost2010Prop31
280
     0
102
RTVSPost2010PropOp31
 70
     1
102
RTVSPost2010Prop32
280
     0
102
RTVSPost2010PropOp32
 70
     1
102
RTVSPost2010Prop33
280
     0
102
RTVSPost2010PropOp33
 70
     1
102
RTVSPost2010Prop34
280
     0
102
RTVSPost2010PropOp34
 70
     1
102
RTVSPost2010Prop35
280
     0
102
RTVSPost2010PropOp35
 70
     1
102
RTVSPost2010Prop36
280
     0
102
RTVSPost2010PropOp36
 70
     1
102
RTVSPost2010Prop37
 90
       50
102
RTVSPost2010PropOp37
 70
     1
102
RTVSPost2010Prop38
140
0.0
102
RTVSPost2010PropOp38
 70
     1
102
RTVSPost2010Prop39
140
1.0
102
RTVSPost2010PropOp39
 70
     1
102
RTVSPost2010Prop40
 90
        0
102
RTVSPost2010PropOp40
 70
     1
102
RTVSPost2010Prop41ColorIndex
 90
       18
102
RTVSPost2010Prop41ColorRGB
 90
        0
102
RTVSPost2010PropOp41
 70
     1
102
RTVSPost2010Prop42
 90
       50
102
RTVSPost2010PropOp42
 70
     1
102
RTVSPost2010Prop43
 90
        3
102
RTVSPost2010PropOp43
 70
     1
102
RTVSPost2010Prop44ColorIndex
 90
        5
102
RTVSPost2010Prop44ColorRGB
 90
      255
102
RTVSPost2010PropOp44
 70
     1
102
RTVSPost2010Prop45
280
     0
102
RTVSPost2010PropOp45
 70
     1
102
RTVSPost2010Prop46
 90
       50
102
RTVSPost2010PropOp46
 70
     1
102
RTVSPost2010Prop47
 90
       50
102
RTVSPost2010PropOp47
 70
     1
102
RTVSPost2010Prop48
 90
       50
102
RTVSPost2010PropOp48
 70
     1
102
RTVSPost2010Prop49
280
     0
102
RTVSPost2010PropOp49
 70
     1
102
RTVSPost2010Prop50
 90
       50
102
RTVSPost2010PropOp50
 70
     1
102
RTVSPost2010Prop51ColorIndex
 90
      256
102
RTVSPost2010Prop51ColorRGB
 90
-16777216
102
RTVSPost2010PropOp51
 70
     0
102
RTVSPost2010Prop52
140
1.0
102
RTVSPost2010PropOp52
 70
     0
102
RTVSPost2010Prop53
 90
        2
102
RTVSPost2010PropOp53
 70
     1
102
RTVSPost2010Prop54
  1
strokes_ogs.tif
102
RTVSPost2010PropOp54
 70
     1
102
RTVSPost2010Prop55
280
     0
102
RTVSPost2010PropOp55
 70
     1
102
RTVSPost2010Prop56
140
1.0
102
RTVSPost2010PropOp56
 70
     1
102
RTVSPost2010Prop57
140
1.0
102
RTVSPost2010PropOp57
 70
     1
  0
XRECORD
  5
184
102
{ACAD_REACTORS
330
183
102
}
330
183
100
AcDbXrecord
280
     1
102
RTVSPost2010Prop28
280
     0
102
RTVSPost2010PropOp28
 70
     1
102
RTVSPost2010Prop29
280
     1
102
RTVSPost2010PropOp29
 70
     1
102
RTVSPost2010Prop30
280
     1
102
RTVSPost2010PropOp30
 70
     1
102
RTVSPost2010Prop31
280
     0
102
RTVSPost2010PropOp31
 70
     1
102
RTVSPost2010Prop32
280
     0
102
RTVSPost2010PropOp32
 70
     1
102
RTVSPost2010Prop33
280
     0
102
RTVSPost2010PropOp33
 70
     1
102
RTVSPost2010Prop34
280
     0
102
RTVSPost2010PropOp34
 70
     1
102
RTVSPost2010Prop35
280
     0
102
RTVSPost2010PropOp35
 70
     1
102
RTVSPost2010Prop36
280
     0
102
RTVSPost2010PropOp36
 70
     1
102
RTVSPost2010Prop37
 90
       50
102
RTVSPost2010PropOp37
 70
     1
102
RTVSPost2010Prop38
140
0.0
102
RTVSPost2010PropOp38
 70
     1
102
RTVSPost2010Prop39
140
1.0
102
RTVSPost2010PropOp39
 70
     1
102
RTVSPost2010Prop40
 90
        0
102
RTVSPost2010PropOp40
 70
     1
102
RTVSPost2010Prop41ColorIndex
 90
       18
102
RTVSPost2010Prop41ColorRGB
 90
        0
102
RTVSPost2010PropOp41
 70
     1
102
RTVSPost2010Prop42
 90
       50
102
RTVSPost2010PropOp42
 70
     1
102
RTVSPost2010Prop43
 90
        3
102
RTVSPost2010PropOp43
 70
     1
102
RTVSPost2010Prop44ColorIndex
 90
        5
102
RTVSPost2010Prop44ColorRGB
 90
      255
102
RTVSPost2010PropOp44
 70
     1
102
RTVSPost2010Prop45
280
     0
102
RTVSPost2010PropOp45
 70
     1
102
RTVSPost2010Prop46
 90
       50
102
RTVSPost2010PropOp46
 70
     1
102
RTVSPost2010Prop47
 90
       50
102
RTVSPost2010PropOp47
 70
     1
102
RTVSPost2010Prop48
 90
       50
102
RTVSPost2010PropOp48
 70
     1
102
RTVSPost2010Prop49
280
     0
102
RTVSPost2010PropOp49
 70
     1
102
RTVSPost2010Prop50
 90
       50
102
RTVSPost2010PropOp50
 70
     1
102
RTVSPost2010Prop51ColorIndex
 90
      256
102
RTVSPost2010Prop51ColorRGB
 90
-16777216
102
RTVSPost2010PropOp51
 70
     0
102
RTVSPost2010Prop52
140
1.0
102
RTVSPost2010PropOp52
 70
     0
102
RTVSPost2010Prop53
 90
        2
102
RTVSPost2010PropOp53
 70
     1
102
RTVSPost2010Prop54
  1
strokes_ogs.tif
102
RTVSPost2010PropOp54
 70
     1
102
RTVSPost2010Prop55
280
     0
102
RTVSPost2010PropOp55
 70
     1
102
RTVSPost2010Prop56
140
1.0
102
RTVSPost2010PropOp56
 70
     1
102
RTVSPost2010Prop57
140
1.0
102
RTVSPost2010PropOp57
 70
     1
  0
ENDSEC
  0
EOF
