  0
SECTION
  2
HEADER
  9
$ACADVER
  1
AC1024
  9
$ACADMAINTVER
 70
   226
  9
$DWGCODEPAGE
  3
ANSI_932
  9
$INSBASE
 10
0.0
 20
0.0
 30
0.0
  9
$EXTMIN
 10
1.000000000000000E+20
 20
1.000000000000000E+20
 30
1.000000000000000E+20
  9
$EXTMAX
 10
-1.000000000000000E+20
 20
-1.000000000000000E+20
 30
-1.000000000000000E+20
  9
$LIMMIN
 10
0.0
 20
0.0
  9
$LIMMAX
 10
12.0
 20
9.0
  9
$ORTHOMODE
 70
     0
  9
$REGENMODE
 70
     1
  9
$FILLMODE
 70
     1
  9
$QTEXTMODE
 70
     0
  9
$MIRRTEXT
 70
     0
  9
$LTSCALE
 40
1.0
  9
$ATTMODE
 70
     1
  9
$TEXTSIZE
 40
0.2
  9
$TRACEWID
 40
0.05
  9
$TEXTSTYLE
  7
Standard
  9
$CLAYER
  8
0
  9
$CELTYPE
  6
ByLayer
  9
$CECOLOR
 62
   256
  9
$CELTSCALE
 40
1.0
  9
$DISPSILH
 70
     0
  9
$DIMSCALE
 40
1.0
  9
$DIMASZ
 40
0.18
  9
$DIMEXO
 40
0.0625
  9
$DIMDLI
 40
0.38
  9
$DIMRND
 40
0.0
  9
$DIMDLE
 40
0.0
  9
$DIMEXE
 40
0.18
  9
$DIMTP
 40
0.0
  9
$DIMTM
 40
0.0
  9
$DIMTXT
 40
0.18
  9
$DIMCEN
 40
0.09
  9
$DIMTSZ
 40
0.0
  9
$DIMTOL
 70
     0
  9
$DIMLIM
 70
     0
  9
$DIMTIH
 70
     1
  9
$DIMTOH
 70
     1
  9
$DIMSE1
 70
     0
  9
$DIMSE2
 70
     0
  9
$DIMTAD
 70
     0
  9
$DIMZIN
 70
     0
  9
$DIMBLK
  1

  9
$DIMASO
 70
     1
  9
$DIMSHO
 70
     1
  9
$DIMPOST
  1

  9
$DIMAPOST
  1

  9
$DIMALT
 70
     0
  9
$DIMALTD
 70
     2
  9
$DIMALTF
 40
25.4
  9
$DIMLFAC
 40
1.0
  9
$DIMTOFL
 70
     0
  9
$DIMTVP
 40
0.0
  9
$DIMTIX
 70
     0
  9
$DIMSOXD
 70
     0
  9
$DIMSAH
 70
     0
  9
$DIMBLK1
  1

  9
$DIMBLK2
  1

  9
$DIMSTYLE
  2
Standard
  9
$DIMCLRD
 70
     0
  9
$DIMCLRE
 70
     0
  9
$DIMCLRT
 70
     0
  9
$DIMTFAC
 40
1.0
  9
$DIMGAP
 40
0.09
  9
$DIMJUST
 70
     0
  9
$DIMSD1
 70
     0
  9
$DIMSD2
 70
     0
  9
$DIMTOLJ
 70
     1
  9
$DIMTZIN
 70
     0
  9
$DIMALTZ
 70
     0
  9
$DIMALTTZ
 70
     0
  9
$DIMUPT
 70
     0
  9
$DIMDEC
 70
     4
  9
$DIMTDEC
 70
     4
  9
$DIMALTU
 70
     2
  9
$DIMALTTD
 70
     2
  9
$DIMTXSTY
  7
Standard
  9
$DIMAUNIT
 70
     0
  9
$DIMADEC
 70
     0
  9
$DIMALTRND
 40
0.0
  9
$DIMAZIN
 70
     0
  9
$DIMDSEP
 70
    46
  9
$DIMATFIT
 70
     3
  9
$DIMFRAC
 70
     0
  9
$DIMLDRBLK
  1

  9
$DIMLUNIT
 70
     2
  9
$DIMLWD
 70
    -2
  9
$DIMLWE
 70
    -2
  9
$DIMTMOVE
 70
     0
  9
$DIMFXL
 40
1.0
  9
$DIMFXLON
 70
     0
  9
$DIMJOGANG
 40
0.7853981633974483
  9
$DIMTFILL
 70
     0
  9
$DIMTFILLCLR
 70
     0
  9
$DIMARCSYM
 70
     0
  9
$DIMLTYPE
  6

  9
$DIMLTEX1
  6

  9
$DIMLTEX2
  6

  9
$DIMTXTDIRECTION
 70
     0
  9
$LUNITS
 70
     2
  9
$LUPREC
 70
     4
  9
$SKETCHINC
 40
0.1
  9
$FILLETRAD
 40
0.0
  9
$AUNITS
 70
     0
  9
$AUPREC
 70
     0
  9
$MENU
  1
.
  9
$ELEVATION
 40
0.0
  9
$PELEVATION
 40
0.0
  9
$THICKNESS
 40
0.0
  9
$LIMCHECK
 70
     0
  9
$CHAMFERA
 40
0.0
  9
$CHAMFERB
 40
0.0
  9
$CHAMFERC
 40
0.0
  9
$CHAMFERD
 40
0.0
  9
$SKPOLY
 70
     0
  9
$TDCREATE
 40
2459569.503310186
  9
$TDUCREATE
 40
2459569.128310185
  9
$TDUPDATE
 40
2459569.503310186
  9
$TDUUPDATE
 40
2459569.128310185
  9
$TDINDWG
 40
0.0000000000
  9
$TDUSRTIMER
 40
0.0000000000
  9
$USRTIMER
 70
     1
  9
$ANGBASE
 50
0.0
  9
$ANGDIR
 70
     0
  9
$PDMODE
 70
     0
  9
$PDSIZE
 40
0.0
  9
$PLINEWID
 40
0.0
  9
$SPLFRAME
 70
     0
  9
$SPLINETYPE
 70
     6
  9
$SPLINESEGS
 70
     8
  9
$HANDSEED
  5
15F
  9
$SURFTAB1
 70
     6
  9
$SURFTAB2
 70
     6
  9
$SURFTYPE
 70
     6
  9
$SURFU
 70
     6
  9
$SURFV
 70
     6
  9
$UCSBASE
  2

  9
$UCSNAME
  2

  9
$UCSORG
 10
0.0
 20
0.0
 30
0.0
  9
$UCSXDIR
 10
1.0
 20
0.0
 30
0.0
  9
$UCSYDIR
 10
0.0
 20
1.0
 30
0.0
  9
$UCSORTHOREF
  2

  9
$UCSORTHOVIEW
 70
     0
  9
$UCSORGTOP
 10
0.0
 20
0.0
 30
0.0
  9
$UCSORGBOTTOM
 10
0.0
 20
0.0
 30
0.0
  9
$UCSORGLEFT
 10
0.0
 20
0.0
 30
0.0
  9
$UCSORGRIGHT
 10
0.0
 20
0.0
 30
0.0
  9
$UCSORGFRONT
 10
0.0
 20
0.0
 30
0.0
  9
$UCSORGBACK
 10
0.0
 20
0.0
 30
0.0
  9
$PUCSBASE
  2

  9
$PUCSNAME
  2

  9
$PUCSORG
 10
0.0
 20
0.0
 30
0.0
  9
$PUCSXDIR
 10
1.0
 20
0.0
 30
0.0
  9
$PUCSYDIR
 10
0.0
 20
1.0
 30
0.0
  9
$PUCSORTHOREF
  2

  9
$PUCSORTHOVIEW
 70
     0
  9
$PUCSORGTOP
 10
0.0
 20
0.0
 30
0.0
  9
$PUCSORGBOTTOM
 10
0.0
 20
0.0
 30
0.0
  9
$PUCSORGLEFT
 10
0.0
 20
0.0
 30
0.0
  9
$PUCSORGRIGHT
 10
0.0
 20
0.0
 30
0.0
  9
$PUCSORGFRONT
 10
0.0
 20
0.0
 30
0.0
  9
$PUCSORGBACK
 10
0.0
 20
0.0
 30
0.0
  9
$USERI1
 70
     0
  9
$USERI2
 70
     0
  9
$USERI3
 70
     0
  9
$USERI4
 70
     0
  9
$USERI5
 70
     0
  9
$USERR1
 40
0.0
  9
$USERR2
 40
0.0
  9
$USERR3
 40
0.0
  9
$USERR4
 40
0.0
  9
$USERR5
 40
0.0
  9
$WORLDVIEW
 70
     1
  9
$SHADEDGE
 70
     3
  9
$SHADEDIF
 70
    70
  9
$TILEMODE
 70
     1
  9
$MAXACTVP
 70
    64
  9
$PINSBASE
 10
0.0
 20
0.0
 30
0.0
  9
$PLIMCHECK
 70
     0
  9
$PEXTMIN
 10
1.000000000000000E+20
 20
1.000000000000000E+20
 30
1.000000000000000E+20
  9
$PEXTMAX
 10
-1.000000000000000E+20
 20
-1.000000000000000E+20
 30
-1.000000000000000E+20
  9
$PLIMMIN
 10
0.0
 20
0.0
  9
$PLIMMAX
 10
12.0
 20
9.0
  9
$UNITMODE
 70
     0
  9
$VISRETAIN
 70
     1
  9
$PLINEGEN
 70
     0
  9
$PSLTSCALE
 70
     1
  9
$TREEDEPTH
 70
  3020
  9
$CMLSTYLE
  2
Standard
  9
$CMLJUST
 70
     0
  9
$CMLSCALE
 40
1.0
  9
$PROXYGRAPHICS
 70
     1
  9
$MEASUREMENT
 70
     0
  9
$CELWEIGHT
370
    -1
  9
$ENDCAPS
280
     0
  9
$JOINSTYLE
280
     0
  9
$LWDISPLAY
290
     1
  9
$INSUNITS
 70
     4
  9
$HYPERLINKBASE
  1

  9
$STYLESHEET
  1

  9
$XEDIT
290
     1
  9
$CEPSNTYPE
380
     0
  9
$PSTYLEMODE
290
     1
  9
$FINGERPRINTGUID
  2
{AA3D060A-14E6-B140-81E9-54C8536AA80F}
  9
$VERSIONGUID
  2
{EB65C156-A23C-2C4C-BF97-A70ED4BE480A}
  9
$EXTNAMES
290
     1
  9
$PSVPSCALE
 40
0.0
  9
$OLESTARTUP
290
     0
  9
$SORTENTS
280
   127
  9
$INDEXCTL
280
     0
  9
$HIDETEXT
280
     1
  9
$XCLIPFRAME
280
     2
  9
$HALOGAP
280
     0
  9
$OBSCOLOR
 70
   257
  9
$OBSLTYPE
280
     0
  9
$INTERSECTIONDISPLAY
280
     0
  9
$INTERSECTIONCOLOR
 70
   257
  9
$DIMASSOC
280
     2
  9
$PROJECTNAME
  1

  9
$CAMERADISPLAY
290
     0
  9
$LENSLENGTH
 40
50.0
  9
$CAMERAHEIGHT
 40
0.0
  9
$STEPSPERSEC
 40
2.0
  9
$STEPSIZE
 40
6.0
  9
$3DDWFPREC
 40
2.0
  9
$PSOLWIDTH
 40
0.25
  9
$PSOLHEIGHT
 40
4.0
  9
$LOFTANG1
 40
1.570796326794896
  9
$LOFTANG2
 40
1.570796326794896
  9
$LOFTMAG1
 40
0.0
  9
$LOFTMAG2
 40
0.0
  9
$LOFTPARAM
 70
     7
  9
$LOFTNORMALS
280
     1
  9
$LATITUDE
 40
37.795
  9
$LONGITUDE
 40
-122.394
  9
$NORTHDIRECTION
 40
0.0
  9
$TIMEZONE
 70
 -8000
  9
$LIGHTGLYPHDISPLAY
280
     1
  9
$TILEMODELIGHTSYNCH
280
     1
  9
$CMATERIAL
347
11
  9
$SOLIDHIST
280
     0
  9
$SHOWHIST
280
     1
  9
$DWFFRAME
280
     2
  9
$DGNFRAME
280
     0
  9
$REALWORLDSCALE
290
     1
  9
$INTERFERECOLOR
 62
     1
  9
$INTERFEREOBJVS
345
33
  9
$INTERFEREVPVS
346
30
  9
$CSHADOW
280
     0
  9
$SHADOWPLANELOCATION
 40
0.0
  0
ENDSEC
  0
SECTION
  2
CLASSES
  0
CLASS
  1
ACDBDICTIONARYWDFLT
  2
AcDbDictionaryWithDefault
  3
ObjectDBX Classes
 90
        0
 91
        1
280
     0
281
     0
  0
CLASS
  1
MATERIAL
  2
AcDbMaterial
  3
ObjectDBX Classes
 90
     1153
 91
        3
280
     0
281
     0
  0
CLASS
  1
VISUALSTYLE
  2
AcDbVisualStyle
  3
ObjectDBX Classes
 90
     4095
 91
       24
280
     0
281
     0
  0
CLASS
  1
SCALE
  2
AcDbScale
  3
ObjectDBX Classes
 90
     1153
 91
       17
280
     0
281
     0
  0
CLASS
  1
TABLESTYLE
  2
AcDbTableStyle
  3
ObjectDBX Classes
 90
     4095
 91
        1
280
     0
281
     0
  0
CLASS
  1
MLEADERSTYLE
  2
AcDbMLeaderStyle
  3
ACDB_MLEADERSTYLE_CLASS
 90
     4095
 91
        1
280
     0
281
     0
  0
CLASS
  1
ACDBSECTIONVIEWSTYLE
  2
AcDbSectionViewStyle
  3
ObjectDBX Classes
 90
     1025
 91
        1
280
     0
281
     0
  0
CLASS
  1
ACDBDETAILVIEWSTYLE
  2
AcDbDetailViewStyle
  3
ObjectDBX Classes
 90
     1025
 91
        1
280
     0
281
     0
  0
CLASS
  1
DICTIONARYVAR
  2
AcDbDictionaryVar
  3
ObjectDBX Classes
 90
        0
 91
        5
280
     0
281
     0
  0
CLASS
  1
CELLSTYLEMAP
  2
AcDbCellStyleMap
  3
ObjectDBX Classes
 90
     1152
 91
        1
280
     0
281
     0
  0
ENDSEC
  0
SECTION
  2
TABLES
  0
TABLE
  2
VPORT
  5
8
330
0
100
AcDbSymbolTable
 70
     1
  0
VPORT
  5
57
330
8
100
AcDbSymbolTableRecord
100
AcDbViewportTableRecord
  2
*Active
 70
     0
 10
0.0
 20
0.0
 11
1.0
 21
1.0
 12
0.0
 22
0.0
 13
0.0
 23
0.0
 14
1.0
 24
1.0
 15
0.0
 25
0.0
 16
0.0
 26
0.0
 36
1.0
 17
104.9999999737534
 27
-148.4999999628701
 37
0.0
 40
302.939999924255
 41
0.7070707070707534
 42
50.0
 43
0.0
 44
0.0
 50
0.0
 51
0.0
 71
     0
 72
   100
 73
     1
 74
     0
 75
     1
 76
     0
 77
     0
 78
     0
281
     0
 65
     1
110
0.0
120
0.0
130
0.0
111
1.0
121
0.0
131
0.0
112
0.0
122
1.0
132
0.0
 79
     0
146
0.0
 60
     3
 61
     5
292
     1
282
     1
141
0.0
142
0.0
 63
   250
421
  3355443
  0
ENDTAB
  0
TABLE
  2
LTYPE
  5
5
330
0
100
AcDbSymbolTable
 70
     2
  0
LTYPE
  5
5B
330
5
100
AcDbSymbolTableRecord
100
AcDbLinetypeTableRecord
  2
ByBlock
 70
     0
  3

 72
    65
 73
     0
 40
0.0
  0
LTYPE
  5
5C
330
5
100
AcDbSymbolTableRecord
100
AcDbLinetypeTableRecord
  2
ByLayer
 70
     0
  3

 72
    65
 73
     0
 40
0.0
  0
LTYPE
  5
5D
330
5
100
AcDbSymbolTableRecord
100
AcDbLinetypeTableRecord
  2
Continuous
 70
     0
  3
Solid line
 72
    65
 73
     0
 40
0.0
  0
LTYPE
  5
F2
330
5
100
AcDbSymbolTableRecord
100
AcDbLinetypeTableRecord
  2
AI-Linetype-0
 70
     0
  3
Adobe Illustrator Linetype No. 0
 72
    65
 73
     2
 40
1.411111110758333
 49
0.7055555553791667
 74
     0
 49
-0.7055555553791667
 74
     0
  0
ENDTAB
  0
TABLE
  2
LAYER
  5
2
330
0
100
AcDbSymbolTable
 70
     2
  0
LAYER
  5
54
330
2
100
AcDbSymbolTableRecord
100
AcDbLayerTableRecord
  2
0
 70
     0
 62
     7
  6
Continuous
370
    -3
390
F
347
21
  0
LAYER
  5
78
330
2
100
AcDbSymbolTableRecord
100
AcDbLayerTableRecord
  2
レイヤー 1
 70
     0
 62
     7
  6
Continuous
370
     0
390
F
347
21
  0
ENDTAB
  0
TABLE
  2
STYLE
  5
3
330
0
100
AcDbSymbolTable
 70
     2
  0
STYLE
  5
55
330
3
100
AcDbSymbolTableRecord
100
AcDbTextStyleTableRecord
  2
Standard
 70
     0
 40
0.0
 41
1.0
 50
0.0
 71
     0
 42
0.2
  3
txt
  4

  0
STYLE
  5
5A
330
3
100
AcDbSymbolTableRecord
100
AcDbTextStyleTableRecord
  2
Annotative
 70
     0
 40
0.0
 41
1.0
 50
0.0
 71
     0
 42
0.2
  3
txt
  4

1001
AcadAnnotative
1000
AnnotativeData
1002
{
1070
     1
1070
     1
1002
}
  0
ENDTAB
  0
TABLE
  2
VIEW
  5
6
330
0
100
AcDbSymbolTable
 70
     0
  0
ENDTAB
  0
TABLE
  2
UCS
  5
7
330
0
100
AcDbSymbolTable
 70
     0
  0
ENDTAB
  0
TABLE
  2
APPID
  5
9
330
0
100
AcDbSymbolTable
 70
     2
  0
APPID
  5
56
330
9
100
AcDbSymbolTableRecord
100
AcDbRegAppTableRecord
  2
ACAD
 70
     0
  0
APPID
  5
5E
330
9
100
AcDbSymbolTableRecord
100
AcDbRegAppTableRecord
  2
AcadAnnotative
 70
     0
  0
ENDTAB
  0
TABLE
  2
DIMSTYLE
  5
A
330
0
100
AcDbSymbolTable
 70
     2
100
AcDbDimStyleTable
 71
     0
  0
DIMSTYLE
105
58
330
A
100
AcDbSymbolTableRecord
100
AcDbDimStyleTableRecord
  2
Standard
 70
     0
340
55
  0
DIMSTYLE
105
59
330
A
100
AcDbSymbolTableRecord
100
AcDbDimStyleTableRecord
  2
Annotative
 70
     0
340
55
1001
AcadAnnotative
1000
AnnotativeData
1002
{
1070
     1
1070
     1
1002
}
  0
ENDTAB
  0
TABLE
  2
BLOCK_RECORD
  5
1
330
0
100
AcDbSymbolTable
 70
    13
  0
BLOCK_RECORD
  5
70
330
1
100
AcDbSymbolTableRecord
100
AcDbBlockTableRecord
  2
*Model_Space
340
73
 70
     0
280
     1
281
     0
  0
BLOCK_RECORD
  5
6C
330
1
100
AcDbSymbolTableRecord
100
AcDbBlockTableRecord
  2
*Paper_Space
340
6F
 70
     0
280
     1
281
     0
  0
BLOCK_RECORD
  5
74
330
1
100
AcDbSymbolTableRecord
100
AcDbBlockTableRecord
  2
*Paper_Space0
340
77
 70
     0
280
     1
281
     0
  0
BLOCK_RECORD
  5
B6
330
1
100
AcDbSymbolTableRecord
100
AcDbBlockTableRecord
  2
Block_0
340
0
102
{BLKREFS
331
B7
102
}
 70
     0
280
     1
281
     0
  0
BLOCK_RECORD
  5
BF
330
1
100
AcDbSymbolTableRecord
100
AcDbBlockTableRecord
  2
Block_1
340
0
102
{BLKREFS
331
C0
102
}
 70
     0
280
     1
281
     0
  0
BLOCK_RECORD
  5
CA
330
1
100
AcDbSymbolTableRecord
100
AcDbBlockTableRecord
  2
Block_2
340
0
102
{BLKREFS
331
CB
102
}
 70
     0
280
     1
281
     0
  0
BLOCK_RECORD
  5
CE
330
1
100
AcDbSymbolTableRecord
100
AcDbBlockTableRecord
  2
Block_3
340
0
102
{BLKREFS
331
CF
102
}
 70
     0
280
     1
281
     0
  0
BLOCK_RECORD
  5
DB
330
1
100
AcDbSymbolTableRecord
100
AcDbBlockTableRecord
  2
Block_4
340
0
102
{BLKREFS
331
DC
102
}
 70
     0
280
     1
281
     0
  0
BLOCK_RECORD
  5
DF
330
1
100
AcDbSymbolTableRecord
100
AcDbBlockTableRecord
  2
Block_5
340
0
102
{BLKREFS
331
E0
102
}
 70
     0
280
     1
281
     0
  0
BLOCK_RECORD
  5
E9
330
1
100
AcDbSymbolTableRecord
100
AcDbBlockTableRecord
  2
Block_6
340
0
102
{BLKREFS
331
EA
102
}
 70
     0
280
     1
281
     0
  0
BLOCK_RECORD
  5
F4
330
1
100
AcDbSymbolTableRecord
100
AcDbBlockTableRecord
  2
Block_7
340
0
102
{BLKREFS
331
F5
102
}
 70
     0
280
     1
281
     0
  0
BLOCK_RECORD
  5
FA
330
1
100
AcDbSymbolTableRecord
100
AcDbBlockTableRecord
  2
Block_8
340
0
102
{BLKREFS
331
FB
102
}
 70
     0
280
     1
281
     0
  0
BLOCK_RECORD
  5
FE
330
1
100
AcDbSymbolTableRecord
100
AcDbBlockTableRecord
  2
Block_9
340
0
102
{BLKREFS
331
FF
102
}
 70
     0
280
     1
281
     0
  0
BLOCK_RECORD
  5
105
330
1
100
AcDbSymbolTableRecord
100
AcDbBlockTableRecord
  2
Block_10
340
0
102
{BLKREFS
331
106
102
}
 70
     0
280
     1
281
     0
  0
BLOCK_RECORD
  5
109
330
1
100
AcDbSymbolTableRecord
100
AcDbBlockTableRecord
  2
Block_11
340
0
102
{BLKREFS
331
10A
102
}
 70
     0
280
     1
281
     0
  0
ENDTAB
  0
ENDSEC
  0
SECTION
  2
BLOCKS
  0
BLOCK
  5
71
330
70
100
AcDbEntity
  8
0
100
AcDbBlockBegin
  2
*Model_Space
 70
     0
 10
0.0
 20
0.0
 30
0.0
  3
*Model_Space
  1

  0
ENDBLK
  5
72
330
70
100
AcDbEntity
  8
0
100
AcDbBlockEnd
  0
BLOCK
  5
6D
330
6C
100
AcDbEntity
 67
     1
  8
0
100
AcDbBlockBegin
  2
*Paper_Space
 70
     0
 10
0.0
 20
0.0
 30
0.0
  3
*Paper_Space
  1

  0
ENDBLK
  5
6E
330
6C
100
AcDbEntity
 67
     1
  8
0
100
AcDbBlockEnd
  0
BLOCK
  5
75
330
74
100
AcDbEntity
 67
     1
  8
0
100
AcDbBlockBegin
  2
*Paper_Space0
 70
     0
 10
0.0
 20
0.0
 30
0.0
  3
*Paper_Space0
  1

  0
ENDBLK
  5
76
330
74
100
AcDbEntity
 67
     1
  8
0
100
AcDbBlockEnd
  0
BLOCK
  5
B8
330
B6
100
AcDbEntity
  8
0
100
AcDbBlockBegin
  2
Block_0
 70
     0
 10
0.0
 20
0.0
 30
0.0
  3
Block_0
  1

  0
SPLINE
  5
BA
330
B6
100
AcDbEntity
  8
レイヤー 1
100
AcDbSpline
210
0.0
220
0.0
230
1.0
 70
     9
 71
     3
 72
    62
 73
    58
 74
     0
 42
0.0000000001
 43
0.0000000001
 40
0.0
 40
0.0
 40
0.0
 40
0.0
 40
1.0
 40
1.0
 40
1.0
 40
2.0
 40
2.0
 40
2.0
 40
3.0
 40
3.0
 40
3.0
 40
4.0
 40
4.0
 40
4.0
 40
5.0
 40
5.0
 40
5.0
 40
6.0
 40
6.0
 40
6.0
 40
7.0
 40
7.0
 40
7.0
 40
8.0
 40
8.0
 40
8.0
 40
9.0
 40
9.0
 40
9.0
 40
10.0
 40
10.0
 40
10.0
 40
11.0
 40
11.0
 40
11.0
 40
12.0
 40
12.0
 40
12.0
 40
13.0
 40
13.0
 40
13.0
 40
14.0
 40
14.0
 40
14.0
 40
15.0
 40
15.0
 40
15.0
 40
16.0
 40
16.0
 40
16.0
 40
17.0
 40
17.0
 40
17.0
 40
18.0
 40
18.0
 40
18.0
 40
19.0
 40
19.0
 40
19.0
 40
19.0
 10
116.0011881220413
 20
-140.289283547827
 30
0.0
 10
115.9057589770999
 20
-140.289283547827
 30
0.0
 10
115.6880289424321
 20
-140.2680962105927
 30
0.0
 10
115.5629719763176
 20
-140.0818887996149
 30
0.0
 10
115.4892469329332
 20
-139.96975094157
 30
0.0
 10
115.4847683088024
 20
-139.8703599368206
 30
0.0
 10
115.4806341942201
 20
-139.7857828426577
 30
0.0
 10
115.4806341942201
 20
-139.7857828426577
 30
0.0
 10
115.7007757957276
 20
-139.7857828426577
 30
0.0
 10
115.7007757957276
 20
-139.7857828426577
 30
0.0
 10
115.7028428530187
 20
-139.8598523955906
 30
0.0
 10
115.7131781394745
 20
-140.0946356529104
 30
0.0
 10
115.9967094979105
 20
-140.0946356529104
 30
0.0
 10
116.134168807772
 20
-140.0946356529104
 30
0.0
 10
116.2867865377686
 20
-140.0248724693341
 30
0.0
 10
116.2867865377686
 20
-139.7962903838877
 30
0.0
 10
116.2867865377686
 20
-139.6800184112605
 30
0.0
 10
116.2485459778823
 20
-139.6312703101442
 30
0.0
 10
116.216851099418
 20
-139.59957543168
 30
0.0
 10
116.1427815464851
 20
-139.5255058787471
 30
0.0
 10
116.0263373190837
 20
-139.5129312802259
 30
0.0
 10
115.9715603008682
 20
-139.5129312802259
 30
0.0
 10
115.9522677661508
 20
-139.5129312802259
 30
0.0
 10
115.9164387731042
 20
-139.5149983375171
 30
0.0
 10
115.8888780092222
 20
-139.5191324520994
 30
0.0
 10
115.8888780092222
 20
-139.5191324520994
 30
0.0
 10
115.8888780092222
 20
-139.3244845571828
 30
0.0
 10
115.8888780092222
 20
-139.3244845571828
 30
0.0
 10
115.9271185691085
 20
-139.3308579838305
 30
0.0
 10
115.9691487340285
 20
-139.3330972958959
 30
0.0
 10
115.9756944154505
 20
-139.3330972958959
 30
0.0
 10
116.0411512296702
 20
-139.3330972958959
 30
0.0
 10
116.2399332391692
 20
-139.3119099586616
 30
0.0
 10
116.2399332391692
 20
-139.0748873892764
 30
0.0
 10
116.2399332391692
 20
-138.8972927170118
 30
0.0
 10
116.1090196107297
 20
-138.8421711892478
 30
0.0
 10
115.9987765552017
 20
-138.8421711892478
 30
0.0
 10
115.734537731483
 20
-138.8421711892478
 30
0.0
 10
115.7259249927699
 20
-139.0748873892764
 30
0.0
 10
115.7217908781876
 20
-139.1468898849181
 30
0.0
 10
115.7217908781876
 20
-139.1468898849181
 30
0.0
 10
115.5185302445578
 20
-139.1468898849181
 30
0.0
 10
115.5185302445578
 20
-139.1468898849181
 30
0.0
 10
115.527142983271
 20
-139.0220051735778
 30
0.0
 10
115.554703747153
 20
-138.64545623704
 30
0.0
 10
116.0115234084971
 20
-138.64545623704
 30
0.0
 10
116.2357991245869
 20
-138.64545623704
 30
0.0
 10
116.4769558085543
 20
-138.7724080056714
 30
0.0
 10
116.4769558085543
 20
-139.0685139626287
 30
0.0
 10
116.4769558085543
 20
-139.2547213736064
 30
0.0
 10
116.3818711731614
 20
-139.3372314104782
 30
0.0
 10
116.2823079136377
 20
-139.3985541101156
 30
0.0
 10
116.3436306132752
 20
-139.4261148739976
 30
0.0
 10
116.5255316548964
 20
-139.5065578535782
 30
0.0
 10
116.5255316548964
 20
-139.7837157853666
 30
0.0
 10
116.5255316548964
 20
-140.1221964167923
 30
0.0
 10
116.2781737990554
 20
-140.289283547827
 30
0.0
 10
116.0011881220413
 20
-140.289283547827
 30
0.0
  0
HATCH
  5
BB
330
B6
100
AcDbEntity
  8
レイヤー 1
 62
   250
420
  2299925
440
 33554687
100
AcDbHatch
 10
0.0
 20
0.0
 30
0.0
210
0.0
220
0.0
230
1.0
  2
SOLID
 70
     1
 71
     1
 91
        1
 92
        1
 93
        1
 72
     4
 94
        3
 73
     0
 74
     0
 95
       62
 96
       58
 40
0.0
 40
0.0
 40
0.0
 40
0.0
 40
1.0
 40
1.0
 40
1.0
 40
2.0
 40
2.0
 40
2.0
 40
3.0
 40
3.0
 40
3.0
 40
4.0
 40
4.0
 40
4.0
 40
5.0
 40
5.0
 40
5.0
 40
6.0
 40
6.0
 40
6.0
 40
7.0
 40
7.0
 40
7.0
 40
8.0
 40
8.0
 40
8.0
 40
9.0
 40
9.0
 40
9.0
 40
10.0
 40
10.0
 40
10.0
 40
11.0
 40
11.0
 40
11.0
 40
12.0
 40
12.0
 40
12.0
 40
13.0
 40
13.0
 40
13.0
 40
14.0
 40
14.0
 40
14.0
 40
15.0
 40
15.0
 40
15.0
 40
16.0
 40
16.0
 40
16.0
 40
17.0
 40
17.0
 40
17.0
 40
18.0
 40
18.0
 40
18.0
 40
19.0
 40
19.0
 40
19.0
 40
19.0
 10
116.0011881220413
 20
-140.289283547827
 10
115.9057589770999
 20
-140.289283547827
 10
115.6880289424321
 20
-140.2680962105927
 10
115.5629719763176
 20
-140.0818887996149
 10
115.4892469329332
 20
-139.96975094157
 10
115.4847683088024
 20
-139.8703599368206
 10
115.4806341942201
 20
-139.7857828426577
 10
115.4806341942201
 20
-139.7857828426577
 10
115.7007757957276
 20
-139.7857828426577
 10
115.7007757957276
 20
-139.7857828426577
 10
115.7028428530187
 20
-139.8598523955906
 10
115.7131781394745
 20
-140.0946356529104
 10
115.9967094979105
 20
-140.0946356529104
 10
116.134168807772
 20
-140.0946356529104
 10
116.2867865377686
 20
-140.0248724693341
 10
116.2867865377686
 20
-139.7962903838877
 10
116.2867865377686
 20
-139.6800184112605
 10
116.2485459778823
 20
-139.6312703101442
 10
116.216851099418
 20
-139.59957543168
 10
116.1427815464851
 20
-139.5255058787471
 10
116.0263373190837
 20
-139.5129312802259
 10
115.9715603008682
 20
-139.5129312802259
 10
115.9522677661508
 20
-139.5129312802259
 10
115.9164387731042
 20
-139.5149983375171
 10
115.8888780092222
 20
-139.5191324520994
 10
115.8888780092222
 20
-139.5191324520994
 10
115.8888780092222
 20
-139.3244845571828
 10
115.8888780092222
 20
-139.3244845571828
 10
115.9271185691085
 20
-139.3308579838305
 10
115.9691487340285
 20
-139.3330972958959
 10
115.9756944154505
 20
-139.3330972958959
 10
116.0411512296702
 20
-139.3330972958959
 10
116.2399332391692
 20
-139.3119099586616
 10
116.2399332391692
 20
-139.0748873892764
 10
116.2399332391692
 20
-138.8972927170118
 10
116.1090196107297
 20
-138.8421711892478
 10
115.9987765552017
 20
-138.8421711892478
 10
115.734537731483
 20
-138.8421711892478
 10
115.7259249927699
 20
-139.0748873892764
 10
115.7217908781876
 20
-139.1468898849181
 10
115.7217908781876
 20
-139.1468898849181
 10
115.5185302445578
 20
-139.1468898849181
 10
115.5185302445578
 20
-139.1468898849181
 10
115.527142983271
 20
-139.0220051735778
 10
115.554703747153
 20
-138.64545623704
 10
116.0115234084971
 20
-138.64545623704
 10
116.2357991245869
 20
-138.64545623704
 10
116.4769558085543
 20
-138.7724080056714
 10
116.4769558085543
 20
-139.0685139626287
 10
116.4769558085543
 20
-139.2547213736064
 10
116.3818711731614
 20
-139.3372314104782
 10
116.2823079136377
 20
-139.3985541101156
 10
116.3436306132752
 20
-139.4261148739976
 10
116.5255316548964
 20
-139.5065578535782
 10
116.5255316548964
 20
-139.7837157853666
 10
116.5255316548964
 20
-140.1221964167923
 10
116.2781737990554
 20
-140.289283547827
 10
116.0011881220413
 20
-140.289283547827
 97
        0
 97
        1
330
BA
 75
     2
 76
     1
 98
        1
 10
0.0
 20
0.0
450
        0
451
        0
460
0.0
461
0.0
452
        0
462
0.0
453
        0
470

  0
ENDBLK
  5
B9
330
B6
100
AcDbEntity
  8
0
100
AcDbBlockEnd
  0
BLOCK
  5
C1
330
BF
100
AcDbEntity
  8
0
100
AcDbBlockBegin
  2
Block_1
 70
     0
 10
0.0
 20
0.0
 30
0.0
  3
Block_1
  1

  0
SPLINE
  5
C3
330
BF
100
AcDbEntity
  8
レイヤー 1
100
AcDbSpline
210
0.0
220
0.0
230
1.0
 70
     9
 71
     3
 72
    17
 73
    13
 74
     0
 42
0.0000000001
 43
0.0000000001
 40
0.0
 40
0.0
 40
0.0
 40
0.0
 40
1.0
 40
1.0
 40
1.0
 40
2.0
 40
2.0
 40
2.0
 40
3.0
 40
3.0
 40
3.0
 40
4.0
 40
4.0
 40
4.0
 40
4.0
 10
115.3045898149238
 20
-156.6918999174242
 30
0.0
 10
115.0424180484963
 20
-156.6918999174242
 30
0.0
 10
115.0045219981586
 20
-156.9034287802186
 30
0.0
 10
115.0045219981586
 20
-157.01987300762
 30
0.0
 10
115.0045219981586
 20
-157.1955728773678
 30
0.0
 10
115.0996066335515
 20
-157.3585258938201
 30
0.0
 10
115.2835747324638
 20
-157.3585258938201
 30
0.0
 10
115.4041530744476
 20
-157.3585258938201
 30
0.0
 10
115.5798529441953
 20
-157.2992702514738
 30
0.0
 10
115.5798529441953
 20
-157.0136718357465
 30
0.0
 10
115.5798529441953
 20
-156.7893961196568
 30
0.0
 10
115.4403265770427
 20
-156.6918999174242
 30
0.0
 10
115.3045898149238
 20
-156.6918999174242
 30
0.0
  0
SPLINE
  5
C4
330
BF
100
AcDbEntity
  8
レイヤー 1
100
AcDbSpline
210
0.0
220
0.0
230
1.0
 70
     9
 71
     3
 72
    32
 73
    28
 74
     0
 42
0.0000000001
 43
0.0000000001
 40
0.0
 40
0.0
 40
0.0
 40
0.0
 40
1.0
 40
1.0
 40
1.0
 40
2.0
 40
2.0
 40
2.0
 40
3.0
 40
3.0
 40
3.0
 40
4.0
 40
4.0
 40
4.0
 40
5.0
 40
5.0
 40
5.0
 40
6.0
 40
6.0
 40
6.0
 40
7.0
 40
7.0
 40
7.0
 40
8.0
 40
8.0
 40
8.0
 40
9.0
 40
9.0
 40
9.0
 40
9.0
 10
115.2877088470461
 20
-157.550762221897
 30
0.0
 10
114.7716335433557
 20
-157.550762221897
 30
0.0
 10
114.7630208046426
 20
-156.9967908678688
 30
0.0
 10
114.7630208046426
 20
-156.7828504382348
 30
0.0
 10
114.7630208046426
 20
-156.5523735502716
 30
0.0
 10
114.78231333936
 20
-155.9050401085932
 30
0.0
 10
115.3259494069324
 20
-155.9050401085932
 30
0.0
 10
115.4992377098404
 20
-155.9050401085932
 30
0.0
 10
115.7448730179388
 20
-155.9749755469437
 30
0.0
 10
115.7827690682765
 20
-156.3070827517218
 30
0.0
 10
115.7827690682765
 20
-156.3070827517218
 30
0.0
 10
115.569173148191
 20
-156.3070827517218
 30
0.0
 10
115.569173148191
 20
-156.3070827517218
 30
0.0
 10
115.5584933521867
 20
-156.2498941666667
 30
0.0
 10
115.5267984737225
 20
-156.1017550608009
 30
0.0
 10
115.3238823496412
 20
-156.1017550608009
 30
0.0
 10
115.0317382524921
 20
-156.1017550608009
 30
0.0
 10
114.9917751448631
 20
-156.4297281509967
 30
0.0
 10
114.9790282915677
 20
-156.6347113323691
 30
0.0
 10
115.0720458696695
 20
-156.5565076648539
 30
0.0
 10
115.1399142507289
 20
-156.4972520225076
 30
0.0
 10
115.3218152923501
 20
-156.4972520225076
 30
0.0
 10
115.5016492766801
 20
-156.4972520225076
 30
0.0
 10
115.8041286602851
 20
-156.6054280207445
 30
0.0
 10
115.8041286602851
 20
-157.0116047784554
 30
0.0
 10
115.8041286602851
 20
-157.3309651299381
 30
0.0
 10
115.6050021412376
 20
-157.550762221897
 30
0.0
 10
115.2877088470461
 20
-157.550762221897
 30
0.0
  0
HATCH
  5
C5
330
BF
100
AcDbEntity
  8
レイヤー 1
 62
   250
420
  2299925
440
 33554687
100
AcDbHatch
 10
0.0
 20
0.0
 30
0.0
210
0.0
220
0.0
230
1.0
  2
SOLID
 70
     1
 71
     1
 91
        2
 92
        1
 93
        1
 72
     4
 94
        3
 73
     0
 74
     0
 95
       17
 96
       13
 40
0.0
 40
0.0
 40
0.0
 40
0.0
 40
1.0
 40
1.0
 40
1.0
 40
2.0
 40
2.0
 40
2.0
 40
3.0
 40
3.0
 40
3.0
 40
4.0
 40
4.0
 40
4.0
 40
4.0
 10
115.3045898149238
 20
-156.6918999174242
 10
115.0424180484963
 20
-156.6918999174242
 10
115.0045219981586
 20
-156.9034287802186
 10
115.0045219981586
 20
-157.01987300762
 10
115.0045219981586
 20
-157.1955728773678
 10
115.0996066335515
 20
-157.3585258938201
 10
115.2835747324638
 20
-157.3585258938201
 10
115.4041530744476
 20
-157.3585258938201
 10
115.5798529441953
 20
-157.2992702514738
 10
115.5798529441953
 20
-157.0136718357465
 10
115.5798529441953
 20
-156.7893961196568
 10
115.4403265770427
 20
-156.6918999174242
 10
115.3045898149238
 20
-156.6918999174242
 97
        0
 97
        1
330
C3
 92
        1
 93
        1
 72
     4
 94
        3
 73
     0
 74
     0
 95
       32
 96
       28
 40
0.0
 40
0.0
 40
0.0
 40
0.0
 40
1.0
 40
1.0
 40
1.0
 40
2.0
 40
2.0
 40
2.0
 40
3.0
 40
3.0
 40
3.0
 40
4.0
 40
4.0
 40
4.0
 40
5.0
 40
5.0
 40
5.0
 40
6.0
 40
6.0
 40
6.0
 40
7.0
 40
7.0
 40
7.0
 40
8.0
 40
8.0
 40
8.0
 40
9.0
 40
9.0
 40
9.0
 40
9.0
 10
115.2877088470461
 20
-157.550762221897
 10
114.7716335433557
 20
-157.550762221897
 10
114.7630208046426
 20
-156.9967908678688
 10
114.7630208046426
 20
-156.7828504382348
 10
114.7630208046426
 20
-156.5523735502716
 10
114.78231333936
 20
-155.9050401085932
 10
115.3259494069324
 20
-155.9050401085932
 10
115.4992377098404
 20
-155.9050401085932
 10
115.7448730179388
 20
-155.9749755469437
 10
115.7827690682765
 20
-156.3070827517218
 10
115.7827690682765
 20
-156.3070827517218
 10
115.569173148191
 20
-156.3070827517218
 10
115.569173148191
 20
-156.3070827517218
 10
115.5584933521867
 20
-156.2498941666667
 10
115.5267984737225
 20
-156.1017550608009
 10
115.3238823496412
 20
-156.1017550608009
 10
115.0317382524921
 20
-156.1017550608009
 10
114.9917751448631
 20
-156.4297281509967
 10
114.9790282915677
 20
-156.6347113323691
 10
115.0720458696695
 20
-156.5565076648539
 10
115.1399142507289
 20
-156.4972520225076
 10
115.3218152923501
 20
-156.4972520225076
 10
115.5016492766801
 20
-156.4972520225076
 10
115.8041286602851
 20
-156.6054280207445
 10
115.8041286602851
 20
-157.0116047784554
 10
115.8041286602851
 20
-157.3309651299381
 10
115.6050021412376
 20
-157.550762221897
 10
115.2877088470461
 20
-157.550762221897
 97
        0
 97
        1
330
C4
 75
     2
 76
     1
 98
        1
 10
0.0
 20
0.0
450
        0
451
        0
460
0.0
461
0.0
452
        0
462
0.0
453
        0
470

  0
ENDBLK
  5
C2
330
BF
100
AcDbEntity
  8
0
100
AcDbBlockEnd
  0
BLOCK
  5
CC
330
CA
100
AcDbEntity
  8
0
100
AcDbBlockBegin
  2
Block_2
 70
     0
 10
0.0
 20
0.0
 30
0.0
  3
Block_2
  1

  0
INSERT
  5
CF
330
CA
100
AcDbEntity
  8
レイヤー 1
100
AcDbBlockReference
  2
Block_3
 10
0.0
 20
0.0
 30
0.0
  0
ENDBLK
  5
CD
330
CA
100
AcDbEntity
  8
0
100
AcDbBlockEnd
  0
BLOCK
  5
D0
330
CE
100
AcDbEntity
  8
0
100
AcDbBlockBegin
  2
Block_3
 70
     0
 10
0.0
 20
0.0
 30
0.0
  3
Block_3
  1

  0
SPLINE
  5
D2
330
CE
100
AcDbEntity
  8
レイヤー 1
100
AcDbSpline
210
0.0
220
0.0
230
1.0
 70
     9
 71
     3
 72
    17
 73
    13
 74
     0
 42
0.0000000001
 43
0.0000000001
 40
0.0
 40
0.0
 40
0.0
 40
0.0
 40
1.0
 40
1.0
 40
1.0
 40
2.0
 40
2.0
 40
2.0
 40
3.0
 40
3.0
 40
3.0
 40
4.0
 40
4.0
 40
4.0
 40
4.0
 10
86.66275496965376
 20
-146.8687269055571
 30
0.0
 10
86.66275496965376
 20
-147.1184963282377
 30
0.0
 10
86.94628632808983
 20
-147.1650051172886
 30
0.0
 10
87.29114038616334
 20
-147.1650051172886
 30
0.0
 10
87.61050073764598
 20
-147.1650051172886
 30
0.0
 10
87.9195258026729
 20
-147.1288316146935
 30
0.0
 10
87.9195258026729
 20
-146.8687269055571
 30
0.0
 10
87.9195258026729
 20
-146.6211967949419
 30
0.0
 10
87.63806150152799
 20
-146.5724486938256
 30
0.0
 10
87.29114038616334
 20
-146.5724486938256
 30
0.0
 10
86.97178003468067
 20
-146.5724486938256
 30
0.0
 10
86.66275496965376
 20
-146.6106892537119
 30
0.0
 10
86.66275496965376
 20
-146.8687269055571
 30
0.0
  0
SPLINE
  5
D3
330
CE
100
AcDbEntity
  8
レイヤー 1
100
AcDbSpline
210
0.0
220
0.0
230
1.0
 70
     9
 71
     3
 72
    29
 73
    25
 74
     0
 42
0.0000000001
 43
0.0000000001
 40
0.0
 40
0.0
 40
0.0
 40
0.0
 40
1.0
 40
1.0
 40
1.0
 40
2.0
 40
2.0
 40
2.0
 40
3.0
 40
3.0
 40
3.0
 40
4.0
 40
4.0
 40
4.0
 40
5.0
 40
5.0
 40
5.0
 40
6.0
 40
6.0
 40
6.0
 40
7.0
 40
7.0
 40
7.0
 40
8.0
 40
8.0
 40
8.0
 40
8.0
 10
87.88541935736892
 20
-146.470990631785
 30
0.0
 10
88.0948811628721
 20
-146.5788221204733
 30
0.0
 10
88.11417369758952
 20
-146.7522826781557
 30
0.0
 10
88.11417369758952
 20
-146.8687269055571
 30
0.0
 10
88.11417369758952
 20
-147.0296128647183
 30
0.0
 10
88.06766490853865
 20
-147.171206289162
 30
0.0
 10
87.88541935736892
 20
-147.2662909245549
 30
0.0
 10
87.69111597200083
 20
-147.369988298661
 30
0.0
 10
87.45409340261565
 20
-147.3892808333784
 30
0.0
 10
87.29114038616334
 20
-147.3892808333784
 30
0.0
 10
87.14713539487988
 20
-147.3892808333784
 30
0.0
 10
86.89564342445665
 20
-147.3720553559521
 30
0.0
 10
86.69651690540922
 20
-147.2662909245549
 30
0.0
 10
86.49360078132799
 20
-147.1584594358666
 30
0.0
 10
86.4701741320283
 20
-146.9975734767055
 30
0.0
 10
86.4701741320283
 20
-146.8687269055571
 30
0.0
 10
86.4701741320283
 20
-146.7099080036871
 30
0.0
 10
86.51461586378802
 20
-146.5662475219522
 30
0.0
 10
86.69651690540922
 20
-146.470990631785
 30
0.0
 10
86.88909774303466
 20
-146.3715996270356
 30
0.0
 10
87.11750757370673
 20
-146.3483452325101
 30
0.0
 10
87.29114038616334
 20
-146.3483452325101
 30
0.0
 10
87.46236163178023
 20
-146.3483452325101
 30
0.0
 10
87.69318302929198
 20
-146.3693603149702
 30
0.0
 10
87.88541935736892
 20
-146.470990631785
 30
0.0
  0
HATCH
  5
D4
330
CE
100
AcDbEntity
  8
レイヤー 1
 62
   250
420
  2299925
440
 33554687
100
AcDbHatch
 10
0.0
 20
0.0
 30
0.0
210
0.0
220
0.0
230
1.0
  2
SOLID
 70
     1
 71
     1
 91
        2
 92
        1
 93
        1
 72
     4
 94
        3
 73
     0
 74
     0
 95
       17
 96
       13
 40
0.0
 40
0.0
 40
0.0
 40
0.0
 40
1.0
 40
1.0
 40
1.0
 40
2.0
 40
2.0
 40
2.0
 40
3.0
 40
3.0
 40
3.0
 40
4.0
 40
4.0
 40
4.0
 40
4.0
 10
86.66275496965376
 20
-146.8687269055571
 10
86.66275496965376
 20
-147.1184963282377
 10
86.94628632808983
 20
-147.1650051172886
 10
87.29114038616334
 20
-147.1650051172886
 10
87.61050073764598
 20
-147.1650051172886
 10
87.9195258026729
 20
-147.1288316146935
 10
87.9195258026729
 20
-146.8687269055571
 10
87.9195258026729
 20
-146.6211967949419
 10
87.63806150152799
 20
-146.5724486938256
 10
87.29114038616334
 20
-146.5724486938256
 10
86.97178003468067
 20
-146.5724486938256
 10
86.66275496965376
 20
-146.6106892537119
 10
86.66275496965376
 20
-146.8687269055571
 97
        0
 97
        1
330
D2
 92
        1
 93
        1
 72
     4
 94
        3
 73
     0
 74
     0
 95
       29
 96
       25
 40
0.0
 40
0.0
 40
0.0
 40
0.0
 40
1.0
 40
1.0
 40
1.0
 40
2.0
 40
2.0
 40
2.0
 40
3.0
 40
3.0
 40
3.0
 40
4.0
 40
4.0
 40
4.0
 40
5.0
 40
5.0
 40
5.0
 40
6.0
 40
6.0
 40
6.0
 40
7.0
 40
7.0
 40
7.0
 40
8.0
 40
8.0
 40
8.0
 40
8.0
 10
87.88541935736892
 20
-146.470990631785
 10
88.0948811628721
 20
-146.5788221204733
 10
88.11417369758952
 20
-146.7522826781557
 10
88.11417369758952
 20
-146.8687269055571
 10
88.11417369758952
 20
-147.0296128647183
 10
88.06766490853865
 20
-147.171206289162
 10
87.88541935736892
 20
-147.2662909245549
 10
87.69111597200083
 20
-147.369988298661
 10
87.45409340261565
 20
-147.3892808333784
 10
87.29114038616334
 20
-147.3892808333784
 10
87.14713539487988
 20
-147.3892808333784
 10
86.89564342445665
 20
-147.3720553559521
 10
86.69651690540922
 20
-147.2662909245549
 10
86.49360078132799
 20
-147.1584594358666
 10
86.4701741320283
 20
-146.9975734767055
 10
86.4701741320283
 20
-146.8687269055571
 10
86.4701741320283
 20
-146.7099080036871
 10
86.51461586378802
 20
-146.5662475219522
 10
86.69651690540922
 20
-146.470990631785
 10
86.88909774303466
 20
-146.3715996270356
 10
87.11750757370673
 20
-146.3483452325101
 10
87.29114038616334
 20
-146.3483452325101
 10
87.46236163178023
 20
-146.3483452325101
 10
87.69318302929198
 20
-146.3693603149702
 10
87.88541935736892
 20
-146.470990631785
 97
        0
 97
        1
330
D3
 75
     2
 76
     1
 98
        1
 10
0.0
 20
0.0
450
        0
451
        0
460
0.0
461
0.0
452
        0
462
0.0
453
        0
470

  0
SPLINE
  5
D5
330
CE
100
AcDbEntity
  8
レイヤー 1
100
AcDbSpline
210
0.0
220
0.0
230
1.0
 70
    11
 71
     3
 72
    17
 73
    13
 74
     0
 42
0.0000000001
 43
0.0000000001
 40
0.0
 40
0.0
 40
0.0
 40
0.0
 40
1.0
 40
1.0
 40
1.0
 40
2.0
 40
2.0
 40
2.0
 40
3.0
 40
3.0
 40
3.0
 40
4.0
 40
4.0
 40
4.0
 40
4.0
 10
88.06318628440783
 20
-146.1318209812622
 30
0.0
 10
88.06318628440783
 20
-146.1318209812622
 30
0.0
 10
87.81169431398458
 20
-146.1318209812622
 30
0.0
 10
87.81169431398458
 20
-146.1318209812622
 30
0.0
 10
87.81169431398458
 20
-146.1318209812622
 30
0.0
 10
87.81169431398458
 20
-145.8801567560646
 30
0.0
 10
87.81169431398458
 20
-145.8801567560646
 30
0.0
 10
87.81169431398458
 20
-145.8801567560646
 30
0.0
 10
88.06318628440783
 20
-145.8801567560646
 30
0.0
 10
88.06318628440783
 20
-145.8801567560646
 30
0.0
 10
88.06318628440783
 20
-145.8801567560646
 30
0.0
 10
88.06318628440783
 20
-146.1318209812622
 30
0.0
 10
88.06318628440783
 20
-146.1318209812622
 30
0.0
  0
HATCH
  5
D6
330
CE
100
AcDbEntity
  8
レイヤー 1
 62
   250
420
  2299925
440
 33554687
100
AcDbHatch
 10
0.0
 20
0.0
 30
0.0
210
0.0
220
0.0
230
1.0
  2
SOLID
 70
     1
 71
     1
 91
        1
 92
        1
 93
        1
 72
     4
 94
        3
 73
     0
 74
     0
 95
       17
 96
       13
 40
0.0
 40
0.0
 40
0.0
 40
0.0
 40
1.0
 40
1.0
 40
1.0
 40
2.0
 40
2.0
 40
2.0
 40
3.0
 40
3.0
 40
3.0
 40
4.0
 40
4.0
 40
4.0
 40
4.0
 10
88.06318628440783
 20
-146.1318209812622
 10
88.06318628440783
 20
-146.1318209812622
 10
87.81169431398458
 20
-146.1318209812622
 10
87.81169431398458
 20
-146.1318209812622
 10
87.81169431398458
 20
-146.1318209812622
 10
87.81169431398458
 20
-145.8801567560646
 10
87.81169431398458
 20
-145.8801567560646
 10
87.81169431398458
 20
-145.8801567560646
 10
88.06318628440783
 20
-145.8801567560646
 10
88.06318628440783
 20
-145.8801567560646
 10
88.06318628440783
 20
-145.8801567560646
 10
88.06318628440783
 20
-146.1318209812622
 10
88.06318628440783
 20
-146.1318209812622
 97
        0
 97
        1
330
D5
 75
     2
 76
     1
 98
        1
 10
0.0
 20
0.0
450
        0
451
        0
460
0.0
461
0.0
452
        0
462
0.0
453
        0
470

  0
SPLINE
  5
D7
330
CE
100
AcDbEntity
  8
レイヤー 1
100
AcDbSpline
210
0.0
220
0.0
230
1.0
 70
     9
 71
     3
 72
    53
 73
    49
 74
     0
 42
0.0000000001
 43
0.0000000001
 40
0.0
 40
0.0
 40
0.0
 40
0.0
 40
1.0
 40
1.0
 40
1.0
 40
2.0
 40
2.0
 40
2.0
 40
3.0
 40
3.0
 40
3.0
 40
4.0
 40
4.0
 40
4.0
 40
5.0
 40
5.0
 40
5.0
 40
6.0
 40
6.0
 40
6.0
 40
7.0
 40
7.0
 40
7.0
 40
8.0
 40
8.0
 40
8.0
 40
9.0
 40
9.0
 40
9.0
 40
10.0
 40
10.0
 40
10.0
 40
11.0
 40
11.0
 40
11.0
 40
12.0
 40
12.0
 40
12.0
 40
13.0
 40
13.0
 40
13.0
 40
14.0
 40
14.0
 40
14.0
 40
15.0
 40
15.0
 40
15.0
 40
16.0
 40
16.0
 40
16.0
 40
16.0
 10
88.11417369758952
 20
-145.1625433664871
 30
0.0
 10
88.11417369758952
 20
-145.2409192887766
 30
0.0
 10
88.0972927297118
 20
-145.3423773508172
 30
0.0
 10
88.03355846323468
 20
-145.444007667632
 30
0.0
 10
87.92365991725519
 20
-145.6174682253144
 30
0.0
 10
87.79240177926718
 20
-145.6386555625487
 30
0.0
 10
87.68457029057886
 20
-145.6576035877175
 30
0.0
 10
87.68457029057886
 20
-145.6576035877175
 30
0.0
 10
87.68457029057886
 20
-145.4355671836932
 30
0.0
 10
87.68457029057886
 20
-145.4355671836932
 30
0.0
 10
87.88335230007778
 20
-145.3804456559292
 30
0.0
 10
87.91298012125093
 20
-145.2534938872977
 30
0.0
 10
87.91298012125093
 20
-145.160476309196
 30
0.0
 10
87.91298012125093
 20
-145.0207776872691
 30
0.0
 10
87.81376137127573
 20
-144.868504466821
 30
0.0
 10
87.58087291647283
 20
-144.868504466821
 30
0.0
 10
87.32490232191878
 20
-144.868504466821
 30
0.0
 10
87.25531139311673
 20
-145.0483384511511
 30
0.0
 10
87.25531139311673
 20
-145.1689167931348
 30
0.0
 10
87.25531139311673
 20
-145.2006116715991
 30
0.0
 10
87.25531139311673
 20
-145.3423773508172
 30
0.0
 10
87.38415796426506
 20
-145.4312608143366
 30
0.0
 10
87.38415796426506
 20
-145.4312608143366
 30
0.0
 10
87.3652099390962
 20
-145.6067884293101
 30
0.0
 10
87.3652099390962
 20
-145.6067884293101
 30
0.0
 10
87.3652099390962
 20
-145.6067884293101
 30
0.0
 10
86.51909448791883
 20
-145.4862100873264
 30
0.0
 10
86.51909448791883
 20
-145.4862100873264
 30
0.0
 10
86.51909448791883
 20
-145.4862100873264
 30
0.0
 10
86.51909448791883
 20
-144.7077907624342
 30
0.0
 10
86.51909448791883
 20
-144.7077907624342
 30
0.0
 10
86.51909448791883
 20
-144.7077907624342
 30
0.0
 10
86.71374238283545
 20
-144.7077907624342
 30
0.0
 10
86.71374238283545
 20
-144.7077907624342
 30
0.0
 10
86.71374238283545
 20
-144.7077907624342
 30
0.0
 10
86.71374238283545
 20
-145.3234293256483
 30
0.0
 10
86.71374238283545
 20
-145.3234293256483
 30
0.0
 10
86.71374238283545
 20
-145.3234293256483
 30
0.0
 10
87.13680010842415
 20
-145.388886139868
 30
0.0
 10
87.13680010842415
 20
-145.388886139868
 30
0.0
 10
87.10269366312017
 20
-145.3275634402306
 30
0.0
 10
87.06273055549127
 20
-145.2450534033589
 30
0.0
 10
87.06273055549127
 20
-145.1267143734405
 30
0.0
 10
87.06273055549127
 20
-144.8728108361776
 30
0.0
 10
87.24876571169476
 20
-144.6357882667924
 30
0.0
 10
87.56192489130397
 20
-144.6357882667924
 30
0.0
 10
87.87921818549547
 20
-144.6357882667924
 30
0.0
 10
88.11417369758952
 20
-144.8600639828822
 30
0.0
 10
88.11417369758952
 20
-145.1625433664871
 30
0.0
  0
HATCH
  5
D8
330
CE
100
AcDbEntity
  8
レイヤー 1
 62
   250
420
  2299925
440
 33554687
100
AcDbHatch
 10
0.0
 20
0.0
 30
0.0
210
0.0
220
0.0
230
1.0
  2
SOLID
 70
     1
 71
     1
 91
        1
 92
        1
 93
        1
 72
     4
 94
        3
 73
     0
 74
     0
 95
       53
 96
       49
 40
0.0
 40
0.0
 40
0.0
 40
0.0
 40
1.0
 40
1.0
 40
1.0
 40
2.0
 40
2.0
 40
2.0
 40
3.0
 40
3.0
 40
3.0
 40
4.0
 40
4.0
 40
4.0
 40
5.0
 40
5.0
 40
5.0
 40
6.0
 40
6.0
 40
6.0
 40
7.0
 40
7.0
 40
7.0
 40
8.0
 40
8.0
 40
8.0
 40
9.0
 40
9.0
 40
9.0
 40
10.0
 40
10.0
 40
10.0
 40
11.0
 40
11.0
 40
11.0
 40
12.0
 40
12.0
 40
12.0
 40
13.0
 40
13.0
 40
13.0
 40
14.0
 40
14.0
 40
14.0
 40
15.0
 40
15.0
 40
15.0
 40
16.0
 40
16.0
 40
16.0
 40
16.0
 10
88.11417369758952
 20
-145.1625433664871
 10
88.11417369758952
 20
-145.2409192887766
 10
88.0972927297118
 20
-145.3423773508172
 10
88.03355846323468
 20
-145.444007667632
 10
87.92365991725519
 20
-145.6174682253144
 10
87.79240177926718
 20
-145.6386555625487
 10
87.68457029057886
 20
-145.6576035877175
 10
87.68457029057886
 20
-145.6576035877175
 10
87.68457029057886
 20
-145.4355671836932
 10
87.68457029057886
 20
-145.4355671836932
 10
87.88335230007778
 20
-145.3804456559292
 10
87.91298012125093
 20
-145.2534938872977
 10
87.91298012125093
 20
-145.160476309196
 10
87.91298012125093
 20
-145.0207776872691
 10
87.81376137127573
 20
-144.868504466821
 10
87.58087291647283
 20
-144.868504466821
 10
87.32490232191878
 20
-144.868504466821
 10
87.25531139311673
 20
-145.0483384511511
 10
87.25531139311673
 20
-145.1689167931348
 10
87.25531139311673
 20
-145.2006116715991
 10
87.25531139311673
 20
-145.3423773508172
 10
87.38415796426506
 20
-145.4312608143366
 10
87.38415796426506
 20
-145.4312608143366
 10
87.3652099390962
 20
-145.6067884293101
 10
87.3652099390962
 20
-145.6067884293101
 10
87.3652099390962
 20
-145.6067884293101
 10
86.51909448791883
 20
-145.4862100873264
 10
86.51909448791883
 20
-145.4862100873264
 10
86.51909448791883
 20
-145.4862100873264
 10
86.51909448791883
 20
-144.7077907624342
 10
86.51909448791883
 20
-144.7077907624342
 10
86.51909448791883
 20
-144.7077907624342
 10
86.71374238283545
 20
-144.7077907624342
 10
86.71374238283545
 20
-144.7077907624342
 10
86.71374238283545
 20
-144.7077907624342
 10
86.71374238283545
 20
-145.3234293256483
 10
86.71374238283545
 20
-145.3234293256483
 10
86.71374238283545
 20
-145.3234293256483
 10
87.13680010842415
 20
-145.388886139868
 10
87.13680010842415
 20
-145.388886139868
 10
87.10269366312017
 20
-145.3275634402306
 10
87.06273055549127
 20
-145.2450534033589
 10
87.06273055549127
 20
-145.1267143734405
 10
87.06273055549127
 20
-144.8728108361776
 10
87.24876571169476
 20
-144.6357882667924
 10
87.56192489130397
 20
-144.6357882667924
 10
87.87921818549547
 20
-144.6357882667924
 10
88.11417369758952
 20
-144.8600639828822
 10
88.11417369758952
 20
-145.1625433664871
 97
        0
 97
        1
330
D7
 75
     2
 76
     1
 98
        1
 10
0.0
 20
0.0
450
        0
451
        0
460
0.0
461
0.0
452
        0
462
0.0
453
        0
470

  0
ENDBLK
  5
D1
330
CE
100
AcDbEntity
  8
0
100
AcDbBlockEnd
  0
BLOCK
  5
DD
330
DB
100
AcDbEntity
  8
0
100
AcDbBlockBegin
  2
Block_4
 70
     0
 10
0.0
 20
0.0
 30
0.0
  3
Block_4
  1

  0
INSERT
  5
E0
330
DB
100
AcDbEntity
  8
レイヤー 1
100
AcDbBlockReference
  2
Block_5
 10
0.0
 20
0.0
 30
0.0
  0
ENDBLK
  5
DE
330
DB
100
AcDbEntity
  8
0
100
AcDbBlockEnd
  0
BLOCK
  5
E1
330
DF
100
AcDbEntity
  8
0
100
AcDbBlockBegin
  2
Block_5
 70
     0
 10
0.0
 20
0.0
 30
0.0
  3
Block_5
  1

  0
SPLINE
  5
E3
330
DF
100
AcDbEntity
  8
レイヤー 1
100
AcDbSpline
210
0.0
220
0.0
230
1.0
 70
     9
 71
     3
 72
    44
 73
    40
 74
     0
 42
0.0000000001
 43
0.0000000001
 40
0.0
 40
0.0
 40
0.0
 40
0.0
 40
1.0
 40
1.0
 40
1.0
 40
2.0
 40
2.0
 40
2.0
 40
3.0
 40
3.0
 40
3.0
 40
4.0
 40
4.0
 40
4.0
 40
5.0
 40
5.0
 40
5.0
 40
6.0
 40
6.0
 40
6.0
 40
7.0
 40
7.0
 40
7.0
 40
8.0
 40
8.0
 40
8.0
 40
9.0
 40
9.0
 40
9.0
 40
10.0
 40
10.0
 40
10.0
 40
11.0
 40
11.0
 40
11.0
 40
12.0
 40
12.0
 40
12.0
 40
13.0
 40
13.0
 40
13.0
 40
13.0
 10
103.4362358682382
 20
-139.6565917619609
 30
0.0
 10
103.2185058335703
 20
-139.8152384090566
 30
0.0
 10
103.1254882554686
 20
-139.8893079619895
 30
0.0
 10
103.0765678995781
 20
-140.0331406984987
 30
0.0
 10
103.0765678995781
 20
-140.0331406984987
 30
0.0
 10
103.8551594792445
 20
-140.0331406984987
 30
0.0
 10
103.8551594792445
 20
-140.0331406984987
 30
0.0
 10
103.8551594792445
 20
-140.0331406984987
 30
0.0
 10
103.8551594792445
 20
-140.2382961346453
 30
0.0
 10
103.8551594792445
 20
-140.2382961346453
 30
0.0
 10
103.8551594792445
 20
-140.2382961346453
 30
0.0
 10
102.827142986446
 20
-140.2382961346453
 30
0.0
 10
102.827142986446
 20
-140.2382961346453
 30
0.0
 10
102.8588378649103
 20
-139.8806952232763
 30
0.0
 10
102.92429467913
 20
-139.8024915557612
 30
0.0
 10
103.309456354381
 20
-139.5041462867385
 30
0.0
 10
103.565426948935
 20
-139.3053642772396
 30
0.0
 10
103.6308837631548
 20
-139.2376681509545
 30
0.0
 10
103.6308837631548
 20
-139.100208841093
 30
0.0
 10
103.6308837631548
 20
-138.9816975564004
 30
0.0
 10
103.558881267513
 20
-138.8506116731866
 30
0.0
 10
103.3621663153053
 20
-138.8506116731866
 30
0.0
 10
103.1020616061689
 20
-138.8506116731866
 30
0.0
 10
103.0934488674558
 20
-139.0810885611498
 30
0.0
 10
103.0893147528735
 20
-139.1975327885513
 30
0.0
 10
103.0893147528735
 20
-139.1975327885513
 30
0.0
 10
102.8650390367837
 20
-139.1975327885513
 30
0.0
 10
102.8650390367837
 20
-139.1975327885513
 30
0.0
 10
102.8736517754968
 20
-139.0705810199198
 30
0.0
 10
102.8843315715011
 20
-138.9584431618749
 30
0.0
 10
102.9646022963074
 20
-138.8399318771823
 30
0.0
 10
103.0745008422869
 20
-138.6792181727955
 30
0.0
 10
103.2608805080389
 20
-138.6452839822657
 30
0.0
 10
103.3769802258919
 20
-138.6452839822657
 30
0.0
 10
103.6543104124544
 20
-138.6452839822657
 30
0.0
 10
103.8617051606665
 20
-138.8294243359523
 30
0.0
 10
103.8617051606665
 20
-139.1022758983841
 30
0.0
 10
103.8617051606665
 20
-139.3306857290562
 30
0.0
 10
103.7452609332651
 20
-139.4302489885799
 30
0.0
 10
103.4362358682382
 20
-139.6565917619609
 30
0.0
  0
HATCH
  5
E4
330
DF
100
AcDbEntity
  8
レイヤー 1
 62
   250
420
  2299925
440
 33554687
100
AcDbHatch
 10
0.0
 20
0.0
 30
0.0
210
0.0
220
0.0
230
1.0
  2
SOLID
 70
     1
 71
     1
 91
        1
 92
        1
 93
        1
 72
     4
 94
        3
 73
     0
 74
     0
 95
       44
 96
       40
 40
0.0
 40
0.0
 40
0.0
 40
0.0
 40
1.0
 40
1.0
 40
1.0
 40
2.0
 40
2.0
 40
2.0
 40
3.0
 40
3.0
 40
3.0
 40
4.0
 40
4.0
 40
4.0
 40
5.0
 40
5.0
 40
5.0
 40
6.0
 40
6.0
 40
6.0
 40
7.0
 40
7.0
 40
7.0
 40
8.0
 40
8.0
 40
8.0
 40
9.0
 40
9.0
 40
9.0
 40
10.0
 40
10.0
 40
10.0
 40
11.0
 40
11.0
 40
11.0
 40
12.0
 40
12.0
 40
12.0
 40
13.0
 40
13.0
 40
13.0
 40
13.0
 10
103.4362358682382
 20
-139.6565917619609
 10
103.2185058335703
 20
-139.8152384090566
 10
103.1254882554686
 20
-139.8893079619895
 10
103.0765678995781
 20
-140.0331406984987
 10
103.0765678995781
 20
-140.0331406984987
 10
103.8551594792445
 20
-140.0331406984987
 10
103.8551594792445
 20
-140.0331406984987
 10
103.8551594792445
 20
-140.0331406984987
 10
103.8551594792445
 20
-140.2382961346453
 10
103.8551594792445
 20
-140.2382961346453
 10
103.8551594792445
 20
-140.2382961346453
 10
102.827142986446
 20
-140.2382961346453
 10
102.827142986446
 20
-140.2382961346453
 10
102.8588378649103
 20
-139.8806952232763
 10
102.92429467913
 20
-139.8024915557612
 10
103.309456354381
 20
-139.5041462867385
 10
103.565426948935
 20
-139.3053642772396
 10
103.6308837631548
 20
-139.2376681509545
 10
103.6308837631548
 20
-139.100208841093
 10
103.6308837631548
 20
-138.9816975564004
 10
103.558881267513
 20
-138.8506116731866
 10
103.3621663153053
 20
-138.8506116731866
 10
103.1020616061689
 20
-138.8506116731866
 10
103.0934488674558
 20
-139.0810885611498
 10
103.0893147528735
 20
-139.1975327885513
 10
103.0893147528735
 20
-139.1975327885513
 10
102.8650390367837
 20
-139.1975327885513
 10
102.8650390367837
 20
-139.1975327885513
 10
102.8736517754968
 20
-139.0705810199198
 10
102.8843315715011
 20
-138.9584431618749
 10
102.9646022963074
 20
-138.8399318771823
 10
103.0745008422869
 20
-138.6792181727955
 10
103.2608805080389
 20
-138.6452839822657
 10
103.3769802258919
 20
-138.6452839822657
 10
103.6543104124544
 20
-138.6452839822657
 10
103.8617051606665
 20
-138.8294243359523
 10
103.8617051606665
 20
-139.1022758983841
 10
103.8617051606665
 20
-139.3306857290562
 10
103.7452609332651
 20
-139.4302489885799
 10
103.4362358682382
 20
-139.6565917619609
 97
        0
 97
        1
330
E3
 75
     2
 76
     1
 98
        1
 10
0.0
 20
0.0
450
        0
451
        0
460
0.0
461
0.0
452
        0
462
0.0
453
        0
470

  0
SPLINE
  5
E5
330
DF
100
AcDbEntity
  8
レイヤー 1
100
AcDbSpline
210
0.0
220
0.0
230
1.0
 70
    11
 71
     3
 72
    26
 73
    22
 74
     0
 42
0.0000000001
 43
0.0000000001
 40
0.0
 40
0.0
 40
0.0
 40
0.0
 40
1.0
 40
1.0
 40
1.0
 40
2.0
 40
2.0
 40
2.0
 40
3.0
 40
3.0
 40
3.0
 40
4.0
 40
4.0
 40
4.0
 40
5.0
 40
5.0
 40
5.0
 40
6.0
 40
6.0
 40
6.0
 40
7.0
 40
7.0
 40
7.0
 40
7.0
 10
104.4714870615557
 20
-140.2382961346453
 30
0.0
 10
104.4714870615557
 20
-140.2382961346453
 30
0.0
 10
104.4714870615557
 20
-139.1339707768484
 30
0.0
 10
104.4714870615557
 20
-139.1339707768484
 30
0.0
 10
104.4714870615557
 20
-139.1339707768484
 30
0.0
 10
104.1414469140688
 20
-139.1339707768484
 30
0.0
 10
104.1414469140688
 20
-139.1339707768484
 30
0.0
 10
104.1414469140688
 20
-139.1339707768484
 30
0.0
 10
104.1414469140688
 20
-138.986003925757
 30
0.0
 10
104.1414469140688
 20
-138.986003925757
 30
0.0
 10
104.4735541188469
 20
-138.9711900151704
 30
0.0
 10
104.5200629078977
 20
-138.8082369987181
 30
0.0
 10
104.5496907290709
 20
-138.694032083382
 30
0.0
 10
104.5496907290709
 20
-138.694032083382
 30
0.0
 10
104.6957627776455
 20
-138.694032083382
 30
0.0
 10
104.6957627776455
 20
-138.694032083382
 30
0.0
 10
104.6957627776455
 20
-138.694032083382
 30
0.0
 10
104.6957627776455
 20
-140.2382961346453
 30
0.0
 10
104.6957627776455
 20
-140.2382961346453
 30
0.0
 10
104.6957627776455
 20
-140.2382961346453
 30
0.0
 10
104.4714870615557
 20
-140.2382961346453
 30
0.0
 10
104.4714870615557
 20
-140.2382961346453
 30
0.0
  0
HATCH
  5
E6
330
DF
100
AcDbEntity
  8
レイヤー 1
 62
   250
420
  2299925
440
 33554687
100
AcDbHatch
 10
0.0
 20
0.0
 30
0.0
210
0.0
220
0.0
230
1.0
  2
SOLID
 70
     1
 71
     1
 91
        1
 92
        1
 93
        1
 72
     4
 94
        3
 73
     0
 74
     0
 95
       26
 96
       22
 40
0.0
 40
0.0
 40
0.0
 40
0.0
 40
1.0
 40
1.0
 40
1.0
 40
2.0
 40
2.0
 40
2.0
 40
3.0
 40
3.0
 40
3.0
 40
4.0
 40
4.0
 40
4.0
 40
5.0
 40
5.0
 40
5.0
 40
6.0
 40
6.0
 40
6.0
 40
7.0
 40
7.0
 40
7.0
 40
7.0
 10
104.4714870615557
 20
-140.2382961346453
 10
104.4714870615557
 20
-140.2382961346453
 10
104.4714870615557
 20
-139.1339707768484
 10
104.4714870615557
 20
-139.1339707768484
 10
104.4714870615557
 20
-139.1339707768484
 10
104.1414469140688
 20
-139.1339707768484
 10
104.1414469140688
 20
-139.1339707768484
 10
104.1414469140688
 20
-139.1339707768484
 10
104.1414469140688
 20
-138.986003925757
 10
104.1414469140688
 20
-138.986003925757
 10
104.4735541188469
 20
-138.9711900151704
 10
104.5200629078977
 20
-138.8082369987181
 10
104.5496907290709
 20
-138.694032083382
 10
104.5496907290709
 20
-138.694032083382
 10
104.6957627776455
 20
-138.694032083382
 10
104.6957627776455
 20
-138.694032083382
 10
104.6957627776455
 20
-138.694032083382
 10
104.6957627776455
 20
-140.2382961346453
 10
104.6957627776455
 20
-140.2382961346453
 10
104.6957627776455
 20
-140.2382961346453
 10
104.4714870615557
 20
-140.2382961346453
 10
104.4714870615557
 20
-140.2382961346453
 97
        0
 97
        1
330
E5
 75
     2
 76
     1
 98
        1
 10
0.0
 20
0.0
450
        0
451
        0
460
0.0
461
0.0
452
        0
462
0.0
453
        0
470

  0
ENDBLK
  5
E2
330
DF
100
AcDbEntity
  8
0
100
AcDbBlockEnd
  0
BLOCK
  5
EB
330
E9
100
AcDbEntity
  8
0
100
AcDbBlockBegin
  2
Block_6
 70
     0
 10
0.0
 20
0.0
 30
0.0
  3
Block_6
  1

  0
SPLINE
  5
ED
330
E9
100
AcDbEntity
  8
レイヤー 1
100
AcDbSpline
210
0.0
220
0.0
230
1.0
 70
     9
 71
     3
 72
    17
 73
    13
 74
     0
 42
0.0000000001
 43
0.0000000001
 40
0.0
 40
0.0
 40
0.0
 40
0.0
 40
1.0
 40
1.0
 40
1.0
 40
2.0
 40
2.0
 40
2.0
 40
3.0
 40
3.0
 40
3.0
 40
4.0
 40
4.0
 40
4.0
 40
4.0
 10
88.05371227182339
 20
-150.2116753096693
 30
0.0
 10
88.05371227182339
 20
-150.3553357914042
 30
0.0
 10
88.14035642327741
 20
-150.5079535214008
 30
0.0
 10
88.34344480213289
 20
-150.5079535214008
 30
0.0
 10
88.54860023827951
 20
-150.5079535214008
 30
0.0
 10
88.65023055509439
 20
-150.3808294979951
 30
0.0
 10
88.65023055509439
 20
-150.2116753096693
 30
0.0
 10
88.65023055509439
 20
-150.0256401534658
 30
0.0
 10
88.5275851558195
 20
-149.9153970979378
 30
0.0
 10
88.34981822878061
 20
-149.9153970979378
 30
0.0
 10
88.12760956998198
 20
-149.9153970979378
 30
0.0
 10
88.05371227182339
 20
-150.0783501143901
 30
0.0
 10
88.05371227182339
 20
-150.2116753096693
 30
0.0
  0
SPLINE
  5
EE
330
E9
100
AcDbEntity
  8
レイヤー 1
100
AcDbSpline
210
0.0
220
0.0
230
1.0
 70
     9
 71
     3
 72
    17
 73
    13
 74
     0
 42
0.0000000001
 43
0.0000000001
 40
0.0
 40
0.0
 40
0.0
 40
0.0
 40
1.0
 40
1.0
 40
1.0
 40
2.0
 40
2.0
 40
2.0
 40
3.0
 40
3.0
 40
3.0
 40
4.0
 40
4.0
 40
4.0
 40
4.0
 10
87.39363197684951
 20
-150.2116753096693
 30
0.0
 10
87.39363197684951
 20
-150.3766953834127
 30
0.0
 10
87.4887166122424
 20
-150.4611002228014
 30
0.0
 10
87.62410886481273
 20
-150.4611002228014
 30
0.0
 10
87.74692651886189
 20
-150.4611002228014
 30
0.0
 10
87.86543780355447
 20
-150.3894422367082
 30
0.0
 10
87.86543780355447
 20
-150.2116753096693
 30
0.0
 10
87.86543780355447
 20
-150.0339083826304
 30
0.0
 10
87.74692651886189
 20
-149.9619058869887
 30
0.0
 10
87.62410886481273
 20
-149.9619058869887
 30
0.0
 10
87.4887166122424
 20
-149.9619058869887
 30
0.0
 10
87.39363197684951
 20
-150.048722293217
 30
0.0
 10
87.39363197684951
 20
-150.2116753096693
 30
0.0
  0
SPLINE
  5
EF
330
E9
100
AcDbEntity
  8
レイヤー 1
100
AcDbSpline
210
0.0
220
0.0
230
1.0
 70
     9
 71
     3
 72
    29
 73
    25
 74
     0
 42
0.0000000001
 43
0.0000000001
 40
0.0
 40
0.0
 40
0.0
 40
0.0
 40
1.0
 40
1.0
 40
1.0
 40
2.0
 40
2.0
 40
2.0
 40
3.0
 40
3.0
 40
3.0
 40
4.0
 40
4.0
 40
4.0
 40
5.0
 40
5.0
 40
5.0
 40
6.0
 40
6.0
 40
6.0
 40
7.0
 40
7.0
 40
7.0
 40
8.0
 40
8.0
 40
8.0
 40
8.0
 10
88.84487845001102
 20
-150.2116753096693
 30
0.0
 10
88.84487845001102
 20
-150.4783257002276
 30
0.0
 10
88.70724688537526
 20
-150.731884727942
 30
0.0
 10
88.35825871271946
 20
-150.731884727942
 30
0.0
 10
88.10228811816541
 20
-150.731884727942
 30
0.0
 10
88.00703122799824
 20
-150.5902913034983
 30
0.0
 10
87.94570852836079
 20
-150.4845268721011
 30
0.0
 10
87.88645288601449
 20
-150.6092393286671
 30
0.0
 10
87.77224797067846
 20
-150.6853759388911
 30
0.0
 10
87.61153426629157
 20
-150.6853759388911
 30
0.0
 10
87.33644339179436
 20
-150.6853759388911
 30
0.0
 10
87.20105113922405
 20
-150.4865939293922
 30
0.0
 10
87.20105113922405
 20
-150.2116753096693
 30
0.0
 10
87.20105113922405
 20
-149.9281439512332
 30
0.0
 10
87.34488387573323
 20
-149.7376301708989
 30
0.0
 10
87.61153426629157
 20
-149.7376301708989
 30
0.0
 10
87.77224797067846
 20
-149.7376301708989
 30
0.0
 10
87.88645288601449
 20
-149.8161783479626
 30
0.0
 10
87.94570852836079
 20
-149.9408908045286
 30
0.0
 10
87.99652368676822
 20
-149.8520073410092
 30
0.0
 10
88.09178057693539
 20
-149.6931884391392
 30
0.0
 10
88.3539523433629
 20
-149.6931884391392
 30
0.0
 10
88.72843422260956
 20
-149.6931884391392
 30
0.0
 10
88.84487845001102
 20
-149.972585682993
 30
0.0
 10
88.84487845001102
 20
-150.2116753096693
 30
0.0
  0
HATCH
  5
F0
330
E9
100
AcDbEntity
  8
レイヤー 1
 62
   250
420
  2299925
440
 33554687
100
AcDbHatch
 10
0.0
 20
0.0
 30
0.0
210
0.0
220
0.0
230
1.0
  2
SOLID
 70
     1
 71
     1
 91
        3
 92
        1
 93
        1
 72
     4
 94
        3
 73
     0
 74
     0
 95
       17
 96
       13
 40
0.0
 40
0.0
 40
0.0
 40
0.0
 40
1.0
 40
1.0
 40
1.0
 40
2.0
 40
2.0
 40
2.0
 40
3.0
 40
3.0
 40
3.0
 40
4.0
 40
4.0
 40
4.0
 40
4.0
 10
88.05371227182339
 20
-150.2116753096693
 10
88.05371227182339
 20
-150.3553357914042
 10
88.14035642327741
 20
-150.5079535214008
 10
88.34344480213289
 20
-150.5079535214008
 10
88.54860023827951
 20
-150.5079535214008
 10
88.65023055509439
 20
-150.3808294979951
 10
88.65023055509439
 20
-150.2116753096693
 10
88.65023055509439
 20
-150.0256401534658
 10
88.5275851558195
 20
-149.9153970979378
 10
88.34981822878061
 20
-149.9153970979378
 10
88.12760956998198
 20
-149.9153970979378
 10
88.05371227182339
 20
-150.0783501143901
 10
88.05371227182339
 20
-150.2116753096693
 97
        0
 97
        1
330
ED
 92
        1
 93
        1
 72
     4
 94
        3
 73
     0
 74
     0
 95
       17
 96
       13
 40
0.0
 40
0.0
 40
0.0
 40
0.0
 40
1.0
 40
1.0
 40
1.0
 40
2.0
 40
2.0
 40
2.0
 40
3.0
 40
3.0
 40
3.0
 40
4.0
 40
4.0
 40
4.0
 40
4.0
 10
87.39363197684951
 20
-150.2116753096693
 10
87.39363197684951
 20
-150.3766953834127
 10
87.4887166122424
 20
-150.4611002228014
 10
87.62410886481273
 20
-150.4611002228014
 10
87.74692651886189
 20
-150.4611002228014
 10
87.86543780355447
 20
-150.3894422367082
 10
87.86543780355447
 20
-150.2116753096693
 10
87.86543780355447
 20
-150.0339083826304
 10
87.74692651886189
 20
-149.9619058869887
 10
87.62410886481273
 20
-149.9619058869887
 10
87.4887166122424
 20
-149.9619058869887
 10
87.39363197684951
 20
-150.048722293217
 10
87.39363197684951
 20
-150.2116753096693
 97
        0
 97
        1
330
EE
 92
        1
 93
        1
 72
     4
 94
        3
 73
     0
 74
     0
 95
       29
 96
       25
 40
0.0
 40
0.0
 40
0.0
 40
0.0
 40
1.0
 40
1.0
 40
1.0
 40
2.0
 40
2.0
 40
2.0
 40
3.0
 40
3.0
 40
3.0
 40
4.0
 40
4.0
 40
4.0
 40
5.0
 40
5.0
 40
5.0
 40
6.0
 40
6.0
 40
6.0
 40
7.0
 40
7.0
 40
7.0
 40
8.0
 40
8.0
 40
8.0
 40
8.0
 10
88.84487845001102
 20
-150.2116753096693
 10
88.84487845001102
 20
-150.4783257002276
 10
88.70724688537526
 20
-150.731884727942
 10
88.35825871271946
 20
-150.731884727942
 10
88.10228811816541
 20
-150.731884727942
 10
88.00703122799824
 20
-150.5902913034983
 10
87.94570852836079
 20
-150.4845268721011
 10
87.88645288601449
 20
-150.6092393286671
 10
87.77224797067846
 20
-150.6853759388911
 10
87.61153426629157
 20
-150.6853759388911
 10
87.33644339179436
 20
-150.6853759388911
 10
87.20105113922405
 20
-150.4865939293922
 10
87.20105113922405
 20
-150.2116753096693
 10
87.20105113922405
 20
-149.9281439512332
 10
87.34488387573323
 20
-149.7376301708989
 10
87.61153426629157
 20
-149.7376301708989
 10
87.77224797067846
 20
-149.7376301708989
 10
87.88645288601449
 20
-149.8161783479626
 10
87.94570852836079
 20
-149.9408908045286
 10
87.99652368676822
 20
-149.8520073410092
 10
88.09178057693539
 20
-149.6931884391392
 10
88.3539523433629
 20
-149.6931884391392
 10
88.72843422260956
 20
-149.6931884391392
 10
88.84487845001102
 20
-149.972585682993
 10
88.84487845001102
 20
-150.2116753096693
 97
        0
 97
        1
330
EF
 75
     2
 76
     1
 98
        1
 10
0.0
 20
0.0
450
        0
451
        0
460
0.0
461
0.0
452
        0
462
0.0
453
        0
470

  0
ENDBLK
  5
EC
330
E9
100
AcDbEntity
  8
0
100
AcDbBlockEnd
  0
BLOCK
  5
F6
330
F4
100
AcDbEntity
  8
0
100
AcDbBlockBegin
  2
Block_7
 70
     0
 10
0.0
 20
0.0
 30
0.0
  3
Block_7
  1

  0
SPLINE
  5
F8
330
F4
100
AcDbEntity
  8
レイヤー 1
100
AcDbSpline
210
0.0
220
0.0
230
1.0
 70
    11
 71
     3
 72
    26
 73
    22
 74
     0
 42
0.0000000001
 43
0.0000000001
 40
0.0
 40
0.0
 40
0.0
 40
0.0
 40
1.0
 40
1.0
 40
1.0
 40
2.0
 40
2.0
 40
2.0
 40
3.0
 40
3.0
 40
3.0
 40
4.0
 40
4.0
 40
4.0
 40
5.0
 40
5.0
 40
5.0
 40
6.0
 40
6.0
 40
6.0
 40
7.0
 40
7.0
 40
7.0
 40
7.0
 10
121.146438229262
 20
-149.8526963601062
 30
0.0
 10
121.146438229262
 20
-149.8526963601062
 30
0.0
 10
121.146438229262
 20
-148.7483710023094
 30
0.0
 10
121.146438229262
 20
-148.7483710023094
 30
0.0
 10
121.146438229262
 20
-148.7483710023094
 30
0.0
 10
120.8163980817751
 20
-148.7483710023094
 30
0.0
 10
120.8163980817751
 20
-148.7483710023094
 30
0.0
 10
120.8163980817751
 20
-148.7483710023094
 30
0.0
 10
120.8163980817751
 20
-148.6002318964437
 30
0.0
 10
120.8163980817751
 20
-148.6002318964437
 30
0.0
 10
121.1485052865531
 20
-148.5855902406314
 30
0.0
 10
121.195014075604
 20
-148.422637224179
 30
0.0
 10
121.2246418967771
 20
-148.308432308843
 30
0.0
 10
121.2246418967771
 20
-148.308432308843
 30
0.0
 10
121.3707139453517
 20
-148.308432308843
 30
0.0
 10
121.3707139453517
 20
-148.308432308843
 30
0.0
 10
121.3707139453517
 20
-148.308432308843
 30
0.0
 10
121.3707139453517
 20
-149.8526963601062
 30
0.0
 10
121.3707139453517
 20
-149.8526963601062
 30
0.0
 10
121.3707139453517
 20
-149.8526963601062
 30
0.0
 10
121.146438229262
 20
-149.8526963601062
 30
0.0
 10
121.146438229262
 20
-149.8526963601062
 30
0.0
  0
HATCH
  5
F9
330
F4
100
AcDbEntity
  8
レイヤー 1
 62
   250
420
  2299925
440
 33554687
100
AcDbHatch
 10
0.0
 20
0.0
 30
0.0
210
0.0
220
0.0
230
1.0
  2
SOLID
 70
     1
 71
     1
 91
        1
 92
        1
 93
        1
 72
     4
 94
        3
 73
     0
 74
     0
 95
       26
 96
       22
 40
0.0
 40
0.0
 40
0.0
 40
0.0
 40
1.0
 40
1.0
 40
1.0
 40
2.0
 40
2.0
 40
2.0
 40
3.0
 40
3.0
 40
3.0
 40
4.0
 40
4.0
 40
4.0
 40
5.0
 40
5.0
 40
5.0
 40
6.0
 40
6.0
 40
6.0
 40
7.0
 40
7.0
 40
7.0
 40
7.0
 10
121.146438229262
 20
-149.8526963601062
 10
121.146438229262
 20
-149.8526963601062
 10
121.146438229262
 20
-148.7483710023094
 10
121.146438229262
 20
-148.7483710023094
 10
121.146438229262
 20
-148.7483710023094
 10
120.8163980817751
 20
-148.7483710023094
 10
120.8163980817751
 20
-148.7483710023094
 10
120.8163980817751
 20
-148.7483710023094
 10
120.8163980817751
 20
-148.6002318964437
 10
120.8163980817751
 20
-148.6002318964437
 10
121.1485052865531
 20
-148.5855902406314
 10
121.195014075604
 20
-148.422637224179
 10
121.2246418967771
 20
-148.308432308843
 10
121.2246418967771
 20
-148.308432308843
 10
121.3707139453517
 20
-148.308432308843
 10
121.3707139453517
 20
-148.308432308843
 10
121.3707139453517
 20
-148.308432308843
 10
121.3707139453517
 20
-149.8526963601062
 10
121.3707139453517
 20
-149.8526963601062
 10
121.3707139453517
 20
-149.8526963601062
 10
121.146438229262
 20
-149.8526963601062
 10
121.146438229262
 20
-149.8526963601062
 97
        0
 97
        1
330
F8
 75
     2
 76
     1
 98
        1
 10
0.0
 20
0.0
450
        0
451
        0
460
0.0
461
0.0
452
        0
462
0.0
453
        0
470

  0
ENDBLK
  5
F7
330
F4
100
AcDbEntity
  8
0
100
AcDbBlockEnd
  0
BLOCK
  5
FC
330
FA
100
AcDbEntity
  8
0
100
AcDbBlockBegin
  2
Block_8
 70
     0
 10
0.0
 20
0.0
 30
0.0
  3
Block_8
  1

  0
INSERT
  5
FF
330
FA
100
AcDbEntity
  8
レイヤー 1
100
AcDbBlockReference
  2
Block_9
 10
0.0
 20
0.0
 30
0.0
  0
INSERT
  5
106
330
FA
100
AcDbEntity
  8
レイヤー 1
100
AcDbBlockReference
  2
Block_10
 10
0.0
 20
0.0
 30
0.0
  0
ENDBLK
  5
FD
330
FA
100
AcDbEntity
  8
0
100
AcDbBlockEnd
  0
BLOCK
  5
100
330
FE
100
AcDbEntity
  8
0
100
AcDbBlockBegin
  2
Block_9
 70
     0
 10
0.0
 20
0.0
 30
0.0
  3
Block_9
  1

  0
LINE
  5
102
330
FE
100
AcDbEntity
  8
レイヤー 1
 62
    18
420
        0
370
     9
100
AcDbLine
 10
98.00600067534494
 20
-147.0888157272377
 30
0.0
 11
98.81696621021104
 21
-147.6737918382025
 31
0.0
  0
LINE
  5
103
330
FE
100
AcDbEntity
  8
レイヤー 1
 62
    18
420
        0
370
     9
100
AcDbLine
 10
98.00600067534494
 20
-147.0888157272377
 30
0.0
 11
100.5836090797512
 21
-150.2459298931152
 31
0.0
  0
LINE
  5
104
330
FE
100
AcDbEntity
  8
レイヤー 1
 62
    18
420
        0
370
     9
100
AcDbLine
 10
98.00600067534494
 20
-147.0888157272377
 30
0.0
 11
98.41596372044115
 21
-148.0010990603437
 31
0.0
  0
ENDBLK
  5
101
330
FE
100
AcDbEntity
  8
0
100
AcDbBlockEnd
  0
BLOCK
  5
107
330
105
100
AcDbEntity
  8
0
100
AcDbBlockBegin
  2
Block_10
 70
     0
 10
0.0
 20
0.0
 30
0.0
  3
Block_10
  1

  0
INSERT
  5
10A
330
105
100
AcDbEntity
  8
レイヤー 1
100
AcDbBlockReference
  2
Block_11
 10
0.0
 20
0.0
 30
0.0
  0
ENDBLK
  5
108
330
105
100
AcDbEntity
  8
0
100
AcDbBlockEnd
  0
BLOCK
  5
10B
330
109
100
AcDbEntity
  8
0
100
AcDbBlockBegin
  2
Block_11
 70
     0
 10
0.0
 20
0.0
 30
0.0
  3
Block_11
  1

  0
SPLINE
  5
10D
330
109
100
AcDbEntity
  8
レイヤー 1
100
AcDbSpline
210
0.0
220
0.0
230
1.0
 70
     9
 71
     3
 72
    17
 73
    13
 74
     0
 42
0.0000000001
 43
0.0000000001
 40
0.0
 40
0.0
 40
0.0
 40
0.0
 40
1.0
 40
1.0
 40
1.0
 40
2.0
 40
2.0
 40
2.0
 40
3.0
 40
3.0
 40
3.0
 40
4.0
 40
4.0
 40
4.0
 40
4.0
 10
102.2500894926666
 20
-150.6929551489587
 30
0.0
 10
102.2332085247889
 20
-150.7225829701319
 30
0.0
 10
102.1823933663815
 20
-150.8159450577821
 30
0.0
 10
102.1718858251515
 20
-150.834893082951
 30
0.0
 10
102.3622273507115
 20
-150.8941487252973
 30
0.0
 10
102.3834146879458
 20
-150.9003498971707
 30
0.0
 10
102.4554171835875
 20
-150.9279106610527
 30
0.0
 10
102.5103664565772
 20
-150.8410942548245
 30
0.0
 10
102.5336208511027
 20
-150.7670247018916
 30
0.0
 10
102.5484347616893
 20
-150.6929551489587
 30
0.0
 10
102.5484347616893
 20
-150.6929551489587
 30
0.0
 10
102.2500894926666
 20
-150.6929551489587
 30
0.0
 10
102.2500894926666
 20
-150.6929551489587
 30
0.0
  0
SPLINE
  5
10E
330
109
100
AcDbEntity
  8
レイヤー 1
100
AcDbSpline
210
0.0
220
0.0
230
1.0
 70
    11
 71
     3
 72
    20
 73
    16
 74
     0
 42
0.0000000001
 43
0.0000000001
 40
0.0
 40
0.0
 40
0.0
 40
0.0
 40
1.0
 40
1.0
 40
1.0
 40
2.0
 40
2.0
 40
2.0
 40
3.0
 40
3.0
 40
3.0
 40
4.0
 40
4.0
 40
4.0
 40
5.0
 40
5.0
 40
5.0
 40
5.0
 10
102.186699735738
 20
-149.842705583199
 30
0.0
 10
102.186699735738
 20
-149.842705583199
 30
0.0
 10
102.1550048572737
 20
-149.842705583199
 30
0.0
 10
102.1550048572737
 20
-149.842705583199
 30
0.0
 10
102.2015136463246
 20
-149.9419243331742
 30
0.0
 10
102.2332085247889
 20
-150.0225395675291
 30
0.0
 10
102.2671427153186
 20
-150.1493190813863
 30
0.0
 10
102.2671427153186
 20
-150.1493190813863
 30
0.0
 10
102.4743652087564
 20
-150.1493190813863
 30
0.0
 10
102.4743652087564
 20
-150.1493190813863
 30
0.0
 10
102.5060600872207
 20
-150.0563015032845
 30
0.0
 10
102.5293144817461
 20
-149.9715521543474
 30
0.0
 10
102.5525688762715
 20
-149.842705583199
 30
0.0
 10
102.5525688762715
 20
-149.842705583199
 30
0.0
 10
102.186699735738
 20
-149.842705583199
 30
0.0
 10
102.186699735738
 20
-149.842705583199
 30
0.0
  0
SPLINE
  5
10F
330
109
100
AcDbEntity
  8
レイヤー 1
100
AcDbSpline
210
0.0
220
0.0
230
1.0
 70
     9
 71
     3
 72
   242
 73
   238
 74
     0
 42
0.0000000001
 43
0.0000000001
 40
0.0
 40
0.0
 40
0.0
 40
0.0
 40
1.0
 40
1.0
 40
1.0
 40
2.0
 40
2.0
 40
2.0
 40
3.0
 40
3.0
 40
3.0
 40
4.0
 40
4.0
 40
4.0
 40
5.0
 40
5.0
 40
5.0
 40
6.0
 40
6.0
 40
6.0
 40
7.0
 40
7.0
 40
7.0
 40
8.0
 40
8.0
 40
8.0
 40
9.0
 40
9.0
 40
9.0
 40
10.0
 40
10.0
 40
10.0
 40
11.0
 40
11.0
 40
11.0
 40
12.0
 40
12.0
 40
12.0
 40
13.0
 40
13.0
 40
13.0
 40
14.0
 40
14.0
 40
14.0
 40
15.0
 40
15.0
 40
15.0
 40
16.0
 40
16.0
 40
16.0
 40
17.0
 40
17.0
 40
17.0
 40
18.0
 40
18.0
 40
18.0
 40
19.0
 40
19.0
 40
19.0
 40
20.0
 40
20.0
 40
20.0
 40
21.0
 40
21.0
 40
21.0
 40
22.0
 40
22.0
 40
22.0
 40
23.0
 40
23.0
 40
23.0
 40
24.0
 40
24.0
 40
24.0
 40
25.0
 40
25.0
 40
25.0
 40
26.0
 40
26.0
 40
26.0
 40
27.0
 40
27.0
 40
27.0
 40
28.0
 40
28.0
 40
28.0
 40
29.0
 40
29.0
 40
29.0
 40
30.0
 40
30.0
 40
30.0
 40
31.0
 40
31.0
 40
31.0
 40
32.0
 40
32.0
 40
32.0
 40
33.0
 40
33.0
 40
33.0
 40
34.0
 40
34.0
 40
34.0
 40
35.0
 40
35.0
 40
35.0
 40
36.0
 40
36.0
 40
36.0
 40
37.0
 40
37.0
 40
37.0
 40
38.0
 40
38.0
 40
38.0
 40
39.0
 40
39.0
 40
39.0
 40
40.0
 40
40.0
 40
40.0
 40
41.0
 40
41.0
 40
41.0
 40
42.0
 40
42.0
 40
42.0
 40
43.0
 40
43.0
 40
43.0
 40
44.0
 40
44.0
 40
44.0
 40
45.0
 40
45.0
 40
45.0
 40
46.0
 40
46.0
 40
46.0
 40
47.0
 40
47.0
 40
47.0
 40
48.0
 40
48.0
 40
48.0
 40
49.0
 40
49.0
 40
49.0
 40
50.0
 40
50.0
 40
50.0
 40
51.0
 40
51.0
 40
51.0
 40
52.0
 40
52.0
 40
52.0
 40
53.0
 40
53.0
 40
53.0
 40
54.0
 40
54.0
 40
54.0
 40
55.0
 40
55.0
 40
55.0
 40
56.0
 40
56.0
 40
56.0
 40
57.0
 40
57.0
 40
57.0
 40
58.0
 40
58.0
 40
58.0
 40
59.0
 40
59.0
 40
59.0
 40
60.0
 40
60.0
 40
60.0
 40
61.0
 40
61.0
 40
61.0
 40
62.0
 40
62.0
 40
62.0
 40
63.0
 40
63.0
 40
63.0
 40
64.0
 40
64.0
 40
64.0
 40
65.0
 40
65.0
 40
65.0
 40
66.0
 40
66.0
 40
66.0
 40
67.0
 40
67.0
 40
67.0
 40
68.0
 40
68.0
 40
68.0
 40
69.0
 40
69.0
 40
69.0
 40
70.0
 40
70.0
 40
70.0
 40
71.0
 40
71.0
 40
71.0
 40
72.0
 40
72.0
 40
72.0
 40
73.0
 40
73.0
 40
73.0
 40
74.0
 40
74.0
 40
74.0
 40
75.0
 40
75.0
 40
75.0
 40
76.0
 40
76.0
 40
76.0
 40
77.0
 40
77.0
 40
77.0
 40
78.0
 40
78.0
 40
78.0
 40
79.0
 40
79.0
 40
79.0
 40
79.0
 10
102.8149128974733
 20
-150.3081379832563
 30
0.0
 10
102.8149128974733
 20
-150.3081379832563
 30
0.0
 10
102.5611816149847
 20
-150.3081379832563
 30
0.0
 10
102.5611816149847
 20
-150.3081379832563
 30
0.0
 10
102.5611816149847
 20
-150.3081379832563
 30
0.0
 10
102.2840236831964
 20
-150.3081379832563
 30
0.0
 10
102.2840236831964
 20
-150.3081379832563
 30
0.0
 10
102.2840236831964
 20
-150.3081379832563
 30
0.0
 10
102.4109754518278
 20
-150.3505126577249
 30
0.0
 10
102.4109754518278
 20
-150.3505126577249
 30
0.0
 10
102.4214829930578
 20
-150.3546467723072
 30
0.0
 10
102.4342298463532
 20
-150.3608479441806
 30
0.0
 10
102.4342298463532
 20
-150.373594797476
 30
0.0
 10
102.4342298463532
 20
-150.3949543894846
 30
0.0
 10
102.4025349678889
 20
-150.401155561358
 30
0.0
 10
102.3813476306546
 20
-150.4052896759403
 30
0.0
 10
102.3706678346504
 20
-150.42871632524
 30
0.0
 10
102.3410400134772
 20
-150.4941731394598
 30
0.0
 10
102.3220919883083
 20
-150.5386148712195
 30
0.0
 10
102.3220919883083
 20
-150.5386148712195
 30
0.0
 10
102.592876493449
 20
-150.5386148712195
 30
0.0
 10
102.592876493449
 20
-150.5386148712195
 30
0.0
 10
102.6838270142596
 20
-150.5386148712195
 30
0.0
 10
102.8805419664673
 20
-150.5344807566372
 30
0.0
 10
103.0223076456854
 20
-150.5258680179241
 30
0.0
 10
103.0223076456854
 20
-150.5258680179241
 30
0.0
 10
103.0223076456854
 20
-150.703634944963
 30
0.0
 10
103.0223076456854
 20
-150.703634944963
 30
0.0
 10
102.9397976088136
 20
-150.6995008303807
 30
0.0
 10
102.9186102715794
 20
-150.6995008303807
 30
0.0
 10
102.7387762872493
 20
-150.6953667157984
 30
0.0
 10
102.707081408785
 20
-150.8497069935376
 30
0.0
 10
102.6626396770253
 20
-150.9299777183439
 30
0.0
 10
102.6181979452656
 20
-150.9999131566944
 30
0.0
 10
102.7387762872493
 20
-151.0591687990407
 30
0.0
 10
102.8445407186465
 20
-151.1266926705516
 30
0.0
 10
102.9482380927525
 20
-151.2093749621977
 30
0.0
 10
102.9482380927525
 20
-151.2093749621977
 30
0.0
 10
102.8297268080599
 20
-151.3764620932323
 30
0.0
 10
102.8297268080599
 20
-151.3764620932323
 30
0.0
 10
102.8064724135345
 20
-151.3575140680634
 30
0.0
 10
102.7938978150133
 20
-151.3489013293503
 30
0.0
 10
102.6817599569684
 20
-151.2641519804131
 30
0.0
 10
102.6330118558522
 20
-151.2262559300754
 30
0.0
 10
102.5737562135059
 20
-151.1900824274802
 30
0.0
 10
102.4934854886995
 20
-151.1456406957205
 30
0.0
 10
102.2817843711309
 20
-151.3320203614725
 30
0.0
 10
102.0766289349843
 20
-151.3551025012237
 30
0.0
 10
101.7868964046748
 20
-151.3847303223968
 30
0.0
 10
101.7868964046748
 20
-151.3847303223968
 30
0.0
 10
101.6831990305688
 20
-151.2048963380668
 30
0.0
 10
101.6831990305688
 20
-151.2048963380668
 30
0.0
 10
102.0004923247603
 20
-151.2007622234845
 30
0.0
 10
102.1760199397337
 20
-151.1752685168937
 30
0.0
 10
102.3284654149561
 20
-151.0653699709142
 30
0.0
 10
102.2099541302635
 20
-151.014727067281
 30
0.0
 10
102.121070666744
 20
-150.987166303399
 30
0.0
 10
102.0850694189232
 20
-150.9744194501036
 30
0.0
 10
102.0661213937543
 20
-151.0019802139856
 30
0.0
 10
102.0513074831677
 20
-151.0209282391545
 30
0.0
 10
102.0237467192857
 20
-151.0546901749099
 30
0.0
 10
102.0237467192857
 20
-151.0546901749099
 30
0.0
 10
101.8270317670779
 20
-150.9723523928125
 30
0.0
 10
101.8270317670779
 20
-150.9723523928125
 30
0.0
 10
101.9095418039497
 20
-150.8920816680061
 30
0.0
 10
101.9708645035871
 20
-150.7966525230647
 30
0.0
 10
102.0280530886423
 20
-150.6953667157984
 30
0.0
 10
101.837539308308
 20
-150.6995008303807
 30
0.0
 10
101.8165242258479
 20
-150.6995008303807
 30
0.0
 10
101.7340141889762
 20
-150.703634944963
 30
0.0
 10
101.7340141889762
 20
-150.703634944963
 30
0.0
 10
101.7340141889762
 20
-150.5258680179241
 30
0.0
 10
101.7340141889762
 20
-150.5258680179241
 30
0.0
 10
101.8735405561288
 20
-150.5324136993461
 30
0.0
 10
102.083002361632
 20
-150.5365478139284
 30
0.0
 10
102.1083238134486
 20
-150.5365478139284
 30
0.0
 10
102.1253770361006
 20
-150.5027858781729
 30
0.0
 10
102.1803263090903
 20
-150.3822075361892
 30
0.0
 10
102.1994465890335
 20
-150.3081379832563
 30
0.0
 10
102.1803263090903
 20
-150.3081379832563
 30
0.0
 10
102.0025593820514
 20
-150.3143391551297
 30
0.0
 10
101.8080837419091
 20
-150.3270860084251
 30
0.0
 10
101.8080837419091
 20
-150.3270860084251
 30
0.0
 10
101.8080837419091
 20
-150.4604112037043
 30
0.0
 10
101.8080837419091
 20
-150.4604112037043
 30
0.0
 10
101.7593356407928
 20
-150.4859049102952
 30
0.0
 10
101.7000799984465
 20
-150.5175997887595
 30
0.0
 10
101.5667548031673
 20
-150.5830566029792
 30
0.0
 10
101.5667548031673
 20
-150.5830566029792
 30
0.0
 10
101.5667548031673
 20
-150.7291286515538
 30
0.0
 10
101.5667548031673
 20
-150.7291286515538
 30
0.0
 10
101.5667548031673
 20
-150.7291286515538
 30
0.0
 10
101.5667548031673
 20
-151.1966281089022
 30
0.0
 10
101.5667548031673
 20
-151.1966281089022
 30
0.0
 10
101.5667548031673
 20
-151.3234076227594
 30
0.0
 10
101.5309258101207
 20
-151.3826632651057
 30
0.0
 10
101.2473944516847
 20
-151.3743950359411
 30
0.0
 10
101.2473944516847
 20
-151.3743950359411
 30
0.0
 10
101.1436970775786
 20
-151.1670002877291
 30
0.0
 10
101.1436970775786
 20
-151.1670002877291
 30
0.0
 10
101.2072590892815
 20
-151.1797471410245
 30
0.0
 10
101.2558349356235
 20
-151.1838812556068
 30
0.0
 10
101.2959702980267
 20
-151.1838812556068
 30
0.0
 10
101.372279163025
 20
-151.1838812556068
 30
0.0
 10
101.382786704255
 20
-151.1604546063071
 30
0.0
 10
101.382786704255
 20
-151.0949977920873
 30
0.0
 10
101.382786704255
 20
-151.0949977920873
 30
0.0
 10
101.382786704255
 20
-150.6657388946252
 30
0.0
 10
101.382786704255
 20
-150.6657388946252
 30
0.0
 10
101.2854627567967
 20
-150.7057020022541
 30
0.0
 10
101.2685817889189
 20
-150.7122476836761
 30
0.0
 10
101.2220729998681
 20
-150.731195708845
 30
0.0
 10
101.2177666305115
 20
-150.752210791305
 30
0.0
 10
101.213460261155
 20
-150.7818386124782
 30
0.0
 10
101.1945122359861
 20
-150.7818386124782
 30
0.0
 10
101.1860717520472
 20
-150.7818386124782
 30
0.0
 10
101.1753919560429
 20
-150.7777044978958
 30
0.0
 10
101.1691907841695
 20
-150.7542778485961
 30
0.0
 10
101.1691907841695
 20
-150.7542778485961
 30
0.0
 10
101.1163085684709
 20
-150.5620415205192
 30
0.0
 10
101.1163085684709
 20
-150.5620415205192
 30
0.0
 10
101.2622083622712
 20
-150.5155327314683
 30
0.0
 10
101.3278374312652
 20
-150.4921060821686
 30
0.0
 10
101.382786704255
 20
-150.4710909997086
 30
0.0
 10
101.382786704255
 20
-150.4710909997086
 30
0.0
 10
101.382786704255
 20
-150.0583685605757
 30
0.0
 10
101.382786704255
 20
-150.0583685605757
 30
0.0
 10
101.382786704255
 20
-150.0583685605757
 30
0.0
 10
101.3299044885564
 20
-150.0583685605757
 30
0.0
 10
101.3299044885564
 20
-150.0583685605757
 30
0.0
 10
101.3299044885564
 20
-150.0583685605757
 30
0.0
 10
101.2517008210412
 20
-150.0583685605757
 30
0.0
 10
101.2517008210412
 20
-150.0583685605757
 30
0.0
 10
101.1840046947561
 20
-150.0583685605757
 30
0.0
 10
101.1753919560429
 20
-150.0583685605757
 30
0.0
 10
101.1395629629963
 20
-150.0649142419976
 30
0.0
 10
101.1395629629963
 20
-150.0649142419976
 30
0.0
 10
101.1395629629963
 20
-149.870266347081
 30
0.0
 10
101.1395629629963
 20
-149.870266347081
 30
0.0
 10
101.1669514721041
 20
-149.8764675189545
 30
0.0
 10
101.1753919560429
 20
-149.8764675189545
 30
0.0
 10
101.2453273943935
 20
-149.8764675189545
 30
0.0
 10
101.2453273943935
 20
-149.8764675189545
 30
0.0
 10
101.3784803348984
 20
-149.8764675189545
 30
0.0
 10
101.3784803348984
 20
-149.8764675189545
 30
0.0
 10
101.3784803348984
 20
-149.8065320806039
 30
0.0
 10
101.3784803348984
 20
-149.7241942985064
 30
0.0
 10
101.3764132776073
 20
-149.7200601839241
 30
0.0
 10
101.3679727936684
 20
-149.5402261995941
 30
0.0
 10
101.3679727936684
 20
-149.5209336648767
 30
0.0
 10
101.3659057363772
 20
-149.4744248758258
 30
0.0
 10
101.3659057363772
 20
-149.4744248758258
 30
0.0
 10
101.5815687137539
 20
-149.483037614539
 30
0.0
 10
101.5815687137539
 20
-149.483037614539
 30
0.0
 10
101.5922485097582
 20
-149.483037614539
 30
0.0
 10
101.6134358469924
 20
-149.4851046718301
 30
0.0
 10
101.6134358469924
 20
-149.5019856397078
 30
0.0
 10
101.6134358469924
 20
-149.5209336648767
 30
0.0
 10
101.5986219364059
 20
-149.531613460881
 30
0.0
 10
101.573128229815
 20
-149.5505614860499
 30
0.0
 10
101.573128229815
 20
-149.6015488992316
 30
0.0
 10
101.5667548031673
 20
-149.8299587299036
 30
0.0
 10
101.5689941152327
 20
-149.8764675189545
 30
0.0
 10
101.6980129411553
 20
-149.8764675189545
 30
0.0
 10
101.7107597944508
 20
-149.8764675189545
 30
0.0
 10
101.8080837419091
 20
-149.8681992897899
 30
0.0
 10
101.8080837419091
 20
-149.8681992897899
 30
0.0
 10
101.8080837419091
 20
-150.062502675158
 30
0.0
 10
101.8080837419091
 20
-150.062502675158
 30
0.0
 10
101.7698431820228
 20
-150.0604356178668
 30
0.0
 10
101.7021470557377
 20
-150.0563015032845
 30
0.0
 10
101.5667548031673
 20
-150.0583685605757
 30
0.0
 10
101.5667548031673
 20
-150.0583685605757
 30
0.0
 10
101.5667548031673
 20
-150.3970214467757
 30
0.0
 10
101.5667548031673
 20
-150.3970214467757
 30
0.0
 10
101.6218763309313
 20
-150.373594797476
 30
0.0
 10
101.6873331451511
 20
-150.3460340335941
 30
0.0
 10
101.7360812462674
 20
-150.3229518938429
 30
0.0
 10
101.7360812462674
 20
-150.3229518938429
 30
0.0
 10
101.7360812462674
 20
-150.145184966804
 30
0.0
 10
101.7360812462674
 20
-150.145184966804
 30
0.0
 10
101.8502861616034
 20
-150.1579318200994
 30
0.0
 10
101.968797446296
 20
-150.1579318200994
 30
0.0
 10
102.0850694189232
 20
-150.1579318200994
 30
0.0
 10
102.0618150243977
 20
-150.062502675158
 30
0.0
 10
102.03442651529
 20
-149.9801648930605
 30
0.0
 10
101.9708645035871
 20
-149.8468396977813
 30
0.0
 10
101.9264227718274
 20
-149.8489067550725
 30
0.0
 10
101.8439127349557
 20
-149.8533853792033
 30
0.0
 10
101.8058444298437
 20
-149.8554524364945
 30
0.0
 10
101.8058444298437
 20
-149.8554524364945
 30
0.0
 10
101.8058444298437
 20
-149.6756184521644
 30
0.0
 10
101.8058444298437
 20
-149.6756184521644
 30
0.0
 10
101.930729141184
 20
-149.683886681329
 30
0.0
 10
102.1041896988663
 20
-149.6883653054598
 30
0.0
 10
102.186699735738
 20
-149.6883653054598
 30
0.0
 10
102.186699735738
 20
-149.6883653054598
 30
0.0
 10
102.2692097726098
 20
-149.6883653054598
 30
0.0
 10
102.2692097726098
 20
-149.6883653054598
 30
0.0
 10
102.2692097726098
 20
-149.5254122890075
 30
0.0
 10
102.2692097726098
 20
-149.5147324930032
 30
0.0
 10
102.2671427153186
 20
-149.4596109652392
 30
0.0
 10
102.2671427153186
 20
-149.4596109652392
 30
0.0
 10
102.4912461766341
 20
-149.4851046718301
 30
0.0
 10
102.4912461766341
 20
-149.4851046718301
 30
0.0
 10
102.4955525459907
 20
-149.4851046718301
 30
0.0
 10
102.516739883225
 20
-149.4871717291212
 30
0.0
 10
102.516739883225
 20
-149.504052696999
 30
0.0
 10
102.516739883225
 20
-149.5188666075855
 30
0.0
 10
102.5060600872207
 20
-149.5274793462987
 30
0.0
 10
102.478671578113
 20
-149.5422932568853
 30
0.0
 10
102.4722981514653
 20
-149.607750071105
 30
0.0
 10
102.4702310941741
 20
-149.6291096631135
 30
0.0
 10
102.4702310941741
 20
-149.6883653054598
 30
0.0
 10
102.4702310941741
 20
-149.6883653054598
 30
0.0
 10
102.565315729567
 20
-149.6883653054598
 30
0.0
 10
102.565315729567
 20
-149.6883653054598
 30
0.0
 10
102.6478257664387
 20
-149.6883653054598
 30
0.0
 10
102.8212863241211
 20
-149.683886681329
 30
0.0
 10
102.9461710354613
 20
-149.6756184521644
 30
0.0
 10
102.9461710354613
 20
-149.6756184521644
 30
0.0
 10
102.9461710354613
 20
-149.8554524364945
 30
0.0
 10
102.9461710354613
 20
-149.8554524364945
 30
0.0
 10
102.9165432142882
 20
-149.8533853792033
 30
0.0
 10
102.7980319295956
 20
-149.8489067550725
 30
0.0
 10
102.7578965671924
 20
-149.8468396977813
 30
0.0
 10
102.7430826566059
 20
-149.8974826014145
 30
0.0
 10
102.7091484660762
 20
-150.0097927142336
 30
0.0
 10
102.6436916518564
 20
-150.1493190813863
 30
0.0
 10
102.6858940715507
 20
-150.1493190813863
 30
0.0
 10
102.9630520033391
 20
-150.1303710562174
 30
0.0
 10
103.0243747029765
 20
-150.1283039989262
 30
0.0
 10
103.0243747029765
 20
-150.1283039989262
 30
0.0
 10
103.0243747029765
 20
-150.3122720978386
 30
0.0
 10
103.0243747029765
 20
-150.3122720978386
 30
0.0
 10
102.9947468818034
 20
-150.3122720978386
 30
0.0
 10
102.9778659139257
 20
-150.3081379832563
 30
0.0
 10
102.8149128974733
 20
-150.3081379832563
 30
0.0
  0
HATCH
  5
110
330
109
100
AcDbEntity
  8
レイヤー 1
 62
    18
420
        0
440
 33554687
100
AcDbHatch
 10
0.0
 20
0.0
 30
0.0
210
0.0
220
0.0
230
1.0
  2
SOLID
 70
     1
 71
     1
 91
        3
 92
        1
 93
        1
 72
     4
 94
        3
 73
     0
 74
     0
 95
       17
 96
       13
 40
0.0
 40
0.0
 40
0.0
 40
0.0
 40
1.0
 40
1.0
 40
1.0
 40
2.0
 40
2.0
 40
2.0
 40
3.0
 40
3.0
 40
3.0
 40
4.0
 40
4.0
 40
4.0
 40
4.0
 10
102.2500894926666
 20
-150.6929551489587
 10
102.2332085247889
 20
-150.7225829701319
 10
102.1823933663815
 20
-150.8159450577821
 10
102.1718858251515
 20
-150.834893082951
 10
102.3622273507115
 20
-150.8941487252973
 10
102.3834146879458
 20
-150.9003498971707
 10
102.4554171835875
 20
-150.9279106610527
 10
102.5103664565772
 20
-150.8410942548245
 10
102.5336208511027
 20
-150.7670247018916
 10
102.5484347616893
 20
-150.6929551489587
 10
102.5484347616893
 20
-150.6929551489587
 10
102.2500894926666
 20
-150.6929551489587
 10
102.2500894926666
 20
-150.6929551489587
 97
        0
 97
        1
330
10D
 92
        1
 93
        1
 72
     4
 94
        3
 73
     0
 74
     0
 95
       20
 96
       16
 40
0.0
 40
0.0
 40
0.0
 40
0.0
 40
1.0
 40
1.0
 40
1.0
 40
2.0
 40
2.0
 40
2.0
 40
3.0
 40
3.0
 40
3.0
 40
4.0
 40
4.0
 40
4.0
 40
5.0
 40
5.0
 40
5.0
 40
5.0
 10
102.186699735738
 20
-149.842705583199
 10
102.186699735738
 20
-149.842705583199
 10
102.1550048572737
 20
-149.842705583199
 10
102.1550048572737
 20
-149.842705583199
 10
102.2015136463246
 20
-149.9419243331742
 10
102.2332085247889
 20
-150.0225395675291
 10
102.2671427153186
 20
-150.1493190813863
 10
102.2671427153186
 20
-150.1493190813863
 10
102.4743652087564
 20
-150.1493190813863
 10
102.4743652087564
 20
-150.1493190813863
 10
102.5060600872207
 20
-150.0563015032845
 10
102.5293144817461
 20
-149.9715521543474
 10
102.5525688762715
 20
-149.842705583199
 10
102.5525688762715
 20
-149.842705583199
 10
102.186699735738
 20
-149.842705583199
 10
102.186699735738
 20
-149.842705583199
 97
        0
 97
        1
330
10E
 92
        1
 93
        1
 72
     4
 94
        3
 73
     0
 74
     0
 95
      242
 96
      238
 40
0.0
 40
0.0
 40
0.0
 40
0.0
 40
1.0
 40
1.0
 40
1.0
 40
2.0
 40
2.0
 40
2.0
 40
3.0
 40
3.0
 40
3.0
 40
4.0
 40
4.0
 40
4.0
 40
5.0
 40
5.0
 40
5.0
 40
6.0
 40
6.0
 40
6.0
 40
7.0
 40
7.0
 40
7.0
 40
8.0
 40
8.0
 40
8.0
 40
9.0
 40
9.0
 40
9.0
 40
10.0
 40
10.0
 40
10.0
 40
11.0
 40
11.0
 40
11.0
 40
12.0
 40
12.0
 40
12.0
 40
13.0
 40
13.0
 40
13.0
 40
14.0
 40
14.0
 40
14.0
 40
15.0
 40
15.0
 40
15.0
 40
16.0
 40
16.0
 40
16.0
 40
17.0
 40
17.0
 40
17.0
 40
18.0
 40
18.0
 40
18.0
 40
19.0
 40
19.0
 40
19.0
 40
20.0
 40
20.0
 40
20.0
 40
21.0
 40
21.0
 40
21.0
 40
22.0
 40
22.0
 40
22.0
 40
23.0
 40
23.0
 40
23.0
 40
24.0
 40
24.0
 40
24.0
 40
25.0
 40
25.0
 40
25.0
 40
26.0
 40
26.0
 40
26.0
 40
27.0
 40
27.0
 40
27.0
 40
28.0
 40
28.0
 40
28.0
 40
29.0
 40
29.0
 40
29.0
 40
30.0
 40
30.0
 40
30.0
 40
31.0
 40
31.0
 40
31.0
 40
32.0
 40
32.0
 40
32.0
 40
33.0
 40
33.0
 40
33.0
 40
34.0
 40
34.0
 40
34.0
 40
35.0
 40
35.0
 40
35.0
 40
36.0
 40
36.0
 40
36.0
 40
37.0
 40
37.0
 40
37.0
 40
38.0
 40
38.0
 40
38.0
 40
39.0
 40
39.0
 40
39.0
 40
40.0
 40
40.0
 40
40.0
 40
41.0
 40
41.0
 40
41.0
 40
42.0
 40
42.0
 40
42.0
 40
43.0
 40
43.0
 40
43.0
 40
44.0
 40
44.0
 40
44.0
 40
45.0
 40
45.0
 40
45.0
 40
46.0
 40
46.0
 40
46.0
 40
47.0
 40
47.0
 40
47.0
 40
48.0
 40
48.0
 40
48.0
 40
49.0
 40
49.0
 40
49.0
 40
50.0
 40
50.0
 40
50.0
 40
51.0
 40
51.0
 40
51.0
 40
52.0
 40
52.0
 40
52.0
 40
53.0
 40
53.0
 40
53.0
 40
54.0
 40
54.0
 40
54.0
 40
55.0
 40
55.0
 40
55.0
 40
56.0
 40
56.0
 40
56.0
 40
57.0
 40
57.0
 40
57.0
 40
58.0
 40
58.0
 40
58.0
 40
59.0
 40
59.0
 40
59.0
 40
60.0
 40
60.0
 40
60.0
 40
61.0
 40
61.0
 40
61.0
 40
62.0
 40
62.0
 40
62.0
 40
63.0
 40
63.0
 40
63.0
 40
64.0
 40
64.0
 40
64.0
 40
65.0
 40
65.0
 40
65.0
 40
66.0
 40
66.0
 40
66.0
 40
67.0
 40
67.0
 40
67.0
 40
68.0
 40
68.0
 40
68.0
 40
69.0
 40
69.0
 40
69.0
 40
70.0
 40
70.0
 40
70.0
 40
71.0
 40
71.0
 40
71.0
 40
72.0
 40
72.0
 40
72.0
 40
73.0
 40
73.0
 40
73.0
 40
74.0
 40
74.0
 40
74.0
 40
75.0
 40
75.0
 40
75.0
 40
76.0
 40
76.0
 40
76.0
 40
77.0
 40
77.0
 40
77.0
 40
78.0
 40
78.0
 40
78.0
 40
79.0
 40
79.0
 40
79.0
 40
79.0
 10
102.8149128974733
 20
-150.3081379832563
 10
102.8149128974733
 20
-150.3081379832563
 10
102.5611816149847
 20
-150.3081379832563
 10
102.5611816149847
 20
-150.3081379832563
 10
102.5611816149847
 20
-150.3081379832563
 10
102.2840236831964
 20
-150.3081379832563
 10
102.2840236831964
 20
-150.3081379832563
 10
102.2840236831964
 20
-150.3081379832563
 10
102.4109754518278
 20
-150.3505126577249
 10
102.4109754518278
 20
-150.3505126577249
 10
102.4214829930578
 20
-150.3546467723072
 10
102.4342298463532
 20
-150.3608479441806
 10
102.4342298463532
 20
-150.373594797476
 10
102.4342298463532
 20
-150.3949543894846
 10
102.4025349678889
 20
-150.401155561358
 10
102.3813476306546
 20
-150.4052896759403
 10
102.3706678346504
 20
-150.42871632524
 10
102.3410400134772
 20
-150.4941731394598
 10
102.3220919883083
 20
-150.5386148712195
 10
102.3220919883083
 20
-150.5386148712195
 10
102.592876493449
 20
-150.5386148712195
 10
102.592876493449
 20
-150.5386148712195
 10
102.6838270142596
 20
-150.5386148712195
 10
102.8805419664673
 20
-150.5344807566372
 10
103.0223076456854
 20
-150.5258680179241
 10
103.0223076456854
 20
-150.5258680179241
 10
103.0223076456854
 20
-150.703634944963
 10
103.0223076456854
 20
-150.703634944963
 10
102.9397976088136
 20
-150.6995008303807
 10
102.9186102715794
 20
-150.6995008303807
 10
102.7387762872493
 20
-150.6953667157984
 10
102.707081408785
 20
-150.8497069935376
 10
102.6626396770253
 20
-150.9299777183439
 10
102.6181979452656
 20
-150.9999131566944
 10
102.7387762872493
 20
-151.0591687990407
 10
102.8445407186465
 20
-151.1266926705516
 10
102.9482380927525
 20
-151.2093749621977
 10
102.9482380927525
 20
-151.2093749621977
 10
102.8297268080599
 20
-151.3764620932323
 10
102.8297268080599
 20
-151.3764620932323
 10
102.8064724135345
 20
-151.3575140680634
 10
102.7938978150133
 20
-151.3489013293503
 10
102.6817599569684
 20
-151.2641519804131
 10
102.6330118558522
 20
-151.2262559300754
 10
102.5737562135059
 20
-151.1900824274802
 10
102.4934854886995
 20
-151.1456406957205
 10
102.2817843711309
 20
-151.3320203614725
 10
102.0766289349843
 20
-151.3551025012237
 10
101.7868964046748
 20
-151.3847303223968
 10
101.7868964046748
 20
-151.3847303223968
 10
101.6831990305688
 20
-151.2048963380668
 10
101.6831990305688
 20
-151.2048963380668
 10
102.0004923247603
 20
-151.2007622234845
 10
102.1760199397337
 20
-151.1752685168937
 10
102.3284654149561
 20
-151.0653699709142
 10
102.2099541302635
 20
-151.014727067281
 10
102.121070666744
 20
-150.987166303399
 10
102.0850694189232
 20
-150.9744194501036
 10
102.0661213937543
 20
-151.0019802139856
 10
102.0513074831677
 20
-151.0209282391545
 10
102.0237467192857
 20
-151.0546901749099
 10
102.0237467192857
 20
-151.0546901749099
 10
101.8270317670779
 20
-150.9723523928125
 10
101.8270317670779
 20
-150.9723523928125
 10
101.9095418039497
 20
-150.8920816680061
 10
101.9708645035871
 20
-150.7966525230647
 10
102.0280530886423
 20
-150.6953667157984
 10
101.837539308308
 20
-150.6995008303807
 10
101.8165242258479
 20
-150.6995008303807
 10
101.7340141889762
 20
-150.703634944963
 10
101.7340141889762
 20
-150.703634944963
 10
101.7340141889762
 20
-150.5258680179241
 10
101.7340141889762
 20
-150.5258680179241
 10
101.8735405561288
 20
-150.5324136993461
 10
102.083002361632
 20
-150.5365478139284
 10
102.1083238134486
 20
-150.5365478139284
 10
102.1253770361006
 20
-150.5027858781729
 10
102.1803263090903
 20
-150.3822075361892
 10
102.1994465890335
 20
-150.3081379832563
 10
102.1803263090903
 20
-150.3081379832563
 10
102.0025593820514
 20
-150.3143391551297
 10
101.8080837419091
 20
-150.3270860084251
 10
101.8080837419091
 20
-150.3270860084251
 10
101.8080837419091
 20
-150.4604112037043
 10
101.8080837419091
 20
-150.4604112037043
 10
101.7593356407928
 20
-150.4859049102952
 10
101.7000799984465
 20
-150.5175997887595
 10
101.5667548031673
 20
-150.5830566029792
 10
101.5667548031673
 20
-150.5830566029792
 10
101.5667548031673
 20
-150.7291286515538
 10
101.5667548031673
 20
-150.7291286515538
 10
101.5667548031673
 20
-150.7291286515538
 10
101.5667548031673
 20
-151.1966281089022
 10
101.5667548031673
 20
-151.1966281089022
 10
101.5667548031673
 20
-151.3234076227594
 10
101.5309258101207
 20
-151.3826632651057
 10
101.2473944516847
 20
-151.3743950359411
 10
101.2473944516847
 20
-151.3743950359411
 10
101.1436970775786
 20
-151.1670002877291
 10
101.1436970775786
 20
-151.1670002877291
 10
101.2072590892815
 20
-151.1797471410245
 10
101.2558349356235
 20
-151.1838812556068
 10
101.2959702980267
 20
-151.1838812556068
 10
101.372279163025
 20
-151.1838812556068
 10
101.382786704255
 20
-151.1604546063071
 10
101.382786704255
 20
-151.0949977920873
 10
101.382786704255
 20
-151.0949977920873
 10
101.382786704255
 20
-150.6657388946252
 10
101.382786704255
 20
-150.6657388946252
 10
101.2854627567967
 20
-150.7057020022541
 10
101.2685817889189
 20
-150.7122476836761
 10
101.2220729998681
 20
-150.731195708845
 10
101.2177666305115
 20
-150.752210791305
 10
101.213460261155
 20
-150.7818386124782
 10
101.1945122359861
 20
-150.7818386124782
 10
101.1860717520472
 20
-150.7818386124782
 10
101.1753919560429
 20
-150.7777044978958
 10
101.1691907841695
 20
-150.7542778485961
 10
101.1691907841695
 20
-150.7542778485961
 10
101.1163085684709
 20
-150.5620415205192
 10
101.1163085684709
 20
-150.5620415205192
 10
101.2622083622712
 20
-150.5155327314683
 10
101.3278374312652
 20
-150.4921060821686
 10
101.382786704255
 20
-150.4710909997086
 10
101.382786704255
 20
-150.4710909997086
 10
101.382786704255
 20
-150.0583685605757
 10
101.382786704255
 20
-150.0583685605757
 10
101.382786704255
 20
-150.0583685605757
 10
101.3299044885564
 20
-150.0583685605757
 10
101.3299044885564
 20
-150.0583685605757
 10
101.3299044885564
 20
-150.0583685605757
 10
101.2517008210412
 20
-150.0583685605757
 10
101.2517008210412
 20
-150.0583685605757
 10
101.1840046947561
 20
-150.0583685605757
 10
101.1753919560429
 20
-150.0583685605757
 10
101.1395629629963
 20
-150.0649142419976
 10
101.1395629629963
 20
-150.0649142419976
 10
101.1395629629963
 20
-149.870266347081
 10
101.1395629629963
 20
-149.870266347081
 10
101.1669514721041
 20
-149.8764675189545
 10
101.1753919560429
 20
-149.8764675189545
 10
101.2453273943935
 20
-149.8764675189545
 10
101.2453273943935
 20
-149.8764675189545
 10
101.3784803348984
 20
-149.8764675189545
 10
101.3784803348984
 20
-149.8764675189545
 10
101.3784803348984
 20
-149.8065320806039
 10
101.3784803348984
 20
-149.7241942985064
 10
101.3764132776073
 20
-149.7200601839241
 10
101.3679727936684
 20
-149.5402261995941
 10
101.3679727936684
 20
-149.5209336648767
 10
101.3659057363772
 20
-149.4744248758258
 10
101.3659057363772
 20
-149.4744248758258
 10
101.5815687137539
 20
-149.483037614539
 10
101.5815687137539
 20
-149.483037614539
 10
101.5922485097582
 20
-149.483037614539
 10
101.6134358469924
 20
-149.4851046718301
 10
101.6134358469924
 20
-149.5019856397078
 10
101.6134358469924
 20
-149.5209336648767
 10
101.5986219364059
 20
-149.531613460881
 10
101.573128229815
 20
-149.5505614860499
 10
101.573128229815
 20
-149.6015488992316
 10
101.5667548031673
 20
-149.8299587299036
 10
101.5689941152327
 20
-149.8764675189545
 10
101.6980129411553
 20
-149.8764675189545
 10
101.7107597944508
 20
-149.8764675189545
 10
101.8080837419091
 20
-149.8681992897899
 10
101.8080837419091
 20
-149.8681992897899
 10
101.8080837419091
 20
-150.062502675158
 10
101.8080837419091
 20
-150.062502675158
 10
101.7698431820228
 20
-150.0604356178668
 10
101.7021470557377
 20
-150.0563015032845
 10
101.5667548031673
 20
-150.0583685605757
 10
101.5667548031673
 20
-150.0583685605757
 10
101.5667548031673
 20
-150.3970214467757
 10
101.5667548031673
 20
-150.3970214467757
 10
101.6218763309313
 20
-150.373594797476
 10
101.6873331451511
 20
-150.3460340335941
 10
101.7360812462674
 20
-150.3229518938429
 10
101.7360812462674
 20
-150.3229518938429
 10
101.7360812462674
 20
-150.145184966804
 10
101.7360812462674
 20
-150.145184966804
 10
101.8502861616034
 20
-150.1579318200994
 10
101.968797446296
 20
-150.1579318200994
 10
102.0850694189232
 20
-150.1579318200994
 10
102.0618150243977
 20
-150.062502675158
 10
102.03442651529
 20
-149.9801648930605
 10
101.9708645035871
 20
-149.8468396977813
 10
101.9264227718274
 20
-149.8489067550725
 10
101.8439127349557
 20
-149.8533853792033
 10
101.8058444298437
 20
-149.8554524364945
 10
101.8058444298437
 20
-149.8554524364945
 10
101.8058444298437
 20
-149.6756184521644
 10
101.8058444298437
 20
-149.6756184521644
 10
101.930729141184
 20
-149.683886681329
 10
102.1041896988663
 20
-149.6883653054598
 10
102.186699735738
 20
-149.6883653054598
 10
102.186699735738
 20
-149.6883653054598
 10
102.2692097726098
 20
-149.6883653054598
 10
102.2692097726098
 20
-149.6883653054598
 10
102.2692097726098
 20
-149.5254122890075
 10
102.2692097726098
 20
-149.5147324930032
 10
102.2671427153186
 20
-149.4596109652392
 10
102.2671427153186
 20
-149.4596109652392
 10
102.4912461766341
 20
-149.4851046718301
 10
102.4912461766341
 20
-149.4851046718301
 10
102.4955525459907
 20
-149.4851046718301
 10
102.516739883225
 20
-149.4871717291212
 10
102.516739883225
 20
-149.504052696999
 10
102.516739883225
 20
-149.5188666075855
 10
102.5060600872207
 20
-149.5274793462987
 10
102.478671578113
 20
-149.5422932568853
 10
102.4722981514653
 20
-149.607750071105
 10
102.4702310941741
 20
-149.6291096631135
 10
102.4702310941741
 20
-149.6883653054598
 10
102.4702310941741
 20
-149.6883653054598
 10
102.565315729567
 20
-149.6883653054598
 10
102.565315729567
 20
-149.6883653054598
 10
102.6478257664387
 20
-149.6883653054598
 10
102.8212863241211
 20
-149.683886681329
 10
102.9461710354613
 20
-149.6756184521644
 10
102.9461710354613
 20
-149.6756184521644
 10
102.9461710354613
 20
-149.8554524364945
 10
102.9461710354613
 20
-149.8554524364945
 10
102.9165432142882
 20
-149.8533853792033
 10
102.7980319295956
 20
-149.8489067550725
 10
102.7578965671924
 20
-149.8468396977813
 10
102.7430826566059
 20
-149.8974826014145
 10
102.7091484660762
 20
-150.0097927142336
 10
102.6436916518564
 20
-150.1493190813863
 10
102.6858940715507
 20
-150.1493190813863
 10
102.9630520033391
 20
-150.1303710562174
 10
103.0243747029765
 20
-150.1283039989262
 10
103.0243747029765
 20
-150.1283039989262
 10
103.0243747029765
 20
-150.3122720978386
 10
103.0243747029765
 20
-150.3122720978386
 10
102.9947468818034
 20
-150.3122720978386
 10
102.9778659139257
 20
-150.3081379832563
 10
102.8149128974733
 20
-150.3081379832563
 97
        0
 97
        1
330
10F
 75
     2
 76
     1
 98
        1
 10
0.0
 20
0.0
450
        0
451
        0
460
0.0
461
0.0
452
        0
462
0.0
453
        0
470

  0
SPLINE
  5
111
330
109
100
AcDbEntity
  8
レイヤー 1
100
AcDbSpline
210
0.0
220
0.0
230
1.0
 70
    11
 71
     3
 72
    17
 73
    13
 74
     0
 42
0.0000000001
 43
0.0000000001
 40
0.0
 40
0.0
 40
0.0
 40
0.0
 40
1.0
 40
1.0
 40
1.0
 40
2.0
 40
2.0
 40
2.0
 40
3.0
 40
3.0
 40
3.0
 40
4.0
 40
4.0
 40
4.0
 40
4.0
 10
104.6714748544745
 20
-151.1077446453828
 30
0.0
 10
104.6714748544745
 20
-151.1077446453828
 30
0.0
 10
103.9648857704497
 20
-151.1077446453828
 30
0.0
 10
103.9648857704497
 20
-151.1077446453828
 30
0.0
 10
103.9648857704497
 20
-151.1077446453828
 30
0.0
 10
103.9648857704497
 20
-151.2221218154931
 30
0.0
 10
103.9648857704497
 20
-151.2221218154931
 30
0.0
 10
103.9648857704497
 20
-151.2221218154931
 30
0.0
 10
104.6714748544745
 20
-151.2221218154931
 30
0.0
 10
104.6714748544745
 20
-151.2221218154931
 30
0.0
 10
104.6714748544745
 20
-151.2221218154931
 30
0.0
 10
104.6714748544745
 20
-151.1077446453828
 30
0.0
 10
104.6714748544745
 20
-151.1077446453828
 30
0.0
  0
SPLINE
  5
112
330
109
100
AcDbEntity
  8
レイヤー 1
100
AcDbSpline
210
0.0
220
0.0
230
1.0
 70
    11
 71
     3
 72
    17
 73
    13
 74
     0
 42
0.0000000001
 43
0.0000000001
 40
0.0
 40
0.0
 40
0.0
 40
0.0
 40
1.0
 40
1.0
 40
1.0
 40
2.0
 40
2.0
 40
2.0
 40
3.0
 40
3.0
 40
3.0
 40
4.0
 40
4.0
 40
4.0
 40
4.0
 10
104.6714748544745
 20
-150.8645209041241
 30
0.0
 10
104.6714748544745
 20
-150.8645209041241
 30
0.0
 10
103.9648857704497
 20
-150.8645209041241
 30
0.0
 10
103.9648857704497
 20
-150.8645209041241
 30
0.0
 10
103.9648857704497
 20
-150.8645209041241
 30
0.0
 10
103.9648857704497
 20
-150.9785535646859
 30
0.0
 10
103.9648857704497
 20
-150.9785535646859
 30
0.0
 10
103.9648857704497
 20
-150.9785535646859
 30
0.0
 10
104.6714748544745
 20
-150.9785535646859
 30
0.0
 10
104.6714748544745
 20
-150.9785535646859
 30
0.0
 10
104.6714748544745
 20
-150.9785535646859
 30
0.0
 10
104.6714748544745
 20
-150.8645209041241
 30
0.0
 10
104.6714748544745
 20
-150.8645209041241
 30
0.0
  0
SPLINE
  5
113
330
109
100
AcDbEntity
  8
レイヤー 1
100
AcDbSpline
210
0.0
220
0.0
230
1.0
 70
    11
 71
     3
 72
    17
 73
    13
 74
     0
 42
0.0000000001
 43
0.0000000001
 40
0.0
 40
0.0
 40
0.0
 40
0.0
 40
1.0
 40
1.0
 40
1.0
 40
2.0
 40
2.0
 40
2.0
 40
3.0
 40
3.0
 40
3.0
 40
4.0
 40
4.0
 40
4.0
 40
4.0
 10
104.6714748544745
 20
-150.6316324493212
 30
0.0
 10
104.6714748544745
 20
-150.6316324493212
 30
0.0
 10
103.9648857704497
 20
-150.6316324493212
 30
0.0
 10
103.9648857704497
 20
-150.6316324493212
 30
0.0
 10
103.9648857704497
 20
-150.6316324493212
 30
0.0
 10
103.9648857704497
 20
-150.7394639380096
 30
0.0
 10
103.9648857704497
 20
-150.7394639380096
 30
0.0
 10
103.9648857704497
 20
-150.7394639380096
 30
0.0
 10
104.6714748544745
 20
-150.7394639380096
 30
0.0
 10
104.6714748544745
 20
-150.7394639380096
 30
0.0
 10
104.6714748544745
 20
-150.7394639380096
 30
0.0
 10
104.6714748544745
 20
-150.6316324493212
 30
0.0
 10
104.6714748544745
 20
-150.6316324493212
 30
0.0
  0
SPLINE
  5
114
330
109
100
AcDbEntity
  8
レイヤー 1
100
AcDbSpline
210
0.0
220
0.0
230
1.0
 70
     9
 71
     3
 72
   203
 73
   199
 74
     0
 42
0.0000000001
 43
0.0000000001
 40
0.0
 40
0.0
 40
0.0
 40
0.0
 40
1.0
 40
1.0
 40
1.0
 40
2.0
 40
2.0
 40
2.0
 40
3.0
 40
3.0
 40
3.0
 40
4.0
 40
4.0
 40
4.0
 40
5.0
 40
5.0
 40
5.0
 40
6.0
 40
6.0
 40
6.0
 40
7.0
 40
7.0
 40
7.0
 40
8.0
 40
8.0
 40
8.0
 40
9.0
 40
9.0
 40
9.0
 40
10.0
 40
10.0
 40
10.0
 40
11.0
 40
11.0
 40
11.0
 40
12.0
 40
12.0
 40
12.0
 40
13.0
 40
13.0
 40
13.0
 40
14.0
 40
14.0
 40
14.0
 40
15.0
 40
15.0
 40
15.0
 40
16.0
 40
16.0
 40
16.0
 40
17.0
 40
17.0
 40
17.0
 40
18.0
 40
18.0
 40
18.0
 40
19.0
 40
19.0
 40
19.0
 40
20.0
 40
20.0
 40
20.0
 40
21.0
 40
21.0
 40
21.0
 40
22.0
 40
22.0
 40
22.0
 40
23.0
 40
23.0
 40
23.0
 40
24.0
 40
24.0
 40
24.0
 40
25.0
 40
25.0
 40
25.0
 40
26.0
 40
26.0
 40
26.0
 40
27.0
 40
27.0
 40
27.0
 40
28.0
 40
28.0
 40
28.0
 40
29.0
 40
29.0
 40
29.0
 40
30.0
 40
30.0
 40
30.0
 40
31.0
 40
31.0
 40
31.0
 40
32.0
 40
32.0
 40
32.0
 40
33.0
 40
33.0
 40
33.0
 40
34.0
 40
34.0
 40
34.0
 40
35.0
 40
35.0
 40
35.0
 40
36.0
 40
36.0
 40
36.0
 40
37.0
 40
37.0
 40
37.0
 40
38.0
 40
38.0
 40
38.0
 40
39.0
 40
39.0
 40
39.0
 40
40.0
 40
40.0
 40
40.0
 40
41.0
 40
41.0
 40
41.0
 40
42.0
 40
42.0
 40
42.0
 40
43.0
 40
43.0
 40
43.0
 40
44.0
 40
44.0
 40
44.0
 40
45.0
 40
45.0
 40
45.0
 40
46.0
 40
46.0
 40
46.0
 40
47.0
 40
47.0
 40
47.0
 40
48.0
 40
48.0
 40
48.0
 40
49.0
 40
49.0
 40
49.0
 40
50.0
 40
50.0
 40
50.0
 40
51.0
 40
51.0
 40
51.0
 40
52.0
 40
52.0
 40
52.0
 40
53.0
 40
53.0
 40
53.0
 40
54.0
 40
54.0
 40
54.0
 40
55.0
 40
55.0
 40
55.0
 40
56.0
 40
56.0
 40
56.0
 40
57.0
 40
57.0
 40
57.0
 40
58.0
 40
58.0
 40
58.0
 40
59.0
 40
59.0
 40
59.0
 40
60.0
 40
60.0
 40
60.0
 40
61.0
 40
61.0
 40
61.0
 40
62.0
 40
62.0
 40
62.0
 40
63.0
 40
63.0
 40
63.0
 40
64.0
 40
64.0
 40
64.0
 40
65.0
 40
65.0
 40
65.0
 40
66.0
 40
66.0
 40
66.0
 40
66.0
 10
104.506454780731
 20
-150.3756618547672
 30
0.0
 10
104.506454780731
 20
-150.3756618547672
 30
0.0
 10
103.948004802572
 20
-150.3756618547672
 30
0.0
 10
103.948004802572
 20
-150.3756618547672
 30
0.0
 10
103.9373250065677
 20
-150.4201035865269
 30
0.0
 10
103.9288845226289
 20
-150.4517984649912
 30
0.0
 10
103.9161376693334
 20
-150.4900390248775
 30
0.0
 10
103.9416313759243
 20
-150.4900390248775
 30
0.0
 10
103.9564452865109
 20
-150.4921060821686
 30
0.0
 10
103.9628187131586
 20
-150.4921060821686
 30
0.0
 10
103.9628187131586
 20
-150.4921060821686
 30
0.0
 10
104.1510931814275
 20
-150.4921060821686
 30
0.0
 10
104.1510931814275
 20
-150.4921060821686
 30
0.0
 10
104.1510931814275
 20
-150.4921060821686
 30
0.0
 10
104.5254028058999
 20
-150.4921060821686
 30
0.0
 10
104.5254028058999
 20
-150.4921060821686
 30
0.0
 10
104.5762179643073
 20
-150.4921060821686
 30
0.0
 10
104.8597493227434
 20
-150.4793592288732
 30
0.0
 10
104.8914442012077
 20
-150.4793592288732
 30
0.0
 10
104.8893771439165
 20
-150.5069199927552
 30
0.0
 10
104.8871378318511
 20
-150.5258680179241
 30
0.0
 10
104.8871378318511
 20
-150.5554958390972
 30
0.0
 10
104.88507077456
 20
-150.5871907175615
 30
0.0
 10
104.88507077456
 20
-150.7225829701319
 30
0.0
 10
104.88507077456
 20
-150.7501437340138
 30
0.0
 10
104.88507077456
 20
-150.7501437340138
 30
0.0
 10
104.88507077456
 20
-150.9954345325636
 30
0.0
 10
104.88507077456
 20
-150.9954345325636
 30
0.0
 10
104.88507077456
 20
-151.0398762643234
 30
0.0
 10
104.8893771439165
 20
-151.2369357260796
 30
0.0
 10
104.8935112584988
 20
-151.3892089465277
 30
0.0
 10
104.8935112584988
 20
-151.3892089465277
 30
0.0
 10
104.6671684851179
 20
-151.3892089465277
 30
0.0
 10
104.6671684851179
 20
-151.3892089465277
 30
0.0
 10
104.6671684851179
 20
-151.3892089465277
 30
0.0
 10
104.6692355424091
 20
-151.3551025012237
 30
0.0
 10
104.6692355424091
 20
-151.3551025012237
 30
0.0
 10
104.6692355424091
 20
-151.3551025012237
 30
0.0
 10
103.9669528277409
 20
-151.3551025012237
 30
0.0
 10
103.9669528277409
 20
-151.3551025012237
 30
0.0
 10
103.9669528277409
 20
-151.3551025012237
 30
0.0
 10
103.969019885032
 20
-151.3892089465277
 30
0.0
 10
103.969019885032
 20
-151.3892089465277
 30
0.0
 10
103.969019885032
 20
-151.3892089465277
 30
0.0
 10
103.75111759559
 20
-151.3892089465277
 30
0.0
 10
103.75111759559
 20
-151.3892089465277
 30
0.0
 10
103.7554239649465
 20
-151.3340874187637
 30
0.0
 10
103.7554239649465
 20
-151.3213405654683
 30
0.0
 10
103.7617973915943
 20
-151.2073079049065
 30
0.0
 10
103.7638644488854
 20
-151.1797471410245
 30
0.0
 10
103.7659315061765
 20
-151.0464219457453
 30
0.0
 10
103.7659315061765
 20
-151.0274739205765
 30
0.0
 10
103.7659315061765
 20
-151.0274739205765
 30
0.0
 10
103.7659315061765
 20
-150.8242132869467
 30
0.0
 10
103.7659315061765
 20
-150.8242132869467
 30
0.0
 10
103.6264051390239
 20
-151.0739827096273
 30
0.0
 10
103.4570786959239
 20
-151.2048963380668
 30
0.0
 10
103.3513142645267
 20
-151.2706976618351
 30
0.0
 10
103.3513142645267
 20
-151.2706976618351
 30
0.0
 10
103.1778537068444
 20
-151.1308267851339
 30
0.0
 10
103.1778537068444
 20
-151.1308267851339
 30
0.0
 10
103.2667371703638
 20
-151.0801838815008
 30
0.0
 10
103.410569906873
 20
-150.9933674752725
 30
0.0
 10
103.5480292167345
 20
-150.7987195803559
 30
0.0
 10
103.6391519923194
 20
-150.6719400664987
 30
0.0
 10
103.7046088065391
 20
-150.5279350752152
 30
0.0
 10
103.7385429970688
 20
-150.3756618547672
 30
0.0
 10
103.5099609116225
 20
-150.3777289120583
 30
0.0
 10
103.3301269272924
 20
-150.3842745934803
 30
0.0
 10
103.2350422918995
 20
-150.3863416507714
 30
0.0
 10
103.2350422918995
 20
-150.3863416507714
 30
0.0
 10
103.2350422918995
 20
-150.2085747237326
 30
0.0
 10
103.2350422918995
 20
-150.2085747237326
 30
0.0
 10
103.4317572441073
 20
-150.2151204051545
 30
0.0
 10
103.7152886025434
 20
-150.2192545197369
 30
0.0
 10
103.8654947657003
 20
-150.2192545197369
 30
0.0
 10
103.8654947657003
 20
-150.2192545197369
 30
0.0
 10
104.0790906857858
 20
-150.2192545197369
 30
0.0
 10
104.0790906857858
 20
-150.2192545197369
 30
0.0
 10
104.0790906857858
 20
-150.2192545197369
 30
0.0
 10
104.0790906857858
 20
-150.1114230310485
 30
0.0
 10
104.0790906857858
 20
-150.1114230310485
 30
0.0
 10
104.0790906857858
 20
-150.1114230310485
 30
0.0
 10
103.9331908919854
 20
-150.1114230310485
 30
0.0
 10
103.9331908919854
 20
-150.1114230310485
 30
0.0
 10
103.7638644488854
 20
-150.1114230310485
 30
0.0
 10
103.5947102605596
 20
-150.1155571456308
 30
0.0
 10
103.4274508747508
 20
-150.1217583175043
 30
0.0
 10
103.4274508747508
 20
-150.1217583175043
 30
0.0
 10
103.4274508747508
 20
-149.9505370718873
 30
0.0
 10
103.4274508747508
 20
-149.9505370718873
 30
0.0
 10
103.5819634072642
 20
-149.9612168678916
 30
0.0
 10
103.768170818242
 20
-149.9612168678916
 30
0.0
 10
103.9331908919854
 20
-149.9612168678916
 30
0.0
 10
103.9331908919854
 20
-149.9612168678916
 30
0.0
 10
104.0790906857858
 20
-149.9612168678916
 30
0.0
 10
104.0790906857858
 20
-149.9612168678916
 30
0.0
 10
104.0790906857858
 20
-149.9612168678916
 30
0.0
 10
104.0790906857858
 20
-149.842705583199
 30
0.0
 10
104.0790906857858
 20
-149.842705583199
 30
0.0
 10
104.0790906857858
 20
-149.842705583199
 30
0.0
 10
103.948004802572
 20
-149.842705583199
 30
0.0
 10
103.948004802572
 20
-149.842705583199
 30
0.0
 10
103.9013237587469
 20
-149.842705583199
 30
0.0
 10
103.6982353798914
 20
-149.8509738123637
 30
0.0
 10
103.6560329601971
 20
-149.8509738123637
 30
0.0
 10
103.4529445813416
 20
-149.8554524364945
 30
0.0
 10
103.3768079711176
 20
-149.8575194937856
 30
0.0
 10
103.2984320488282
 20
-149.8595865510768
 30
0.0
 10
103.2984320488282
 20
-149.8595865510768
 30
0.0
 10
103.2984320488282
 20
-149.6756184521644
 30
0.0
 10
103.2984320488282
 20
-149.6756184521644
 30
0.0
 10
103.4126369641642
 20
-149.683886681329
 30
0.0
 10
103.4570786959239
 20
-149.683886681329
 30
0.0
 10
103.8400010591094
 20
-149.6924994200421
 30
0.0
 10
103.7766113021808
 20
-149.5974147846492
 30
0.0
 10
103.7490505382988
 20
-149.5698540207672
 30
0.0
 10
103.713049290478
 20
-149.5336805181721
 30
0.0
 10
103.713049290478
 20
-149.5336805181721
 30
0.0
 10
103.8887491602257
 20
-149.4513427360747
 30
0.0
 10
103.8887491602257
 20
-149.4513427360747
 30
0.0
 10
103.9288845226289
 20
-149.4871717291212
 30
0.0
 10
103.9733262543886
 20
-149.5295464035898
 30
0.0
 10
104.0473958073215
 20
-149.6394449495693
 30
0.0
 10
104.0473958073215
 20
-149.6394449495693
 30
0.0
 10
103.9331908919854
 20
-149.6945664773333
 30
0.0
 10
103.9331908919854
 20
-149.6945664773333
 30
0.0
 10
103.9331908919854
 20
-149.6945664773333
 30
0.0
 10
103.9436984332154
 20
-149.6945664773333
 30
0.0
 10
103.9436984332154
 20
-149.6945664773333
 30
0.0
 10
103.9436984332154
 20
-149.6945664773333
 30
0.0
 10
104.4663194183278
 20
-149.6945664773333
 30
0.0
 10
104.4663194183278
 20
-149.6945664773333
 30
0.0
 10
104.4663194183278
 20
-149.6945664773333
 30
0.0
 10
104.3710625281607
 20
-149.6501247455736
 30
0.0
 10
104.3710625281607
 20
-149.6501247455736
 30
0.0
 10
104.3984510372684
 20
-149.6122286952358
 30
0.0
 10
104.4556396223236
 20
-149.531613460881
 30
0.0
 10
104.4704535329102
 20
-149.4575439079481
 30
0.0
 10
104.4704535329102
 20
-149.4575439079481
 30
0.0
 10
104.6840494529956
 20
-149.5209336648767
 30
0.0
 10
104.6840494529956
 20
-149.5209336648767
 30
0.0
 10
104.6926621917088
 20
-149.5233452317164
 30
0.0
 10
104.7136772741688
 20
-149.5336805181721
 30
0.0
 10
104.7136772741688
 20
-149.5550401101807
 30
0.0
 10
104.7136772741688
 20
-149.5929361605184
 30
0.0
 10
104.648220459949
 20
-149.5929361605184
 30
0.0
 10
104.6291001800059
 20
-149.5929361605184
 30
0.0
 10
104.6185926387759
 20
-149.6122286952358
 30
0.0
 10
104.5953382442504
 20
-149.6521918028647
 30
0.0
 10
104.5657104230773
 20
-149.6924994200421
 30
0.0
 10
104.9655137541406
 20
-149.6859537386202
 30
0.0
 10
104.9951415753137
 20
-149.683886681329
 30
0.0
 10
105.0712781855377
 20
-149.6776855094556
 30
0.0
 10
105.0712781855377
 20
-149.6776855094556
 30
0.0
 10
105.0712781855377
 20
-149.8595865510768
 30
0.0
 10
105.0712781855377
 20
-149.8595865510768
 30
0.0
 10
105.0521579055946
 20
-149.8595865510768
 30
0.0
 10
105.026836453778
 20
-149.8575194937856
 30
0.0
 10
104.8068671070448
 20
-149.8489067550725
 30
0.0
 10
104.7560519486373
 20
-149.8468396977813
 30
0.0
 10
104.5360826019042
 20
-149.842705583199
 30
0.0
 10
104.4916408701444
 20
-149.842705583199
 30
0.0
 10
104.4916408701444
 20
-149.842705583199
 30
0.0
 10
104.2758056379935
 20
-149.842705583199
 30
0.0
 10
104.2758056379935
 20
-149.842705583199
 30
0.0
 10
104.2758056379935
 20
-149.842705583199
 30
0.0
 10
104.2758056379935
 20
-149.9612168678916
 30
0.0
 10
104.2758056379935
 20
-149.9612168678916
 30
0.0
 10
104.2758056379935
 20
-149.9612168678916
 30
0.0
 10
104.4492661956759
 20
-149.9612168678916
 30
0.0
 10
104.4492661956759
 20
-149.9612168678916
 30
0.0
 10
104.6122192121282
 20
-149.9612168678916
 30
0.0
 10
104.8025607376882
 20
-149.9612168678916
 30
0.0
 10
104.9591403274928
 20
-149.9505370718873
 30
0.0
 10
104.9591403274928
 20
-149.9505370718873
 30
0.0
 10
104.9591403274928
 20
-150.1217583175043
 30
0.0
 10
104.9591403274928
 20
-150.1217583175043
 30
0.0
 10
104.7496785219896
 20
-150.1134900883397
 30
0.0
 10
104.5529635697819
 20
-150.1114230310485
 30
0.0
 10
104.4492661956759
 20
-150.1114230310485
 30
0.0
 10
104.4492661956759
 20
-150.1114230310485
 30
0.0
 10
104.2758056379935
 20
-150.1114230310485
 30
0.0
 10
104.2758056379935
 20
-150.1114230310485
 30
0.0
 10
104.2758056379935
 20
-150.1114230310485
 30
0.0
 10
104.2758056379935
 20
-150.2192545197369
 30
0.0
 10
104.2758056379935
 20
-150.2192545197369
 30
0.0
 10
104.2758056379935
 20
-150.2192545197369
 30
0.0
 10
104.506454780731
 20
-150.2192545197369
 30
0.0
 10
104.506454780731
 20
-150.2192545197369
 30
0.0
 10
104.6397799760102
 20
-150.2192545197369
 30
0.0
 10
104.9274454490285
 20
-150.2151204051545
 30
0.0
 10
105.1369072545317
 20
-150.2085747237326
 30
0.0
 10
105.1369072545317
 20
-150.2085747237326
 30
0.0
 10
105.1369072545317
 20
-150.3863416507714
 30
0.0
 10
105.1369072545317
 20
-150.3863416507714
 30
0.0
 10
104.9443264169062
 20
-150.380140478898
 30
0.0
 10
104.6311672372971
 20
-150.3756618547672
 30
0.0
 10
104.506454780731
 20
-150.3756618547672
 30
0.0
  0
HATCH
  5
115
330
109
100
AcDbEntity
  8
レイヤー 1
 62
    18
420
        0
440
 33554687
100
AcDbHatch
 10
0.0
 20
0.0
 30
0.0
210
0.0
220
0.0
230
1.0
  2
SOLID
 70
     1
 71
     1
 91
        4
 92
        1
 93
        1
 72
     4
 94
        3
 73
     0
 74
     0
 95
       17
 96
       13
 40
0.0
 40
0.0
 40
0.0
 40
0.0
 40
1.0
 40
1.0
 40
1.0
 40
2.0
 40
2.0
 40
2.0
 40
3.0
 40
3.0
 40
3.0
 40
4.0
 40
4.0
 40
4.0
 40
4.0
 10
104.6714748544745
 20
-151.1077446453828
 10
104.6714748544745
 20
-151.1077446453828
 10
103.9648857704497
 20
-151.1077446453828
 10
103.9648857704497
 20
-151.1077446453828
 10
103.9648857704497
 20
-151.1077446453828
 10
103.9648857704497
 20
-151.2221218154931
 10
103.9648857704497
 20
-151.2221218154931
 10
103.9648857704497
 20
-151.2221218154931
 10
104.6714748544745
 20
-151.2221218154931
 10
104.6714748544745
 20
-151.2221218154931
 10
104.6714748544745
 20
-151.2221218154931
 10
104.6714748544745
 20
-151.1077446453828
 10
104.6714748544745
 20
-151.1077446453828
 97
        0
 97
        1
330
111
 92
        1
 93
        1
 72
     4
 94
        3
 73
     0
 74
     0
 95
       17
 96
       13
 40
0.0
 40
0.0
 40
0.0
 40
0.0
 40
1.0
 40
1.0
 40
1.0
 40
2.0
 40
2.0
 40
2.0
 40
3.0
 40
3.0
 40
3.0
 40
4.0
 40
4.0
 40
4.0
 40
4.0
 10
104.6714748544745
 20
-150.8645209041241
 10
104.6714748544745
 20
-150.8645209041241
 10
103.9648857704497
 20
-150.8645209041241
 10
103.9648857704497
 20
-150.8645209041241
 10
103.9648857704497
 20
-150.8645209041241
 10
103.9648857704497
 20
-150.9785535646859
 10
103.9648857704497
 20
-150.9785535646859
 10
103.9648857704497
 20
-150.9785535646859
 10
104.6714748544745
 20
-150.9785535646859
 10
104.6714748544745
 20
-150.9785535646859
 10
104.6714748544745
 20
-150.9785535646859
 10
104.6714748544745
 20
-150.8645209041241
 10
104.6714748544745
 20
-150.8645209041241
 97
        0
 97
        1
330
112
 92
        1
 93
        1
 72
     4
 94
        3
 73
     0
 74
     0
 95
       17
 96
       13
 40
0.0
 40
0.0
 40
0.0
 40
0.0
 40
1.0
 40
1.0
 40
1.0
 40
2.0
 40
2.0
 40
2.0
 40
3.0
 40
3.0
 40
3.0
 40
4.0
 40
4.0
 40
4.0
 40
4.0
 10
104.6714748544745
 20
-150.6316324493212
 10
104.6714748544745
 20
-150.6316324493212
 10
103.9648857704497
 20
-150.6316324493212
 10
103.9648857704497
 20
-150.6316324493212
 10
103.9648857704497
 20
-150.6316324493212
 10
103.9648857704497
 20
-150.7394639380096
 10
103.9648857704497
 20
-150.7394639380096
 10
103.9648857704497
 20
-150.7394639380096
 10
104.6714748544745
 20
-150.7394639380096
 10
104.6714748544745
 20
-150.7394639380096
 10
104.6714748544745
 20
-150.7394639380096
 10
104.6714748544745
 20
-150.6316324493212
 10
104.6714748544745
 20
-150.6316324493212
 97
        0
 97
        1
330
113
 92
        1
 93
        1
 72
     4
 94
        3
 73
     0
 74
     0
 95
      203
 96
      199
 40
0.0
 40
0.0
 40
0.0
 40
0.0
 40
1.0
 40
1.0
 40
1.0
 40
2.0
 40
2.0
 40
2.0
 40
3.0
 40
3.0
 40
3.0
 40
4.0
 40
4.0
 40
4.0
 40
5.0
 40
5.0
 40
5.0
 40
6.0
 40
6.0
 40
6.0
 40
7.0
 40
7.0
 40
7.0
 40
8.0
 40
8.0
 40
8.0
 40
9.0
 40
9.0
 40
9.0
 40
10.0
 40
10.0
 40
10.0
 40
11.0
 40
11.0
 40
11.0
 40
12.0
 40
12.0
 40
12.0
 40
13.0
 40
13.0
 40
13.0
 40
14.0
 40
14.0
 40
14.0
 40
15.0
 40
15.0
 40
15.0
 40
16.0
 40
16.0
 40
16.0
 40
17.0
 40
17.0
 40
17.0
 40
18.0
 40
18.0
 40
18.0
 40
19.0
 40
19.0
 40
19.0
 40
20.0
 40
20.0
 40
20.0
 40
21.0
 40
21.0
 40
21.0
 40
22.0
 40
22.0
 40
22.0
 40
23.0
 40
23.0
 40
23.0
 40
24.0
 40
24.0
 40
24.0
 40
25.0
 40
25.0
 40
25.0
 40
26.0
 40
26.0
 40
26.0
 40
27.0
 40
27.0
 40
27.0
 40
28.0
 40
28.0
 40
28.0
 40
29.0
 40
29.0
 40
29.0
 40
30.0
 40
30.0
 40
30.0
 40
31.0
 40
31.0
 40
31.0
 40
32.0
 40
32.0
 40
32.0
 40
33.0
 40
33.0
 40
33.0
 40
34.0
 40
34.0
 40
34.0
 40
35.0
 40
35.0
 40
35.0
 40
36.0
 40
36.0
 40
36.0
 40
37.0
 40
37.0
 40
37.0
 40
38.0
 40
38.0
 40
38.0
 40
39.0
 40
39.0
 40
39.0
 40
40.0
 40
40.0
 40
40.0
 40
41.0
 40
41.0
 40
41.0
 40
42.0
 40
42.0
 40
42.0
 40
43.0
 40
43.0
 40
43.0
 40
44.0
 40
44.0
 40
44.0
 40
45.0
 40
45.0
 40
45.0
 40
46.0
 40
46.0
 40
46.0
 40
47.0
 40
47.0
 40
47.0
 40
48.0
 40
48.0
 40
48.0
 40
49.0
 40
49.0
 40
49.0
 40
50.0
 40
50.0
 40
50.0
 40
51.0
 40
51.0
 40
51.0
 40
52.0
 40
52.0
 40
52.0
 40
53.0
 40
53.0
 40
53.0
 40
54.0
 40
54.0
 40
54.0
 40
55.0
 40
55.0
 40
55.0
 40
56.0
 40
56.0
 40
56.0
 40
57.0
 40
57.0
 40
57.0
 40
58.0
 40
58.0
 40
58.0
 40
59.0
 40
59.0
 40
59.0
 40
60.0
 40
60.0
 40
60.0
 40
61.0
 40
61.0
 40
61.0
 40
62.0
 40
62.0
 40
62.0
 40
63.0
 40
63.0
 40
63.0
 40
64.0
 40
64.0
 40
64.0
 40
65.0
 40
65.0
 40
65.0
 40
66.0
 40
66.0
 40
66.0
 40
66.0
 10
104.506454780731
 20
-150.3756618547672
 10
104.506454780731
 20
-150.3756618547672
 10
103.948004802572
 20
-150.3756618547672
 10
103.948004802572
 20
-150.3756618547672
 10
103.9373250065677
 20
-150.4201035865269
 10
103.9288845226289
 20
-150.4517984649912
 10
103.9161376693334
 20
-150.4900390248775
 10
103.9416313759243
 20
-150.4900390248775
 10
103.9564452865109
 20
-150.4921060821686
 10
103.9628187131586
 20
-150.4921060821686
 10
103.9628187131586
 20
-150.4921060821686
 10
104.1510931814275
 20
-150.4921060821686
 10
104.1510931814275
 20
-150.4921060821686
 10
104.1510931814275
 20
-150.4921060821686
 10
104.5254028058999
 20
-150.4921060821686
 10
104.5254028058999
 20
-150.4921060821686
 10
104.5762179643073
 20
-150.4921060821686
 10
104.8597493227434
 20
-150.4793592288732
 10
104.8914442012077
 20
-150.4793592288732
 10
104.8893771439165
 20
-150.5069199927552
 10
104.8871378318511
 20
-150.5258680179241
 10
104.8871378318511
 20
-150.5554958390972
 10
104.88507077456
 20
-150.5871907175615
 10
104.88507077456
 20
-150.7225829701319
 10
104.88507077456
 20
-150.7501437340138
 10
104.88507077456
 20
-150.7501437340138
 10
104.88507077456
 20
-150.9954345325636
 10
104.88507077456
 20
-150.9954345325636
 10
104.88507077456
 20
-151.0398762643234
 10
104.8893771439165
 20
-151.2369357260796
 10
104.8935112584988
 20
-151.3892089465277
 10
104.8935112584988
 20
-151.3892089465277
 10
104.6671684851179
 20
-151.3892089465277
 10
104.6671684851179
 20
-151.3892089465277
 10
104.6671684851179
 20
-151.3892089465277
 10
104.6692355424091
 20
-151.3551025012237
 10
104.6692355424091
 20
-151.3551025012237
 10
104.6692355424091
 20
-151.3551025012237
 10
103.9669528277409
 20
-151.3551025012237
 10
103.9669528277409
 20
-151.3551025012237
 10
103.9669528277409
 20
-151.3551025012237
 10
103.969019885032
 20
-151.3892089465277
 10
103.969019885032
 20
-151.3892089465277
 10
103.969019885032
 20
-151.3892089465277
 10
103.75111759559
 20
-151.3892089465277
 10
103.75111759559
 20
-151.3892089465277
 10
103.7554239649465
 20
-151.3340874187637
 10
103.7554239649465
 20
-151.3213405654683
 10
103.7617973915943
 20
-151.2073079049065
 10
103.7638644488854
 20
-151.1797471410245
 10
103.7659315061765
 20
-151.0464219457453
 10
103.7659315061765
 20
-151.0274739205765
 10
103.7659315061765
 20
-151.0274739205765
 10
103.7659315061765
 20
-150.8242132869467
 10
103.7659315061765
 20
-150.8242132869467
 10
103.6264051390239
 20
-151.0739827096273
 10
103.4570786959239
 20
-151.2048963380668
 10
103.3513142645267
 20
-151.2706976618351
 10
103.3513142645267
 20
-151.2706976618351
 10
103.1778537068444
 20
-151.1308267851339
 10
103.1778537068444
 20
-151.1308267851339
 10
103.2667371703638
 20
-151.0801838815008
 10
103.410569906873
 20
-150.9933674752725
 10
103.5480292167345
 20
-150.7987195803559
 10
103.6391519923194
 20
-150.6719400664987
 10
103.7046088065391
 20
-150.5279350752152
 10
103.7385429970688
 20
-150.3756618547672
 10
103.5099609116225
 20
-150.3777289120583
 10
103.3301269272924
 20
-150.3842745934803
 10
103.2350422918995
 20
-150.3863416507714
 10
103.2350422918995
 20
-150.3863416507714
 10
103.2350422918995
 20
-150.2085747237326
 10
103.2350422918995
 20
-150.2085747237326
 10
103.4317572441073
 20
-150.2151204051545
 10
103.7152886025434
 20
-150.2192545197369
 10
103.8654947657003
 20
-150.2192545197369
 10
103.8654947657003
 20
-150.2192545197369
 10
104.0790906857858
 20
-150.2192545197369
 10
104.0790906857858
 20
-150.2192545197369
 10
104.0790906857858
 20
-150.2192545197369
 10
104.0790906857858
 20
-150.1114230310485
 10
104.0790906857858
 20
-150.1114230310485
 10
104.0790906857858
 20
-150.1114230310485
 10
103.9331908919854
 20
-150.1114230310485
 10
103.9331908919854
 20
-150.1114230310485
 10
103.7638644488854
 20
-150.1114230310485
 10
103.5947102605596
 20
-150.1155571456308
 10
103.4274508747508
 20
-150.1217583175043
 10
103.4274508747508
 20
-150.1217583175043
 10
103.4274508747508
 20
-149.9505370718873
 10
103.4274508747508
 20
-149.9505370718873
 10
103.5819634072642
 20
-149.9612168678916
 10
103.768170818242
 20
-149.9612168678916
 10
103.9331908919854
 20
-149.9612168678916
 10
103.9331908919854
 20
-149.9612168678916
 10
104.0790906857858
 20
-149.9612168678916
 10
104.0790906857858
 20
-149.9612168678916
 10
104.0790906857858
 20
-149.9612168678916
 10
104.0790906857858
 20
-149.842705583199
 10
104.0790906857858
 20
-149.842705583199
 10
104.0790906857858
 20
-149.842705583199
 10
103.948004802572
 20
-149.842705583199
 10
103.948004802572
 20
-149.842705583199
 10
103.9013237587469
 20
-149.842705583199
 10
103.6982353798914
 20
-149.8509738123637
 10
103.6560329601971
 20
-149.8509738123637
 10
103.4529445813416
 20
-149.8554524364945
 10
103.3768079711176
 20
-149.8575194937856
 10
103.2984320488282
 20
-149.8595865510768
 10
103.2984320488282
 20
-149.8595865510768
 10
103.2984320488282
 20
-149.6756184521644
 10
103.2984320488282
 20
-149.6756184521644
 10
103.4126369641642
 20
-149.683886681329
 10
103.4570786959239
 20
-149.683886681329
 10
103.8400010591094
 20
-149.6924994200421
 10
103.7766113021808
 20
-149.5974147846492
 10
103.7490505382988
 20
-149.5698540207672
 10
103.713049290478
 20
-149.5336805181721
 10
103.713049290478
 20
-149.5336805181721
 10
103.8887491602257
 20
-149.4513427360747
 10
103.8887491602257
 20
-149.4513427360747
 10
103.9288845226289
 20
-149.4871717291212
 10
103.9733262543886
 20
-149.5295464035898
 10
104.0473958073215
 20
-149.6394449495693
 10
104.0473958073215
 20
-149.6394449495693
 10
103.9331908919854
 20
-149.6945664773333
 10
103.9331908919854
 20
-149.6945664773333
 10
103.9331908919854
 20
-149.6945664773333
 10
103.9436984332154
 20
-149.6945664773333
 10
103.9436984332154
 20
-149.6945664773333
 10
103.9436984332154
 20
-149.6945664773333
 10
104.4663194183278
 20
-149.6945664773333
 10
104.4663194183278
 20
-149.6945664773333
 10
104.4663194183278
 20
-149.6945664773333
 10
104.3710625281607
 20
-149.6501247455736
 10
104.3710625281607
 20
-149.6501247455736
 10
104.3984510372684
 20
-149.6122286952358
 10
104.4556396223236
 20
-149.531613460881
 10
104.4704535329102
 20
-149.4575439079481
 10
104.4704535329102
 20
-149.4575439079481
 10
104.6840494529956
 20
-149.5209336648767
 10
104.6840494529956
 20
-149.5209336648767
 10
104.6926621917088
 20
-149.5233452317164
 10
104.7136772741688
 20
-149.5336805181721
 10
104.7136772741688
 20
-149.5550401101807
 10
104.7136772741688
 20
-149.5929361605184
 10
104.648220459949
 20
-149.5929361605184
 10
104.6291001800059
 20
-149.5929361605184
 10
104.6185926387759
 20
-149.6122286952358
 10
104.5953382442504
 20
-149.6521918028647
 10
104.5657104230773
 20
-149.6924994200421
 10
104.9655137541406
 20
-149.6859537386202
 10
104.9951415753137
 20
-149.683886681329
 10
105.0712781855377
 20
-149.6776855094556
 10
105.0712781855377
 20
-149.6776855094556
 10
105.0712781855377
 20
-149.8595865510768
 10
105.0712781855377
 20
-149.8595865510768
 10
105.0521579055946
 20
-149.8595865510768
 10
105.026836453778
 20
-149.8575194937856
 10
104.8068671070448
 20
-149.8489067550725
 10
104.7560519486373
 20
-149.8468396977813
 10
104.5360826019042
 20
-149.842705583199
 10
104.4916408701444
 20
-149.842705583199
 10
104.4916408701444
 20
-149.842705583199
 10
104.2758056379935
 20
-149.842705583199
 10
104.2758056379935
 20
-149.842705583199
 10
104.2758056379935
 20
-149.842705583199
 10
104.2758056379935
 20
-149.9612168678916
 10
104.2758056379935
 20
-149.9612168678916
 10
104.2758056379935
 20
-149.9612168678916
 10
104.4492661956759
 20
-149.9612168678916
 10
104.4492661956759
 20
-149.9612168678916
 10
104.6122192121282
 20
-149.9612168678916
 10
104.8025607376882
 20
-149.9612168678916
 10
104.9591403274928
 20
-149.9505370718873
 10
104.9591403274928
 20
-149.9505370718873
 10
104.9591403274928
 20
-150.1217583175043
 10
104.9591403274928
 20
-150.1217583175043
 10
104.7496785219896
 20
-150.1134900883397
 10
104.5529635697819
 20
-150.1114230310485
 10
104.4492661956759
 20
-150.1114230310485
 10
104.4492661956759
 20
-150.1114230310485
 10
104.2758056379935
 20
-150.1114230310485
 10
104.2758056379935
 20
-150.1114230310485
 10
104.2758056379935
 20
-150.1114230310485
 10
104.2758056379935
 20
-150.2192545197369
 10
104.2758056379935
 20
-150.2192545197369
 10
104.2758056379935
 20
-150.2192545197369
 10
104.506454780731
 20
-150.2192545197369
 10
104.506454780731
 20
-150.2192545197369
 10
104.6397799760102
 20
-150.2192545197369
 10
104.9274454490285
 20
-150.2151204051545
 10
105.1369072545317
 20
-150.2085747237326
 10
105.1369072545317
 20
-150.2085747237326
 10
105.1369072545317
 20
-150.3863416507714
 10
105.1369072545317
 20
-150.3863416507714
 10
104.9443264169062
 20
-150.380140478898
 10
104.6311672372971
 20
-150.3756618547672
 10
104.506454780731
 20
-150.3756618547672
 97
        0
 97
        1
330
114
 75
     2
 76
     1
 98
        1
 10
0.0
 20
0.0
450
        0
451
        0
460
0.0
461
0.0
452
        0
462
0.0
453
        0
470

  0
SPLINE
  5
116
330
109
100
AcDbEntity
  8
レイヤー 1
100
AcDbSpline
210
0.0
220
0.0
230
1.0
 70
     9
 71
     3
 72
    29
 73
    25
 74
     0
 42
0.0000000001
 43
0.0000000001
 40
0.0
 40
0.0
 40
0.0
 40
0.0
 40
1.0
 40
1.0
 40
1.0
 40
2.0
 40
2.0
 40
2.0
 40
3.0
 40
3.0
 40
3.0
 40
4.0
 40
4.0
 40
4.0
 40
5.0
 40
5.0
 40
5.0
 40
6.0
 40
6.0
 40
6.0
 40
7.0
 40
7.0
 40
7.0
 40
8.0
 40
8.0
 40
8.0
 40
8.0
 10
106.3817925081268
 20
-149.8237575580301
 30
0.0
 10
106.3817925081268
 20
-149.8237575580301
 30
0.0
 10
106.0286702208886
 20
-149.8237575580301
 30
0.0
 10
106.0286702208886
 20
-149.8237575580301
 30
0.0
 10
105.9163601080695
 20
-149.8237575580301
 30
0.0
 10
105.7768337409169
 20
-149.8299587299036
 30
0.0
 10
105.6690022522286
 20
-149.842705583199
 30
0.0
 10
105.6690022522286
 20
-149.842705583199
 30
0.0
 10
105.6690022522286
 20
-149.607750071105
 30
0.0
 10
105.6690022522286
 20
-149.607750071105
 30
0.0
 10
105.7875135369211
 20
-149.6225639816916
 30
0.0
 10
105.9714816358335
 20
-149.6266980962739
 30
0.0
 10
106.0286702208886
 20
-149.6266980962739
 30
0.0
 10
106.0286702208886
 20
-149.6266980962739
 30
0.0
 10
106.3817925081268
 20
-149.6266980962739
 30
0.0
 10
106.3817925081268
 20
-149.6266980962739
 30
0.0
 10
106.4010850428442
 20
-149.6266980962739
 30
0.0
 10
106.6040011669254
 20
-149.6266980962739
 30
0.0
 10
106.7455945913691
 20
-149.607750071105
 30
0.0
 10
106.7455945913691
 20
-149.607750071105
 30
0.0
 10
106.7455945913691
 20
-149.842705583199
 30
0.0
 10
106.7455945913691
 20
-149.842705583199
 30
0.0
 10
106.5891872563388
 20
-149.8237575580301
 30
0.0
 10
106.3986734760045
 20
-149.8237575580301
 30
0.0
 10
106.3817925081268
 20
-149.8237575580301
 30
0.0
  0
SPLINE
  5
117
330
109
100
AcDbEntity
  8
レイヤー 1
100
AcDbSpline
210
0.0
220
0.0
230
1.0
 70
     9
 71
     3
 72
    47
 73
    43
 74
     0
 42
0.0000000001
 43
0.0000000001
 40
0.0
 40
0.0
 40
0.0
 40
0.0
 40
1.0
 40
1.0
 40
1.0
 40
2.0
 40
2.0
 40
2.0
 40
3.0
 40
3.0
 40
3.0
 40
4.0
 40
4.0
 40
4.0
 40
5.0
 40
5.0
 40
5.0
 40
6.0
 40
6.0
 40
6.0
 40
7.0
 40
7.0
 40
7.0
 40
8.0
 40
8.0
 40
8.0
 40
9.0
 40
9.0
 40
9.0
 40
10.0
 40
10.0
 40
10.0
 40
11.0
 40
11.0
 40
11.0
 40
12.0
 40
12.0
 40
12.0
 40
13.0
 40
13.0
 40
13.0
 40
14.0
 40
14.0
 40
14.0
 40
14.0
 10
106.4834228249416
 20
-150.352579715016
 30
0.0
 10
106.4834228249416
 20
-150.352579715016
 30
0.0
 10
106.3817925081268
 20
-150.352579715016
 30
0.0
 10
106.3817925081268
 20
-150.352579715016
 30
0.0
 10
106.3817925081268
 20
-150.4390516116958
 30
0.0
 10
106.3607774256667
 20
-150.828347401529
 30
0.0
 10
106.1640624734589
 20
-151.0484890030365
 30
0.0
 10
106.0117892530109
 20
-151.2176431913623
 30
0.0
 10
105.8043945047989
 20
-151.2875786297128
 30
0.0
 10
105.7196451558617
 20
-151.3151393935948
 30
0.0
 10
105.7196451558617
 20
-151.3151393935948
 30
0.0
 10
105.5249972609451
 20
-151.1480522625602
 30
0.0
 10
105.5249972609451
 20
-151.1480522625602
 30
0.0
 10
105.6224934631777
 20
-151.1353054092648
 30
0.0
 10
105.7978488233769
 20
-151.1118787599651
 30
0.0
 10
105.9862955464201
 20
-150.9237765464704
 30
0.0
 10
106.0603650993529
 20
-150.8517740508287
 30
0.0
 10
106.1640624734589
 20
-150.7122476836761
 30
0.0
 10
106.1640624734589
 20
-150.352579715016
 30
0.0
 10
106.1640624734589
 20
-150.352579715016
 30
0.0
 10
105.9332410759472
 20
-150.352579715016
 30
0.0
 10
105.9332410759472
 20
-150.352579715016
 30
0.0
 10
105.7472059197437
 20
-150.352579715016
 30
0.0
 10
105.5611707635402
 20
-150.3567138295983
 30
0.0
 10
105.3749633525625
 20
-150.3715277401849
 30
0.0
 10
105.3749633525625
 20
-150.3715277401849
 30
0.0
 10
105.3749633525625
 20
-150.1513861386774
 30
0.0
 10
105.3749633525625
 20
-150.1513861386774
 30
0.0
 10
105.5632378208314
 20
-150.166200049264
 30
0.0
 10
105.8488362365586
 20
-150.1706786733948
 30
0.0
 10
105.9332410759472
 20
-150.1706786733948
 30
0.0
 10
105.9332410759472
 20
-150.1706786733948
 30
0.0
 10
106.4834228249416
 20
-150.1706786733948
 30
0.0
 10
106.4834228249416
 20
-150.1706786733948
 30
0.0
 10
106.5023708501105
 20
-150.1706786733948
 30
0.0
 10
106.819664144302
 20
-150.1706786733948
 30
0.0
 10
107.0484184845226
 20
-150.1513861386774
 30
0.0
 10
107.0484184845226
 20
-150.1513861386774
 30
0.0
 10
107.0484184845226
 20
-150.3715277401849
 30
0.0
 10
107.0484184845226
 20
-150.3715277401849
 30
0.0
 10
106.8599717614794
 20
-150.3567138295983
 30
0.0
 10
106.6718695479848
 20
-150.352579715016
 30
0.0
 10
106.4834228249416
 20
-150.352579715016
 30
0.0
  0
HATCH
  5
118
330
109
100
AcDbEntity
  8
レイヤー 1
 62
    18
420
        0
440
 33554687
100
AcDbHatch
 10
0.0
 20
0.0
 30
0.0
210
0.0
220
0.0
230
1.0
  2
SOLID
 70
     1
 71
     1
 91
        2
 92
        1
 93
        1
 72
     4
 94
        3
 73
     0
 74
     0
 95
       29
 96
       25
 40
0.0
 40
0.0
 40
0.0
 40
0.0
 40
1.0
 40
1.0
 40
1.0
 40
2.0
 40
2.0
 40
2.0
 40
3.0
 40
3.0
 40
3.0
 40
4.0
 40
4.0
 40
4.0
 40
5.0
 40
5.0
 40
5.0
 40
6.0
 40
6.0
 40
6.0
 40
7.0
 40
7.0
 40
7.0
 40
8.0
 40
8.0
 40
8.0
 40
8.0
 10
106.3817925081268
 20
-149.8237575580301
 10
106.3817925081268
 20
-149.8237575580301
 10
106.0286702208886
 20
-149.8237575580301
 10
106.0286702208886
 20
-149.8237575580301
 10
105.9163601080695
 20
-149.8237575580301
 10
105.7768337409169
 20
-149.8299587299036
 10
105.6690022522286
 20
-149.842705583199
 10
105.6690022522286
 20
-149.842705583199
 10
105.6690022522286
 20
-149.607750071105
 10
105.6690022522286
 20
-149.607750071105
 10
105.7875135369211
 20
-149.6225639816916
 10
105.9714816358335
 20
-149.6266980962739
 10
106.0286702208886
 20
-149.6266980962739
 10
106.0286702208886
 20
-149.6266980962739
 10
106.3817925081268
 20
-149.6266980962739
 10
106.3817925081268
 20
-149.6266980962739
 10
106.4010850428442
 20
-149.6266980962739
 10
106.6040011669254
 20
-149.6266980962739
 10
106.7455945913691
 20
-149.607750071105
 10
106.7455945913691
 20
-149.607750071105
 10
106.7455945913691
 20
-149.842705583199
 10
106.7455945913691
 20
-149.842705583199
 10
106.5891872563388
 20
-149.8237575580301
 10
106.3986734760045
 20
-149.8237575580301
 10
106.3817925081268
 20
-149.8237575580301
 97
        0
 97
        1
330
116
 92
        1
 93
        1
 72
     4
 94
        3
 73
     0
 74
     0
 95
       47
 96
       43
 40
0.0
 40
0.0
 40
0.0
 40
0.0
 40
1.0
 40
1.0
 40
1.0
 40
2.0
 40
2.0
 40
2.0
 40
3.0
 40
3.0
 40
3.0
 40
4.0
 40
4.0
 40
4.0
 40
5.0
 40
5.0
 40
5.0
 40
6.0
 40
6.0
 40
6.0
 40
7.0
 40
7.0
 40
7.0
 40
8.0
 40
8.0
 40
8.0
 40
9.0
 40
9.0
 40
9.0
 40
10.0
 40
10.0
 40
10.0
 40
11.0
 40
11.0
 40
11.0
 40
12.0
 40
12.0
 40
12.0
 40
13.0
 40
13.0
 40
13.0
 40
14.0
 40
14.0
 40
14.0
 40
14.0
 10
106.4834228249416
 20
-150.352579715016
 10
106.4834228249416
 20
-150.352579715016
 10
106.3817925081268
 20
-150.352579715016
 10
106.3817925081268
 20
-150.352579715016
 10
106.3817925081268
 20
-150.4390516116958
 10
106.3607774256667
 20
-150.828347401529
 10
106.1640624734589
 20
-151.0484890030365
 10
106.0117892530109
 20
-151.2176431913623
 10
105.8043945047989
 20
-151.2875786297128
 10
105.7196451558617
 20
-151.3151393935948
 10
105.7196451558617
 20
-151.3151393935948
 10
105.5249972609451
 20
-151.1480522625602
 10
105.5249972609451
 20
-151.1480522625602
 10
105.6224934631777
 20
-151.1353054092648
 10
105.7978488233769
 20
-151.1118787599651
 10
105.9862955464201
 20
-150.9237765464704
 10
106.0603650993529
 20
-150.8517740508287
 10
106.1640624734589
 20
-150.7122476836761
 10
106.1640624734589
 20
-150.352579715016
 10
106.1640624734589
 20
-150.352579715016
 10
105.9332410759472
 20
-150.352579715016
 10
105.9332410759472
 20
-150.352579715016
 10
105.7472059197437
 20
-150.352579715016
 10
105.5611707635402
 20
-150.3567138295983
 10
105.3749633525625
 20
-150.3715277401849
 10
105.3749633525625
 20
-150.3715277401849
 10
105.3749633525625
 20
-150.1513861386774
 10
105.3749633525625
 20
-150.1513861386774
 10
105.5632378208314
 20
-150.166200049264
 10
105.8488362365586
 20
-150.1706786733948
 10
105.9332410759472
 20
-150.1706786733948
 10
105.9332410759472
 20
-150.1706786733948
 10
106.4834228249416
 20
-150.1706786733948
 10
106.4834228249416
 20
-150.1706786733948
 10
106.5023708501105
 20
-150.1706786733948
 10
106.819664144302
 20
-150.1706786733948
 10
107.0484184845226
 20
-150.1513861386774
 10
107.0484184845226
 20
-150.1513861386774
 10
107.0484184845226
 20
-150.3715277401849
 10
107.0484184845226
 20
-150.3715277401849
 10
106.8599717614794
 20
-150.3567138295983
 10
106.6718695479848
 20
-150.352579715016
 10
106.4834228249416
 20
-150.352579715016
 97
        0
 97
        1
330
117
 75
     2
 76
     1
 98
        1
 10
0.0
 20
0.0
450
        0
451
        0
460
0.0
461
0.0
452
        0
462
0.0
453
        0
470

  0
SPLINE
  5
119
330
109
100
AcDbEntity
  8
レイヤー 1
100
AcDbSpline
210
0.0
220
0.0
230
1.0
 70
     9
 71
     3
 72
    29
 73
    25
 74
     0
 42
0.0000000001
 43
0.0000000001
 40
0.0
 40
0.0
 40
0.0
 40
0.0
 40
1.0
 40
1.0
 40
1.0
 40
2.0
 40
2.0
 40
2.0
 40
3.0
 40
3.0
 40
3.0
 40
4.0
 40
4.0
 40
4.0
 40
5.0
 40
5.0
 40
5.0
 40
6.0
 40
6.0
 40
6.0
 40
7.0
 40
7.0
 40
7.0
 40
8.0
 40
8.0
 40
8.0
 40
8.0
 10
108.3293049859385
 20
-150.5155327314683
 30
0.0
 10
108.3293049859385
 20
-150.5155327314683
 30
0.0
 10
107.8449245607124
 20
-150.5155327314683
 30
0.0
 10
107.8449245607124
 20
-150.5155327314683
 30
0.0
 10
107.8173637968304
 20
-150.5155327314683
 30
0.0
 10
107.5000705026389
 20
-150.5155327314683
 30
0.0
 10
107.2885416398445
 20
-150.5406819285107
 30
0.0
 10
107.2885416398445
 20
-150.5406819285107
 30
0.0
 10
107.2885416398445
 20
-150.3102050405474
 30
0.0
 10
107.2885416398445
 20
-150.3102050405474
 30
0.0
 10
107.447016032166
 20
-150.3332871802986
 30
0.0
 10
107.6375298125003
 20
-150.3356987471383
 30
0.0
 10
107.8449245607124
 20
-150.3356987471383
 30
0.0
 10
107.8449245607124
 20
-150.3356987471383
 30
0.0
 10
108.3293049859385
 20
-150.3356987471383
 30
0.0
 10
108.3293049859385
 20
-150.3356987471383
 30
0.0
 10
108.515340142142
 20
-150.3356987471383
 30
0.0
 10
108.7013752983455
 20
-150.3332871802986
 30
0.0
 10
108.8856879068063
 20
-150.3102050405474
 30
0.0
 10
108.8856879068063
 20
-150.3102050405474
 30
0.0
 10
108.8856879068063
 20
-150.5406819285107
 30
0.0
 10
108.8856879068063
 20
-150.5406819285107
 30
0.0
 10
108.7013752983455
 20
-150.5175997887595
 30
0.0
 10
108.4540174425045
 20
-150.5155327314683
 30
0.0
 10
108.3293049859385
 20
-150.5155327314683
 30
0.0
  0
HATCH
  5
11A
330
109
100
AcDbEntity
  8
レイヤー 1
 62
    18
420
        0
440
 33554687
100
AcDbHatch
 10
0.0
 20
0.0
 30
0.0
210
0.0
220
0.0
230
1.0
  2
SOLID
 70
     1
 71
     1
 91
        1
 92
        1
 93
        1
 72
     4
 94
        3
 73
     0
 74
     0
 95
       29
 96
       25
 40
0.0
 40
0.0
 40
0.0
 40
0.0
 40
1.0
 40
1.0
 40
1.0
 40
2.0
 40
2.0
 40
2.0
 40
3.0
 40
3.0
 40
3.0
 40
4.0
 40
4.0
 40
4.0
 40
5.0
 40
5.0
 40
5.0
 40
6.0
 40
6.0
 40
6.0
 40
7.0
 40
7.0
 40
7.0
 40
8.0
 40
8.0
 40
8.0
 40
8.0
 10
108.3293049859385
 20
-150.5155327314683
 10
108.3293049859385
 20
-150.5155327314683
 10
107.8449245607124
 20
-150.5155327314683
 10
107.8449245607124
 20
-150.5155327314683
 10
107.8173637968304
 20
-150.5155327314683
 10
107.5000705026389
 20
-150.5155327314683
 10
107.2885416398445
 20
-150.5406819285107
 10
107.2885416398445
 20
-150.5406819285107
 10
107.2885416398445
 20
-150.3102050405474
 10
107.2885416398445
 20
-150.3102050405474
 10
107.447016032166
 20
-150.3332871802986
 10
107.6375298125003
 20
-150.3356987471383
 10
107.8449245607124
 20
-150.3356987471383
 10
107.8449245607124
 20
-150.3356987471383
 10
108.3293049859385
 20
-150.3356987471383
 10
108.3293049859385
 20
-150.3356987471383
 10
108.515340142142
 20
-150.3356987471383
 10
108.7013752983455
 20
-150.3332871802986
 10
108.8856879068063
 20
-150.3102050405474
 10
108.8856879068063
 20
-150.3102050405474
 10
108.8856879068063
 20
-150.5406819285107
 10
108.8856879068063
 20
-150.5406819285107
 10
108.7013752983455
 20
-150.5175997887595
 10
108.4540174425045
 20
-150.5155327314683
 10
108.3293049859385
 20
-150.5155327314683
 97
        0
 97
        1
330
119
 75
     2
 76
     1
 98
        1
 10
0.0
 20
0.0
450
        0
451
        0
460
0.0
461
0.0
452
        0
462
0.0
453
        0
470

  0
SPLINE
  5
11B
330
109
100
AcDbEntity
  8
レイヤー 1
100
AcDbSpline
210
0.0
220
0.0
230
1.0
 70
     9
 71
     3
 72
    47
 73
    43
 74
     0
 42
0.0000000001
 43
0.0000000001
 40
0.0
 40
0.0
 40
0.0
 40
0.0
 40
1.0
 40
1.0
 40
1.0
 40
2.0
 40
2.0
 40
2.0
 40
3.0
 40
3.0
 40
3.0
 40
4.0
 40
4.0
 40
4.0
 40
5.0
 40
5.0
 40
5.0
 40
6.0
 40
6.0
 40
6.0
 40
7.0
 40
7.0
 40
7.0
 40
8.0
 40
8.0
 40
8.0
 40
9.0
 40
9.0
 40
9.0
 40
10.0
 40
10.0
 40
10.0
 40
11.0
 40
11.0
 40
11.0
 40
12.0
 40
12.0
 40
12.0
 40
13.0
 40
13.0
 40
13.0
 40
14.0
 40
14.0
 40
14.0
 40
14.0
 10
110.5493245166335
 20
-149.9209092507142
 30
0.0
 10
110.4793890782829
 20
-150.200306494568
 30
0.0
 10
110.4032524680589
 20
-150.504852935464
 30
0.0
 10
110.0904377979982
 20
-150.8369601402421
 30
0.0
 10
109.853415228613
 20
-151.0867295629227
 30
0.0
 10
109.6081244300632
 20
-151.1859483128979
 30
0.0
 10
109.5023599986661
 20
-151.2283229873665
 30
0.0
 10
109.5023599986661
 20
-151.2283229873665
 30
0.0
 10
109.3077121037494
 20
-151.0464219457453
 30
0.0
 10
109.3077121037494
 20
-151.0464219457453
 30
0.0
 10
109.4937472599529
 20
-150.9999131566944
 30
0.0
 10
109.8554822859042
 20
-150.9068955785927
 30
0.0
 10
110.1517604976357
 20
-150.4118353573623
 30
0.0
 10
110.3123019472483
 20
-150.145184966804
 30
0.0
 10
110.3250488005437
 20
-149.9715521543474
 30
0.0
 10
110.3336615392568
 20
-149.8806016335368
 30
0.0
 10
110.3336615392568
 20
-149.8806016335368
 30
0.0
 10
109.8279215220222
 20
-149.8806016335368
 30
0.0
 10
109.8279215220222
 20
-149.8806016335368
 30
0.0
 10
109.7094102373296
 20
-149.8806016335368
 30
0.0
 10
109.2884195690321
 20
-149.8998941682542
 30
0.0
 10
109.136146348584
 20
-149.91022945471
 30
0.0
 10
109.136146348584
 20
-149.91022945471
 30
0.0
 10
109.136146348584
 20
-149.7007676492067
 30
0.0
 10
109.136146348584
 20
-149.7007676492067
 30
0.0
 10
109.2780842825763
 20
-149.7135145025022
 30
0.0
 10
109.5550699595904
 20
-149.717993126633
 30
0.0
 10
109.6715141869918
 20
-149.717993126633
 30
0.0
 10
109.6715141869918
 20
-149.717993126633
 30
0.0
 10
110.0267035315211
 20
-149.717993126633
 30
0.0
 10
110.0267035315211
 20
-149.717993126633
 30
0.0
 10
110.0542642954031
 20
-149.717993126633
 30
0.0
 10
110.2151502545642
 20
-149.7155815597933
 30
0.0
 10
110.3250488005437
 20
-149.7007676492067
 30
0.0
 10
110.3822373855989
 20
-149.6945664773333
 30
0.0
 10
110.3991183534766
 20
-149.6756184521644
 30
0.0
 10
110.4225450027763
 20
-149.6521918028647
 30
0.0
 10
110.4225450027763
 20
-149.6521918028647
 30
0.0
 10
110.6106472162709
 20
-149.8023979660216
 30
0.0
 10
110.6106472162709
 20
-149.8023979660216
 30
0.0
 10
110.5958333056844
 20
-149.8320257871947
 30
0.0
 10
110.5854980192286
 20
-149.8509738123637
 30
0.0
 10
110.5493245166335
 20
-149.9209092507142
 30
0.0
  0
HATCH
  5
11C
330
109
100
AcDbEntity
  8
レイヤー 1
 62
    18
420
        0
440
 33554687
100
AcDbHatch
 10
0.0
 20
0.0
 30
0.0
210
0.0
220
0.0
230
1.0
  2
SOLID
 70
     1
 71
     1
 91
        1
 92
        1
 93
        1
 72
     4
 94
        3
 73
     0
 74
     0
 95
       47
 96
       43
 40
0.0
 40
0.0
 40
0.0
 40
0.0
 40
1.0
 40
1.0
 40
1.0
 40
2.0
 40
2.0
 40
2.0
 40
3.0
 40
3.0
 40
3.0
 40
4.0
 40
4.0
 40
4.0
 40
5.0
 40
5.0
 40
5.0
 40
6.0
 40
6.0
 40
6.0
 40
7.0
 40
7.0
 40
7.0
 40
8.0
 40
8.0
 40
8.0
 40
9.0
 40
9.0
 40
9.0
 40
10.0
 40
10.0
 40
10.0
 40
11.0
 40
11.0
 40
11.0
 40
12.0
 40
12.0
 40
12.0
 40
13.0
 40
13.0
 40
13.0
 40
14.0
 40
14.0
 40
14.0
 40
14.0
 10
110.5493245166335
 20
-149.9209092507142
 10
110.4793890782829
 20
-150.200306494568
 10
110.4032524680589
 20
-150.504852935464
 10
110.0904377979982
 20
-150.8369601402421
 10
109.853415228613
 20
-151.0867295629227
 10
109.6081244300632
 20
-151.1859483128979
 10
109.5023599986661
 20
-151.2283229873665
 10
109.5023599986661
 20
-151.2283229873665
 10
109.3077121037494
 20
-151.0464219457453
 10
109.3077121037494
 20
-151.0464219457453
 10
109.4937472599529
 20
-150.9999131566944
 10
109.8554822859042
 20
-150.9068955785927
 10
110.1517604976357
 20
-150.4118353573623
 10
110.3123019472483
 20
-150.145184966804
 10
110.3250488005437
 20
-149.9715521543474
 10
110.3336615392568
 20
-149.8806016335368
 10
110.3336615392568
 20
-149.8806016335368
 10
109.8279215220222
 20
-149.8806016335368
 10
109.8279215220222
 20
-149.8806016335368
 10
109.7094102373296
 20
-149.8806016335368
 10
109.2884195690321
 20
-149.8998941682542
 10
109.136146348584
 20
-149.91022945471
 10
109.136146348584
 20
-149.91022945471
 10
109.136146348584
 20
-149.7007676492067
 10
109.136146348584
 20
-149.7007676492067
 10
109.2780842825763
 20
-149.7135145025022
 10
109.5550699595904
 20
-149.717993126633
 10
109.6715141869918
 20
-149.717993126633
 10
109.6715141869918
 20
-149.717993126633
 10
110.0267035315211
 20
-149.717993126633
 10
110.0267035315211
 20
-149.717993126633
 10
110.0542642954031
 20
-149.717993126633
 10
110.2151502545642
 20
-149.7155815597933
 10
110.3250488005437
 20
-149.7007676492067
 10
110.3822373855989
 20
-149.6945664773333
 10
110.3991183534766
 20
-149.6756184521644
 10
110.4225450027763
 20
-149.6521918028647
 10
110.4225450027763
 20
-149.6521918028647
 10
110.6106472162709
 20
-149.8023979660216
 10
110.6106472162709
 20
-149.8023979660216
 10
110.5958333056844
 20
-149.8320257871947
 10
110.5854980192286
 20
-149.8509738123637
 10
110.5493245166335
 20
-149.9209092507142
 97
        0
 97
        1
330
11B
 75
     2
 76
     1
 98
        1
 10
0.0
 20
0.0
450
        0
451
        0
460
0.0
461
0.0
452
        0
462
0.0
453
        0
470

  0
SPLINE
  5
11D
330
109
100
AcDbEntity
  8
レイヤー 1
100
AcDbSpline
210
0.0
220
0.0
230
1.0
 70
    11
 71
     3
 72
    17
 73
    13
 74
     0
 42
0.0000000001
 43
0.0000000001
 40
0.0
 40
0.0
 40
0.0
 40
0.0
 40
1.0
 40
1.0
 40
1.0
 40
2.0
 40
2.0
 40
2.0
 40
3.0
 40
3.0
 40
3.0
 40
4.0
 40
4.0
 40
4.0
 40
4.0
 10
110.9396538351123
 20
-149.7031792160464
 30
0.0
 10
110.9396538351123
 20
-149.7624348583927
 30
0.0
 10
110.9861626241632
 20
-149.8089436474436
 30
0.0
 10
111.0454182665095
 20
-149.8089436474436
 30
0.0
 10
111.1046739088558
 20
-149.8089436474436
 30
0.0
 10
111.1532497551978
 20
-149.7624348583927
 30
0.0
 10
111.1532497551978
 20
-149.7031792160464
 30
0.0
 10
111.1532497551978
 20
-149.6439235737001
 30
0.0
 10
111.1046739088558
 20
-149.5950032178096
 30
0.0
 10
111.0454182665095
 20
-149.5950032178096
 30
0.0
 10
110.9861626241632
 20
-149.5950032178096
 30
0.0
 10
110.9396538351123
 20
-149.6439235737001
 30
0.0
 10
110.9396538351123
 20
-149.7031792160464
 30
0.0
  0
SPLINE
  5
11E
330
109
100
AcDbEntity
  8
レイヤー 1
100
AcDbSpline
210
0.0
220
0.0
230
1.0
 70
     9
 71
     3
 72
    17
 73
    13
 74
     0
 42
0.0000000001
 43
0.0000000001
 40
0.0
 40
0.0
 40
0.0
 40
0.0
 40
1.0
 40
1.0
 40
1.0
 40
2.0
 40
2.0
 40
2.0
 40
3.0
 40
3.0
 40
3.0
 40
4.0
 40
4.0
 40
4.0
 40
4.0
 10
111.2548800720126
 20
-149.7031792160464
 30
0.0
 10
111.2548800720126
 20
-149.8172118766082
 30
0.0
 10
111.1618624939109
 20
-149.9122965120011
 30
0.0
 10
111.0454182665095
 20
-149.9122965120011
 30
0.0
 10
110.9310410963992
 20
-149.9122965120011
 30
0.0
 10
110.8359564610063
 20
-149.8172118766082
 30
0.0
 10
110.8359564610063
 20
-149.7031792160464
 30
0.0
 10
110.8359564610063
 20
-149.586734988645
 30
0.0
 10
110.9310410963992
 20
-149.4937174105432
 30
0.0
 10
111.0454182665095
 20
-149.4937174105432
 30
0.0
 10
111.1597954366198
 20
-149.4937174105432
 30
0.0
 10
111.2548800720126
 20
-149.586734988645
 30
0.0
 10
111.2548800720126
 20
-149.7031792160464
 30
0.0
  0
HATCH
  5
11F
330
109
100
AcDbEntity
  8
レイヤー 1
 62
    18
420
        0
440
 33554687
100
AcDbHatch
 10
0.0
 20
0.0
 30
0.0
210
0.0
220
0.0
230
1.0
  2
SOLID
 70
     1
 71
     1
 91
        2
 92
        1
 93
        1
 72
     4
 94
        3
 73
     0
 74
     0
 95
       17
 96
       13
 40
0.0
 40
0.0
 40
0.0
 40
0.0
 40
1.0
 40
1.0
 40
1.0
 40
2.0
 40
2.0
 40
2.0
 40
3.0
 40
3.0
 40
3.0
 40
4.0
 40
4.0
 40
4.0
 40
4.0
 10
110.9396538351123
 20
-149.7031792160464
 10
110.9396538351123
 20
-149.7624348583927
 10
110.9861626241632
 20
-149.8089436474436
 10
111.0454182665095
 20
-149.8089436474436
 10
111.1046739088558
 20
-149.8089436474436
 10
111.1532497551978
 20
-149.7624348583927
 10
111.1532497551978
 20
-149.7031792160464
 10
111.1532497551978
 20
-149.6439235737001
 10
111.1046739088558
 20
-149.5950032178096
 10
111.0454182665095
 20
-149.5950032178096
 10
110.9861626241632
 20
-149.5950032178096
 10
110.9396538351123
 20
-149.6439235737001
 10
110.9396538351123
 20
-149.7031792160464
 97
        0
 97
        1
330
11D
 92
        1
 93
        1
 72
     4
 94
        3
 73
     0
 74
     0
 95
       17
 96
       13
 40
0.0
 40
0.0
 40
0.0
 40
0.0
 40
1.0
 40
1.0
 40
1.0
 40
2.0
 40
2.0
 40
2.0
 40
3.0
 40
3.0
 40
3.0
 40
4.0
 40
4.0
 40
4.0
 40
4.0
 10
111.2548800720126
 20
-149.7031792160464
 10
111.2548800720126
 20
-149.8172118766082
 10
111.1618624939109
 20
-149.9122965120011
 10
111.0454182665095
 20
-149.9122965120011
 10
110.9310410963992
 20
-149.9122965120011
 10
110.8359564610063
 20
-149.8172118766082
 10
110.8359564610063
 20
-149.7031792160464
 10
110.8359564610063
 20
-149.586734988645
 10
110.9310410963992
 20
-149.4937174105432
 10
111.0454182665095
 20
-149.4937174105432
 10
111.1597954366198
 20
-149.4937174105432
 10
111.2548800720126
 20
-149.586734988645
 10
111.2548800720126
 20
-149.7031792160464
 97
        0
 97
        1
330
11E
 75
     2
 76
     1
 98
        1
 10
0.0
 20
0.0
450
        0
451
        0
460
0.0
461
0.0
452
        0
462
0.0
453
        0
470

  0
ENDBLK
  5
10C
330
109
100
AcDbEntity
  8
0
100
AcDbBlockEnd
  0
ENDSEC
  0
SECTION
  2
ENTITIES
  0
LINE
  5
79
330
70
100
AcDbEntity
  8
レイヤー 1
 62
   250
420
  2299925
370
    25
100
AcDbLine
 10
118.2841607135618
 20
-154.2143271143452
 30
0.0
 11
112.2834840768266
 21
-154.2143271143452
 31
0.0
  0
LINE
  5
7A
330
70
100
AcDbEntity
  8
レイヤー 1
 62
   250
420
  2299925
370
    25
100
AcDbLine
 10
93.50755495677651
 20
-145.7142171164707
 30
0.0
 11
93.50755495677651
 21
-146.2144560052344
 31
0.0
  0
LINE
  5
7B
330
70
100
AcDbEntity
  8
レイヤー 1
 62
   250
420
  2299925
370
    25
100
AcDbLine
 10
113.5981430553343
 20
-146.2144560052344
 30
0.0
 11
93.50755495677651
 21
-146.2144560052344
 31
0.0
  0
LINE
  5
7C
330
70
100
AcDbEntity
  8
レイヤー 1
 62
   250
420
  2299925
370
    25
100
AcDbLine
 10
117.5062504556302
 20
-153.2142021145956
 30
0.0
 11
113.166134076606
 21
-153.2142021145956
 31
0.0
  0
LINE
  5
7D
330
70
100
AcDbEntity
  8
レイヤー 1
 62
   250
420
  2299925
370
    25
100
AcDbLine
 10
112.2834840768266
 20
-154.2143271143452
 30
0.0
 11
113.5981430553343
 21
-146.2144560052344
 31
0.0
  0
LINE
  5
7E
330
70
100
AcDbEntity
  8
レイヤー 1
 62
   250
420
  2299925
370
    25
100
AcDbLine
 10
113.166134076606
 20
-153.2142021145956
 30
0.0
 11
114.5090152543183
 21
-144.9521818388834
 31
0.0
  0
LINE
  5
7F
330
70
100
AcDbEntity
  8
レイヤー 1
 62
   250
420
  2299925
370
    25
100
AcDbLine
 10
93.50755495677651
 20
-145.7142171164707
 30
0.0
 11
94.02123685916967
 21
-146.0963107274862
 31
0.0
  0
LINE
  5
80
330
70
100
AcDbEntity
  8
レイヤー 1
 62
   250
420
  2299925
370
    25
100
AcDbLine
 10
94.02123685916967
 20
-146.0963107274862
 30
0.0
 11
94.50697437572364
 21
-145.6787629498127
 31
0.0
  0
LINE
  5
81
330
70
100
AcDbEntity
  8
レイヤー 1
 62
   250
420
  2299925
370
    25
100
AcDbLine
 10
95.02097158483271
 20
-146.060821283051
 30
0.0
 11
95.50604101690201
 21
-145.6429207275994
 31
0.0
  0
LINE
  5
82
330
70
100
AcDbEntity
  8
レイヤー 1
 62
   250
420
  2299925
370
    25
100
AcDbLine
 10
94.50697437572364
 20
-145.6787629498127
 30
0.0
 11
95.02097158483271
 21
-146.060821283051
 31
0.0
  0
LINE
  5
83
330
70
100
AcDbEntity
  8
レイヤー 1
 62
   250
420
  2299925
370
    25
100
AcDbLine
 10
95.50604101690201
 20
-145.6429207275994
 30
0.0
 11
96.01972296978113
 21
-146.0249790608374
 31
0.0
  0
LINE
  5
84
330
70
100
AcDbEntity
  8
レイヤー 1
 62
   250
420
  2299925
370
    25
100
AcDbLine
 10
96.01972296978113
 20
-146.0249790608374
 30
0.0
 11
96.50546043584913
 21
-145.6074312831639
 31
0.0
  0
LINE
  5
85
330
70
100
AcDbEntity
  8
レイヤー 1
 62
   250
420
  2299925
370
    25
100
AcDbLine
 10
96.50546043584913
 20
-145.6074312831639
 30
0.0
 11
97.01949519175304
 21
-145.9891368386242
 31
0.0
  0
LINE
  5
86
330
70
100
AcDbEntity
  8
レイヤー 1
 62
   250
420
  2299925
370
    25
100
AcDbLine
 10
97.01949519175304
 20
-145.9891368386242
 30
0.0
 11
97.50456463607621
 21
-145.5716243387282
 31
0.0
  0
LINE
  5
87
330
70
100
AcDbEntity
  8
レイヤー 1
 62
   250
420
  2299925
370
    25
100
AcDbLine
 10
97.50456463607621
 20
-145.5716243387282
 30
0.0
 11
98.01856185817037
 21
-145.9533298941884
 31
0.0
  0
LINE
  5
88
330
70
100
AcDbEntity
  8
レイヤー 1
 62
   250
420
  2299925
370
    25
100
AcDbLine
 10
98.01856185817037
 20
-145.9533298941884
 30
0.0
 11
98.50433685804908
 21
-145.535782116515
 31
0.0
  0
LINE
  5
89
330
70
100
AcDbEntity
  8
レイヤー 1
 62
   250
420
  2299925
370
    25
100
AcDbLine
 10
98.50433685804908
 20
-145.535782116515
 30
0.0
 11
99.0183340801426
 21
-145.917840449753
 31
0.0
  0
LINE
  5
8A
330
70
100
AcDbEntity
  8
レイヤー 1
 62
   250
420
  2299925
370
    25
100
AcDbLine
 10
99.0183340801426
 20
-145.917840449753
 30
0.0
 11
99.50340352446577
 21
-145.5002926720795
 31
0.0
  0
LINE
  5
8B
330
70
100
AcDbEntity
  8
レイヤー 1
 62
   250
420
  2299925
370
    25
100
AcDbLine
 10
99.50340352446577
 20
-145.5002926720795
 30
0.0
 11
100.0174007465596
 21
-145.8823510053175
 31
0.0
  0
LINE
  5
8C
330
70
100
AcDbEntity
  8
レイヤー 1
 62
   250
420
  2299925
370
    25
100
AcDbLine
 10
100.0174007465596
 20
-145.8823510053175
 30
0.0
 11
100.5024701908828
 21
-145.4644504498662
 31
0.0
  0
LINE
  5
8D
330
70
100
AcDbEntity
  8
レイヤー 1
 62
   250
420
  2299925
370
    25
100
AcDbLine
 10
101.0165003207629
 20
-145.8465087831043
 30
0.0
 11
101.502242412855
 21
-145.4289962832083
 31
0.0
  0
LINE
  5
8E
330
70
100
AcDbEntity
  8
レイヤー 1
 62
   250
420
  2299925
370
    25
100
AcDbLine
 10
100.5024701908828
 20
-145.4644504498662
 30
0.0
 11
101.0165003207629
 21
-145.8465087831043
 31
0.0
  0
LINE
  5
8F
330
70
100
AcDbEntity
  8
レイヤー 1
 62
   250
420
  2299925
370
    25
100
AcDbLine
 10
101.502242412855
 20
-145.4289962832083
 30
0.0
 11
102.0162396349488
 21
-145.8107018386685
 31
0.0
  0
LINE
  5
90
330
70
100
AcDbEntity
  8
レイヤー 1
 62
   250
420
  2299925
370
    25
100
AcDbLine
 10
102.0162396349488
 20
-145.8107018386685
 30
0.0
 11
102.501309079272
 21
-145.3931540609953
 31
0.0
  0
LINE
  5
91
330
70
100
AcDbEntity
  8
レイヤー 1
 62
   250
420
  2299925
370
    25
100
AcDbLine
 10
103.0153391586571
 20
-145.7748596164552
 30
0.0
 11
103.5010813012442
 21
-145.3573118387821
 31
0.0
  0
LINE
  5
92
330
70
100
AcDbEntity
  8
レイヤー 1
 62
   250
420
  2299925
370
    25
100
AcDbLine
 10
102.501309079272
 20
-145.3931540609953
 30
0.0
 11
103.0153391586571
 21
-145.7748596164552
 31
0.0
  0
LINE
  5
93
330
70
100
AcDbEntity
  8
レイヤー 1
 62
   250
420
  2299925
370
    25
100
AcDbLine
 10
104.0151113553731
 20
-145.7393701720198
 30
0.0
 11
104.5001807874424
 21
-145.3218223943463
 31
0.0
  0
LINE
  5
94
330
70
100
AcDbEntity
  8
レイヤー 1
 62
   250
420
  2299925
370
    25
100
AcDbLine
 10
103.5010813012442
 20
-145.3573118387821
 30
0.0
 11
104.0151113553731
 21
-145.7393701720198
 31
0.0
  0
LINE
  5
95
330
70
100
AcDbEntity
  8
レイヤー 1
 62
   250
420
  2299925
370
    25
100
AcDbLine
 10
104.5001807874424
 20
-145.3218223943463
 30
0.0
 11
105.0141779965514
 21
-145.7039160053618
 31
0.0
  0
LINE
  5
96
330
70
100
AcDbEntity
  8
レイヤー 1
 62
   250
420
  2299925
370
    25
100
AcDbLine
 10
105.0141779965514
 20
-145.7039160053618
 30
0.0
 11
105.4999201896338
 21
-145.2860154499112
 31
0.0
  0
LINE
  5
97
330
70
100
AcDbEntity
  8
レイヤー 1
 62
   250
420
  2299925
370
    25
100
AcDbLine
 10
105.4999201896338
 20
-145.2860154499112
 30
0.0
 11
106.0132446377301
 21
-145.6680737831485
 31
0.0
  0
LINE
  5
98
330
70
100
AcDbEntity
  8
レイヤー 1
 62
   250
420
  2299925
370
    25
100
AcDbLine
 10
106.0132446377301
 20
-145.6680737831485
 30
0.0
 11
106.4990196253369
 21
-145.2505260054751
 31
0.0
  0
LINE
  5
99
330
70
100
AcDbEntity
  8
レイヤー 1
 62
   250
420
  2299925
370
    25
100
AcDbLine
 10
106.4990196253369
 20
-145.2505260054751
 30
0.0
 11
107.013016834446
 21
-145.6322315609353
 31
0.0
  0
LINE
  5
9A
330
70
100
AcDbEntity
  8
レイヤー 1
 62
   250
420
  2299925
370
    25
100
AcDbLine
 10
107.013016834446
 20
-145.6322315609353
 30
0.0
 11
107.4980862665153
 21
-145.2146837832618
 31
0.0
  0
LINE
  5
9B
330
70
100
AcDbEntity
  8
レイヤー 1
 62
   250
420
  2299925
370
    25
100
AcDbLine
 10
107.4980862665153
 20
-145.2146837832618
 30
0.0
 11
108.0120834756244
 21
-145.5964246165002
 31
0.0
  0
LINE
  5
9C
330
70
100
AcDbEntity
  8
レイヤー 1
 62
   250
420
  2299925
370
    25
100
AcDbLine
 10
108.0120834756244
 20
-145.5964246165002
 30
0.0
 11
108.4978584632312
 21
-145.1788768388271
 31
0.0
  0
LINE
  5
9D
330
70
100
AcDbEntity
  8
レイヤー 1
 62
   250
420
  2299925
370
    25
100
AcDbLine
 10
108.4978584632312
 20
-145.1788768388271
 30
0.0
 11
109.0118556723403
 21
-145.5609351720641
 31
0.0
  0
LINE
  5
9E
330
70
100
AcDbEntity
  8
レイヤー 1
 62
   250
420
  2299925
370
    25
100
AcDbLine
 10
109.0118556723403
 20
-145.5609351720641
 30
0.0
 11
109.4969251044096
 21
-145.1433873943912
 31
0.0
  0
LINE
  5
9F
330
70
100
AcDbEntity
  8
レイヤー 1
 62
   250
420
  2299925
370
    25
100
AcDbLine
 10
109.4969251044096
 20
-145.1433873943912
 30
0.0
 11
110.0109575912955
 21
-145.5254457276289
 31
0.0
  0
LINE
  5
A0
330
70
100
AcDbEntity
  8
レイヤー 1
 62
   250
420
  2299925
370
    25
100
AcDbLine
 10
110.0109575912955
 20
-145.5254457276289
 30
0.0
 11
110.4966973011255
 21
-145.107545172178
 31
0.0
  0
LINE
  5
A1
330
70
100
AcDbEntity
  8
レイヤー 1
 62
   250
420
  2299925
370
    25
100
AcDbLine
 10
110.4966973011255
 20
-145.107545172178
 30
0.0
 11
111.0106945102345
 21
-145.4896035054157
 31
0.0
  0
LINE
  5
A2
330
70
100
AcDbEntity
  8
レイヤー 1
 62
   250
420
  2299925
370
    25
100
AcDbLine
 10
111.0106945102345
 20
-145.4896035054157
 30
0.0
 11
111.4957639423038
 21
-145.0720557277419
 31
0.0
  0
LINE
  5
A3
330
70
100
AcDbEntity
  8
レイヤー 1
 62
   250
420
  2299925
370
    25
100
AcDbLine
 10
111.4957639423038
 20
-145.0720557277419
 30
0.0
 11
112.0097964291898
 21
-145.4537965609803
 31
0.0
  0
LINE
  5
A4
330
70
100
AcDbEntity
  8
レイヤー 1
 62
   250
420
  2299925
370
    25
100
AcDbLine
 10
112.0097964291898
 20
-145.4537965609803
 30
0.0
 11
112.4950422501434
 21
-145.0362487833068
 31
0.0
  0
LINE
  5
A5
330
70
100
AcDbEntity
  8
レイヤー 1
 62
   250
420
  2299925
370
    25
100
AcDbLine
 10
112.4950422501434
 20
-145.0362487833068
 30
0.0
 11
113.0090394592525
 21
-145.417954338767
 31
0.0
  0
LINE
  5
A6
330
70
100
AcDbEntity
  8
レイヤー 1
 62
   250
420
  2299925
370
    25
100
AcDbLine
 10
113.0090394592525
 20
-145.417954338767
 30
0.0
 11
113.4947791690825
 21
-145.0004065610935
 31
0.0
  0
LINE
  5
A7
330
70
100
AcDbEntity
  8
レイヤー 1
 62
   250
420
  2299925
370
    25
100
AcDbLine
 10
113.5688116560773
 20
-144.9521818388834
 30
0.0
 11
114.5090152543183
 21
-144.9521818388834
 31
0.0
  0
LINE
  5
A8
330
70
100
AcDbEntity
  8
レイヤー 1
 62
   250
420
  2299925
370
    25
100
AcDbLine
 10
117.5062504556302
 20
-153.2142021145956
 30
0.0
 11
117.5062504556302
 21
-144.9521818388834
 31
0.0
  0
LINE
  5
A9
330
70
100
AcDbEntity
  8
レイヤー 1
 62
   250
420
  2299925
370
    25
100
AcDbLine
 10
118.2841607135618
 20
-154.2143271143452
 30
0.0
 11
118.2841607135618
 21
-144.9521818388834
 31
0.0
  0
LINE
  5
AA
330
70
100
AcDbEntity
  8
レイヤー 1
 62
   250
420
  2299925
370
    25
100
AcDbLine
 10
117.5062504556302
 20
-144.9521818388834
 30
0.0
 11
118.2841607135618
 21
-144.9521818388834
 31
0.0
  0
SPLINE
  5
AB
330
70
100
AcDbEntity
  8
レイヤー 1
 62
   250
420
  2299925
370
     9
100
AcDbSpline
210
0.0
220
0.0
230
1.0
 70
     9
 71
     3
 72
    17
 73
    13
 74
     0
 42
0.0000000001
 43
0.0000000001
 40
0.0
 40
0.0
 40
0.0
 40
0.0
 40
1.0
 40
1.0
 40
1.0
 40
2.0
 40
2.0
 40
2.0
 40
3.0
 40
3.0
 40
3.0
 40
4.0
 40
4.0
 40
4.0
 40
4.0
 10
93.60746162089435
 20
-140.952069895439
 30
0.0
 10
93.60746162089435
 20
-140.8969660065635
 30
0.0
 10
93.56269412203646
 20
-140.8521632287974
 30
0.0
 10
93.50755495677651
 20
-140.8521632287974
 30
0.0
 10
93.45209829152466
 20
-140.8521632287974
 30
0.0
 10
93.4072955148899
 20
-140.8969660065635
 30
0.0
 10
93.4072955148899
 20
-140.952069895439
 30
0.0
 10
93.4072955148899
 20
-141.0075618398692
 30
0.0
 10
93.45209829152466
 20
-141.051976562081
 30
0.0
 10
93.50755495677651
 20
-141.051976562081
 30
0.0
 10
93.56269412203646
 20
-141.051976562081
 30
0.0
 10
93.60746162089435
 20
-141.0075618398692
 30
0.0
 10
93.60746162089435
 20
-140.952069895439
 30
0.0
  0
SPLINE
  5
AC
330
70
100
AcDbEntity
  8
レイヤー 1
 62
   250
420
  2299925
370
     9
100
AcDbSpline
210
0.0
220
0.0
230
1.0
 70
     9
 71
     3
 72
    17
 73
    13
 74
     0
 42
0.0000000001
 43
0.0000000001
 40
0.0
 40
0.0
 40
0.0
 40
0.0
 40
1.0
 40
1.0
 40
1.0
 40
2.0
 40
2.0
 40
2.0
 40
3.0
 40
3.0
 40
3.0
 40
4.0
 40
4.0
 40
4.0
 40
4.0
 10
89.60734977850126
 20
-145.7142171164707
 30
0.0
 10
89.60734977850126
 20
-145.6591132275951
 30
0.0
 10
89.56258227964339
 20
-145.614310449829
 30
0.0
 10
89.50712561439152
 20
-145.614310449829
 30
0.0
 10
89.45198644913189
 20
-145.614310449829
 30
0.0
 10
89.40721895027369
 20
-145.6591132275951
 30
0.0
 10
89.40721895027369
 20
-145.7142171164707
 30
0.0
 10
89.40721895027369
 20
-145.7693562831231
 30
0.0
 10
89.45198644913189
 20
-145.8141590608898
 30
0.0
 10
89.50712561439152
 20
-145.8141590608898
 30
0.0
 10
89.56258227964339
 20
-145.8141590608898
 30
0.0
 10
89.60734977850126
 20
-145.7693562831231
 30
0.0
 10
89.60734977850126
 20
-145.7142171164707
 30
0.0
  0
SPLINE
  5
AD
330
70
100
AcDbEntity
  8
レイヤー 1
 62
   250
420
  2299925
370
     9
100
AcDbSpline
210
0.0
220
0.0
230
1.0
 70
     9
 71
     3
 72
    17
 73
    13
 74
     0
 42
0.0000000001
 43
0.0000000001
 40
0.0
 40
0.0
 40
0.0
 40
0.0
 40
1.0
 40
1.0
 40
1.0
 40
2.0
 40
2.0
 40
2.0
 40
3.0
 40
3.0
 40
3.0
 40
4.0
 40
4.0
 40
4.0
 40
4.0
 10
89.60734977850126
 20
-146.2144560052344
 30
0.0
 10
89.60734977850126
 20
-146.1593521163594
 30
0.0
 10
89.56258227964339
 20
-146.1145493385927
 30
0.0
 10
89.50712561439152
 20
-146.1145493385927
 30
0.0
 10
89.45198644913189
 20
-146.1145493385927
 30
0.0
 10
89.40721895027369
 20
-146.1593521163594
 30
0.0
 10
89.40721895027369
 20
-146.2144560052344
 30
0.0
 10
89.40721895027369
 20
-146.2695951718874
 30
0.0
 10
89.45198644913189
 20
-146.314362671876
 30
0.0
 10
89.50712561439152
 20
-146.314362671876
 30
0.0
 10
89.56258227964339
 20
-146.314362671876
 30
0.0
 10
89.60734977850126
 20
-146.2695951718874
 30
0.0
 10
89.60734977850126
 20
-146.2144560052344
 30
0.0
  0
SPLINE
  5
AE
330
70
100
AcDbEntity
  8
レイヤー 1
 62
   250
420
  2299925
370
     9
100
AcDbSpline
210
0.0
220
0.0
230
1.0
 70
     9
 71
     3
 72
    17
 73
    13
 74
     0
 42
0.0000000001
 43
0.0000000001
 40
0.0
 40
0.0
 40
0.0
 40
0.0
 40
1.0
 40
1.0
 40
1.0
 40
2.0
 40
2.0
 40
2.0
 40
3.0
 40
3.0
 40
3.0
 40
4.0
 40
4.0
 40
4.0
 40
4.0
 10
89.60734977850126
 20
-154.2143271143452
 30
0.0
 10
89.60734977850126
 20
-154.1591879476928
 30
0.0
 10
89.56258227964339
 20
-154.1144204477036
 30
0.0
 10
89.50712561439152
 20
-154.1144204477036
 30
0.0
 10
89.45198644913189
 20
-154.1144204477036
 30
0.0
 10
89.40721895027369
 20
-154.1591879476928
 30
0.0
 10
89.40721895027369
 20
-154.2143271143452
 30
0.0
 10
89.40721895027369
 20
-154.2694310032208
 30
0.0
 10
89.45198644913189
 20
-154.3142337809869
 30
0.0
 10
89.50712561439152
 20
-154.3142337809869
 30
0.0
 10
89.56258227964339
 20
-154.3142337809869
 30
0.0
 10
89.60734977850126
 20
-154.2694310032208
 30
0.0
 10
89.60734977850126
 20
-154.2143271143452
 30
0.0
  0
SPLINE
  5
AF
330
70
100
AcDbEntity
  8
レイヤー 1
 62
   250
420
  2299925
370
     9
100
AcDbSpline
210
0.0
220
0.0
230
1.0
 70
     9
 71
     3
 72
    17
 73
    13
 74
     0
 42
0.0000000001
 43
0.0000000001
 40
0.0
 40
0.0
 40
0.0
 40
0.0
 40
1.0
 40
1.0
 40
1.0
 40
2.0
 40
2.0
 40
2.0
 40
3.0
 40
3.0
 40
3.0
 40
4.0
 40
4.0
 40
4.0
 40
4.0
 10
112.3834233641022
 20
-158.2147565577895
 30
0.0
 10
112.3834233641022
 20
-158.1596526689146
 30
0.0
 10
112.3386205874674
 20
-158.1148498911479
 30
0.0
 10
112.2834840768266
 20
-158.1148498911479
 30
0.0
 10
112.2285539236088
 20
-158.1148498911479
 30
0.0
 10
112.183751146974
 20
-158.1596526689146
 30
0.0
 10
112.183751146974
 20
-158.2147565577895
 30
0.0
 10
112.183751146974
 20
-158.2698957244426
 30
0.0
 10
112.2285539236088
 20
-158.3146632244318
 30
0.0
 10
112.2834840768266
 20
-158.3146632244318
 30
0.0
 10
112.3386205874674
 20
-158.3146632244318
 30
0.0
 10
112.3834233641022
 20
-158.2698957244426
 30
0.0
 10
112.3834233641022
 20
-158.2147565577895
 30
0.0
  0
SPLINE
  5
B0
330
70
100
AcDbEntity
  8
レイヤー 1
 62
   250
420
  2299925
370
     9
100
AcDbSpline
210
0.0
220
0.0
230
1.0
 70
     9
 71
     3
 72
    17
 73
    13
 74
     0
 42
0.0000000001
 43
0.0000000001
 40
0.0
 40
0.0
 40
0.0
 40
0.0
 40
1.0
 40
1.0
 40
1.0
 40
2.0
 40
2.0
 40
2.0
 40
3.0
 40
3.0
 40
3.0
 40
4.0
 40
4.0
 40
4.0
 40
4.0
 10
118.3840701864118
 20
-158.2147565577895
 30
0.0
 10
118.3840701864118
 20
-158.1596526689146
 30
0.0
 10
118.3392998788218
 20
-158.1148498911479
 30
0.0
 10
118.2841607135618
 20
-158.1148498911479
 30
0.0
 10
118.2283512705412
 20
-158.1148498911479
 30
0.0
 10
118.184254049444
 20
-158.1596526689146
 30
0.0
 10
118.184254049444
 20
-158.2147565577895
 30
0.0
 10
118.184254049444
 20
-158.2698957244426
 30
0.0
 10
118.2283512705412
 20
-158.3146632244318
 30
0.0
 10
118.2841607135618
 20
-158.3146632244318
 30
0.0
 10
118.3392998788218
 20
-158.3146632244318
 30
0.0
 10
118.3840701864118
 20
-158.2698957244426
 30
0.0
 10
118.3840701864118
 20
-158.2147565577895
 30
0.0
  0
CIRCLE
  5
B1
330
70
100
AcDbEntity
  8
レイヤー 1
 62
   250
420
  2299925
370
     9
100
AcDbCircle
 10
117.5062504556302
 20
-140.9520698954391
 30
0.0
 40
0.0999066653797766
  0
SPLINE
  5
B2
330
70
100
AcDbEntity
  8
レイヤー 1
 62
   250
420
  2299925
370
     9
100
AcDbSpline
210
0.0
220
0.0
230
1.0
 70
     9
 71
     3
 72
    17
 73
    13
 74
     0
 42
0.0000000001
 43
0.0000000001
 40
0.0
 40
0.0
 40
0.0
 40
0.0
 40
1.0
 40
1.0
 40
1.0
 40
2.0
 40
2.0
 40
2.0
 40
3.0
 40
3.0
 40
3.0
 40
4.0
 40
4.0
 40
4.0
 40
4.0
 10
114.6089219184361
 20
-140.952069895439
 30
0.0
 10
114.6089219184361
 20
-140.8969660065635
 30
0.0
 10
114.5641544195782
 20
-140.8521632287974
 30
0.0
 10
114.5090152543183
 20
-140.8521632287974
 30
0.0
 10
114.4532058112976
 20
-140.8521632287974
 30
0.0
 10
114.4084383124397
 20
-140.8969660065635
 30
0.0
 10
114.4084383124397
 20
-140.952069895439
 30
0.0
 10
114.4084383124397
 20
-141.0075618398692
 30
0.0
 10
114.4532058112976
 20
-141.051976562081
 30
0.0
 10
114.5090152543183
 20
-141.051976562081
 30
0.0
 10
114.5641544195782
 20
-141.051976562081
 30
0.0
 10
114.6089219184361
 20
-141.0075618398692
 30
0.0
 10
114.6089219184361
 20
-140.952069895439
 30
0.0
  0
LINE
  5
B3
330
70
100
AcDbEntity
  8
レイヤー 1
 62
   250
420
  2299925
370
     9
100
AcDbLine
 10
114.5090152543183
 20
-140.952069895439
 30
0.0
 11
117.5062504556302
 21
-140.952069895439
 31
0.0
  0
LINE
  5
B4
330
70
100
AcDbEntity
  8
レイヤー 1
 62
   250
420
  2299925
370
     9
100
AcDbLine
 10
114.5090152543183
 20
-142.4121112839627
 30
0.0
 11
114.5090152543183
 21
-139.9521565623554
 31
0.0
  0
LINE
  5
B5
330
70
100
AcDbEntity
  8
レイヤー 1
 62
   250
420
  2299925
370
     9
100
AcDbLine
 10
117.5062504556302
 20
-142.4121112839627
 30
0.0
 11
117.5062504556302
 21
-139.9521565623554
 31
0.0
  0
INSERT
  5
B7
330
70
100
AcDbEntity
  8
レイヤー 1
100
AcDbBlockReference
  2
Block_0
 10
0.0
 20
0.0
 30
0.0
  0
LINE
  5
BC
330
70
100
AcDbEntity
  8
レイヤー 1
 62
   250
420
  2299925
370
     9
100
AcDbLine
 10
118.2841607135618
 20
-158.2147565577895
 30
0.0
 11
112.2834840768266
 21
-158.2147565577895
 31
0.0
  0
LINE
  5
BD
330
70
100
AcDbEntity
  8
レイヤー 1
 62
   250
420
  2299925
370
     9
100
AcDbLine
 10
118.2841607135618
 20
-156.7547151692658
 30
0.0
 11
118.2841607135618
 21
-159.2148815575398
 31
0.0
  0
LINE
  5
BE
330
70
100
AcDbEntity
  8
レイヤー 1
 62
   250
420
  2299925
370
     9
100
AcDbLine
 10
112.2834840768266
 20
-156.7547151692658
 30
0.0
 11
112.2834840768266
 21
-159.2148815575398
 31
0.0
  0
INSERT
  5
C0
330
70
100
AcDbEntity
  8
レイヤー 1
100
AcDbBlockReference
  2
Block_1
 10
0.0
 20
0.0
 30
0.0
  0
LINE
  5
C6
330
70
100
AcDbEntity
  8
レイヤー 1
 62
   250
420
  2299925
370
     9
100
AcDbLine
 10
89.50712561439152
 20
-145.7142171164707
 30
0.0
 11
89.50712561439152
 21
-140.4564876733406
 31
0.0
  0
LINE
  5
C7
330
70
100
AcDbEntity
  8
レイヤー 1
 62
   250
420
  2299925
370
     9
100
AcDbLine
 10
89.50712561439152
 20
-145.7142171164707
 30
0.0
 11
89.50712561439152
 21
-146.2144560052344
 31
0.0
  0
LINE
  5
C8
330
70
100
AcDbEntity
  8
レイヤー 1
 62
   250
420
  2299925
370
     9
100
AcDbLine
 10
90.96713168825479
 20
-145.7142171164707
 30
0.0
 11
88.50735341767562
 21
-145.7142171164707
 31
0.0
  0
LINE
  5
C9
330
70
100
AcDbEntity
  8
レイヤー 1
 62
   250
420
  2299925
370
     9
100
AcDbLine
 10
90.96713168825479
 20
-146.2144560052344
 30
0.0
 11
88.50735341767562
 21
-146.2144560052344
 31
0.0
  0
INSERT
  5
CB
330
70
100
AcDbEntity
  8
レイヤー 1
100
AcDbBlockReference
  2
Block_2
 10
0.0
 20
0.0
 30
0.0
  0
LINE
  5
D9
330
70
100
AcDbEntity
  8
レイヤー 1
 62
   250
420
  2299925
370
     9
100
AcDbLine
 10
93.50755495677651
 20
-140.952069895439
 30
0.0
 11
114.5090152543183
 21
-140.952069895439
 31
0.0
  0
LINE
  5
DA
330
70
100
AcDbEntity
  8
レイヤー 1
 62
   250
420
  2299925
370
     9
100
AcDbLine
 10
93.50755495677651
 20
-143.1741818393279
 30
0.0
 11
93.50755495677651
 21
-139.9521565623554
 31
0.0
  0
INSERT
  5
DC
330
70
100
AcDbEntity
  8
レイヤー 1
100
AcDbBlockReference
  2
Block_4
 10
0.0
 20
0.0
 30
0.0
  0
LINE
  5
E7
330
70
100
AcDbEntity
  8
レイヤー 1
 62
   250
420
  2299925
370
     9
100
AcDbLine
 10
89.50712561439152
 20
-146.2144560052344
 30
0.0
 11
89.50712561439152
 21
-154.2143271143452
 31
0.0
  0
LINE
  5
E8
330
70
100
AcDbEntity
  8
レイヤー 1
 62
   250
420
  2299925
370
     9
100
AcDbLine
 10
110.2169445304848
 20
-154.2143271143452
 30
0.0
 11
88.50735341767562
 21
-154.2143271143452
 31
0.0
  0
INSERT
  5
EA
330
70
100
AcDbEntity
  8
レイヤー 1
100
AcDbBlockReference
  2
Block_6
 10
0.0
 20
0.0
 30
0.0
  0
LINE
  5
F1
330
70
100
AcDbEntity
  8
レイヤー 1
  6
AI-Linetype-0
 62
   154
420
    23468
370
    25
100
AcDbLine
 10
93.513763845507
 20
-146.9155312828371
 30
0.0
 11
103.5134966459481
 21
-146.9155312828371
 31
0.0
  0
LINE
  5
F3
330
70
100
AcDbEntity
  8
レイヤー 1
 62
   250
420
  2299925
370
     9
100
AcDbLine
 10
116.186791044848
 20
-150.6207562819104
 30
0.0
 11
124.1869794518573
 21
-150.6207562819104
 31
0.0
  0
INSERT
  5
F5
330
70
100
AcDbEntity
  8
レイヤー 1
100
AcDbBlockReference
  2
Block_7
 10
0.0
 20
0.0
 30
0.0
  0
INSERT
  5
FB
330
70
100
AcDbEntity
  8
レイヤー 1
100
AcDbBlockReference
  2
Block_8
 10
0.0
 20
0.0
 30
0.0
  0
ENDSEC
  0
SECTION
  2
OBJECTS
  0
DICTIONARY
  5
C
330
0
100
AcDbDictionary
281
     1
  3
ACAD_COLOR
350
63
  3
ACAD_DETAILVIEWSTYLE
350
6A
  3
ACAD_GROUP
350
D
  3
ACAD_LAYOUT
350
62
  3
ACAD_MATERIAL
350
10
  3
ACAD_MLEADERSTYLE
350
66
  3
ACAD_MLINESTYLE
350
5F
  3
ACAD_PLOTSETTINGS
350
61
  3
ACAD_PLOTSTYLENAME
350
E
  3
ACAD_SCALELIST
350
42
  3
ACAD_SECTIONVIEWSTYLE
350
68
  3
ACAD_TABLESTYLE
350
64
  3
ACAD_VISUALSTYLE
350
29
  3
ACDB_RECOMPOSE_DATA
350
128
  3
AcDbVariableDictionary
350
120
  0
DICTIONARY
  5
63
102
{ACAD_REACTORS
330
C
102
}
330
C
100
AcDbDictionary
281
     1
  0
DICTIONARY
  5
6A
102
{ACAD_REACTORS
330
C
102
}
330
C
100
AcDbDictionary
281
     1
  3
Imperial24
350
6B
  0
DICTIONARY
  5
D
102
{ACAD_REACTORS
330
C
102
}
330
C
100
AcDbDictionary
281
     1
  0
DICTIONARY
  5
62
102
{ACAD_REACTORS
330
C
102
}
330
C
100
AcDbDictionary
281
     1
  3
Layout1
350
6F
  3
Layout2
350
77
  3
Model
350
73
  0
DICTIONARY
  5
10
102
{ACAD_REACTORS
330
C
102
}
330
C
100
AcDbDictionary
281
     1
  3
ByBlock
350
19
  3
ByLayer
350
11
  3
Global
350
21
  0
DICTIONARY
  5
66
102
{ACAD_REACTORS
330
C
102
}
330
C
100
AcDbDictionary
281
     1
  3
Standard
350
67
  0
DICTIONARY
  5
5F
102
{ACAD_REACTORS
330
C
102
}
330
C
100
AcDbDictionary
281
     1
  3
Standard
350
60
  0
DICTIONARY
  5
61
102
{ACAD_REACTORS
330
C
102
}
330
C
100
AcDbDictionary
281
     1
  0
ACDBDICTIONARYWDFLT
  5
E
102
{ACAD_REACTORS
330
C
102
}
330
C
100
AcDbDictionary
281
     1
  3
Normal
350
F
100
AcDbDictionaryWithDefault
340
F
  0
DICTIONARY
  5
42
102
{ACAD_REACTORS
330
C
102
}
330
C
100
AcDbDictionary
281
     1
  3
A0
350
43
  3
A1
350
44
  3
A2
350
45
  3
A3
350
46
  3
A4
350
47
  3
A5
350
48
  3
A6
350
49
  3
A7
350
4A
  3
A8
350
4B
  3
A9
350
4C
  3
B0
350
4D
  3
B1
350
4E
  3
B2
350
4F
  3
B3
350
50
  3
B4
350
51
  3
B5
350
52
  3
B6
350
53
  0
DICTIONARY
  5
68
102
{ACAD_REACTORS
330
C
102
}
330
C
100
AcDbDictionary
281
     1
  3
Imperial24
350
69
  0
DICTIONARY
  5
64
102
{ACAD_REACTORS
330
C
102
}
330
C
100
AcDbDictionary
281
     1
  3
Standard
350
65
  0
DICTIONARY
  5
29
102
{ACAD_REACTORS
330
C
102
}
330
C
100
AcDbDictionary
281
     1
  3
2dWireframe
350
2F
  3
Basic
350
2E
  3
Brighten
350
35
  3
ColorChange
350
39
  3
Conceptual
350
32
  3
Dim
350
34
  3
EdgeColorOff
350
41
  3
Facepattern
350
38
  3
Flat
350
2A
  3
FlatWithEdges
350
2B
  3
Gouraud
350
2C
  3
GouraudWithEdges
350
2D
  3
Hidden
350
31
  3
JitterOff
350
3F
  3
Linepattern
350
37
  3
OverhangOff
350
40
  3
Realistic
350
33
  3
Shaded
350
3E
  3
Shaded with edges
350
3D
  3
Shades of Gray
350
3A
  3
Sketchy
350
3B
  3
Thicken
350
36
  3
Wireframe
350
30
  3
X-Ray
350
3C
  0
XRECORD
  5
128
102
{ACAD_REACTORS
330
C
102
}
330
C
100
AcDbXrecord
280
     1
 90
        1
330
65
  0
DICTIONARY
  5
120
102
{ACAD_REACTORS
330
C
102
}
330
C
100
AcDbDictionary
281
     1
  3
CANNOSCALE
350
125
  3
CMLEADERSTYLE
350
122
  3
CTABLESTYLE
350
121
  3
CVIEWDETAILSTYLE
350
123
  3
CVIEWSECTIONSTYLE
350
124
  0
ACDBDETAILVIEWSTYLE
  5
6B
102
{ACAD_XDICTIONARY
360
15D
102
}
102
{ACAD_REACTORS
330
6A
102
}
330
6A
100
AcDbModelDocViewStyle
 70
     0
  3
Imperial24
290
     0
100
AcDbDetailViewStyle
 70
     0
 71
     0
 90
        3
 71
     1
340
55
 62
   256
 40
0.24
340
0
 62
   256
 40
0.24
300

 40
0.36
280
     3
 71
     2
340
5D
 90
       25
 62
   256
 71
     3
340
55
 62
   256
 40
0.24
 90
        1
 40
0.75
 90
        1
300
%<\AcVar ViewType \f "%tc1">% %<\AcVar ViewDetailId>%\PSCALE %<\AcVar ViewScale \f "%sn">%
 71
     4
340
5D
 90
       25
 62
   256
340
5D
 90
       25
 62
   256
280
     0
  0
LAYOUT
  5
6F
102
{ACAD_REACTORS
330
62
102
}
330
62
100
AcDbPlotSettings
  1

  2

  4

  6

 40
0.0
 41
0.0
 42
0.0
 43
0.0
 44
0.0
 45
0.0
 46
0.0
 47
0.0
 48
0.0
 49
0.0
140
0.0
141
0.0
142
1.0
143
1.0
 70
   688
 72
     0
 73
     0
 74
     5
  7

 75
    16
147
1.0
 76
     0
 77
     2
 78
   300
148
0.0
149
0.0
100
AcDbLayout
  1
Layout1
 70
     1
 71
     1
 10
0.0
 20
0.0
 11
12.0
 21
9.0
 12
0.0
 22
0.0
 32
0.0
 14
0.0
 24
0.0
 34
0.0
 15
0.0
 25
0.0
 35
0.0
146
0.0
 13
0.0
 23
0.0
 33
0.0
 16
1.0
 26
0.0
 36
0.0
 17
0.0
 27
1.0
 37
0.0
 76
     0
330
6C
  0
LAYOUT
  5
77
102
{ACAD_REACTORS
330
62
102
}
330
62
100
AcDbPlotSettings
  1

  2

  4

  6

 40
0.0
 41
0.0
 42
0.0
 43
0.0
 44
0.0
 45
0.0
 46
0.0
 47
0.0
 48
0.0
 49
0.0
140
0.0
141
0.0
142
1.0
143
1.0
 70
   688
 72
     0
 73
     0
 74
     5
  7

 75
    16
147
1.0
 76
     0
 77
     2
 78
   300
148
0.0
149
0.0
100
AcDbLayout
  1
Layout2
 70
     1
 71
     2
 10
0.0
 20
0.0
 11
12.0
 21
9.0
 12
0.0
 22
0.0
 32
0.0
 14
0.0
 24
0.0
 34
0.0
 15
0.0
 25
0.0
 35
0.0
146
0.0
 13
0.0
 23
0.0
 33
0.0
 16
1.0
 26
0.0
 36
0.0
 17
0.0
 27
1.0
 37
0.0
 76
     0
330
74
  0
LAYOUT
  5
73
102
{ACAD_REACTORS
330
62
102
}
330
62
100
AcDbPlotSettings
  1

  2

  4

  6

 40
0.0
 41
0.0
 42
0.0
 43
0.0
 44
0.0
 45
0.0
 46
0.0
 47
0.0
 48
0.0
 49
0.0
140
0.0
141
0.0
142
1.0
143
1.0
 70
  1712
 72
     0
 73
     0
 74
     0
  7

 75
     0
147
1.0
 76
     0
 77
     2
 78
   300
148
0.0
149
0.0
100
AcDbLayout
  1
Model
 70
     1
 71
     0
 10
0.0
 20
0.0
 11
12.0
 21
9.0
 12
0.0
 22
0.0
 32
0.0
 14
0.0
 24
0.0
 34
0.0
 15
0.0
 25
0.0
 35
0.0
146
0.0
 13
0.0
 23
0.0
 33
0.0
 16
1.0
 26
0.0
 36
0.0
 17
0.0
 27
1.0
 37
0.0
 76
     0
330
70
  0
MATERIAL
  5
19
102
{ACAD_XDICTIONARY
360
1A
102
}
102
{ACAD_REACTORS
330
10
102
}
330
10
100
AcDbMaterial
  1
ByBlock
 72
     0
 43
0.0208333333333333
 43
0.0
 43
0.0
 43
0.0
 43
0.0
 43
0.0208333333333333
 43
0.0
 43
0.0
 43
0.0
 43
0.0
 43
1.0
 43
0.0
 43
0.0
 43
0.0
 43
0.0
 43
1.0
 77
     0
 47
0.0208333333333333
 47
0.0
 47
0.0
 47
0.0
 47
0.0
 47
0.0208333333333333
 47
0.0
 47
0.0
 47
0.0
 47
0.0
 47
1.0
 47
0.0
 47
0.0
 47
0.0
 47
0.0
 47
1.0
171
     0
 49
0.0208333333333333
 49
0.0
 49
0.0
 49
0.0
 49
0.0
 49
0.0208333333333333
 49
0.0
 49
0.0
 49
0.0
 49
0.0
 49
1.0
 49
0.0
 49
0.0
 49
0.0
 49
0.0
 49
1.0
175
     0
142
0.0208333333333333
142
0.0
142
0.0
142
0.0
142
0.0
142
0.0208333333333333
142
0.0
142
0.0
142
0.0
142
0.0
142
1.0
142
0.0
142
0.0
142
0.0
142
0.0
142
1.0
179
     0
144
0.0208333333333333
144
0.0
144
0.0
144
0.0
144
0.0
144
0.0208333333333333
144
0.0
144
0.0
144
0.0
144
0.0
144
1.0
144
0.0
144
0.0
144
0.0
144
0.0
144
1.0
147
0.0208333333333333
147
0.0
147
0.0
147
0.0
147
0.0
147
0.0208333333333333
147
0.0
147
0.0
147
0.0
147
0.0
147
1.0
147
0.0
147
0.0
147
0.0
147
0.0
147
1.0
  0
MATERIAL
  5
11
102
{ACAD_XDICTIONARY
360
12
102
}
102
{ACAD_REACTORS
330
10
102
}
330
10
100
AcDbMaterial
  1
ByLayer
 72
     0
 43
0.0208333333333333
 43
0.0
 43
0.0
 43
0.0
 43
0.0
 43
0.0208333333333333
 43
0.0
 43
0.0
 43
0.0
 43
0.0
 43
1.0
 43
0.0
 43
0.0
 43
0.0
 43
0.0
 43
1.0
 77
     0
 47
0.0208333333333333
 47
0.0
 47
0.0
 47
0.0
 47
0.0
 47
0.0208333333333333
 47
0.0
 47
0.0
 47
0.0
 47
0.0
 47
1.0
 47
0.0
 47
0.0
 47
0.0
 47
0.0
 47
1.0
171
     0
 49
0.0208333333333333
 49
0.0
 49
0.0
 49
0.0
 49
0.0
 49
0.0208333333333333
 49
0.0
 49
0.0
 49
0.0
 49
0.0
 49
1.0
 49
0.0
 49
0.0
 49
0.0
 49
0.0
 49
1.0
175
     0
142
0.0208333333333333
142
0.0
142
0.0
142
0.0
142
0.0
142
0.0208333333333333
142
0.0
142
0.0
142
0.0
142
0.0
142
1.0
142
0.0
142
0.0
142
0.0
142
0.0
142
1.0
179
     0
144
0.0208333333333333
144
0.0
144
0.0
144
0.0
144
0.0
144
0.0208333333333333
144
0.0
144
0.0
144
0.0
144
0.0
144
1.0
144
0.0
144
0.0
144
0.0
144
0.0
144
1.0
147
0.0208333333333333
147
0.0
147
0.0
147
0.0
147
0.0
147
0.0208333333333333
147
0.0
147
0.0
147
0.0
147
0.0
147
1.0
147
0.0
147
0.0
147
0.0
147
0.0
147
1.0
  0
MATERIAL
  5
21
102
{ACAD_XDICTIONARY
360
22
102
}
102
{ACAD_REACTORS
330
10
102
}
330
10
100
AcDbMaterial
  1
Global
 72
     0
 43
0.0208333333333333
 43
0.0
 43
0.0
 43
0.0
 43
0.0
 43
0.0208333333333333
 43
0.0
 43
0.0
 43
0.0
 43
0.0
 43
1.0
 43
0.0
 43
0.0
 43
0.0
 43
0.0
 43
1.0
 77
     0
 47
0.0208333333333333
 47
0.0
 47
0.0
 47
0.0
 47
0.0
 47
0.0208333333333333
 47
0.0
 47
0.0
 47
0.0
 47
0.0
 47
1.0
 47
0.0
 47
0.0
 47
0.0
 47
0.0
 47
1.0
171
     0
 49
0.0208333333333333
 49
0.0
 49
0.0
 49
0.0
 49
0.0
 49
0.0208333333333333
 49
0.0
 49
0.0
 49
0.0
 49
0.0
 49
1.0
 49
0.0
 49
0.0
 49
0.0
 49
0.0
 49
1.0
175
     0
142
0.0208333333333333
142
0.0
142
0.0
142
0.0
142
0.0
142
0.0208333333333333
142
0.0
142
0.0
142
0.0
142
0.0
142
1.0
142
0.0
142
0.0
142
0.0
142
0.0
142
1.0
179
     0
144
0.0208333333333333
144
0.0
144
0.0
144
0.0
144
0.0
144
0.0208333333333333
144
0.0
144
0.0
144
0.0
144
0.0
144
1.0
144
0.0
144
0.0
144
0.0
144
0.0
144
1.0
147
0.0208333333333333
147
0.0
147
0.0
147
0.0
147
0.0
147
0.0208333333333333
147
0.0
147
0.0
147
0.0
147
0.0
147
1.0
147
0.0
147
0.0
147
0.0
147
0.0
147
1.0
  0
MLEADERSTYLE
  5
67
102
{ACAD_XDICTIONARY
360
159
102
}
102
{ACAD_REACTORS
330
66
102
}
330
66
100
AcDbMLeaderStyle
179
     2
170
     2
171
     1
172
     0
 90
        2
 40
0.0
 41
0.0
173
     1
 91
-1056964608
340
5B
 92
       -2
290
     1
 42
0.09
291
     1
 43
0.36
  3
Standard
 44
0.18
300

342
55
174
     1
178
     6
175
     1
176
     0
 93
-1056964608
 45
0.18
292
     0
297
     0
 46
0.18
 94
-1056964608
 47
1.0
 49
1.0
140
1.0
293
     1
141
0.0
294
     1
177
     0
142
1.0
295
     0
296
     0
143
0.125
271
     0
272
     9
273
     9
  0
MLINESTYLE
  5
60
102
{ACAD_REACTORS
330
5F
102
}
330
5F
100
AcDbMlineStyle
  2
STANDARD
 70
     0
  3

 62
   256
 51
90.0
 52
90.0
 71
     2
 49
0.5
 62
   256
  6
BYLAYER
 49
-0.5
 62
   256
  6
BYLAYER
  0
ACDBPLACEHOLDER
  5
F
102
{ACAD_REACTORS
330
E
102
}
330
E
  0
SCALE
  5
43
102
{ACAD_REACTORS
330
42
102
}
330
42
100
AcDbScale
 70
     0
300
1:1
140
1.0
141
1.0
290
     1
  0
SCALE
  5
44
102
{ACAD_REACTORS
330
42
102
}
330
42
100
AcDbScale
 70
     0
300
1/128" = 1'-0"
140
0.0078125
141
12.0
290
     0
  0
SCALE
  5
45
102
{ACAD_REACTORS
330
42
102
}
330
42
100
AcDbScale
 70
     0
300
1/64" = 1'-0"
140
0.015625
141
12.0
290
     0
  0
SCALE
  5
46
102
{ACAD_REACTORS
330
42
102
}
330
42
100
AcDbScale
 70
     0
300
1/32" = 1'-0"
140
0.03125
141
12.0
290
     0
  0
SCALE
  5
47
102
{ACAD_REACTORS
330
42
102
}
330
42
100
AcDbScale
 70
     0
300
1/16" = 1'-0"
140
0.0625
141
12.0
290
     0
  0
SCALE
  5
48
102
{ACAD_REACTORS
330
42
102
}
330
42
100
AcDbScale
 70
     0
300
3/32" = 1'-0"
140
0.09375
141
12.0
290
     0
  0
SCALE
  5
49
102
{ACAD_REACTORS
330
42
102
}
330
42
100
AcDbScale
 70
     0
300
1/8" = 1'-0"
140
0.125
141
12.0
290
     0
  0
SCALE
  5
4A
102
{ACAD_REACTORS
330
42
102
}
330
42
100
AcDbScale
 70
     0
300
3/16" = 1'-0"
140
0.1875
141
12.0
290
     0
  0
SCALE
  5
4B
102
{ACAD_REACTORS
330
42
102
}
330
42
100
AcDbScale
 70
     0
300
1/4" = 1'-0"
140
0.25
141
12.0
290
     0
  0
SCALE
  5
4C
102
{ACAD_REACTORS
330
42
102
}
330
42
100
AcDbScale
 70
     0
300
3/8" = 1'-0"
140
0.375
141
12.0
290
     0
  0
SCALE
  5
4D
102
{ACAD_REACTORS
330
42
102
}
330
42
100
AcDbScale
 70
     0
300
1/2" = 1'-0"
140
0.5
141
12.0
290
     0
  0
SCALE
  5
4E
102
{ACAD_REACTORS
330
42
102
}
330
42
100
AcDbScale
 70
     0
300
3/4" = 1'-0"
140
0.75
141
12.0
290
     0
  0
SCALE
  5
4F
102
{ACAD_REACTORS
330
42
102
}
330
42
100
AcDbScale
 70
     0
300
1" = 1'-0"
140
1.0
141
12.0
290
     0
  0
SCALE
  5
50
102
{ACAD_REACTORS
330
42
102
}
330
42
100
AcDbScale
 70
     0
300
1-1/2" = 1'-0"
140
1.5
141
12.0
290
     0
  0
SCALE
  5
51
102
{ACAD_REACTORS
330
42
102
}
330
42
100
AcDbScale
 70
     0
300
3" = 1'-0"
140
3.0
141
12.0
290
     0
  0
SCALE
  5
52
102
{ACAD_REACTORS
330
42
102
}
330
42
100
AcDbScale
 70
     0
300
6" = 1'-0"
140
6.0
141
12.0
290
     0
  0
SCALE
  5
53
102
{ACAD_REACTORS
330
42
102
}
330
42
100
AcDbScale
 70
     0
300
1'-0" = 1'-0"
140
12.0
141
12.0
290
     0
  0
ACDBSECTIONVIEWSTYLE
  5
69
102
{ACAD_XDICTIONARY
360
15B
102
}
102
{ACAD_REACTORS
330
68
102
}
330
68
100
AcDbModelDocViewStyle
 70
     0
  3
Imperial24
290
     0
100
AcDbSectionViewStyle
 70
     0
 71
     0
 90
       78
 71
     1
340
55
 62
   256
 40
0.24
340
0
340
0
 62
   256
 40
0.24
300
I, O, Q, S, X, Z
 40
0.48
 90
        3
 40
0.18
 90
        1
 71
     2
340
5D
 90
       25
 62
   256
340
5D
 90
       50
 62
   256
 40
0.24
 40
0.0
 40
0.24
 71
     3
340
55
 62
   256
 40
0.24
 90
        1
 40
0.75
 90
        1
300
%<\AcVar ViewType \f "%tc1">% %<\AcVar ViewSectionStartId>%-%<\AcVar ViewSectionEndId>%\PSCALE %<\AcVar ViewScale \f "%sn">%
 71
     4
 62
   256
 62
   257
300
ANSI31
 40
1.0
 90
        0
290
     0
290
     0
 90
        6
 40
0.0
 40
1.570796326794896
 40
0.2617993877991494
 40
1.308996938995747
 40
-0.2617993877991494
 40
1.832595714594046
  0
TABLESTYLE
  5
65
102
{ACAD_XDICTIONARY
360
126
102
}
102
{ACAD_REACTORS
330
64
102
}
330
64
100
AcDbTableStyle
280
     0
  3
Standard
 70
     0
 71
     0
 40
0.06
 41
0.06
280
     0
281
     0
  7
Standard
140
0.18
170
     2
 62
     0
 63
     7
283
     0
 90
      512
 91
        0
  1

274
    -2
284
     1
 64
     0
275
    -2
285
     1
 65
     0
276
    -2
286
     1
 66
     0
277
    -2
287
     1
 67
     0
278
    -2
288
     1
 68
     0
279
    -2
289
     1
 69
     0
  7
Standard
140
0.25
170
     5
 62
     0
 63
     7
283
     0
 90
      512
 91
        0
  1

274
    -2
284
     1
 64
     0
275
    -2
285
     1
 65
     0
276
    -2
286
     1
 66
     0
277
    -2
287
     1
 67
     0
278
    -2
288
     1
 68
     0
279
    -2
289
     1
 69
     0
  7
Standard
140
0.18
170
     5
 62
     0
 63
     7
283
     0
 90
      512
 91
        0
  1

274
    -2
284
     1
 64
     0
275
    -2
285
     1
 65
     0
276
    -2
286
     1
 66
     0
277
    -2
287
     1
 67
     0
278
    -2
288
     1
 68
     0
279
    -2
289
     1
 69
     0
  0
VISUALSTYLE
  5
2F
102
{ACAD_XDICTIONARY
360
133
102
}
102
{ACAD_REACTORS
330
29
102
}
330
29
100
AcDbVisualStyle
  2
2dWireframe
 70
     4
177
     2
291
     0
 71
     0
176
     1
 72
     2
176
     1
 73
     0
176
     1
 90
        0
176
     1
 40
0.6
176
     1
 41
30.0
176
     1
 63
     7
421
 16777215
176
     1
 74
     1
176
     1
 91
        4
176
     1
 64
     7
176
     1
 65
   257
176
     1
 75
     1
176
     1
175
     1
176
     1
 42
1.0
176
     1
 92
        0
176
     1
 66
   257
176
     1
 43
1.0
176
     1
 76
     1
176
     1
 77
     6
176
     1
 78
     2
176
     1
 67
     7
176
     1
 79
     5
176
     1
170
     0
176
     1
171
     0
176
     1
290
     0
176
     1
 93
        1
176
     1
 44
0.0
176
     1
173
     0
176
     1
1001
ACAD
1000
AcDbSavedByObjectVersion
1070
     0
  0
VISUALSTYLE
  5
2E
102
{ACAD_XDICTIONARY
360
131
102
}
102
{ACAD_REACTORS
330
29
102
}
330
29
100
AcDbVisualStyle
  2
Basic
 70
     7
177
     2
291
     1
 71
     1
176
     1
 72
     0
176
     1
 73
     1
176
     1
 90
        0
176
     1
 40
0.6
176
     1
 41
30.0
176
     1
 63
     7
421
 16777215
176
     1
 74
     0
176
     1
 91
        4
176
     1
 64
     7
176
     1
 65
   257
176
     1
 75
     1
176
     1
175
     1
176
     1
 42
1.0
176
     1
 92
        8
176
     1
 66
     7
176
     1
 43
1.0
176
     1
 76
     1
176
     1
 77
     6
176
     1
 78
     2
176
     1
 67
     7
176
     1
 79
     5
176
     1
170
     0
176
     1
171
     0
176
     1
290
     0
176
     1
 93
        1
176
     1
 44
0.0
176
     1
173
     0
176
     1
1001
ACAD
1000
AcDbSavedByObjectVersion
1070
     0
  0
VISUALSTYLE
  5
35
102
{ACAD_XDICTIONARY
360
13F
102
}
102
{ACAD_REACTORS
330
29
102
}
330
29
100
AcDbVisualStyle
  2
Brighten
 70
    12
177
     2
291
     1
 71
     2
176
     1
 72
     2
176
     1
 73
     0
176
     1
 90
        0
176
     1
 40
0.6
176
     1
 41
30.0
176
     1
 63
     7
421
 16777215
176
     1
 74
     1
176
     1
 91
        4
176
     1
 64
     7
176
     1
 65
   257
176
     1
 75
     1
176
     1
175
     1
176
     1
 42
1.0
176
     1
 92
        8
176
     1
 66
     7
176
     1
 43
1.0
176
     1
 76
     1
176
     1
 77
     6
176
     1
 78
     2
176
     1
 67
     7
176
     1
 79
     5
176
     1
170
     0
176
     1
171
     0
176
     1
290
     0
176
     1
 93
        1
176
     1
 44
50.0
176
     1
173
     0
176
     1
1001
ACAD
1000
AcDbSavedByObjectVersion
1070
     0
  0
VISUALSTYLE
  5
39
102
{ACAD_XDICTIONARY
360
147
102
}
102
{ACAD_REACTORS
330
29
102
}
330
29
100
AcDbVisualStyle
  2
ColorChange
 70
    16
177
     2
291
     1
 71
     2
176
     1
 72
     2
176
     1
 73
     3
176
     1
 90
        0
176
     1
 40
0.6
176
     1
 41
30.0
176
     1
 63
     8
421
  8421504
176
     1
 74
     1
176
     1
 91
        4
176
     1
 64
     7
176
     1
 65
   257
176
     1
 75
     1
176
     1
175
     1
176
     1
 42
1.0
176
     1
 92
        8
176
     1
 66
     8
424
  8421504
176
     1
 43
1.0
176
     1
 76
     1
176
     1
 77
     6
176
     1
 78
     2
176
     1
 67
     7
176
     1
 79
     5
176
     1
170
     0
176
     1
171
     0
176
     1
290
     0
176
     1
 93
        1
176
     1
 44
0.0
176
     1
173
     0
176
     1
1001
ACAD
1000
AcDbSavedByObjectVersion
1070
     0
  0
VISUALSTYLE
  5
32
102
{ACAD_XDICTIONARY
360
139
102
}
102
{ACAD_REACTORS
330
29
102
}
330
29
100
AcDbVisualStyle
  2
Conceptual
 70
     9
177
     2
291
     0
 71
     3
176
     1
 72
     2
176
     1
 73
     0
176
     1
 90
        0
176
     1
 40
0.6
176
     1
 41
30.0
176
     1
 63
     7
421
 16777215
176
     1
 74
     2
176
     1
 91
        2
176
     1
 64
     7
176
     1
 65
   257
176
     1
 75
     1
176
     1
175
     1
176
     1
 42
179.0
176
     1
 92
        8
176
     1
 66
     7
176
     1
 43
1.0
176
     1
 76
     1
176
     1
 77
     6
176
     1
 78
     2
176
     1
 67
     7
176
     1
 79
     3
176
     1
170
     0
176
     1
171
     0
176
     1
290
     0
176
     1
 93
        1
176
     1
 44
0.0
176
     1
173
     0
176
     1
1001
ACAD
1000
AcDbSavedByObjectVersion
1070
     0
  0
VISUALSTYLE
  5
34
102
{ACAD_XDICTIONARY
360
13D
102
}
102
{ACAD_REACTORS
330
29
102
}
330
29
100
AcDbVisualStyle
  2
Dim
 70
    11
177
     2
291
     1
 71
     2
176
     1
 72
     2
176
     1
 73
     0
176
     1
 90
        0
176
     1
 40
0.6
176
     1
 41
30.0
176
     1
 63
     7
421
 16777215
176
     1
 74
     1
176
     1
 91
        4
176
     1
 64
     7
176
     1
 65
   257
176
     1
 75
     1
176
     1
175
     1
176
     1
 42
1.0
176
     1
 92
        8
176
     1
 66
     7
176
     1
 43
1.0
176
     1
 76
     1
176
     1
 77
     6
176
     1
 78
     2
176
     1
 67
     7
176
     1
 79
     5
176
     1
170
     0
176
     1
171
     0
176
     1
290
     0
176
     1
 93
        1
176
     1
 44
-50.0
176
     1
173
     0
176
     1
1001
ACAD
1000
AcDbSavedByObjectVersion
1070
     0
  0
VISUALSTYLE
  5
41
102
{ACAD_XDICTIONARY
360
157
102
}
102
{ACAD_REACTORS
330
29
102
}
330
29
100
AcDbVisualStyle
  2
EdgeColorOff
 70
    22
177
     2
291
     1
 71
     2
176
     0
 72
     2
176
     0
 73
     0
176
     0
 90
        0
176
     0
 40
0.6
176
     0
 41
30.0
176
     0
 63
     7
421
 16777215
176
     0
 74
     1
176
     0
 91
        4
176
     0
 64
     7
176
     0
 65
   257
176
     0
 75
     1
176
     0
175
     1
176
     0
 42
1.0
176
     0
 92
        8
176
     2
 66
     7
176
     0
 43
1.0
176
     0
 76
     1
176
     0
 77
     6
176
     0
 78
     2
176
     0
 67
     7
176
     0
 79
     5
176
     0
170
     0
176
     0
171
     0
176
     0
290
     0
176
     0
 93
        1
176
     0
 44
0.0
176
     0
173
     0
176
     0
1001
ACAD
1000
AcDbSavedByObjectVersion
1070
     0
  0
VISUALSTYLE
  5
38
102
{ACAD_XDICTIONARY
360
145
102
}
102
{ACAD_REACTORS
330
29
102
}
330
29
100
AcDbVisualStyle
  2
Facepattern
 70
    15
177
     2
291
     1
 71
     2
176
     1
 72
     2
176
     1
 73
     0
176
     1
 90
        0
176
     1
 40
0.6
176
     1
 41
30.0
176
     1
 63
     7
421
 16777215
176
     1
 74
     1
176
     1
 91
        4
176
     1
 64
     7
176
     1
 65
   257
176
     1
 75
     1
176
     1
175
     1
176
     1
 42
1.0
176
     1
 92
        8
176
     1
 66
     7
176
     1
 43
1.0
176
     1
 76
     1
176
     1
 77
     6
176
     1
 78
     2
176
     1
 67
     7
176
     1
 79
     5
176
     1
170
     0
176
     1
171
     0
176
     1
290
     0
176
     1
 93
        1
176
     1
 44
0.0
176
     1
173
     0
176
     1
1001
ACAD
1000
AcDbSavedByObjectVersion
1070
     0
  0
VISUALSTYLE
  5
2A
102
{ACAD_XDICTIONARY
360
129
102
}
102
{ACAD_REACTORS
330
29
102
}
330
29
100
AcDbVisualStyle
  2
Flat
 70
     0
177
     2
291
     1
 71
     2
176
     1
 72
     1
176
     1
 73
     1
176
     1
 90
        2
176
     1
 40
0.6
176
     1
 41
30.0
176
     1
 63
     7
421
 16777215
176
     1
 74
     0
176
     1
 91
        0
176
     1
 64
     7
176
     1
 65
   257
176
     1
 75
     1
176
     1
175
     1
176
     1
 42
1.0
176
     1
 92
        8
176
     1
 66
     7
176
     1
 43
1.0
176
     1
 76
     1
176
     1
 77
     6
176
     1
 78
     2
176
     1
 67
     7
176
     1
 79
     5
176
     1
170
     0
176
     1
171
     0
176
     1
290
     0
176
     1
 93
       13
176
     1
 44
0.0
176
     1
173
     0
176
     1
1001
ACAD
1000
AcDbSavedByObjectVersion
1070
     0
  0
VISUALSTYLE
  5
2B
102
{ACAD_XDICTIONARY
360
12B
102
}
102
{ACAD_REACTORS
330
29
102
}
330
29
100
AcDbVisualStyle
  2
FlatWithEdges
 70
     1
177
     2
291
     1
 71
     2
176
     1
 72
     1
176
     1
 73
     1
176
     1
 90
        2
176
     1
 40
0.6
176
     1
 41
30.0
176
     1
 63
     7
421
 16777215
176
     1
 74
     1
176
     1
 91
        0
176
     1
 64
     7
176
     1
 65
   257
176
     1
 75
     1
176
     1
175
     1
176
     1
 42
1.0
176
     1
 92
        0
176
     1
 66
   257
176
     1
 43
1.0
176
     1
 76
     1
176
     1
 77
     6
176
     1
 78
     2
176
     1
 67
     7
176
     1
 79
     5
176
     1
170
     0
176
     1
171
     0
176
     1
290
     0
176
     1
 93
       13
176
     1
 44
0.0
176
     1
173
     0
176
     1
1001
ACAD
1000
AcDbSavedByObjectVersion
1070
     0
  0
VISUALSTYLE
  5
2C
102
{ACAD_XDICTIONARY
360
12D
102
}
102
{ACAD_REACTORS
330
29
102
}
330
29
100
AcDbVisualStyle
  2
Gouraud
 70
     2
177
     2
291
     1
 71
     2
176
     1
 72
     2
176
     1
 73
     1
176
     1
 90
        2
176
     1
 40
0.6
176
     1
 41
30.0
176
     1
 63
     7
421
 16777215
176
     1
 74
     0
176
     1
 91
        0
176
     1
 64
     7
176
     1
 65
   257
176
     1
 75
     1
176
     1
175
     1
176
     1
 42
1.0
176
     1
 92
        0
176
     1
 66
     7
176
     1
 43
1.0
176
     1
 76
     1
176
     1
 77
     6
176
     1
 78
     2
176
     1
 67
     7
176
     1
 79
     5
176
     1
170
     0
176
     1
171
     0
176
     1
290
     0
176
     1
 93
       13
176
     1
 44
0.0
176
     1
173
     0
176
     1
1001
ACAD
1000
AcDbSavedByObjectVersion
1070
     0
  0
VISUALSTYLE
  5
2D
102
{ACAD_XDICTIONARY
360
12F
102
}
102
{ACAD_REACTORS
330
29
102
}
330
29
100
AcDbVisualStyle
  2
GouraudWithEdges
 70
     3
177
     2
291
     1
 71
     2
176
     1
 72
     2
176
     1
 73
     1
176
     1
 90
        2
176
     1
 40
0.6
176
     1
 41
30.0
176
     1
 63
     7
421
 16777215
176
     1
 74
     1
176
     1
 91
        0
176
     1
 64
     7
176
     1
 65
   257
176
     1
 75
     1
176
     1
175
     1
176
     1
 42
1.0
176
     1
 92
        0
176
     1
 66
   257
176
     1
 43
1.0
176
     1
 76
     1
176
     1
 77
     6
176
     1
 78
     2
176
     1
 67
     7
176
     1
 79
     5
176
     1
170
     0
176
     1
171
     0
176
     1
290
     0
176
     1
 93
       13
176
     1
 44
0.0
176
     1
173
     0
176
     1
1001
ACAD
1000
AcDbSavedByObjectVersion
1070
     0
  0
VISUALSTYLE
  5
31
102
{ACAD_XDICTIONARY
360
137
102
}
102
{ACAD_REACTORS
330
29
102
}
330
29
100
AcDbVisualStyle
  2
Hidden
 70
     6
177
     2
291
     0
 71
     1
176
     1
 72
     2
176
     1
 73
     2
176
     1
 90
        0
176
     1
 40
0.6
176
     1
 41
30.0
176
     1
 63
     7
421
 16777215
176
     1
 74
     2
176
     1
 91
        2
176
     1
 64
     7
176
     1
 65
   257
176
     1
 75
     2
176
     1
175
     1
176
     1
 42
40.0
176
     1
 92
        0
176
     1
 66
   257
176
     1
 43
1.0
176
     1
 76
     1
176
     1
 77
     6
176
     1
 78
     2
176
     1
 67
     7
176
     1
 79
     3
176
     1
170
     0
176
     1
171
     0
176
     1
290
     0
176
     1
 93
        1
176
     1
 44
0.0
176
     1
173
     0
176
     1
1001
ACAD
1000
AcDbSavedByObjectVersion
1070
     0
  0
VISUALSTYLE
  5
3F
102
{ACAD_XDICTIONARY
360
153
102
}
102
{ACAD_REACTORS
330
29
102
}
330
29
100
AcDbVisualStyle
  2
JitterOff
 70
    20
177
     2
291
     1
 71
     2
176
     0
 72
     2
176
     0
 73
     0
176
     0
 90
        0
176
     0
 40
0.6
176
     0
 41
30.0
176
     0
 63
     7
421
 16777215
176
     0
 74
     1
176
     0
 91
        4
176
     0
 64
     7
176
     0
 65
   257
176
     0
 75
     1
176
     0
175
     1
176
     0
 42
1.0
176
     0
 92
       10
176
     2
 66
     7
176
     0
 43
1.0
176
     0
 76
     1
176
     0
 77
     6
176
     0
 78
     2
176
     0
 67
     7
176
     0
 79
     5
176
     0
170
     0
176
     0
171
     0
176
     0
290
     0
176
     0
 93
        1
176
     0
 44
0.0
176
     0
173
     0
176
     0
1001
ACAD
1000
AcDbSavedByObjectVersion
1070
     0
  0
VISUALSTYLE
  5
37
102
{ACAD_XDICTIONARY
360
143
102
}
102
{ACAD_REACTORS
330
29
102
}
330
29
100
AcDbVisualStyle
  2
Linepattern
 70
    14
177
     2
291
     1
 71
     2
176
     1
 72
     2
176
     1
 73
     0
176
     1
 90
        0
176
     1
 40
0.6
176
     1
 41
30.0
176
     1
 63
     7
421
 16777215
176
     1
 74
     1
176
     1
 91
        4
176
     1
 64
     7
176
     1
 65
   257
176
     1
 75
     7
176
     1
175
     7
176
     1
 42
1.0
176
     1
 92
        8
176
     1
 66
     7
176
     1
 43
1.0
176
     1
 76
     1
176
     1
 77
     6
176
     1
 78
     2
176
     1
 67
     7
176
     1
 79
     5
176
     1
170
     0
176
     1
171
     0
176
     1
290
     0
176
     1
 93
        1
176
     1
 44
0.0
176
     1
173
     0
176
     1
1001
ACAD
1000
AcDbSavedByObjectVersion
1070
     0
  0
VISUALSTYLE
  5
40
102
{ACAD_XDICTIONARY
360
155
102
}
102
{ACAD_REACTORS
330
29
102
}
330
29
100
AcDbVisualStyle
  2
OverhangOff
 70
    21
177
     2
291
     1
 71
     2
176
     0
 72
     2
176
     0
 73
     0
176
     0
 90
        0
176
     0
 40
0.6
176
     0
 41
30.0
176
     0
 63
     7
421
 16777215
176
     0
 74
     1
176
     0
 91
        4
176
     0
 64
     7
176
     0
 65
   257
176
     0
 75
     1
176
     0
175
     1
176
     0
 42
1.0
176
     0
 92
        9
176
     2
 66
     7
176
     0
 43
1.0
176
     0
 76
     1
176
     0
 77
     6
176
     0
 78
     2
176
     0
 67
     7
176
     0
 79
     5
176
     0
170
     0
176
     0
171
     0
176
     0
290
     0
176
     0
 93
        1
176
     0
 44
0.0
176
     0
173
     0
176
     0
1001
ACAD
1000
AcDbSavedByObjectVersion
1070
     0
  0
VISUALSTYLE
  5
33
102
{ACAD_XDICTIONARY
360
13B
102
}
102
{ACAD_REACTORS
330
29
102
}
330
29
100
AcDbVisualStyle
  2
Realistic
 70
     8
177
     2
291
     0
 71
     2
176
     1
 72
     3
176
     1
 73
     0
176
     1
 90
        2
176
     1
 40
0.6
176
     1
 41
30.0
176
     1
 63
     7
421
 16777215
176
     1
 74
     0
176
     1
 91
        0
176
     1
 64
     7
176
     1
 65
   257
176
     1
 75
     1
176
     1
175
     1
176
     1
 42
1.0
176
     1
 92
        8
176
     1
 66
   257
176
     1
 43
1.0
176
     1
 76
     1
176
     1
 77
     6
176
     1
 78
     2
176
     1
 67
     7
176
     1
 79
     3
176
     1
170
     0
176
     1
171
     0
176
     1
290
     0
176
     1
 93
       13
176
     1
 44
0.0
176
     1
173
     0
176
     1
1001
ACAD
1000
AcDbSavedByObjectVersion
1070
     0
  0
VISUALSTYLE
  5
3E
102
{ACAD_XDICTIONARY
360
151
102
}
102
{ACAD_REACTORS
330
29
102
}
330
29
100
AcDbVisualStyle
  2
Shaded
 70
    27
177
     2
291
     0
 71
     2
176
     1
 72
     2
176
     1
 73
     1
176
     1
 90
        2
176
     1
 40
0.6
176
     1
 41
30.0
176
     1
 63
     7
421
 16777215
176
     1
 74
     0
176
     1
 91
        4
176
     1
 64
     7
176
     1
 65
   257
176
     1
 75
     1
176
     1
175
     1
176
     1
 42
1.0
176
     1
 92
        8
176
     1
 66
   257
176
     1
 43
1.0
176
     1
 76
     1
176
     1
 77
     6
176
     1
 78
     2
176
     1
 67
     8
425
  7895160
176
     1
 79
     3
176
     1
170
     0
176
     1
171
     0
176
     1
290
     0
176
     1
 93
        5
176
     1
 44
0.0
176
     1
173
     0
176
     1
1001
ACAD
1000
AcDbSavedByObjectVersion
1070
     0
  0
VISUALSTYLE
  5
3D
102
{ACAD_XDICTIONARY
360
14F
102
}
102
{ACAD_REACTORS
330
29
102
}
330
29
100
AcDbVisualStyle
  2
Shaded with edges
 70
    26
177
     2
291
     0
 71
     2
176
     1
 72
     2
176
     1
 73
     1
176
     1
 90
        2
176
     1
 40
0.6
176
     1
 41
30.0
176
     1
 63
     7
421
 16777215
176
     1
 74
     1
176
     1
 91
        2
176
     1
 64
     7
176
     1
 65
   257
176
     1
 75
     2
176
     1
175
     1
176
     1
 42
1.0
176
     1
 92
        8
176
     1
 66
   257
176
     1
 43
1.0
176
     1
 76
     1
176
     1
 77
     6
176
     1
 78
     2
176
     1
 67
     7
176
     1
 79
     3
176
     1
170
     0
176
     1
171
     0
176
     1
290
     0
176
     1
 93
        5
176
     1
 44
0.0
176
     1
173
     0
176
     1
1001
ACAD
1000
AcDbSavedByObjectVersion
1070
     0
  0
VISUALSTYLE
  5
3A
102
{ACAD_XDICTIONARY
360
149
102
}
102
{ACAD_REACTORS
330
29
102
}
330
29
100
AcDbVisualStyle
  2
Shades of Gray
 70
    23
177
     2
291
     0
 71
     2
176
     1
 72
     2
176
     1
 73
     3
176
     1
 90
        0
176
     1
 40
0.6
176
     1
 41
30.0
176
     1
 63
     7
421
 16777215
176
     1
 74
     2
176
     1
 91
        2
176
     1
 64
     7
176
     1
 65
     7
176
     1
 75
     1
176
     1
175
     1
176
     1
 42
40.0
176
     1
 92
        8
176
     1
 66
     7
176
     1
 43
1.0
176
     1
 76
     1
176
     1
 77
     6
176
     1
 78
     2
176
     1
 67
     7
176
     1
 79
     3
176
     1
170
     0
176
     1
171
     0
176
     1
290
     0
176
     1
 93
        1
176
     1
 44
0.0
176
     1
173
     0
176
     1
1001
ACAD
1000
AcDbSavedByObjectVersion
1070
     0
  0
VISUALSTYLE
  5
3B
102
{ACAD_XDICTIONARY
360
14B
102
}
102
{ACAD_REACTORS
330
29
102
}
330
29
100
AcDbVisualStyle
  2
Sketchy
 70
    24
177
     2
291
     0
 71
     1
176
     1
 72
     2
176
     1
 73
     2
176
     1
 90
        0
176
     1
 40
0.6
176
     1
 41
30.0
176
     1
 63
     7
421
 16777215
176
     1
 74
     2
176
     1
 91
        2
176
     1
 64
     7
176
     1
 65
     7
176
     1
 75
     1
176
     1
175
     1
176
     1
 42
40.0
176
     1
 92
       11
176
     1
 66
     7
176
     1
 43
1.0
176
     1
 76
     1
176
     1
 77
     6
176
     1
 78
     2
176
     1
 67
     7
176
     1
 79
     6
176
     1
170
     0
176
     1
171
     0
176
     1
290
     0
176
     1
 93
        1
176
     1
 44
0.0
176
     1
173
     0
176
     1
1001
ACAD
1000
AcDbSavedByObjectVersion
1070
     0
  0
VISUALSTYLE
  5
36
102
{ACAD_XDICTIONARY
360
141
102
}
102
{ACAD_REACTORS
330
29
102
}
330
29
100
AcDbVisualStyle
  2
Thicken
 70
    13
177
     2
291
     1
 71
     2
176
     1
 72
     2
176
     1
 73
     0
176
     1
 90
        0
176
     1
 40
0.6
176
     1
 41
30.0
176
     1
 63
     7
421
 16777215
176
     1
 74
     1
176
     1
 91
        4
176
     1
 64
     7
176
     1
 65
   257
176
     1
 75
     1
176
     1
175
     1
176
     1
 42
1.0
176
     1
 92
       12
176
     1
 66
     7
176
     1
 43
1.0
176
     1
 76
     1
176
     1
 77
     6
176
     1
 78
     2
176
     1
 67
     7
176
     1
 79
     5
176
     1
170
     0
176
     1
171
     0
176
     1
290
     0
176
     1
 93
        1
176
     1
 44
0.0
176
     1
173
     0
176
     1
1001
ACAD
1000
AcDbSavedByObjectVersion
1070
     0
  0
VISUALSTYLE
  5
30
102
{ACAD_XDICTIONARY
360
135
102
}
102
{ACAD_REACTORS
330
29
102
}
330
29
100
AcDbVisualStyle
  2
Wireframe
 70
     5
177
     2
291
     0
 71
     0
176
     1
 72
     2
176
     1
 73
     0
176
     1
 90
        0
176
     1
 40
0.6
176
     1
 41
30.0
176
     1
 63
     7
421
 16777215
176
     1
 74
     1
176
     1
 91
        4
176
     1
 64
     7
176
     1
 65
   257
176
     1
 75
     1
176
     1
175
     1
176
     1
 42
1.0
176
     1
 92
        0
176
     1
 66
   257
176
     1
 43
1.0
176
     1
 76
     1
176
     1
 77
     6
176
     1
 78
     2
176
     1
 67
     7
176
     1
 79
     3
176
     1
170
     0
176
     1
171
     0
176
     1
290
     0
176
     1
 93
        1
176
     1
 44
0.0
176
     1
173
     0
176
     1
1001
ACAD
1000
AcDbSavedByObjectVersion
1070
     0
  0
VISUALSTYLE
  5
3C
102
{ACAD_XDICTIONARY
360
14D
102
}
102
{ACAD_REACTORS
330
29
102
}
330
29
100
AcDbVisualStyle
  2
X-Ray
 70
    25
177
     2
291
     0
 71
     2
176
     1
 72
     2
176
     1
 73
     1
176
     1
 90
        1
176
     1
 40
0.5
176
     1
 41
30.0
176
     1
 63
     7
421
 16777215
176
     1
 74
     1
176
     1
 91
        0
176
     1
 64
     7
176
     1
 65
   257
176
     1
 75
     1
176
     1
175
     1
176
     1
 42
1.0
176
     1
 92
        8
176
     1
 66
     7
176
     1
 43
1.0
176
     1
 76
     1
176
     1
 77
     6
176
     1
 78
     2
176
     1
 67
     7
176
     1
 79
     3
176
     1
170
     0
176
     1
171
     0
176
     1
290
     0
176
     1
 93
       13
176
     1
 44
0.0
176
     1
173
     0
176
     1
1001
ACAD
1000
AcDbSavedByObjectVersion
1070
     0
  0
DICTIONARYVAR
  5
125
102
{ACAD_REACTORS
330
120
102
}
330
120
100
DictionaryVariables
280
     0
  1
1:1
  0
DICTIONARYVAR
  5
122
102
{ACAD_REACTORS
330
120
102
}
330
120
100
DictionaryVariables
280
     0
  1
STANDARD
  0
DICTIONARYVAR
  5
121
102
{ACAD_REACTORS
330
120
102
}
330
120
100
DictionaryVariables
280
     0
  1
STANDARD
  0
DICTIONARYVAR
  5
123
102
{ACAD_REACTORS
330
120
102
}
330
120
100
DictionaryVariables
280
     0
  1
Imperial24
  0
DICTIONARYVAR
  5
124
102
{ACAD_REACTORS
330
120
102
}
330
120
100
DictionaryVariables
280
     0
  1
Imperial24
  0
DICTIONARY
  5
15D
330
6B
100
AcDbDictionary
280
     1
281
     1
  3
ACAD_XREC_ROUNDTRIP
360
15E
  0
DICTIONARY
  5
1A
330
19
100
AcDbDictionary
280
     1
281
     1
  3
BUMPTILE
360
1C
  3
DIFFUSETILE
360
1B
  3
OPACITYTILE
360
1F
  3
REFLECTIONTILE
360
1E
  3
REFRACTIONTILE
360
20
  3
SPECULARTILE
360
1D
  0
DICTIONARY
  5
12
330
11
100
AcDbDictionary
280
     1
281
     1
  3
BUMPTILE
360
14
  3
DIFFUSETILE
360
13
  3
OPACITYTILE
360
17
  3
REFLECTIONTILE
360
16
  3
REFRACTIONTILE
360
18
  3
SPECULARTILE
360
15
  0
DICTIONARY
  5
22
330
21
100
AcDbDictionary
280
     1
281
     1
  3
BUMPTILE
360
24
  3
DIFFUSETILE
360
23
  3
OPACITYTILE
360
27
  3
REFLECTIONTILE
360
26
  3
REFRACTIONTILE
360
28
  3
SPECULARTILE
360
25
  0
DICTIONARY
  5
159
330
67
100
AcDbDictionary
280
     1
281
     1
  3
ACAD_XREC_ROUNDTRIP
360
15A
  0
DICTIONARY
  5
15B
330
69
100
AcDbDictionary
280
     1
281
     1
  3
ACAD_XREC_ROUNDTRIP
360
15C
  0
DICTIONARY
  5
126
330
65
100
AcDbDictionary
280
     1
281
     1
  3
ACAD_ROUNDTRIP_2008_TABLESTYLE_CELLSTYLEMAP
360
127
  0
DICTIONARY
  5
133
330
2F
100
AcDbDictionary
280
     1
281
     1
  3
ACAD_XREC_ROUNDTRIP
360
134
  0
DICTIONARY
  5
131
330
2E
100
AcDbDictionary
280
     1
281
     1
  3
ACAD_XREC_ROUNDTRIP
360
132
  0
DICTIONARY
  5
13F
330
35
100
AcDbDictionary
280
     1
281
     1
  3
ACAD_XREC_ROUNDTRIP
360
140
  0
DICTIONARY
  5
147
330
39
100
AcDbDictionary
280
     1
281
     1
  3
ACAD_XREC_ROUNDTRIP
360
148
  0
DICTIONARY
  5
139
330
32
100
AcDbDictionary
280
     1
281
     1
  3
ACAD_XREC_ROUNDTRIP
360
13A
  0
DICTIONARY
  5
13D
330
34
100
AcDbDictionary
280
     1
281
     1
  3
ACAD_XREC_ROUNDTRIP
360
13E
  0
DICTIONARY
  5
157
330
41
100
AcDbDictionary
280
     1
281
     1
  3
ACAD_XREC_ROUNDTRIP
360
158
  0
DICTIONARY
  5
145
330
38
100
AcDbDictionary
280
     1
281
     1
  3
ACAD_XREC_ROUNDTRIP
360
146
  0
DICTIONARY
  5
129
330
2A
100
AcDbDictionary
280
     1
281
     1
  3
ACAD_XREC_ROUNDTRIP
360
12A
  0
DICTIONARY
  5
12B
330
2B
100
AcDbDictionary
280
     1
281
     1
  3
ACAD_XREC_ROUNDTRIP
360
12C
  0
DICTIONARY
  5
12D
330
2C
100
AcDbDictionary
280
     1
281
     1
  3
ACAD_XREC_ROUNDTRIP
360
12E
  0
DICTIONARY
  5
12F
330
2D
100
AcDbDictionary
280
     1
281
     1
  3
ACAD_XREC_ROUNDTRIP
360
130
  0
DICTIONARY
  5
137
330
31
100
AcDbDictionary
280
     1
281
     1
  3
ACAD_XREC_ROUNDTRIP
360
138
  0
DICTIONARY
  5
153
330
3F
100
AcDbDictionary
280
     1
281
     1
  3
ACAD_XREC_ROUNDTRIP
360
154
  0
DICTIONARY
  5
143
330
37
100
AcDbDictionary
280
     1
281
     1
  3
ACAD_XREC_ROUNDTRIP
360
144
  0
DICTIONARY
  5
155
330
40
100
AcDbDictionary
280
     1
281
     1
  3
ACAD_XREC_ROUNDTRIP
360
156
  0
DICTIONARY
  5
13B
330
33
100
AcDbDictionary
280
     1
281
     1
  3
ACAD_XREC_ROUNDTRIP
360
13C
  0
DICTIONARY
  5
151
330
3E
100
AcDbDictionary
280
     1
281
     1
  3
ACAD_XREC_ROUNDTRIP
360
152
  0
DICTIONARY
  5
14F
330
3D
100
AcDbDictionary
280
     1
281
     1
  3
ACAD_XREC_ROUNDTRIP
360
150
  0
DICTIONARY
  5
149
330
3A
100
AcDbDictionary
280
     1
281
     1
  3
ACAD_XREC_ROUNDTRIP
360
14A
  0
DICTIONARY
  5
14B
330
3B
100
AcDbDictionary
280
     1
281
     1
  3
ACAD_XREC_ROUNDTRIP
360
14C
  0
DICTIONARY
  5
141
330
36
100
AcDbDictionary
280
     1
281
     1
  3
ACAD_XREC_ROUNDTRIP
360
142
  0
DICTIONARY
  5
135
330
30
100
AcDbDictionary
280
     1
281
     1
  3
ACAD_XREC_ROUNDTRIP
360
136
  0
DICTIONARY
  5
14D
330
3C
100
AcDbDictionary
280
     1
281
     1
  3
ACAD_XREC_ROUNDTRIP
360
14E
  0
XRECORD
  5
15E
102
{ACAD_REACTORS
330
15D
102
}
330
15D
100
AcDbXrecord
280
     1
102
DISPLAYNAME
  1
Imperial24
102
FLAGS
 90
        0
  0
XRECORD
  5
1C
102
{ACAD_REACTORS
330
1A
102
}
330
1A
100
AcDbXrecord
280
     1
270
     1
271
     1
  0
XRECORD
  5
1B
102
{ACAD_REACTORS
330
1A
102
}
330
1A
100
AcDbXrecord
280
     1
270
     1
271
     1
  0
XRECORD
  5
1F
102
{ACAD_REACTORS
330
1A
102
}
330
1A
100
AcDbXrecord
280
     1
270
     1
271
     1
  0
XRECORD
  5
1E
102
{ACAD_REACTORS
330
1A
102
}
330
1A
100
AcDbXrecord
280
     1
270
     1
271
     1
  0
XRECORD
  5
20
102
{ACAD_REACTORS
330
1A
102
}
330
1A
100
AcDbXrecord
280
     1
270
     1
271
     1
  0
XRECORD
  5
1D
102
{ACAD_REACTORS
330
1A
102
}
330
1A
100
AcDbXrecord
280
     1
270
     1
271
     1
  0
XRECORD
  5
14
102
{ACAD_REACTORS
330
12
102
}
330
12
100
AcDbXrecord
280
     1
270
     1
271
     1
  0
XRECORD
  5
13
102
{ACAD_REACTORS
330
12
102
}
330
12
100
AcDbXrecord
280
     1
270
     1
271
     1
  0
XRECORD
  5
17
102
{ACAD_REACTORS
330
12
102
}
330
12
100
AcDbXrecord
280
     1
270
     1
271
     1
  0
XRECORD
  5
16
102
{ACAD_REACTORS
330
12
102
}
330
12
100
AcDbXrecord
280
     1
270
     1
271
     1
  0
XRECORD
  5
18
102
{ACAD_REACTORS
330
12
102
}
330
12
100
AcDbXrecord
280
     1
270
     1
271
     1
  0
XRECORD
  5
15
102
{ACAD_REACTORS
330
12
102
}
330
12
100
AcDbXrecord
280
     1
270
     1
271
     1
  0
XRECORD
  5
24
102
{ACAD_REACTORS
330
22
102
}
330
22
100
AcDbXrecord
280
     1
270
     1
271
     1
  0
XRECORD
  5
23
102
{ACAD_REACTORS
330
22
102
}
330
22
100
AcDbXrecord
280
     1
270
     1
271
     1
  0
XRECORD
  5
27
102
{ACAD_REACTORS
330
22
102
}
330
22
100
AcDbXrecord
280
     1
270
     1
271
     1
  0
XRECORD
  5
26
102
{ACAD_REACTORS
330
22
102
}
330
22
100
AcDbXrecord
280
     1
270
     1
271
     1
  0
XRECORD
  5
28
102
{ACAD_REACTORS
330
22
102
}
330
22
100
AcDbXrecord
280
     1
270
     1
271
     1
  0
XRECORD
  5
25
102
{ACAD_REACTORS
330
22
102
}
330
22
100
AcDbXrecord
280
     1
270
     1
271
     1
  0
XRECORD
  5
15A
102
{ACAD_REACTORS
330
159
102
}
330
159
100
AcDbXrecord
280
     1
102
ACAD_ROUNDTRIP_2012_MLEADER_STYLE
298
     1
  0
XRECORD
  5
15C
102
{ACAD_REACTORS
330
15B
102
}
330
15B
100
AcDbXrecord
280
     1
102
DISPLAYNAME
  1
Imperial24
102
FLAGS
 90
        0
  0
CELLSTYLEMAP
  5
127
102
{ACAD_REACTORS
330
126
102
}
330
126
100
AcDbCellStyleMap
 90
        3
300
CELLSTYLE
  1
TABLEFORMAT_BEGIN
 90
        5
170
     1
 91
        0
 92
    32768
 62
   257
 93
        1
300
CONTENTFORMAT
  1
CONTENTFORMAT_BEGIN
 90
        0
 91
        0
 92
      512
 93
        0
300

 40
0.0
140
1.0
 94
        5
 62
     0
340
55
144
0.25
309
CONTENTFORMAT_END
171
     0
 94
        0
309
TABLEFORMAT_END
  1
CELLSTYLE_BEGIN
 90
        1
 91
        1
300
_TITLE
309
CELLSTYLE_END
300
CELLSTYLE
  1
TABLEFORMAT_BEGIN
 90
        5
170
     1
 91
        0
 92
        0
 62
   257
 93
        1
300
CONTENTFORMAT
  1
CONTENTFORMAT_BEGIN
 90
        0
 91
        0
 92
      512
 93
        0
300

 40
0.0
140
1.0
 94
        5
 62
     0
340
55
144
0.18
309
CONTENTFORMAT_END
171
     0
 94
        0
309
TABLEFORMAT_END
  1
CELLSTYLE_BEGIN
 90
        2
 91
        1
300
_HEADER
309
CELLSTYLE_END
300
CELLSTYLE
  1
TABLEFORMAT_BEGIN
 90
        5
170
     1
 91
        0
 92
        0
 62
   257
 93
        1
300
CONTENTFORMAT
  1
CONTENTFORMAT_BEGIN
 90
        0
 91
        0
 92
      512
 93
        0
300

 40
0.0
140
1.0
 94
        2
 62
     0
340
55
144
0.18
309
CONTENTFORMAT_END
171
     0
 94
        0
309
TABLEFORMAT_END
  1
CELLSTYLE_BEGIN
 90
        3
 91
        2
300
_DATA
309
CELLSTYLE_END
  0
XRECORD
  5
134
102
{ACAD_REACTORS
330
133
102
}
330
133
100
AcDbXrecord
280
     1
102
RTVSPost2010Prop28
280
     1
102
RTVSPost2010PropOp28
 70
     1
102
RTVSPost2010Prop29
280
     1
102
RTVSPost2010PropOp29
 70
     1
102
RTVSPost2010Prop30
280
     0
102
RTVSPost2010PropOp30
 70
     1
102
RTVSPost2010Prop31
280
     0
102
RTVSPost2010PropOp31
 70
     1
102
RTVSPost2010Prop32
280
     0
102
RTVSPost2010PropOp32
 70
     1
102
RTVSPost2010Prop33
280
     0
102
RTVSPost2010PropOp33
 70
     1
102
RTVSPost2010Prop34
280
     0
102
RTVSPost2010PropOp34
 70
     1
102
RTVSPost2010Prop35
280
     0
102
RTVSPost2010PropOp35
 70
     1
102
RTVSPost2010Prop36
280
     0
102
RTVSPost2010PropOp36
 70
     1
102
RTVSPost2010Prop37
 90
       50
102
RTVSPost2010PropOp37
 70
     1
102
RTVSPost2010Prop38
140
0.0
102
RTVSPost2010PropOp38
 70
     1
102
RTVSPost2010Prop39
140
1.0
102
RTVSPost2010PropOp39
 70
     1
102
RTVSPost2010Prop40
 90
        0
102
RTVSPost2010PropOp40
 70
     1
102
RTVSPost2010Prop41ColorIndex
 90
       18
102
RTVSPost2010Prop41ColorRGB
 90
        0
102
RTVSPost2010PropOp41
 70
     1
102
RTVSPost2010Prop42
 90
       50
102
RTVSPost2010PropOp42
 70
     1
102
RTVSPost2010Prop43
 90
        3
102
RTVSPost2010PropOp43
 70
     1
102
RTVSPost2010Prop44ColorIndex
 90
        5
102
RTVSPost2010Prop44ColorRGB
 90
      255
102
RTVSPost2010PropOp44
 70
     1
102
RTVSPost2010Prop45
280
     0
102
RTVSPost2010PropOp45
 70
     1
102
RTVSPost2010Prop46
 90
       50
102
RTVSPost2010PropOp46
 70
     1
102
RTVSPost2010Prop47
 90
       50
102
RTVSPost2010PropOp47
 70
     1
102
RTVSPost2010Prop48
 90
       50
102
RTVSPost2010PropOp48
 70
     1
102
RTVSPost2010Prop49
280
     0
102
RTVSPost2010PropOp49
 70
     1
102
RTVSPost2010Prop50
 90
       50
102
RTVSPost2010PropOp50
 70
     1
102
RTVSPost2010Prop51ColorIndex
 90
      256
102
RTVSPost2010Prop51ColorRGB
 90
-16777216
102
RTVSPost2010PropOp51
 70
     0
102
RTVSPost2010Prop52
140
1.0
102
RTVSPost2010PropOp52
 70
     0
102
RTVSPost2010Prop53
 90
        2
102
RTVSPost2010PropOp53
 70
     1
102
RTVSPost2010Prop54
  1
strokes_ogs.tif
102
RTVSPost2010PropOp54
 70
     1
102
RTVSPost2010Prop55
280
     0
102
RTVSPost2010PropOp55
 70
     1
102
RTVSPost2010Prop56
140
1.0
102
RTVSPost2010PropOp56
 70
     1
102
RTVSPost2010Prop57
140
1.0
102
RTVSPost2010PropOp57
 70
     1
  0
XRECORD
  5
132
102
{ACAD_REACTORS
330
131
102
}
330
131
100
AcDbXrecord
280
     1
102
RTVSPost2010Prop28
280
     0
102
RTVSPost2010PropOp28
 70
     1
102
RTVSPost2010Prop29
280
     1
102
RTVSPost2010PropOp29
 70
     1
102
RTVSPost2010Prop30
280
     1
102
RTVSPost2010PropOp30
 70
     1
102
RTVSPost2010Prop31
280
     0
102
RTVSPost2010PropOp31
 70
     1
102
RTVSPost2010Prop32
280
     0
102
RTVSPost2010PropOp32
 70
     1
102
RTVSPost2010Prop33
280
     0
102
RTVSPost2010PropOp33
 70
     1
102
RTVSPost2010Prop34
280
     0
102
RTVSPost2010PropOp34
 70
     1
102
RTVSPost2010Prop35
280
     0
102
RTVSPost2010PropOp35
 70
     1
102
RTVSPost2010Prop36
280
     0
102
RTVSPost2010PropOp36
 70
     1
102
RTVSPost2010Prop37
 90
       50
102
RTVSPost2010PropOp37
 70
     1
102
RTVSPost2010Prop38
140
0.0
102
RTVSPost2010PropOp38
 70
     1
102
RTVSPost2010Prop39
140
1.0
102
RTVSPost2010PropOp39
 70
     1
102
RTVSPost2010Prop40
 90
        0
102
RTVSPost2010PropOp40
 70
     1
102
RTVSPost2010Prop41ColorIndex
 90
       18
102
RTVSPost2010Prop41ColorRGB
 90
        0
102
RTVSPost2010PropOp41
 70
     1
102
RTVSPost2010Prop42
 90
       50
102
RTVSPost2010PropOp42
 70
     1
102
RTVSPost2010Prop43
 90
        3
102
RTVSPost2010PropOp43
 70
     1
102
RTVSPost2010Prop44ColorIndex
 90
        5
102
RTVSPost2010Prop44ColorRGB
 90
      255
102
RTVSPost2010PropOp44
 70
     1
102
RTVSPost2010Prop45
280
     0
102
RTVSPost2010PropOp45
 70
     1
102
RTVSPost2010Prop46
 90
       50
102
RTVSPost2010PropOp46
 70
     1
102
RTVSPost2010Prop47
 90
       50
102
RTVSPost2010PropOp47
 70
     1
102
RTVSPost2010Prop48
 90
       50
102
RTVSPost2010PropOp48
 70
     1
102
RTVSPost2010Prop49
280
     0
102
RTVSPost2010PropOp49
 70
     1
102
RTVSPost2010Prop50
 90
       50
102
RTVSPost2010PropOp50
 70
     1
102
RTVSPost2010Prop51ColorIndex
 90
      256
102
RTVSPost2010Prop51ColorRGB
 90
-16777216
102
RTVSPost2010PropOp51
 70
     0
102
RTVSPost2010Prop52
140
1.0
102
RTVSPost2010PropOp52
 70
     0
102
RTVSPost2010Prop53
 90
        2
102
RTVSPost2010PropOp53
 70
     1
102
RTVSPost2010Prop54
  1
strokes_ogs.tif
102
RTVSPost2010PropOp54
 70
     1
102
RTVSPost2010Prop55
280
     0
102
RTVSPost2010PropOp55
 70
     1
102
RTVSPost2010Prop56
140
1.0
102
RTVSPost2010PropOp56
 70
     1
102
RTVSPost2010Prop57
140
1.0
102
RTVSPost2010PropOp57
 70
     1
  0
XRECORD
  5
140
102
{ACAD_REACTORS
330
13F
102
}
330
13F
100
AcDbXrecord
280
     1
102
RTVSPost2010Prop28
280
     0
102
RTVSPost2010PropOp28
 70
     1
102
RTVSPost2010Prop29
280
     1
102
RTVSPost2010PropOp29
 70
     1
102
RTVSPost2010Prop30
280
     1
102
RTVSPost2010PropOp30
 70
     1
102
RTVSPost2010Prop31
280
     0
102
RTVSPost2010PropOp31
 70
     1
102
RTVSPost2010Prop32
280
     0
102
RTVSPost2010PropOp32
 70
     1
102
RTVSPost2010Prop33
280
     0
102
RTVSPost2010PropOp33
 70
     1
102
RTVSPost2010Prop34
280
     0
102
RTVSPost2010PropOp34
 70
     1
102
RTVSPost2010Prop35
280
     0
102
RTVSPost2010PropOp35
 70
     1
102
RTVSPost2010Prop36
280
     0
102
RTVSPost2010PropOp36
 70
     1
102
RTVSPost2010Prop37
 90
       50
102
RTVSPost2010PropOp37
 70
     1
102
RTVSPost2010Prop38
140
0.0
102
RTVSPost2010PropOp38
 70
     1
102
RTVSPost2010Prop39
140
1.0
102
RTVSPost2010PropOp39
 70
     1
102
RTVSPost2010Prop40
 90
        0
102
RTVSPost2010PropOp40
 70
     1
102
RTVSPost2010Prop41ColorIndex
 90
       18
102
RTVSPost2010Prop41ColorRGB
 90
        0
102
RTVSPost2010PropOp41
 70
     1
102
RTVSPost2010Prop42
 90
       50
102
RTVSPost2010PropOp42
 70
     1
102
RTVSPost2010Prop43
 90
        3
102
RTVSPost2010PropOp43
 70
     1
102
RTVSPost2010Prop44ColorIndex
 90
        5
102
RTVSPost2010Prop44ColorRGB
 90
      255
102
RTVSPost2010PropOp44
 70
     1
102
RTVSPost2010Prop45
280
     0
102
RTVSPost2010PropOp45
 70
     1
102
RTVSPost2010Prop46
 90
       50
102
RTVSPost2010PropOp46
 70
     1
102
RTVSPost2010Prop47
 90
       50
102
RTVSPost2010PropOp47
 70
     1
102
RTVSPost2010Prop48
 90
       50
102
RTVSPost2010PropOp48
 70
     1
102
RTVSPost2010Prop49
280
     0
102
RTVSPost2010PropOp49
 70
     1
102
RTVSPost2010Prop50
 90
       50
102
RTVSPost2010PropOp50
 70
     1
102
RTVSPost2010Prop51ColorIndex
 90
      256
102
RTVSPost2010Prop51ColorRGB
 90
-16777216
102
RTVSPost2010PropOp51
 70
     0
102
RTVSPost2010Prop52
140
1.0
102
RTVSPost2010PropOp52
 70
     0
102
RTVSPost2010Prop53
 90
        2
102
RTVSPost2010PropOp53
 70
     1
102
RTVSPost2010Prop54
  1
strokes_ogs.tif
102
RTVSPost2010PropOp54
 70
     1
102
RTVSPost2010Prop55
280
     0
102
RTVSPost2010PropOp55
 70
     1
102
RTVSPost2010Prop56
140
1.0
102
RTVSPost2010PropOp56
 70
     1
102
RTVSPost2010Prop57
140
1.0
102
RTVSPost2010PropOp57
 70
     1
  0
XRECORD
  5
148
102
{ACAD_REACTORS
330
147
102
}
330
147
100
AcDbXrecord
280
     1
102
RTVSPost2010Prop28
280
     0
102
RTVSPost2010PropOp28
 70
     1
102
RTVSPost2010Prop29
280
     1
102
RTVSPost2010PropOp29
 70
     1
102
RTVSPost2010Prop30
280
     1
102
RTVSPost2010PropOp30
 70
     1
102
RTVSPost2010Prop31
280
     0
102
RTVSPost2010PropOp31
 70
     1
102
RTVSPost2010Prop32
280
     0
102
RTVSPost2010PropOp32
 70
     1
102
RTVSPost2010Prop33
280
     0
102
RTVSPost2010PropOp33
 70
     1
102
RTVSPost2010Prop34
280
     0
102
RTVSPost2010PropOp34
 70
     1
102
RTVSPost2010Prop35
280
     0
102
RTVSPost2010PropOp35
 70
     1
102
RTVSPost2010Prop36
280
     0
102
RTVSPost2010PropOp36
 70
     1
102
RTVSPost2010Prop37
 90
       50
102
RTVSPost2010PropOp37
 70
     1
102
RTVSPost2010Prop38
140
0.0
102
RTVSPost2010PropOp38
 70
     1
102
RTVSPost2010Prop39
140
1.0
102
RTVSPost2010PropOp39
 70
     1
102
RTVSPost2010Prop40
 90
        0
102
RTVSPost2010PropOp40
 70
     1
102
RTVSPost2010Prop41ColorIndex
 90
       18
102
RTVSPost2010Prop41ColorRGB
 90
        0
102
RTVSPost2010PropOp41
 70
     1
102
RTVSPost2010Prop42
 90
       50
102
RTVSPost2010PropOp42
 70
     1
102
RTVSPost2010Prop43
 90
        3
102
RTVSPost2010PropOp43
 70
     1
102
RTVSPost2010Prop44ColorIndex
 90
        5
102
RTVSPost2010Prop44ColorRGB
 90
      255
102
RTVSPost2010PropOp44
 70
     1
102
RTVSPost2010Prop45
280
     0
102
RTVSPost2010PropOp45
 70
     1
102
RTVSPost2010Prop46
 90
       50
102
RTVSPost2010PropOp46
 70
     1
102
RTVSPost2010Prop47
 90
       50
102
RTVSPost2010PropOp47
 70
     1
102
RTVSPost2010Prop48
 90
       50
102
RTVSPost2010PropOp48
 70
     1
102
RTVSPost2010Prop49
280
     0
102
RTVSPost2010PropOp49
 70
     1
102
RTVSPost2010Prop50
 90
       50
102
RTVSPost2010PropOp50
 70
     1
102
RTVSPost2010Prop51ColorIndex
 90
      256
102
RTVSPost2010Prop51ColorRGB
 90
-16777216
102
RTVSPost2010PropOp51
 70
     0
102
RTVSPost2010Prop52
140
1.0
102
RTVSPost2010PropOp52
 70
     0
102
RTVSPost2010Prop53
 90
        2
102
RTVSPost2010PropOp53
 70
     1
102
RTVSPost2010Prop54
  1
strokes_ogs.tif
102
RTVSPost2010PropOp54
 70
     1
102
RTVSPost2010Prop55
280
     0
102
RTVSPost2010PropOp55
 70
     1
102
RTVSPost2010Prop56
140
1.0
102
RTVSPost2010PropOp56
 70
     1
102
RTVSPost2010Prop57
140
1.0
102
RTVSPost2010PropOp57
 70
     1
  0
XRECORD
  5
13A
102
{ACAD_REACTORS
330
139
102
}
330
139
100
AcDbXrecord
280
     1
102
RTVSPost2010Prop28
280
     0
102
RTVSPost2010PropOp28
 70
     1
102
RTVSPost2010Prop29
280
     1
102
RTVSPost2010PropOp29
 70
     1
102
RTVSPost2010Prop30
280
     1
102
RTVSPost2010PropOp30
 70
     1
102
RTVSPost2010Prop31
280
     0
102
RTVSPost2010PropOp31
 70
     1
102
RTVSPost2010Prop32
280
     0
102
RTVSPost2010PropOp32
 70
     1
102
RTVSPost2010Prop33
280
     0
102
RTVSPost2010PropOp33
 70
     1
102
RTVSPost2010Prop34
280
     0
102
RTVSPost2010PropOp34
 70
     1
102
RTVSPost2010Prop35
280
     0
102
RTVSPost2010PropOp35
 70
     1
102
RTVSPost2010Prop36
280
     0
102
RTVSPost2010PropOp36
 70
     1
102
RTVSPost2010Prop37
 90
       50
102
RTVSPost2010PropOp37
 70
     1
102
RTVSPost2010Prop38
140
0.0
102
RTVSPost2010PropOp38
 70
     1
102
RTVSPost2010Prop39
140
1.0
102
RTVSPost2010PropOp39
 70
     1
102
RTVSPost2010Prop40
 90
        0
102
RTVSPost2010PropOp40
 70
     1
102
RTVSPost2010Prop41ColorIndex
 90
       18
102
RTVSPost2010Prop41ColorRGB
 90
        0
102
RTVSPost2010PropOp41
 70
     1
102
RTVSPost2010Prop42
 90
       50
102
RTVSPost2010PropOp42
 70
     1
102
RTVSPost2010Prop43
 90
        3
102
RTVSPost2010PropOp43
 70
     1
102
RTVSPost2010Prop44ColorIndex
 90
        5
102
RTVSPost2010Prop44ColorRGB
 90
      255
102
RTVSPost2010PropOp44
 70
     1
102
RTVSPost2010Prop45
280
     0
102
RTVSPost2010PropOp45
 70
     1
102
RTVSPost2010Prop46
 90
       50
102
RTVSPost2010PropOp46
 70
     1
102
RTVSPost2010Prop47
 90
       50
102
RTVSPost2010PropOp47
 70
     1
102
RTVSPost2010Prop48
 90
       50
102
RTVSPost2010PropOp48
 70
     1
102
RTVSPost2010Prop49
280
     0
102
RTVSPost2010PropOp49
 70
     1
102
RTVSPost2010Prop50
 90
       50
102
RTVSPost2010PropOp50
 70
     1
102
RTVSPost2010Prop51ColorIndex
 90
      256
102
RTVSPost2010Prop51ColorRGB
 90
-16777216
102
RTVSPost2010PropOp51
 70
     0
102
RTVSPost2010Prop52
140
1.0
102
RTVSPost2010PropOp52
 70
     0
102
RTVSPost2010Prop53
 90
        2
102
RTVSPost2010PropOp53
 70
     1
102
RTVSPost2010Prop54
  1
strokes_ogs.tif
102
RTVSPost2010PropOp54
 70
     1
102
RTVSPost2010Prop55
280
     0
102
RTVSPost2010PropOp55
 70
     1
102
RTVSPost2010Prop56
140
1.0
102
RTVSPost2010PropOp56
 70
     1
102
RTVSPost2010Prop57
140
1.0
102
RTVSPost2010PropOp57
 70
     1
  0
XRECORD
  5
13E
102
{ACAD_REACTORS
330
13D
102
}
330
13D
100
AcDbXrecord
280
     1
102
RTVSPost2010Prop28
280
     0
102
RTVSPost2010PropOp28
 70
     1
102
RTVSPost2010Prop29
280
     1
102
RTVSPost2010PropOp29
 70
     1
102
RTVSPost2010Prop30
280
     1
102
RTVSPost2010PropOp30
 70
     1
102
RTVSPost2010Prop31
280
     0
102
RTVSPost2010PropOp31
 70
     1
102
RTVSPost2010Prop32
280
     0
102
RTVSPost2010PropOp32
 70
     1
102
RTVSPost2010Prop33
280
     0
102
RTVSPost2010PropOp33
 70
     1
102
RTVSPost2010Prop34
280
     0
102
RTVSPost2010PropOp34
 70
     1
102
RTVSPost2010Prop35
280
     0
102
RTVSPost2010PropOp35
 70
     1
102
RTVSPost2010Prop36
280
     0
102
RTVSPost2010PropOp36
 70
     1
102
RTVSPost2010Prop37
 90
       50
102
RTVSPost2010PropOp37
 70
     1
102
RTVSPost2010Prop38
140
0.0
102
RTVSPost2010PropOp38
 70
     1
102
RTVSPost2010Prop39
140
1.0
102
RTVSPost2010PropOp39
 70
     1
102
RTVSPost2010Prop40
 90
        0
102
RTVSPost2010PropOp40
 70
     1
102
RTVSPost2010Prop41ColorIndex
 90
       18
102
RTVSPost2010Prop41ColorRGB
 90
        0
102
RTVSPost2010PropOp41
 70
     1
102
RTVSPost2010Prop42
 90
       50
102
RTVSPost2010PropOp42
 70
     1
102
RTVSPost2010Prop43
 90
        3
102
RTVSPost2010PropOp43
 70
     1
102
RTVSPost2010Prop44ColorIndex
 90
        5
102
RTVSPost2010Prop44ColorRGB
 90
      255
102
RTVSPost2010PropOp44
 70
     1
102
RTVSPost2010Prop45
280
     0
102
RTVSPost2010PropOp45
 70
     1
102
RTVSPost2010Prop46
 90
       50
102
RTVSPost2010PropOp46
 70
     1
102
RTVSPost2010Prop47
 90
       50
102
RTVSPost2010PropOp47
 70
     1
102
RTVSPost2010Prop48
 90
       50
102
RTVSPost2010PropOp48
 70
     1
102
RTVSPost2010Prop49
280
     0
102
RTVSPost2010PropOp49
 70
     1
102
RTVSPost2010Prop50
 90
       50
102
RTVSPost2010PropOp50
 70
     1
102
RTVSPost2010Prop51ColorIndex
 90
      256
102
RTVSPost2010Prop51ColorRGB
 90
-16777216
102
RTVSPost2010PropOp51
 70
     0
102
RTVSPost2010Prop52
140
1.0
102
RTVSPost2010PropOp52
 70
     0
102
RTVSPost2010Prop53
 90
        2
102
RTVSPost2010PropOp53
 70
     1
102
RTVSPost2010Prop54
  1
strokes_ogs.tif
102
RTVSPost2010PropOp54
 70
     1
102
RTVSPost2010Prop55
280
     0
102
RTVSPost2010PropOp55
 70
     1
102
RTVSPost2010Prop56
140
1.0
102
RTVSPost2010PropOp56
 70
     1
102
RTVSPost2010Prop57
140
1.0
102
RTVSPost2010PropOp57
 70
     1
  0
XRECORD
  5
158
102
{ACAD_REACTORS
330
157
102
}
330
157
100
AcDbXrecord
280
     1
102
RTVSPost2010Prop28
280
     0
102
RTVSPost2010PropOp28
 70
     0
102
RTVSPost2010Prop29
280
     1
102
RTVSPost2010PropOp29
 70
     0
102
RTVSPost2010Prop30
280
     1
102
RTVSPost2010PropOp30
 70
     0
102
RTVSPost2010Prop31
280
     0
102
RTVSPost2010PropOp31
 70
     0
102
RTVSPost2010Prop32
280
     0
102
RTVSPost2010PropOp32
 70
     0
102
RTVSPost2010Prop33
280
     0
102
RTVSPost2010PropOp33
 70
     0
102
RTVSPost2010Prop34
280
     0
102
RTVSPost2010PropOp34
 70
     0
102
RTVSPost2010Prop35
280
     0
102
RTVSPost2010PropOp35
 70
     0
102
RTVSPost2010Prop36
280
     0
102
RTVSPost2010PropOp36
 70
     0
102
RTVSPost2010Prop37
 90
       50
102
RTVSPost2010PropOp37
 70
     0
102
RTVSPost2010Prop38
140
0.0
102
RTVSPost2010PropOp38
 70
     0
102
RTVSPost2010Prop39
140
1.0
102
RTVSPost2010PropOp39
 70
     0
102
RTVSPost2010Prop40
 90
        0
102
RTVSPost2010PropOp40
 70
     0
102
RTVSPost2010Prop41ColorIndex
 90
       18
102
RTVSPost2010Prop41ColorRGB
 90
        0
102
RTVSPost2010PropOp41
 70
     0
102
RTVSPost2010Prop42
 90
       50
102
RTVSPost2010PropOp42
 70
     0
102
RTVSPost2010Prop43
 90
        3
102
RTVSPost2010PropOp43
 70
     0
102
RTVSPost2010Prop44ColorIndex
 90
        5
102
RTVSPost2010Prop44ColorRGB
 90
      255
102
RTVSPost2010PropOp44
 70
     0
102
RTVSPost2010Prop45
280
     0
102
RTVSPost2010PropOp45
 70
     0
102
RTVSPost2010Prop46
 90
       50
102
RTVSPost2010PropOp46
 70
     0
102
RTVSPost2010Prop47
 90
       50
102
RTVSPost2010PropOp47
 70
     0
102
RTVSPost2010Prop48
 90
       50
102
RTVSPost2010PropOp48
 70
     0
102
RTVSPost2010Prop49
280
     0
102
RTVSPost2010PropOp49
 70
     0
102
RTVSPost2010Prop50
 90
       50
102
RTVSPost2010PropOp50
 70
     0
102
RTVSPost2010Prop51ColorIndex
 90
      256
102
RTVSPost2010Prop51ColorRGB
 90
-16777216
102
RTVSPost2010PropOp51
 70
     0
102
RTVSPost2010Prop52
140
1.0
102
RTVSPost2010PropOp52
 70
     0
102
RTVSPost2010Prop53
 90
        2
102
RTVSPost2010PropOp53
 70
     0
102
RTVSPost2010Prop54
  1
strokes_ogs.tif
102
RTVSPost2010PropOp54
 70
     0
102
RTVSPost2010Prop55
280
     0
102
RTVSPost2010PropOp55
 70
     0
102
RTVSPost2010Prop56
140
1.0
102
RTVSPost2010PropOp56
 70
     0
102
RTVSPost2010Prop57
140
1.0
102
RTVSPost2010PropOp57
 70
     0
  0
XRECORD
  5
146
102
{ACAD_REACTORS
330
145
102
}
330
145
100
AcDbXrecord
280
     1
102
RTVSPost2010Prop28
280
     0
102
RTVSPost2010PropOp28
 70
     1
102
RTVSPost2010Prop29
280
     1
102
RTVSPost2010PropOp29
 70
     1
102
RTVSPost2010Prop30
280
     1
102
RTVSPost2010PropOp30
 70
     1
102
RTVSPost2010Prop31
280
     0
102
RTVSPost2010PropOp31
 70
     1
102
RTVSPost2010Prop32
280
     0
102
RTVSPost2010PropOp32
 70
     1
102
RTVSPost2010Prop33
280
     0
102
RTVSPost2010PropOp33
 70
     1
102
RTVSPost2010Prop34
280
     0
102
RTVSPost2010PropOp34
 70
     1
102
RTVSPost2010Prop35
280
     0
102
RTVSPost2010PropOp35
 70
     1
102
RTVSPost2010Prop36
280
     0
102
RTVSPost2010PropOp36
 70
     1
102
RTVSPost2010Prop37
 90
       50
102
RTVSPost2010PropOp37
 70
     1
102
RTVSPost2010Prop38
140
0.0
102
RTVSPost2010PropOp38
 70
     1
102
RTVSPost2010Prop39
140
1.0
102
RTVSPost2010PropOp39
 70
     1
102
RTVSPost2010Prop40
 90
        0
102
RTVSPost2010PropOp40
 70
     1
102
RTVSPost2010Prop41ColorIndex
 90
       18
102
RTVSPost2010Prop41ColorRGB
 90
        0
102
RTVSPost2010PropOp41
 70
     1
102
RTVSPost2010Prop42
 90
       50
102
RTVSPost2010PropOp42
 70
     1
102
RTVSPost2010Prop43
 90
        3
102
RTVSPost2010PropOp43
 70
     1
102
RTVSPost2010Prop44ColorIndex
 90
        5
102
RTVSPost2010Prop44ColorRGB
 90
      255
102
RTVSPost2010PropOp44
 70
     1
102
RTVSPost2010Prop45
280
     0
102
RTVSPost2010PropOp45
 70
     1
102
RTVSPost2010Prop46
 90
       50
102
RTVSPost2010PropOp46
 70
     1
102
RTVSPost2010Prop47
 90
       50
102
RTVSPost2010PropOp47
 70
     1
102
RTVSPost2010Prop48
 90
       50
102
RTVSPost2010PropOp48
 70
     1
102
RTVSPost2010Prop49
280
     0
102
RTVSPost2010PropOp49
 70
     1
102
RTVSPost2010Prop50
 90
       50
102
RTVSPost2010PropOp50
 70
     1
102
RTVSPost2010Prop51ColorIndex
 90
      256
102
RTVSPost2010Prop51ColorRGB
 90
-16777216
102
RTVSPost2010PropOp51
 70
     0
102
RTVSPost2010Prop52
140
1.0
102
RTVSPost2010PropOp52
 70
     0
102
RTVSPost2010Prop53
 90
        2
102
RTVSPost2010PropOp53
 70
     1
102
RTVSPost2010Prop54
  1
strokes_ogs.tif
102
RTVSPost2010PropOp54
 70
     1
102
RTVSPost2010Prop55
280
     0
102
RTVSPost2010PropOp55
 70
     1
102
RTVSPost2010Prop56
140
1.0
102
RTVSPost2010PropOp56
 70
     1
102
RTVSPost2010Prop57
140
1.0
102
RTVSPost2010PropOp57
 70
     1
  0
XRECORD
  5
12A
102
{ACAD_REACTORS
330
129
102
}
330
129
100
AcDbXrecord
280
     1
102
RTVSPost2010Prop28
280
     0
102
RTVSPost2010PropOp28
 70
     1
102
RTVSPost2010Prop29
280
     1
102
RTVSPost2010PropOp29
 70
     1
102
RTVSPost2010Prop30
280
     1
102
RTVSPost2010PropOp30
 70
     1
102
RTVSPost2010Prop31
280
     0
102
RTVSPost2010PropOp31
 70
     1
102
RTVSPost2010Prop32
280
     0
102
RTVSPost2010PropOp32
 70
     1
102
RTVSPost2010Prop33
280
     0
102
RTVSPost2010PropOp33
 70
     1
102
RTVSPost2010Prop34
280
     0
102
RTVSPost2010PropOp34
 70
     1
102
RTVSPost2010Prop35
280
     0
102
RTVSPost2010PropOp35
 70
     1
102
RTVSPost2010Prop36
280
     0
102
RTVSPost2010PropOp36
 70
     1
102
RTVSPost2010Prop37
 90
       50
102
RTVSPost2010PropOp37
 70
     1
102
RTVSPost2010Prop38
140
0.0
102
RTVSPost2010PropOp38
 70
     1
102
RTVSPost2010Prop39
140
1.0
102
RTVSPost2010PropOp39
 70
     1
102
RTVSPost2010Prop40
 90
        0
102
RTVSPost2010PropOp40
 70
     1
102
RTVSPost2010Prop41ColorIndex
 90
       18
102
RTVSPost2010Prop41ColorRGB
 90
        0
102
RTVSPost2010PropOp41
 70
     1
102
RTVSPost2010Prop42
 90
       50
102
RTVSPost2010PropOp42
 70
     1
102
RTVSPost2010Prop43
 90
        3
102
RTVSPost2010PropOp43
 70
     1
102
RTVSPost2010Prop44ColorIndex
 90
        5
102
RTVSPost2010Prop44ColorRGB
 90
      255
102
RTVSPost2010PropOp44
 70
     1
102
RTVSPost2010Prop45
280
     0
102
RTVSPost2010PropOp45
 70
     1
102
RTVSPost2010Prop46
 90
       50
102
RTVSPost2010PropOp46
 70
     1
102
RTVSPost2010Prop47
 90
       50
102
RTVSPost2010PropOp47
 70
     1
102
RTVSPost2010Prop48
 90
       50
102
RTVSPost2010PropOp48
 70
     1
102
RTVSPost2010Prop49
280
     0
102
RTVSPost2010PropOp49
 70
     1
102
RTVSPost2010Prop50
 90
       50
102
RTVSPost2010PropOp50
 70
     1
102
RTVSPost2010Prop51ColorIndex
 90
      256
102
RTVSPost2010Prop51ColorRGB
 90
-16777216
102
RTVSPost2010PropOp51
 70
     0
102
RTVSPost2010Prop52
140
1.0
102
RTVSPost2010PropOp52
 70
     0
102
RTVSPost2010Prop53
 90
        2
102
RTVSPost2010PropOp53
 70
     1
102
RTVSPost2010Prop54
  1
strokes_ogs.tif
102
RTVSPost2010PropOp54
 70
     1
102
RTVSPost2010Prop55
280
     0
102
RTVSPost2010PropOp55
 70
     1
102
RTVSPost2010Prop56
140
1.0
102
RTVSPost2010PropOp56
 70
     1
102
RTVSPost2010Prop57
140
1.0
102
RTVSPost2010PropOp57
 70
     1
  0
XRECORD
  5
12C
102
{ACAD_REACTORS
330
12B
102
}
330
12B
100
AcDbXrecord
280
     1
102
RTVSPost2010Prop28
280
     0
102
RTVSPost2010PropOp28
 70
     1
102
RTVSPost2010Prop29
280
     1
102
RTVSPost2010PropOp29
 70
     1
102
RTVSPost2010Prop30
280
     1
102
RTVSPost2010PropOp30
 70
     1
102
RTVSPost2010Prop31
280
     0
102
RTVSPost2010PropOp31
 70
     1
102
RTVSPost2010Prop32
280
     0
102
RTVSPost2010PropOp32
 70
     1
102
RTVSPost2010Prop33
280
     0
102
RTVSPost2010PropOp33
 70
     1
102
RTVSPost2010Prop34
280
     0
102
RTVSPost2010PropOp34
 70
     1
102
RTVSPost2010Prop35
280
     0
102
RTVSPost2010PropOp35
 70
     1
102
RTVSPost2010Prop36
280
     0
102
RTVSPost2010PropOp36
 70
     1
102
RTVSPost2010Prop37
 90
       50
102
RTVSPost2010PropOp37
 70
     1
102
RTVSPost2010Prop38
140
0.0
102
RTVSPost2010PropOp38
 70
     1
102
RTVSPost2010Prop39
140
1.0
102
RTVSPost2010PropOp39
 70
     1
102
RTVSPost2010Prop40
 90
        0
102
RTVSPost2010PropOp40
 70
     1
102
RTVSPost2010Prop41ColorIndex
 90
       18
102
RTVSPost2010Prop41ColorRGB
 90
        0
102
RTVSPost2010PropOp41
 70
     1
102
RTVSPost2010Prop42
 90
       50
102
RTVSPost2010PropOp42
 70
     1
102
RTVSPost2010Prop43
 90
        3
102
RTVSPost2010PropOp43
 70
     1
102
RTVSPost2010Prop44ColorIndex
 90
        5
102
RTVSPost2010Prop44ColorRGB
 90
      255
102
RTVSPost2010PropOp44
 70
     1
102
RTVSPost2010Prop45
280
     0
102
RTVSPost2010PropOp45
 70
     1
102
RTVSPost2010Prop46
 90
       50
102
RTVSPost2010PropOp46
 70
     1
102
RTVSPost2010Prop47
 90
       50
102
RTVSPost2010PropOp47
 70
     1
102
RTVSPost2010Prop48
 90
       50
102
RTVSPost2010PropOp48
 70
     1
102
RTVSPost2010Prop49
280
     0
102
RTVSPost2010PropOp49
 70
     1
102
RTVSPost2010Prop50
 90
       50
102
RTVSPost2010PropOp50
 70
     1
102
RTVSPost2010Prop51ColorIndex
 90
      256
102
RTVSPost2010Prop51ColorRGB
 90
-16777216
102
RTVSPost2010PropOp51
 70
     0
102
RTVSPost2010Prop52
140
1.0
102
RTVSPost2010PropOp52
 70
     0
102
RTVSPost2010Prop53
 90
        2
102
RTVSPost2010PropOp53
 70
     1
102
RTVSPost2010Prop54
  1
strokes_ogs.tif
102
RTVSPost2010PropOp54
 70
     1
102
RTVSPost2010Prop55
280
     0
102
RTVSPost2010PropOp55
 70
     1
102
RTVSPost2010Prop56
140
1.0
102
RTVSPost2010PropOp56
 70
     1
102
RTVSPost2010Prop57
140
1.0
102
RTVSPost2010PropOp57
 70
     1
  0
XRECORD
  5
12E
102
{ACAD_REACTORS
330
12D
102
}
330
12D
100
AcDbXrecord
280
     1
102
RTVSPost2010Prop28
280
     0
102
RTVSPost2010PropOp28
 70
     1
102
RTVSPost2010Prop29
280
     1
102
RTVSPost2010PropOp29
 70
     1
102
RTVSPost2010Prop30
280
     1
102
RTVSPost2010PropOp30
 70
     1
102
RTVSPost2010Prop31
280
     0
102
RTVSPost2010PropOp31
 70
     1
102
RTVSPost2010Prop32
280
     0
102
RTVSPost2010PropOp32
 70
     1
102
RTVSPost2010Prop33
280
     0
102
RTVSPost2010PropOp33
 70
     1
102
RTVSPost2010Prop34
280
     0
102
RTVSPost2010PropOp34
 70
     1
102
RTVSPost2010Prop35
280
     0
102
RTVSPost2010PropOp35
 70
     1
102
RTVSPost2010Prop36
280
     0
102
RTVSPost2010PropOp36
 70
     1
102
RTVSPost2010Prop37
 90
       50
102
RTVSPost2010PropOp37
 70
     1
102
RTVSPost2010Prop38
140
0.0
102
RTVSPost2010PropOp38
 70
     1
102
RTVSPost2010Prop39
140
1.0
102
RTVSPost2010PropOp39
 70
     1
102
RTVSPost2010Prop40
 90
        0
102
RTVSPost2010PropOp40
 70
     1
102
RTVSPost2010Prop41ColorIndex
 90
       18
102
RTVSPost2010Prop41ColorRGB
 90
        0
102
RTVSPost2010PropOp41
 70
     1
102
RTVSPost2010Prop42
 90
       50
102
RTVSPost2010PropOp42
 70
     1
102
RTVSPost2010Prop43
 90
        3
102
RTVSPost2010PropOp43
 70
     1
102
RTVSPost2010Prop44ColorIndex
 90
        5
102
RTVSPost2010Prop44ColorRGB
 90
      255
102
RTVSPost2010PropOp44
 70
     1
102
RTVSPost2010Prop45
280
     0
102
RTVSPost2010PropOp45
 70
     1
102
RTVSPost2010Prop46
 90
       50
102
RTVSPost2010PropOp46
 70
     1
102
RTVSPost2010Prop47
 90
       50
102
RTVSPost2010PropOp47
 70
     1
102
RTVSPost2010Prop48
 90
       50
102
RTVSPost2010PropOp48
 70
     1
102
RTVSPost2010Prop49
280
     0
102
RTVSPost2010PropOp49
 70
     1
102
RTVSPost2010Prop50
 90
       50
102
RTVSPost2010PropOp50
 70
     1
102
RTVSPost2010Prop51ColorIndex
 90
      256
102
RTVSPost2010Prop51ColorRGB
 90
-16777216
102
RTVSPost2010PropOp51
 70
     0
102
RTVSPost2010Prop52
140
1.0
102
RTVSPost2010PropOp52
 70
     0
102
RTVSPost2010Prop53
 90
        2
102
RTVSPost2010PropOp53
 70
     1
102
RTVSPost2010Prop54
  1
strokes_ogs.tif
102
RTVSPost2010PropOp54
 70
     1
102
RTVSPost2010Prop55
280
     0
102
RTVSPost2010PropOp55
 70
     1
102
RTVSPost2010Prop56
140
1.0
102
RTVSPost2010PropOp56
 70
     1
102
RTVSPost2010Prop57
140
1.0
102
RTVSPost2010PropOp57
 70
     1
  0
XRECORD
  5
130
102
{ACAD_REACTORS
330
12F
102
}
330
12F
100
AcDbXrecord
280
     1
102
RTVSPost2010Prop28
280
     0
102
RTVSPost2010PropOp28
 70
     1
102
RTVSPost2010Prop29
280
     1
102
RTVSPost2010PropOp29
 70
     1
102
RTVSPost2010Prop30
280
     1
102
RTVSPost2010PropOp30
 70
     1
102
RTVSPost2010Prop31
280
     0
102
RTVSPost2010PropOp31
 70
     1
102
RTVSPost2010Prop32
280
     0
102
RTVSPost2010PropOp32
 70
     1
102
RTVSPost2010Prop33
280
     0
102
RTVSPost2010PropOp33
 70
     1
102
RTVSPost2010Prop34
280
     0
102
RTVSPost2010PropOp34
 70
     1
102
RTVSPost2010Prop35
280
     0
102
RTVSPost2010PropOp35
 70
     1
102
RTVSPost2010Prop36
280
     0
102
RTVSPost2010PropOp36
 70
     1
102
RTVSPost2010Prop37
 90
       50
102
RTVSPost2010PropOp37
 70
     1
102
RTVSPost2010Prop38
140
0.0
102
RTVSPost2010PropOp38
 70
     1
102
RTVSPost2010Prop39
140
1.0
102
RTVSPost2010PropOp39
 70
     1
102
RTVSPost2010Prop40
 90
        0
102
RTVSPost2010PropOp40
 70
     1
102
RTVSPost2010Prop41ColorIndex
 90
       18
102
RTVSPost2010Prop41ColorRGB
 90
        0
102
RTVSPost2010PropOp41
 70
     1
102
RTVSPost2010Prop42
 90
       50
102
RTVSPost2010PropOp42
 70
     1
102
RTVSPost2010Prop43
 90
        3
102
RTVSPost2010PropOp43
 70
     1
102
RTVSPost2010Prop44ColorIndex
 90
        5
102
RTVSPost2010Prop44ColorRGB
 90
      255
102
RTVSPost2010PropOp44
 70
     1
102
RTVSPost2010Prop45
280
     0
102
RTVSPost2010PropOp45
 70
     1
102
RTVSPost2010Prop46
 90
       50
102
RTVSPost2010PropOp46
 70
     1
102
RTVSPost2010Prop47
 90
       50
102
RTVSPost2010PropOp47
 70
     1
102
RTVSPost2010Prop48
 90
       50
102
RTVSPost2010PropOp48
 70
     1
102
RTVSPost2010Prop49
280
     0
102
RTVSPost2010PropOp49
 70
     1
102
RTVSPost2010Prop50
 90
       50
102
RTVSPost2010PropOp50
 70
     1
102
RTVSPost2010Prop51ColorIndex
 90
      256
102
RTVSPost2010Prop51ColorRGB
 90
-16777216
102
RTVSPost2010PropOp51
 70
     0
102
RTVSPost2010Prop52
140
1.0
102
RTVSPost2010PropOp52
 70
     0
102
RTVSPost2010Prop53
 90
        2
102
RTVSPost2010PropOp53
 70
     1
102
RTVSPost2010Prop54
  1
strokes_ogs.tif
102
RTVSPost2010PropOp54
 70
     1
102
RTVSPost2010Prop55
280
     0
102
RTVSPost2010PropOp55
 70
     1
102
RTVSPost2010Prop56
140
1.0
102
RTVSPost2010PropOp56
 70
     1
102
RTVSPost2010Prop57
140
1.0
102
RTVSPost2010PropOp57
 70
     1
  0
XRECORD
  5
138
102
{ACAD_REACTORS
330
137
102
}
330
137
100
AcDbXrecord
280
     1
102
RTVSPost2010Prop28
280
     0
102
RTVSPost2010PropOp28
 70
     1
102
RTVSPost2010Prop29
280
     1
102
RTVSPost2010PropOp29
 70
     1
102
RTVSPost2010Prop30
280
     1
102
RTVSPost2010PropOp30
 70
     1
102
RTVSPost2010Prop31
280
     0
102
RTVSPost2010PropOp31
 70
     1
102
RTVSPost2010Prop32
280
     0
102
RTVSPost2010PropOp32
 70
     1
102
RTVSPost2010Prop33
280
     0
102
RTVSPost2010PropOp33
 70
     1
102
RTVSPost2010Prop34
280
     0
102
RTVSPost2010PropOp34
 70
     1
102
RTVSPost2010Prop35
280
     0
102
RTVSPost2010PropOp35
 70
     1
102
RTVSPost2010Prop36
280
     0
102
RTVSPost2010PropOp36
 70
     1
102
RTVSPost2010Prop37
 90
       50
102
RTVSPost2010PropOp37
 70
     1
102
RTVSPost2010Prop38
140
0.0
102
RTVSPost2010PropOp38
 70
     1
102
RTVSPost2010Prop39
140
1.0
102
RTVSPost2010PropOp39
 70
     1
102
RTVSPost2010Prop40
 90
        0
102
RTVSPost2010PropOp40
 70
     1
102
RTVSPost2010Prop41ColorIndex
 90
       18
102
RTVSPost2010Prop41ColorRGB
 90
        0
102
RTVSPost2010PropOp41
 70
     1
102
RTVSPost2010Prop42
 90
       50
102
RTVSPost2010PropOp42
 70
     1
102
RTVSPost2010Prop43
 90
        3
102
RTVSPost2010PropOp43
 70
     1
102
RTVSPost2010Prop44ColorIndex
 90
        5
102
RTVSPost2010Prop44ColorRGB
 90
      255
102
RTVSPost2010PropOp44
 70
     1
102
RTVSPost2010Prop45
280
     0
102
RTVSPost2010PropOp45
 70
     1
102
RTVSPost2010Prop46
 90
       50
102
RTVSPost2010PropOp46
 70
     1
102
RTVSPost2010Prop47
 90
       50
102
RTVSPost2010PropOp47
 70
     1
102
RTVSPost2010Prop48
 90
       50
102
RTVSPost2010PropOp48
 70
     1
102
RTVSPost2010Prop49
280
     0
102
RTVSPost2010PropOp49
 70
     1
102
RTVSPost2010Prop50
 90
       50
102
RTVSPost2010PropOp50
 70
     1
102
RTVSPost2010Prop51ColorIndex
 90
      256
102
RTVSPost2010Prop51ColorRGB
 90
-16777216
102
RTVSPost2010PropOp51
 70
     0
102
RTVSPost2010Prop52
140
1.0
102
RTVSPost2010PropOp52
 70
     0
102
RTVSPost2010Prop53
 90
        2
102
RTVSPost2010PropOp53
 70
     1
102
RTVSPost2010Prop54
  1
strokes_ogs.tif
102
RTVSPost2010PropOp54
 70
     1
102
RTVSPost2010Prop55
280
     0
102
RTVSPost2010PropOp55
 70
     1
102
RTVSPost2010Prop56
140
1.0
102
RTVSPost2010PropOp56
 70
     1
102
RTVSPost2010Prop57
140
1.0
102
RTVSPost2010PropOp57
 70
     1
  0
XRECORD
  5
154
102
{ACAD_REACTORS
330
153
102
}
330
153
100
AcDbXrecord
280
     1
102
RTVSPost2010Prop28
280
     0
102
RTVSPost2010PropOp28
 70
     0
102
RTVSPost2010Prop29
280
     1
102
RTVSPost2010PropOp29
 70
     0
102
RTVSPost2010Prop30
280
     1
102
RTVSPost2010PropOp30
 70
     0
102
RTVSPost2010Prop31
280
     0
102
RTVSPost2010PropOp31
 70
     0
102
RTVSPost2010Prop32
280
     0
102
RTVSPost2010PropOp32
 70
     0
102
RTVSPost2010Prop33
280
     0
102
RTVSPost2010PropOp33
 70
     0
102
RTVSPost2010Prop34
280
     0
102
RTVSPost2010PropOp34
 70
     0
102
RTVSPost2010Prop35
280
     0
102
RTVSPost2010PropOp35
 70
     0
102
RTVSPost2010Prop36
280
     0
102
RTVSPost2010PropOp36
 70
     0
102
RTVSPost2010Prop37
 90
       50
102
RTVSPost2010PropOp37
 70
     0
102
RTVSPost2010Prop38
140
0.0
102
RTVSPost2010PropOp38
 70
     0
102
RTVSPost2010Prop39
140
1.0
102
RTVSPost2010PropOp39
 70
     0
102
RTVSPost2010Prop40
 90
        0
102
RTVSPost2010PropOp40
 70
     0
102
RTVSPost2010Prop41ColorIndex
 90
       18
102
RTVSPost2010Prop41ColorRGB
 90
        0
102
RTVSPost2010PropOp41
 70
     0
102
RTVSPost2010Prop42
 90
       50
102
RTVSPost2010PropOp42
 70
     0
102
RTVSPost2010Prop43
 90
        3
102
RTVSPost2010PropOp43
 70
     0
102
RTVSPost2010Prop44ColorIndex
 90
        5
102
RTVSPost2010Prop44ColorRGB
 90
      255
102
RTVSPost2010PropOp44
 70
     0
102
RTVSPost2010Prop45
280
     0
102
RTVSPost2010PropOp45
 70
     0
102
RTVSPost2010Prop46
 90
       50
102
RTVSPost2010PropOp46
 70
     0
102
RTVSPost2010Prop47
 90
       50
102
RTVSPost2010PropOp47
 70
     0
102
RTVSPost2010Prop48
 90
       50
102
RTVSPost2010PropOp48
 70
     0
102
RTVSPost2010Prop49
280
     0
102
RTVSPost2010PropOp49
 70
     0
102
RTVSPost2010Prop50
 90
       50
102
RTVSPost2010PropOp50
 70
     0
102
RTVSPost2010Prop51ColorIndex
 90
      256
102
RTVSPost2010Prop51ColorRGB
 90
-16777216
102
RTVSPost2010PropOp51
 70
     0
102
RTVSPost2010Prop52
140
1.0
102
RTVSPost2010PropOp52
 70
     0
102
RTVSPost2010Prop53
 90
        2
102
RTVSPost2010PropOp53
 70
     0
102
RTVSPost2010Prop54
  1
strokes_ogs.tif
102
RTVSPost2010PropOp54
 70
     0
102
RTVSPost2010Prop55
280
     0
102
RTVSPost2010PropOp55
 70
     0
102
RTVSPost2010Prop56
140
1.0
102
RTVSPost2010PropOp56
 70
     0
102
RTVSPost2010Prop57
140
1.0
102
RTVSPost2010PropOp57
 70
     0
  0
XRECORD
  5
144
102
{ACAD_REACTORS
330
143
102
}
330
143
100
AcDbXrecord
280
     1
102
RTVSPost2010Prop28
280
     0
102
RTVSPost2010PropOp28
 70
     1
102
RTVSPost2010Prop29
280
     1
102
RTVSPost2010PropOp29
 70
     1
102
RTVSPost2010Prop30
280
     1
102
RTVSPost2010PropOp30
 70
     1
102
RTVSPost2010Prop31
280
     0
102
RTVSPost2010PropOp31
 70
     1
102
RTVSPost2010Prop32
280
     0
102
RTVSPost2010PropOp32
 70
     1
102
RTVSPost2010Prop33
280
     0
102
RTVSPost2010PropOp33
 70
     1
102
RTVSPost2010Prop34
280
     0
102
RTVSPost2010PropOp34
 70
     1
102
RTVSPost2010Prop35
280
     0
102
RTVSPost2010PropOp35
 70
     1
102
RTVSPost2010Prop36
280
     0
102
RTVSPost2010PropOp36
 70
     1
102
RTVSPost2010Prop37
 90
       50
102
RTVSPost2010PropOp37
 70
     1
102
RTVSPost2010Prop38
140
0.0
102
RTVSPost2010PropOp38
 70
     1
102
RTVSPost2010Prop39
140
1.0
102
RTVSPost2010PropOp39
 70
     1
102
RTVSPost2010Prop40
 90
        0
102
RTVSPost2010PropOp40
 70
     1
102
RTVSPost2010Prop41ColorIndex
 90
       18
102
RTVSPost2010Prop41ColorRGB
 90
        0
102
RTVSPost2010PropOp41
 70
     1
102
RTVSPost2010Prop42
 90
       50
102
RTVSPost2010PropOp42
 70
     1
102
RTVSPost2010Prop43
 90
        3
102
RTVSPost2010PropOp43
 70
     1
102
RTVSPost2010Prop44ColorIndex
 90
        5
102
RTVSPost2010Prop44ColorRGB
 90
      255
102
RTVSPost2010PropOp44
 70
     1
102
RTVSPost2010Prop45
280
     0
102
RTVSPost2010PropOp45
 70
     1
102
RTVSPost2010Prop46
 90
       50
102
RTVSPost2010PropOp46
 70
     1
102
RTVSPost2010Prop47
 90
       50
102
RTVSPost2010PropOp47
 70
     1
102
RTVSPost2010Prop48
 90
       50
102
RTVSPost2010PropOp48
 70
     1
102
RTVSPost2010Prop49
280
     0
102
RTVSPost2010PropOp49
 70
     1
102
RTVSPost2010Prop50
 90
       50
102
RTVSPost2010PropOp50
 70
     1
102
RTVSPost2010Prop51ColorIndex
 90
      256
102
RTVSPost2010Prop51ColorRGB
 90
-16777216
102
RTVSPost2010PropOp51
 70
     0
102
RTVSPost2010Prop52
140
1.0
102
RTVSPost2010PropOp52
 70
     0
102
RTVSPost2010Prop53
 90
        2
102
RTVSPost2010PropOp53
 70
     1
102
RTVSPost2010Prop54
  1
strokes_ogs.tif
102
RTVSPost2010PropOp54
 70
     1
102
RTVSPost2010Prop55
280
     0
102
RTVSPost2010PropOp55
 70
     1
102
RTVSPost2010Prop56
140
1.0
102
RTVSPost2010PropOp56
 70
     1
102
RTVSPost2010Prop57
140
1.0
102
RTVSPost2010PropOp57
 70
     1
  0
XRECORD
  5
156
102
{ACAD_REACTORS
330
155
102
}
330
155
100
AcDbXrecord
280
     1
102
RTVSPost2010Prop28
280
     0
102
RTVSPost2010PropOp28
 70
     0
102
RTVSPost2010Prop29
280
     1
102
RTVSPost2010PropOp29
 70
     0
102
RTVSPost2010Prop30
280
     1
102
RTVSPost2010PropOp30
 70
     0
102
RTVSPost2010Prop31
280
     0
102
RTVSPost2010PropOp31
 70
     0
102
RTVSPost2010Prop32
280
     0
102
RTVSPost2010PropOp32
 70
     0
102
RTVSPost2010Prop33
280
     0
102
RTVSPost2010PropOp33
 70
     0
102
RTVSPost2010Prop34
280
     0
102
RTVSPost2010PropOp34
 70
     0
102
RTVSPost2010Prop35
280
     0
102
RTVSPost2010PropOp35
 70
     0
102
RTVSPost2010Prop36
280
     0
102
RTVSPost2010PropOp36
 70
     0
102
RTVSPost2010Prop37
 90
       50
102
RTVSPost2010PropOp37
 70
     0
102
RTVSPost2010Prop38
140
0.0
102
RTVSPost2010PropOp38
 70
     0
102
RTVSPost2010Prop39
140
1.0
102
RTVSPost2010PropOp39
 70
     0
102
RTVSPost2010Prop40
 90
        0
102
RTVSPost2010PropOp40
 70
     0
102
RTVSPost2010Prop41ColorIndex
 90
       18
102
RTVSPost2010Prop41ColorRGB
 90
        0
102
RTVSPost2010PropOp41
 70
     0
102
RTVSPost2010Prop42
 90
       50
102
RTVSPost2010PropOp42
 70
     0
102
RTVSPost2010Prop43
 90
        3
102
RTVSPost2010PropOp43
 70
     0
102
RTVSPost2010Prop44ColorIndex
 90
        5
102
RTVSPost2010Prop44ColorRGB
 90
      255
102
RTVSPost2010PropOp44
 70
     0
102
RTVSPost2010Prop45
280
     0
102
RTVSPost2010PropOp45
 70
     0
102
RTVSPost2010Prop46
 90
       50
102
RTVSPost2010PropOp46
 70
     0
102
RTVSPost2010Prop47
 90
       50
102
RTVSPost2010PropOp47
 70
     0
102
RTVSPost2010Prop48
 90
       50
102
RTVSPost2010PropOp48
 70
     0
102
RTVSPost2010Prop49
280
     0
102
RTVSPost2010PropOp49
 70
     0
102
RTVSPost2010Prop50
 90
       50
102
RTVSPost2010PropOp50
 70
     0
102
RTVSPost2010Prop51ColorIndex
 90
      256
102
RTVSPost2010Prop51ColorRGB
 90
-16777216
102
RTVSPost2010PropOp51
 70
     0
102
RTVSPost2010Prop52
140
1.0
102
RTVSPost2010PropOp52
 70
     0
102
RTVSPost2010Prop53
 90
        2
102
RTVSPost2010PropOp53
 70
     0
102
RTVSPost2010Prop54
  1
strokes_ogs.tif
102
RTVSPost2010PropOp54
 70
     0
102
RTVSPost2010Prop55
280
     0
102
RTVSPost2010PropOp55
 70
     0
102
RTVSPost2010Prop56
140
1.0
102
RTVSPost2010PropOp56
 70
     0
102
RTVSPost2010Prop57
140
1.0
102
RTVSPost2010PropOp57
 70
     0
  0
XRECORD
  5
13C
102
{ACAD_REACTORS
330
13B
102
}
330
13B
100
AcDbXrecord
280
     1
102
RTVSPost2010Prop28
280
     0
102
RTVSPost2010PropOp28
 70
     1
102
RTVSPost2010Prop29
280
     1
102
RTVSPost2010PropOp29
 70
     1
102
RTVSPost2010Prop30
280
     1
102
RTVSPost2010PropOp30
 70
     1
102
RTVSPost2010Prop31
280
     0
102
RTVSPost2010PropOp31
 70
     1
102
RTVSPost2010Prop32
280
     0
102
RTVSPost2010PropOp32
 70
     1
102
RTVSPost2010Prop33
280
     0
102
RTVSPost2010PropOp33
 70
     1
102
RTVSPost2010Prop34
280
     0
102
RTVSPost2010PropOp34
 70
     1
102
RTVSPost2010Prop35
280
     0
102
RTVSPost2010PropOp35
 70
     1
102
RTVSPost2010Prop36
280
     0
102
RTVSPost2010PropOp36
 70
     1
102
RTVSPost2010Prop37
 90
       50
102
RTVSPost2010PropOp37
 70
     1
102
RTVSPost2010Prop38
140
0.0
102
RTVSPost2010PropOp38
 70
     1
102
RTVSPost2010Prop39
140
1.0
102
RTVSPost2010PropOp39
 70
     1
102
RTVSPost2010Prop40
 90
        0
102
RTVSPost2010PropOp40
 70
     1
102
RTVSPost2010Prop41ColorIndex
 90
       18
102
RTVSPost2010Prop41ColorRGB
 90
        0
102
RTVSPost2010PropOp41
 70
     1
102
RTVSPost2010Prop42
 90
       50
102
RTVSPost2010PropOp42
 70
     1
102
RTVSPost2010Prop43
 90
        3
102
RTVSPost2010PropOp43
 70
     1
102
RTVSPost2010Prop44ColorIndex
 90
        5
102
RTVSPost2010Prop44ColorRGB
 90
      255
102
RTVSPost2010PropOp44
 70
     1
102
RTVSPost2010Prop45
280
     0
102
RTVSPost2010PropOp45
 70
     1
102
RTVSPost2010Prop46
 90
       50
102
RTVSPost2010PropOp46
 70
     1
102
RTVSPost2010Prop47
 90
       50
102
RTVSPost2010PropOp47
 70
     1
102
RTVSPost2010Prop48
 90
       50
102
RTVSPost2010PropOp48
 70
     1
102
RTVSPost2010Prop49
280
     0
102
RTVSPost2010PropOp49
 70
     1
102
RTVSPost2010Prop50
 90
       50
102
RTVSPost2010PropOp50
 70
     1
102
RTVSPost2010Prop51ColorIndex
 90
      256
102
RTVSPost2010Prop51ColorRGB
 90
-16777216
102
RTVSPost2010PropOp51
 70
     0
102
RTVSPost2010Prop52
140
1.0
102
RTVSPost2010PropOp52
 70
     0
102
RTVSPost2010Prop53
 90
        2
102
RTVSPost2010PropOp53
 70
     1
102
RTVSPost2010Prop54
  1
strokes_ogs.tif
102
RTVSPost2010PropOp54
 70
     1
102
RTVSPost2010Prop55
280
     0
102
RTVSPost2010PropOp55
 70
     1
102
RTVSPost2010Prop56
140
1.0
102
RTVSPost2010PropOp56
 70
     1
102
RTVSPost2010Prop57
140
1.0
102
RTVSPost2010PropOp57
 70
     1
  0
XRECORD
  5
152
102
{ACAD_REACTORS
330
151
102
}
330
151
100
AcDbXrecord
280
     1
102
RTVSPost2010Prop28
280
     0
102
RTVSPost2010PropOp28
 70
     1
102
RTVSPost2010Prop29
280
     1
102
RTVSPost2010PropOp29
 70
     1
102
RTVSPost2010Prop30
280
     1
102
RTVSPost2010PropOp30
 70
     1
102
RTVSPost2010Prop31
280
     0
102
RTVSPost2010PropOp31
 70
     1
102
RTVSPost2010Prop32
280
     0
102
RTVSPost2010PropOp32
 70
     1
102
RTVSPost2010Prop33
280
     0
102
RTVSPost2010PropOp33
 70
     1
102
RTVSPost2010Prop34
280
     0
102
RTVSPost2010PropOp34
 70
     1
102
RTVSPost2010Prop35
280
     0
102
RTVSPost2010PropOp35
 70
     1
102
RTVSPost2010Prop36
280
     0
102
RTVSPost2010PropOp36
 70
     1
102
RTVSPost2010Prop37
 90
       50
102
RTVSPost2010PropOp37
 70
     1
102
RTVSPost2010Prop38
140
0.0
102
RTVSPost2010PropOp38
 70
     1
102
RTVSPost2010Prop39
140
1.0
102
RTVSPost2010PropOp39
 70
     1
102
RTVSPost2010Prop40
 90
        0
102
RTVSPost2010PropOp40
 70
     1
102
RTVSPost2010Prop41ColorIndex
 90
       18
102
RTVSPost2010Prop41ColorRGB
 90
        0
102
RTVSPost2010PropOp41
 70
     1
102
RTVSPost2010Prop42
 90
       50
102
RTVSPost2010PropOp42
 70
     1
102
RTVSPost2010Prop43
 90
        3
102
RTVSPost2010PropOp43
 70
     1
102
RTVSPost2010Prop44ColorIndex
 90
        5
102
RTVSPost2010Prop44ColorRGB
 90
      255
102
RTVSPost2010PropOp44
 70
     1
102
RTVSPost2010Prop45
280
     0
102
RTVSPost2010PropOp45
 70
     1
102
RTVSPost2010Prop46
 90
       50
102
RTVSPost2010PropOp46
 70
     1
102
RTVSPost2010Prop47
 90
       50
102
RTVSPost2010PropOp47
 70
     1
102
RTVSPost2010Prop48
 90
       50
102
RTVSPost2010PropOp48
 70
     1
102
RTVSPost2010Prop49
280
     0
102
RTVSPost2010PropOp49
 70
     1
102
RTVSPost2010Prop50
 90
       50
102
RTVSPost2010PropOp50
 70
     1
102
RTVSPost2010Prop51ColorIndex
 90
      256
102
RTVSPost2010Prop51ColorRGB
 90
-16777216
102
RTVSPost2010PropOp51
 70
     0
102
RTVSPost2010Prop52
140
1.0
102
RTVSPost2010PropOp52
 70
     0
102
RTVSPost2010Prop53
 90
        2
102
RTVSPost2010PropOp53
 70
     1
102
RTVSPost2010Prop54
  1
strokes_ogs.tif
102
RTVSPost2010PropOp54
 70
     1
102
RTVSPost2010Prop55
280
     0
102
RTVSPost2010PropOp55
 70
     1
102
RTVSPost2010Prop56
140
1.0
102
RTVSPost2010PropOp56
 70
     1
102
RTVSPost2010Prop57
140
1.0
102
RTVSPost2010PropOp57
 70
     1
  0
XRECORD
  5
150
102
{ACAD_REACTORS
330
14F
102
}
330
14F
100
AcDbXrecord
280
     1
102
RTVSPost2010Prop28
280
     0
102
RTVSPost2010PropOp28
 70
     1
102
RTVSPost2010Prop29
280
     1
102
RTVSPost2010PropOp29
 70
     1
102
RTVSPost2010Prop30
280
     1
102
RTVSPost2010PropOp30
 70
     1
102
RTVSPost2010Prop31
280
     0
102
RTVSPost2010PropOp31
 70
     1
102
RTVSPost2010Prop32
280
     0
102
RTVSPost2010PropOp32
 70
     1
102
RTVSPost2010Prop33
280
     0
102
RTVSPost2010PropOp33
 70
     1
102
RTVSPost2010Prop34
280
     0
102
RTVSPost2010PropOp34
 70
     1
102
RTVSPost2010Prop35
280
     0
102
RTVSPost2010PropOp35
 70
     1
102
RTVSPost2010Prop36
280
     0
102
RTVSPost2010PropOp36
 70
     1
102
RTVSPost2010Prop37
 90
       50
102
RTVSPost2010PropOp37
 70
     1
102
RTVSPost2010Prop38
140
0.0
102
RTVSPost2010PropOp38
 70
     1
102
RTVSPost2010Prop39
140
1.0
102
RTVSPost2010PropOp39
 70
     1
102
RTVSPost2010Prop40
 90
        0
102
RTVSPost2010PropOp40
 70
     1
102
RTVSPost2010Prop41ColorIndex
 90
       18
102
RTVSPost2010Prop41ColorRGB
 90
        0
102
RTVSPost2010PropOp41
 70
     1
102
RTVSPost2010Prop42
 90
       50
102
RTVSPost2010PropOp42
 70
     1
102
RTVSPost2010Prop43
 90
        3
102
RTVSPost2010PropOp43
 70
     1
102
RTVSPost2010Prop44ColorIndex
 90
        5
102
RTVSPost2010Prop44ColorRGB
 90
      255
102
RTVSPost2010PropOp44
 70
     1
102
RTVSPost2010Prop45
280
     0
102
RTVSPost2010PropOp45
 70
     1
102
RTVSPost2010Prop46
 90
       50
102
RTVSPost2010PropOp46
 70
     1
102
RTVSPost2010Prop47
 90
       50
102
RTVSPost2010PropOp47
 70
     1
102
RTVSPost2010Prop48
 90
       50
102
RTVSPost2010PropOp48
 70
     1
102
RTVSPost2010Prop49
280
     0
102
RTVSPost2010PropOp49
 70
     1
102
RTVSPost2010Prop50
 90
       50
102
RTVSPost2010PropOp50
 70
     1
102
RTVSPost2010Prop51ColorIndex
 90
      256
102
RTVSPost2010Prop51ColorRGB
 90
-16777216
102
RTVSPost2010PropOp51
 70
     0
102
RTVSPost2010Prop52
140
1.0
102
RTVSPost2010PropOp52
 70
     0
102
RTVSPost2010Prop53
 90
        2
102
RTVSPost2010PropOp53
 70
     1
102
RTVSPost2010Prop54
  1
strokes_ogs.tif
102
RTVSPost2010PropOp54
 70
     1
102
RTVSPost2010Prop55
280
     0
102
RTVSPost2010PropOp55
 70
     1
102
RTVSPost2010Prop56
140
1.0
102
RTVSPost2010PropOp56
 70
     1
102
RTVSPost2010Prop57
140
1.0
102
RTVSPost2010PropOp57
 70
     1
  0
XRECORD
  5
14A
102
{ACAD_REACTORS
330
149
102
}
330
149
100
AcDbXrecord
280
     1
102
RTVSPost2010Prop28
280
     0
102
RTVSPost2010PropOp28
 70
     1
102
RTVSPost2010Prop29
280
     1
102
RTVSPost2010PropOp29
 70
     1
102
RTVSPost2010Prop30
280
     1
102
RTVSPost2010PropOp30
 70
     1
102
RTVSPost2010Prop31
280
     0
102
RTVSPost2010PropOp31
 70
     1
102
RTVSPost2010Prop32
280
     0
102
RTVSPost2010PropOp32
 70
     1
102
RTVSPost2010Prop33
280
     0
102
RTVSPost2010PropOp33
 70
     1
102
RTVSPost2010Prop34
280
     0
102
RTVSPost2010PropOp34
 70
     1
102
RTVSPost2010Prop35
280
     0
102
RTVSPost2010PropOp35
 70
     1
102
RTVSPost2010Prop36
280
     0
102
RTVSPost2010PropOp36
 70
     1
102
RTVSPost2010Prop37
 90
       50
102
RTVSPost2010PropOp37
 70
     1
102
RTVSPost2010Prop38
140
0.0
102
RTVSPost2010PropOp38
 70
     1
102
RTVSPost2010Prop39
140
1.0
102
RTVSPost2010PropOp39
 70
     1
102
RTVSPost2010Prop40
 90
        0
102
RTVSPost2010PropOp40
 70
     1
102
RTVSPost2010Prop41ColorIndex
 90
       18
102
RTVSPost2010Prop41ColorRGB
 90
        0
102
RTVSPost2010PropOp41
 70
     1
102
RTVSPost2010Prop42
 90
       50
102
RTVSPost2010PropOp42
 70
     1
102
RTVSPost2010Prop43
 90
        3
102
RTVSPost2010PropOp43
 70
     1
102
RTVSPost2010Prop44ColorIndex
 90
        5
102
RTVSPost2010Prop44ColorRGB
 90
      255
102
RTVSPost2010PropOp44
 70
     1
102
RTVSPost2010Prop45
280
     0
102
RTVSPost2010PropOp45
 70
     1
102
RTVSPost2010Prop46
 90
       50
102
RTVSPost2010PropOp46
 70
     1
102
RTVSPost2010Prop47
 90
       50
102
RTVSPost2010PropOp47
 70
     1
102
RTVSPost2010Prop48
 90
       50
102
RTVSPost2010PropOp48
 70
     1
102
RTVSPost2010Prop49
280
     0
102
RTVSPost2010PropOp49
 70
     1
102
RTVSPost2010Prop50
 90
       50
102
RTVSPost2010PropOp50
 70
     1
102
RTVSPost2010Prop51ColorIndex
 90
      256
102
RTVSPost2010Prop51ColorRGB
 90
-16777216
102
RTVSPost2010PropOp51
 70
     0
102
RTVSPost2010Prop52
140
1.0
102
RTVSPost2010PropOp52
 70
     0
102
RTVSPost2010Prop53
 90
        2
102
RTVSPost2010PropOp53
 70
     1
102
RTVSPost2010Prop54
  1
strokes_ogs.tif
102
RTVSPost2010PropOp54
 70
     1
102
RTVSPost2010Prop55
280
     0
102
RTVSPost2010PropOp55
 70
     1
102
RTVSPost2010Prop56
140
1.0
102
RTVSPost2010PropOp56
 70
     1
102
RTVSPost2010Prop57
140
1.0
102
RTVSPost2010PropOp57
 70
     1
  0
XRECORD
  5
14C
102
{ACAD_REACTORS
330
14B
102
}
330
14B
100
AcDbXrecord
280
     1
102
RTVSPost2010Prop28
280
     0
102
RTVSPost2010PropOp28
 70
     1
102
RTVSPost2010Prop29
280
     1
102
RTVSPost2010PropOp29
 70
     1
102
RTVSPost2010Prop30
280
     1
102
RTVSPost2010PropOp30
 70
     1
102
RTVSPost2010Prop31
280
     0
102
RTVSPost2010PropOp31
 70
     1
102
RTVSPost2010Prop32
280
     0
102
RTVSPost2010PropOp32
 70
     1
102
RTVSPost2010Prop33
280
     0
102
RTVSPost2010PropOp33
 70
     1
102
RTVSPost2010Prop34
280
     0
102
RTVSPost2010PropOp34
 70
     1
102
RTVSPost2010Prop35
280
     0
102
RTVSPost2010PropOp35
 70
     1
102
RTVSPost2010Prop36
280
     0
102
RTVSPost2010PropOp36
 70
     1
102
RTVSPost2010Prop37
 90
       50
102
RTVSPost2010PropOp37
 70
     1
102
RTVSPost2010Prop38
140
0.0
102
RTVSPost2010PropOp38
 70
     1
102
RTVSPost2010Prop39
140
1.0
102
RTVSPost2010PropOp39
 70
     1
102
RTVSPost2010Prop40
 90
        0
102
RTVSPost2010PropOp40
 70
     1
102
RTVSPost2010Prop41ColorIndex
 90
       18
102
RTVSPost2010Prop41ColorRGB
 90
        0
102
RTVSPost2010PropOp41
 70
     1
102
RTVSPost2010Prop42
 90
       50
102
RTVSPost2010PropOp42
 70
     1
102
RTVSPost2010Prop43
 90
        3
102
RTVSPost2010PropOp43
 70
     1
102
RTVSPost2010Prop44ColorIndex
 90
        5
102
RTVSPost2010Prop44ColorRGB
 90
      255
102
RTVSPost2010PropOp44
 70
     1
102
RTVSPost2010Prop45
280
     0
102
RTVSPost2010PropOp45
 70
     1
102
RTVSPost2010Prop46
 90
       50
102
RTVSPost2010PropOp46
 70
     1
102
RTVSPost2010Prop47
 90
       50
102
RTVSPost2010PropOp47
 70
     1
102
RTVSPost2010Prop48
 90
       50
102
RTVSPost2010PropOp48
 70
     1
102
RTVSPost2010Prop49
280
     0
102
RTVSPost2010PropOp49
 70
     1
102
RTVSPost2010Prop50
 90
       50
102
RTVSPost2010PropOp50
 70
     1
102
RTVSPost2010Prop51ColorIndex
 90
      256
102
RTVSPost2010Prop51ColorRGB
 90
-16777216
102
RTVSPost2010PropOp51
 70
     0
102
RTVSPost2010Prop52
140
1.0
102
RTVSPost2010PropOp52
 70
     0
102
RTVSPost2010Prop53
 90
        2
102
RTVSPost2010PropOp53
 70
     1
102
RTVSPost2010Prop54
  1
strokes_ogs.tif
102
RTVSPost2010PropOp54
 70
     1
102
RTVSPost2010Prop55
280
     0
102
RTVSPost2010PropOp55
 70
     1
102
RTVSPost2010Prop56
140
1.0
102
RTVSPost2010PropOp56
 70
     1
102
RTVSPost2010Prop57
140
1.0
102
RTVSPost2010PropOp57
 70
     1
  0
XRECORD
  5
142
102
{ACAD_REACTORS
330
141
102
}
330
141
100
AcDbXrecord
280
     1
102
RTVSPost2010Prop28
280
     0
102
RTVSPost2010PropOp28
 70
     1
102
RTVSPost2010Prop29
280
     1
102
RTVSPost2010PropOp29
 70
     1
102
RTVSPost2010Prop30
280
     1
102
RTVSPost2010PropOp30
 70
     1
102
RTVSPost2010Prop31
280
     0
102
RTVSPost2010PropOp31
 70
     1
102
RTVSPost2010Prop32
280
     0
102
RTVSPost2010PropOp32
 70
     1
102
RTVSPost2010Prop33
280
     0
102
RTVSPost2010PropOp33
 70
     1
102
RTVSPost2010Prop34
280
     0
102
RTVSPost2010PropOp34
 70
     1
102
RTVSPost2010Prop35
280
     0
102
RTVSPost2010PropOp35
 70
     1
102
RTVSPost2010Prop36
280
     0
102
RTVSPost2010PropOp36
 70
     1
102
RTVSPost2010Prop37
 90
       50
102
RTVSPost2010PropOp37
 70
     1
102
RTVSPost2010Prop38
140
0.0
102
RTVSPost2010PropOp38
 70
     1
102
RTVSPost2010Prop39
140
1.0
102
RTVSPost2010PropOp39
 70
     1
102
RTVSPost2010Prop40
 90
        0
102
RTVSPost2010PropOp40
 70
     1
102
RTVSPost2010Prop41ColorIndex
 90
       18
102
RTVSPost2010Prop41ColorRGB
 90
        0
102
RTVSPost2010PropOp41
 70
     1
102
RTVSPost2010Prop42
 90
       50
102
RTVSPost2010PropOp42
 70
     1
102
RTVSPost2010Prop43
 90
        3
102
RTVSPost2010PropOp43
 70
     1
102
RTVSPost2010Prop44ColorIndex
 90
        5
102
RTVSPost2010Prop44ColorRGB
 90
      255
102
RTVSPost2010PropOp44
 70
     1
102
RTVSPost2010Prop45
280
     0
102
RTVSPost2010PropOp45
 70
     1
102
RTVSPost2010Prop46
 90
       50
102
RTVSPost2010PropOp46
 70
     1
102
RTVSPost2010Prop47
 90
       50
102
RTVSPost2010PropOp47
 70
     1
102
RTVSPost2010Prop48
 90
       50
102
RTVSPost2010PropOp48
 70
     1
102
RTVSPost2010Prop49
280
     0
102
RTVSPost2010PropOp49
 70
     1
102
RTVSPost2010Prop50
 90
       50
102
RTVSPost2010PropOp50
 70
     1
102
RTVSPost2010Prop51ColorIndex
 90
      256
102
RTVSPost2010Prop51ColorRGB
 90
-16777216
102
RTVSPost2010PropOp51
 70
     0
102
RTVSPost2010Prop52
140
1.0
102
RTVSPost2010PropOp52
 70
     0
102
RTVSPost2010Prop53
 90
        2
102
RTVSPost2010PropOp53
 70
     1
102
RTVSPost2010Prop54
  1
strokes_ogs.tif
102
RTVSPost2010PropOp54
 70
     1
102
RTVSPost2010Prop55
280
     0
102
RTVSPost2010PropOp55
 70
     1
102
RTVSPost2010Prop56
140
1.0
102
RTVSPost2010PropOp56
 70
     1
102
RTVSPost2010Prop57
140
1.0
102
RTVSPost2010PropOp57
 70
     1
  0
XRECORD
  5
136
102
{ACAD_REACTORS
330
135
102
}
330
135
100
AcDbXrecord
280
     1
102
RTVSPost2010Prop28
280
     0
102
RTVSPost2010PropOp28
 70
     1
102
RTVSPost2010Prop29
280
     1
102
RTVSPost2010PropOp29
 70
     1
102
RTVSPost2010Prop30
280
     1
102
RTVSPost2010PropOp30
 70
     1
102
RTVSPost2010Prop31
280
     0
102
RTVSPost2010PropOp31
 70
     1
102
RTVSPost2010Prop32
280
     0
102
RTVSPost2010PropOp32
 70
     1
102
RTVSPost2010Prop33
280
     0
102
RTVSPost2010PropOp33
 70
     1
102
RTVSPost2010Prop34
280
     0
102
RTVSPost2010PropOp34
 70
     1
102
RTVSPost2010Prop35
280
     0
102
RTVSPost2010PropOp35
 70
     1
102
RTVSPost2010Prop36
280
     0
102
RTVSPost2010PropOp36
 70
     1
102
RTVSPost2010Prop37
 90
       50
102
RTVSPost2010PropOp37
 70
     1
102
RTVSPost2010Prop38
140
0.0
102
RTVSPost2010PropOp38
 70
     1
102
RTVSPost2010Prop39
140
1.0
102
RTVSPost2010PropOp39
 70
     1
102
RTVSPost2010Prop40
 90
        0
102
RTVSPost2010PropOp40
 70
     1
102
RTVSPost2010Prop41ColorIndex
 90
       18
102
RTVSPost2010Prop41ColorRGB
 90
        0
102
RTVSPost2010PropOp41
 70
     1
102
RTVSPost2010Prop42
 90
       50
102
RTVSPost2010PropOp42
 70
     1
102
RTVSPost2010Prop43
 90
        3
102
RTVSPost2010PropOp43
 70
     1
102
RTVSPost2010Prop44ColorIndex
 90
        5
102
RTVSPost2010Prop44ColorRGB
 90
      255
102
RTVSPost2010PropOp44
 70
     1
102
RTVSPost2010Prop45
280
     0
102
RTVSPost2010PropOp45
 70
     1
102
RTVSPost2010Prop46
 90
       50
102
RTVSPost2010PropOp46
 70
     1
102
RTVSPost2010Prop47
 90
       50
102
RTVSPost2010PropOp47
 70
     1
102
RTVSPost2010Prop48
 90
       50
102
RTVSPost2010PropOp48
 70
     1
102
RTVSPost2010Prop49
280
     0
102
RTVSPost2010PropOp49
 70
     1
102
RTVSPost2010Prop50
 90
       50
102
RTVSPost2010PropOp50
 70
     1
102
RTVSPost2010Prop51ColorIndex
 90
      256
102
RTVSPost2010Prop51ColorRGB
 90
-16777216
102
RTVSPost2010PropOp51
 70
     0
102
RTVSPost2010Prop52
140
1.0
102
RTVSPost2010PropOp52
 70
     0
102
RTVSPost2010Prop53
 90
        2
102
RTVSPost2010PropOp53
 70
     1
102
RTVSPost2010Prop54
  1
strokes_ogs.tif
102
RTVSPost2010PropOp54
 70
     1
102
RTVSPost2010Prop55
280
     0
102
RTVSPost2010PropOp55
 70
     1
102
RTVSPost2010Prop56
140
1.0
102
RTVSPost2010PropOp56
 70
     1
102
RTVSPost2010Prop57
140
1.0
102
RTVSPost2010PropOp57
 70
     1
  0
XRECORD
  5
14E
102
{ACAD_REACTORS
330
14D
102
}
330
14D
100
AcDbXrecord
280
     1
102
RTVSPost2010Prop28
280
     0
102
RTVSPost2010PropOp28
 70
     1
102
RTVSPost2010Prop29
280
     1
102
RTVSPost2010PropOp29
 70
     1
102
RTVSPost2010Prop30
280
     1
102
RTVSPost2010PropOp30
 70
     1
102
RTVSPost2010Prop31
280
     0
102
RTVSPost2010PropOp31
 70
     1
102
RTVSPost2010Prop32
280
     0
102
RTVSPost2010PropOp32
 70
     1
102
RTVSPost2010Prop33
280
     0
102
RTVSPost2010PropOp33
 70
     1
102
RTVSPost2010Prop34
280
     0
102
RTVSPost2010PropOp34
 70
     1
102
RTVSPost2010Prop35
280
     0
102
RTVSPost2010PropOp35
 70
     1
102
RTVSPost2010Prop36
280
     0
102
RTVSPost2010PropOp36
 70
     1
102
RTVSPost2010Prop37
 90
       50
102
RTVSPost2010PropOp37
 70
     1
102
RTVSPost2010Prop38
140
0.0
102
RTVSPost2010PropOp38
 70
     1
102
RTVSPost2010Prop39
140
1.0
102
RTVSPost2010PropOp39
 70
     1
102
RTVSPost2010Prop40
 90
        0
102
RTVSPost2010PropOp40
 70
     1
102
RTVSPost2010Prop41ColorIndex
 90
       18
102
RTVSPost2010Prop41ColorRGB
 90
        0
102
RTVSPost2010PropOp41
 70
     1
102
RTVSPost2010Prop42
 90
       50
102
RTVSPost2010PropOp42
 70
     1
102
RTVSPost2010Prop43
 90
        3
102
RTVSPost2010PropOp43
 70
     1
102
RTVSPost2010Prop44ColorIndex
 90
        5
102
RTVSPost2010Prop44ColorRGB
 90
      255
102
RTVSPost2010PropOp44
 70
     1
102
RTVSPost2010Prop45
280
     0
102
RTVSPost2010PropOp45
 70
     1
102
RTVSPost2010Prop46
 90
       50
102
RTVSPost2010PropOp46
 70
     1
102
RTVSPost2010Prop47
 90
       50
102
RTVSPost2010PropOp47
 70
     1
102
RTVSPost2010Prop48
 90
       50
102
RTVSPost2010PropOp48
 70
     1
102
RTVSPost2010Prop49
280
     0
102
RTVSPost2010PropOp49
 70
     1
102
RTVSPost2010Prop50
 90
       50
102
RTVSPost2010PropOp50
 70
     1
102
RTVSPost2010Prop51ColorIndex
 90
      256
102
RTVSPost2010Prop51ColorRGB
 90
-16777216
102
RTVSPost2010PropOp51
 70
     0
102
RTVSPost2010Prop52
140
1.0
102
RTVSPost2010PropOp52
 70
     0
102
RTVSPost2010Prop53
 90
        2
102
RTVSPost2010PropOp53
 70
     1
102
RTVSPost2010Prop54
  1
strokes_ogs.tif
102
RTVSPost2010PropOp54
 70
     1
102
RTVSPost2010Prop55
280
     0
102
RTVSPost2010PropOp55
 70
     1
102
RTVSPost2010Prop56
140
1.0
102
RTVSPost2010PropOp56
 70
     1
102
RTVSPost2010Prop57
140
1.0
102
RTVSPost2010PropOp57
 70
     1
  0
ENDSEC
  0
EOF
