  0
SECTION
  2
HEADER
  9
$ACADVER
  1
AC1024
  9
$ACADMAINTVER
 70
   226
  9
$DWGCODEPAGE
  3
ANSI_932
  9
$INSBASE
 10
0.0
 20
0.0
 30
0.0
  9
$EXTMIN
 10
1.000000000000000E+20
 20
1.000000000000000E+20
 30
1.000000000000000E+20
  9
$EXTMAX
 10
-1.000000000000000E+20
 20
-1.000000000000000E+20
 30
-1.000000000000000E+20
  9
$LIMMIN
 10
0.0
 20
0.0
  9
$LIMMAX
 10
12.0
 20
9.0
  9
$ORTHOMODE
 70
     0
  9
$REGENMODE
 70
     1
  9
$FILLMODE
 70
     1
  9
$QTEXTMODE
 70
     0
  9
$MIRRTEXT
 70
     0
  9
$LTSCALE
 40
1.0
  9
$ATTMODE
 70
     1
  9
$TEXTSIZE
 40
0.2
  9
$TRACEWID
 40
0.05
  9
$TEXTSTYLE
  7
Standard
  9
$CLAYER
  8
0
  9
$CELTYPE
  6
ByLayer
  9
$CECOLOR
 62
   256
  9
$CELTSCALE
 40
1.0
  9
$DISPSILH
 70
     0
  9
$DIMSCALE
 40
1.0
  9
$DIMASZ
 40
0.18
  9
$DIMEXO
 40
0.0625
  9
$DIMDLI
 40
0.38
  9
$DIMRND
 40
0.0
  9
$DIMDLE
 40
0.0
  9
$DIMEXE
 40
0.18
  9
$DIMTP
 40
0.0
  9
$DIMTM
 40
0.0
  9
$DIMTXT
 40
0.18
  9
$DIMCEN
 40
0.09
  9
$DIMTSZ
 40
0.0
  9
$DIMTOL
 70
     0
  9
$DIMLIM
 70
     0
  9
$DIMTIH
 70
     1
  9
$DIMTOH
 70
     1
  9
$DIMSE1
 70
     0
  9
$DIMSE2
 70
     0
  9
$DIMTAD
 70
     0
  9
$DIMZIN
 70
     0
  9
$DIMBLK
  1

  9
$DIMASO
 70
     1
  9
$DIMSHO
 70
     1
  9
$DIMPOST
  1

  9
$DIMAPOST
  1

  9
$DIMALT
 70
     0
  9
$DIMALTD
 70
     2
  9
$DIMALTF
 40
25.4
  9
$DIMLFAC
 40
1.0
  9
$DIMTOFL
 70
     0
  9
$DIMTVP
 40
0.0
  9
$DIMTIX
 70
     0
  9
$DIMSOXD
 70
     0
  9
$DIMSAH
 70
     0
  9
$DIMBLK1
  1

  9
$DIMBLK2
  1

  9
$DIMSTYLE
  2
Standard
  9
$DIMCLRD
 70
     0
  9
$DIMCLRE
 70
     0
  9
$DIMCLRT
 70
     0
  9
$DIMTFAC
 40
1.0
  9
$DIMGAP
 40
0.09
  9
$DIMJUST
 70
     0
  9
$DIMSD1
 70
     0
  9
$DIMSD2
 70
     0
  9
$DIMTOLJ
 70
     1
  9
$DIMTZIN
 70
     0
  9
$DIMALTZ
 70
     0
  9
$DIMALTTZ
 70
     0
  9
$DIMUPT
 70
     0
  9
$DIMDEC
 70
     4
  9
$DIMTDEC
 70
     4
  9
$DIMALTU
 70
     2
  9
$DIMALTTD
 70
     2
  9
$DIMTXSTY
  7
Standard
  9
$DIMAUNIT
 70
     0
  9
$DIMADEC
 70
     0
  9
$DIMALTRND
 40
0.0
  9
$DIMAZIN
 70
     0
  9
$DIMDSEP
 70
    46
  9
$DIMATFIT
 70
     3
  9
$DIMFRAC
 70
     0
  9
$DIMLDRBLK
  1

  9
$DIMLUNIT
 70
     2
  9
$DIMLWD
 70
    -2
  9
$DIMLWE
 70
    -2
  9
$DIMTMOVE
 70
     0
  9
$DIMFXL
 40
1.0
  9
$DIMFXLON
 70
     0
  9
$DIMJOGANG
 40
0.7853981633974483
  9
$DIMTFILL
 70
     0
  9
$DIMTFILLCLR
 70
     0
  9
$DIMARCSYM
 70
     0
  9
$DIMLTYPE
  6

  9
$DIMLTEX1
  6

  9
$DIMLTEX2
  6

  9
$DIMTXTDIRECTION
 70
     0
  9
$LUNITS
 70
     2
  9
$LUPREC
 70
     4
  9
$SKETCHINC
 40
0.1
  9
$FILLETRAD
 40
0.0
  9
$AUNITS
 70
     0
  9
$AUPREC
 70
     0
  9
$MENU
  1
.
  9
$ELEVATION
 40
0.0
  9
$PELEVATION
 40
0.0
  9
$THICKNESS
 40
0.0
  9
$LIMCHECK
 70
     0
  9
$CHAMFERA
 40
0.0
  9
$CHAMFERB
 40
0.0
  9
$CHAMFERC
 40
0.0
  9
$CHAMFERD
 40
0.0
  9
$SKPOLY
 70
     0
  9
$TDCREATE
 40
2459569.503298611
  9
$TDUCREATE
 40
2459569.128298611
  9
$TDUPDATE
 40
2459569.503298611
  9
$TDUUPDATE
 40
2459569.128298611
  9
$TDINDWG
 40
0.0000000000
  9
$TDUSRTIMER
 40
0.0000000000
  9
$USRTIMER
 70
     1
  9
$ANGBASE
 50
0.0
  9
$ANGDIR
 70
     0
  9
$PDMODE
 70
     0
  9
$PDSIZE
 40
0.0
  9
$PLINEWID
 40
0.0
  9
$SPLFRAME
 70
     0
  9
$SPLINETYPE
 70
     6
  9
$SPLINESEGS
 70
     8
  9
$HANDSEED
  5
1D9
  9
$SURFTAB1
 70
     6
  9
$SURFTAB2
 70
     6
  9
$SURFTYPE
 70
     6
  9
$SURFU
 70
     6
  9
$SURFV
 70
     6
  9
$UCSBASE
  2

  9
$UCSNAME
  2

  9
$UCSORG
 10
0.0
 20
0.0
 30
0.0
  9
$UCSXDIR
 10
1.0
 20
0.0
 30
0.0
  9
$UCSYDIR
 10
0.0
 20
1.0
 30
0.0
  9
$UCSORTHOREF
  2

  9
$UCSORTHOVIEW
 70
     0
  9
$UCSORGTOP
 10
0.0
 20
0.0
 30
0.0
  9
$UCSORGBOTTOM
 10
0.0
 20
0.0
 30
0.0
  9
$UCSORGLEFT
 10
0.0
 20
0.0
 30
0.0
  9
$UCSORGRIGHT
 10
0.0
 20
0.0
 30
0.0
  9
$UCSORGFRONT
 10
0.0
 20
0.0
 30
0.0
  9
$UCSORGBACK
 10
0.0
 20
0.0
 30
0.0
  9
$PUCSBASE
  2

  9
$PUCSNAME
  2

  9
$PUCSORG
 10
0.0
 20
0.0
 30
0.0
  9
$PUCSXDIR
 10
1.0
 20
0.0
 30
0.0
  9
$PUCSYDIR
 10
0.0
 20
1.0
 30
0.0
  9
$PUCSORTHOREF
  2

  9
$PUCSORTHOVIEW
 70
     0
  9
$PUCSORGTOP
 10
0.0
 20
0.0
 30
0.0
  9
$PUCSORGBOTTOM
 10
0.0
 20
0.0
 30
0.0
  9
$PUCSORGLEFT
 10
0.0
 20
0.0
 30
0.0
  9
$PUCSORGRIGHT
 10
0.0
 20
0.0
 30
0.0
  9
$PUCSORGFRONT
 10
0.0
 20
0.0
 30
0.0
  9
$PUCSORGBACK
 10
0.0
 20
0.0
 30
0.0
  9
$USERI1
 70
     0
  9
$USERI2
 70
     0
  9
$USERI3
 70
     0
  9
$USERI4
 70
     0
  9
$USERI5
 70
     0
  9
$USERR1
 40
0.0
  9
$USERR2
 40
0.0
  9
$USERR3
 40
0.0
  9
$USERR4
 40
0.0
  9
$USERR5
 40
0.0
  9
$WORLDVIEW
 70
     1
  9
$SHADEDGE
 70
     3
  9
$SHADEDIF
 70
    70
  9
$TILEMODE
 70
     1
  9
$MAXACTVP
 70
    64
  9
$PINSBASE
 10
0.0
 20
0.0
 30
0.0
  9
$PLIMCHECK
 70
     0
  9
$PEXTMIN
 10
1.000000000000000E+20
 20
1.000000000000000E+20
 30
1.000000000000000E+20
  9
$PEXTMAX
 10
-1.000000000000000E+20
 20
-1.000000000000000E+20
 30
-1.000000000000000E+20
  9
$PLIMMIN
 10
0.0
 20
0.0
  9
$PLIMMAX
 10
12.0
 20
9.0
  9
$UNITMODE
 70
     0
  9
$VISRETAIN
 70
     1
  9
$PLINEGEN
 70
     0
  9
$PSLTSCALE
 70
     1
  9
$TREEDEPTH
 70
  3020
  9
$CMLSTYLE
  2
Standard
  9
$CMLJUST
 70
     0
  9
$CMLSCALE
 40
1.0
  9
$PROXYGRAPHICS
 70
     1
  9
$MEASUREMENT
 70
     0
  9
$CELWEIGHT
370
    -1
  9
$ENDCAPS
280
     0
  9
$JOINSTYLE
280
     0
  9
$LWDISPLAY
290
     1
  9
$INSUNITS
 70
     4
  9
$HYPERLINKBASE
  1

  9
$STYLESHEET
  1

  9
$XEDIT
290
     1
  9
$CEPSNTYPE
380
     0
  9
$PSTYLEMODE
290
     1
  9
$FINGERPRINTGUID
  2
{5EA84162-056F-6D4F-876B-A26626A293CE}
  9
$VERSIONGUID
  2
{990160CF-A26F-2942-A059-0B932F026511}
  9
$EXTNAMES
290
     1
  9
$PSVPSCALE
 40
0.0
  9
$OLESTARTUP
290
     0
  9
$SORTENTS
280
   127
  9
$INDEXCTL
280
     0
  9
$HIDETEXT
280
     1
  9
$XCLIPFRAME
280
     2
  9
$HALOGAP
280
     0
  9
$OBSCOLOR
 70
   257
  9
$OBSLTYPE
280
     0
  9
$INTERSECTIONDISPLAY
280
     0
  9
$INTERSECTIONCOLOR
 70
   257
  9
$DIMASSOC
280
     2
  9
$PROJECTNAME
  1

  9
$CAMERADISPLAY
290
     0
  9
$LENSLENGTH
 40
50.0
  9
$CAMERAHEIGHT
 40
0.0
  9
$STEPSPERSEC
 40
2.0
  9
$STEPSIZE
 40
6.0
  9
$3DDWFPREC
 40
2.0
  9
$PSOLWIDTH
 40
0.25
  9
$PSOLHEIGHT
 40
4.0
  9
$LOFTANG1
 40
1.570796326794896
  9
$LOFTANG2
 40
1.570796326794896
  9
$LOFTMAG1
 40
0.0
  9
$LOFTMAG2
 40
0.0
  9
$LOFTPARAM
 70
     7
  9
$LOFTNORMALS
280
     1
  9
$LATITUDE
 40
37.795
  9
$LONGITUDE
 40
-122.394
  9
$NORTHDIRECTION
 40
0.0
  9
$TIMEZONE
 70
 -8000
  9
$LIGHTGLYPHDISPLAY
280
     1
  9
$TILEMODELIGHTSYNCH
280
     1
  9
$CMATERIAL
347
11
  9
$SOLIDHIST
280
     0
  9
$SHOWHIST
280
     1
  9
$DWFFRAME
280
     2
  9
$DGNFRAME
280
     0
  9
$REALWORLDSCALE
290
     1
  9
$INTERFERECOLOR
 62
     1
  9
$INTERFEREOBJVS
345
33
  9
$INTERFEREVPVS
346
30
  9
$CSHADOW
280
     0
  9
$SHADOWPLANELOCATION
 40
0.0
  0
ENDSEC
  0
SECTION
  2
CLASSES
  0
CLASS
  1
ACDBDICTIONARYWDFLT
  2
AcDbDictionaryWithDefault
  3
ObjectDBX Classes
 90
        0
 91
        1
280
     0
281
     0
  0
CLASS
  1
MATERIAL
  2
AcDbMaterial
  3
ObjectDBX Classes
 90
     1153
 91
        3
280
     0
281
     0
  0
CLASS
  1
VISUALSTYLE
  2
AcDbVisualStyle
  3
ObjectDBX Classes
 90
     4095
 91
       24
280
     0
281
     0
  0
CLASS
  1
SCALE
  2
AcDbScale
  3
ObjectDBX Classes
 90
     1153
 91
       17
280
     0
281
     0
  0
CLASS
  1
TABLESTYLE
  2
AcDbTableStyle
  3
ObjectDBX Classes
 90
     4095
 91
        1
280
     0
281
     0
  0
CLASS
  1
MLEADERSTYLE
  2
AcDbMLeaderStyle
  3
ACDB_MLEADERSTYLE_CLASS
 90
     4095
 91
        1
280
     0
281
     0
  0
CLASS
  1
ACDBSECTIONVIEWSTYLE
  2
AcDbSectionViewStyle
  3
ObjectDBX Classes
 90
     1025
 91
        1
280
     0
281
     0
  0
CLASS
  1
ACDBDETAILVIEWSTYLE
  2
AcDbDetailViewStyle
  3
ObjectDBX Classes
 90
     1025
 91
        1
280
     0
281
     0
  0
CLASS
  1
DICTIONARYVAR
  2
AcDbDictionaryVar
  3
ObjectDBX Classes
 90
        0
 91
        5
280
     0
281
     0
  0
CLASS
  1
CELLSTYLEMAP
  2
AcDbCellStyleMap
  3
ObjectDBX Classes
 90
     1152
 91
        1
280
     0
281
     0
  0
ENDSEC
  0
SECTION
  2
TABLES
  0
TABLE
  2
VPORT
  5
8
330
0
100
AcDbSymbolTable
 70
     1
  0
VPORT
  5
57
330
8
100
AcDbSymbolTableRecord
100
AcDbViewportTableRecord
  2
*Active
 70
     0
 10
0.0
 20
0.0
 11
1.0
 21
1.0
 12
0.0
 22
0.0
 13
0.0
 23
0.0
 14
1.0
 24
1.0
 15
0.0
 25
0.0
 16
0.0
 26
0.0
 36
1.0
 17
104.9999999737534
 27
-148.4999999628701
 37
0.0
 40
302.939999924255
 41
0.7070707070707534
 42
50.0
 43
0.0
 44
0.0
 50
0.0
 51
0.0
 71
     0
 72
   100
 73
     1
 74
     0
 75
     1
 76
     0
 77
     0
 78
     0
281
     0
 65
     1
110
0.0
120
0.0
130
0.0
111
1.0
121
0.0
131
0.0
112
0.0
122
1.0
132
0.0
 79
     0
146
0.0
 60
     3
 61
     5
292
     1
282
     1
141
0.0
142
0.0
 63
   250
421
  3355443
  0
ENDTAB
  0
TABLE
  2
LTYPE
  5
5
330
0
100
AcDbSymbolTable
 70
     3
  0
LTYPE
  5
5B
330
5
100
AcDbSymbolTableRecord
100
AcDbLinetypeTableRecord
  2
ByBlock
 70
     0
  3

 72
    65
 73
     0
 40
0.0
  0
LTYPE
  5
5C
330
5
100
AcDbSymbolTableRecord
100
AcDbLinetypeTableRecord
  2
ByLayer
 70
     0
  3

 72
    65
 73
     0
 40
0.0
  0
LTYPE
  5
5D
330
5
100
AcDbSymbolTableRecord
100
AcDbLinetypeTableRecord
  2
Continuous
 70
     0
  3
Solid line
 72
    65
 73
     0
 40
0.0
  0
LTYPE
  5
B8
330
5
100
AcDbSymbolTableRecord
100
AcDbLinetypeTableRecord
  2
AI-Linetype-0
 70
     0
  3
Adobe Illustrator Linetype No. 0
 72
    65
 73
     2
 40
1.411111110758333
 49
0.7055555553791667
 74
     0
 49
-0.7055555553791667
 74
     0
  0
LTYPE
  5
BA
330
5
100
AcDbSymbolTableRecord
100
AcDbLinetypeTableRecord
  2
AI-Linetype-1
 70
     0
  3
Adobe Illustrator Linetype No. 1
 72
    65
 73
     2
 40
1.411111110758333
 49
0.7055555553791667
 74
     0
 49
-0.7055555553791667
 74
     0
  0
ENDTAB
  0
TABLE
  2
LAYER
  5
2
330
0
100
AcDbSymbolTable
 70
     2
  0
LAYER
  5
54
330
2
100
AcDbSymbolTableRecord
100
AcDbLayerTableRecord
  2
0
 70
     0
 62
     7
  6
Continuous
370
    -3
390
F
347
21
  0
LAYER
  5
78
330
2
100
AcDbSymbolTableRecord
100
AcDbLayerTableRecord
  2
レイヤー 1
 70
     0
 62
     7
  6
Continuous
370
     0
390
F
347
21
  0
ENDTAB
  0
TABLE
  2
STYLE
  5
3
330
0
100
AcDbSymbolTable
 70
     2
  0
STYLE
  5
55
330
3
100
AcDbSymbolTableRecord
100
AcDbTextStyleTableRecord
  2
Standard
 70
     0
 40
0.0
 41
1.0
 50
0.0
 71
     0
 42
0.2
  3
txt
  4

  0
STYLE
  5
5A
330
3
100
AcDbSymbolTableRecord
100
AcDbTextStyleTableRecord
  2
Annotative
 70
     0
 40
0.0
 41
1.0
 50
0.0
 71
     0
 42
0.2
  3
txt
  4

1001
AcadAnnotative
1000
AnnotativeData
1002
{
1070
     1
1070
     1
1002
}
  0
ENDTAB
  0
TABLE
  2
VIEW
  5
6
330
0
100
AcDbSymbolTable
 70
     0
  0
ENDTAB
  0
TABLE
  2
UCS
  5
7
330
0
100
AcDbSymbolTable
 70
     0
  0
ENDTAB
  0
TABLE
  2
APPID
  5
9
330
0
100
AcDbSymbolTable
 70
     2
  0
APPID
  5
56
330
9
100
AcDbSymbolTableRecord
100
AcDbRegAppTableRecord
  2
ACAD
 70
     0
  0
APPID
  5
5E
330
9
100
AcDbSymbolTableRecord
100
AcDbRegAppTableRecord
  2
AcadAnnotative
 70
     0
  0
ENDTAB
  0
TABLE
  2
DIMSTYLE
  5
A
330
0
100
AcDbSymbolTable
 70
     2
100
AcDbDimStyleTable
 71
     0
  0
DIMSTYLE
105
58
330
A
100
AcDbSymbolTableRecord
100
AcDbDimStyleTableRecord
  2
Standard
 70
     0
340
55
  0
DIMSTYLE
105
59
330
A
100
AcDbSymbolTableRecord
100
AcDbDimStyleTableRecord
  2
Annotative
 70
     0
340
55
1001
AcadAnnotative
1000
AnnotativeData
1002
{
1070
     1
1070
     1
1002
}
  0
ENDTAB
  0
TABLE
  2
BLOCK_RECORD
  5
1
330
0
100
AcDbSymbolTable
 70
    17
  0
BLOCK_RECORD
  5
70
330
1
100
AcDbSymbolTableRecord
100
AcDbBlockTableRecord
  2
*Model_Space
340
73
 70
     0
280
     1
281
     0
  0
BLOCK_RECORD
  5
6C
330
1
100
AcDbSymbolTableRecord
100
AcDbBlockTableRecord
  2
*Paper_Space
340
6F
 70
     0
280
     1
281
     0
  0
BLOCK_RECORD
  5
74
330
1
100
AcDbSymbolTableRecord
100
AcDbBlockTableRecord
  2
*Paper_Space0
340
77
 70
     0
280
     1
281
     0
  0
BLOCK_RECORD
  5
79
330
1
100
AcDbSymbolTableRecord
100
AcDbBlockTableRecord
  2
Block_0
340
0
102
{BLKREFS
331
7A
102
}
 70
     0
280
     1
281
     0
  0
BLOCK_RECORD
  5
B3
330
1
100
AcDbSymbolTableRecord
100
AcDbBlockTableRecord
  2
Block_1
340
0
102
{BLKREFS
331
B4
102
}
 70
     0
280
     1
281
     0
  0
BLOCK_RECORD
  5
123
330
1
100
AcDbSymbolTableRecord
100
AcDbBlockTableRecord
  2
Block_2
340
0
102
{BLKREFS
331
124
102
}
 70
     0
280
     1
281
     0
  0
BLOCK_RECORD
  5
12C
330
1
100
AcDbSymbolTableRecord
100
AcDbBlockTableRecord
  2
Block_3
340
0
102
{BLKREFS
331
12D
102
}
 70
     0
280
     1
281
     0
  0
BLOCK_RECORD
  5
130
330
1
100
AcDbSymbolTableRecord
100
AcDbBlockTableRecord
  2
Block_4
340
0
102
{BLKREFS
331
131
102
}
 70
     0
280
     1
281
     0
  0
BLOCK_RECORD
  5
13F
330
1
100
AcDbSymbolTableRecord
100
AcDbBlockTableRecord
  2
Block_5
340
0
102
{BLKREFS
331
140
102
}
 70
     0
280
     1
281
     0
  0
BLOCK_RECORD
  5
143
330
1
100
AcDbSymbolTableRecord
100
AcDbBlockTableRecord
  2
Block_6
340
0
102
{BLKREFS
331
144
102
}
 70
     0
280
     1
281
     0
  0
BLOCK_RECORD
  5
150
330
1
100
AcDbSymbolTableRecord
100
AcDbBlockTableRecord
  2
Block_7
340
0
102
{BLKREFS
331
151
102
}
 70
     0
280
     1
281
     0
  0
BLOCK_RECORD
  5
154
330
1
100
AcDbSymbolTableRecord
100
AcDbBlockTableRecord
  2
Block_8
340
0
102
{BLKREFS
331
155
102
}
 70
     0
280
     1
281
     0
  0
BLOCK_RECORD
  5
15E
330
1
100
AcDbSymbolTableRecord
100
AcDbBlockTableRecord
  2
Block_9
340
0
102
{BLKREFS
331
15F
102
}
 70
     0
280
     1
281
     0
  0
BLOCK_RECORD
  5
162
330
1
100
AcDbSymbolTableRecord
100
AcDbBlockTableRecord
  2
Block_10
340
0
102
{BLKREFS
331
163
102
}
 70
     0
280
     1
281
     0
  0
BLOCK_RECORD
  5
16C
330
1
100
AcDbSymbolTableRecord
100
AcDbBlockTableRecord
  2
Block_11
340
0
102
{BLKREFS
331
16D
102
}
 70
     0
280
     1
281
     0
  0
BLOCK_RECORD
  5
174
330
1
100
AcDbSymbolTableRecord
100
AcDbBlockTableRecord
  2
Block_12
340
0
102
{BLKREFS
331
175
102
}
 70
     0
280
     1
281
     0
  0
BLOCK_RECORD
  5
178
330
1
100
AcDbSymbolTableRecord
100
AcDbBlockTableRecord
  2
Block_13
340
0
102
{BLKREFS
331
179
102
}
 70
     0
280
     1
281
     0
  0
BLOCK_RECORD
  5
17F
330
1
100
AcDbSymbolTableRecord
100
AcDbBlockTableRecord
  2
Block_14
340
0
102
{BLKREFS
331
180
102
}
 70
     0
280
     1
281
     0
  0
BLOCK_RECORD
  5
183
330
1
100
AcDbSymbolTableRecord
100
AcDbBlockTableRecord
  2
Block_15
340
0
102
{BLKREFS
331
184
102
}
 70
     0
280
     1
281
     0
  0
ENDTAB
  0
ENDSEC
  0
SECTION
  2
BLOCKS
  0
BLOCK
  5
71
330
70
100
AcDbEntity
  8
0
100
AcDbBlockBegin
  2
*Model_Space
 70
     0
 10
0.0
 20
0.0
 30
0.0
  3
*Model_Space
  1

  0
ENDBLK
  5
72
330
70
100
AcDbEntity
  8
0
100
AcDbBlockEnd
  0
BLOCK
  5
6D
330
6C
100
AcDbEntity
 67
     1
  8
0
100
AcDbBlockBegin
  2
*Paper_Space
 70
     0
 10
0.0
 20
0.0
 30
0.0
  3
*Paper_Space
  1

  0
ENDBLK
  5
6E
330
6C
100
AcDbEntity
 67
     1
  8
0
100
AcDbBlockEnd
  0
BLOCK
  5
75
330
74
100
AcDbEntity
 67
     1
  8
0
100
AcDbBlockBegin
  2
*Paper_Space0
 70
     0
 10
0.0
 20
0.0
 30
0.0
  3
*Paper_Space0
  1

  0
ENDBLK
  5
76
330
74
100
AcDbEntity
 67
     1
  8
0
100
AcDbBlockEnd
  0
BLOCK
  5
7B
330
79
100
AcDbEntity
  8
0
100
AcDbBlockBegin
  2
Block_0
 70
     0
 10
0.0
 20
0.0
 30
0.0
  3
Block_0
  1

  0
SPLINE
  5
7D
330
79
100
AcDbEntity
  8
レイヤー 1
 62
   250
420
  2299925
370
     9
100
AcDbSpline
210
0.0
220
0.0
230
1.0
 70
     9
 71
     3
 72
    17
 73
    13
 74
     0
 42
0.0000000001
 43
0.0000000001
 40
0.0
 40
0.0
 40
0.0
 40
0.0
 40
1.0
 40
1.0
 40
1.0
 40
2.0
 40
2.0
 40
2.0
 40
3.0
 40
3.0
 40
3.0
 40
4.0
 40
4.0
 40
4.0
 40
4.0
 10
139.3158982221173
 20
-155.5579202791571
 30
0.0
 10
139.3158982221173
 20
-155.7777008346576
 30
0.0
 10
139.0085935077351
 20
-155.9554655568353
 30
0.0
 10
138.6317210173499
 20
-155.9554655568353
 30
0.0
 10
138.2527318603521
 20
-155.9554655568353
 30
0.0
 10
137.9461327015074
 20
-155.7777008346576
 30
0.0
 10
137.9461327015074
 20
-155.5579202791571
 30
0.0
 10
137.9461327015074
 20
-155.338810001434
 30
0.0
 10
138.2527318603521
 20
-155.1610452792564
 30
0.0
 10
138.6317210173499
 20
-155.1610452792564
 30
0.0
 10
139.0085935077351
 20
-155.1610452792564
 30
0.0
 10
139.3158982221173
 20
-155.338810001434
 30
0.0
 10
139.3158982221173
 20
-155.5579202791571
 30
0.0
  0
SPLINE
  5
7E
330
79
100
AcDbEntity
  8
レイヤー 1
 62
   250
420
  2299925
370
     9
100
AcDbSpline
210
0.0
220
0.0
230
1.0
 70
     8
 71
     3
 72
    11
 73
     7
 74
     0
 42
0.0000000001
 43
0.0000000001
 40
0.0
 40
0.0
 40
0.0
 40
0.0
 40
1.0
 40
1.0
 40
1.0
 40
2.0
 40
2.0
 40
2.0
 40
2.0
 10
138.0653363095774
 20
-155.7763250013247
 30
0.0
 10
138.0653363095774
 20
-155.7763250013247
 30
0.0
 10
138.0453379975564
 20
-155.2995105569995
 30
0.0
 10
138.8191165681246
 20
-155.3401858347669
 30
0.0
 10
138.8191165681246
 20
-155.3401858347669
 30
0.0
 10
139.2759285009148
 20
-155.3994525014193
 30
0.0
 10
139.1966946140474
 20
-155.7570280568848
 30
0.0
  0
SPLINE
  5
7F
330
79
100
AcDbEntity
  8
レイヤー 1
 62
   250
420
  2299925
370
     9
100
AcDbSpline
210
0.0
220
0.0
230
1.0
 70
    11
 71
     3
 72
    17
 73
    13
 74
     0
 42
0.0000000001
 43
0.0000000001
 40
0.0
 40
0.0
 40
0.0
 40
0.0
 40
1.0
 40
1.0
 40
1.0
 40
2.0
 40
2.0
 40
2.0
 40
3.0
 40
3.0
 40
3.0
 40
4.0
 40
4.0
 40
4.0
 40
4.0
 10
139.6314579362889
 20
-156.8615400010532
 30
0.0
 10
139.6314579362889
 20
-157.0806502787763
 30
0.0
 10
139.3241574416811
 20
-157.258415000954
 30
0.0
 10
138.9459048982233
 20
-157.258415000954
 30
0.0
 10
138.5683268523006
 20
-157.258415000954
 30
0.0
 10
138.261692415679
 20
-157.0806502787763
 30
0.0
 10
138.261692415679
 20
-156.8615400010532
 30
0.0
 10
138.261692415679
 20
-156.6424297233301
 30
0.0
 10
138.5683268523006
 20
-156.4646650011525
 30
0.0
 10
138.9459048982233
 20
-156.4646650011525
 30
0.0
 10
139.3241574416811
 20
-156.4646650011525
 30
0.0
 10
139.6314579362889
 20
-156.6424297233301
 30
0.0
 10
139.6314579362889
 20
-156.8615400010532
 30
0.0
  0
SPLINE
  5
80
330
79
100
AcDbEntity
  8
レイヤー 1
 62
   250
420
  2299925
370
     9
100
AcDbSpline
210
0.0
220
0.0
230
1.0
 70
     8
 71
     3
 72
    11
 73
     7
 74
     0
 42
0.0000000001
 43
0.0000000001
 40
0.0
 40
0.0
 40
0.0
 40
0.0
 40
1.0
 40
1.0
 40
1.0
 40
2.0
 40
2.0
 40
2.0
 40
2.0
 10
138.3816015792866
 20
-157.0792744454434
 30
0.0
 10
138.3816015792866
 20
-157.0792744454434
 30
0.0
 10
138.3609288020362
 20
-156.6031655566737
 30
0.0
 10
139.1346762822962
 20
-156.6431000011081
 30
0.0
 10
139.1346762822962
 20
-156.6431000011081
 30
0.0
 10
139.592193770624
 20
-156.7023666677599
 30
0.0
 10
139.5115840504583
 20
-157.0599775010036
 30
0.0
  0
SPLINE
  5
81
330
79
100
AcDbEntity
  8
レイヤー 1
 62
   250
420
  2299925
370
     9
100
AcDbSpline
210
0.0
220
0.0
230
1.0
 70
    11
 71
     3
 72
    17
 73
    13
 74
     0
 42
0.0000000001
 43
0.0000000001
 40
0.0
 40
0.0
 40
0.0
 40
0.0
 40
1.0
 40
1.0
 40
1.0
 40
2.0
 40
2.0
 40
2.0
 40
3.0
 40
3.0
 40
3.0
 40
4.0
 40
4.0
 40
4.0
 40
4.0
 10
139.1057485052565
 20
-154.4237750016632
 30
0.0
 10
139.1057485052565
 20
-154.6428852793863
 30
0.0
 10
138.7991493464118
 20
-154.820650001564
 30
0.0
 10
138.4208657449515
 20
-154.820650001564
 30
0.0
 10
138.0425821434912
 20
-154.820650001564
 30
0.0
 10
137.7359829846465
 20
-154.6428852793863
 30
0.0
 10
137.7359829846465
 20
-154.4237750016632
 30
0.0
 10
137.7359829846465
 20
-154.2046647239401
 30
0.0
 10
138.0425821434912
 20
-154.0262297239844
 30
0.0
 10
138.4208657449515
 20
-154.0262297239844
 30
0.0
 10
138.7991493464118
 20
-154.0262297239844
 30
0.0
 10
139.1057485052565
 20
-154.2046647239401
 30
0.0
 10
139.1057485052565
 20
-154.4237750016632
 30
0.0
  0
SPLINE
  5
82
330
79
100
AcDbEntity
  8
レイヤー 1
 62
   250
420
  2299925
370
     9
100
AcDbSpline
210
0.0
220
0.0
230
1.0
 70
     8
 71
     3
 72
    11
 73
     7
 74
     0
 42
0.0000000001
 43
0.0000000001
 40
0.0
 40
0.0
 40
0.0
 40
0.0
 40
1.0
 40
1.0
 40
1.0
 40
2.0
 40
2.0
 40
2.0
 40
2.0
 10
137.8558568704772
 20
-154.6415094460528
 30
0.0
 10
137.8558568704772
 20
-154.6415094460528
 30
0.0
 10
137.8351840932268
 20
-154.1654005572831
 30
0.0
 10
138.6089668512638
 20
-154.2053702794957
 30
0.0
 10
138.6089668512638
 20
-154.2053702794957
 30
0.0
 10
139.065778784054
 20
-154.2646369461467
 30
0.0
 10
138.9865491084327
 20
-154.6222125016136
 30
0.0
  0
SPLINE
  5
83
330
79
100
AcDbEntity
  8
レイヤー 1
 62
   250
420
  2299925
370
     9
100
AcDbSpline
210
0.0
220
0.0
230
1.0
 70
     9
 71
     3
 72
    17
 73
    13
 74
     0
 42
0.0000000001
 43
0.0000000001
 40
0.0
 40
0.0
 40
0.0
 40
0.0
 40
1.0
 40
1.0
 40
1.0
 40
2.0
 40
2.0
 40
2.0
 40
3.0
 40
3.0
 40
3.0
 40
4.0
 40
4.0
 40
4.0
 40
4.0
 10
134.8173113924414
 20
-149.6729872250725
 30
0.0
 10
134.8173113924414
 20
-149.8928030583511
 30
0.0
 10
134.5106769558199
 20
-150.0698622249732
 30
0.0
 10
134.1324286321364
 20
-150.0698622249732
 30
0.0
 10
133.7548153084368
 20
-150.0698622249732
 30
0.0
 10
133.4482161495922
 20
-149.8928030583511
 30
0.0
 10
133.4482161495922
 20
-149.6729872250725
 30
0.0
 10
133.4482161495922
 20
-149.4538769473493
 30
0.0
 10
133.7548153084368
 20
-149.2761122251717
 30
0.0
 10
134.1324286321364
 20
-149.2761122251717
 30
0.0
 10
134.5106769558199
 20
-149.2761122251717
 30
0.0
 10
134.8173113924414
 20
-149.4538769473493
 30
0.0
 10
134.8173113924414
 20
-149.6729872250725
 30
0.0
  0
SPLINE
  5
84
330
79
100
AcDbEntity
  8
レイヤー 1
 62
   250
420
  2299925
370
     9
100
AcDbSpline
210
0.0
220
0.0
230
1.0
 70
     8
 71
     3
 72
    11
 73
     7
 74
     0
 42
0.0000000001
 43
0.0000000001
 40
0.0
 40
0.0
 40
0.0
 40
0.0
 40
1.0
 40
1.0
 40
1.0
 40
2.0
 40
2.0
 40
2.0
 40
2.0
 10
133.5667142021246
 20
-149.8907216694627
 30
0.0
 10
133.5667142021246
 20
-149.8907216694627
 30
0.0
 10
133.5467469804118
 20
-149.414612780693
 30
0.0
 10
134.3205297384487
 20
-149.4545825029049
 30
0.0
 10
134.3205297384487
 20
-149.4545825029049
 30
0.0
 10
134.7780119489996
 20
-149.5138491695572
 30
0.0
 10
134.6987780621321
 20
-149.8714247250228
 30
0.0
  0
SPLINE
  5
85
330
79
100
AcDbEntity
  8
レイヤー 1
 62
   250
420
  2299925
370
     9
100
AcDbSpline
210
0.0
220
0.0
230
1.0
 70
     9
 71
     3
 72
    17
 73
    13
 74
     0
 42
0.0000000001
 43
0.0000000001
 40
0.0
 40
0.0
 40
0.0
 40
0.0
 40
1.0
 40
1.0
 40
1.0
 40
2.0
 40
2.0
 40
2.0
 40
3.0
 40
3.0
 40
3.0
 40
4.0
 40
4.0
 40
4.0
 40
4.0
 10
135.1121983293626
 20
-150.7657869470222
 30
0.0
 10
135.1121983293626
 20
-150.9855675025226
 30
0.0
 10
134.8048936149804
 20
-151.162661946923
 30
0.0
 10
134.4266100135201
 20
-151.162661946923
 30
0.0
 10
134.0490319675974
 20
-151.162661946923
 30
0.0
 10
133.7424328087527
 20
-150.9855675025226
 30
0.0
 10
133.7424328087527
 20
-150.7657869470222
 30
0.0
 10
133.7424328087527
 20
-150.5466766692991
 30
0.0
 10
134.0490319675974
 20
-150.3689119471214
 30
0.0
 10
134.4266100135201
 20
-150.3689119471214
 30
0.0
 10
134.8048936149804
 20
-150.3689119471214
 30
0.0
 10
135.1121983293626
 20
-150.5466766692991
 30
0.0
 10
135.1121983293626
 20
-150.7657869470222
 30
0.0
  0
SPLINE
  5
86
330
79
100
AcDbEntity
  8
レイヤー 1
 62
   250
420
  2299925
370
     9
100
AcDbSpline
210
0.0
220
0.0
230
1.0
 70
     8
 71
     3
 72
    11
 73
     7
 74
     0
 42
0.0000000001
 43
0.0000000001
 40
0.0
 40
0.0
 40
0.0
 40
0.0
 40
1.0
 40
1.0
 40
1.0
 40
2.0
 40
2.0
 40
2.0
 40
2.0
 10
133.8616364168227
 20
-150.9841916691898
 30
0.0
 10
133.8616364168227
 20
-150.9841916691898
 30
0.0
 10
133.8416379986082
 20
-150.5074125026421
 30
0.0
 10
134.61541667537
 20
-150.5473469470764
 30
0.0
 10
134.61541667537
 20
-150.5473469470764
 30
0.0
 10
135.0722286081601
 20
-150.6066136137282
 30
0.0
 10
134.9929947212927
 20
-150.9642244469726
 30
0.0
  0
SPLINE
  5
87
330
79
100
AcDbEntity
  8
レイヤー 1
 62
   250
420
  2299925
370
     9
100
AcDbSpline
210
0.0
220
0.0
230
1.0
 70
     9
 71
     3
 72
    17
 73
    13
 74
     0
 42
0.0000000001
 43
0.0000000001
 40
0.0
 40
0.0
 40
0.0
 40
0.0
 40
1.0
 40
1.0
 40
1.0
 40
2.0
 40
2.0
 40
2.0
 40
3.0
 40
3.0
 40
3.0
 40
4.0
 40
4.0
 40
4.0
 40
4.0
 10
136.8774630065492
 20
-148.642911391997
 30
0.0
 10
136.8774630065492
 20
-148.8627272252753
 30
0.0
 10
136.570158292167
 20
-149.0404919474533
 30
0.0
 10
136.1925802462443
 20
-149.0404919474533
 30
0.0
 10
135.8142966447839
 20
-149.0404919474533
 30
0.0
 10
135.5076974859393
 20
-148.8627272252753
 30
0.0
 10
135.5076974859393
 20
-148.642911391997
 30
0.0
 10
135.5076974859393
 20
-148.4238011142739
 30
0.0
 10
135.8142966447839
 20
-148.2460363920962
 30
0.0
 10
136.1925802462443
 20
-148.2460363920962
 30
0.0
 10
136.570158292167
 20
-148.2460363920962
 30
0.0
 10
136.8774630065492
 20
-148.4238011142739
 30
0.0
 10
136.8774630065492
 20
-148.642911391997
 30
0.0
  0
SPLINE
  5
88
330
79
100
AcDbEntity
  8
レイヤー 1
 62
   250
420
  2299925
370
     9
100
AcDbSpline
210
0.0
220
0.0
230
1.0
 70
     8
 71
     3
 72
    11
 73
     7
 74
     0
 42
0.0000000001
 43
0.0000000001
 40
0.0
 40
0.0
 40
0.0
 40
0.0
 40
1.0
 40
1.0
 40
1.0
 40
2.0
 40
2.0
 40
2.0
 40
2.0
 10
135.6269010940093
 20
-148.8613161141646
 30
0.0
 10
135.6269010940093
 20
-148.8613161141646
 30
0.0
 10
135.6068985945196
 20
-148.3845369476172
 30
0.0
 10
136.3813869080941
 20
-148.4245066698294
 30
0.0
 10
136.3813869080941
 20
-148.4245066698294
 30
0.0
 10
136.8381988408843
 20
-148.4844436142588
 30
0.0
 10
136.7582593984792
 20
-148.8413488919474
 30
0.0
  0
SPLINE
  5
89
330
79
100
AcDbEntity
  8
レイヤー 1
 62
   250
420
  2299925
370
     9
100
AcDbSpline
210
0.0
220
0.0
230
1.0
 70
     9
 71
     3
 72
    17
 73
    13
 74
     0
 42
0.0000000001
 43
0.0000000001
 40
0.0
 40
0.0
 40
0.0
 40
0.0
 40
1.0
 40
1.0
 40
1.0
 40
2.0
 40
2.0
 40
2.0
 40
3.0
 40
3.0
 40
3.0
 40
4.0
 40
4.0
 40
4.0
 40
4.0
 10
137.1723499434705
 20
-149.7363813917235
 30
0.0
 10
137.1723499434705
 20
-149.9554916694466
 30
0.0
 10
136.8643749513276
 20
-150.1332563916242
 30
0.0
 10
136.4874713312801
 20
-150.1332563916242
 30
0.0
 10
136.1085133039445
 20
-150.1332563916242
 30
0.0
 10
135.8019141450999
 20
-149.9554916694466
 30
0.0
 10
135.8019141450999
 20
-149.7363813917235
 30
0.0
 10
135.8019141450999
 20
-149.516600836223
 30
0.0
 10
136.1085133039445
 20
-149.3388361140453
 30
0.0
 10
136.4874713312801
 20
-149.3388361140453
 30
0.0
 10
136.8643749513276
 20
-149.3388361140453
 30
0.0
 10
137.1723499434705
 20
-149.516600836223
 30
0.0
 10
137.1723499434705
 20
-149.7363813917235
 30
0.0
  0
SPLINE
  5
8A
330
79
100
AcDbEntity
  8
レイヤー 1
 62
   250
420
  2299925
370
     9
100
AcDbSpline
210
0.0
220
0.0
230
1.0
 70
     8
 71
     3
 72
    11
 73
     7
 74
     0
 42
0.0000000001
 43
0.0000000001
 40
0.0
 40
0.0
 40
0.0
 40
0.0
 40
1.0
 40
1.0
 40
1.0
 40
2.0
 40
2.0
 40
2.0
 40
2.0
 10
135.9211177531699
 20
-149.9541158361137
 30
0.0
 10
135.9211177531699
 20
-149.9541158361137
 30
0.0
 10
135.9018208092177
 20
-149.4773013917884
 30
0.0
 10
136.6762738450153
 20
-149.5172711140004
 30
0.0
 10
136.6762738450153
 20
-149.5172711140004
 30
0.0
 10
137.1324155000448
 20
-149.5765377806527
 30
0.0
 10
137.0524760576398
 20
-149.9348188916739
 30
0.0
  0
SPLINE
  5
8B
330
79
100
AcDbEntity
  8
レイヤー 1
 62
   250
420
  2299925
370
     9
100
AcDbSpline
210
0.0
220
0.0
230
1.0
 70
     9
 71
     3
 72
    17
 73
    13
 74
     0
 42
0.0000000001
 43
0.0000000001
 40
0.0
 40
0.0
 40
0.0
 40
0.0
 40
1.0
 40
1.0
 40
1.0
 40
2.0
 40
2.0
 40
2.0
 40
3.0
 40
3.0
 40
3.0
 40
4.0
 40
4.0
 40
4.0
 40
4.0
 10
134.4603708459922
 20
-148.7276486141981
 30
0.0
 10
134.4603708459922
 20
-148.9467588919206
 30
0.0
 10
134.1523958538493
 20
-149.1245236140989
 30
0.0
 10
133.7761936412247
 20
-149.1245236140989
 30
0.0
 10
133.3972397620038
 20
-149.1245236140989
 30
0.0
 10
133.0913108809198
 20
-148.9467588919206
 30
0.0
 10
133.0913108809198
 20
-148.7276486141981
 30
0.0
 10
133.0913108809198
 20
-148.508538336475
 30
0.0
 10
133.3972397620038
 20
-148.3307736142973
 30
0.0
 10
133.7761936412247
 20
-148.3307736142973
 30
0.0
 10
134.1523958538493
 20
-148.3307736142973
 30
0.0
 10
134.4603708459922
 20
-148.508538336475
 30
0.0
 10
134.4603708459922
 20
-148.7276486141981
 30
0.0
  0
SPLINE
  5
8C
330
79
100
AcDbEntity
  8
レイヤー 1
 62
   250
420
  2299925
370
     9
100
AcDbSpline
210
0.0
220
0.0
230
1.0
 70
     8
 71
     3
 72
    11
 73
     7
 74
     0
 42
0.0000000001
 43
0.0000000001
 40
0.0
 40
0.0
 40
0.0
 40
0.0
 40
1.0
 40
1.0
 40
1.0
 40
2.0
 40
2.0
 40
2.0
 40
2.0
 10
133.2098129987658
 20
-148.9453830585877
 30
0.0
 10
133.2098129987658
 20
-148.9453830585877
 30
0.0
 10
133.1898417117394
 20
-148.4686038920406
 30
0.0
 10
133.964294747537
 20
-148.508538336475
 30
0.0
 10
133.964294747537
 20
-148.508538336475
 30
0.0
 10
134.4204364025665
 20
-148.5685105586822
 30
0.0
 10
134.3411713318157
 20
-148.9260861141485
 30
0.0
  0
SPLINE
  5
8D
330
79
100
AcDbEntity
  8
レイヤー 1
 62
   250
420
  2299925
370
     9
100
AcDbSpline
210
0.0
220
0.0
230
1.0
 70
     9
 71
     3
 72
    17
 73
    13
 74
     0
 42
0.0000000001
 43
0.0000000001
 40
0.0
 40
0.0
 40
0.0
 40
0.0
 40
1.0
 40
1.0
 40
1.0
 40
2.0
 40
2.0
 40
2.0
 40
3.0
 40
3.0
 40
3.0
 40
4.0
 40
4.0
 40
4.0
 40
4.0
 10
132.6737631137945
 20
-150.5556372248519
 30
0.0
 10
132.6737631137945
 20
-150.7754177803524
 30
0.0
 10
132.367128677173
 20
-150.9531825025301
 30
0.0
 10
131.9888803534896
 20
-150.9531825025301
 30
0.0
 10
131.6113023075668
 20
-150.9531825025301
 30
0.0
 10
131.3039975931846
 20
-150.7754177803524
 30
0.0
 10
131.3039975931846
 20
-150.5556372248519
 30
0.0
 10
131.3039975931846
 20
-150.3371972249068
 30
0.0
 10
131.6113023075668
 20
-150.1587622249511
 30
0.0
 10
131.9888803534896
 20
-150.1587622249511
 30
0.0
 10
132.367128677173
 20
-150.1587622249511
 30
0.0
 10
132.6737631137945
 20
-150.3371972249068
 30
0.0
 10
132.6737631137945
 20
-150.5556372248519
 30
0.0
  0
SPLINE
  5
8E
330
79
100
AcDbEntity
  8
レイヤー 1
 62
   250
420
  2299925
370
     9
100
AcDbSpline
210
0.0
220
0.0
230
1.0
 70
     8
 71
     3
 72
    11
 73
     7
 74
     0
 42
0.0000000001
 43
0.0000000001
 40
0.0
 40
0.0
 40
0.0
 40
0.0
 40
1.0
 40
1.0
 40
1.0
 40
2.0
 40
2.0
 40
2.0
 40
2.0
 10
131.4232012012546
 20
-150.7740419470195
 30
0.0
 10
131.4232012012546
 20
-150.7740419470195
 30
0.0
 10
131.4031987017649
 20
-150.2972627804724
 30
0.0
 10
132.1769814598018
 20
-150.3379027804617
 30
0.0
 10
132.1769814598018
 20
-150.3379027804617
 30
0.0
 10
132.633793392592
 20
-150.3971694471141
 30
0.0
 10
132.5545595057246
 20
-150.7547450025797
 30
0.0
  0
SPLINE
  5
8F
330
79
100
AcDbEntity
  8
レイヤー 1
 62
   250
420
  2299925
370
     9
100
AcDbSpline
210
0.0
220
0.0
230
1.0
 70
     9
 71
     3
 72
    17
 73
    13
 74
     0
 42
0.0000000001
 43
0.0000000001
 40
0.0
 40
0.0
 40
0.0
 40
0.0
 40
1.0
 40
1.0
 40
1.0
 40
2.0
 40
2.0
 40
2.0
 40
3.0
 40
3.0
 40
3.0
 40
4.0
 40
4.0
 40
4.0
 40
4.0
 10
132.9679797729551
 20
-151.6484016690235
 30
0.0
 10
132.9679797729551
 20
-151.8682175023021
 30
0.0
 10
132.6613453363336
 20
-152.0459822244798
 30
0.0
 10
132.2837713323306
 20
-152.0459822244798
 30
0.0
 10
131.9048134111898
 20
-152.0459822244798
 30
0.0
 10
131.5982142523452
 20
-151.8682175023021
 30
0.0
 10
131.5982142523452
 20
-151.6484016690235
 30
0.0
 10
131.5982142523452
 20
-151.4292913913004
 30
0.0
 10
131.9048134111898
 20
-151.2515266691227
 30
0.0
 10
132.2837713323306
 20
-151.2515266691227
 30
0.0
 10
132.6613453363336
 20
-151.2515266691227
 30
0.0
 10
132.9679797729551
 20
-151.4292913913004
 30
0.0
 10
132.9679797729551
 20
-151.6484016690235
 30
0.0
  0
SPLINE
  5
90
330
79
100
AcDbEntity
  8
レイヤー 1
 62
   250
420
  2299925
370
     9
100
AcDbSpline
210
0.0
220
0.0
230
1.0
 70
     8
 71
     3
 72
    11
 73
     7
 74
     0
 42
0.0000000001
 43
0.0000000001
 40
0.0
 40
0.0
 40
0.0
 40
0.0
 40
1.0
 40
1.0
 40
1.0
 40
2.0
 40
2.0
 40
2.0
 40
2.0
 10
131.7173825826383
 20
-151.8668416689686
 30
0.0
 10
131.7173825826383
 20
-151.8668416689686
 30
0.0
 10
131.698120916463
 20
-151.3900272246434
 30
0.0
 10
132.4718683967231
 20
-151.4307025024115
 30
0.0
 10
132.4718683967231
 20
-151.4307025024115
 30
0.0
 10
132.9280100517526
 20
-151.4899338912857
 30
0.0
 10
132.8494464426458
 20
-151.8475447245294
 30
0.0
  0
SPLINE
  5
91
330
79
100
AcDbEntity
  8
レイヤー 1
 62
   250
420
  2299925
370
     9
100
AcDbSpline
210
0.0
220
0.0
230
1.0
 70
     9
 71
     3
 72
    17
 73
    13
 74
     0
 42
0.0000000001
 43
0.0000000001
 40
0.0
 40
0.0
 40
0.0
 40
0.0
 40
1.0
 40
1.0
 40
1.0
 40
2.0
 40
2.0
 40
2.0
 40
3.0
 40
3.0
 40
3.0
 40
4.0
 40
4.0
 40
4.0
 40
4.0
 10
132.3168578451222
 20
-149.6102986139769
 30
0.0
 10
132.3168578451222
 20
-149.8300791694781
 30
0.0
 10
132.0095531307399
 20
-150.0078438916557
 30
0.0
 10
131.6312695292797
 20
-150.0078438916557
 30
0.0
 10
131.2536914833569
 20
-150.0078438916557
 30
0.0
 10
130.9477626022729
 20
-149.8300791694781
 30
0.0
 10
130.9477626022729
 20
-149.6102986139769
 30
0.0
 10
130.9477626022729
 20
-149.3911883362545
 30
0.0
 10
131.2536914833569
 20
-149.2134236140761
 30
0.0
 10
131.6312695292797
 20
-149.2134236140761
 30
0.0
 10
132.0095531307399
 20
-149.2134236140761
 30
0.0
 10
132.3168578451222
 20
-149.3911883362545
 30
0.0
 10
132.3168578451222
 20
-149.6102986139769
 30
0.0
  0
SPLINE
  5
92
330
79
100
AcDbEntity
  8
レイヤー 1
 62
   250
420
  2299925
370
     9
100
AcDbSpline
210
0.0
220
0.0
230
1.0
 70
     8
 71
     3
 72
    11
 73
     7
 74
     0
 42
0.0000000001
 43
0.0000000001
 40
0.0
 40
0.0
 40
0.0
 40
0.0
 40
1.0
 40
1.0
 40
1.0
 40
2.0
 40
2.0
 40
2.0
 40
2.0
 10
131.0662606548053
 20
-149.8287033361445
 30
0.0
 10
131.0662606548053
 20
-149.8287033361445
 30
0.0
 10
131.0462934330925
 20
-149.3519241695975
 30
0.0
 10
131.8207464688901
 20
-149.3918938918094
 30
0.0
 10
131.8207464688901
 20
-149.3918938918094
 30
0.0
 10
132.2768881239197
 20
-149.4511252806836
 30
0.0
 10
132.1969486815147
 20
-149.8087361139273
 30
0.0
  0
SPLINE
  5
93
330
79
100
AcDbEntity
  8
レイヤー 1
 62
   250
420
  2299925
370
     9
100
AcDbSpline
210
0.0
220
0.0
230
1.0
 70
     9
 71
     3
 72
    17
 73
    13
 74
     0
 42
0.0000000001
 43
0.0000000001
 40
0.0
 40
0.0
 40
0.0
 40
0.0
 40
1.0
 40
1.0
 40
1.0
 40
2.0
 40
2.0
 40
2.0
 40
3.0
 40
3.0
 40
3.0
 40
4.0
 40
4.0
 40
4.0
 40
4.0
 10
130.5192081687618
 20
-151.4072427801948
 30
0.0
 10
130.5192081687618
 20
-151.6263530579179
 30
0.0
 10
130.2119074439598
 20
-151.8041177800956
 30
0.0
 10
129.8336198529193
 20
-151.8041177800956
 30
0.0
 10
129.455336251459
 20
-151.8041177800956
 30
0.0
 10
129.1487370926143
 20
-151.6263530579179
 30
0.0
 10
129.1487370926143
 20
-151.4072427801948
 30
0.0
 10
129.1487370926143
 20
-151.1881677802499
 30
0.0
 10
129.455336251459
 20
-151.010367780294
 30
0.0
 10
129.8336198529193
 20
-151.010367780294
 30
0.0
 10
130.2119074439598
 20
-151.010367780294
 30
0.0
 10
130.5192081687618
 20
-151.1881677802499
 30
0.0
 10
130.5192081687618
 20
-151.4072427801948
 30
0.0
  0
SPLINE
  5
94
330
79
100
AcDbEntity
  8
レイヤー 1
 62
   250
420
  2299925
370
     9
100
AcDbSpline
210
0.0
220
0.0
230
1.0
 70
     8
 71
     3
 72
    11
 73
     7
 74
     0
 42
0.0000000001
 43
0.0000000001
 40
0.0
 40
0.0
 40
0.0
 40
0.0
 40
1.0
 40
1.0
 40
1.0
 40
2.0
 40
2.0
 40
2.0
 40
2.0
 10
129.2693165339825
 20
-151.624977224585
 30
0.0
 10
129.2693165339825
 20
-151.624977224585
 30
0.0
 10
129.2486437567322
 20
-151.1488683358147
 30
0.0
 10
130.0224265147691
 20
-151.1888380580272
 30
0.0
 10
130.0224265147691
 20
-151.1888380580272
 30
0.0
 10
130.4792384475593
 20
-151.248104724679
 30
0.0
 10
130.4000045606918
 20
-151.6056802801452
 30
0.0
  0
SPLINE
  5
95
330
79
100
AcDbEntity
  8
レイヤー 1
 62
   250
420
  2299925
370
     9
100
AcDbSpline
210
0.0
220
0.0
230
1.0
 70
     9
 71
     3
 72
    17
 73
    13
 74
     0
 42
0.0000000001
 43
0.0000000001
 40
0.0
 40
0.0
 40
0.0
 40
0.0
 40
1.0
 40
1.0
 40
1.0
 40
2.0
 40
2.0
 40
2.0
 40
3.0
 40
3.0
 40
3.0
 40
4.0
 40
4.0
 40
4.0
 40
4.0
 10
127.9126390685943
 20
-151.2604872246756
 30
0.0
 10
127.9126390685943
 20
-151.4795975023987
 30
0.0
 10
127.6060399097496
 20
-151.6573622245763
 30
0.0
 10
127.227760222484
 20
-151.6573622245763
 30
0.0
 10
126.849472706829
 20
-151.6573622245763
 30
0.0
 10
126.543543825745
 20
-151.4795975023987
 30
0.0
 10
126.543543825745
 20
-151.2604872246756
 30
0.0
 10
126.543543825745
 20
-151.0407066691751
 30
0.0
 10
126.849472706829
 20
-150.8629419469974
 30
0.0
 10
127.227760222484
 20
-150.8629419469974
 30
0.0
 10
127.6060399097496
 20
-150.8629419469974
 30
0.0
 10
127.9126390685943
 20
-151.0407066691751
 30
0.0
 10
127.9126390685943
 20
-151.2604872246756
 30
0.0
  0
SPLINE
  5
96
330
79
100
AcDbEntity
  8
レイヤー 1
 62
   250
420
  2299925
370
     9
100
AcDbSpline
210
0.0
220
0.0
230
1.0
 70
     8
 71
     3
 72
    11
 73
     7
 74
     0
 42
0.0000000001
 43
0.0000000001
 40
0.0
 40
0.0
 40
0.0
 40
0.0
 40
1.0
 40
1.0
 40
1.0
 40
2.0
 40
2.0
 40
2.0
 40
2.0
 10
126.6620771560543
 20
-151.4782216690658
 30
0.0
 10
126.6620771560543
 20
-151.4782216690658
 30
0.0
 10
126.6420746565646
 20
-151.0014425025181
 30
0.0
 10
127.4165276923622
 20
-151.0413769469525
 30
0.0
 10
127.4165276923622
 20
-151.0413769469525
 30
0.0
 10
127.8726693473918
 20
-151.1006436136048
 30
0.0
 10
127.7934354605243
 20
-151.458924724626
 30
0.0
  0
SPLINE
  5
97
330
79
100
AcDbEntity
  8
レイヤー 1
 62
   250
420
  2299925
370
     9
100
AcDbSpline
210
0.0
220
0.0
230
1.0
 70
     9
 71
     3
 72
    17
 73
    13
 74
     0
 42
0.0000000001
 43
0.0000000001
 40
0.0
 40
0.0
 40
0.0
 40
0.0
 40
1.0
 40
1.0
 40
1.0
 40
2.0
 40
2.0
 40
2.0
 40
3.0
 40
3.0
 40
3.0
 40
4.0
 40
4.0
 40
4.0
 40
4.0
 10
130.8133935549199
 20
-152.5000425021439
 30
0.0
 10
130.8133935549199
 20
-152.7198230576444
 30
0.0
 10
130.5061241105526
 20
-152.8976230575996
 30
0.0
 10
130.1292123453781
 20
-152.8976230575996
 30
0.0
 10
129.7502584661571
 20
-152.8976230575996
 30
0.0
 10
129.4436240295356
 20
-152.7198230576444
 30
0.0
 10
129.4436240295356
 20
-152.5000425021439
 30
0.0
 10
129.4436240295356
 20
-152.2809322244208
 30
0.0
 10
129.7502584661571
 20
-152.1031675022431
 30
0.0
 10
130.1292123453781
 20
-152.1031675022431
 30
0.0
 10
130.5061241105526
 20
-152.1031675022431
 30
0.0
 10
130.8133935549199
 20
-152.2809322244208
 30
0.0
 10
130.8133935549199
 20
-152.5000425021439
 30
0.0
  0
SPLINE
  5
98
330
79
100
AcDbEntity
  8
レイヤー 1
 62
   250
420
  2299925
370
     9
100
AcDbSpline
210
0.0
220
0.0
230
1.0
 70
     8
 71
     3
 72
    11
 73
     7
 74
     0
 42
0.0000000001
 43
0.0000000001
 40
0.0
 40
0.0
 40
0.0
 40
0.0
 40
1.0
 40
1.0
 40
1.0
 40
2.0
 40
2.0
 40
2.0
 40
2.0
 10
129.5635331931431
 20
-152.7184472243115
 30
0.0
 10
129.5635331931431
 20
-152.7184472243115
 30
0.0
 10
129.5428604158927
 20
-152.2416680577638
 30
0.0
 10
130.3173134516903
 20
-152.2816377799763
 30
0.0
 10
130.3173134516903
 20
-152.2816377799763
 30
0.0
 10
130.7734551067199
 20
-152.3415747244054
 30
0.0
 10
130.6935156643149
 20
-152.6991855576492
 30
0.0
  0
SPLINE
  5
99
330
79
100
AcDbEntity
  8
レイヤー 1
 62
   250
420
  2299925
370
     9
100
AcDbSpline
210
0.0
220
0.0
230
1.0
 70
    11
 71
     3
 72
    17
 73
    13
 74
     0
 42
0.0000000001
 43
0.0000000001
 40
0.0
 40
0.0
 40
0.0
 40
0.0
 40
1.0
 40
1.0
 40
1.0
 40
2.0
 40
2.0
 40
2.0
 40
3.0
 40
3.0
 40
3.0
 40
4.0
 40
4.0
 40
4.0
 40
4.0
 10
130.1615973445519
 20
-150.461939447098
 30
0.0
 10
130.1615973445519
 20
-150.6810497248211
 30
0.0
 10
129.8549981857072
 20
-150.8588144469988
 30
0.0
 10
129.4767185552551
 20
-150.8588144469988
 30
0.0
 10
129.0991365383242
 20
-150.8588144469988
 30
0.0
 10
128.7925021017026
 20
-150.6810497248211
 30
0.0
 10
128.7925021017026
 20
-150.461939447098
 30
0.0
 10
128.7925021017026
 20
-150.2428291693749
 30
0.0
 10
129.0991365383242
 20
-150.0643588916417
 30
0.0
 10
129.4767185552551
 20
-150.0643588916417
 30
0.0
 10
129.8549981857072
 20
-150.0643588916417
 30
0.0
 10
130.1615973445519
 20
-150.2428291693749
 30
0.0
 10
130.1615973445519
 20
-150.461939447098
 30
0.0
  0
SPLINE
  5
9A
330
79
100
AcDbEntity
  8
レイヤー 1
 62
   250
420
  2299925
370
     9
100
AcDbSpline
210
0.0
220
0.0
230
1.0
 70
     8
 71
     3
 72
    11
 73
     7
 74
     0
 42
0.0000000001
 43
0.0000000001
 40
0.0
 40
0.0
 40
0.0
 40
0.0
 40
1.0
 40
1.0
 40
1.0
 40
2.0
 40
2.0
 40
2.0
 40
2.0
 10
128.9117057097726
 20
-150.67963861371
 30
0.0
 10
128.9117057097726
 20
-150.67963861371
 30
0.0
 10
128.8917384880598
 20
-150.2028594471623
 30
0.0
 10
129.6654859683199
 20
-150.2434994471522
 30
0.0
 10
129.6654859683199
 20
-150.2434994471522
 30
0.0
 10
130.1223331788869
 20
-150.3027661138046
 30
0.0
 10
130.0430992920195
 20
-150.6603769470484
 30
0.0
  0
ELLIPSE
  5
9B
330
79
100
AcDbEntity
  8
レイヤー 1
 62
   250
420
  2299925
370
     9
100
AcDbEllipse
 10
140.7752340182199
 20
-154.6339247238322
 30
0.0
 11
0.6848827603049629
 21
0.0
 31
0.0
210
0.0
220
0.0
230
1.0
 40
0.5794787413309423
 41
0.0
 42
6.283185307179586
  0
SPLINE
  5
9C
330
79
100
AcDbEntity
  8
レイヤー 1
 62
   250
420
  2299925
370
     9
100
AcDbSpline
210
0.0
220
0.0
230
1.0
 70
     8
 71
     3
 72
    11
 73
     7
 74
     0
 42
0.0000000001
 43
0.0000000001
 40
0.0
 40
0.0
 40
0.0
 40
0.0
 40
1.0
 40
1.0
 40
1.0
 40
2.0
 40
2.0
 40
2.0
 40
2.0
 10
140.2088845882242
 20
-154.852364723778
 30
0.0
 10
140.2088845882242
 20
-154.852364723778
 30
0.0
 10
140.1895876442721
 20
-154.3755502794527
 30
0.0
 10
140.9633351245322
 20
-154.4155200016646
 30
0.0
 10
140.9633351245322
 20
-154.4155200016646
 30
0.0
 10
141.4201823350992
 20
-154.474786668317
 30
0.0
 10
141.3402428926942
 20
-154.8323622237826
 30
0.0
  0
SPLINE
  5
9D
330
79
100
AcDbEntity
  8
レイヤー 1
 62
   250
420
  2299925
370
     9
100
AcDbSpline
210
0.0
220
0.0
230
1.0
 70
     9
 71
     3
 72
    17
 73
    13
 74
     0
 42
0.0000000001
 43
0.0000000001
 40
0.0
 40
0.0
 40
0.0
 40
0.0
 40
1.0
 40
1.0
 40
1.0
 40
2.0
 40
2.0
 40
2.0
 40
3.0
 40
3.0
 40
3.0
 40
4.0
 40
4.0
 40
4.0
 40
4.0
 10
141.7750062149358
 20
-155.936874167951
 30
0.0
 10
141.7750062149358
 20
-156.1566547234514
 30
0.0
 10
141.4677015005536
 20
-156.3344194456297
 30
0.0
 10
141.0908290101684
 20
-156.3344194456297
 30
0.0
 10
140.7118398531705
 20
-156.3344194456297
 30
0.0
 10
140.4052406943259
 20
-156.1566547234514
 30
0.0
 10
140.4052406943259
 20
-155.936874167951
 30
0.0
 10
140.4052406943259
 20
-155.7177638902278
 30
0.0
 10
140.7118398531705
 20
-155.5399991680502
 30
0.0
 10
141.0908290101684
 20
-155.5399991680502
 30
0.0
 10
141.4677015005536
 20
-155.5399991680502
 30
0.0
 10
141.7750062149358
 20
-155.7177638902278
 30
0.0
 10
141.7750062149358
 20
-155.936874167951
 30
0.0
  0
SPLINE
  5
9E
330
79
100
AcDbEntity
  8
レイヤー 1
 62
   250
420
  2299925
370
     9
100
AcDbSpline
210
0.0
220
0.0
230
1.0
 70
     8
 71
     3
 72
    11
 73
     7
 74
     0
 42
0.0000000001
 43
0.0000000001
 40
0.0
 40
0.0
 40
0.0
 40
0.0
 40
1.0
 40
1.0
 40
1.0
 40
2.0
 40
2.0
 40
2.0
 40
2.0
 10
140.5251145801565
 20
-156.1552788901185
 30
0.0
 10
140.5251145801565
 20
-156.1552788901185
 30
0.0
 10
140.5051473584437
 20
-155.6784997235715
 30
0.0
 10
141.2789301164807
 20
-155.7184341680058
 30
0.0
 10
141.2789301164807
 20
-155.7184341680058
 30
0.0
 10
141.7364123270315
 20
-155.7784063902131
 30
0.0
 10
141.6565081624034
 20
-156.1353116679013
 30
0.0
  0
SPLINE
  5
9F
330
79
100
AcDbEntity
  8
レイヤー 1
 62
   250
420
  2299925
370
     9
100
AcDbSpline
210
0.0
220
0.0
230
1.0
 70
     9
 71
     3
 72
    17
 73
    13
 74
     0
 42
0.0000000001
 43
0.0000000001
 40
0.0
 40
0.0
 40
0.0
 40
0.0
 40
1.0
 40
1.0
 40
1.0
 40
2.0
 40
2.0
 40
2.0
 40
3.0
 40
3.0
 40
3.0
 40
4.0
 40
4.0
 40
4.0
 40
4.0
 10
141.2492967839033
 20
-153.4991091685609
 30
0.0
 10
141.2492967839033
 20
-153.7189250018389
 30
0.0
 10
140.9426623472818
 20
-153.8959841684617
 30
0.0
 10
140.5650843013591
 20
-153.8959841684617
 30
0.0
 10
140.1868359776756
 20
-153.8959841684617
 30
0.0
 10
139.8802015410541
 20
-153.7189250018389
 30
0.0
 10
139.8802015410541
 20
-153.4991091685609
 30
0.0
 10
139.8802015410541
 20
-153.2799988908378
 30
0.0
 10
140.1868359776756
 20
-153.1022341686601
 30
0.0
 10
140.5650843013591
 20
-153.1022341686601
 30
0.0
 10
140.9426623472818
 20
-153.1022341686601
 30
0.0
 10
141.2492967839033
 20
-153.2799988908378
 30
0.0
 10
141.2492967839033
 20
-153.4991091685609
 30
0.0
  0
SPLINE
  5
A0
330
79
100
AcDbEntity
  8
レイヤー 1
 62
   250
420
  2299925
370
     9
100
AcDbSpline
210
0.0
220
0.0
230
1.0
 70
     8
 71
     3
 72
    11
 73
     7
 74
     0
 42
0.0000000001
 43
0.0000000001
 40
0.0
 40
0.0
 40
0.0
 40
0.0
 40
1.0
 40
1.0
 40
1.0
 40
2.0
 40
2.0
 40
2.0
 40
2.0
 10
139.9994051491241
 20
-153.717549168506
 30
0.0
 10
139.9994051491241
 20
-153.717549168506
 30
0.0
 10
139.9794379274112
 20
-153.2407347241808
 30
0.0
 10
140.7531854076713
 20
-153.2807044463933
 30
0.0
 10
140.7531854076713
 20
-153.2807044463933
 30
0.0
 10
141.2100326182384
 20
-153.3406413908224
 30
0.0
 10
141.130763453594
 20
-153.6975466685113
 30
0.0
  0
SPLINE
  5
A1
330
79
100
AcDbEntity
  8
レイヤー 1
 62
   250
420
  2299925
370
     9
100
AcDbSpline
210
0.0
220
0.0
230
1.0
 70
    11
 71
     3
 72
    17
 73
    13
 74
     0
 42
0.0000000001
 43
0.0000000001
 40
0.0
 40
0.0
 40
0.0
 40
0.0
 40
1.0
 40
1.0
 40
1.0
 40
2.0
 40
2.0
 40
2.0
 40
3.0
 40
3.0
 40
3.0
 40
4.0
 40
4.0
 40
4.0
 40
4.0
 10
143.6036650571717
 20
-153.772653057381
 30
0.0
 10
143.6036650571717
 20
-153.9917633351041
 30
0.0
 10
143.2963603427895
 20
-154.1695280572817
 30
0.0
 10
142.9180767413292
 20
-154.1695280572817
 30
0.0
 10
142.5404986954065
 20
-154.1695280572817
 30
0.0
 10
142.2345741076202
 20
-153.9917633351041
 30
0.0
 10
142.2345741076202
 20
-153.772653057381
 30
0.0
 10
142.2345741076202
 20
-153.5535427796578
 30
0.0
 10
142.5404986954065
 20
-153.3757780574802
 30
0.0
 10
142.9180767413292
 20
-153.3757780574802
 30
0.0
 10
143.2963603427895
 20
-153.3757780574802
 30
0.0
 10
143.6036650571717
 20
-153.5535427796578
 30
0.0
 10
143.6036650571717
 20
-153.772653057381
 30
0.0
  0
SPLINE
  5
A2
330
79
100
AcDbEntity
  8
レイヤー 1
 62
   250
420
  2299925
370
     9
100
AcDbSpline
210
0.0
220
0.0
230
1.0
 70
     8
 71
     3
 72
    11
 73
     7
 74
     0
 42
0.0000000001
 43
0.0000000001
 40
0.0
 40
0.0
 40
0.0
 40
0.0
 40
1.0
 40
1.0
 40
1.0
 40
2.0
 40
2.0
 40
2.0
 40
2.0
 10
142.3537734223925
 20
-153.9903875017712
 30
0.0
 10
142.3537734223925
 20
-153.9903875017712
 30
0.0
 10
142.3331006451421
 20
-153.5142786130015
 30
0.0
 10
143.106883403179
 20
-153.5542483352134
 30
0.0
 10
143.106883403179
 20
-153.5542483352134
 30
0.0
 10
143.5636953359692
 20
-153.6135150018657
 30
0.0
 10
143.4844657739749
 20
-153.9710905573313
 30
0.0
  0
SPLINE
  5
A3
330
79
100
AcDbEntity
  8
レイヤー 1
 62
   250
420
  2299925
370
     9
100
AcDbSpline
210
0.0
220
0.0
230
1.0
 70
     9
 71
     3
 72
    17
 73
    13
 74
     0
 42
0.0000000001
 43
0.0000000001
 40
0.0
 40
0.0
 40
0.0
 40
0.0
 40
1.0
 40
1.0
 40
1.0
 40
2.0
 40
2.0
 40
2.0
 40
3.0
 40
3.0
 40
3.0
 40
4.0
 40
4.0
 40
4.0
 40
4.0
 10
143.9192247713434
 20
-155.0756025014997
 30
0.0
 10
143.9192247713434
 20
-155.2953830570002
 30
0.0
 10
143.6112497792005
 20
-155.4724775014005
 30
0.0
 10
143.2343463295934
 20
-155.4724775014005
 30
0.0
 10
142.8553881318174
 20
-155.4724775014005
 30
0.0
 10
142.5487889729728
 20
-155.2953830570002
 30
0.0
 10
142.5487889729728
 20
-155.0756025014997
 30
0.0
 10
142.5487889729728
 20
-154.8564922237766
 30
0.0
 10
142.8553881318174
 20
-154.6793977793763
 30
0.0
 10
143.2343463295934
 20
-154.6793977793763
 30
0.0
 10
143.6112497792005
 20
-154.6793977793763
 30
0.0
 10
143.9192247713434
 20
-154.8564922237766
 30
0.0
 10
143.9192247713434
 20
-155.0756025014997
 30
0.0
  0
SPLINE
  5
A4
330
79
100
AcDbEntity
  8
レイヤー 1
 62
   250
420
  2299925
370
     9
100
AcDbSpline
210
0.0
220
0.0
230
1.0
 70
     8
 71
     3
 72
    11
 73
     7
 74
     0
 42
0.0000000001
 43
0.0000000001
 40
0.0
 40
0.0
 40
0.0
 40
0.0
 40
1.0
 40
1.0
 40
1.0
 40
2.0
 40
2.0
 40
2.0
 40
2.0
 10
142.6679925810427
 20
-155.2940072236673
 30
0.0
 10
142.6679925810427
 20
-155.2940072236673
 30
0.0
 10
142.6486956370906
 20
-154.8172280571202
 30
0.0
 10
143.4231486728882
 20
-154.8571625015546
 30
0.0
 10
143.4231486728882
 20
-154.8571625015546
 30
0.0
 10
143.8799606056784
 20
-154.9164291682063
 30
0.0
 10
143.8000211632734
 20
-155.2740400014501
 30
0.0
  0
SPLINE
  5
A5
330
79
100
AcDbEntity
  8
レイヤー 1
 62
   250
420
  2299925
370
     9
100
AcDbSpline
210
0.0
220
0.0
230
1.0
 70
    11
 71
     3
 72
    17
 73
    13
 74
     0
 42
0.0000000001
 43
0.0000000001
 40
0.0
 40
0.0
 40
0.0
 40
0.0
 40
1.0
 40
1.0
 40
1.0
 40
2.0
 40
2.0
 40
2.0
 40
3.0
 40
3.0
 40
3.0
 40
4.0
 40
4.0
 40
4.0
 40
4.0
 10
143.3935153403109
 20
-152.6378375021097
 30
0.0
 10
143.3935153403109
 20
-152.8569477798328
 30
0.0
 10
143.085540348168
 20
-153.0347125020105
 30
0.0
 10
142.7086325800059
 20
-153.0347125020105
 30
0.0
 10
142.3303489785456
 20
-153.0347125020105
 30
0.0
 10
142.0244200974616
 20
-152.8569477798328
 30
0.0
 10
142.0244200974616
 20
-152.6378375021097
 30
0.0
 10
142.0244200974616
 20
-152.4187272243866
 30
0.0
 10
142.3303489785456
 20
-152.2409625022089
 30
0.0
 10
142.7086325800059
 20
-152.2409625022089
 30
0.0
 10
143.085540348168
 20
-152.2409625022089
 30
0.0
 10
143.3935153403109
 20
-152.4187272243866
 30
0.0
 10
143.3935153403109
 20
-152.6378375021097
 30
0.0
  0
SPLINE
  5
A6
330
79
100
AcDbEntity
  8
レイヤー 1
 62
   250
420
  2299925
370
     9
100
AcDbSpline
210
0.0
220
0.0
230
1.0
 70
     8
 71
     3
 72
    11
 73
     7
 74
     0
 42
0.0000000001
 43
0.0000000001
 40
0.0
 40
0.0
 40
0.0
 40
0.0
 40
1.0
 40
1.0
 40
1.0
 40
2.0
 40
2.0
 40
2.0
 40
2.0
 10
142.1429534277709
 20
-152.8562775020548
 30
0.0
 10
142.1429534277709
 20
-152.8562775020548
 30
0.0
 10
142.1229509282812
 20
-152.3794630577296
 30
0.0
 10
142.8974435518992
 20
-152.4194327799421
 30
0.0
 10
142.8974435518992
 20
-152.4194327799421
 30
0.0
 10
143.3535456191084
 20
-152.4786994465932
 30
0.0
 10
143.2743117322409
 20
-152.8362750020601
 30
0.0
  0
SPLINE
  5
A7
330
79
100
AcDbEntity
  8
レイヤー 1
 62
   250
420
  2299925
370
     9
100
AcDbSpline
210
0.0
220
0.0
230
1.0
 70
     9
 71
     3
 72
    17
 73
    13
 74
     0
 42
0.0000000001
 43
0.0000000001
 40
0.0
 40
0.0
 40
0.0
 40
0.0
 40
1.0
 40
1.0
 40
1.0
 40
2.0
 40
2.0
 40
2.0
 40
3.0
 40
3.0
 40
3.0
 40
4.0
 40
4.0
 40
4.0
 40
4.0
 10
145.7472133358186
 20
-152.7845930576283
 30
0.0
 10
145.7472133358186
 20
-153.0037033353508
 30
0.0
 10
145.440578899197
 20
-153.1814680575291
 30
0.0
 10
145.0630008532743
 20
-153.1814680575291
 30
0.0
 10
144.6840469740533
 20
-153.1814680575291
 30
0.0
 10
144.3781180929693
 20
-153.0037033353508
 30
0.0
 10
144.3781180929693
 20
-152.7845930576283
 30
0.0
 10
144.3781180929693
 20
-152.5654827799052
 30
0.0
 10
144.6840469740533
 20
-152.3877180577275
 30
0.0
 10
145.0630008532743
 20
-152.3877180577275
 30
0.0
 10
145.440578899197
 20
-152.3877180577275
 30
0.0
 10
145.7472133358186
 20
-152.5654827799052
 30
0.0
 10
145.7472133358186
 20
-152.7845930576283
 30
0.0
  0
SPLINE
  5
A8
330
79
100
AcDbEntity
  8
レイヤー 1
 62
   250
420
  2299925
370
     9
100
AcDbSpline
210
0.0
220
0.0
230
1.0
 70
     8
 71
     3
 72
    11
 73
     7
 74
     0
 42
0.0000000001
 43
0.0000000001
 40
0.0
 40
0.0
 40
0.0
 40
0.0
 40
1.0
 40
1.0
 40
1.0
 40
2.0
 40
2.0
 40
2.0
 40
2.0
 10
144.4973217010393
 20
-153.0030330575734
 30
0.0
 10
144.4973217010393
 20
-153.0030330575734
 30
0.0
 10
144.4773544793265
 20
-152.5262186132488
 30
0.0
 10
145.2511019595865
 20
-152.5661883354607
 30
0.0
 10
145.2511019595865
 20
-152.5661883354607
 30
0.0
 10
145.7079491701536
 20
-152.6254550021125
 30
0.0
 10
145.6286800055093
 20
-152.9830305575787
 30
0.0
  0
SPLINE
  5
A9
330
79
100
AcDbEntity
  8
レイヤー 1
 62
   250
420
  2299925
370
     9
100
AcDbSpline
210
0.0
220
0.0
230
1.0
 70
     9
 71
     3
 72
    17
 73
    13
 74
     0
 42
0.0000000001
 43
0.0000000001
 40
0.0
 40
0.0
 40
0.0
 40
0.0
 40
1.0
 40
1.0
 40
1.0
 40
2.0
 40
2.0
 40
2.0
 40
3.0
 40
3.0
 40
3.0
 40
4.0
 40
4.0
 40
4.0
 40
4.0
 10
146.0634786055278
 20
-154.087542501747
 30
0.0
 10
146.0634786055278
 20
-154.3073230572475
 30
0.0
 10
145.755468335608
 20
-154.4851230572027
 30
0.0
 10
145.3785958452228
 20
-154.4851230572027
 30
0.0
 10
144.999606688225
 20
-154.4851230572027
 30
0.0
 10
144.6937130849178
 20
-154.3073230572475
 30
0.0
 10
144.6937130849178
 20
-154.087542501747
 30
0.0
 10
144.6937130849178
 20
-153.8684322240239
 30
0.0
 10
144.999606688225
 20
-153.6906675018463
 30
0.0
 10
145.3785958452228
 20
-153.6906675018463
 30
0.0
 10
145.755468335608
 20
-153.6906675018463
 30
0.0
 10
146.0634786055278
 20
-153.8684322240239
 30
0.0
 10
146.0634786055278
 20
-154.087542501747
 30
0.0
  0
SPLINE
  5
AA
330
79
100
AcDbEntity
  8
レイヤー 1
 62
   250
420
  2299925
370
     9
100
AcDbSpline
210
0.0
220
0.0
230
1.0
 70
     8
 71
     3
 72
    11
 73
     7
 74
     0
 42
0.0000000001
 43
0.0000000001
 40
0.0
 40
0.0
 40
0.0
 40
0.0
 40
1.0
 40
1.0
 40
1.0
 40
2.0
 40
2.0
 40
2.0
 40
2.0
 10
144.8128814152109
 20
-154.3059472239146
 30
0.0
 10
144.8128814152109
 20
-154.3059472239146
 30
0.0
 10
144.7922129958697
 20
-153.8291680573669
 30
0.0
 10
145.5666969515351
 20
-153.8698080573568
 30
0.0
 10
145.5666969515351
 20
-153.8698080573568
 30
0.0
 10
146.0235088843253
 20
-153.9290747240086
 30
0.0
 10
145.9435694419202
 20
-154.2866855572523
 30
0.0
  0
SPLINE
  5
AB
330
79
100
AcDbEntity
  8
レイヤー 1
 62
   250
420
  2299925
370
     9
100
AcDbSpline
210
0.0
220
0.0
230
1.0
 70
    11
 71
     3
 72
    17
 73
    13
 74
     0
 42
0.0000000001
 43
0.0000000001
 40
0.0
 40
0.0
 40
0.0
 40
0.0
 40
1.0
 40
1.0
 40
1.0
 40
2.0
 40
2.0
 40
2.0
 40
3.0
 40
3.0
 40
3.0
 40
4.0
 40
4.0
 40
4.0
 40
4.0
 10
136.9822027260993
 20
-155.3698191680931
 30
0.0
 10
136.9822027260993
 20
-155.5889294458162
 30
0.0
 10
136.6755682894778
 20
-155.7666941679938
 30
0.0
 10
136.2973241091052
 20
-155.7666941679938
 30
0.0
 10
135.9197419198716
 20
-155.7666941679938
 30
0.0
 10
135.6131074832501
 20
-155.5889294458162
 30
0.0
 10
135.6131074832501
 20
-155.3698191680931
 30
0.0
 10
135.6131074832501
 20
-155.15070889037
 30
0.0
 10
135.9197419198716
 20
-154.9729441681923
 30
0.0
 10
136.2973241091052
 20
-154.9729441681923
 30
0.0
 10
136.6755682894778
 20
-154.9729441681923
 30
0.0
 10
136.9822027260993
 20
-155.15070889037
 30
0.0
 10
136.9822027260993
 20
-155.3698191680931
 30
0.0
  0
SPLINE
  5
AC
330
79
100
AcDbEntity
  8
レイヤー 1
 62
   250
420
  2299925
370
     9
100
AcDbSpline
210
0.0
220
0.0
230
1.0
 70
     8
 71
     3
 72
    11
 73
     7
 74
     0
 42
0.0000000001
 43
0.0000000001
 40
0.0
 40
0.0
 40
0.0
 40
0.0
 40
1.0
 40
1.0
 40
1.0
 40
2.0
 40
2.0
 40
2.0
 40
2.0
 10
135.73231109132
 20
-155.5875536124827
 30
0.0
 10
135.73231109132
 20
-155.5875536124827
 30
0.0
 10
135.7116383140697
 20
-155.1114094459354
 30
0.0
 10
136.4860913498673
 20
-155.151379168148
 30
0.0
 10
136.4860913498673
 20
-155.151379168148
 30
0.0
 10
136.9429074422764
 20
-155.2106458347991
 30
0.0
 10
136.86366939579
 20
-155.5682566680435
 30
0.0
  0
SPLINE
  5
AD
330
79
100
AcDbEntity
  8
レイヤー 1
 62
   250
420
  2299925
370
     9
100
AcDbSpline
210
0.0
220
0.0
230
1.0
 70
     8
 71
     3
 72
    23
 73
    19
 74
     0
 42
0.0000000001
 43
0.0000000001
 40
0.0
 40
0.0
 40
0.0
 40
0.0
 40
1.0
 40
1.0
 40
1.0
 40
2.0
 40
2.0
 40
2.0
 40
3.0
 40
3.0
 40
3.0
 40
4.0
 40
4.0
 40
4.0
 40
5.0
 40
5.0
 40
5.0
 40
6.0
 40
6.0
 40
6.0
 40
6.0
 10
133.8671397500156
 20
-147.7906002810989
 30
0.0
 10
133.8671397500156
 20
-147.7906002810989
 30
0.0
 10
125.736035513013
 20
-150.9118369469853
 30
0.0
 10
125.736035513013
 20
-150.9118369469853
 30
0.0
 10
125.736035513013
 20
-150.9118369469853
 30
0.0
 10
124.4014066581733
 20
-151.2522322246782
 30
0.0
 10
125.3832577442353
 20
-151.7173344467842
 30
0.0
 10
125.3832577442353
 20
-151.7173344467842
 30
0.0
 10
131.0731750990734
 20
-154.3734688905643
 30
0.0
 10
131.0731750990734
 20
-154.3734688905643
 30
0.0
 10
131.0731750990734
 20
-154.3734688905643
 30
0.0
 10
130.9718926016573
 20
-156.8656675010525
 30
0.0
 10
130.9718926016573
 20
-156.8656675010525
 30
0.0
 10
130.9718926016573
 20
-156.8656675010525
 30
0.0
 10
132.9734831061481
 20
-157.8723188896895
 30
0.0
 10
132.9734831061481
 20
-157.8723188896895
 30
0.0
 10
132.9734831061481
 20
-157.8723188896895
 30
0.0
 10
135.7929535897729
 20
-156.6389725011088
 30
0.0
 10
135.7929535897729
 20
-156.6389725011088
 30
0.0
  0
SPLINE
  5
AE
330
79
100
AcDbEntity
  8
レイヤー 1
 62
   250
420
  2299925
370
     9
100
AcDbSpline
210
0.0
220
0.0
230
1.0
 70
     8
 71
     3
 72
    26
 73
    22
 74
     0
 42
0.0000000001
 43
0.0000000001
 40
0.0
 40
0.0
 40
0.0
 40
0.0
 40
1.0
 40
1.0
 40
1.0
 40
2.0
 40
2.0
 40
2.0
 40
3.0
 40
3.0
 40
3.0
 40
4.0
 40
4.0
 40
4.0
 40
5.0
 40
5.0
 40
5.0
 40
6.0
 40
6.0
 40
6.0
 40
7.0
 40
7.0
 40
7.0
 40
7.0
 10
133.9553341922101
 20
-147.8787947255213
 30
0.0
 10
133.9553341922101
 20
-147.8787947255213
 30
0.0
 10
125.5844469057692
 20
-151.1633322247003
 30
0.0
 10
125.5844469057692
 20
-151.1633322247003
 30
0.0
 10
125.5844469057692
 20
-151.1633322247003
 30
0.0
 10
125.1944510823855
 20
-151.2522322246782
 30
0.0
 10
125.2957335798015
 20
-151.3907327801989
 30
0.0
 10
125.2957335798015
 20
-151.3907327801989
 30
0.0
 10
131.4376650897745
 20
-154.1970800017195
 30
0.0
 10
131.4376650897745
 20
-154.1970800017195
 30
0.0
 10
131.4376650897745
 20
-154.1970800017195
 30
0.0
 10
131.3115823152134
 20
-156.6644783344357
 30
0.0
 10
131.3115823152134
 20
-156.6644783344357
 30
0.0
 10
131.3115823152134
 20
-156.6644783344357
 30
0.0
 10
132.6331231148313
 20
-157.3438577787106
 30
0.0
 10
132.6331231148313
 20
-157.3438577787106
 30
0.0
 10
132.6331231148313
 20
-157.3438577787106
 30
0.0
 10
132.4449907767343
 20
-154.6883583349304
 30
0.0
 10
132.4449907767343
 20
-154.6883583349304
 30
0.0
 10
132.4449907767343
 20
-154.6883583349304
 30
0.0
 10
141.1541878974409
 20
-150.6982652803719
 30
0.0
 10
141.1541878974409
 20
-150.6982652803719
 30
0.0
  0
LINE
  5
AF
330
79
100
AcDbEntity
  8
レイヤー 1
 62
   250
420
  2299925
370
     9
100
AcDbLine
 10
131.4631356446802
 20
-154.2350036128212
 30
0.0
 11
140.122065979328
 21
-150.3461577804603
 31
0.0
  0
LINE
  5
B0
330
79
100
AcDbEntity
  8
レイヤー 1
 62
   250
420
  2299925
370
     9
100
AcDbLine
 10
131.3115823152134
 20
-156.6644783344357
 30
0.0
 11
132.4946225628092
 21
-156.1732000012255
 31
0.0
  0
SPLINE
  5
B1
330
79
100
AcDbEntity
  8
レイヤー 1
 62
   250
420
  2299925
370
     9
100
AcDbSpline
210
0.0
220
0.0
230
1.0
 70
     8
 71
     3
 72
    20
 73
    16
 74
     0
 42
0.0000000001
 43
0.0000000001
 40
0.0
 40
0.0
 40
0.0
 40
0.0
 40
1.0
 40
1.0
 40
1.0
 40
2.0
 40
2.0
 40
2.0
 40
3.0
 40
3.0
 40
3.0
 40
4.0
 40
4.0
 40
4.0
 40
5.0
 40
5.0
 40
5.0
 40
5.0
 10
132.4449907767343
 20
-154.7386644460287
 30
0.0
 10
132.4449907767343
 20
-154.7386644460287
 30
0.0
 10
132.532510895176
 20
-154.4864988905362
 30
0.0
 10
133.0237892159757
 20
-154.8020586126797
 30
0.0
 10
133.0237892159757
 20
-154.8020586126797
 30
0.0
 10
136.5102213492517
 20
-156.7147844455346
 30
0.0
 10
136.5102213492517
 20
-156.7147844455346
 30
0.0
 10
136.5102213492517
 20
-156.7147844455346
 30
0.0
 10
138.3726410239596
 20
-157.8344305563653
 30
0.0
 10
138.3726410239596
 20
-157.8344305563653
 30
0.0
 10
138.3726410239596
 20
-157.8344305563653
 30
0.0
 10
139.0396026736107
 20
-158.3883975006717
 30
0.0
 10
139.7954685526754
 20
-157.8599363896929
 30
0.0
 10
139.7954685526754
 20
-157.8599363896929
 30
0.0
 10
148.5680596527417
 20
-154.0461969462016
 30
0.0
 10
148.5680596527417
 20
-154.0461969462016
 30
0.0
  0
SPLINE
  5
B2
330
79
100
AcDbEntity
  8
レイヤー 1
 62
   250
420
  2299925
370
     9
100
AcDbSpline
210
0.0
220
0.0
230
1.0
 70
     8
 71
     3
 72
    23
 73
    19
 74
     0
 42
0.0000000001
 43
0.0000000001
 40
0.0
 40
0.0
 40
0.0
 40
0.0
 40
1.0
 40
1.0
 40
1.0
 40
2.0
 40
2.0
 40
2.0
 40
3.0
 40
3.0
 40
3.0
 40
4.0
 40
4.0
 40
4.0
 40
5.0
 40
5.0
 40
5.0
 40
6.0
 40
6.0
 40
6.0
 40
6.0
 10
132.9734831061481
 20
-157.8723188896895
 30
0.0
 10
132.9734831061481
 20
-157.8723188896895
 30
0.0
 10
132.5207986732525
 20
-155.040465834842
 30
0.0
 10
132.784010221095
 20
-155.0783541681655
 30
0.0
 10
132.784010221095
 20
-155.0783541681655
 30
0.0
 10
132.8343122763652
 20
-155.040465834842
 30
0.0
 10
133.0995658807092
 20
-155.2423252792361
 30
0.0
 10
133.0995658807092
 20
-155.2423252792361
 30
0.0
 10
136.145025803013
 20
-156.802978889957
 30
0.0
 10
136.145025803013
 20
-156.802978889957
 30
0.0
 10
136.145025803013
 20
-156.802978889957
 30
0.0
 10
138.3981157752459
 20
-158.1493200007314
 30
0.0
 10
138.3981157752459
 20
-158.1493200007314
 30
0.0
 10
138.3981157752459
 20
-158.1493200007314
 30
0.0
 10
139.2538798903662
 20
-158.5772041672913
 30
0.0
 10
139.8960412628722
 20
-158.111431667408
 30
0.0
 10
139.8960412628722
 20
-158.111431667408
 30
0.0
 10
148.6686365946202
 20
-154.2604741683699
 30
0.0
 10
148.6686365946202
 20
-154.2604741683699
 30
0.0
  0
ENDBLK
  5
7C
330
79
100
AcDbEntity
  8
0
100
AcDbBlockEnd
  0
BLOCK
  5
B5
330
B3
100
AcDbEntity
  8
0
100
AcDbBlockBegin
  2
Block_1
 70
     0
 10
0.0
 20
0.0
 30
0.0
  3
Block_1
  1

  0
LINE
  5
B7
330
B3
100
AcDbEntity
  8
レイヤー 1
  6
AI-Linetype-0
 62
   154
420
    23468
370
    25
100
AcDbLine
 10
67.86100810063935
 20
-146.8487188924455
 30
0.0
 11
77.86091728996486
 21
-146.8487188924455
 31
0.0
  0
LINE
  5
B9
330
B3
100
AcDbEntity
  8
レイヤー 1
  6
AI-Linetype-1
 62
   154
420
    23468
370
    25
100
AcDbLine
 10
102.3955174973687
 20
-146.8487188924455
 30
0.0
 11
112.8606700081576
 21
-146.8487188924455
 31
0.0
  0
LINE
  5
BB
330
B3
100
AcDbEntity
  8
レイヤー 1
 62
   250
420
  2299925
370
    25
100
AcDbLine
 10
93.61050745310974
 20
-154.2143308350485
 30
0.0
 11
87.11099733175343
 21
-154.2143308350485
 31
0.0
  0
LINE
  5
BC
330
B3
100
AcDbEntity
  8
レイヤー 1
 62
   250
420
  2299925
370
    25
100
AcDbLine
 10
67.86100810063935
 20
-145.7145736149513
 30
0.0
 11
67.86100810063935
 21
-146.214812503715
 31
0.0
  0
LINE
  5
BD
330
B3
100
AcDbEntity
  8
レイヤー 1
 62
   250
420
  2299925
370
    25
100
AcDbLine
 10
87.95159912119141
 20
-146.214812503715
 30
0.0
 11
67.86100810063935
 21
-146.214812503715
 31
0.0
  0
LINE
  5
BE
330
B3
100
AcDbEntity
  8
レイヤー 1
 62
   250
420
  2299925
370
    25
100
AcDbLine
 10
92.72788968845457
 20
-153.2145586130766
 30
0.0
 11
87.99361203145828
 21
-153.2145586130766
 31
0.0
  0
LINE
  5
BF
330
B3
100
AcDbEntity
  8
レイヤー 1
 62
   250
420
  2299925
370
    25
100
AcDbLine
 10
87.11099733175343
 20
-154.2143308350485
 30
0.0
 11
87.95159912119141
 21
-146.214812503715
 31
0.0
  0
LINE
  5
C0
330
B3
100
AcDbEntity
  8
レイヤー 1
 62
   250
420
  2299925
370
    25
100
AcDbLine
 10
87.99361203145828
 20
-153.2145586130766
 30
0.0
 11
88.86179812042012
 21
-144.952538337364
 31
0.0
  0
LINE
  5
C1
330
B3
100
AcDbEntity
  8
レイヤー 1
 62
   250
420
  2299925
370
    25
100
AcDbLine
 10
67.86100810063935
 20
-145.7145736149513
 30
0.0
 11
68.37465253197963
 21
-146.0963144481891
 31
0.0
  0
LINE
  5
C2
330
B3
100
AcDbEntity
  8
レイヤー 1
 62
   250
420
  2299925
370
    25
100
AcDbLine
 10
68.37465253197963
 20
-146.0963144481891
 30
0.0
 11
68.86007474181771
 21
-145.6787666705159
 31
0.0
  0
LINE
  5
C3
330
B3
100
AcDbEntity
  8
レイヤー 1
 62
   250
420
  2299925
370
    25
100
AcDbLine
 10
69.37410722870332
 20
-146.0611425037535
 30
0.0
 11
69.85949416076484
 21
-145.6429244483026
 31
0.0
  0
LINE
  5
C4
330
B3
100
AcDbEntity
  8
レイヤー 1
 62
   250
420
  2299925
370
    25
100
AcDbLine
 10
68.86007474181771
 20
-145.6787666705159
 30
0.0
 11
69.37410722870332
 21
-146.0611425037535
 31
0.0
  0
LINE
  5
C5
330
B3
100
AcDbEntity
  8
レイヤー 1
 62
   250
420
  2299925
370
    25
100
AcDbLine
 10
69.85949416076484
 20
-145.6429244483026
 30
0.0
 11
70.37352664765077
 21
-146.0253355593181
 31
0.0
  0
LINE
  5
C6
330
B3
100
AcDbEntity
  8
レイヤー 1
 62
   250
420
  2299925
370
    25
100
AcDbLine
 10
70.37352664765077
 20
-146.0253355593181
 30
0.0
 11
70.85891357971196
 21
-145.6077877816446
 31
0.0
  0
LINE
  5
C7
330
B3
100
AcDbEntity
  8
レイヤー 1
 62
   250
420
  2299925
370
    25
100
AcDbLine
 10
70.85891357971196
 20
-145.6077877816446
 30
0.0
 11
71.3729460665979
 21
-145.9894933371048
 31
0.0
  0
LINE
  5
C8
330
B3
100
AcDbEntity
  8
レイヤー 1
 62
   250
420
  2299925
370
    25
100
AcDbLine
 10
71.3729460665979
 20
-145.9894933371048
 30
0.0
 11
71.8580154986672
 21
-145.5719455594314
 31
0.0
  0
LINE
  5
C9
330
B3
100
AcDbEntity
  8
レイヤー 1
 62
   250
420
  2299925
370
    25
100
AcDbLine
 10
71.8580154986672
 20
-145.5719455594314
 30
0.0
 11
72.37201270777626
 21
-145.9536863926694
 31
0.0
  0
LINE
  5
CA
330
B3
100
AcDbEntity
  8
レイヤー 1
 62
   250
420
  2299925
370
    25
100
AcDbLine
 10
72.37201270777626
 20
-145.9536863926694
 30
0.0
 11
72.8577876953831
 21
-145.5361386149959
 31
0.0
  0
LINE
  5
CB
330
B3
100
AcDbEntity
  8
レイヤー 1
 62
   250
420
  2299925
370
    25
100
AcDbLine
 10
72.8577876953831
 20
-145.5361386149959
 30
0.0
 11
73.37178490449217
 21
-145.9178441704565
 31
0.0
  0
LINE
  5
CC
330
B3
100
AcDbEntity
  8
レイヤー 1
 62
   250
420
  2299925
370
    25
100
AcDbLine
 10
73.37178490449217
 20
-145.9178441704565
 30
0.0
 11
73.85685433656146
 21
-145.5002963927827
 31
0.0
  0
LINE
  5
CD
330
B3
100
AcDbEntity
  8
レイヤー 1
 62
   250
420
  2299925
370
    25
100
AcDbLine
 10
73.85685433656146
 20
-145.5002963927827
 30
0.0
 11
74.37085154567052
 21
-145.8827075037981
 31
0.0
  0
LINE
  5
CE
330
B3
100
AcDbEntity
  8
レイヤー 1
 62
   250
420
  2299925
370
    25
100
AcDbLine
 10
74.37085154567052
 20
-145.8827075037981
 30
0.0
 11
74.85627375550859
 21
-145.4644541705695
 31
0.0
  0
LINE
  5
CF
330
B3
100
AcDbEntity
  8
レイヤー 1
 62
   250
420
  2299925
370
    25
100
AcDbLine
 10
75.37027096461766
 20
-145.8468652815849
 30
0.0
 11
75.85569317445539
 21
-145.4293175039114
 31
0.0
  0
LINE
  5
D0
330
B3
100
AcDbEntity
  8
レイヤー 1
 62
   250
420
  2299925
370
    25
100
AcDbLine
 10
74.85627375550859
 20
-145.4644541705695
 30
0.0
 11
75.37027096461766
 21
-145.8468652815849
 31
0.0
  0
LINE
  5
D1
330
B3
100
AcDbEntity
  8
レイヤー 1
 62
   250
420
  2299925
370
    25
100
AcDbLine
 10
75.85569317445539
 20
-145.4293175039114
 30
0.0
 11
76.3696903835651
 21
-145.8110583371495
 31
0.0
  0
LINE
  5
D2
330
B3
100
AcDbEntity
  8
レイヤー 1
 62
   250
420
  2299925
370
    25
100
AcDbLine
 10
76.3696903835651
 20
-145.8110583371495
 30
0.0
 11
76.85511259340285
 21
-145.393510559476
 31
0.0
  0
LINE
  5
D3
330
B3
100
AcDbEntity
  8
レイヤー 1
 62
   250
420
  2299925
370
    25
100
AcDbLine
 10
77.36879230252002
 20
-145.7752161149362
 30
0.0
 11
77.8543556234656
 21
-145.3576683372627
 31
0.0
  0
LINE
  5
D4
330
B3
100
AcDbEntity
  8
レイヤー 1
 62
   250
420
  2299925
370
    25
100
AcDbLine
 10
76.85511259340285
 20
-145.393510559476
 30
0.0
 11
77.36879230252002
 21
-145.7752161149362
 31
0.0
  0
LINE
  5
D5
330
B3
100
AcDbEntity
  8
レイヤー 1
 62
   250
420
  2299925
370
    25
100
AcDbLine
 10
78.36839079025357
 20
-145.739373892723
 30
0.0
 11
78.85346023457675
 21
-145.3218261150495
 31
0.0
  0
LINE
  5
D6
330
B3
100
AcDbEntity
  8
レイヤー 1
 62
   250
420
  2299925
370
    25
100
AcDbLine
 10
77.8543556234656
 20
-145.3576683372627
 30
0.0
 11
78.36839079025357
 21
-145.739373892723
 31
0.0
  0
LINE
  5
D7
330
B3
100
AcDbEntity
  8
レイヤー 1
 62
   250
420
  2299925
370
    25
100
AcDbLine
 10
78.85346023457675
 20
-145.3218261150495
 30
0.0
 11
79.36745745667026
 21
-145.704237226065
 31
0.0
  0
LINE
  5
D8
330
B3
100
AcDbEntity
  8
レイヤー 1
 62
   250
420
  2299925
370
    25
100
AcDbLine
 10
79.36745745667026
 20
-145.704237226065
 30
0.0
 11
79.85319446135986
 21
-145.2860191706141
 31
0.0
  0
LINE
  5
D9
330
B3
100
AcDbEntity
  8
レイヤー 1
 62
   250
420
  2299925
370
    25
100
AcDbLine
 10
79.85319446135986
 20
-145.2860191706141
 30
0.0
 11
80.36652412308759
 21
-145.6684302816295
 31
0.0
  0
LINE
  5
DA
330
B3
100
AcDbEntity
  8
レイヤー 1
 62
   250
420
  2299925
370
    25
100
AcDbLine
 10
80.36652412308759
 20
-145.6684302816295
 30
0.0
 11
80.85229912296631
 21
-145.250882503956
 31
0.0
  0
LINE
  5
DB
330
B3
100
AcDbEntity
  8
レイヤー 1
 62
   250
420
  2299925
370
    25
100
AcDbLine
 10
80.85229912296631
 20
-145.250882503956
 30
0.0
 11
81.36664912283789
 21
-145.6325880594163
 31
0.0
  0
LINE
  5
DC
330
B3
100
AcDbEntity
  8
レイヤー 1
 62
   250
420
  2299925
370
    25
100
AcDbLine
 10
81.36664912283789
 20
-145.6325880594163
 30
0.0
 11
81.85171856716108
 21
-145.2150402817428
 31
0.0
  0
LINE
  5
DD
330
B3
100
AcDbEntity
  8
レイヤー 1
 62
   250
420
  2299925
370
    25
100
AcDbLine
 10
81.85171856716108
 20
-145.2150402817428
 30
0.0
 11
82.36571578925428
 21
-145.596745837203
 31
0.0
  0
LINE
  5
DE
330
B3
100
AcDbEntity
  8
レイヤー 1
 62
   250
420
  2299925
370
    25
100
AcDbLine
 10
82.36571578925428
 20
-145.596745837203
 30
0.0
 11
82.85149078913297
 21
-145.1791980595295
 31
0.0
  0
LINE
  5
DF
330
B3
100
AcDbEntity
  8
レイヤー 1
 62
   250
420
  2299925
370
    25
100
AcDbLine
 10
82.85149078913297
 20
-145.1791980595295
 30
0.0
 11
83.3647824556713
 21
-145.5609388927676
 31
0.0
  0
LINE
  5
E0
330
B3
100
AcDbEntity
  8
レイヤー 1
 62
   250
420
  2299925
370
    25
100
AcDbLine
 10
83.3647824556713
 20
-145.5609388927676
 30
0.0
 11
83.85055745555
 21
-145.1433911150942
 31
0.0
  0
LINE
  5
E1
330
B3
100
AcDbEntity
  8
レイヤー 1
 62
   250
420
  2299925
370
    25
100
AcDbLine
 10
83.85055745555
 20
-145.1433911150942
 30
0.0
 11
84.36455467764384
 21
-145.5258022261096
 31
0.0
  0
LINE
  5
E2
330
B3
100
AcDbEntity
  8
レイヤー 1
 62
   250
420
  2299925
370
    25
100
AcDbLine
 10
84.36455467764384
 20
-145.5258022261096
 30
0.0
 11
84.84962412196701
 21
-145.1075488928809
 31
0.0
  0
LINE
  5
E3
330
B3
100
AcDbEntity
  8
レイヤー 1
 62
   250
420
  2299925
370
    25
100
AcDbLine
 10
84.84962412196701
 20
-145.1075488928809
 30
0.0
 11
85.36365376522077
 21
-145.4899600038963
 31
0.0
  0
LINE
  5
E4
330
B3
100
AcDbEntity
  8
レイヤー 1
 62
   250
420
  2299925
370
    25
100
AcDbLine
 10
85.36365376522077
 20
-145.4899600038963
 30
0.0
 11
85.84939634393892
 21
-145.0724122262228
 31
0.0
  0
LINE
  5
E5
330
B3
100
AcDbEntity
  8
レイヤー 1
 62
   250
420
  2299925
370
    25
100
AcDbLine
 10
85.84939634393892
 20
-145.0724122262228
 30
0.0
 11
86.36339356603276
 21
-145.4541177816831
 31
0.0
  0
LINE
  5
E6
330
B3
100
AcDbEntity
  8
レイヤー 1
 62
   250
420
  2299925
370
    25
100
AcDbLine
 10
86.36339356603276
 20
-145.4541177816831
 30
0.0
 11
86.84846301035593
 21
-145.0366052817875
 31
0.0
  0
LINE
  5
E7
330
B3
100
AcDbEntity
  8
レイヤー 1
 62
   250
420
  2299925
370
    25
100
AcDbLine
 10
86.84846301035593
 20
-145.0366052817875
 30
0.0
 11
87.36249260311502
 21
-145.4183108372477
 31
0.0
  0
LINE
  5
E8
330
B3
100
AcDbEntity
  8
レイヤー 1
 62
   250
420
  2299925
370
    25
100
AcDbLine
 10
87.36249260311502
 20
-145.4183108372477
 30
0.0
 11
87.84823523232848
 21
-145.0007630595742
 31
0.0
  0
LINE
  5
E9
330
B3
100
AcDbEntity
  8
レイヤー 1
 62
   250
420
  2299925
370
    25
100
AcDbLine
 10
87.84823523232848
 20
-145.0007630595742
 30
0.0
 11
88.86179812042012
 21
-144.952538337364
 31
0.0
  0
LINE
  5
EA
330
B3
100
AcDbEntity
  8
レイヤー 1
 62
   250
420
  2299925
370
    25
100
AcDbLine
 10
102.8667933186784
 20
-145.3576683372627
 30
0.0
 11
102.3527961095694
 21
-145.739373892723
 31
0.0
  0
LINE
  5
EB
330
B3
100
AcDbEntity
  8
レイヤー 1
 62
   250
420
  2299925
370
    25
100
AcDbLine
 10
107.8635729134219
 20
-145.5361386149959
 30
0.0
 11
107.349540426536
 21
-145.9178441704565
 31
0.0
  0
LINE
  5
EC
330
B3
100
AcDbEntity
  8
レイヤー 1
 62
   250
420
  2299925
370
    25
100
AcDbLine
 10
103.3525683062853
 20
-145.7752161149362
 30
0.0
 11
102.8667933186784
 21
-145.3576683372627
 31
0.0
  0
LINE
  5
ED
330
B3
100
AcDbEntity
  8
レイヤー 1
 62
   250
420
  2299925
370
    25
100
AcDbLine
 10
104.3516349474637
 20
-145.8110583371495
 30
0.0
 11
103.8665655153944
 21
-145.393510559476
 31
0.0
  0
LINE
  5
EE
330
B3
100
AcDbEntity
  8
レイヤー 1
 62
   250
420
  2299925
370
    25
100
AcDbLine
 10
102.3527961095694
 20
-145.739373892723
 30
0.0
 11
101.8677266775001
 21
-145.3218261150495
 31
0.0
  0
LINE
  5
EF
330
B3
100
AcDbEntity
  8
レイヤー 1
 62
   250
420
  2299925
370
    25
100
AcDbLine
 10
103.8665655153944
 20
-145.393510559476
 30
0.0
 11
103.3525683062853
 21
-145.7752161149362
 31
0.0
  0
LINE
  5
F0
330
B3
100
AcDbEntity
  8
レイヤー 1
 62
   250
420
  2299925
370
    25
100
AcDbLine
 10
111.8612505892104
 20
-145.6787666705159
 30
0.0
 11
111.3472533801014
 21
-146.0611425037535
 31
0.0
  0
LINE
  5
F1
330
B3
100
AcDbEntity
  8
レイヤー 1
 62
   250
420
  2299925
370
    25
100
AcDbLine
 10
104.8656321565727
 20
-145.4293175039114
 30
0.0
 11
104.3516349474637
 21
-145.8110583371495
 31
0.0
  0
LINE
  5
F2
330
B3
100
AcDbEntity
  8
レイヤー 1
 62
   250
420
  2299925
370
    25
100
AcDbLine
 10
105.8654043532883
 20
-145.4644541705695
 30
0.0
 11
105.3514071441796
 21
-145.8468652815849
 31
0.0
  0
LINE
  5
F3
330
B3
100
AcDbEntity
  8
レイヤー 1
 62
   250
420
  2299925
370
    25
100
AcDbLine
 10
105.3514071441796
 20
-145.8468652815849
 30
0.0
 11
104.8656321565727
 21
-145.4293175039114
 31
0.0
  0
LINE
  5
F4
330
B3
100
AcDbEntity
  8
レイヤー 1
 62
   250
420
  2299925
370
    25
100
AcDbLine
 10
106.3504737853576
 20
-145.8827075037981
 30
0.0
 11
105.8654043532883
 21
-145.4644541705695
 31
0.0
  0
LINE
  5
F5
330
B3
100
AcDbEntity
  8
レイヤー 1
 62
   250
420
  2299925
370
    25
100
AcDbLine
 10
111.3472533801014
 20
-146.0611425037535
 30
0.0
 11
110.8621839480321
 21
-145.6429244483026
 31
0.0
  0
LINE
  5
F6
330
B3
100
AcDbEntity
  8
レイヤー 1
 62
   250
420
  2299925
370
    25
100
AcDbLine
 10
106.8644709944667
 20
-145.5002963927827
 30
0.0
 11
106.3504737853576
 21
-145.8827075037981
 31
0.0
  0
LINE
  5
F7
330
B3
100
AcDbEntity
  8
レイヤー 1
 62
   250
420
  2299925
370
    25
100
AcDbLine
 10
107.349540426536
 20
-145.9178441704565
 30
0.0
 11
106.8644709944667
 21
-145.5002963927827
 31
0.0
  0
LINE
  5
F8
330
B3
100
AcDbEntity
  8
レイヤー 1
 62
   250
420
  2299925
370
    25
100
AcDbLine
 10
112.3463200212797
 20
-146.0963144481891
 30
0.0
 11
111.8612505892104
 21
-145.6787666705159
 31
0.0
  0
LINE
  5
F9
330
B3
100
AcDbEntity
  8
レイヤー 1
 62
   250
420
  2299925
370
    25
100
AcDbLine
 10
108.8633098323609
 20
-145.5719455594314
 30
0.0
 11
108.3493126232519
 21
-145.9536863926694
 31
0.0
  0
LINE
  5
FA
330
B3
100
AcDbEntity
  8
レイヤー 1
 62
   250
420
  2299925
370
    25
100
AcDbLine
 10
109.8624117513161
 20
-145.6077877816446
 30
0.0
 11
109.3483792644302
 21
-145.9894933371048
 31
0.0
  0
LINE
  5
FB
330
B3
100
AcDbEntity
  8
レイヤー 1
 62
   250
420
  2299925
370
    25
100
AcDbLine
 10
109.3483792644302
 20
-145.9894933371048
 30
0.0
 11
108.8633098323609
 21
-145.5719455594314
 31
0.0
  0
LINE
  5
FC
330
B3
100
AcDbEntity
  8
レイヤー 1
 62
   250
420
  2299925
370
    25
100
AcDbLine
 10
112.8603172303888
 20
-145.7145736149513
 30
0.0
 11
112.3463200212797
 21
-146.0963144481891
 31
0.0
  0
LINE
  5
FD
330
B3
100
AcDbEntity
  8
レイヤー 1
 62
   250
420
  2299925
370
    25
100
AcDbLine
 10
108.3493126232519
 20
-145.9536863926694
 30
0.0
 11
107.8635729134219
 21
-145.5361386149959
 31
0.0
  0
LINE
  5
FE
330
B3
100
AcDbEntity
  8
レイヤー 1
 62
   250
420
  2299925
370
    25
100
AcDbLine
 10
92.72788968845457
 20
-153.2145586130766
 30
0.0
 11
91.85903332173174
 21
-144.952538337364
 31
0.0
  0
LINE
  5
FF
330
B3
100
AcDbEntity
  8
レイヤー 1
 62
   250
420
  2299925
370
    25
100
AcDbLine
 10
110.8621839480321
 20
-145.6429244483026
 30
0.0
 11
110.3481514611461
 21
-146.0253355593181
 31
0.0
  0
LINE
  5
100
330
B3
100
AcDbEntity
  8
レイヤー 1
 62
   250
420
  2299925
370
    25
100
AcDbLine
 10
110.3481514611461
 20
-146.0253355593181
 30
0.0
 11
109.8624117513161
 21
-145.6077877816446
 31
0.0
  0
LINE
  5
101
330
B3
100
AcDbEntity
  8
レイヤー 1
 62
   250
420
  2299925
370
    25
100
AcDbLine
 10
93.61050745310974
 20
-154.2143308350485
 30
0.0
 11
92.769905520716
 21
-146.214812503715
 31
0.0
  0
LINE
  5
102
330
B3
100
AcDbEntity
  8
レイヤー 1
 62
   250
420
  2299925
370
    25
100
AcDbLine
 10
112.8603172303888
 20
-145.7145736149513
 30
0.0
 11
112.8603172303888
 21
-146.214812503715
 31
0.0
  0
LINE
  5
103
330
B3
100
AcDbEntity
  8
レイヤー 1
 62
   250
420
  2299925
370
    25
100
AcDbLine
 10
92.769905520716
 20
-146.214812503715
 30
0.0
 11
112.8603172303888
 21
-146.214812503715
 31
0.0
  0
LINE
  5
104
330
B3
100
AcDbEntity
  8
レイヤー 1
 62
   250
420
  2299925
370
    25
100
AcDbLine
 10
101.8677266775001
 20
-145.3218261150495
 30
0.0
 11
101.3536941906142
 21
-145.704237226065
 31
0.0
  0
LINE
  5
105
330
B3
100
AcDbEntity
  8
レイヤー 1
 62
   250
420
  2299925
370
    25
100
AcDbLine
 10
101.3536941906142
 20
-145.704237226065
 30
0.0
 11
100.8679544807842
 21
-145.2860191706141
 31
0.0
  0
LINE
  5
106
330
B3
100
AcDbEntity
  8
レイヤー 1
 62
   250
420
  2299925
370
    25
100
AcDbLine
 10
100.8679544807842
 20
-145.2860191706141
 30
0.0
 11
100.3546275494358
 21
-145.6684302816295
 31
0.0
  0
LINE
  5
107
330
B3
100
AcDbEntity
  8
レイヤー 1
 62
   250
420
  2299925
370
    25
100
AcDbLine
 10
100.3546275494358
 20
-145.6684302816295
 30
0.0
 11
99.86888783960587
 21
-145.250882503956
 31
0.0
  0
LINE
  5
108
330
B3
100
AcDbEntity
  8
レイヤー 1
 62
   250
420
  2299925
370
    25
100
AcDbLine
 10
99.86888783960587
 20
-145.250882503956
 30
0.0
 11
99.35485535271993
 21
-145.6325880594163
 31
0.0
  0
LINE
  5
109
330
B3
100
AcDbEntity
  8
レイヤー 1
 62
   250
420
  2299925
370
    25
100
AcDbLine
 10
99.35485535271993
 20
-145.6325880594163
 30
0.0
 11
98.86978592065064
 21
-145.2150402817428
 31
0.0
  0
LINE
  5
10A
330
B3
100
AcDbEntity
  8
レイヤー 1
 62
   250
420
  2299925
370
    25
100
AcDbLine
 10
98.86978592065064
 20
-145.2150402817428
 30
0.0
 11
98.35578871154158
 21
-145.596745837203
 31
0.0
  0
LINE
  5
10B
330
B3
100
AcDbEntity
  8
レイヤー 1
 62
   250
420
  2299925
370
    25
100
AcDbLine
 10
98.35578871154158
 20
-145.596745837203
 30
0.0
 11
97.87001372393474
 21
-145.1791980595295
 31
0.0
  0
LINE
  5
10C
330
B3
100
AcDbEntity
  8
レイヤー 1
 62
   250
420
  2299925
370
    25
100
AcDbLine
 10
97.87001372393474
 20
-145.1791980595295
 30
0.0
 11
97.35601651482568
 21
-145.5609388927676
 31
0.0
  0
LINE
  5
10D
330
B3
100
AcDbEntity
  8
レイヤー 1
 62
   250
420
  2299925
370
    25
100
AcDbLine
 10
97.35601651482568
 20
-145.5609388927676
 30
0.0
 11
96.87094708275605
 21
-145.1433911150942
 31
0.0
  0
LINE
  5
10E
330
B3
100
AcDbEntity
  8
レイヤー 1
 62
   250
420
  2299925
370
    25
100
AcDbLine
 10
96.87094708275605
 20
-145.1433911150942
 30
0.0
 11
96.35694987364731
 21
-145.5258022261096
 31
0.0
  0
LINE
  5
10F
330
B3
100
AcDbEntity
  8
レイヤー 1
 62
   250
420
  2299925
370
    25
100
AcDbLine
 10
96.35694987364731
 20
-145.5258022261096
 30
0.0
 11
95.87117488604047
 21
-145.1075488928809
 31
0.0
  0
LINE
  5
110
330
B3
100
AcDbEntity
  8
レイヤー 1
 62
   250
420
  2299925
370
    25
100
AcDbLine
 10
95.87117488604047
 20
-145.1075488928809
 30
0.0
 11
95.35717767693141
 21
-145.4899600038963
 31
0.0
  0
LINE
  5
111
330
B3
100
AcDbEntity
  8
レイヤー 1
 62
   250
420
  2299925
370
    25
100
AcDbLine
 10
95.35717767693141
 20
-145.4899600038963
 30
0.0
 11
94.87210824486211
 21
-145.0724122262228
 31
0.0
  0
LINE
  5
112
330
B3
100
AcDbEntity
  8
レイヤー 1
 62
   250
420
  2299925
370
    25
100
AcDbLine
 10
94.87210824486211
 20
-145.0724122262228
 30
0.0
 11
94.35811103575305
 21
-145.4541177816831
 31
0.0
  0
LINE
  5
113
330
B3
100
AcDbEntity
  8
レイヤー 1
 62
   250
420
  2299925
370
    25
100
AcDbLine
 10
94.35811103575305
 20
-145.4541177816831
 30
0.0
 11
93.87304160368376
 21
-145.0366052817875
 31
0.0
  0
LINE
  5
114
330
B3
100
AcDbEntity
  8
レイヤー 1
 62
   250
420
  2299925
370
    25
100
AcDbLine
 10
93.87304160368376
 20
-145.0366052817875
 30
0.0
 11
93.35900911679749
 21
-145.4183108372477
 31
0.0
  0
LINE
  5
115
330
B3
100
AcDbEntity
  8
レイヤー 1
 62
   250
420
  2299925
370
    25
100
AcDbLine
 10
93.35900911679749
 20
-145.4183108372477
 30
0.0
 11
92.87326940696784
 21
-145.0007630595742
 31
0.0
  0
LINE
  5
116
330
B3
100
AcDbEntity
  8
レイヤー 1
 62
   250
420
  2299925
370
    25
100
AcDbLine
 10
92.87326940696784
 20
-145.0007630595742
 30
0.0
 11
91.85903332173174
 21
-144.952538337364
 31
0.0
  0
SPLINE
  5
117
330
B3
100
AcDbEntity
  8
レイヤー 1
 62
   250
420
  2299925
370
     9
100
AcDbSpline
210
0.0
220
0.0
230
1.0
 70
     9
 71
     3
 72
    17
 73
    13
 74
     0
 42
0.0000000001
 43
0.0000000001
 40
0.0
 40
0.0
 40
0.0
 40
0.0
 40
1.0
 40
1.0
 40
1.0
 40
2.0
 40
2.0
 40
2.0
 40
3.0
 40
3.0
 40
3.0
 40
4.0
 40
4.0
 40
4.0
 40
4.0
 10
67.96091476475719
 20
-140.9527791716975
 30
0.0
 10
67.96091476475719
 20
-140.8969697272667
 30
0.0
 10
67.91611198812242
 20
-140.8521669495003
 30
0.0
 10
67.86100810063935
 20
-140.8521669495003
 30
0.0
 10
67.80555143538719
 20
-140.8521669495003
 30
0.0
 10
67.76074865875274
 20
-140.8969697272667
 30
0.0
 10
67.76074865875274
 20
-140.9527791716975
 30
0.0
 10
67.76074865875274
 20
-141.0078830605724
 30
0.0
 10
67.80555143538719
 20
-141.0526858383391
 30
0.0
 10
67.86100810063935
 20
-141.0526858383391
 30
0.0
 10
67.91611198812242
 20
-141.0526858383391
 30
0.0
 10
67.96091476475719
 20
-141.0078830605724
 30
0.0
 10
67.96091476475719
 20
-140.9527791716975
 30
0.0
  0
SPLINE
  5
118
330
B3
100
AcDbEntity
  8
レイヤー 1
 62
   250
420
  2299925
370
     9
100
AcDbSpline
210
0.0
220
0.0
230
1.0
 70
     9
 71
     3
 72
    17
 73
    13
 74
     0
 42
0.0000000001
 43
0.0000000001
 40
0.0
 40
0.0
 40
0.0
 40
0.0
 40
1.0
 40
1.0
 40
1.0
 40
2.0
 40
2.0
 40
2.0
 40
3.0
 40
3.0
 40
3.0
 40
4.0
 40
4.0
 40
4.0
 40
4.0
 10
63.9608029223641
 20
-145.7145736149513
 30
0.0
 10
63.9608029223641
 20
-145.6594697260761
 30
0.0
 10
63.91603542350654
 20
-145.6146669483097
 30
0.0
 10
63.86054348047749
 20
-145.6146669483097
 30
0.0
 10
63.80543959299441
 20
-145.6146669483097
 30
0.0
 10
63.76063681635933
 20
-145.6594697260761
 30
0.0
 10
63.76063681635933
 20
-145.7145736149513
 30
0.0
 10
63.76063681635933
 20
-145.7697127816041
 30
0.0
 10
63.80543959299441
 20
-145.814480281593
 30
0.0
 10
63.86054348047749
 20
-145.814480281593
 30
0.0
 10
63.91603542350654
 20
-145.814480281593
 30
0.0
 10
63.9608029223641
 20
-145.7697127816041
 30
0.0
 10
63.9608029223641
 20
-145.7145736149513
 30
0.0
  0
SPLINE
  5
119
330
B3
100
AcDbEntity
  8
レイヤー 1
 62
   250
420
  2299925
370
     9
100
AcDbSpline
210
0.0
220
0.0
230
1.0
 70
     9
 71
     3
 72
    17
 73
    13
 74
     0
 42
0.0000000001
 43
0.0000000001
 40
0.0
 40
0.0
 40
0.0
 40
0.0
 40
1.0
 40
1.0
 40
1.0
 40
2.0
 40
2.0
 40
2.0
 40
3.0
 40
3.0
 40
3.0
 40
4.0
 40
4.0
 40
4.0
 40
4.0
 10
63.9608029223641
 20
-146.214812503715
 30
0.0
 10
63.9608029223641
 20
-146.1596733370623
 30
0.0
 10
63.91603542350654
 20
-146.1149058370734
 30
0.0
 10
63.86054348047749
 20
-146.1149058370734
 30
0.0
 10
63.80543959299441
 20
-146.1149058370734
 30
0.0
 10
63.76063681635933
 20
-146.1596733370623
 30
0.0
 10
63.76063681635933
 20
-146.214812503715
 30
0.0
 10
63.76063681635933
 20
-146.2699163925903
 30
0.0
 10
63.80543959299441
 20
-146.3147191703573
 30
0.0
 10
63.86054348047749
 20
-146.3147191703573
 30
0.0
 10
63.91603542350654
 20
-146.3147191703573
 30
0.0
 10
63.9608029223641
 20
-146.2699163925903
 30
0.0
 10
63.9608029223641
 20
-146.214812503715
 30
0.0
  0
SPLINE
  5
11A
330
B3
100
AcDbEntity
  8
レイヤー 1
 62
   250
420
  2299925
370
     9
100
AcDbSpline
210
0.0
220
0.0
230
1.0
 70
     9
 71
     3
 72
    17
 73
    13
 74
     0
 42
0.0000000001
 43
0.0000000001
 40
0.0
 40
0.0
 40
0.0
 40
0.0
 40
1.0
 40
1.0
 40
1.0
 40
2.0
 40
2.0
 40
2.0
 40
3.0
 40
3.0
 40
3.0
 40
4.0
 40
4.0
 40
4.0
 40
4.0
 10
63.9608029223641
 20
-154.2143308350485
 30
0.0
 10
63.9608029223641
 20
-154.159191668396
 30
0.0
 10
63.91603542350654
 20
-154.1144241684068
 30
0.0
 10
63.86054348047749
 20
-154.1144241684068
 30
0.0
 10
63.80543959299441
 20
-154.1144241684068
 30
0.0
 10
63.76063681635933
 20
-154.159191668396
 30
0.0
 10
63.76063681635933
 20
-154.2143308350485
 30
0.0
 10
63.76063681635933
 20
-154.269434723924
 30
0.0
 10
63.80543959299441
 20
-154.3142375016901
 30
0.0
 10
63.86054348047749
 20
-154.3142375016901
 30
0.0
 10
63.91603542350654
 20
-154.3142375016901
 30
0.0
 10
63.9608029223641
 20
-154.269434723924
 30
0.0
 10
63.9608029223641
 20
-154.2143308350485
 30
0.0
  0
SPLINE
  5
11B
330
B3
100
AcDbEntity
  8
レイヤー 1
 62
   250
420
  2299925
370
     9
100
AcDbSpline
210
0.0
220
0.0
230
1.0
 70
     9
 71
     3
 72
    17
 73
    13
 74
     0
 42
0.0000000001
 43
0.0000000001
 40
0.0
 40
0.0
 40
0.0
 40
0.0
 40
1.0
 40
1.0
 40
1.0
 40
2.0
 40
2.0
 40
2.0
 40
3.0
 40
3.0
 40
3.0
 40
4.0
 40
4.0
 40
4.0
 40
4.0
 10
87.21090399587128
 20
-158.2147602784933
 30
0.0
 10
87.21090399587128
 20
-158.1596563896178
 30
0.0
 10
87.16610121923618
 20
-158.1148536118511
 30
0.0
 10
87.11099733175343
 20
-158.1148536118511
 30
0.0
 10
87.05519078808244
 20
-158.1148536118511
 30
0.0
 10
87.0103880103157
 20
-158.1596563896178
 30
0.0
 10
87.0103880103157
 20
-158.2147602784933
 30
0.0
 10
87.0103880103157
 20
-158.2698994451458
 30
0.0
 10
87.05519078808244
 20
-158.3146669451344
 30
0.0
 10
87.11099733175343
 20
-158.3146669451344
 30
0.0
 10
87.16610121923618
 20
-158.3146669451344
 30
0.0
 10
87.21090399587128
 20
-158.2698994451458
 30
0.0
 10
87.21090399587128
 20
-158.2147602784933
 30
0.0
  0
SPLINE
  5
11C
330
B3
100
AcDbEntity
  8
レイヤー 1
 62
   250
420
  2299925
370
     9
100
AcDbSpline
210
0.0
220
0.0
230
1.0
 70
     9
 71
     3
 72
    17
 73
    13
 74
     0
 42
0.0000000001
 43
0.0000000001
 40
0.0
 40
0.0
 40
0.0
 40
0.0
 40
1.0
 40
1.0
 40
1.0
 40
2.0
 40
2.0
 40
2.0
 40
3.0
 40
3.0
 40
3.0
 40
4.0
 40
4.0
 40
4.0
 40
4.0
 10
93.71041105227725
 20
-158.2147602784933
 30
0.0
 10
93.71041105227725
 20
-158.1596563896178
 30
0.0
 10
93.66564355341937
 20
-158.1148536118511
 30
0.0
 10
93.61050745310974
 20
-158.1148536118511
 30
0.0
 10
93.55540050067634
 20
-158.1148536118511
 30
0.0
 10
93.51059772404159
 20
-158.1596563896178
 30
0.0
 10
93.51059772404159
 20
-158.2147602784933
 30
0.0
 10
93.51059772404159
 20
-158.2698994451458
 30
0.0
 10
93.55540050067634
 20
-158.3146669451344
 30
0.0
 10
93.61050745310974
 20
-158.3146669451344
 30
0.0
 10
93.66564355341937
 20
-158.3146669451344
 30
0.0
 10
93.71041105227725
 20
-158.2698994451458
 30
0.0
 10
93.71041105227725
 20
-158.2147602784933
 30
0.0
  0
SPLINE
  5
11D
330
B3
100
AcDbEntity
  8
レイヤー 1
 62
   250
420
  2299925
370
     9
100
AcDbSpline
210
0.0
220
0.0
230
1.0
 70
     9
 71
     3
 72
    17
 73
    13
 74
     0
 42
0.0000000001
 43
0.0000000001
 40
0.0
 40
0.0
 40
0.0
 40
0.0
 40
1.0
 40
1.0
 40
1.0
 40
2.0
 40
2.0
 40
2.0
 40
3.0
 40
3.0
 40
3.0
 40
4.0
 40
4.0
 40
4.0
 40
4.0
 10
112.9609294500442
 20
-140.9527791716975
 30
0.0
 10
112.9609294500442
 20
-140.8969697272667
 30
0.0
 10
112.9161266734094
 20
-140.8521669495003
 30
0.0
 10
112.8603172303888
 20
-140.8521669495003
 30
0.0
 10
112.8052133429057
 20
-140.8521669495003
 30
0.0
 10
112.7604105662709
 20
-140.8969697272667
 30
0.0
 10
112.7604105662709
 20
-140.9527791716975
 30
0.0
 10
112.7604105662709
 20
-141.0078830605724
 30
0.0
 10
112.8052133429057
 20
-141.0526858383391
 30
0.0
 10
112.8603172303888
 20
-141.0526858383391
 30
0.0
 10
112.9161266734094
 20
-141.0526858383391
 30
0.0
 10
112.9609294500442
 20
-141.0078830605724
 30
0.0
 10
112.9609294500442
 20
-140.9527791716975
 30
0.0
  0
SPLINE
  5
11E
330
B3
100
AcDbEntity
  8
レイヤー 1
 62
   250
420
  2299925
370
     9
100
AcDbSpline
210
0.0
220
0.0
230
1.0
 70
     9
 71
     3
 72
    17
 73
    13
 74
     0
 42
0.0000000001
 43
0.0000000001
 40
0.0
 40
0.0
 40
0.0
 40
0.0
 40
1.0
 40
1.0
 40
1.0
 40
2.0
 40
2.0
 40
2.0
 40
3.0
 40
3.0
 40
3.0
 40
4.0
 40
4.0
 40
4.0
 40
4.0
 10
91.95961026361057
 20
-140.9527791716975
 30
0.0
 10
91.95961026361057
 20
-140.8969697272667
 30
0.0
 10
91.91484276475268
 20
-140.8521669495003
 30
0.0
 10
91.85903332173174
 20
-140.8521669495003
 30
0.0
 10
91.8038941564721
 20
-140.8521669495003
 30
0.0
 10
91.75912967579497
 20
-140.8969697272667
 30
0.0
 10
91.75912967579497
 20
-140.9527791716975
 30
0.0
 10
91.75912967579497
 20
-141.0078830605724
 30
0.0
 10
91.8038941564721
 20
-141.0526858383391
 30
0.0
 10
91.85903332173174
 20
-141.0526858383391
 30
0.0
 10
91.91484276475268
 20
-141.0526858383391
 30
0.0
 10
91.95961026361057
 20
-141.0078830605724
 30
0.0
 10
91.95961026361057
 20
-140.9527791716975
 30
0.0
  0
SPLINE
  5
11F
330
B3
100
AcDbEntity
  8
レイヤー 1
 62
   250
420
  2299925
370
     9
100
AcDbSpline
210
0.0
220
0.0
230
1.0
 70
     9
 71
     3
 72
    17
 73
    13
 74
     0
 42
0.0000000001
 43
0.0000000001
 40
0.0
 40
0.0
 40
0.0
 40
0.0
 40
1.0
 40
1.0
 40
1.0
 40
2.0
 40
2.0
 40
2.0
 40
3.0
 40
3.0
 40
3.0
 40
4.0
 40
4.0
 40
4.0
 40
4.0
 10
88.96170478453795
 20
-140.9527791716975
 30
0.0
 10
88.96170478453795
 20
-140.8969697272667
 30
0.0
 10
88.9169020079032
 20
-140.8521669495003
 30
0.0
 10
88.86179812042012
 20
-140.8521669495003
 30
0.0
 10
88.80665895516049
 20
-140.8521669495003
 30
0.0
 10
88.76189145630227
 20
-140.8969697272667
 30
0.0
 10
88.76189145630227
 20
-140.9527791716975
 30
0.0
 10
88.76189145630227
 20
-141.0078830605724
 30
0.0
 10
88.80665895516049
 20
-141.0526858383391
 30
0.0
 10
88.86179812042012
 20
-141.0526858383391
 30
0.0
 10
88.9169020079032
 20
-141.0526858383391
 30
0.0
 10
88.96170478453795
 20
-141.0078830605724
 30
0.0
 10
88.96170478453795
 20
-140.9527791716975
 30
0.0
  0
LINE
  5
120
330
B3
100
AcDbEntity
  8
レイヤー 1
 62
   250
420
  2299925
370
     9
100
AcDbLine
 10
88.86179812042012
 20
-140.9527791716975
 30
0.0
 11
91.85903332173174
 21
-140.9527791716975
 31
0.0
  0
LINE
  5
121
330
B3
100
AcDbEntity
  8
レイヤー 1
 62
   250
420
  2299925
370
     9
100
AcDbLine
 10
88.86179812042012
 20
-142.4128205602212
 30
0.0
 11
88.86179812042012
 21
-139.9523013941697
 31
0.0
  0
LINE
  5
122
330
B3
100
AcDbEntity
  8
レイヤー 1
 62
   250
420
  2299925
370
     9
100
AcDbLine
 10
91.85903332173174
 20
-142.4128205602212
 30
0.0
 11
91.85903332173174
 21
-139.9523013941697
 31
0.0
  0
INSERT
  5
124
330
B3
100
AcDbEntity
  8
レイヤー 1
100
AcDbBlockReference
  2
Block_2
 10
0.0
 20
0.0
 30
0.0
  0
LINE
  5
129
330
B3
100
AcDbEntity
  8
レイヤー 1
 62
   250
420
  2299925
370
     9
100
AcDbLine
 10
93.61050745310974
 20
-158.2147602784933
 30
0.0
 11
87.11099733175343
 21
-158.2147602784933
 31
0.0
  0
LINE
  5
12A
330
B3
100
AcDbEntity
  8
レイヤー 1
 62
   250
420
  2299925
370
     9
100
AcDbLine
 10
93.61050745310974
 20
-156.754718889969
 30
0.0
 11
93.61050745310974
 21
-159.2145325004653
 31
0.0
  0
LINE
  5
12B
330
B3
100
AcDbEntity
  8
レイヤー 1
 62
   250
420
  2299925
370
     9
100
AcDbLine
 10
87.11099733175343
 20
-156.754718889969
 30
0.0
 11
87.11099733175343
 21
-159.2145325004653
 31
0.0
  0
INSERT
  5
12D
330
B3
100
AcDbEntity
  8
レイヤー 1
100
AcDbBlockReference
  2
Block_3
 10
0.0
 20
0.0
 30
0.0
  0
LINE
  5
13B
330
B3
100
AcDbEntity
  8
レイヤー 1
 62
   250
420
  2299925
370
     9
100
AcDbLine
 10
63.86054348047749
 20
-145.7145736149513
 30
0.0
 11
63.86054348047749
 21
-143.862490282081
 31
0.0
  0
LINE
  5
13C
330
B3
100
AcDbEntity
  8
レイヤー 1
 62
   250
420
  2299925
370
     9
100
AcDbLine
 10
63.86054348047749
 20
-145.7145736149513
 30
0.0
 11
63.86054348047749
 21
-146.214812503715
 31
0.0
  0
LINE
  5
13D
330
B3
100
AcDbEntity
  8
レイヤー 1
 62
   250
420
  2299925
370
     9
100
AcDbLine
 10
65.32058483211762
 20
-145.7145736149513
 30
0.0
 11
62.86080656153846
 21
-145.7145736149513
 31
0.0
  0
LINE
  5
13E
330
B3
100
AcDbEntity
  8
レイヤー 1
 62
   250
420
  2299925
370
     9
100
AcDbLine
 10
65.32058483211762
 20
-146.214812503715
 30
0.0
 11
62.86080656153846
 21
-146.214812503715
 31
0.0
  0
INSERT
  5
140
330
B3
100
AcDbEntity
  8
レイヤー 1
100
AcDbBlockReference
  2
Block_5
 10
0.0
 20
0.0
 30
0.0
  0
LINE
  5
14E
330
B3
100
AcDbEntity
  8
レイヤー 1
 62
   250
420
  2299925
370
     9
100
AcDbLine
 10
67.86100810063935
 20
-140.9527791716975
 30
0.0
 11
88.86179812042012
 21
-140.9527791716975
 31
0.0
  0
LINE
  5
14F
330
B3
100
AcDbEntity
  8
レイヤー 1
 62
   250
420
  2299925
370
     9
100
AcDbLine
 10
67.86100810063935
 20
-143.1748558378085
 30
0.0
 11
67.86100810063935
 21
-139.9523013941697
 31
0.0
  0
INSERT
  5
151
330
B3
100
AcDbEntity
  8
レイヤー 1
100
AcDbBlockReference
  2
Block_7
 10
0.0
 20
0.0
 30
0.0
  0
LINE
  5
15C
330
B3
100
AcDbEntity
  8
レイヤー 1
 62
   250
420
  2299925
370
     9
100
AcDbLine
 10
91.85903332173174
 20
-140.9527791716975
 30
0.0
 11
112.8603172303888
 21
-140.9527791716975
 31
0.0
  0
LINE
  5
15D
330
B3
100
AcDbEntity
  8
レイヤー 1
 62
   250
420
  2299925
370
     9
100
AcDbLine
 10
112.8603172303888
 20
-143.1748558378085
 30
0.0
 11
112.8603172303888
 21
-139.9523013941697
 31
0.0
  0
INSERT
  5
15F
330
B3
100
AcDbEntity
  8
レイヤー 1
100
AcDbBlockReference
  2
Block_9
 10
0.0
 20
0.0
 30
0.0
  0
LINE
  5
16A
330
B3
100
AcDbEntity
  8
レイヤー 1
 62
   250
420
  2299925
370
     9
100
AcDbLine
 10
63.86054348047749
 20
-146.214812503715
 30
0.0
 11
63.86054348047749
 21
-154.2143308350485
 31
0.0
  0
LINE
  5
16B
330
B3
100
AcDbEntity
  8
レイヤー 1
 62
   250
420
  2299925
370
     9
100
AcDbLine
 10
84.57057689981416
 20
-154.2143308350485
 30
0.0
 11
62.86080656153846
 21
-154.2143308350485
 31
0.0
  0
INSERT
  5
16D
330
B3
100
AcDbEntity
  8
レイヤー 1
100
AcDbBlockReference
  2
Block_11
 10
0.0
 20
0.0
 30
0.0
  0
ENDBLK
  5
B6
330
B3
100
AcDbEntity
  8
0
100
AcDbBlockEnd
  0
BLOCK
  5
125
330
123
100
AcDbEntity
  8
0
100
AcDbBlockBegin
  2
Block_2
 70
     0
 10
0.0
 20
0.0
 30
0.0
  3
Block_2
  1

  0
SPLINE
  5
127
330
123
100
AcDbEntity
  8
レイヤー 1
100
AcDbSpline
210
0.0
220
0.0
230
1.0
 70
     9
 71
     3
 72
    62
 73
    58
 74
     0
 42
0.0000000001
 43
0.0000000001
 40
0.0
 40
0.0
 40
0.0
 40
0.0
 40
1.0
 40
1.0
 40
1.0
 40
2.0
 40
2.0
 40
2.0
 40
3.0
 40
3.0
 40
3.0
 40
4.0
 40
4.0
 40
4.0
 40
5.0
 40
5.0
 40
5.0
 40
6.0
 40
6.0
 40
6.0
 40
7.0
 40
7.0
 40
7.0
 40
8.0
 40
8.0
 40
8.0
 40
9.0
 40
9.0
 40
9.0
 40
10.0
 40
10.0
 40
10.0
 40
11.0
 40
11.0
 40
11.0
 40
12.0
 40
12.0
 40
12.0
 40
13.0
 40
13.0
 40
13.0
 40
14.0
 40
14.0
 40
14.0
 40
15.0
 40
15.0
 40
15.0
 40
16.0
 40
16.0
 40
16.0
 40
17.0
 40
17.0
 40
17.0
 40
18.0
 40
18.0
 40
18.0
 40
19.0
 40
19.0
 40
19.0
 40
19.0
 10
90.35434703687322
 20
-140.2896280573755
 30
0.0
 10
90.25909014670608
 20
-140.2896280573755
 30
0.0
 10
90.04118785726401
 20
-140.2684407201412
 30
0.0
 10
89.91647540069797
 20
-140.0822333091635
 30
0.0
 10
89.84240584776509
 20
-139.9700954511186
 30
0.0
 10
89.83809947840853
 20
-139.8707044463691
 30
0.0
 10
89.83396536382624
 20
-139.7861273522062
 30
0.0
 10
89.83396536382624
 20
-139.7861273522062
 30
0.0
 10
90.05393471055944
 20
-139.7861273522062
 30
0.0
 10
90.05393471055944
 20
-139.7861273522062
 30
0.0
 10
90.05600176785058
 20
-139.8601969051391
 30
0.0
 10
90.06668156385485
 20
-140.0949801624589
 30
0.0
 10
90.35004066751666
 20
-140.0949801624589
 30
0.0
 10
90.48767223215239
 20
-140.0949801624589
 30
0.0
 10
90.63994545260042
 20
-140.0252169788826
 30
0.0
 10
90.63994545260042
 20
-139.7966348934363
 30
0.0
 10
90.63994545260042
 20
-139.680362920809
 30
0.0
 10
90.60187714748842
 20
-139.6316148196928
 30
0.0
 10
90.57018226902412
 20
-139.5999199412285
 30
0.0
 10
90.49611271609125
 20
-139.5258503882956
 30
0.0
 10
90.37966848868981
 20
-139.5132757897744
 30
0.0
 10
90.32471921570007
 20
-139.5132757897744
 30
0.0
 10
90.3057711905312
 20
-139.5132757897744
 30
0.0
 10
90.26976994271034
 20
-139.5153428470656
 30
0.0
 10
90.24220917882834
 20
-139.5194769616479
 30
0.0
 10
90.24220917882834
 20
-139.5194769616479
 30
0.0
 10
90.24220917882834
 20
-139.3248290667313
 30
0.0
 10
90.24220917882834
 20
-139.3248290667313
 30
0.0
 10
90.28027748394036
 20
-139.331202493379
 30
0.0
 10
90.32265215840892
 20
-139.3334418054444
 30
0.0
 10
90.32902558505664
 20
-139.3334418054444
 30
0.0
 10
90.39448239927638
 20
-139.3334418054444
 30
0.0
 10
90.59343666354957
 20
-139.3122544682101
 30
0.0
 10
90.59343666354957
 20
-139.0752318988249
 30
0.0
 10
90.59343666354957
 20
-138.8976372265603
 30
0.0
 10
90.46217852556154
 20
-138.8425156987963
 30
0.0
 10
90.35227997958207
 20
-138.8425156987963
 30
0.0
 10
90.08786890108915
 20
-138.8425156987963
 30
0.0
 10
90.07925616237603
 20
-139.0752318988249
 30
0.0
 10
90.07512204779372
 20
-139.1472343944666
 30
0.0
 10
90.07512204779372
 20
-139.1472343944666
 30
0.0
 10
89.87203366893824
 20
-139.1472343944666
 30
0.0
 10
89.87203366893824
 20
-139.1472343944666
 30
0.0
 10
89.88047415287711
 20
-139.0223496831263
 30
0.0
 10
89.9080349167591
 20
-138.6458007465885
 30
0.0
 10
90.36485457810323
 20
-138.6458007465885
 30
0.0
 10
90.58913029419299
 20
-138.6458007465885
 30
0.0
 10
90.83028697816049
 20
-138.77275251522
 30
0.0
 10
90.83028697816049
 20
-139.0688584721772
 30
0.0
 10
90.83028697816049
 20
-139.255065883155
 30
0.0
 10
90.7352023427676
 20
-139.3375759200267
 30
0.0
 10
90.63563908324388
 20
-139.3988986196642
 30
0.0
 10
90.69713403765559
 20
-139.4264593835461
 30
0.0
 10
90.87903507927677
 20
-139.5069023631267
 30
0.0
 10
90.87903507927677
 20
-139.7840602949151
 30
0.0
 10
90.87903507927677
 20
-140.1225409263409
 30
0.0
 10
90.63150496866157
 20
-140.2896280573755
 30
0.0
 10
90.35434703687322
 20
-140.2896280573755
 30
0.0
  0
HATCH
  5
128
330
123
100
AcDbEntity
  8
レイヤー 1
 62
   250
420
  2299925
440
 33554687
100
AcDbHatch
 10
0.0
 20
0.0
 30
0.0
210
0.0
220
0.0
230
1.0
  2
SOLID
 70
     1
 71
     1
 91
        1
 92
        1
 93
        1
 72
     4
 94
        3
 73
     0
 74
     0
 95
       62
 96
       58
 40
0.0
 40
0.0
 40
0.0
 40
0.0
 40
1.0
 40
1.0
 40
1.0
 40
2.0
 40
2.0
 40
2.0
 40
3.0
 40
3.0
 40
3.0
 40
4.0
 40
4.0
 40
4.0
 40
5.0
 40
5.0
 40
5.0
 40
6.0
 40
6.0
 40
6.0
 40
7.0
 40
7.0
 40
7.0
 40
8.0
 40
8.0
 40
8.0
 40
9.0
 40
9.0
 40
9.0
 40
10.0
 40
10.0
 40
10.0
 40
11.0
 40
11.0
 40
11.0
 40
12.0
 40
12.0
 40
12.0
 40
13.0
 40
13.0
 40
13.0
 40
14.0
 40
14.0
 40
14.0
 40
15.0
 40
15.0
 40
15.0
 40
16.0
 40
16.0
 40
16.0
 40
17.0
 40
17.0
 40
17.0
 40
18.0
 40
18.0
 40
18.0
 40
19.0
 40
19.0
 40
19.0
 40
19.0
 10
90.35434703687322
 20
-140.2896280573755
 10
90.25909014670608
 20
-140.2896280573755
 10
90.04118785726401
 20
-140.2684407201412
 10
89.91647540069797
 20
-140.0822333091635
 10
89.84240584776509
 20
-139.9700954511186
 10
89.83809947840853
 20
-139.8707044463691
 10
89.83396536382624
 20
-139.7861273522062
 10
89.83396536382624
 20
-139.7861273522062
 10
90.05393471055944
 20
-139.7861273522062
 10
90.05393471055944
 20
-139.7861273522062
 10
90.05600176785058
 20
-139.8601969051391
 10
90.06668156385485
 20
-140.0949801624589
 10
90.35004066751666
 20
-140.0949801624589
 10
90.48767223215239
 20
-140.0949801624589
 10
90.63994545260042
 20
-140.0252169788826
 10
90.63994545260042
 20
-139.7966348934363
 10
90.63994545260042
 20
-139.680362920809
 10
90.60187714748842
 20
-139.6316148196928
 10
90.57018226902412
 20
-139.5999199412285
 10
90.49611271609125
 20
-139.5258503882956
 10
90.37966848868981
 20
-139.5132757897744
 10
90.32471921570007
 20
-139.5132757897744
 10
90.3057711905312
 20
-139.5132757897744
 10
90.26976994271034
 20
-139.5153428470656
 10
90.24220917882834
 20
-139.5194769616479
 10
90.24220917882834
 20
-139.5194769616479
 10
90.24220917882834
 20
-139.3248290667313
 10
90.24220917882834
 20
-139.3248290667313
 10
90.28027748394036
 20
-139.331202493379
 10
90.32265215840892
 20
-139.3334418054444
 10
90.32902558505664
 20
-139.3334418054444
 10
90.39448239927638
 20
-139.3334418054444
 10
90.59343666354957
 20
-139.3122544682101
 10
90.59343666354957
 20
-139.0752318988249
 10
90.59343666354957
 20
-138.8976372265603
 10
90.46217852556154
 20
-138.8425156987963
 10
90.35227997958207
 20
-138.8425156987963
 10
90.08786890108915
 20
-138.8425156987963
 10
90.07925616237603
 20
-139.0752318988249
 10
90.07512204779372
 20
-139.1472343944666
 10
90.07512204779372
 20
-139.1472343944666
 10
89.87203366893824
 20
-139.1472343944666
 10
89.87203366893824
 20
-139.1472343944666
 10
89.88047415287711
 20
-139.0223496831263
 10
89.9080349167591
 20
-138.6458007465885
 10
90.36485457810323
 20
-138.6458007465885
 10
90.58913029419299
 20
-138.6458007465885
 10
90.83028697816049
 20
-138.77275251522
 10
90.83028697816049
 20
-139.0688584721772
 10
90.83028697816049
 20
-139.255065883155
 10
90.7352023427676
 20
-139.3375759200267
 10
90.63563908324388
 20
-139.3988986196642
 10
90.69713403765559
 20
-139.4264593835461
 10
90.87903507927677
 20
-139.5069023631267
 10
90.87903507927677
 20
-139.7840602949151
 10
90.87903507927677
 20
-140.1225409263409
 10
90.63150496866157
 20
-140.2896280573755
 10
90.35434703687322
 20
-140.2896280573755
 97
        0
 97
        1
330
127
 75
     2
 76
     1
 98
        1
 10
0.0
 20
0.0
450
        0
451
        0
460
0.0
461
0.0
452
        0
462
0.0
453
        0
470

  0
ENDBLK
  5
126
330
123
100
AcDbEntity
  8
0
100
AcDbBlockEnd
  0
BLOCK
  5
12E
330
12C
100
AcDbEntity
  8
0
100
AcDbBlockBegin
  2
Block_3
 70
     0
 10
0.0
 20
0.0
 30
0.0
  3
Block_3
  1

  0
INSERT
  5
131
330
12C
100
AcDbEntity
  8
レイヤー 1
100
AcDbBlockReference
  2
Block_4
 10
0.0
 20
0.0
 30
0.0
  0
ENDBLK
  5
12F
330
12C
100
AcDbEntity
  8
0
100
AcDbBlockEnd
  0
BLOCK
  5
132
330
130
100
AcDbEntity
  8
0
100
AcDbBlockBegin
  2
Block_4
 70
     0
 10
0.0
 20
0.0
 30
0.0
  3
Block_4
  1

  0
SPLINE
  5
134
330
130
100
AcDbEntity
  8
レイヤー 1
100
AcDbSpline
210
0.0
220
0.0
230
1.0
 70
     9
 71
     3
 72
    17
 73
    13
 74
     0
 42
0.0000000001
 43
0.0000000001
 40
0.0
 40
0.0
 40
0.0
 40
0.0
 40
1.0
 40
1.0
 40
1.0
 40
2.0
 40
2.0
 40
2.0
 40
3.0
 40
3.0
 40
3.0
 40
4.0
 40
4.0
 40
4.0
 40
4.0
 10
89.56662595417084
 20
-156.6922444269728
 30
0.0
 10
89.30445418774333
 20
-156.6922444269728
 30
0.0
 10
89.26655813740557
 20
-156.9037732897671
 30
0.0
 10
89.26655813740557
 20
-157.0202175171685
 30
0.0
 10
89.26655813740557
 20
-157.1959173869163
 30
0.0
 10
89.36164277279848
 20
-157.3588704033686
 30
0.0
 10
89.54561087171082
 20
-157.3588704033686
 30
0.0
 10
89.66618921369457
 20
-157.3588704033686
 30
0.0
 10
89.84188908344231
 20
-157.2996147610223
 30
0.0
 10
89.84188908344231
 20
-157.0140163452951
 30
0.0
 10
89.84188908344231
 20
-156.7897406292053
 30
0.0
 10
89.70236271628968
 20
-156.6922444269728
 30
0.0
 10
89.56662595417084
 20
-156.6922444269728
 30
0.0
  0
SPLINE
  5
135
330
130
100
AcDbEntity
  8
レイヤー 1
100
AcDbSpline
210
0.0
220
0.0
230
1.0
 70
     9
 71
     3
 72
    32
 73
    28
 74
     0
 42
0.0000000001
 43
0.0000000001
 40
0.0
 40
0.0
 40
0.0
 40
0.0
 40
1.0
 40
1.0
 40
1.0
 40
2.0
 40
2.0
 40
2.0
 40
3.0
 40
3.0
 40
3.0
 40
4.0
 40
4.0
 40
4.0
 40
5.0
 40
5.0
 40
5.0
 40
6.0
 40
6.0
 40
6.0
 40
7.0
 40
7.0
 40
7.0
 40
8.0
 40
8.0
 40
8.0
 40
9.0
 40
9.0
 40
9.0
 40
9.0
 10
89.54974498629312
 20
-157.5511067314455
 30
0.0
 10
89.0336696826027
 20
-157.5511067314455
 30
0.0
 10
89.02505694388956
 20
-156.9971353774174
 30
0.0
 10
89.02505694388956
 20
-156.7831949477834
 30
0.0
 10
89.02505694388956
 20
-156.5527180598201
 30
0.0
 10
89.04434947860698
 20
-155.9053846181417
 30
0.0
 10
89.5879855461794
 20
-155.9053846181417
 30
0.0
 10
89.76127384908746
 20
-155.9053846181417
 30
0.0
 10
90.00690915718577
 20
-155.9753200564923
 30
0.0
 10
90.04480520752352
 20
-156.3074272612703
 30
0.0
 10
90.04480520752352
 20
-156.3074272612703
 30
0.0
 10
89.83120928743803
 20
-156.3074272612703
 30
0.0
 10
89.83120928743803
 20
-156.3074272612703
 30
0.0
 10
89.82052949143376
 20
-156.2502386762152
 30
0.0
 10
89.78883461296947
 20
-156.1020995703495
 30
0.0
 10
89.58591848888824
 20
-156.1020995703495
 30
0.0
 10
89.29377439173906
 20
-156.1020995703495
 30
0.0
 10
89.25381128411016
 20
-156.4300726605452
 30
0.0
 10
89.24106443081473
 20
-156.6350558419176
 30
0.0
 10
89.33408200891648
 20
-156.5568521744024
 30
0.0
 10
89.40195038997591
 20
-156.4975965320561
 30
0.0
 10
89.58385143159709
 20
-156.4975965320561
 30
0.0
 10
89.76368541592714
 20
-156.4975965320561
 30
0.0
 10
90.06616479953207
 20
-156.605772530293
 30
0.0
 10
90.06616479953207
 20
-157.0119492880039
 30
0.0
 10
90.06616479953207
 20
-157.3313096394866
 30
0.0
 10
89.86703828048463
 20
-157.5511067314455
 30
0.0
 10
89.54974498629312
 20
-157.5511067314455
 30
0.0
  0
HATCH
  5
136
330
130
100
AcDbEntity
  8
レイヤー 1
 62
   250
420
  2299925
440
 33554687
100
AcDbHatch
 10
0.0
 20
0.0
 30
0.0
210
0.0
220
0.0
230
1.0
  2
SOLID
 70
     1
 71
     1
 91
        2
 92
        1
 93
        1
 72
     4
 94
        3
 73
     0
 74
     0
 95
       17
 96
       13
 40
0.0
 40
0.0
 40
0.0
 40
0.0
 40
1.0
 40
1.0
 40
1.0
 40
2.0
 40
2.0
 40
2.0
 40
3.0
 40
3.0
 40
3.0
 40
4.0
 40
4.0
 40
4.0
 40
4.0
 10
89.56662595417084
 20
-156.6922444269728
 10
89.30445418774333
 20
-156.6922444269728
 10
89.26655813740557
 20
-156.9037732897671
 10
89.26655813740557
 20
-157.0202175171685
 10
89.26655813740557
 20
-157.1959173869163
 10
89.36164277279848
 20
-157.3588704033686
 10
89.54561087171082
 20
-157.3588704033686
 10
89.66618921369457
 20
-157.3588704033686
 10
89.84188908344231
 20
-157.2996147610223
 10
89.84188908344231
 20
-157.0140163452951
 10
89.84188908344231
 20
-156.7897406292053
 10
89.70236271628968
 20
-156.6922444269728
 10
89.56662595417084
 20
-156.6922444269728
 97
        0
 97
        1
330
134
 92
        1
 93
        1
 72
     4
 94
        3
 73
     0
 74
     0
 95
       32
 96
       28
 40
0.0
 40
0.0
 40
0.0
 40
0.0
 40
1.0
 40
1.0
 40
1.0
 40
2.0
 40
2.0
 40
2.0
 40
3.0
 40
3.0
 40
3.0
 40
4.0
 40
4.0
 40
4.0
 40
5.0
 40
5.0
 40
5.0
 40
6.0
 40
6.0
 40
6.0
 40
7.0
 40
7.0
 40
7.0
 40
8.0
 40
8.0
 40
8.0
 40
9.0
 40
9.0
 40
9.0
 40
9.0
 10
89.54974498629312
 20
-157.5511067314455
 10
89.0336696826027
 20
-157.5511067314455
 10
89.02505694388956
 20
-156.9971353774174
 10
89.02505694388956
 20
-156.7831949477834
 10
89.02505694388956
 20
-156.5527180598201
 10
89.04434947860698
 20
-155.9053846181417
 10
89.5879855461794
 20
-155.9053846181417
 10
89.76127384908746
 20
-155.9053846181417
 10
90.00690915718577
 20
-155.9753200564923
 10
90.04480520752352
 20
-156.3074272612703
 10
90.04480520752352
 20
-156.3074272612703
 10
89.83120928743803
 20
-156.3074272612703
 10
89.83120928743803
 20
-156.3074272612703
 10
89.82052949143376
 20
-156.2502386762152
 10
89.78883461296947
 20
-156.1020995703495
 10
89.58591848888824
 20
-156.1020995703495
 10
89.29377439173906
 20
-156.1020995703495
 10
89.25381128411016
 20
-156.4300726605452
 10
89.24106443081473
 20
-156.6350558419176
 10
89.33408200891648
 20
-156.5568521744024
 10
89.40195038997591
 20
-156.4975965320561
 10
89.58385143159709
 20
-156.4975965320561
 10
89.76368541592714
 20
-156.4975965320561
 10
90.06616479953207
 20
-156.605772530293
 10
90.06616479953207
 20
-157.0119492880039
 10
90.06616479953207
 20
-157.3313096394866
 10
89.86703828048463
 20
-157.5511067314455
 10
89.54974498629312
 20
-157.5511067314455
 97
        0
 97
        1
330
135
 75
     2
 76
     1
 98
        1
 10
0.0
 20
0.0
450
        0
451
        0
460
0.0
461
0.0
452
        0
462
0.0
453
        0
470

  0
SPLINE
  5
137
330
130
100
AcDbEntity
  8
レイヤー 1
100
AcDbSpline
210
0.0
220
0.0
230
1.0
 70
    11
 71
     3
 72
    17
 73
    13
 74
     0
 42
0.0000000001
 43
0.0000000001
 40
0.0
 40
0.0
 40
0.0
 40
0.0
 40
1.0
 40
1.0
 40
1.0
 40
2.0
 40
2.0
 40
2.0
 40
3.0
 40
3.0
 40
3.0
 40
4.0
 40
4.0
 40
4.0
 40
4.0
 10
90.28251679600577
 20
-157.5004638278123
 30
0.0
 10
90.28251679600577
 20
-157.5004638278123
 30
0.0
 10
90.28251679600577
 20
-157.2486273478406
 30
0.0
 10
90.28251679600577
 20
-157.2486273478406
 30
0.0
 10
90.28251679600577
 20
-157.2486273478406
 30
0.0
 10
90.53435327597751
 20
-157.2486273478406
 30
0.0
 10
90.53435327597751
 20
-157.2486273478406
 30
0.0
 10
90.53435327597751
 20
-157.2486273478406
 30
0.0
 10
90.53435327597751
 20
-157.5004638278123
 30
0.0
 10
90.53435327597751
 20
-157.5004638278123
 30
0.0
 10
90.53435327597751
 20
-157.5004638278123
 30
0.0
 10
90.28251679600577
 20
-157.5004638278123
 30
0.0
 10
90.28251679600577
 20
-157.5004638278123
 30
0.0
  0
HATCH
  5
138
330
130
100
AcDbEntity
  8
レイヤー 1
 62
   250
420
  2299925
440
 33554687
100
AcDbHatch
 10
0.0
 20
0.0
 30
0.0
210
0.0
220
0.0
230
1.0
  2
SOLID
 70
     1
 71
     1
 91
        1
 92
        1
 93
        1
 72
     4
 94
        3
 73
     0
 74
     0
 95
       17
 96
       13
 40
0.0
 40
0.0
 40
0.0
 40
0.0
 40
1.0
 40
1.0
 40
1.0
 40
2.0
 40
2.0
 40
2.0
 40
3.0
 40
3.0
 40
3.0
 40
4.0
 40
4.0
 40
4.0
 40
4.0
 10
90.28251679600577
 20
-157.5004638278123
 10
90.28251679600577
 20
-157.5004638278123
 10
90.28251679600577
 20
-157.2486273478406
 10
90.28251679600577
 20
-157.2486273478406
 10
90.28251679600577
 20
-157.2486273478406
 10
90.53435327597751
 20
-157.2486273478406
 10
90.53435327597751
 20
-157.2486273478406
 10
90.53435327597751
 20
-157.2486273478406
 10
90.53435327597751
 20
-157.5004638278123
 10
90.53435327597751
 20
-157.5004638278123
 10
90.53435327597751
 20
-157.5004638278123
 10
90.28251679600577
 20
-157.5004638278123
 10
90.28251679600577
 20
-157.5004638278123
 97
        0
 97
        1
330
137
 75
     2
 76
     1
 98
        1
 10
0.0
 20
0.0
450
        0
451
        0
460
0.0
461
0.0
452
        0
462
0.0
453
        0
470

  0
SPLINE
  5
139
330
130
100
AcDbEntity
  8
レイヤー 1
100
AcDbSpline
210
0.0
220
0.0
230
1.0
 70
     9
 71
     3
 72
    53
 73
    49
 74
     0
 42
0.0000000001
 43
0.0000000001
 40
0.0
 40
0.0
 40
0.0
 40
0.0
 40
1.0
 40
1.0
 40
1.0
 40
2.0
 40
2.0
 40
2.0
 40
3.0
 40
3.0
 40
3.0
 40
4.0
 40
4.0
 40
4.0
 40
5.0
 40
5.0
 40
5.0
 40
6.0
 40
6.0
 40
6.0
 40
7.0
 40
7.0
 40
7.0
 40
8.0
 40
8.0
 40
8.0
 40
9.0
 40
9.0
 40
9.0
 40
10.0
 40
10.0
 40
10.0
 40
11.0
 40
11.0
 40
11.0
 40
12.0
 40
12.0
 40
12.0
 40
13.0
 40
13.0
 40
13.0
 40
14.0
 40
14.0
 40
14.0
 40
15.0
 40
15.0
 40
15.0
 40
16.0
 40
16.0
 40
16.0
 40
16.0
 10
91.25162215600655
 20
-157.5511067314455
 30
0.0
 10
91.17341848849138
 20
-157.5511067314455
 30
0.0
 10
91.0717881716765
 20
-157.5342257635678
 30
0.0
 10
90.97015785486162
 20
-157.4708360066392
 30
0.0
 10
90.79686955195356
 20
-157.3609374606597
 30
0.0
 10
90.77550995994501
 20
-157.2296793226717
 30
0.0
 10
90.75656193477614
 20
-157.1218478339834
 30
0.0
 10
90.75656193477614
 20
-157.1218478339834
 30
0.0
 10
90.97877059357475
 20
-157.1218478339834
 30
0.0
 10
90.97877059357475
 20
-157.1218478339834
 30
0.0
 10
91.03354761179023
 20
-157.3206298434823
 30
0.0
 10
91.16067163519595
 20
-157.3502576646555
 30
0.0
 10
91.25368921329769
 20
-157.3502576646555
 30
0.0
 10
91.39321558045031
 20
-157.3502576646555
 30
0.0
 10
91.54548880089835
 20
-157.2506944051317
 30
0.0
 10
91.54548880089835
 20
-157.0181504598774
 30
0.0
 10
91.54548880089835
 20
-156.7621798653233
 30
0.0
 10
91.3656548165683
 20
-156.6922444269728
 30
0.0
 10
91.24507647458456
 20
-156.6922444269728
 30
0.0
 10
91.21338159612028
 20
-156.6922444269728
 30
0.0
 10
91.0717881716765
 20
-156.6922444269728
 30
0.0
 10
90.98290470815705
 20
-156.8214355076696
 30
0.0
 10
90.98290470815705
 20
-156.8214355076696
 30
0.0
 10
90.80720483840932
 20
-156.8024874825007
 30
0.0
 10
90.80720483840932
 20
-156.8024874825007
 30
0.0
 10
90.80720483840932
 20
-156.8024874825007
 30
0.0
 10
90.92778318039306
 20
-155.9560275217749
 30
0.0
 10
90.92778318039306
 20
-155.9560275217749
 30
0.0
 10
90.92778318039306
 20
-155.9560275217749
 30
0.0
 10
91.70637476005952
 20
-155.9560275217749
 30
0.0
 10
91.70637476005952
 20
-155.9560275217749
 30
0.0
 10
91.70637476005952
 20
-155.9560275217749
 30
0.0
 10
91.70637476005952
 20
-156.1506754166915
 30
0.0
 10
91.70637476005952
 20
-156.1506754166915
 30
0.0
 10
91.70637476005952
 20
-156.1506754166915
 30
0.0
 10
91.09073619684536
 20
-156.1506754166915
 30
0.0
 10
91.09073619684536
 20
-156.1506754166915
 30
0.0
 10
91.09073619684536
 20
-156.1506754166915
 30
0.0
 10
91.02527938262563
 20
-156.5737331422802
 30
0.0
 10
91.02527938262563
 20
-156.5737331422802
 30
0.0
 10
91.08660208226307
 20
-156.5399712065247
 30
0.0
 10
91.16893986436055
 20
-156.4996635893473
 30
0.0
 10
91.28745114905314
 20
-156.4996635893473
 30
0.0
 10
91.54135468631606
 20
-156.4996635893473
 30
0.0
 10
91.77837725570125
 20
-156.6860432550993
 30
0.0
 10
91.77837725570125
 20
-156.9992024347085
 30
0.0
 10
91.77837725570125
 20
-157.3164957289
 30
0.0
 10
91.55410153961147
 20
-157.5511067314455
 30
0.0
 10
91.25162215600655
 20
-157.5511067314455
 30
0.0
  0
HATCH
  5
13A
330
130
100
AcDbEntity
  8
レイヤー 1
 62
   250
420
  2299925
440
 33554687
100
AcDbHatch
 10
0.0
 20
0.0
 30
0.0
210
0.0
220
0.0
230
1.0
  2
SOLID
 70
     1
 71
     1
 91
        1
 92
        1
 93
        1
 72
     4
 94
        3
 73
     0
 74
     0
 95
       53
 96
       49
 40
0.0
 40
0.0
 40
0.0
 40
0.0
 40
1.0
 40
1.0
 40
1.0
 40
2.0
 40
2.0
 40
2.0
 40
3.0
 40
3.0
 40
3.0
 40
4.0
 40
4.0
 40
4.0
 40
5.0
 40
5.0
 40
5.0
 40
6.0
 40
6.0
 40
6.0
 40
7.0
 40
7.0
 40
7.0
 40
8.0
 40
8.0
 40
8.0
 40
9.0
 40
9.0
 40
9.0
 40
10.0
 40
10.0
 40
10.0
 40
11.0
 40
11.0
 40
11.0
 40
12.0
 40
12.0
 40
12.0
 40
13.0
 40
13.0
 40
13.0
 40
14.0
 40
14.0
 40
14.0
 40
15.0
 40
15.0
 40
15.0
 40
16.0
 40
16.0
 40
16.0
 40
16.0
 10
91.25162215600655
 20
-157.5511067314455
 10
91.17341848849138
 20
-157.5511067314455
 10
91.0717881716765
 20
-157.5342257635678
 10
90.97015785486162
 20
-157.4708360066392
 10
90.79686955195356
 20
-157.3609374606597
 10
90.77550995994501
 20
-157.2296793226717
 10
90.75656193477614
 20
-157.1218478339834
 10
90.75656193477614
 20
-157.1218478339834
 10
90.97877059357475
 20
-157.1218478339834
 10
90.97877059357475
 20
-157.1218478339834
 10
91.03354761179023
 20
-157.3206298434823
 10
91.16067163519595
 20
-157.3502576646555
 10
91.25368921329769
 20
-157.3502576646555
 10
91.39321558045031
 20
-157.3502576646555
 10
91.54548880089835
 20
-157.2506944051317
 10
91.54548880089835
 20
-157.0181504598774
 10
91.54548880089835
 20
-156.7621798653233
 10
91.3656548165683
 20
-156.6922444269728
 10
91.24507647458456
 20
-156.6922444269728
 10
91.21338159612028
 20
-156.6922444269728
 10
91.0717881716765
 20
-156.6922444269728
 10
90.98290470815705
 20
-156.8214355076696
 10
90.98290470815705
 20
-156.8214355076696
 10
90.80720483840932
 20
-156.8024874825007
 10
90.80720483840932
 20
-156.8024874825007
 10
90.80720483840932
 20
-156.8024874825007
 10
90.92778318039306
 20
-155.9560275217749
 10
90.92778318039306
 20
-155.9560275217749
 10
90.92778318039306
 20
-155.9560275217749
 10
91.70637476005952
 20
-155.9560275217749
 10
91.70637476005952
 20
-155.9560275217749
 10
91.70637476005952
 20
-155.9560275217749
 10
91.70637476005952
 20
-156.1506754166915
 10
91.70637476005952
 20
-156.1506754166915
 10
91.70637476005952
 20
-156.1506754166915
 10
91.09073619684536
 20
-156.1506754166915
 10
91.09073619684536
 20
-156.1506754166915
 10
91.09073619684536
 20
-156.1506754166915
 10
91.02527938262563
 20
-156.5737331422802
 10
91.02527938262563
 20
-156.5737331422802
 10
91.08660208226307
 20
-156.5399712065247
 10
91.16893986436055
 20
-156.4996635893473
 10
91.28745114905314
 20
-156.4996635893473
 10
91.54135468631606
 20
-156.4996635893473
 10
91.77837725570125
 20
-156.6860432550993
 10
91.77837725570125
 20
-156.9992024347085
 10
91.77837725570125
 20
-157.3164957289
 10
91.55410153961147
 20
-157.5511067314455
 10
91.25162215600655
 20
-157.5511067314455
 97
        0
 97
        1
330
139
 75
     2
 76
     1
 98
        1
 10
0.0
 20
0.0
450
        0
451
        0
460
0.0
461
0.0
452
        0
462
0.0
453
        0
470

  0
ENDBLK
  5
133
330
130
100
AcDbEntity
  8
0
100
AcDbBlockEnd
  0
BLOCK
  5
141
330
13F
100
AcDbEntity
  8
0
100
AcDbBlockBegin
  2
Block_5
 70
     0
 10
0.0
 20
0.0
 30
0.0
  3
Block_5
  1

  0
INSERT
  5
144
330
13F
100
AcDbEntity
  8
レイヤー 1
100
AcDbBlockReference
  2
Block_6
 10
0.0
 20
0.0
 30
0.0
  0
ENDBLK
  5
142
330
13F
100
AcDbEntity
  8
0
100
AcDbBlockEnd
  0
BLOCK
  5
145
330
143
100
AcDbEntity
  8
0
100
AcDbBlockBegin
  2
Block_6
 70
     0
 10
0.0
 20
0.0
 30
0.0
  3
Block_6
  1

  0
SPLINE
  5
147
330
143
100
AcDbEntity
  8
レイヤー 1
100
AcDbSpline
210
0.0
220
0.0
230
1.0
 70
     9
 71
     3
 72
    17
 73
    13
 74
     0
 42
0.0000000001
 43
0.0000000001
 40
0.0
 40
0.0
 40
0.0
 40
0.0
 40
1.0
 40
1.0
 40
1.0
 40
2.0
 40
2.0
 40
2.0
 40
3.0
 40
3.0
 40
3.0
 40
4.0
 40
4.0
 40
4.0
 40
4.0
 10
61.74713540122988
 20
-146.7471150349278
 30
0.0
 10
61.74713540122988
 20
-146.9968844576084
 30
0.0
 10
62.03049450489168
 20
-147.0433932466593
 30
0.0
 10
62.3753485629652
 20
-147.0433932466593
 30
0.0
 10
62.69488116922211
 20
-147.0433932466593
 30
0.0
 10
63.00373397947477
 20
-147.0072197440641
 30
0.0
 10
63.00373397947477
 20
-146.7471150349278
 30
0.0
 10
63.00373397947477
 20
-146.4995849243126
 30
0.0
 10
62.72226967832985
 20
-146.4508368231963
 30
0.0
 10
62.3753485629652
 20
-146.4508368231963
 30
0.0
 10
62.05598821148253
 20
-146.4508368231963
 30
0.0
 10
61.74713540122988
 20
-146.4890773830826
 30
0.0
 10
61.74713540122988
 20
-146.7471150349278
 30
0.0
  0
SPLINE
  5
148
330
143
100
AcDbEntity
  8
レイヤー 1
100
AcDbSpline
210
0.0
220
0.0
230
1.0
 70
     9
 71
     3
 72
    29
 73
    25
 74
     0
 42
0.0000000001
 43
0.0000000001
 40
0.0
 40
0.0
 40
0.0
 40
0.0
 40
1.0
 40
1.0
 40
1.0
 40
2.0
 40
2.0
 40
2.0
 40
3.0
 40
3.0
 40
3.0
 40
4.0
 40
4.0
 40
4.0
 40
5.0
 40
5.0
 40
5.0
 40
6.0
 40
6.0
 40
6.0
 40
7.0
 40
7.0
 40
7.0
 40
8.0
 40
8.0
 40
8.0
 40
8.0
 10
62.96979978894505
 20
-146.3493787611557
 30
0.0
 10
63.17926159444824
 20
-146.457210249844
 30
0.0
 10
63.19838187439138
 20
-146.6306708075263
 30
0.0
 10
63.19838187439138
 20
-146.7471150349278
 30
0.0
 10
63.19838187439138
 20
-146.908000994089
 30
0.0
 10
63.1518730853405
 20
-147.0495944185327
 30
0.0
 10
62.96979978894505
 20
-147.1446790539256
 30
0.0
 10
62.7753241488027
 20
-147.2483764280316
 30
0.0
 10
62.53830157941751
 20
-147.267668962749
 30
0.0
 10
62.3753485629652
 20
-147.267668962749
 30
0.0
 10
62.23151582645601
 20
-147.267668962749
 30
0.0
 10
61.97985160125851
 20
-147.2504434853228
 30
0.0
 10
61.78089733698533
 20
-147.1446790539256
 30
0.0
 10
61.57780895812986
 20
-147.0368475652373
 30
0.0
 10
61.55455456360442
 20
-146.8759616060761
 30
0.0
 10
61.55455456360442
 20
-146.7471150349278
 30
0.0
 10
61.55455456360442
 20
-146.5882961330578
 30
0.0
 10
61.59899629536415
 20
-146.4446356513228
 30
0.0
 10
61.78089733698533
 20
-146.3493787611557
 30
0.0
 10
61.97347817461079
 20
-146.2499877564062
 30
0.0
 10
62.20188800528286
 20
-146.2267333618808
 30
0.0
 10
62.3753485629652
 20
-146.2267333618808
 30
0.0
 10
62.54674206335637
 20
-146.2267333618808
 30
0.0
 10
62.77739120609385
 20
-146.2477484443408
 30
0.0
 10
62.96979978894505
 20
-146.3493787611557
 30
0.0
  0
HATCH
  5
149
330
143
100
AcDbEntity
  8
レイヤー 1
 62
   250
420
  2299925
440
 33554687
100
AcDbHatch
 10
0.0
 20
0.0
 30
0.0
210
0.0
220
0.0
230
1.0
  2
SOLID
 70
     1
 71
     1
 91
        2
 92
        1
 93
        1
 72
     4
 94
        3
 73
     0
 74
     0
 95
       17
 96
       13
 40
0.0
 40
0.0
 40
0.0
 40
0.0
 40
1.0
 40
1.0
 40
1.0
 40
2.0
 40
2.0
 40
2.0
 40
3.0
 40
3.0
 40
3.0
 40
4.0
 40
4.0
 40
4.0
 40
4.0
 10
61.74713540122988
 20
-146.7471150349278
 10
61.74713540122988
 20
-146.9968844576084
 10
62.03049450489168
 20
-147.0433932466593
 10
62.3753485629652
 20
-147.0433932466593
 10
62.69488116922211
 20
-147.0433932466593
 10
63.00373397947477
 20
-147.0072197440641
 10
63.00373397947477
 20
-146.7471150349278
 10
63.00373397947477
 20
-146.4995849243126
 10
62.72226967832985
 20
-146.4508368231963
 10
62.3753485629652
 20
-146.4508368231963
 10
62.05598821148253
 20
-146.4508368231963
 10
61.74713540122988
 20
-146.4890773830826
 10
61.74713540122988
 20
-146.7471150349278
 97
        0
 97
        1
330
147
 92
        1
 93
        1
 72
     4
 94
        3
 73
     0
 74
     0
 95
       29
 96
       25
 40
0.0
 40
0.0
 40
0.0
 40
0.0
 40
1.0
 40
1.0
 40
1.0
 40
2.0
 40
2.0
 40
2.0
 40
3.0
 40
3.0
 40
3.0
 40
4.0
 40
4.0
 40
4.0
 40
5.0
 40
5.0
 40
5.0
 40
6.0
 40
6.0
 40
6.0
 40
7.0
 40
7.0
 40
7.0
 40
8.0
 40
8.0
 40
8.0
 40
8.0
 10
62.96979978894505
 20
-146.3493787611557
 10
63.17926159444824
 20
-146.457210249844
 10
63.19838187439138
 20
-146.6306708075263
 10
63.19838187439138
 20
-146.7471150349278
 10
63.19838187439138
 20
-146.908000994089
 10
63.1518730853405
 20
-147.0495944185327
 10
62.96979978894505
 20
-147.1446790539256
 10
62.7753241488027
 20
-147.2483764280316
 10
62.53830157941751
 20
-147.267668962749
 10
62.3753485629652
 20
-147.267668962749
 10
62.23151582645601
 20
-147.267668962749
 10
61.97985160125851
 20
-147.2504434853228
 10
61.78089733698533
 20
-147.1446790539256
 10
61.57780895812986
 20
-147.0368475652373
 10
61.55455456360442
 20
-146.8759616060761
 10
61.55455456360442
 20
-146.7471150349278
 10
61.55455456360442
 20
-146.5882961330578
 10
61.59899629536415
 20
-146.4446356513228
 10
61.78089733698533
 20
-146.3493787611557
 10
61.97347817461079
 20
-146.2499877564062
 10
62.20188800528286
 20
-146.2267333618808
 10
62.3753485629652
 20
-146.2267333618808
 10
62.54674206335637
 20
-146.2267333618808
 10
62.77739120609385
 20
-146.2477484443408
 10
62.96979978894505
 20
-146.3493787611557
 97
        0
 97
        1
330
148
 75
     2
 76
     1
 98
        1
 10
0.0
 20
0.0
450
        0
451
        0
460
0.0
461
0.0
452
        0
462
0.0
453
        0
470

  0
SPLINE
  5
14A
330
143
100
AcDbEntity
  8
レイヤー 1
100
AcDbSpline
210
0.0
220
0.0
230
1.0
 70
    11
 71
     3
 72
    17
 73
    13
 74
     0
 42
0.0000000001
 43
0.0000000001
 40
0.0
 40
0.0
 40
0.0
 40
0.0
 40
1.0
 40
1.0
 40
1.0
 40
2.0
 40
2.0
 40
2.0
 40
3.0
 40
3.0
 40
3.0
 40
4.0
 40
4.0
 40
4.0
 40
4.0
 10
63.14756671598394
 20
-146.0102091106328
 30
0.0
 10
63.14756671598394
 20
-146.0102091106328
 30
0.0
 10
62.89590249078645
 20
-146.0102091106328
 30
0.0
 10
62.89590249078645
 20
-146.0102091106328
 30
0.0
 10
62.89590249078645
 20
-146.0102091106328
 30
0.0
 10
62.89590249078645
 20
-145.7585448854354
 30
0.0
 10
62.89590249078645
 20
-145.7585448854354
 30
0.0
 10
62.89590249078645
 20
-145.7585448854354
 30
0.0
 10
63.14756671598394
 20
-145.7585448854354
 30
0.0
 10
63.14756671598394
 20
-145.7585448854354
 30
0.0
 10
63.14756671598394
 20
-145.7585448854354
 30
0.0
 10
63.14756671598394
 20
-146.0102091106328
 30
0.0
 10
63.14756671598394
 20
-146.0102091106328
 30
0.0
  0
HATCH
  5
14B
330
143
100
AcDbEntity
  8
レイヤー 1
 62
   250
420
  2299925
440
 33554687
100
AcDbHatch
 10
0.0
 20
0.0
 30
0.0
210
0.0
220
0.0
230
1.0
  2
SOLID
 70
     1
 71
     1
 91
        1
 92
        1
 93
        1
 72
     4
 94
        3
 73
     0
 74
     0
 95
       17
 96
       13
 40
0.0
 40
0.0
 40
0.0
 40
0.0
 40
1.0
 40
1.0
 40
1.0
 40
2.0
 40
2.0
 40
2.0
 40
3.0
 40
3.0
 40
3.0
 40
4.0
 40
4.0
 40
4.0
 40
4.0
 10
63.14756671598394
 20
-146.0102091106328
 10
63.14756671598394
 20
-146.0102091106328
 10
62.89590249078645
 20
-146.0102091106328
 10
62.89590249078645
 20
-146.0102091106328
 10
62.89590249078645
 20
-146.0102091106328
 10
62.89590249078645
 20
-145.7585448854354
 10
62.89590249078645
 20
-145.7585448854354
 10
62.89590249078645
 20
-145.7585448854354
 10
63.14756671598394
 20
-145.7585448854354
 10
63.14756671598394
 20
-145.7585448854354
 10
63.14756671598394
 20
-145.7585448854354
 10
63.14756671598394
 20
-146.0102091106328
 10
63.14756671598394
 20
-146.0102091106328
 97
        0
 97
        1
330
14A
 75
     2
 76
     1
 98
        1
 10
0.0
 20
0.0
450
        0
451
        0
460
0.0
461
0.0
452
        0
462
0.0
453
        0
470

  0
SPLINE
  5
14C
330
143
100
AcDbEntity
  8
レイヤー 1
100
AcDbSpline
210
0.0
220
0.0
230
1.0
 70
     9
 71
     3
 72
    53
 73
    49
 74
     0
 42
0.0000000001
 43
0.0000000001
 40
0.0
 40
0.0
 40
0.0
 40
0.0
 40
1.0
 40
1.0
 40
1.0
 40
2.0
 40
2.0
 40
2.0
 40
3.0
 40
3.0
 40
3.0
 40
4.0
 40
4.0
 40
4.0
 40
5.0
 40
5.0
 40
5.0
 40
6.0
 40
6.0
 40
6.0
 40
7.0
 40
7.0
 40
7.0
 40
8.0
 40
8.0
 40
8.0
 40
9.0
 40
9.0
 40
9.0
 40
10.0
 40
10.0
 40
10.0
 40
11.0
 40
11.0
 40
11.0
 40
12.0
 40
12.0
 40
12.0
 40
13.0
 40
13.0
 40
13.0
 40
14.0
 40
14.0
 40
14.0
 40
15.0
 40
15.0
 40
15.0
 40
16.0
 40
16.0
 40
16.0
 40
16.0
 10
63.19838187439138
 20
-145.0409314958578
 30
0.0
 10
63.19838187439138
 20
-145.1193074181472
 30
0.0
 10
63.18150090651365
 20
-145.2207654801878
 30
0.0
 10
63.1179388948108
 20
-145.3223957970027
 30
0.0
 10
63.00786809405707
 20
-145.495856354685
 30
0.0
 10
62.8767822108433
 20
-145.5170436919193
 30
0.0
 10
62.76895072215499
 20
-145.5359917170882
 30
0.0
 10
62.76895072215499
 20
-145.5359917170882
 30
0.0
 10
62.76895072215499
 20
-145.3139553130639
 30
0.0
 10
62.76895072215499
 20
-145.3139553130639
 30
0.0
 10
62.9677327316539
 20
-145.2588337852999
 30
0.0
 10
62.99736055282705
 20
-145.1318820166684
 30
0.0
 10
62.99736055282705
 20
-145.0388644385667
 30
0.0
 10
62.99736055282705
 20
-144.8991658166398
 30
0.0
 10
62.89796954807759
 20
-144.7468925961917
 30
0.0
 10
62.66525334804897
 20
-144.7468925961917
 30
0.0
 10
62.40928275349491
 20
-144.7468925961917
 30
0.0
 10
62.33951956991859
 20
-144.9267265805218
 30
0.0
 10
62.33951956991859
 20
-145.0473049225055
 30
0.0
 10
62.33951956991859
 20
-145.0789998009698
 30
0.0
 10
62.33951956991859
 20
-145.2207654801878
 30
0.0
 10
62.4685383958412
 20
-145.3096489437073
 30
0.0
 10
62.4685383958412
 20
-145.3096489437073
 30
0.0
 10
62.44941811589806
 20
-145.4851765586808
 30
0.0
 10
62.44941811589806
 20
-145.4851765586808
 30
0.0
 10
62.44941811589806
 20
-145.4851765586808
 30
0.0
 10
61.60330266472071
 20
-145.364598216697
 30
0.0
 10
61.60330266472071
 20
-145.364598216697
 30
0.0
 10
61.60330266472071
 20
-145.364598216697
 30
0.0
 10
61.60330266472071
 20
-144.5861788918048
 30
0.0
 10
61.60330266472071
 20
-144.5861788918048
 30
0.0
 10
61.60330266472071
 20
-144.5861788918048
 30
0.0
 10
61.79795055963732
 20
-144.5861788918048
 30
0.0
 10
61.79795055963732
 20
-144.5861788918048
 30
0.0
 10
61.79795055963732
 20
-144.5861788918048
 30
0.0
 10
61.79795055963732
 20
-145.201817455019
 30
0.0
 10
61.79795055963732
 20
-145.201817455019
 30
0.0
 10
61.79795055963732
 20
-145.201817455019
 30
0.0
 10
62.221008285226
 20
-145.2672742692387
 30
0.0
 10
62.221008285226
 20
-145.2672742692387
 30
0.0
 10
62.18707409469629
 20
-145.2059515696013
 30
0.0
 10
62.14693873229313
 20
-145.1234415327296
 30
0.0
 10
62.14693873229313
 20
-145.0051025028112
 30
0.0
 10
62.14693873229313
 20
-144.7511989655483
 30
0.0
 10
62.33314614327088
 20
-144.5141763961631
 30
0.0
 10
62.64613306810583
 20
-144.5141763961631
 30
0.0
 10
62.9635986170716
 20
-144.5141763961631
 30
0.0
 10
63.19838187439138
 20
-144.7384521122529
 30
0.0
 10
63.19838187439138
 20
-145.0409314958578
 30
0.0
  0
HATCH
  5
14D
330
143
100
AcDbEntity
  8
レイヤー 1
 62
   250
420
  2299925
440
 33554687
100
AcDbHatch
 10
0.0
 20
0.0
 30
0.0
210
0.0
220
0.0
230
1.0
  2
SOLID
 70
     1
 71
     1
 91
        1
 92
        1
 93
        1
 72
     4
 94
        3
 73
     0
 74
     0
 95
       53
 96
       49
 40
0.0
 40
0.0
 40
0.0
 40
0.0
 40
1.0
 40
1.0
 40
1.0
 40
2.0
 40
2.0
 40
2.0
 40
3.0
 40
3.0
 40
3.0
 40
4.0
 40
4.0
 40
4.0
 40
5.0
 40
5.0
 40
5.0
 40
6.0
 40
6.0
 40
6.0
 40
7.0
 40
7.0
 40
7.0
 40
8.0
 40
8.0
 40
8.0
 40
9.0
 40
9.0
 40
9.0
 40
10.0
 40
10.0
 40
10.0
 40
11.0
 40
11.0
 40
11.0
 40
12.0
 40
12.0
 40
12.0
 40
13.0
 40
13.0
 40
13.0
 40
14.0
 40
14.0
 40
14.0
 40
15.0
 40
15.0
 40
15.0
 40
16.0
 40
16.0
 40
16.0
 40
16.0
 10
63.19838187439138
 20
-145.0409314958578
 10
63.19838187439138
 20
-145.1193074181472
 10
63.18150090651365
 20
-145.2207654801878
 10
63.1179388948108
 20
-145.3223957970027
 10
63.00786809405707
 20
-145.495856354685
 10
62.8767822108433
 20
-145.5170436919193
 10
62.76895072215499
 20
-145.5359917170882
 10
62.76895072215499
 20
-145.5359917170882
 10
62.76895072215499
 20
-145.3139553130639
 10
62.76895072215499
 20
-145.3139553130639
 10
62.9677327316539
 20
-145.2588337852999
 10
62.99736055282705
 20
-145.1318820166684
 10
62.99736055282705
 20
-145.0388644385667
 10
62.99736055282705
 20
-144.8991658166398
 10
62.89796954807759
 20
-144.7468925961917
 10
62.66525334804897
 20
-144.7468925961917
 10
62.40928275349491
 20
-144.7468925961917
 10
62.33951956991859
 20
-144.9267265805218
 10
62.33951956991859
 20
-145.0473049225055
 10
62.33951956991859
 20
-145.0789998009698
 10
62.33951956991859
 20
-145.2207654801878
 10
62.4685383958412
 20
-145.3096489437073
 10
62.4685383958412
 20
-145.3096489437073
 10
62.44941811589806
 20
-145.4851765586808
 10
62.44941811589806
 20
-145.4851765586808
 10
62.44941811589806
 20
-145.4851765586808
 10
61.60330266472071
 20
-145.364598216697
 10
61.60330266472071
 20
-145.364598216697
 10
61.60330266472071
 20
-145.364598216697
 10
61.60330266472071
 20
-144.5861788918048
 10
61.60330266472071
 20
-144.5861788918048
 10
61.60330266472071
 20
-144.5861788918048
 10
61.79795055963732
 20
-144.5861788918048
 10
61.79795055963732
 20
-144.5861788918048
 10
61.79795055963732
 20
-144.5861788918048
 10
61.79795055963732
 20
-145.201817455019
 10
61.79795055963732
 20
-145.201817455019
 10
61.79795055963732
 20
-145.201817455019
 10
62.221008285226
 20
-145.2672742692387
 10
62.221008285226
 20
-145.2672742692387
 10
62.18707409469629
 20
-145.2059515696013
 10
62.14693873229313
 20
-145.1234415327296
 10
62.14693873229313
 20
-145.0051025028112
 10
62.14693873229313
 20
-144.7511989655483
 10
62.33314614327088
 20
-144.5141763961631
 10
62.64613306810583
 20
-144.5141763961631
 10
62.9635986170716
 20
-144.5141763961631
 10
63.19838187439138
 20
-144.7384521122529
 10
63.19838187439138
 20
-145.0409314958578
 97
        0
 97
        1
330
14C
 75
     2
 76
     1
 98
        1
 10
0.0
 20
0.0
450
        0
451
        0
460
0.0
461
0.0
452
        0
462
0.0
453
        0
470

  0
ENDBLK
  5
146
330
143
100
AcDbEntity
  8
0
100
AcDbBlockEnd
  0
BLOCK
  5
152
330
150
100
AcDbEntity
  8
0
100
AcDbBlockBegin
  2
Block_7
 70
     0
 10
0.0
 20
0.0
 30
0.0
  3
Block_7
  1

  0
INSERT
  5
155
330
150
100
AcDbEntity
  8
レイヤー 1
100
AcDbBlockReference
  2
Block_8
 10
0.0
 20
0.0
 30
0.0
  0
ENDBLK
  5
153
330
150
100
AcDbEntity
  8
0
100
AcDbBlockEnd
  0
BLOCK
  5
156
330
154
100
AcDbEntity
  8
0
100
AcDbBlockBegin
  2
Block_8
 70
     0
 10
0.0
 20
0.0
 30
0.0
  3
Block_8
  1

  0
SPLINE
  5
158
330
154
100
AcDbEntity
  8
レイヤー 1
100
AcDbSpline
210
0.0
220
0.0
230
1.0
 70
     9
 71
     3
 72
    44
 73
    40
 74
     0
 42
0.0000000001
 43
0.0000000001
 40
0.0
 40
0.0
 40
0.0
 40
0.0
 40
1.0
 40
1.0
 40
1.0
 40
2.0
 40
2.0
 40
2.0
 40
3.0
 40
3.0
 40
3.0
 40
4.0
 40
4.0
 40
4.0
 40
5.0
 40
5.0
 40
5.0
 40
6.0
 40
6.0
 40
6.0
 40
7.0
 40
7.0
 40
7.0
 40
8.0
 40
8.0
 40
8.0
 40
9.0
 40
9.0
 40
9.0
 40
10.0
 40
10.0
 40
10.0
 40
11.0
 40
11.0
 40
11.0
 40
12.0
 40
12.0
 40
12.0
 40
13.0
 40
13.0
 40
13.0
 40
13.0
 10
77.7899115473928
 20
-139.6569362715094
 30
0.0
 10
77.57200925795075
 20
-139.8155829186051
 30
0.0
 10
77.47881942507475
 20
-139.889652471538
 30
0.0
 10
77.43024357873271
 20
-140.0334852080472
 30
0.0
 10
77.43024357873271
 20
-140.0334852080472
 30
0.0
 10
78.20866290362492
 20
-140.0334852080472
 30
0.0
 10
78.20866290362492
 20
-140.0334852080472
 30
0.0
 10
78.20866290362492
 20
-140.0334852080472
 30
0.0
 10
78.20866290362492
 20
-140.2386406441938
 30
0.0
 10
78.20866290362492
 20
-140.2386406441938
 30
0.0
 10
78.20866290362492
 20
-140.2386406441938
 30
0.0
 10
77.18064641082637
 20
-140.2386406441938
 30
0.0
 10
77.18064641082637
 20
-140.2386406441938
 30
0.0
 10
77.21234128929066
 20
-139.8810397328249
 30
0.0
 10
77.27797035828467
 20
-139.8028360653097
 30
0.0
 10
77.66295977876135
 20
-139.5044907962871
 30
0.0
 10
77.9189303733154
 20
-139.3057087867881
 30
0.0
 10
77.98438718753516
 20
-139.238012660503
 30
0.0
 10
77.98438718753516
 20
-139.1005533506415
 30
0.0
 10
77.98438718753516
 20
-138.9820420659489
 30
0.0
 10
77.91255694666769
 20
-138.8509561827352
 30
0.0
 10
77.71584199445993
 20
-138.8509561827352
 30
0.0
 10
77.45556503054931
 20
-138.8509561827352
 30
0.0
 10
77.44712454661044
 20
-139.0814330706984
 30
0.0
 10
77.44281817725388
 20
-139.1978772980998
 30
0.0
 10
77.44281817725388
 20
-139.1978772980998
 30
0.0
 10
77.21871471593837
 20
-139.1978772980998
 30
0.0
 10
77.21871471593837
 20
-139.1978772980998
 30
0.0
 10
77.22715519987724
 20
-139.0709255294684
 30
0.0
 10
77.23766274110726
 20
-138.9587876714235
 30
0.0
 10
77.31810572068784
 20
-138.8402763867309
 30
0.0
 10
77.4280042666673
 20
-138.679562682344
 30
0.0
 10
77.61421167764506
 20
-138.6456284918143
 30
0.0
 10
77.7306559050465
 20
-138.6456284918143
 30
0.0
 10
78.00781383683485
 20
-138.6456284918143
 30
0.0
 10
78.21503633027264
 20
-138.8297688455009
 30
0.0
 10
78.21503633027264
 20
-139.1026204079327
 30
0.0
 10
78.21503633027264
 20
-139.3310302386047
 30
0.0
 10
78.09876435764545
 20
-139.4305934981284
 30
0.0
 10
77.7899115473928
 20
-139.6569362715094
 30
0.0
  0
HATCH
  5
159
330
154
100
AcDbEntity
  8
レイヤー 1
 62
   250
420
  2299925
440
 33554687
100
AcDbHatch
 10
0.0
 20
0.0
 30
0.0
210
0.0
220
0.0
230
1.0
  2
SOLID
 70
     1
 71
     1
 91
        1
 92
        1
 93
        1
 72
     4
 94
        3
 73
     0
 74
     0
 95
       44
 96
       40
 40
0.0
 40
0.0
 40
0.0
 40
0.0
 40
1.0
 40
1.0
 40
1.0
 40
2.0
 40
2.0
 40
2.0
 40
3.0
 40
3.0
 40
3.0
 40
4.0
 40
4.0
 40
4.0
 40
5.0
 40
5.0
 40
5.0
 40
6.0
 40
6.0
 40
6.0
 40
7.0
 40
7.0
 40
7.0
 40
8.0
 40
8.0
 40
8.0
 40
9.0
 40
9.0
 40
9.0
 40
10.0
 40
10.0
 40
10.0
 40
11.0
 40
11.0
 40
11.0
 40
12.0
 40
12.0
 40
12.0
 40
13.0
 40
13.0
 40
13.0
 40
13.0
 10
77.7899115473928
 20
-139.6569362715094
 10
77.57200925795075
 20
-139.8155829186051
 10
77.47881942507475
 20
-139.889652471538
 10
77.43024357873271
 20
-140.0334852080472
 10
77.43024357873271
 20
-140.0334852080472
 10
78.20866290362492
 20
-140.0334852080472
 10
78.20866290362492
 20
-140.0334852080472
 10
78.20866290362492
 20
-140.0334852080472
 10
78.20866290362492
 20
-140.2386406441938
 10
78.20866290362492
 20
-140.2386406441938
 10
78.20866290362492
 20
-140.2386406441938
 10
77.18064641082637
 20
-140.2386406441938
 10
77.18064641082637
 20
-140.2386406441938
 10
77.21234128929066
 20
-139.8810397328249
 10
77.27797035828467
 20
-139.8028360653097
 10
77.66295977876135
 20
-139.5044907962871
 10
77.9189303733154
 20
-139.3057087867881
 10
77.98438718753516
 20
-139.238012660503
 10
77.98438718753516
 20
-139.1005533506415
 10
77.98438718753516
 20
-138.9820420659489
 10
77.91255694666769
 20
-138.8509561827352
 10
77.71584199445993
 20
-138.8509561827352
 10
77.45556503054931
 20
-138.8509561827352
 10
77.44712454661044
 20
-139.0814330706984
 10
77.44281817725388
 20
-139.1978772980998
 10
77.44281817725388
 20
-139.1978772980998
 10
77.21871471593837
 20
-139.1978772980998
 10
77.21871471593837
 20
-139.1978772980998
 10
77.22715519987724
 20
-139.0709255294684
 10
77.23766274110726
 20
-138.9587876714235
 10
77.31810572068784
 20
-138.8402763867309
 10
77.4280042666673
 20
-138.679562682344
 10
77.61421167764506
 20
-138.6456284918143
 10
77.7306559050465
 20
-138.6456284918143
 10
78.00781383683485
 20
-138.6456284918143
 10
78.21503633027264
 20
-138.8297688455009
 10
78.21503633027264
 20
-139.1026204079327
 10
78.21503633027264
 20
-139.3310302386047
 10
78.09876435764545
 20
-139.4305934981284
 10
77.7899115473928
 20
-139.6569362715094
 97
        0
 97
        1
330
158
 75
     2
 76
     1
 98
        1
 10
0.0
 20
0.0
450
        0
451
        0
460
0.0
461
0.0
452
        0
462
0.0
453
        0
470

  0
SPLINE
  5
15A
330
154
100
AcDbEntity
  8
レイヤー 1
100
AcDbSpline
210
0.0
220
0.0
230
1.0
 70
    11
 71
     3
 72
    26
 73
    22
 74
     0
 42
0.0000000001
 43
0.0000000001
 40
0.0
 40
0.0
 40
0.0
 40
0.0
 40
1.0
 40
1.0
 40
1.0
 40
2.0
 40
2.0
 40
2.0
 40
3.0
 40
3.0
 40
3.0
 40
4.0
 40
4.0
 40
4.0
 40
5.0
 40
5.0
 40
5.0
 40
6.0
 40
6.0
 40
6.0
 40
7.0
 40
7.0
 40
7.0
 40
7.0
 10
78.82499048593611
 20
-140.2386406441938
 30
0.0
 10
78.82499048593611
 20
-140.2386406441938
 30
0.0
 10
78.82499048593611
 20
-139.1343152863969
 30
0.0
 10
78.82499048593611
 20
-139.1343152863969
 30
0.0
 10
78.82499048593611
 20
-139.1343152863969
 30
0.0
 10
78.49495033844918
 20
-139.1343152863969
 30
0.0
 10
78.49495033844918
 20
-139.1343152863969
 30
0.0
 10
78.49495033844918
 20
-139.1343152863969
 30
0.0
 10
78.49495033844918
 20
-138.9863484353055
 30
0.0
 10
78.49495033844918
 20
-138.9863484353055
 30
0.0
 10
78.82705754322727
 20
-138.9715345247189
 30
0.0
 10
78.87356633227814
 20
-138.8085815082666
 30
0.0
 10
78.90319415345129
 20
-138.6943765929306
 30
0.0
 10
78.90319415345129
 20
-138.6943765929306
 30
0.0
 10
79.04926620202587
 20
-138.6943765929306
 30
0.0
 10
79.04926620202587
 20
-138.6943765929306
 30
0.0
 10
79.04926620202587
 20
-138.6943765929306
 30
0.0
 10
79.04926620202587
 20
-140.2386406441938
 30
0.0
 10
79.04926620202587
 20
-140.2386406441938
 30
0.0
 10
79.04926620202587
 20
-140.2386406441938
 30
0.0
 10
78.82499048593611
 20
-140.2386406441938
 30
0.0
 10
78.82499048593611
 20
-140.2386406441938
 30
0.0
  0
HATCH
  5
15B
330
154
100
AcDbEntity
  8
レイヤー 1
 62
   250
420
  2299925
440
 33554687
100
AcDbHatch
 10
0.0
 20
0.0
 30
0.0
210
0.0
220
0.0
230
1.0
  2
SOLID
 70
     1
 71
     1
 91
        1
 92
        1
 93
        1
 72
     4
 94
        3
 73
     0
 74
     0
 95
       26
 96
       22
 40
0.0
 40
0.0
 40
0.0
 40
0.0
 40
1.0
 40
1.0
 40
1.0
 40
2.0
 40
2.0
 40
2.0
 40
3.0
 40
3.0
 40
3.0
 40
4.0
 40
4.0
 40
4.0
 40
5.0
 40
5.0
 40
5.0
 40
6.0
 40
6.0
 40
6.0
 40
7.0
 40
7.0
 40
7.0
 40
7.0
 10
78.82499048593611
 20
-140.2386406441938
 10
78.82499048593611
 20
-140.2386406441938
 10
78.82499048593611
 20
-139.1343152863969
 10
78.82499048593611
 20
-139.1343152863969
 10
78.82499048593611
 20
-139.1343152863969
 10
78.49495033844918
 20
-139.1343152863969
 10
78.49495033844918
 20
-139.1343152863969
 10
78.49495033844918
 20
-139.1343152863969
 10
78.49495033844918
 20
-138.9863484353055
 10
78.49495033844918
 20
-138.9863484353055
 10
78.82705754322727
 20
-138.9715345247189
 10
78.87356633227814
 20
-138.8085815082666
 10
78.90319415345129
 20
-138.6943765929306
 10
78.90319415345129
 20
-138.6943765929306
 10
79.04926620202587
 20
-138.6943765929306
 10
79.04926620202587
 20
-138.6943765929306
 10
79.04926620202587
 20
-138.6943765929306
 10
79.04926620202587
 20
-140.2386406441938
 10
79.04926620202587
 20
-140.2386406441938
 10
79.04926620202587
 20
-140.2386406441938
 10
78.82499048593611
 20
-140.2386406441938
 10
78.82499048593611
 20
-140.2386406441938
 97
        0
 97
        1
330
15A
 75
     2
 76
     1
 98
        1
 10
0.0
 20
0.0
450
        0
451
        0
460
0.0
461
0.0
452
        0
462
0.0
453
        0
470

  0
ENDBLK
  5
157
330
154
100
AcDbEntity
  8
0
100
AcDbBlockEnd
  0
BLOCK
  5
160
330
15E
100
AcDbEntity
  8
0
100
AcDbBlockBegin
  2
Block_9
 70
     0
 10
0.0
 20
0.0
 30
0.0
  3
Block_9
  1

  0
INSERT
  5
163
330
15E
100
AcDbEntity
  8
レイヤー 1
100
AcDbBlockReference
  2
Block_10
 10
0.0
 20
0.0
 30
0.0
  0
ENDBLK
  5
161
330
15E
100
AcDbEntity
  8
0
100
AcDbBlockEnd
  0
BLOCK
  5
164
330
162
100
AcDbEntity
  8
0
100
AcDbBlockBegin
  2
Block_10
 70
     0
 10
0.0
 20
0.0
 30
0.0
  3
Block_10
  1

  0
SPLINE
  5
166
330
162
100
AcDbEntity
  8
レイヤー 1
100
AcDbSpline
210
0.0
220
0.0
230
1.0
 70
     9
 71
     3
 72
    44
 73
    40
 74
     0
 42
0.0000000001
 43
0.0000000001
 40
0.0
 40
0.0
 40
0.0
 40
0.0
 40
1.0
 40
1.0
 40
1.0
 40
2.0
 40
2.0
 40
2.0
 40
3.0
 40
3.0
 40
3.0
 40
4.0
 40
4.0
 40
4.0
 40
5.0
 40
5.0
 40
5.0
 40
6.0
 40
6.0
 40
6.0
 40
7.0
 40
7.0
 40
7.0
 40
8.0
 40
8.0
 40
8.0
 40
9.0
 40
9.0
 40
9.0
 40
10.0
 40
10.0
 40
10.0
 40
11.0
 40
11.0
 40
11.0
 40
12.0
 40
12.0
 40
12.0
 40
13.0
 40
13.0
 40
13.0
 40
13.0
 10
101.7884466976431
 20
-139.6569362715094
 30
0.0
 10
101.5707166629754
 20
-139.8155829186051
 30
0.0
 10
101.4776990848736
 20
-139.889652471538
 30
0.0
 10
101.4287787289831
 20
-140.0334852080472
 30
0.0
 10
101.4287787289831
 20
-140.0334852080472
 30
0.0
 10
102.2073703086495
 20
-140.0334852080472
 30
0.0
 10
102.2073703086495
 20
-140.0334852080472
 30
0.0
 10
102.2073703086495
 20
-140.0334852080472
 30
0.0
 10
102.2073703086495
 20
-140.2386406441938
 30
0.0
 10
102.2073703086495
 20
-140.2386406441938
 30
0.0
 10
102.2073703086495
 20
-140.2386406441938
 30
0.0
 10
101.179353815851
 20
-140.2386406441938
 30
0.0
 10
101.179353815851
 20
-140.2386406441938
 30
0.0
 10
101.2110486943153
 20
-139.8810397328249
 30
0.0
 10
101.276505508535
 20
-139.8028360653097
 30
0.0
 10
101.6616671837859
 20
-139.5044907962871
 30
0.0
 10
101.91763777834
 20
-139.3057087867881
 30
0.0
 10
101.9830945925598
 20
-139.238012660503
 30
0.0
 10
101.9830945925598
 20
-139.1005533506415
 30
0.0
 10
101.9830945925598
 20
-138.9820420659489
 30
0.0
 10
101.911092096918
 20
-138.8509561827352
 30
0.0
 10
101.7143771447103
 20
-138.8509561827352
 30
0.0
 10
101.4542724355739
 20
-138.8509561827352
 30
0.0
 10
101.4460042064093
 20
-139.0814330706984
 30
0.0
 10
101.4415255822785
 20
-139.1978772980998
 30
0.0
 10
101.4415255822785
 20
-139.1978772980998
 30
0.0
 10
101.2172498661887
 20
-139.1978772980998
 30
0.0
 10
101.2172498661887
 20
-139.1978772980998
 30
0.0
 10
101.2258626049018
 20
-139.0709255294684
 30
0.0
 10
101.2365424009061
 20
-138.9587876714235
 30
0.0
 10
101.3168131257125
 20
-138.8402763867309
 30
0.0
 10
101.4267116716919
 20
-138.679562682344
 30
0.0
 10
101.6130913374439
 20
-138.6456284918143
 30
0.0
 10
101.7291910552968
 20
-138.6456284918143
 30
0.0
 10
102.0065212418595
 20
-138.6456284918143
 30
0.0
 10
102.2139159900715
 20
-138.8297688455009
 30
0.0
 10
102.2139159900715
 20
-139.1026204079327
 30
0.0
 10
102.2139159900715
 20
-139.3310302386047
 30
0.0
 10
102.0974717626701
 20
-139.4305934981284
 30
0.0
 10
101.7884466976431
 20
-139.6569362715094
 30
0.0
  0
HATCH
  5
167
330
162
100
AcDbEntity
  8
レイヤー 1
 62
   250
420
  2299925
440
 33554687
100
AcDbHatch
 10
0.0
 20
0.0
 30
0.0
210
0.0
220
0.0
230
1.0
  2
SOLID
 70
     1
 71
     1
 91
        1
 92
        1
 93
        1
 72
     4
 94
        3
 73
     0
 74
     0
 95
       44
 96
       40
 40
0.0
 40
0.0
 40
0.0
 40
0.0
 40
1.0
 40
1.0
 40
1.0
 40
2.0
 40
2.0
 40
2.0
 40
3.0
 40
3.0
 40
3.0
 40
4.0
 40
4.0
 40
4.0
 40
5.0
 40
5.0
 40
5.0
 40
6.0
 40
6.0
 40
6.0
 40
7.0
 40
7.0
 40
7.0
 40
8.0
 40
8.0
 40
8.0
 40
9.0
 40
9.0
 40
9.0
 40
10.0
 40
10.0
 40
10.0
 40
11.0
 40
11.0
 40
11.0
 40
12.0
 40
12.0
 40
12.0
 40
13.0
 40
13.0
 40
13.0
 40
13.0
 10
101.7884466976431
 20
-139.6569362715094
 10
101.5707166629754
 20
-139.8155829186051
 10
101.4776990848736
 20
-139.889652471538
 10
101.4287787289831
 20
-140.0334852080472
 10
101.4287787289831
 20
-140.0334852080472
 10
102.2073703086495
 20
-140.0334852080472
 10
102.2073703086495
 20
-140.0334852080472
 10
102.2073703086495
 20
-140.0334852080472
 10
102.2073703086495
 20
-140.2386406441938
 10
102.2073703086495
 20
-140.2386406441938
 10
102.2073703086495
 20
-140.2386406441938
 10
101.179353815851
 20
-140.2386406441938
 10
101.179353815851
 20
-140.2386406441938
 10
101.2110486943153
 20
-139.8810397328249
 10
101.276505508535
 20
-139.8028360653097
 10
101.6616671837859
 20
-139.5044907962871
 10
101.91763777834
 20
-139.3057087867881
 10
101.9830945925598
 20
-139.238012660503
 10
101.9830945925598
 20
-139.1005533506415
 10
101.9830945925598
 20
-138.9820420659489
 10
101.911092096918
 20
-138.8509561827352
 10
101.7143771447103
 20
-138.8509561827352
 10
101.4542724355739
 20
-138.8509561827352
 10
101.4460042064093
 20
-139.0814330706984
 10
101.4415255822785
 20
-139.1978772980998
 10
101.4415255822785
 20
-139.1978772980998
 10
101.2172498661887
 20
-139.1978772980998
 10
101.2172498661887
 20
-139.1978772980998
 10
101.2258626049018
 20
-139.0709255294684
 10
101.2365424009061
 20
-138.9587876714235
 10
101.3168131257125
 20
-138.8402763867309
 10
101.4267116716919
 20
-138.679562682344
 10
101.6130913374439
 20
-138.6456284918143
 10
101.7291910552968
 20
-138.6456284918143
 10
102.0065212418595
 20
-138.6456284918143
 10
102.2139159900715
 20
-138.8297688455009
 10
102.2139159900715
 20
-139.1026204079327
 10
102.2139159900715
 20
-139.3310302386047
 10
102.0974717626701
 20
-139.4305934981284
 10
101.7884466976431
 20
-139.6569362715094
 97
        0
 97
        1
330
166
 75
     2
 76
     1
 98
        1
 10
0.0
 20
0.0
450
        0
451
        0
460
0.0
461
0.0
452
        0
462
0.0
453
        0
470

  0
SPLINE
  5
168
330
162
100
AcDbEntity
  8
レイヤー 1
100
AcDbSpline
210
0.0
220
0.0
230
1.0
 70
    11
 71
     3
 72
    26
 73
    22
 74
     0
 42
0.0000000001
 43
0.0000000001
 40
0.0
 40
0.0
 40
0.0
 40
0.0
 40
1.0
 40
1.0
 40
1.0
 40
2.0
 40
2.0
 40
2.0
 40
3.0
 40
3.0
 40
3.0
 40
4.0
 40
4.0
 40
4.0
 40
5.0
 40
5.0
 40
5.0
 40
6.0
 40
6.0
 40
6.0
 40
7.0
 40
7.0
 40
7.0
 40
7.0
 10
102.8236978909607
 20
-140.2386406441938
 30
0.0
 10
102.8236978909607
 20
-140.2386406441938
 30
0.0
 10
102.8236978909607
 20
-139.1343152863969
 30
0.0
 10
102.8236978909607
 20
-139.1343152863969
 30
0.0
 10
102.8236978909607
 20
-139.1343152863969
 30
0.0
 10
102.4936577434738
 20
-139.1343152863969
 30
0.0
 10
102.4936577434738
 20
-139.1343152863969
 30
0.0
 10
102.4936577434738
 20
-139.1343152863969
 30
0.0
 10
102.4936577434738
 20
-138.9863484353055
 30
0.0
 10
102.4936577434738
 20
-138.9863484353055
 30
0.0
 10
102.8257649482519
 20
-138.9715345247189
 30
0.0
 10
102.8722737373027
 20
-138.8085815082666
 30
0.0
 10
102.9019015584759
 20
-138.6943765929306
 30
0.0
 10
102.9019015584759
 20
-138.6943765929306
 30
0.0
 10
103.0479736070505
 20
-138.6943765929306
 30
0.0
 10
103.0479736070505
 20
-138.6943765929306
 30
0.0
 10
103.0479736070505
 20
-138.6943765929306
 30
0.0
 10
103.0479736070505
 20
-140.2386406441938
 30
0.0
 10
103.0479736070505
 20
-140.2386406441938
 30
0.0
 10
103.0479736070505
 20
-140.2386406441938
 30
0.0
 10
102.8236978909607
 20
-140.2386406441938
 30
0.0
 10
102.8236978909607
 20
-140.2386406441938
 30
0.0
  0
HATCH
  5
169
330
162
100
AcDbEntity
  8
レイヤー 1
 62
   250
420
  2299925
440
 33554687
100
AcDbHatch
 10
0.0
 20
0.0
 30
0.0
210
0.0
220
0.0
230
1.0
  2
SOLID
 70
     1
 71
     1
 91
        1
 92
        1
 93
        1
 72
     4
 94
        3
 73
     0
 74
     0
 95
       26
 96
       22
 40
0.0
 40
0.0
 40
0.0
 40
0.0
 40
1.0
 40
1.0
 40
1.0
 40
2.0
 40
2.0
 40
2.0
 40
3.0
 40
3.0
 40
3.0
 40
4.0
 40
4.0
 40
4.0
 40
5.0
 40
5.0
 40
5.0
 40
6.0
 40
6.0
 40
6.0
 40
7.0
 40
7.0
 40
7.0
 40
7.0
 10
102.8236978909607
 20
-140.2386406441938
 10
102.8236978909607
 20
-140.2386406441938
 10
102.8236978909607
 20
-139.1343152863969
 10
102.8236978909607
 20
-139.1343152863969
 10
102.8236978909607
 20
-139.1343152863969
 10
102.4936577434738
 20
-139.1343152863969
 10
102.4936577434738
 20
-139.1343152863969
 10
102.4936577434738
 20
-139.1343152863969
 10
102.4936577434738
 20
-138.9863484353055
 10
102.4936577434738
 20
-138.9863484353055
 10
102.8257649482519
 20
-138.9715345247189
 10
102.8722737373027
 20
-138.8085815082666
 10
102.9019015584759
 20
-138.6943765929306
 10
102.9019015584759
 20
-138.6943765929306
 10
103.0479736070505
 20
-138.6943765929306
 10
103.0479736070505
 20
-138.6943765929306
 10
103.0479736070505
 20
-138.6943765929306
 10
103.0479736070505
 20
-140.2386406441938
 10
103.0479736070505
 20
-140.2386406441938
 10
103.0479736070505
 20
-140.2386406441938
 10
102.8236978909607
 20
-140.2386406441938
 10
102.8236978909607
 20
-140.2386406441938
 97
        0
 97
        1
330
168
 75
     2
 76
     1
 98
        1
 10
0.0
 20
0.0
450
        0
451
        0
460
0.0
461
0.0
452
        0
462
0.0
453
        0
470

  0
ENDBLK
  5
165
330
162
100
AcDbEntity
  8
0
100
AcDbBlockEnd
  0
BLOCK
  5
16E
330
16C
100
AcDbEntity
  8
0
100
AcDbBlockBegin
  2
Block_11
 70
     0
 10
0.0
 20
0.0
 30
0.0
  3
Block_11
  1

  0
SPLINE
  5
170
330
16C
100
AcDbEntity
  8
レイヤー 1
100
AcDbSpline
210
0.0
220
0.0
230
1.0
 70
     9
 71
     3
 72
    17
 73
    13
 74
     0
 42
0.0000000001
 43
0.0000000001
 40
0.0
 40
0.0
 40
0.0
 40
0.0
 40
1.0
 40
1.0
 40
1.0
 40
2.0
 40
2.0
 40
2.0
 40
3.0
 40
3.0
 40
3.0
 40
4.0
 40
4.0
 40
4.0
 40
4.0
 10
62.40704344142949
 20
-150.2120198192178
 30
0.0
 10
62.40704344142949
 20
-150.3556803009527
 30
0.0
 10
62.49368759288352
 20
-150.5082980309493
 30
0.0
 10
62.696775971739
 20
-150.5082980309493
 30
0.0
 10
62.90193140788563
 20
-150.5082980309493
 30
0.0
 10
63.0035617247005
 20
-150.3811740075436
 30
0.0
 10
63.0035617247005
 20
-150.2120198192178
 30
0.0
 10
63.0035617247005
 20
-150.0259846630143
 30
0.0
 10
62.88091632542561
 20
-149.9157416074863
 30
0.0
 10
62.70314939838671
 20
-149.9157416074863
 30
0.0
 10
62.4809407395881
 20
-149.9157416074863
 30
0.0
 10
62.40704344142949
 20
-150.0786946239387
 30
0.0
 10
62.40704344142949
 20
-150.2120198192178
 30
0.0
  0
SPLINE
  5
171
330
16C
100
AcDbEntity
  8
レイヤー 1
100
AcDbSpline
210
0.0
220
0.0
230
1.0
 70
     9
 71
     3
 72
    17
 73
    13
 74
     0
 42
0.0000000001
 43
0.0000000001
 40
0.0
 40
0.0
 40
0.0
 40
0.0
 40
1.0
 40
1.0
 40
1.0
 40
2.0
 40
2.0
 40
2.0
 40
3.0
 40
3.0
 40
3.0
 40
4.0
 40
4.0
 40
4.0
 40
4.0
 10
61.74696314645562
 20
-150.2120198192178
 30
0.0
 10
61.74696314645562
 20
-150.3770398929613
 30
0.0
 10
61.84204778184852
 20
-150.4617892418984
 30
0.0
 10
61.97744003441884
 20
-150.4617892418984
 30
0.0
 10
62.10025768846799
 20
-150.4617892418984
 30
0.0
 10
62.21876897316058
 20
-150.3897867462567
 30
0.0
 10
62.21876897316058
 20
-150.2120198192178
 30
0.0
 10
62.21876897316058
 20
-150.0342528921789
 30
0.0
 10
62.10025768846799
 20
-149.9622503965372
 30
0.0
 10
61.97744003441884
 20
-149.9622503965372
 30
0.0
 10
61.84204778184852
 20
-149.9622503965372
 30
0.0
 10
61.74696314645562
 20
-150.0490668027655
 30
0.0
 10
61.74696314645562
 20
-150.2120198192178
 30
0.0
  0
SPLINE
  5
172
330
16C
100
AcDbEntity
  8
レイヤー 1
100
AcDbSpline
210
0.0
220
0.0
230
1.0
 70
     9
 71
     3
 72
    29
 73
    25
 74
     0
 42
0.0000000001
 43
0.0000000001
 40
0.0
 40
0.0
 40
0.0
 40
0.0
 40
1.0
 40
1.0
 40
1.0
 40
2.0
 40
2.0
 40
2.0
 40
3.0
 40
3.0
 40
3.0
 40
4.0
 40
4.0
 40
4.0
 40
5.0
 40
5.0
 40
5.0
 40
6.0
 40
6.0
 40
6.0
 40
7.0
 40
7.0
 40
7.0
 40
8.0
 40
8.0
 40
8.0
 40
8.0
 10
63.19820961961712
 20
-150.2120198192178
 30
0.0
 10
63.19820961961712
 20
-150.4786702097761
 30
0.0
 10
63.06057805498138
 20
-150.7325737470391
 30
0.0
 10
62.71158988232557
 20
-150.7325737470391
 30
0.0
 10
62.45561928777151
 20
-150.7325737470391
 30
0.0
 10
62.36036239760435
 20
-150.5906358130468
 30
0.0
 10
62.29903969796691
 20
-150.4848713816496
 30
0.0
 10
62.23978405562061
 20
-150.6095838382156
 30
0.0
 10
62.12557914028458
 20
-150.6857204484397
 30
0.0
 10
61.96486543589768
 20
-150.6857204484397
 30
0.0
 10
61.68977456140048
 20
-150.6857204484397
 30
0.0
 10
61.55438230883016
 20
-150.4869384389407
 30
0.0
 10
61.55438230883016
 20
-150.2120198192178
 30
0.0
 10
61.55438230883016
 20
-149.9284884607817
 30
0.0
 10
61.69821504533934
 20
-149.7379746804474
 30
0.0
 10
61.96486543589768
 20
-149.7379746804474
 30
0.0
 10
62.12557914028458
 20
-149.7379746804474
 30
0.0
 10
62.23978405562061
 20
-149.8165228575111
 30
0.0
 10
62.29903969796691
 20
-149.9412353140772
 30
0.0
 10
62.34985485637434
 20
-149.8523518505577
 30
0.0
 10
62.44511174654149
 20
-149.6935329486877
 30
0.0
 10
62.70728351296901
 20
-149.6935329486877
 30
0.0
 10
63.08176539221567
 20
-149.6935329486877
 30
0.0
 10
63.19820961961712
 20
-149.9729301925415
 30
0.0
 10
63.19820961961712
 20
-150.2120198192178
 30
0.0
  0
HATCH
  5
173
330
16C
100
AcDbEntity
  8
レイヤー 1
 62
   250
420
  2299925
440
 33554687
100
AcDbHatch
 10
0.0
 20
0.0
 30
0.0
210
0.0
220
0.0
230
1.0
  2
SOLID
 70
     1
 71
     1
 91
        3
 92
        1
 93
        1
 72
     4
 94
        3
 73
     0
 74
     0
 95
       17
 96
       13
 40
0.0
 40
0.0
 40
0.0
 40
0.0
 40
1.0
 40
1.0
 40
1.0
 40
2.0
 40
2.0
 40
2.0
 40
3.0
 40
3.0
 40
3.0
 40
4.0
 40
4.0
 40
4.0
 40
4.0
 10
62.40704344142949
 20
-150.2120198192178
 10
62.40704344142949
 20
-150.3556803009527
 10
62.49368759288352
 20
-150.5082980309493
 10
62.696775971739
 20
-150.5082980309493
 10
62.90193140788563
 20
-150.5082980309493
 10
63.0035617247005
 20
-150.3811740075436
 10
63.0035617247005
 20
-150.2120198192178
 10
63.0035617247005
 20
-150.0259846630143
 10
62.88091632542561
 20
-149.9157416074863
 10
62.70314939838671
 20
-149.9157416074863
 10
62.4809407395881
 20
-149.9157416074863
 10
62.40704344142949
 20
-150.0786946239387
 10
62.40704344142949
 20
-150.2120198192178
 97
        0
 97
        1
330
170
 92
        1
 93
        1
 72
     4
 94
        3
 73
     0
 74
     0
 95
       17
 96
       13
 40
0.0
 40
0.0
 40
0.0
 40
0.0
 40
1.0
 40
1.0
 40
1.0
 40
2.0
 40
2.0
 40
2.0
 40
3.0
 40
3.0
 40
3.0
 40
4.0
 40
4.0
 40
4.0
 40
4.0
 10
61.74696314645562
 20
-150.2120198192178
 10
61.74696314645562
 20
-150.3770398929613
 10
61.84204778184852
 20
-150.4617892418984
 10
61.97744003441884
 20
-150.4617892418984
 10
62.10025768846799
 20
-150.4617892418984
 10
62.21876897316058
 20
-150.3897867462567
 10
62.21876897316058
 20
-150.2120198192178
 10
62.21876897316058
 20
-150.0342528921789
 10
62.10025768846799
 20
-149.9622503965372
 10
61.97744003441884
 20
-149.9622503965372
 10
61.84204778184852
 20
-149.9622503965372
 10
61.74696314645562
 20
-150.0490668027655
 10
61.74696314645562
 20
-150.2120198192178
 97
        0
 97
        1
330
171
 92
        1
 93
        1
 72
     4
 94
        3
 73
     0
 74
     0
 95
       29
 96
       25
 40
0.0
 40
0.0
 40
0.0
 40
0.0
 40
1.0
 40
1.0
 40
1.0
 40
2.0
 40
2.0
 40
2.0
 40
3.0
 40
3.0
 40
3.0
 40
4.0
 40
4.0
 40
4.0
 40
5.0
 40
5.0
 40
5.0
 40
6.0
 40
6.0
 40
6.0
 40
7.0
 40
7.0
 40
7.0
 40
8.0
 40
8.0
 40
8.0
 40
8.0
 10
63.19820961961712
 20
-150.2120198192178
 10
63.19820961961712
 20
-150.4786702097761
 10
63.06057805498138
 20
-150.7325737470391
 10
62.71158988232557
 20
-150.7325737470391
 10
62.45561928777151
 20
-150.7325737470391
 10
62.36036239760435
 20
-150.5906358130468
 10
62.29903969796691
 20
-150.4848713816496
 10
62.23978405562061
 20
-150.6095838382156
 10
62.12557914028458
 20
-150.6857204484397
 10
61.96486543589768
 20
-150.6857204484397
 10
61.68977456140048
 20
-150.6857204484397
 10
61.55438230883016
 20
-150.4869384389407
 10
61.55438230883016
 20
-150.2120198192178
 10
61.55438230883016
 20
-149.9284884607817
 10
61.69821504533934
 20
-149.7379746804474
 10
61.96486543589768
 20
-149.7379746804474
 10
62.12557914028458
 20
-149.7379746804474
 10
62.23978405562061
 20
-149.8165228575111
 10
62.29903969796691
 20
-149.9412353140772
 10
62.34985485637434
 20
-149.8523518505577
 10
62.44511174654149
 20
-149.6935329486877
 10
62.70728351296901
 20
-149.6935329486877
 10
63.08176539221567
 20
-149.6935329486877
 10
63.19820961961712
 20
-149.9729301925415
 10
63.19820961961712
 20
-150.2120198192178
 97
        0
 97
        1
330
172
 75
     2
 76
     1
 98
        1
 10
0.0
 20
0.0
450
        0
451
        0
460
0.0
461
0.0
452
        0
462
0.0
453
        0
470

  0
ENDBLK
  5
16F
330
16C
100
AcDbEntity
  8
0
100
AcDbBlockEnd
  0
BLOCK
  5
176
330
174
100
AcDbEntity
  8
0
100
AcDbBlockBegin
  2
Block_12
 70
     0
 10
0.0
 20
0.0
 30
0.0
  3
Block_12
  1

  0
INSERT
  5
179
330
174
100
AcDbEntity
  8
レイヤー 1
100
AcDbBlockReference
  2
Block_13
 10
0.0
 20
0.0
 30
0.0
  0
INSERT
  5
180
330
174
100
AcDbEntity
  8
レイヤー 1
100
AcDbBlockReference
  2
Block_14
 10
0.0
 20
0.0
 30
0.0
  0
ENDBLK
  5
177
330
174
100
AcDbEntity
  8
0
100
AcDbBlockEnd
  0
BLOCK
  5
17A
330
178
100
AcDbEntity
  8
0
100
AcDbBlockBegin
  2
Block_13
 70
     0
 10
0.0
 20
0.0
 30
0.0
  3
Block_13
  1

  0
LINE
  5
17C
330
178
100
AcDbEntity
  8
レイヤー 1
 62
    18
420
        0
370
     9
100
AcDbLine
 10
107.1070057105013
 20
-147.19493500347
 30
0.0
 11
107.9183240231362
 21
-147.7795583366573
 31
0.0
  0
LINE
  5
17D
330
178
100
AcDbEntity
  8
レイヤー 1
 62
    18
420
        0
370
     9
100
AcDbLine
 10
107.1070057105013
 20
-147.19493500347
 30
0.0
 11
109.6846470336291
 21
-150.3520138915696
 31
0.0
  0
LINE
  5
17E
330
178
100
AcDbEntity
  8
レイヤー 1
 62
    18
420
        0
370
     9
100
AcDbLine
 10
107.1070057105013
 20
-147.19493500347
 30
0.0
 11
107.5173215333666
 21
-148.1070419476864
 31
0.0
  0
ENDBLK
  5
17B
330
178
100
AcDbEntity
  8
0
100
AcDbBlockEnd
  0
BLOCK
  5
181
330
17F
100
AcDbEntity
  8
0
100
AcDbBlockBegin
  2
Block_14
 70
     0
 10
0.0
 20
0.0
 30
0.0
  3
Block_14
  1

  0
INSERT
  5
184
330
17F
100
AcDbEntity
  8
レイヤー 1
100
AcDbBlockReference
  2
Block_15
 10
0.0
 20
0.0
 30
0.0
  0
ENDBLK
  5
182
330
17F
100
AcDbEntity
  8
0
100
AcDbBlockEnd
  0
BLOCK
  5
185
330
183
100
AcDbEntity
  8
0
100
AcDbBlockBegin
  2
Block_15
 70
     0
 10
0.0
 20
0.0
 30
0.0
  3
Block_15
  1

  0
SPLINE
  5
187
330
183
100
AcDbEntity
  8
レイヤー 1
100
AcDbSpline
210
0.0
220
0.0
230
1.0
 70
     9
 71
     3
 72
    17
 73
    13
 74
     0
 42
0.0000000001
 43
0.0000000001
 40
0.0
 40
0.0
 40
0.0
 40
0.0
 40
1.0
 40
1.0
 40
1.0
 40
2.0
 40
2.0
 40
2.0
 40
3.0
 40
3.0
 40
3.0
 40
4.0
 40
4.0
 40
4.0
 40
4.0
 10
111.3509982360511
 20
-150.7990640899044
 30
0.0
 10
111.3341172681734
 20
-150.8286919110775
 30
0.0
 10
111.2834743645402
 20
-150.9217094891793
 30
0.0
 10
111.272794568536
 20
-150.9406575143481
 30
0.0
 10
111.4633083488703
 20
-150.9999131566944
 30
0.0
 10
111.4843234313303
 20
-151.0064588381164
 30
0.0
 10
111.556325926972
 20
-151.0336750924499
 30
0.0
 10
111.6111029451875
 20
-150.9472031957701
 30
0.0
 10
111.6345295944872
 20
-150.8731336428373
 30
0.0
 10
111.6493435050738
 20
-150.7990640899044
 30
0.0
 10
111.6493435050738
 20
-150.7990640899044
 30
0.0
 10
111.3509982360511
 20
-150.7990640899044
 30
0.0
 10
111.3509982360511
 20
-150.7990640899044
 30
0.0
  0
SPLINE
  5
188
330
183
100
AcDbEntity
  8
レイヤー 1
100
AcDbSpline
210
0.0
220
0.0
230
1.0
 70
    11
 71
     3
 72
    20
 73
    16
 74
     0
 42
0.0000000001
 43
0.0000000001
 40
0.0
 40
0.0
 40
0.0
 40
0.0
 40
1.0
 40
1.0
 40
1.0
 40
2.0
 40
2.0
 40
2.0
 40
3.0
 40
3.0
 40
3.0
 40
4.0
 40
4.0
 40
4.0
 40
5.0
 40
5.0
 40
5.0
 40
5.0
 10
111.2876084791225
 20
-149.9484700145962
 30
0.0
 10
111.2876084791225
 20
-149.9484700145962
 30
0.0
 10
111.2559136006582
 20
-149.9484700145962
 30
0.0
 10
111.2559136006582
 20
-149.9484700145962
 30
0.0
 10
111.3024223897091
 20
-150.0480332741199
 30
0.0
 10
111.3341172681734
 20
-150.1283039989262
 30
0.0
 10
111.3678792039288
 20
-150.255428022332
 30
0.0
 10
111.3678792039288
 20
-150.255428022332
 30
0.0
 10
111.5752739521409
 20
-150.255428022332
 30
0.0
 10
111.5752739521409
 20
-150.255428022332
 30
0.0
 10
111.6069688306052
 20
-150.1624104442302
 30
0.0
 10
111.6303954799049
 20
-150.0776610952931
 30
0.0
 10
111.6534776196561
 20
-149.9484700145962
 30
0.0
 10
111.6534776196561
 20
-149.9484700145962
 30
0.0
 10
111.2876084791225
 20
-149.9484700145962
 30
0.0
 10
111.2876084791225
 20
-149.9484700145962
 30
0.0
  0
SPLINE
  5
189
330
183
100
AcDbEntity
  8
レイヤー 1
100
AcDbSpline
210
0.0
220
0.0
230
1.0
 70
     9
 71
     3
 72
   242
 73
   238
 74
     0
 42
0.0000000001
 43
0.0000000001
 40
0.0
 40
0.0
 40
0.0
 40
0.0
 40
1.0
 40
1.0
 40
1.0
 40
2.0
 40
2.0
 40
2.0
 40
3.0
 40
3.0
 40
3.0
 40
4.0
 40
4.0
 40
4.0
 40
5.0
 40
5.0
 40
5.0
 40
6.0
 40
6.0
 40
6.0
 40
7.0
 40
7.0
 40
7.0
 40
8.0
 40
8.0
 40
8.0
 40
9.0
 40
9.0
 40
9.0
 40
10.0
 40
10.0
 40
10.0
 40
11.0
 40
11.0
 40
11.0
 40
12.0
 40
12.0
 40
12.0
 40
13.0
 40
13.0
 40
13.0
 40
14.0
 40
14.0
 40
14.0
 40
15.0
 40
15.0
 40
15.0
 40
16.0
 40
16.0
 40
16.0
 40
17.0
 40
17.0
 40
17.0
 40
18.0
 40
18.0
 40
18.0
 40
19.0
 40
19.0
 40
19.0
 40
20.0
 40
20.0
 40
20.0
 40
21.0
 40
21.0
 40
21.0
 40
22.0
 40
22.0
 40
22.0
 40
23.0
 40
23.0
 40
23.0
 40
24.0
 40
24.0
 40
24.0
 40
25.0
 40
25.0
 40
25.0
 40
26.0
 40
26.0
 40
26.0
 40
27.0
 40
27.0
 40
27.0
 40
28.0
 40
28.0
 40
28.0
 40
29.0
 40
29.0
 40
29.0
 40
30.0
 40
30.0
 40
30.0
 40
31.0
 40
31.0
 40
31.0
 40
32.0
 40
32.0
 40
32.0
 40
33.0
 40
33.0
 40
33.0
 40
34.0
 40
34.0
 40
34.0
 40
35.0
 40
35.0
 40
35.0
 40
36.0
 40
36.0
 40
36.0
 40
37.0
 40
37.0
 40
37.0
 40
38.0
 40
38.0
 40
38.0
 40
39.0
 40
39.0
 40
39.0
 40
40.0
 40
40.0
 40
40.0
 40
41.0
 40
41.0
 40
41.0
 40
42.0
 40
42.0
 40
42.0
 40
43.0
 40
43.0
 40
43.0
 40
44.0
 40
44.0
 40
44.0
 40
45.0
 40
45.0
 40
45.0
 40
46.0
 40
46.0
 40
46.0
 40
47.0
 40
47.0
 40
47.0
 40
48.0
 40
48.0
 40
48.0
 40
49.0
 40
49.0
 40
49.0
 40
50.0
 40
50.0
 40
50.0
 40
51.0
 40
51.0
 40
51.0
 40
52.0
 40
52.0
 40
52.0
 40
53.0
 40
53.0
 40
53.0
 40
54.0
 40
54.0
 40
54.0
 40
55.0
 40
55.0
 40
55.0
 40
56.0
 40
56.0
 40
56.0
 40
57.0
 40
57.0
 40
57.0
 40
58.0
 40
58.0
 40
58.0
 40
59.0
 40
59.0
 40
59.0
 40
60.0
 40
60.0
 40
60.0
 40
61.0
 40
61.0
 40
61.0
 40
62.0
 40
62.0
 40
62.0
 40
63.0
 40
63.0
 40
63.0
 40
64.0
 40
64.0
 40
64.0
 40
65.0
 40
65.0
 40
65.0
 40
66.0
 40
66.0
 40
66.0
 40
67.0
 40
67.0
 40
67.0
 40
68.0
 40
68.0
 40
68.0
 40
69.0
 40
69.0
 40
69.0
 40
70.0
 40
70.0
 40
70.0
 40
71.0
 40
71.0
 40
71.0
 40
72.0
 40
72.0
 40
72.0
 40
73.0
 40
73.0
 40
73.0
 40
74.0
 40
74.0
 40
74.0
 40
75.0
 40
75.0
 40
75.0
 40
76.0
 40
76.0
 40
76.0
 40
77.0
 40
77.0
 40
77.0
 40
78.0
 40
78.0
 40
78.0
 40
79.0
 40
79.0
 40
79.0
 40
79.0
 10
111.9159938956321
 20
-150.4139024146535
 30
0.0
 10
111.9159938956321
 20
-150.4139024146535
 30
0.0
 10
111.6620903583692
 20
-150.4139024146535
 30
0.0
 10
111.6620903583692
 20
-150.4139024146535
 30
0.0
 10
111.6620903583692
 20
-150.4139024146535
 30
0.0
 10
111.3847601718066
 20
-150.4139024146535
 30
0.0
 10
111.3847601718066
 20
-150.4139024146535
 30
0.0
 10
111.3847601718066
 20
-150.4139024146535
 30
0.0
 10
111.5118841952123
 20
-150.456277089122
 30
0.0
 10
111.5118841952123
 20
-150.456277089122
 30
0.0
 10
111.5225639912166
 20
-150.4604112037043
 30
0.0
 10
111.5349663349635
 20
-150.4669568851263
 30
0.0
 10
111.5349663349635
 20
-150.4797037384217
 30
0.0
 10
111.5349663349635
 20
-150.5007188208817
 30
0.0
 10
111.5032714564992
 20
-150.5069199927552
 30
0.0
 10
111.4822563740391
 20
-150.511398616886
 30
0.0
 10
111.4715765780349
 20
-150.5344807566372
 30
0.0
 10
111.4419487568617
 20
-150.6002820804055
 30
0.0
 10
111.4230007316928
 20
-150.6447238121652
 30
0.0
 10
111.4230007316928
 20
-150.6447238121652
 30
0.0
 10
111.6937852368335
 20
-150.6447238121652
 30
0.0
 10
111.6937852368335
 20
-150.6447238121652
 30
0.0
 10
111.7847357576441
 20
-150.6447238121652
 30
0.0
 10
111.9814507098519
 20
-150.6402451880344
 30
0.0
 10
112.1230441342956
 20
-150.6319769588698
 30
0.0
 10
112.1230441342956
 20
-150.6319769588698
 30
0.0
 10
112.1230441342956
 20
-150.8097438859087
 30
0.0
 10
112.1230441342956
 20
-150.8097438859087
 30
0.0
 10
112.0407063521981
 20
-150.8052652617778
 30
0.0
 10
112.0196912697381
 20
-150.8052652617778
 30
0.0
 10
111.8398572854081
 20
-150.8011311471955
 30
0.0
 10
111.8081624069438
 20
-150.9554714249347
 30
0.0
 10
111.763720675184
 20
-151.0360866592896
 30
0.0
 10
111.7192789434243
 20
-151.1056775880916
 30
0.0
 10
111.8398572854081
 20
-151.1649332304379
 30
0.0
 10
111.9456217168052
 20
-151.2328016114973
 30
0.0
 10
112.0493190909113
 20
-151.3151393935948
 30
0.0
 10
112.0493190909113
 20
-151.3151393935948
 30
0.0
 10
111.9308078062187
 20
-151.4822265246294
 30
0.0
 10
111.9308078062187
 20
-151.4822265246294
 30
0.0
 10
111.907381156919
 20
-151.4632784994606
 30
0.0
 10
111.8946343036235
 20
-151.4546657607474
 30
0.0
 10
111.7826687003529
 20
-151.3702609213588
 30
0.0
 10
111.7340928540109
 20
-151.3320203614725
 30
0.0
 10
111.6748372116646
 20
-151.2961913684259
 30
0.0
 10
111.5942219773098
 20
-151.2517496366662
 30
0.0
 10
111.3826931145154
 20
-151.4377847928697
 30
0.0
 10
111.1777099331431
 20
-151.4612114421694
 30
0.0
 10
110.887632893285
 20
-151.4908392633425
 30
0.0
 10
110.887632893285
 20
-151.4908392633425
 30
0.0
 10
110.783935519179
 20
-151.3110052790125
 30
0.0
 10
110.783935519179
 20
-151.3110052790125
 30
0.0
 10
111.101573322919
 20
-151.3068711644302
 30
0.0
 10
111.2769286831182
 20
-151.2813774578394
 30
0.0
 10
111.4292019035663
 20
-151.1714789118599
 30
0.0
 10
111.3106906188737
 20
-151.1204914986782
 30
0.0
 10
111.2221516649028
 20
-151.0929307347962
 30
0.0
 10
111.1859781623077
 20
-151.0805283910493
 30
0.0
 10
111.1670301371388
 20
-151.1077446453828
 30
0.0
 10
111.1522162265522
 20
-151.1270371801002
 30
0.0
 10
111.1246554626702
 20
-151.1607991158556
 30
0.0
 10
111.1246554626702
 20
-151.1607991158556
 30
0.0
 10
110.9279405104624
 20
-151.0781168242096
 30
0.0
 10
110.9279405104624
 20
-151.0781168242096
 30
0.0
 10
111.0106228021084
 20
-150.9978460994033
 30
0.0
 10
111.0719455017459
 20
-150.9027614640104
 30
0.0
 10
111.1287895772525
 20
-150.8011311471955
 30
0.0
 10
110.9386203064667
 20
-150.8052652617778
 30
0.0
 10
110.9172607144582
 20
-150.8052652617778
 30
0.0
 10
110.8349229323607
 20
-150.8097438859087
 30
0.0
 10
110.8349229323607
 20
-150.8097438859087
 30
0.0
 10
110.8349229323607
 20
-150.6319769588698
 30
0.0
 10
110.8349229323607
 20
-150.6319769588698
 30
0.0
 10
110.9744492995133
 20
-150.6381781307432
 30
0.0
 10
111.1839111050165
 20
-150.6423122453255
 30
0.0
 10
111.2094048116073
 20
-150.6423122453255
 30
0.0
 10
111.2262857794851
 20
-150.6085503095701
 30
0.0
 10
111.2814073072491
 20
-150.4879719675863
 30
0.0
 10
111.3003553324179
 20
-150.4139024146535
 30
0.0
 10
111.2814073072491
 20
-150.4139024146535
 30
0.0
 10
111.1036403802102
 20
-150.4204480960754
 30
0.0
 10
110.9089924852936
 20
-150.4331949493709
 30
0.0
 10
110.9089924852936
 20
-150.4331949493709
 30
0.0
 10
110.9089924852936
 20
-150.5661756351015
 30
0.0
 10
110.9089924852936
 20
-150.5661756351015
 30
0.0
 10
110.8604166389515
 20
-150.5916693416924
 30
0.0
 10
110.8011609966053
 20
-150.6233642201566
 30
0.0
 10
110.6678358013261
 20
-150.6891655439249
 30
0.0
 10
110.6678358013261
 20
-150.6891655439249
 30
0.0
 10
110.6678358013261
 20
-150.834893082951
 30
0.0
 10
110.6678358013261
 20
-150.834893082951
 30
0.0
 10
110.6678358013261
 20
-150.834893082951
 30
0.0
 10
110.6678358013261
 20
-151.3023925402994
 30
0.0
 10
110.6678358013261
 20
-151.3023925402994
 30
0.0
 10
110.6678358013261
 20
-151.4295165637051
 30
0.0
 10
110.631662298731
 20
-151.4887722060514
 30
0.0
 10
110.3481309402949
 20
-151.4801594673383
 30
0.0
 10
110.3481309402949
 20
-151.4801594673383
 30
0.0
 10
110.2447780757374
 20
-151.2727647191262
 30
0.0
 10
110.2447780757374
 20
-151.2727647191262
 30
0.0
 10
110.308167832666
 20
-151.2855115724217
 30
0.0
 10
110.356743679008
 20
-151.2899901965525
 30
0.0
 10
110.3970512961854
 20
-151.2899901965525
 30
0.0
 10
110.4731879064095
 20
-151.2899901965525
 30
0.0
 10
110.4835231928652
 20
-151.2665635472528
 30
0.0
 10
110.4835231928652
 20
-151.2011067330331
 30
0.0
 10
110.4835231928652
 20
-151.2011067330331
 30
0.0
 10
110.4835231928652
 20
-150.7715033260224
 30
0.0
 10
110.4835231928652
 20
-150.7715033260224
 30
0.0
 10
110.3863715001812
 20
-150.8118109431998
 30
0.0
 10
110.3694905323034
 20
-150.8180121150733
 30
0.0
 10
110.3229817432526
 20
-150.8369601402421
 30
0.0
 10
110.3188476286703
 20
-150.8583197322507
 30
0.0
 10
110.3143690045395
 20
-150.8879475534238
 30
0.0
 10
110.2954209793706
 20
-150.8879475534238
 30
0.0
 10
110.2868082406574
 20
-150.8879475534238
 30
0.0
 10
110.2764729542017
 20
-150.883468929293
 30
0.0
 10
110.2699272727797
 20
-150.8603867895418
 30
0.0
 10
110.2699272727797
 20
-150.8603867895418
 30
0.0
 10
110.2172173118554
 20
-150.6678059519164
 30
0.0
 10
110.2172173118554
 20
-150.6678059519164
 30
0.0
 10
110.3629448508815
 20
-150.6212971628655
 30
0.0
 10
110.4287461746497
 20
-150.5982150231143
 30
0.0
 10
110.4835231928652
 20
-150.5768554311058
 30
0.0
 10
110.4835231928652
 20
-150.5768554311058
 30
0.0
 10
110.4835231928652
 20
-150.1644775015214
 30
0.0
 10
110.4835231928652
 20
-150.1644775015214
 30
0.0
 10
110.4835231928652
 20
-150.1644775015214
 30
0.0
 10
110.4308132319409
 20
-150.1644775015214
 30
0.0
 10
110.4308132319409
 20
-150.1644775015214
 30
0.0
 10
110.4308132319409
 20
-150.1644775015214
 30
0.0
 10
110.3526095644257
 20
-150.1644775015214
 30
0.0
 10
110.3526095644257
 20
-150.1644775015214
 30
0.0
 10
110.2847411833663
 20
-150.1644775015214
 30
0.0
 10
110.2764729542017
 20
-150.1644775015214
 30
0.0
 10
110.2402994516066
 20
-150.1706786733948
 30
0.0
 10
110.2402994516066
 20
-150.1706786733948
 30
0.0
 10
110.2402994516066
 20
-149.9760307784782
 30
0.0
 10
110.2402994516066
 20
-149.9760307784782
 30
0.0
 10
110.2678602154886
 20
-149.9825764599002
 30
0.0
 10
110.2764729542017
 20
-149.9825764599002
 30
0.0
 10
110.3460638830037
 20
-149.9825764599002
 30
0.0
 10
110.3460638830037
 20
-149.9825764599002
 30
0.0
 10
110.4793890782829
 20
-149.9825764599002
 30
0.0
 10
110.4793890782829
 20
-149.9825764599002
 30
0.0
 10
110.4793890782829
 20
-149.9126410215496
 30
0.0
 10
110.4793890782829
 20
-149.8299587299036
 30
0.0
 10
110.4773220209918
 20
-149.8258246153213
 30
0.0
 10
110.4690537918272
 20
-149.6459906309913
 30
0.0
 10
110.4690537918272
 20
-149.6270426058224
 30
0.0
 10
110.4666422249875
 20
-149.5805338167715
 30
0.0
 10
110.4666422249875
 20
-149.5805338167715
 30
0.0
 10
110.6826497119127
 20
-149.5888020459361
 30
0.0
 10
110.6826497119127
 20
-149.5888020459361
 30
0.0
 10
110.6929849983684
 20
-149.5888020459361
 30
0.0
 10
110.7143445903769
 20
-149.5912136127758
 30
0.0
 10
110.7143445903769
 20
-149.6080945806535
 30
0.0
 10
110.7143445903769
 20
-149.6270426058224
 30
0.0
 10
110.6995306797904
 20
-149.6377224018267
 30
0.0
 10
110.6740369731995
 20
-149.6566704269955
 30
0.0
 10
110.6740369731995
 20
-149.7073133306287
 30
0.0
 10
110.6678358013261
 20
-149.9360676708493
 30
0.0
 10
110.6699028586172
 20
-149.9825764599002
 30
0.0
 10
110.7987494297656
 20
-149.9825764599002
 30
0.0
 10
110.811496283061
 20
-149.9825764599002
 30
0.0
 10
110.9089924852936
 20
-149.973963721187
 30
0.0
 10
110.9089924852936
 20
-149.973963721187
 30
0.0
 10
110.9089924852936
 20
-150.1686116161037
 30
0.0
 10
110.9089924852936
 20
-150.1686116161037
 30
0.0
 10
110.8707519254073
 20
-150.1665445588125
 30
0.0
 10
110.8032280538964
 20
-150.1624104442302
 30
0.0
 10
110.6678358013261
 20
-150.1644775015214
 30
0.0
 10
110.6678358013261
 20
-150.1644775015214
 30
0.0
 10
110.6678358013261
 20
-150.5027858781729
 30
0.0
 10
110.6678358013261
 20
-150.5027858781729
 30
0.0
 10
110.7226128195416
 20
-150.4797037384217
 30
0.0
 10
110.7884141433098
 20
-150.4521429745397
 30
0.0
 10
110.8369899896519
 20
-150.42871632524
 30
0.0
 10
110.8369899896519
 20
-150.42871632524
 30
0.0
 10
110.8369899896519
 20
-150.2509493982011
 30
0.0
 10
110.8369899896519
 20
-150.2509493982011
 30
0.0
 10
110.9513671597621
 20
-150.2636962514966
 30
0.0
 10
111.0695339349062
 20
-150.2636962514966
 30
0.0
 10
111.1859781623077
 20
-150.2636962514966
 30
0.0
 10
111.1628960225565
 20
-150.1686116161037
 30
0.0
 10
111.1353352586745
 20
-150.0859293244577
 30
0.0
 10
111.0719455017459
 20
-149.952948638727
 30
0.0
 10
111.0275037699862
 20
-149.9550156960182
 30
0.0
 10
110.9448214783402
 20
-149.9591498106005
 30
0.0
 10
110.9069254280024
 20
-149.9612168678916
 30
0.0
 10
110.9069254280024
 20
-149.9612168678916
 30
0.0
 10
110.9069254280024
 20
-149.7813828835616
 30
0.0
 10
110.9069254280024
 20
-149.7813828835616
 30
0.0
 10
111.0316378845685
 20
-149.7899956222747
 30
0.0
 10
111.2049261874765
 20
-149.794129736857
 30
0.0
 10
111.2876084791225
 20
-149.794129736857
 30
0.0
 10
111.2876084791225
 20
-149.794129736857
 30
0.0
 10
111.36994626122
 20
-149.794129736857
 30
0.0
 10
111.36994626122
 20
-149.794129736857
 30
0.0
 10
111.36994626122
 20
-149.6311767204047
 30
0.0
 10
111.36994626122
 20
-149.6208414339489
 30
0.0
 10
111.3678792039288
 20
-149.5657199061849
 30
0.0
 10
111.3678792039288
 20
-149.5657199061849
 30
0.0
 10
111.5921549200186
 20
-149.5912136127758
 30
0.0
 10
111.5921549200186
 20
-149.5912136127758
 30
0.0
 10
111.5962890346009
 20
-149.5912136127758
 30
0.0
 10
111.6176486266095
 20
-149.593280670067
 30
0.0
 10
111.6176486266095
 20
-149.6101616379447
 30
0.0
 10
111.6176486266095
 20
-149.6249755485312
 30
0.0
 10
111.6069688306052
 20
-149.6332437776958
 30
0.0
 10
111.5794080667232
 20
-149.6480576882824
 30
0.0
 10
111.5732068948497
 20
-149.7138590120507
 30
0.0
 10
111.5711398375586
 20
-149.7348740945107
 30
0.0
 10
111.5711398375586
 20
-149.794129736857
 30
0.0
 10
111.5711398375586
 20
-149.794129736857
 30
0.0
 10
111.6662244729515
 20
-149.794129736857
 30
0.0
 10
111.6662244729515
 20
-149.794129736857
 30
0.0
 10
111.7489067645975
 20
-149.794129736857
 30
0.0
 10
111.9221950675056
 20
-149.7899956222747
 30
0.0
 10
112.0469075240716
 20
-149.7813828835616
 30
0.0
 10
112.0469075240716
 20
-149.7813828835616
 30
0.0
 10
112.0469075240716
 20
-149.9612168678916
 30
0.0
 10
112.0469075240716
 20
-149.9612168678916
 30
0.0
 10
112.0172797028984
 20
-149.9591498106005
 30
0.0
 10
111.8991129277544
 20
-149.9550156960182
 30
0.0
 10
111.8588053105769
 20
-149.952948638727
 30
0.0
 10
111.8439913999904
 20
-150.0035915423602
 30
0.0
 10
111.8102294642349
 20
-150.1155571456308
 30
0.0
 10
111.7444281404667
 20
-150.255428022332
 30
0.0
 10
111.7868028149352
 20
-150.255428022332
 30
0.0
 10
112.0641330014978
 20
-150.2361354876146
 30
0.0
 10
112.1254557011353
 20
-150.2340684303234
 30
0.0
 10
112.1254557011353
 20
-150.2340684303234
 30
0.0
 10
112.1254557011353
 20
-150.4183810387843
 30
0.0
 10
112.1254557011353
 20
-150.4183810387843
 30
0.0
 10
112.0958278799621
 20
-150.4183810387843
 30
0.0
 10
112.0789469120844
 20
-150.4139024146535
 30
0.0
 10
111.9159938956321
 20
-150.4139024146535
 30
0.0
  0
HATCH
  5
18A
330
183
100
AcDbEntity
  8
レイヤー 1
 62
    18
420
        0
440
 33554687
100
AcDbHatch
 10
0.0
 20
0.0
 30
0.0
210
0.0
220
0.0
230
1.0
  2
SOLID
 70
     1
 71
     1
 91
        3
 92
        1
 93
        1
 72
     4
 94
        3
 73
     0
 74
     0
 95
       17
 96
       13
 40
0.0
 40
0.0
 40
0.0
 40
0.0
 40
1.0
 40
1.0
 40
1.0
 40
2.0
 40
2.0
 40
2.0
 40
3.0
 40
3.0
 40
3.0
 40
4.0
 40
4.0
 40
4.0
 40
4.0
 10
111.3509982360511
 20
-150.7990640899044
 10
111.3341172681734
 20
-150.8286919110775
 10
111.2834743645402
 20
-150.9217094891793
 10
111.272794568536
 20
-150.9406575143481
 10
111.4633083488703
 20
-150.9999131566944
 10
111.4843234313303
 20
-151.0064588381164
 10
111.556325926972
 20
-151.0336750924499
 10
111.6111029451875
 20
-150.9472031957701
 10
111.6345295944872
 20
-150.8731336428373
 10
111.6493435050738
 20
-150.7990640899044
 10
111.6493435050738
 20
-150.7990640899044
 10
111.3509982360511
 20
-150.7990640899044
 10
111.3509982360511
 20
-150.7990640899044
 97
        0
 97
        1
330
187
 92
        1
 93
        1
 72
     4
 94
        3
 73
     0
 74
     0
 95
       20
 96
       16
 40
0.0
 40
0.0
 40
0.0
 40
0.0
 40
1.0
 40
1.0
 40
1.0
 40
2.0
 40
2.0
 40
2.0
 40
3.0
 40
3.0
 40
3.0
 40
4.0
 40
4.0
 40
4.0
 40
5.0
 40
5.0
 40
5.0
 40
5.0
 10
111.2876084791225
 20
-149.9484700145962
 10
111.2876084791225
 20
-149.9484700145962
 10
111.2559136006582
 20
-149.9484700145962
 10
111.2559136006582
 20
-149.9484700145962
 10
111.3024223897091
 20
-150.0480332741199
 10
111.3341172681734
 20
-150.1283039989262
 10
111.3678792039288
 20
-150.255428022332
 10
111.3678792039288
 20
-150.255428022332
 10
111.5752739521409
 20
-150.255428022332
 10
111.5752739521409
 20
-150.255428022332
 10
111.6069688306052
 20
-150.1624104442302
 10
111.6303954799049
 20
-150.0776610952931
 10
111.6534776196561
 20
-149.9484700145962
 10
111.6534776196561
 20
-149.9484700145962
 10
111.2876084791225
 20
-149.9484700145962
 10
111.2876084791225
 20
-149.9484700145962
 97
        0
 97
        1
330
188
 92
        1
 93
        1
 72
     4
 94
        3
 73
     0
 74
     0
 95
      242
 96
      238
 40
0.0
 40
0.0
 40
0.0
 40
0.0
 40
1.0
 40
1.0
 40
1.0
 40
2.0
 40
2.0
 40
2.0
 40
3.0
 40
3.0
 40
3.0
 40
4.0
 40
4.0
 40
4.0
 40
5.0
 40
5.0
 40
5.0
 40
6.0
 40
6.0
 40
6.0
 40
7.0
 40
7.0
 40
7.0
 40
8.0
 40
8.0
 40
8.0
 40
9.0
 40
9.0
 40
9.0
 40
10.0
 40
10.0
 40
10.0
 40
11.0
 40
11.0
 40
11.0
 40
12.0
 40
12.0
 40
12.0
 40
13.0
 40
13.0
 40
13.0
 40
14.0
 40
14.0
 40
14.0
 40
15.0
 40
15.0
 40
15.0
 40
16.0
 40
16.0
 40
16.0
 40
17.0
 40
17.0
 40
17.0
 40
18.0
 40
18.0
 40
18.0
 40
19.0
 40
19.0
 40
19.0
 40
20.0
 40
20.0
 40
20.0
 40
21.0
 40
21.0
 40
21.0
 40
22.0
 40
22.0
 40
22.0
 40
23.0
 40
23.0
 40
23.0
 40
24.0
 40
24.0
 40
24.0
 40
25.0
 40
25.0
 40
25.0
 40
26.0
 40
26.0
 40
26.0
 40
27.0
 40
27.0
 40
27.0
 40
28.0
 40
28.0
 40
28.0
 40
29.0
 40
29.0
 40
29.0
 40
30.0
 40
30.0
 40
30.0
 40
31.0
 40
31.0
 40
31.0
 40
32.0
 40
32.0
 40
32.0
 40
33.0
 40
33.0
 40
33.0
 40
34.0
 40
34.0
 40
34.0
 40
35.0
 40
35.0
 40
35.0
 40
36.0
 40
36.0
 40
36.0
 40
37.0
 40
37.0
 40
37.0
 40
38.0
 40
38.0
 40
38.0
 40
39.0
 40
39.0
 40
39.0
 40
40.0
 40
40.0
 40
40.0
 40
41.0
 40
41.0
 40
41.0
 40
42.0
 40
42.0
 40
42.0
 40
43.0
 40
43.0
 40
43.0
 40
44.0
 40
44.0
 40
44.0
 40
45.0
 40
45.0
 40
45.0
 40
46.0
 40
46.0
 40
46.0
 40
47.0
 40
47.0
 40
47.0
 40
48.0
 40
48.0
 40
48.0
 40
49.0
 40
49.0
 40
49.0
 40
50.0
 40
50.0
 40
50.0
 40
51.0
 40
51.0
 40
51.0
 40
52.0
 40
52.0
 40
52.0
 40
53.0
 40
53.0
 40
53.0
 40
54.0
 40
54.0
 40
54.0
 40
55.0
 40
55.0
 40
55.0
 40
56.0
 40
56.0
 40
56.0
 40
57.0
 40
57.0
 40
57.0
 40
58.0
 40
58.0
 40
58.0
 40
59.0
 40
59.0
 40
59.0
 40
60.0
 40
60.0
 40
60.0
 40
61.0
 40
61.0
 40
61.0
 40
62.0
 40
62.0
 40
62.0
 40
63.0
 40
63.0
 40
63.0
 40
64.0
 40
64.0
 40
64.0
 40
65.0
 40
65.0
 40
65.0
 40
66.0
 40
66.0
 40
66.0
 40
67.0
 40
67.0
 40
67.0
 40
68.0
 40
68.0
 40
68.0
 40
69.0
 40
69.0
 40
69.0
 40
70.0
 40
70.0
 40
70.0
 40
71.0
 40
71.0
 40
71.0
 40
72.0
 40
72.0
 40
72.0
 40
73.0
 40
73.0
 40
73.0
 40
74.0
 40
74.0
 40
74.0
 40
75.0
 40
75.0
 40
75.0
 40
76.0
 40
76.0
 40
76.0
 40
77.0
 40
77.0
 40
77.0
 40
78.0
 40
78.0
 40
78.0
 40
79.0
 40
79.0
 40
79.0
 40
79.0
 10
111.9159938956321
 20
-150.4139024146535
 10
111.9159938956321
 20
-150.4139024146535
 10
111.6620903583692
 20
-150.4139024146535
 10
111.6620903583692
 20
-150.4139024146535
 10
111.6620903583692
 20
-150.4139024146535
 10
111.3847601718066
 20
-150.4139024146535
 10
111.3847601718066
 20
-150.4139024146535
 10
111.3847601718066
 20
-150.4139024146535
 10
111.5118841952123
 20
-150.456277089122
 10
111.5118841952123
 20
-150.456277089122
 10
111.5225639912166
 20
-150.4604112037043
 10
111.5349663349635
 20
-150.4669568851263
 10
111.5349663349635
 20
-150.4797037384217
 10
111.5349663349635
 20
-150.5007188208817
 10
111.5032714564992
 20
-150.5069199927552
 10
111.4822563740391
 20
-150.511398616886
 10
111.4715765780349
 20
-150.5344807566372
 10
111.4419487568617
 20
-150.6002820804055
 10
111.4230007316928
 20
-150.6447238121652
 10
111.4230007316928
 20
-150.6447238121652
 10
111.6937852368335
 20
-150.6447238121652
 10
111.6937852368335
 20
-150.6447238121652
 10
111.7847357576441
 20
-150.6447238121652
 10
111.9814507098519
 20
-150.6402451880344
 10
112.1230441342956
 20
-150.6319769588698
 10
112.1230441342956
 20
-150.6319769588698
 10
112.1230441342956
 20
-150.8097438859087
 10
112.1230441342956
 20
-150.8097438859087
 10
112.0407063521981
 20
-150.8052652617778
 10
112.0196912697381
 20
-150.8052652617778
 10
111.8398572854081
 20
-150.8011311471955
 10
111.8081624069438
 20
-150.9554714249347
 10
111.763720675184
 20
-151.0360866592896
 10
111.7192789434243
 20
-151.1056775880916
 10
111.8398572854081
 20
-151.1649332304379
 10
111.9456217168052
 20
-151.2328016114973
 10
112.0493190909113
 20
-151.3151393935948
 10
112.0493190909113
 20
-151.3151393935948
 10
111.9308078062187
 20
-151.4822265246294
 10
111.9308078062187
 20
-151.4822265246294
 10
111.907381156919
 20
-151.4632784994606
 10
111.8946343036235
 20
-151.4546657607474
 10
111.7826687003529
 20
-151.3702609213588
 10
111.7340928540109
 20
-151.3320203614725
 10
111.6748372116646
 20
-151.2961913684259
 10
111.5942219773098
 20
-151.2517496366662
 10
111.3826931145154
 20
-151.4377847928697
 10
111.1777099331431
 20
-151.4612114421694
 10
110.887632893285
 20
-151.4908392633425
 10
110.887632893285
 20
-151.4908392633425
 10
110.783935519179
 20
-151.3110052790125
 10
110.783935519179
 20
-151.3110052790125
 10
111.101573322919
 20
-151.3068711644302
 10
111.2769286831182
 20
-151.2813774578394
 10
111.4292019035663
 20
-151.1714789118599
 10
111.3106906188737
 20
-151.1204914986782
 10
111.2221516649028
 20
-151.0929307347962
 10
111.1859781623077
 20
-151.0805283910493
 10
111.1670301371388
 20
-151.1077446453828
 10
111.1522162265522
 20
-151.1270371801002
 10
111.1246554626702
 20
-151.1607991158556
 10
111.1246554626702
 20
-151.1607991158556
 10
110.9279405104624
 20
-151.0781168242096
 10
110.9279405104624
 20
-151.0781168242096
 10
111.0106228021084
 20
-150.9978460994033
 10
111.0719455017459
 20
-150.9027614640104
 10
111.1287895772525
 20
-150.8011311471955
 10
110.9386203064667
 20
-150.8052652617778
 10
110.9172607144582
 20
-150.8052652617778
 10
110.8349229323607
 20
-150.8097438859087
 10
110.8349229323607
 20
-150.8097438859087
 10
110.8349229323607
 20
-150.6319769588698
 10
110.8349229323607
 20
-150.6319769588698
 10
110.9744492995133
 20
-150.6381781307432
 10
111.1839111050165
 20
-150.6423122453255
 10
111.2094048116073
 20
-150.6423122453255
 10
111.2262857794851
 20
-150.6085503095701
 10
111.2814073072491
 20
-150.4879719675863
 10
111.3003553324179
 20
-150.4139024146535
 10
111.2814073072491
 20
-150.4139024146535
 10
111.1036403802102
 20
-150.4204480960754
 10
110.9089924852936
 20
-150.4331949493709
 10
110.9089924852936
 20
-150.4331949493709
 10
110.9089924852936
 20
-150.5661756351015
 10
110.9089924852936
 20
-150.5661756351015
 10
110.8604166389515
 20
-150.5916693416924
 10
110.8011609966053
 20
-150.6233642201566
 10
110.6678358013261
 20
-150.6891655439249
 10
110.6678358013261
 20
-150.6891655439249
 10
110.6678358013261
 20
-150.834893082951
 10
110.6678358013261
 20
-150.834893082951
 10
110.6678358013261
 20
-150.834893082951
 10
110.6678358013261
 20
-151.3023925402994
 10
110.6678358013261
 20
-151.3023925402994
 10
110.6678358013261
 20
-151.4295165637051
 10
110.631662298731
 20
-151.4887722060514
 10
110.3481309402949
 20
-151.4801594673383
 10
110.3481309402949
 20
-151.4801594673383
 10
110.2447780757374
 20
-151.2727647191262
 10
110.2447780757374
 20
-151.2727647191262
 10
110.308167832666
 20
-151.2855115724217
 10
110.356743679008
 20
-151.2899901965525
 10
110.3970512961854
 20
-151.2899901965525
 10
110.4731879064095
 20
-151.2899901965525
 10
110.4835231928652
 20
-151.2665635472528
 10
110.4835231928652
 20
-151.2011067330331
 10
110.4835231928652
 20
-151.2011067330331
 10
110.4835231928652
 20
-150.7715033260224
 10
110.4835231928652
 20
-150.7715033260224
 10
110.3863715001812
 20
-150.8118109431998
 10
110.3694905323034
 20
-150.8180121150733
 10
110.3229817432526
 20
-150.8369601402421
 10
110.3188476286703
 20
-150.8583197322507
 10
110.3143690045395
 20
-150.8879475534238
 10
110.2954209793706
 20
-150.8879475534238
 10
110.2868082406574
 20
-150.8879475534238
 10
110.2764729542017
 20
-150.883468929293
 10
110.2699272727797
 20
-150.8603867895418
 10
110.2699272727797
 20
-150.8603867895418
 10
110.2172173118554
 20
-150.6678059519164
 10
110.2172173118554
 20
-150.6678059519164
 10
110.3629448508815
 20
-150.6212971628655
 10
110.4287461746497
 20
-150.5982150231143
 10
110.4835231928652
 20
-150.5768554311058
 10
110.4835231928652
 20
-150.5768554311058
 10
110.4835231928652
 20
-150.1644775015214
 10
110.4835231928652
 20
-150.1644775015214
 10
110.4835231928652
 20
-150.1644775015214
 10
110.4308132319409
 20
-150.1644775015214
 10
110.4308132319409
 20
-150.1644775015214
 10
110.4308132319409
 20
-150.1644775015214
 10
110.3526095644257
 20
-150.1644775015214
 10
110.3526095644257
 20
-150.1644775015214
 10
110.2847411833663
 20
-150.1644775015214
 10
110.2764729542017
 20
-150.1644775015214
 10
110.2402994516066
 20
-150.1706786733948
 10
110.2402994516066
 20
-150.1706786733948
 10
110.2402994516066
 20
-149.9760307784782
 10
110.2402994516066
 20
-149.9760307784782
 10
110.2678602154886
 20
-149.9825764599002
 10
110.2764729542017
 20
-149.9825764599002
 10
110.3460638830037
 20
-149.9825764599002
 10
110.3460638830037
 20
-149.9825764599002
 10
110.4793890782829
 20
-149.9825764599002
 10
110.4793890782829
 20
-149.9825764599002
 10
110.4793890782829
 20
-149.9126410215496
 10
110.4793890782829
 20
-149.8299587299036
 10
110.4773220209918
 20
-149.8258246153213
 10
110.4690537918272
 20
-149.6459906309913
 10
110.4690537918272
 20
-149.6270426058224
 10
110.4666422249875
 20
-149.5805338167715
 10
110.4666422249875
 20
-149.5805338167715
 10
110.6826497119127
 20
-149.5888020459361
 10
110.6826497119127
 20
-149.5888020459361
 10
110.6929849983684
 20
-149.5888020459361
 10
110.7143445903769
 20
-149.5912136127758
 10
110.7143445903769
 20
-149.6080945806535
 10
110.7143445903769
 20
-149.6270426058224
 10
110.6995306797904
 20
-149.6377224018267
 10
110.6740369731995
 20
-149.6566704269955
 10
110.6740369731995
 20
-149.7073133306287
 10
110.6678358013261
 20
-149.9360676708493
 10
110.6699028586172
 20
-149.9825764599002
 10
110.7987494297656
 20
-149.9825764599002
 10
110.811496283061
 20
-149.9825764599002
 10
110.9089924852936
 20
-149.973963721187
 10
110.9089924852936
 20
-149.973963721187
 10
110.9089924852936
 20
-150.1686116161037
 10
110.9089924852936
 20
-150.1686116161037
 10
110.8707519254073
 20
-150.1665445588125
 10
110.8032280538964
 20
-150.1624104442302
 10
110.6678358013261
 20
-150.1644775015214
 10
110.6678358013261
 20
-150.1644775015214
 10
110.6678358013261
 20
-150.5027858781729
 10
110.6678358013261
 20
-150.5027858781729
 10
110.7226128195416
 20
-150.4797037384217
 10
110.7884141433098
 20
-150.4521429745397
 10
110.8369899896519
 20
-150.42871632524
 10
110.8369899896519
 20
-150.42871632524
 10
110.8369899896519
 20
-150.2509493982011
 10
110.8369899896519
 20
-150.2509493982011
 10
110.9513671597621
 20
-150.2636962514966
 10
111.0695339349062
 20
-150.2636962514966
 10
111.1859781623077
 20
-150.2636962514966
 10
111.1628960225565
 20
-150.1686116161037
 10
111.1353352586745
 20
-150.0859293244577
 10
111.0719455017459
 20
-149.952948638727
 10
111.0275037699862
 20
-149.9550156960182
 10
110.9448214783402
 20
-149.9591498106005
 10
110.9069254280024
 20
-149.9612168678916
 10
110.9069254280024
 20
-149.9612168678916
 10
110.9069254280024
 20
-149.7813828835616
 10
110.9069254280024
 20
-149.7813828835616
 10
111.0316378845685
 20
-149.7899956222747
 10
111.2049261874765
 20
-149.794129736857
 10
111.2876084791225
 20
-149.794129736857
 10
111.2876084791225
 20
-149.794129736857
 10
111.36994626122
 20
-149.794129736857
 10
111.36994626122
 20
-149.794129736857
 10
111.36994626122
 20
-149.6311767204047
 10
111.36994626122
 20
-149.6208414339489
 10
111.3678792039288
 20
-149.5657199061849
 10
111.3678792039288
 20
-149.5657199061849
 10
111.5921549200186
 20
-149.5912136127758
 10
111.5921549200186
 20
-149.5912136127758
 10
111.5962890346009
 20
-149.5912136127758
 10
111.6176486266095
 20
-149.593280670067
 10
111.6176486266095
 20
-149.6101616379447
 10
111.6176486266095
 20
-149.6249755485312
 10
111.6069688306052
 20
-149.6332437776958
 10
111.5794080667232
 20
-149.6480576882824
 10
111.5732068948497
 20
-149.7138590120507
 10
111.5711398375586
 20
-149.7348740945107
 10
111.5711398375586
 20
-149.794129736857
 10
111.5711398375586
 20
-149.794129736857
 10
111.6662244729515
 20
-149.794129736857
 10
111.6662244729515
 20
-149.794129736857
 10
111.7489067645975
 20
-149.794129736857
 10
111.9221950675056
 20
-149.7899956222747
 10
112.0469075240716
 20
-149.7813828835616
 10
112.0469075240716
 20
-149.7813828835616
 10
112.0469075240716
 20
-149.9612168678916
 10
112.0469075240716
 20
-149.9612168678916
 10
112.0172797028984
 20
-149.9591498106005
 10
111.8991129277544
 20
-149.9550156960182
 10
111.8588053105769
 20
-149.952948638727
 10
111.8439913999904
 20
-150.0035915423602
 10
111.8102294642349
 20
-150.1155571456308
 10
111.7444281404667
 20
-150.255428022332
 10
111.7868028149352
 20
-150.255428022332
 10
112.0641330014978
 20
-150.2361354876146
 10
112.1254557011353
 20
-150.2340684303234
 10
112.1254557011353
 20
-150.2340684303234
 10
112.1254557011353
 20
-150.4183810387843
 10
112.1254557011353
 20
-150.4183810387843
 10
112.0958278799621
 20
-150.4183810387843
 10
112.0789469120844
 20
-150.4139024146535
 10
111.9159938956321
 20
-150.4139024146535
 97
        0
 97
        1
330
189
 75
     2
 76
     1
 98
        1
 10
0.0
 20
0.0
450
        0
451
        0
460
0.0
461
0.0
452
        0
462
0.0
453
        0
470

  0
SPLINE
  5
18B
330
183
100
AcDbEntity
  8
レイヤー 1
100
AcDbSpline
210
0.0
220
0.0
230
1.0
 70
    11
 71
     3
 72
    17
 73
    13
 74
     0
 42
0.0000000001
 43
0.0000000001
 40
0.0
 40
0.0
 40
0.0
 40
0.0
 40
1.0
 40
1.0
 40
1.0
 40
2.0
 40
2.0
 40
2.0
 40
3.0
 40
3.0
 40
3.0
 40
4.0
 40
4.0
 40
4.0
 40
4.0
 10
113.7722113430847
 20
-151.2135090767799
 30
0.0
 10
113.7722113430847
 20
-151.2135090767799
 30
0.0
 10
113.06562225906
 20
-151.2135090767799
 30
0.0
 10
113.06562225906
 20
-151.2135090767799
 30
0.0
 10
113.06562225906
 20
-151.2135090767799
 30
0.0
 10
113.06562225906
 20
-151.3278862468902
 30
0.0
 10
113.06562225906
 20
-151.3278862468902
 30
0.0
 10
113.06562225906
 20
-151.3278862468902
 30
0.0
 10
113.7722113430847
 20
-151.3278862468902
 30
0.0
 10
113.7722113430847
 20
-151.3278862468902
 30
0.0
 10
113.7722113430847
 20
-151.3278862468902
 30
0.0
 10
113.7722113430847
 20
-151.2135090767799
 30
0.0
 10
113.7722113430847
 20
-151.2135090767799
 30
0.0
  0
SPLINE
  5
18C
330
183
100
AcDbEntity
  8
レイヤー 1
100
AcDbSpline
210
0.0
220
0.0
230
1.0
 70
    11
 71
     3
 72
    17
 73
    13
 74
     0
 42
0.0000000001
 43
0.0000000001
 40
0.0
 40
0.0
 40
0.0
 40
0.0
 40
1.0
 40
1.0
 40
1.0
 40
2.0
 40
2.0
 40
2.0
 40
3.0
 40
3.0
 40
3.0
 40
4.0
 40
4.0
 40
4.0
 40
4.0
 10
113.7722113430847
 20
-150.9702853355213
 30
0.0
 10
113.7722113430847
 20
-150.9702853355213
 30
0.0
 10
113.06562225906
 20
-150.9702853355213
 30
0.0
 10
113.06562225906
 20
-150.9702853355213
 30
0.0
 10
113.06562225906
 20
-150.9702853355213
 30
0.0
 10
113.06562225906
 20
-151.0846625056316
 30
0.0
 10
113.06562225906
 20
-151.0846625056316
 30
0.0
 10
113.06562225906
 20
-151.0846625056316
 30
0.0
 10
113.7722113430847
 20
-151.0846625056316
 30
0.0
 10
113.7722113430847
 20
-151.0846625056316
 30
0.0
 10
113.7722113430847
 20
-151.0846625056316
 30
0.0
 10
113.7722113430847
 20
-150.9702853355213
 30
0.0
 10
113.7722113430847
 20
-150.9702853355213
 30
0.0
  0
SPLINE
  5
18D
330
183
100
AcDbEntity
  8
レイヤー 1
100
AcDbSpline
210
0.0
220
0.0
230
1.0
 70
    11
 71
     3
 72
    17
 73
    13
 74
     0
 42
0.0000000001
 43
0.0000000001
 40
0.0
 40
0.0
 40
0.0
 40
0.0
 40
1.0
 40
1.0
 40
1.0
 40
2.0
 40
2.0
 40
2.0
 40
3.0
 40
3.0
 40
3.0
 40
4.0
 40
4.0
 40
4.0
 40
4.0
 10
113.7722113430847
 20
-150.7377413902669
 30
0.0
 10
113.7722113430847
 20
-150.7377413902669
 30
0.0
 10
113.06562225906
 20
-150.7377413902669
 30
0.0
 10
113.06562225906
 20
-150.7377413902669
 30
0.0
 10
113.06562225906
 20
-150.7377413902669
 30
0.0
 10
113.06562225906
 20
-150.8455728789552
 30
0.0
 10
113.06562225906
 20
-150.8455728789552
 30
0.0
 10
113.06562225906
 20
-150.8455728789552
 30
0.0
 10
113.7722113430847
 20
-150.8455728789552
 30
0.0
 10
113.7722113430847
 20
-150.8455728789552
 30
0.0
 10
113.7722113430847
 20
-150.8455728789552
 30
0.0
 10
113.7722113430847
 20
-150.7377413902669
 30
0.0
 10
113.7722113430847
 20
-150.7377413902669
 30
0.0
  0
SPLINE
  5
18E
330
183
100
AcDbEntity
  8
レイヤー 1
100
AcDbSpline
210
0.0
220
0.0
230
1.0
 70
     9
 71
     3
 72
   203
 73
   199
 74
     0
 42
0.0000000001
 43
0.0000000001
 40
0.0
 40
0.0
 40
0.0
 40
0.0
 40
1.0
 40
1.0
 40
1.0
 40
2.0
 40
2.0
 40
2.0
 40
3.0
 40
3.0
 40
3.0
 40
4.0
 40
4.0
 40
4.0
 40
5.0
 40
5.0
 40
5.0
 40
6.0
 40
6.0
 40
6.0
 40
7.0
 40
7.0
 40
7.0
 40
8.0
 40
8.0
 40
8.0
 40
9.0
 40
9.0
 40
9.0
 40
10.0
 40
10.0
 40
10.0
 40
11.0
 40
11.0
 40
11.0
 40
12.0
 40
12.0
 40
12.0
 40
13.0
 40
13.0
 40
13.0
 40
14.0
 40
14.0
 40
14.0
 40
15.0
 40
15.0
 40
15.0
 40
16.0
 40
16.0
 40
16.0
 40
17.0
 40
17.0
 40
17.0
 40
18.0
 40
18.0
 40
18.0
 40
19.0
 40
19.0
 40
19.0
 40
20.0
 40
20.0
 40
20.0
 40
21.0
 40
21.0
 40
21.0
 40
22.0
 40
22.0
 40
22.0
 40
23.0
 40
23.0
 40
23.0
 40
24.0
 40
24.0
 40
24.0
 40
25.0
 40
25.0
 40
25.0
 40
26.0
 40
26.0
 40
26.0
 40
27.0
 40
27.0
 40
27.0
 40
28.0
 40
28.0
 40
28.0
 40
29.0
 40
29.0
 40
29.0
 40
30.0
 40
30.0
 40
30.0
 40
31.0
 40
31.0
 40
31.0
 40
32.0
 40
32.0
 40
32.0
 40
33.0
 40
33.0
 40
33.0
 40
34.0
 40
34.0
 40
34.0
 40
35.0
 40
35.0
 40
35.0
 40
36.0
 40
36.0
 40
36.0
 40
37.0
 40
37.0
 40
37.0
 40
38.0
 40
38.0
 40
38.0
 40
39.0
 40
39.0
 40
39.0
 40
40.0
 40
40.0
 40
40.0
 40
41.0
 40
41.0
 40
41.0
 40
42.0
 40
42.0
 40
42.0
 40
43.0
 40
43.0
 40
43.0
 40
44.0
 40
44.0
 40
44.0
 40
45.0
 40
45.0
 40
45.0
 40
46.0
 40
46.0
 40
46.0
 40
47.0
 40
47.0
 40
47.0
 40
48.0
 40
48.0
 40
48.0
 40
49.0
 40
49.0
 40
49.0
 40
50.0
 40
50.0
 40
50.0
 40
51.0
 40
51.0
 40
51.0
 40
52.0
 40
52.0
 40
52.0
 40
53.0
 40
53.0
 40
53.0
 40
54.0
 40
54.0
 40
54.0
 40
55.0
 40
55.0
 40
55.0
 40
56.0
 40
56.0
 40
56.0
 40
57.0
 40
57.0
 40
57.0
 40
58.0
 40
58.0
 40
58.0
 40
59.0
 40
59.0
 40
59.0
 40
60.0
 40
60.0
 40
60.0
 40
61.0
 40
61.0
 40
61.0
 40
62.0
 40
62.0
 40
62.0
 40
63.0
 40
63.0
 40
63.0
 40
64.0
 40
64.0
 40
64.0
 40
65.0
 40
65.0
 40
65.0
 40
66.0
 40
66.0
 40
66.0
 40
66.0
 10
113.6071912693412
 20
-150.4817707957129
 30
0.0
 10
113.6071912693412
 20
-150.4817707957129
 30
0.0
 10
113.0487412911822
 20
-150.4817707957129
 30
0.0
 10
113.0487412911822
 20
-150.4817707957129
 30
0.0
 10
113.0384060047265
 20
-150.5262125274726
 30
0.0
 10
113.0297932660134
 20
-150.5579074059369
 30
0.0
 10
113.0170464127179
 20
-150.5958034562747
 30
0.0
 10
113.0425401193088
 20
-150.5958034562747
 30
0.0
 10
113.0573540298954
 20
-150.5982150231143
 30
0.0
 10
113.0635552017688
 20
-150.5982150231143
 30
0.0
 10
113.0635552017688
 20
-150.5982150231143
 30
0.0
 10
113.252001924812
 20
-150.5982150231143
 30
0.0
 10
113.252001924812
 20
-150.5982150231143
 30
0.0
 10
113.252001924812
 20
-150.5982150231143
 30
0.0
 10
113.6264838040586
 20
-150.5982150231143
 30
0.0
 10
113.6264838040586
 20
-150.5982150231143
 30
0.0
 10
113.6771267076918
 20
-150.5982150231143
 30
0.0
 10
113.9606580661279
 20
-150.5854681698189
 30
0.0
 10
113.9923529445922
 20
-150.5854681698189
 30
0.0
 10
113.990285887301
 20
-150.6126844241524
 30
0.0
 10
113.9882188300099
 20
-150.6319769588698
 30
0.0
 10
113.9882188300099
 20
-150.6616047800429
 30
0.0
 10
113.9861517727187
 20
-150.6932996585072
 30
0.0
 10
113.9861517727187
 20
-150.8286919110775
 30
0.0
 10
113.9861517727187
 20
-150.8562526749595
 30
0.0
 10
113.9861517727187
 20
-150.8562526749595
 30
0.0
 10
113.9861517727187
 20
-151.1015434735093
 30
0.0
 10
113.9861517727187
 20
-151.1015434735093
 30
0.0
 10
113.9861517727187
 20
-151.145985205269
 30
0.0
 10
113.990285887301
 20
-151.3427001574768
 30
0.0
 10
113.9944200018833
 20
-151.4949733779249
 30
0.0
 10
113.9944200018833
 20
-151.4949733779249
 30
0.0
 10
113.7680772285024
 20
-151.4949733779249
 30
0.0
 10
113.7680772285024
 20
-151.4949733779249
 30
0.0
 10
113.7680772285024
 20
-151.4949733779249
 30
0.0
 10
113.7701442857935
 20
-151.4612114421694
 30
0.0
 10
113.7701442857935
 20
-151.4612114421694
 30
0.0
 10
113.7701442857935
 20
-151.4612114421694
 30
0.0
 10
113.0680338258996
 20
-151.4612114421694
 30
0.0
 10
113.0680338258996
 20
-151.4612114421694
 30
0.0
 10
113.0680338258996
 20
-151.4612114421694
 30
0.0
 10
113.0701008831908
 20
-151.4949733779249
 30
0.0
 10
113.0701008831908
 20
-151.4949733779249
 30
0.0
 10
113.0701008831908
 20
-151.4949733779249
 30
0.0
 10
112.8520263389745
 20
-151.4949733779249
 30
0.0
 10
112.8520263389745
 20
-151.4949733779249
 30
0.0
 10
112.8565049631053
 20
-151.4398518501608
 30
0.0
 10
112.8565049631053
 20
-151.427449506414
 30
0.0
 10
112.8627061349787
 20
-151.3130723363037
 30
0.0
 10
112.8647731922699
 20
-151.2855115724217
 30
0.0
 10
112.8668402495611
 20
-151.1521863771425
 30
0.0
 10
112.8668402495611
 20
-151.1332383519736
 30
0.0
 10
112.8668402495611
 20
-151.1332383519736
 30
0.0
 10
112.8668402495611
 20
-150.9303222278924
 30
0.0
 10
112.8668402495611
 20
-150.9303222278924
 30
0.0
 10
112.7273138824084
 20
-151.1797471410245
 30
0.0
 10
112.5581596940827
 20
-151.3110052790125
 30
0.0
 10
112.4523952626855
 20
-151.3764620932323
 30
0.0
 10
112.4523952626855
 20
-151.3764620932323
 30
0.0
 10
112.2787624502289
 20
-151.2369357260796
 30
0.0
 10
112.2787624502289
 20
-151.2369357260796
 30
0.0
 10
112.3676459137483
 20
-151.1862928224465
 30
0.0
 10
112.5116509050318
 20
-151.0994764162182
 30
0.0
 10
112.6491102148932
 20
-150.9048285213015
 30
0.0
 10
112.7400607357039
 20
-150.7777044978958
 30
0.0
 10
112.8055175499236
 20
-150.6340440161609
 30
0.0
 10
112.839279485679
 20
-150.4817707957129
 30
0.0
 10
112.610869655007
 20
-150.483837853004
 30
0.0
 10
112.4310356706769
 20
-150.4900390248775
 30
0.0
 10
112.335951035284
 20
-150.4921060821686
 30
0.0
 10
112.335951035284
 20
-150.4921060821686
 30
0.0
 10
112.335951035284
 20
-150.3146836646783
 30
0.0
 10
112.335951035284
 20
-150.3146836646783
 30
0.0
 10
112.5326659874918
 20
-150.3208848365517
 30
0.0
 10
112.8161973459279
 20
-150.325018951134
 30
0.0
 10
112.9664035090848
 20
-150.325018951134
 30
0.0
 10
112.9664035090848
 20
-150.325018951134
 30
0.0
 10
113.1799994291702
 20
-150.325018951134
 30
0.0
 10
113.1799994291702
 20
-150.325018951134
 30
0.0
 10
113.1799994291702
 20
-150.325018951134
 30
0.0
 10
113.1799994291702
 20
-150.2171874624457
 30
0.0
 10
113.1799994291702
 20
-150.2171874624457
 30
0.0
 10
113.1799994291702
 20
-150.2171874624457
 30
0.0
 10
113.0339273805957
 20
-150.2171874624457
 30
0.0
 10
113.0339273805957
 20
-150.2171874624457
 30
0.0
 10
112.8647731922699
 20
-150.2171874624457
 30
0.0
 10
112.6956190039441
 20
-150.221321577028
 30
0.0
 10
112.5285318729095
 20
-150.22786725845
 30
0.0
 10
112.5285318729095
 20
-150.22786725845
 30
0.0
 10
112.5285318729095
 20
-150.056646012833
 30
0.0
 10
112.5285318729095
 20
-150.056646012833
 30
0.0
 10
112.6828721506487
 20
-150.0669812992888
 30
0.0
 10
112.8689073068522
 20
-150.0669812992888
 30
0.0
 10
113.0339273805957
 20
-150.0669812992888
 30
0.0
 10
113.0339273805957
 20
-150.0669812992888
 30
0.0
 10
113.1799994291702
 20
-150.0669812992888
 30
0.0
 10
113.1799994291702
 20
-150.0669812992888
 30
0.0
 10
113.1799994291702
 20
-150.0669812992888
 30
0.0
 10
113.1799994291702
 20
-149.9484700145962
 30
0.0
 10
113.1799994291702
 20
-149.9484700145962
 30
0.0
 10
113.1799994291702
 20
-149.9484700145962
 30
0.0
 10
113.0487412911822
 20
-149.9484700145962
 30
0.0
 10
113.0487412911822
 20
-149.9484700145962
 30
0.0
 10
113.0022325021314
 20
-149.9484700145962
 30
0.0
 10
112.7993163780502
 20
-149.9570827533093
 30
0.0
 10
112.7569417035816
 20
-149.9570827533093
 30
0.0
 10
112.5536810699518
 20
-149.9612168678916
 30
0.0
 10
112.4775444597278
 20
-149.9632839251828
 30
0.0
 10
112.3993407922126
 20
-149.9653509824739
 30
0.0
 10
112.3993407922126
 20
-149.9653509824739
 30
0.0
 10
112.3993407922126
 20
-149.7813828835616
 30
0.0
 10
112.3993407922126
 20
-149.7813828835616
 30
0.0
 10
112.5137179623229
 20
-149.7899956222747
 30
0.0
 10
112.5581596940827
 20
-149.7899956222747
 30
0.0
 10
112.9409098024939
 20
-149.7982638514393
 30
0.0
 10
112.8775200455653
 20
-149.7031792160464
 30
0.0
 10
112.8499592816833
 20
-149.6756184521644
 30
0.0
 10
112.8141302886367
 20
-149.6397894591178
 30
0.0
 10
112.8141302886367
 20
-149.6397894591178
 30
0.0
 10
112.9894856488359
 20
-149.5571071674718
 30
0.0
 10
112.9894856488359
 20
-149.5571071674718
 30
0.0
 10
113.0297932660134
 20
-149.593280670067
 30
0.0
 10
113.0742349977731
 20
-149.6356553445355
 30
0.0
 10
113.148304550706
 20
-149.745553890515
 30
0.0
 10
113.148304550706
 20
-149.745553890515
 30
0.0
 10
113.0339273805957
 20
-149.8003309087305
 30
0.0
 10
113.0339273805957
 20
-149.8003309087305
 30
0.0
 10
113.0339273805957
 20
-149.8003309087305
 30
0.0
 10
113.0446071765999
 20
-149.8003309087305
 30
0.0
 10
113.0446071765999
 20
-149.8003309087305
 30
0.0
 10
113.0446071765999
 20
-149.8003309087305
 30
0.0
 10
113.5672281617123
 20
-149.8003309087305
 30
0.0
 10
113.5672281617123
 20
-149.8003309087305
 30
0.0
 10
113.5672281617123
 20
-149.8003309087305
 30
0.0
 10
113.4717990167709
 20
-149.7562336865193
 30
0.0
 10
113.4717990167709
 20
-149.7562336865193
 30
0.0
 10
113.4993597806529
 20
-149.717993126633
 30
0.0
 10
113.5565483657081
 20
-149.6377224018267
 30
0.0
 10
113.5713622762946
 20
-149.5636528488938
 30
0.0
 10
113.5713622762946
 20
-149.5636528488938
 30
0.0
 10
113.7849581963801
 20
-149.6270426058224
 30
0.0
 10
113.7849581963801
 20
-149.6270426058224
 30
0.0
 10
113.7935709350933
 20
-149.6291096631135
 30
0.0
 10
113.8145860175533
 20
-149.6397894591178
 30
0.0
 10
113.8145860175533
 20
-149.6608045415779
 30
0.0
 10
113.8145860175533
 20
-149.6990451014641
 30
0.0
 10
113.7491292033335
 20
-149.6990451014641
 30
0.0
 10
113.7301811781647
 20
-149.6990451014641
 30
0.0
 10
113.7195013821604
 20
-149.717993126633
 30
0.0
 10
113.6960747328607
 20
-149.7583007438104
 30
0.0
 10
113.6664469116875
 20
-149.7982638514393
 30
0.0
 10
114.066422497525
 20
-149.7920626795659
 30
0.0
 10
114.0960503186982
 20
-149.7899956222747
 30
0.0
 10
114.1721869289222
 20
-149.7834499408527
 30
0.0
 10
114.1721869289222
 20
-149.7834499408527
 30
0.0
 10
114.1721869289222
 20
-149.9653509824739
 30
0.0
 10
114.1721869289222
 20
-149.9653509824739
 30
0.0
 10
114.1532389037533
 20
-149.9653509824739
 30
0.0
 10
114.1277451971625
 20
-149.9632839251828
 30
0.0
 10
113.907603595655
 20
-149.9550156960182
 30
0.0
 10
113.8569606920218
 20
-149.952948638727
 30
0.0
 10
113.6368190905144
 20
-149.9484700145962
 30
0.0
 10
113.5923773587547
 20
-149.9484700145962
 30
0.0
 10
113.5923773587547
 20
-149.9484700145962
 30
0.0
 10
113.376714381378
 20
-149.9484700145962
 30
0.0
 10
113.376714381378
 20
-149.9484700145962
 30
0.0
 10
113.376714381378
 20
-149.9484700145962
 30
0.0
 10
113.376714381378
 20
-150.0669812992888
 30
0.0
 10
113.376714381378
 20
-150.0669812992888
 30
0.0
 10
113.376714381378
 20
-150.0669812992888
 30
0.0
 10
113.5503471938346
 20
-150.0669812992888
 30
0.0
 10
113.5503471938346
 20
-150.0669812992888
 30
0.0
 10
113.7129557007384
 20
-150.0669812992888
 30
0.0
 10
113.9034694810727
 20
-150.0669812992888
 30
0.0
 10
114.0602213256516
 20
-150.056646012833
 30
0.0
 10
114.0602213256516
 20
-150.056646012833
 30
0.0
 10
114.0602213256516
 20
-150.22786725845
 30
0.0
 10
114.0602213256516
 20
-150.22786725845
 30
0.0
 10
113.8507595201484
 20
-150.2192545197369
 30
0.0
 10
113.6540445679406
 20
-150.2171874624457
 30
0.0
 10
113.5503471938346
 20
-150.2171874624457
 30
0.0
 10
113.5503471938346
 20
-150.2171874624457
 30
0.0
 10
113.376714381378
 20
-150.2171874624457
 30
0.0
 10
113.376714381378
 20
-150.2171874624457
 30
0.0
 10
113.376714381378
 20
-150.2171874624457
 30
0.0
 10
113.376714381378
 20
-150.325018951134
 30
0.0
 10
113.376714381378
 20
-150.325018951134
 30
0.0
 10
113.376714381378
 20
-150.325018951134
 30
0.0
 10
113.6071912693412
 20
-150.325018951134
 30
0.0
 10
113.6071912693412
 20
-150.325018951134
 30
0.0
 10
113.7405164646204
 20
-150.325018951134
 30
0.0
 10
114.0281819376388
 20
-150.3208848365517
 30
0.0
 10
114.237643743142
 20
-150.3146836646783
 30
0.0
 10
114.237643743142
 20
-150.3146836646783
 30
0.0
 10
114.237643743142
 20
-150.4921060821686
 30
0.0
 10
114.237643743142
 20
-150.4921060821686
 30
0.0
 10
114.045407415065
 20
-150.4859049102952
 30
0.0
 10
113.7322482354558
 20
-150.4817707957129
 30
0.0
 10
113.6071912693412
 20
-150.4817707957129
 30
0.0
  0
HATCH
  5
18F
330
183
100
AcDbEntity
  8
レイヤー 1
 62
    18
420
        0
440
 33554687
100
AcDbHatch
 10
0.0
 20
0.0
 30
0.0
210
0.0
220
0.0
230
1.0
  2
SOLID
 70
     1
 71
     1
 91
        4
 92
        1
 93
        1
 72
     4
 94
        3
 73
     0
 74
     0
 95
       17
 96
       13
 40
0.0
 40
0.0
 40
0.0
 40
0.0
 40
1.0
 40
1.0
 40
1.0
 40
2.0
 40
2.0
 40
2.0
 40
3.0
 40
3.0
 40
3.0
 40
4.0
 40
4.0
 40
4.0
 40
4.0
 10
113.7722113430847
 20
-151.2135090767799
 10
113.7722113430847
 20
-151.2135090767799
 10
113.06562225906
 20
-151.2135090767799
 10
113.06562225906
 20
-151.2135090767799
 10
113.06562225906
 20
-151.2135090767799
 10
113.06562225906
 20
-151.3278862468902
 10
113.06562225906
 20
-151.3278862468902
 10
113.06562225906
 20
-151.3278862468902
 10
113.7722113430847
 20
-151.3278862468902
 10
113.7722113430847
 20
-151.3278862468902
 10
113.7722113430847
 20
-151.3278862468902
 10
113.7722113430847
 20
-151.2135090767799
 10
113.7722113430847
 20
-151.2135090767799
 97
        0
 97
        1
330
18B
 92
        1
 93
        1
 72
     4
 94
        3
 73
     0
 74
     0
 95
       17
 96
       13
 40
0.0
 40
0.0
 40
0.0
 40
0.0
 40
1.0
 40
1.0
 40
1.0
 40
2.0
 40
2.0
 40
2.0
 40
3.0
 40
3.0
 40
3.0
 40
4.0
 40
4.0
 40
4.0
 40
4.0
 10
113.7722113430847
 20
-150.9702853355213
 10
113.7722113430847
 20
-150.9702853355213
 10
113.06562225906
 20
-150.9702853355213
 10
113.06562225906
 20
-150.9702853355213
 10
113.06562225906
 20
-150.9702853355213
 10
113.06562225906
 20
-151.0846625056316
 10
113.06562225906
 20
-151.0846625056316
 10
113.06562225906
 20
-151.0846625056316
 10
113.7722113430847
 20
-151.0846625056316
 10
113.7722113430847
 20
-151.0846625056316
 10
113.7722113430847
 20
-151.0846625056316
 10
113.7722113430847
 20
-150.9702853355213
 10
113.7722113430847
 20
-150.9702853355213
 97
        0
 97
        1
330
18C
 92
        1
 93
        1
 72
     4
 94
        3
 73
     0
 74
     0
 95
       17
 96
       13
 40
0.0
 40
0.0
 40
0.0
 40
0.0
 40
1.0
 40
1.0
 40
1.0
 40
2.0
 40
2.0
 40
2.0
 40
3.0
 40
3.0
 40
3.0
 40
4.0
 40
4.0
 40
4.0
 40
4.0
 10
113.7722113430847
 20
-150.7377413902669
 10
113.7722113430847
 20
-150.7377413902669
 10
113.06562225906
 20
-150.7377413902669
 10
113.06562225906
 20
-150.7377413902669
 10
113.06562225906
 20
-150.7377413902669
 10
113.06562225906
 20
-150.8455728789552
 10
113.06562225906
 20
-150.8455728789552
 10
113.06562225906
 20
-150.8455728789552
 10
113.7722113430847
 20
-150.8455728789552
 10
113.7722113430847
 20
-150.8455728789552
 10
113.7722113430847
 20
-150.8455728789552
 10
113.7722113430847
 20
-150.7377413902669
 10
113.7722113430847
 20
-150.7377413902669
 97
        0
 97
        1
330
18D
 92
        1
 93
        1
 72
     4
 94
        3
 73
     0
 74
     0
 95
      203
 96
      199
 40
0.0
 40
0.0
 40
0.0
 40
0.0
 40
1.0
 40
1.0
 40
1.0
 40
2.0
 40
2.0
 40
2.0
 40
3.0
 40
3.0
 40
3.0
 40
4.0
 40
4.0
 40
4.0
 40
5.0
 40
5.0
 40
5.0
 40
6.0
 40
6.0
 40
6.0
 40
7.0
 40
7.0
 40
7.0
 40
8.0
 40
8.0
 40
8.0
 40
9.0
 40
9.0
 40
9.0
 40
10.0
 40
10.0
 40
10.0
 40
11.0
 40
11.0
 40
11.0
 40
12.0
 40
12.0
 40
12.0
 40
13.0
 40
13.0
 40
13.0
 40
14.0
 40
14.0
 40
14.0
 40
15.0
 40
15.0
 40
15.0
 40
16.0
 40
16.0
 40
16.0
 40
17.0
 40
17.0
 40
17.0
 40
18.0
 40
18.0
 40
18.0
 40
19.0
 40
19.0
 40
19.0
 40
20.0
 40
20.0
 40
20.0
 40
21.0
 40
21.0
 40
21.0
 40
22.0
 40
22.0
 40
22.0
 40
23.0
 40
23.0
 40
23.0
 40
24.0
 40
24.0
 40
24.0
 40
25.0
 40
25.0
 40
25.0
 40
26.0
 40
26.0
 40
26.0
 40
27.0
 40
27.0
 40
27.0
 40
28.0
 40
28.0
 40
28.0
 40
29.0
 40
29.0
 40
29.0
 40
30.0
 40
30.0
 40
30.0
 40
31.0
 40
31.0
 40
31.0
 40
32.0
 40
32.0
 40
32.0
 40
33.0
 40
33.0
 40
33.0
 40
34.0
 40
34.0
 40
34.0
 40
35.0
 40
35.0
 40
35.0
 40
36.0
 40
36.0
 40
36.0
 40
37.0
 40
37.0
 40
37.0
 40
38.0
 40
38.0
 40
38.0
 40
39.0
 40
39.0
 40
39.0
 40
40.0
 40
40.0
 40
40.0
 40
41.0
 40
41.0
 40
41.0
 40
42.0
 40
42.0
 40
42.0
 40
43.0
 40
43.0
 40
43.0
 40
44.0
 40
44.0
 40
44.0
 40
45.0
 40
45.0
 40
45.0
 40
46.0
 40
46.0
 40
46.0
 40
47.0
 40
47.0
 40
47.0
 40
48.0
 40
48.0
 40
48.0
 40
49.0
 40
49.0
 40
49.0
 40
50.0
 40
50.0
 40
50.0
 40
51.0
 40
51.0
 40
51.0
 40
52.0
 40
52.0
 40
52.0
 40
53.0
 40
53.0
 40
53.0
 40
54.0
 40
54.0
 40
54.0
 40
55.0
 40
55.0
 40
55.0
 40
56.0
 40
56.0
 40
56.0
 40
57.0
 40
57.0
 40
57.0
 40
58.0
 40
58.0
 40
58.0
 40
59.0
 40
59.0
 40
59.0
 40
60.0
 40
60.0
 40
60.0
 40
61.0
 40
61.0
 40
61.0
 40
62.0
 40
62.0
 40
62.0
 40
63.0
 40
63.0
 40
63.0
 40
64.0
 40
64.0
 40
64.0
 40
65.0
 40
65.0
 40
65.0
 40
66.0
 40
66.0
 40
66.0
 40
66.0
 10
113.6071912693412
 20
-150.4817707957129
 10
113.6071912693412
 20
-150.4817707957129
 10
113.0487412911822
 20
-150.4817707957129
 10
113.0487412911822
 20
-150.4817707957129
 10
113.0384060047265
 20
-150.5262125274726
 10
113.0297932660134
 20
-150.5579074059369
 10
113.0170464127179
 20
-150.5958034562747
 10
113.0425401193088
 20
-150.5958034562747
 10
113.0573540298954
 20
-150.5982150231143
 10
113.0635552017688
 20
-150.5982150231143
 10
113.0635552017688
 20
-150.5982150231143
 10
113.252001924812
 20
-150.5982150231143
 10
113.252001924812
 20
-150.5982150231143
 10
113.252001924812
 20
-150.5982150231143
 10
113.6264838040586
 20
-150.5982150231143
 10
113.6264838040586
 20
-150.5982150231143
 10
113.6771267076918
 20
-150.5982150231143
 10
113.9606580661279
 20
-150.5854681698189
 10
113.9923529445922
 20
-150.5854681698189
 10
113.990285887301
 20
-150.6126844241524
 10
113.9882188300099
 20
-150.6319769588698
 10
113.9882188300099
 20
-150.6616047800429
 10
113.9861517727187
 20
-150.6932996585072
 10
113.9861517727187
 20
-150.8286919110775
 10
113.9861517727187
 20
-150.8562526749595
 10
113.9861517727187
 20
-150.8562526749595
 10
113.9861517727187
 20
-151.1015434735093
 10
113.9861517727187
 20
-151.1015434735093
 10
113.9861517727187
 20
-151.145985205269
 10
113.990285887301
 20
-151.3427001574768
 10
113.9944200018833
 20
-151.4949733779249
 10
113.9944200018833
 20
-151.4949733779249
 10
113.7680772285024
 20
-151.4949733779249
 10
113.7680772285024
 20
-151.4949733779249
 10
113.7680772285024
 20
-151.4949733779249
 10
113.7701442857935
 20
-151.4612114421694
 10
113.7701442857935
 20
-151.4612114421694
 10
113.7701442857935
 20
-151.4612114421694
 10
113.0680338258996
 20
-151.4612114421694
 10
113.0680338258996
 20
-151.4612114421694
 10
113.0680338258996
 20
-151.4612114421694
 10
113.0701008831908
 20
-151.4949733779249
 10
113.0701008831908
 20
-151.4949733779249
 10
113.0701008831908
 20
-151.4949733779249
 10
112.8520263389745
 20
-151.4949733779249
 10
112.8520263389745
 20
-151.4949733779249
 10
112.8565049631053
 20
-151.4398518501608
 10
112.8565049631053
 20
-151.427449506414
 10
112.8627061349787
 20
-151.3130723363037
 10
112.8647731922699
 20
-151.2855115724217
 10
112.8668402495611
 20
-151.1521863771425
 10
112.8668402495611
 20
-151.1332383519736
 10
112.8668402495611
 20
-151.1332383519736
 10
112.8668402495611
 20
-150.9303222278924
 10
112.8668402495611
 20
-150.9303222278924
 10
112.7273138824084
 20
-151.1797471410245
 10
112.5581596940827
 20
-151.3110052790125
 10
112.4523952626855
 20
-151.3764620932323
 10
112.4523952626855
 20
-151.3764620932323
 10
112.2787624502289
 20
-151.2369357260796
 10
112.2787624502289
 20
-151.2369357260796
 10
112.3676459137483
 20
-151.1862928224465
 10
112.5116509050318
 20
-151.0994764162182
 10
112.6491102148932
 20
-150.9048285213015
 10
112.7400607357039
 20
-150.7777044978958
 10
112.8055175499236
 20
-150.6340440161609
 10
112.839279485679
 20
-150.4817707957129
 10
112.610869655007
 20
-150.483837853004
 10
112.4310356706769
 20
-150.4900390248775
 10
112.335951035284
 20
-150.4921060821686
 10
112.335951035284
 20
-150.4921060821686
 10
112.335951035284
 20
-150.3146836646783
 10
112.335951035284
 20
-150.3146836646783
 10
112.5326659874918
 20
-150.3208848365517
 10
112.8161973459279
 20
-150.325018951134
 10
112.9664035090848
 20
-150.325018951134
 10
112.9664035090848
 20
-150.325018951134
 10
113.1799994291702
 20
-150.325018951134
 10
113.1799994291702
 20
-150.325018951134
 10
113.1799994291702
 20
-150.325018951134
 10
113.1799994291702
 20
-150.2171874624457
 10
113.1799994291702
 20
-150.2171874624457
 10
113.1799994291702
 20
-150.2171874624457
 10
113.0339273805957
 20
-150.2171874624457
 10
113.0339273805957
 20
-150.2171874624457
 10
112.8647731922699
 20
-150.2171874624457
 10
112.6956190039441
 20
-150.221321577028
 10
112.5285318729095
 20
-150.22786725845
 10
112.5285318729095
 20
-150.22786725845
 10
112.5285318729095
 20
-150.056646012833
 10
112.5285318729095
 20
-150.056646012833
 10
112.6828721506487
 20
-150.0669812992888
 10
112.8689073068522
 20
-150.0669812992888
 10
113.0339273805957
 20
-150.0669812992888
 10
113.0339273805957
 20
-150.0669812992888
 10
113.1799994291702
 20
-150.0669812992888
 10
113.1799994291702
 20
-150.0669812992888
 10
113.1799994291702
 20
-150.0669812992888
 10
113.1799994291702
 20
-149.9484700145962
 10
113.1799994291702
 20
-149.9484700145962
 10
113.1799994291702
 20
-149.9484700145962
 10
113.0487412911822
 20
-149.9484700145962
 10
113.0487412911822
 20
-149.9484700145962
 10
113.0022325021314
 20
-149.9484700145962
 10
112.7993163780502
 20
-149.9570827533093
 10
112.7569417035816
 20
-149.9570827533093
 10
112.5536810699518
 20
-149.9612168678916
 10
112.4775444597278
 20
-149.9632839251828
 10
112.3993407922126
 20
-149.9653509824739
 10
112.3993407922126
 20
-149.9653509824739
 10
112.3993407922126
 20
-149.7813828835616
 10
112.3993407922126
 20
-149.7813828835616
 10
112.5137179623229
 20
-149.7899956222747
 10
112.5581596940827
 20
-149.7899956222747
 10
112.9409098024939
 20
-149.7982638514393
 10
112.8775200455653
 20
-149.7031792160464
 10
112.8499592816833
 20
-149.6756184521644
 10
112.8141302886367
 20
-149.6397894591178
 10
112.8141302886367
 20
-149.6397894591178
 10
112.9894856488359
 20
-149.5571071674718
 10
112.9894856488359
 20
-149.5571071674718
 10
113.0297932660134
 20
-149.593280670067
 10
113.0742349977731
 20
-149.6356553445355
 10
113.148304550706
 20
-149.745553890515
 10
113.148304550706
 20
-149.745553890515
 10
113.0339273805957
 20
-149.8003309087305
 10
113.0339273805957
 20
-149.8003309087305
 10
113.0339273805957
 20
-149.8003309087305
 10
113.0446071765999
 20
-149.8003309087305
 10
113.0446071765999
 20
-149.8003309087305
 10
113.0446071765999
 20
-149.8003309087305
 10
113.5672281617123
 20
-149.8003309087305
 10
113.5672281617123
 20
-149.8003309087305
 10
113.5672281617123
 20
-149.8003309087305
 10
113.4717990167709
 20
-149.7562336865193
 10
113.4717990167709
 20
-149.7562336865193
 10
113.4993597806529
 20
-149.717993126633
 10
113.5565483657081
 20
-149.6377224018267
 10
113.5713622762946
 20
-149.5636528488938
 10
113.5713622762946
 20
-149.5636528488938
 10
113.7849581963801
 20
-149.6270426058224
 10
113.7849581963801
 20
-149.6270426058224
 10
113.7935709350933
 20
-149.6291096631135
 10
113.8145860175533
 20
-149.6397894591178
 10
113.8145860175533
 20
-149.6608045415779
 10
113.8145860175533
 20
-149.6990451014641
 10
113.7491292033335
 20
-149.6990451014641
 10
113.7301811781647
 20
-149.6990451014641
 10
113.7195013821604
 20
-149.717993126633
 10
113.6960747328607
 20
-149.7583007438104
 10
113.6664469116875
 20
-149.7982638514393
 10
114.066422497525
 20
-149.7920626795659
 10
114.0960503186982
 20
-149.7899956222747
 10
114.1721869289222
 20
-149.7834499408527
 10
114.1721869289222
 20
-149.7834499408527
 10
114.1721869289222
 20
-149.9653509824739
 10
114.1721869289222
 20
-149.9653509824739
 10
114.1532389037533
 20
-149.9653509824739
 10
114.1277451971625
 20
-149.9632839251828
 10
113.907603595655
 20
-149.9550156960182
 10
113.8569606920218
 20
-149.952948638727
 10
113.6368190905144
 20
-149.9484700145962
 10
113.5923773587547
 20
-149.9484700145962
 10
113.5923773587547
 20
-149.9484700145962
 10
113.376714381378
 20
-149.9484700145962
 10
113.376714381378
 20
-149.9484700145962
 10
113.376714381378
 20
-149.9484700145962
 10
113.376714381378
 20
-150.0669812992888
 10
113.376714381378
 20
-150.0669812992888
 10
113.376714381378
 20
-150.0669812992888
 10
113.5503471938346
 20
-150.0669812992888
 10
113.5503471938346
 20
-150.0669812992888
 10
113.7129557007384
 20
-150.0669812992888
 10
113.9034694810727
 20
-150.0669812992888
 10
114.0602213256516
 20
-150.056646012833
 10
114.0602213256516
 20
-150.056646012833
 10
114.0602213256516
 20
-150.22786725845
 10
114.0602213256516
 20
-150.22786725845
 10
113.8507595201484
 20
-150.2192545197369
 10
113.6540445679406
 20
-150.2171874624457
 10
113.5503471938346
 20
-150.2171874624457
 10
113.5503471938346
 20
-150.2171874624457
 10
113.376714381378
 20
-150.2171874624457
 10
113.376714381378
 20
-150.2171874624457
 10
113.376714381378
 20
-150.2171874624457
 10
113.376714381378
 20
-150.325018951134
 10
113.376714381378
 20
-150.325018951134
 10
113.376714381378
 20
-150.325018951134
 10
113.6071912693412
 20
-150.325018951134
 10
113.6071912693412
 20
-150.325018951134
 10
113.7405164646204
 20
-150.325018951134
 10
114.0281819376388
 20
-150.3208848365517
 10
114.237643743142
 20
-150.3146836646783
 10
114.237643743142
 20
-150.3146836646783
 10
114.237643743142
 20
-150.4921060821686
 10
114.237643743142
 20
-150.4921060821686
 10
114.045407415065
 20
-150.4859049102952
 10
113.7322482354558
 20
-150.4817707957129
 10
113.6071912693412
 20
-150.4817707957129
 97
        0
 97
        1
330
18E
 75
     2
 76
     1
 98
        1
 10
0.0
 20
0.0
450
        0
451
        0
460
0.0
461
0.0
452
        0
462
0.0
453
        0
470

  0
SPLINE
  5
190
330
183
100
AcDbEntity
  8
レイヤー 1
100
AcDbSpline
210
0.0
220
0.0
230
1.0
 70
     9
 71
     3
 72
    29
 73
    25
 74
     0
 42
0.0000000001
 43
0.0000000001
 40
0.0
 40
0.0
 40
0.0
 40
0.0
 40
1.0
 40
1.0
 40
1.0
 40
2.0
 40
2.0
 40
2.0
 40
3.0
 40
3.0
 40
3.0
 40
4.0
 40
4.0
 40
4.0
 40
5.0
 40
5.0
 40
5.0
 40
6.0
 40
6.0
 40
6.0
 40
7.0
 40
7.0
 40
7.0
 40
8.0
 40
8.0
 40
8.0
 40
8.0
 10
115.4827012515112
 20
-149.9295219894273
 30
0.0
 10
115.4827012515112
 20
-149.9295219894273
 30
0.0
 10
115.1295789642731
 20
-149.9295219894273
 30
0.0
 10
115.1295789642731
 20
-149.9295219894273
 30
0.0
 10
115.017268851454
 20
-149.9295219894273
 30
0.0
 10
114.8777424843014
 20
-149.9360676708493
 30
0.0
 10
114.7699109956131
 20
-149.9484700145962
 30
0.0
 10
114.7699109956131
 20
-149.9484700145962
 30
0.0
 10
114.7699109956131
 20
-149.7138590120507
 30
0.0
 10
114.7699109956131
 20
-149.7138590120507
 30
0.0
 10
114.8884222803056
 20
-149.7286729226373
 30
0.0
 10
115.072390379218
 20
-149.7328070372196
 30
0.0
 10
115.1295789642731
 20
-149.7328070372196
 30
0.0
 10
115.1295789642731
 20
-149.7328070372196
 30
0.0
 10
115.4827012515112
 20
-149.7328070372196
 30
0.0
 10
115.4827012515112
 20
-149.7328070372196
 30
0.0
 10
115.5019937862286
 20
-149.7328070372196
 30
0.0
 10
115.7049099103099
 20
-149.7328070372196
 30
0.0
 10
115.8465033347536
 20
-149.7138590120507
 30
0.0
 10
115.8465033347536
 20
-149.7138590120507
 30
0.0
 10
115.8465033347536
 20
-149.9484700145962
 30
0.0
 10
115.8465033347536
 20
-149.9484700145962
 30
0.0
 10
115.6900959997233
 20
-149.9295219894273
 30
0.0
 10
115.499582219389
 20
-149.9295219894273
 30
0.0
 10
115.4827012515112
 20
-149.9295219894273
 30
0.0
  0
SPLINE
  5
191
330
183
100
AcDbEntity
  8
レイヤー 1
100
AcDbSpline
210
0.0
220
0.0
230
1.0
 70
     9
 71
     3
 72
    47
 73
    43
 74
     0
 42
0.0000000001
 43
0.0000000001
 40
0.0
 40
0.0
 40
0.0
 40
0.0
 40
1.0
 40
1.0
 40
1.0
 40
2.0
 40
2.0
 40
2.0
 40
3.0
 40
3.0
 40
3.0
 40
4.0
 40
4.0
 40
4.0
 40
5.0
 40
5.0
 40
5.0
 40
6.0
 40
6.0
 40
6.0
 40
7.0
 40
7.0
 40
7.0
 40
8.0
 40
8.0
 40
8.0
 40
9.0
 40
9.0
 40
9.0
 40
10.0
 40
10.0
 40
10.0
 40
11.0
 40
11.0
 40
11.0
 40
12.0
 40
12.0
 40
12.0
 40
13.0
 40
13.0
 40
13.0
 40
14.0
 40
14.0
 40
14.0
 40
14.0
 10
115.5843315683261
 20
-150.4583441464132
 30
0.0
 10
115.5843315683261
 20
-150.4583441464132
 30
0.0
 10
115.4827012515112
 20
-150.4583441464132
 30
0.0
 10
115.4827012515112
 20
-150.4583441464132
 30
0.0
 10
115.4827012515112
 20
-150.5451605526415
 30
0.0
 10
115.4616861690512
 20
-150.9344563424747
 30
0.0
 10
115.2649712168435
 20
-151.1542534344336
 30
0.0
 10
115.1126979963954
 20
-151.3237521323079
 30
0.0
 10
114.9053032481834
 20
-151.39334306111
 30
0.0
 10
114.8205538992462
 20
-151.420903824992
 30
0.0
 10
114.8205538992462
 20
-151.420903824992
 30
0.0
 10
114.6259060043296
 20
-151.2538166939574
 30
0.0
 10
114.6259060043296
 20
-151.2538166939574
 30
0.0
 10
114.7234022065622
 20
-151.2410698406619
 30
0.0
 10
114.8987575667614
 20
-151.2179877009108
 30
0.0
 10
115.0872042898046
 20
-151.0295409778676
 30
0.0
 10
115.1612738427374
 20
-150.9575384822259
 30
0.0
 10
115.2649712168435
 20
-150.8180121150733
 30
0.0
 10
115.2649712168435
 20
-150.4583441464132
 30
0.0
 10
115.2649712168435
 20
-150.4583441464132
 30
0.0
 10
115.0341498193317
 20
-150.4583441464132
 30
0.0
 10
115.0341498193317
 20
-150.4583441464132
 30
0.0
 10
114.8481146631282
 20
-150.4583441464132
 30
0.0
 10
114.6620795069247
 20
-150.462822770544
 30
0.0
 10
114.4756998411727
 20
-150.4776366811306
 30
0.0
 10
114.4756998411727
 20
-150.4776366811306
 30
0.0
 10
114.4756998411727
 20
-150.2574950796231
 30
0.0
 10
114.4756998411727
 20
-150.2574950796231
 30
0.0
 10
114.6641465642159
 20
-150.2723089902097
 30
0.0
 10
114.9497449799431
 20
-150.276443104792
 30
0.0
 10
115.0341498193317
 20
-150.276443104792
 30
0.0
 10
115.0341498193317
 20
-150.276443104792
 30
0.0
 10
115.5843315683261
 20
-150.276443104792
 30
0.0
 10
115.5843315683261
 20
-150.276443104792
 30
0.0
 10
115.603279593495
 20
-150.276443104792
 30
0.0
 10
115.9205728876865
 20
-150.276443104792
 30
0.0
 10
116.1493272279071
 20
-150.2574950796231
 30
0.0
 10
116.1493272279071
 20
-150.2574950796231
 30
0.0
 10
116.1493272279071
 20
-150.4776366811306
 30
0.0
 10
116.1493272279071
 20
-150.4776366811306
 30
0.0
 10
115.9608805048639
 20
-150.462822770544
 30
0.0
 10
115.7727782913693
 20
-150.4583441464132
 30
0.0
 10
115.5843315683261
 20
-150.4583441464132
 30
0.0
  0
HATCH
  5
192
330
183
100
AcDbEntity
  8
レイヤー 1
 62
    18
420
        0
440
 33554687
100
AcDbHatch
 10
0.0
 20
0.0
 30
0.0
210
0.0
220
0.0
230
1.0
  2
SOLID
 70
     1
 71
     1
 91
        2
 92
        1
 93
        1
 72
     4
 94
        3
 73
     0
 74
     0
 95
       29
 96
       25
 40
0.0
 40
0.0
 40
0.0
 40
0.0
 40
1.0
 40
1.0
 40
1.0
 40
2.0
 40
2.0
 40
2.0
 40
3.0
 40
3.0
 40
3.0
 40
4.0
 40
4.0
 40
4.0
 40
5.0
 40
5.0
 40
5.0
 40
6.0
 40
6.0
 40
6.0
 40
7.0
 40
7.0
 40
7.0
 40
8.0
 40
8.0
 40
8.0
 40
8.0
 10
115.4827012515112
 20
-149.9295219894273
 10
115.4827012515112
 20
-149.9295219894273
 10
115.1295789642731
 20
-149.9295219894273
 10
115.1295789642731
 20
-149.9295219894273
 10
115.017268851454
 20
-149.9295219894273
 10
114.8777424843014
 20
-149.9360676708493
 10
114.7699109956131
 20
-149.9484700145962
 10
114.7699109956131
 20
-149.9484700145962
 10
114.7699109956131
 20
-149.7138590120507
 10
114.7699109956131
 20
-149.7138590120507
 10
114.8884222803056
 20
-149.7286729226373
 10
115.072390379218
 20
-149.7328070372196
 10
115.1295789642731
 20
-149.7328070372196
 10
115.1295789642731
 20
-149.7328070372196
 10
115.4827012515112
 20
-149.7328070372196
 10
115.4827012515112
 20
-149.7328070372196
 10
115.5019937862286
 20
-149.7328070372196
 10
115.7049099103099
 20
-149.7328070372196
 10
115.8465033347536
 20
-149.7138590120507
 10
115.8465033347536
 20
-149.7138590120507
 10
115.8465033347536
 20
-149.9484700145962
 10
115.8465033347536
 20
-149.9484700145962
 10
115.6900959997233
 20
-149.9295219894273
 10
115.499582219389
 20
-149.9295219894273
 10
115.4827012515112
 20
-149.9295219894273
 97
        0
 97
        1
330
190
 92
        1
 93
        1
 72
     4
 94
        3
 73
     0
 74
     0
 95
       47
 96
       43
 40
0.0
 40
0.0
 40
0.0
 40
0.0
 40
1.0
 40
1.0
 40
1.0
 40
2.0
 40
2.0
 40
2.0
 40
3.0
 40
3.0
 40
3.0
 40
4.0
 40
4.0
 40
4.0
 40
5.0
 40
5.0
 40
5.0
 40
6.0
 40
6.0
 40
6.0
 40
7.0
 40
7.0
 40
7.0
 40
8.0
 40
8.0
 40
8.0
 40
9.0
 40
9.0
 40
9.0
 40
10.0
 40
10.0
 40
10.0
 40
11.0
 40
11.0
 40
11.0
 40
12.0
 40
12.0
 40
12.0
 40
13.0
 40
13.0
 40
13.0
 40
14.0
 40
14.0
 40
14.0
 40
14.0
 10
115.5843315683261
 20
-150.4583441464132
 10
115.5843315683261
 20
-150.4583441464132
 10
115.4827012515112
 20
-150.4583441464132
 10
115.4827012515112
 20
-150.4583441464132
 10
115.4827012515112
 20
-150.5451605526415
 10
115.4616861690512
 20
-150.9344563424747
 10
115.2649712168435
 20
-151.1542534344336
 10
115.1126979963954
 20
-151.3237521323079
 10
114.9053032481834
 20
-151.39334306111
 10
114.8205538992462
 20
-151.420903824992
 10
114.8205538992462
 20
-151.420903824992
 10
114.6259060043296
 20
-151.2538166939574
 10
114.6259060043296
 20
-151.2538166939574
 10
114.7234022065622
 20
-151.2410698406619
 10
114.8987575667614
 20
-151.2179877009108
 10
115.0872042898046
 20
-151.0295409778676
 10
115.1612738427374
 20
-150.9575384822259
 10
115.2649712168435
 20
-150.8180121150733
 10
115.2649712168435
 20
-150.4583441464132
 10
115.2649712168435
 20
-150.4583441464132
 10
115.0341498193317
 20
-150.4583441464132
 10
115.0341498193317
 20
-150.4583441464132
 10
114.8481146631282
 20
-150.4583441464132
 10
114.6620795069247
 20
-150.462822770544
 10
114.4756998411727
 20
-150.4776366811306
 10
114.4756998411727
 20
-150.4776366811306
 10
114.4756998411727
 20
-150.2574950796231
 10
114.4756998411727
 20
-150.2574950796231
 10
114.6641465642159
 20
-150.2723089902097
 10
114.9497449799431
 20
-150.276443104792
 10
115.0341498193317
 20
-150.276443104792
 10
115.0341498193317
 20
-150.276443104792
 10
115.5843315683261
 20
-150.276443104792
 10
115.5843315683261
 20
-150.276443104792
 10
115.603279593495
 20
-150.276443104792
 10
115.9205728876865
 20
-150.276443104792
 10
116.1493272279071
 20
-150.2574950796231
 10
116.1493272279071
 20
-150.2574950796231
 10
116.1493272279071
 20
-150.4776366811306
 10
116.1493272279071
 20
-150.4776366811306
 10
115.9608805048639
 20
-150.462822770544
 10
115.7727782913693
 20
-150.4583441464132
 10
115.5843315683261
 20
-150.4583441464132
 97
        0
 97
        1
330
191
 75
     2
 76
     1
 98
        1
 10
0.0
 20
0.0
450
        0
451
        0
460
0.0
461
0.0
452
        0
462
0.0
453
        0
470

  0
SPLINE
  5
193
330
183
100
AcDbEntity
  8
レイヤー 1
100
AcDbSpline
210
0.0
220
0.0
230
1.0
 70
     9
 71
     3
 72
    29
 73
    25
 74
     0
 42
0.0000000001
 43
0.0000000001
 40
0.0
 40
0.0
 40
0.0
 40
0.0
 40
1.0
 40
1.0
 40
1.0
 40
2.0
 40
2.0
 40
2.0
 40
3.0
 40
3.0
 40
3.0
 40
4.0
 40
4.0
 40
4.0
 40
5.0
 40
5.0
 40
5.0
 40
6.0
 40
6.0
 40
6.0
 40
7.0
 40
7.0
 40
7.0
 40
8.0
 40
8.0
 40
8.0
 40
8.0
 10
117.430213729323
 20
-150.6212971628655
 30
0.0
 10
117.430213729323
 20
-150.6212971628655
 30
0.0
 10
116.9458333040969
 20
-150.6212971628655
 30
0.0
 10
116.9458333040969
 20
-150.6212971628655
 30
0.0
 10
116.9182725402149
 20
-150.6212971628655
 30
0.0
 10
116.6009792460233
 20
-150.6212971628655
 30
0.0
 10
116.389450383229
 20
-150.6467908694563
 30
0.0
 10
116.389450383229
 20
-150.6467908694563
 30
0.0
 10
116.389450383229
 20
-150.4159694719446
 30
0.0
 10
116.389450383229
 20
-150.4159694719446
 30
0.0
 10
116.5479247755505
 20
-150.4393961212443
 30
0.0
 10
116.7384385558848
 20
-150.4414631785355
 30
0.0
 10
116.9458333040969
 20
-150.4414631785355
 30
0.0
 10
116.9458333040969
 20
-150.4414631785355
 30
0.0
 10
117.430213729323
 20
-150.4414631785355
 30
0.0
 10
117.430213729323
 20
-150.4414631785355
 30
0.0
 10
117.6162488855265
 20
-150.4414631785355
 30
0.0
 10
117.80228404173
 20
-150.4393961212443
 30
0.0
 10
117.9865966501908
 20
-150.4159694719446
 30
0.0
 10
117.9865966501908
 20
-150.4159694719446
 30
0.0
 10
117.9865966501908
 20
-150.6467908694563
 30
0.0
 10
117.9865966501908
 20
-150.6467908694563
 30
0.0
 10
117.80228404173
 20
-150.6233642201566
 30
0.0
 10
117.554926185889
 20
-150.6212971628655
 30
0.0
 10
117.430213729323
 20
-150.6212971628655
 30
0.0
  0
HATCH
  5
194
330
183
100
AcDbEntity
  8
レイヤー 1
 62
    18
420
        0
440
 33554687
100
AcDbHatch
 10
0.0
 20
0.0
 30
0.0
210
0.0
220
0.0
230
1.0
  2
SOLID
 70
     1
 71
     1
 91
        1
 92
        1
 93
        1
 72
     4
 94
        3
 73
     0
 74
     0
 95
       29
 96
       25
 40
0.0
 40
0.0
 40
0.0
 40
0.0
 40
1.0
 40
1.0
 40
1.0
 40
2.0
 40
2.0
 40
2.0
 40
3.0
 40
3.0
 40
3.0
 40
4.0
 40
4.0
 40
4.0
 40
5.0
 40
5.0
 40
5.0
 40
6.0
 40
6.0
 40
6.0
 40
7.0
 40
7.0
 40
7.0
 40
8.0
 40
8.0
 40
8.0
 40
8.0
 10
117.430213729323
 20
-150.6212971628655
 10
117.430213729323
 20
-150.6212971628655
 10
116.9458333040969
 20
-150.6212971628655
 10
116.9458333040969
 20
-150.6212971628655
 10
116.9182725402149
 20
-150.6212971628655
 10
116.6009792460233
 20
-150.6212971628655
 10
116.389450383229
 20
-150.6467908694563
 10
116.389450383229
 20
-150.6467908694563
 10
116.389450383229
 20
-150.4159694719446
 10
116.389450383229
 20
-150.4159694719446
 10
116.5479247755505
 20
-150.4393961212443
 10
116.7384385558848
 20
-150.4414631785355
 10
116.9458333040969
 20
-150.4414631785355
 10
116.9458333040969
 20
-150.4414631785355
 10
117.430213729323
 20
-150.4414631785355
 10
117.430213729323
 20
-150.4414631785355
 10
117.6162488855265
 20
-150.4414631785355
 10
117.80228404173
 20
-150.4393961212443
 10
117.9865966501908
 20
-150.4159694719446
 10
117.9865966501908
 20
-150.4159694719446
 10
117.9865966501908
 20
-150.6467908694563
 10
117.9865966501908
 20
-150.6467908694563
 10
117.80228404173
 20
-150.6233642201566
 10
117.554926185889
 20
-150.6212971628655
 10
117.430213729323
 20
-150.6212971628655
 97
        0
 97
        1
330
193
 75
     2
 76
     1
 98
        1
 10
0.0
 20
0.0
450
        0
451
        0
460
0.0
461
0.0
452
        0
462
0.0
453
        0
470

  0
SPLINE
  5
195
330
183
100
AcDbEntity
  8
レイヤー 1
100
AcDbSpline
210
0.0
220
0.0
230
1.0
 70
     9
 71
     3
 72
    47
 73
    43
 74
     0
 42
0.0000000001
 43
0.0000000001
 40
0.0
 40
0.0
 40
0.0
 40
0.0
 40
1.0
 40
1.0
 40
1.0
 40
2.0
 40
2.0
 40
2.0
 40
3.0
 40
3.0
 40
3.0
 40
4.0
 40
4.0
 40
4.0
 40
5.0
 40
5.0
 40
5.0
 40
6.0
 40
6.0
 40
6.0
 40
7.0
 40
7.0
 40
7.0
 40
8.0
 40
8.0
 40
8.0
 40
9.0
 40
9.0
 40
9.0
 40
10.0
 40
10.0
 40
10.0
 40
11.0
 40
11.0
 40
11.0
 40
12.0
 40
12.0
 40
12.0
 40
13.0
 40
13.0
 40
13.0
 40
14.0
 40
14.0
 40
14.0
 40
14.0
 10
119.650233260018
 20
-150.0270181916599
 30
0.0
 10
119.5806423312159
 20
-150.3060709259651
 30
0.0
 10
119.5041612114434
 20
-150.6106173668612
 30
0.0
 10
119.1913465413827
 20
-150.9427245716393
 30
0.0
 10
118.9543239719975
 20
-151.1924939943199
 30
0.0
 10
118.7090331734477
 20
-151.2920572538436
 30
0.0
 10
118.6032687420506
 20
-151.3340874187637
 30
0.0
 10
118.6032687420506
 20
-151.3340874187637
 30
0.0
 10
118.4086208471339
 20
-151.1521863771425
 30
0.0
 10
118.4086208471339
 20
-151.1521863771425
 30
0.0
 10
118.5946560033374
 20
-151.1056775880916
 30
0.0
 10
118.9563910292886
 20
-151.0126600099899
 30
0.0
 10
119.2526692410202
 20
-150.5175997887595
 30
0.0
 10
119.4132106906328
 20
-150.2509493982011
 30
0.0
 10
119.4259575439282
 20
-150.0776610952931
 30
0.0
 10
119.4345702826413
 20
-149.9867105744825
 30
0.0
 10
119.4345702826413
 20
-149.9867105744825
 30
0.0
 10
118.9288302654067
 20
-149.9867105744825
 30
0.0
 10
118.9288302654067
 20
-149.9867105744825
 30
0.0
 10
118.8103189807141
 20
-149.9867105744825
 30
0.0
 10
118.3893283124165
 20
-150.0056585996514
 30
0.0
 10
118.2370550919685
 20
-150.0163383956556
 30
0.0
 10
118.2370550919685
 20
-150.0163383956556
 30
0.0
 10
118.2370550919685
 20
-149.8068765901524
 30
0.0
 10
118.2370550919685
 20
-149.8068765901524
 30
0.0
 10
118.3789930259608
 20
-149.8196234434479
 30
0.0
 10
118.6559787029749
 20
-149.8237575580301
 30
0.0
 10
118.7724229303763
 20
-149.8237575580301
 30
0.0
 10
118.7724229303763
 20
-149.8237575580301
 30
0.0
 10
119.1276122749056
 20
-149.8237575580301
 30
0.0
 10
119.1276122749056
 20
-149.8237575580301
 30
0.0
 10
119.1551730387876
 20
-149.8237575580301
 30
0.0
 10
119.3160589979487
 20
-149.821690500739
 30
0.0
 10
119.4259575439282
 20
-149.8068765901524
 30
0.0
 10
119.4831461289834
 20
-149.8003309087305
 30
0.0
 10
119.5000270968611
 20
-149.7813828835616
 30
0.0
 10
119.5234537461608
 20
-149.7583007438104
 30
0.0
 10
119.5234537461608
 20
-149.7583007438104
 30
0.0
 10
119.7115559596554
 20
-149.9085069069673
 30
0.0
 10
119.7115559596554
 20
-149.9085069069673
 30
0.0
 10
119.6967420490689
 20
-149.9381347281405
 30
0.0
 10
119.6864067626131
 20
-149.9570827533093
 30
0.0
 10
119.650233260018
 20
-150.0270181916599
 30
0.0
  0
HATCH
  5
196
330
183
100
AcDbEntity
  8
レイヤー 1
 62
    18
420
        0
440
 33554687
100
AcDbHatch
 10
0.0
 20
0.0
 30
0.0
210
0.0
220
0.0
230
1.0
  2
SOLID
 70
     1
 71
     1
 91
        1
 92
        1
 93
        1
 72
     4
 94
        3
 73
     0
 74
     0
 95
       47
 96
       43
 40
0.0
 40
0.0
 40
0.0
 40
0.0
 40
1.0
 40
1.0
 40
1.0
 40
2.0
 40
2.0
 40
2.0
 40
3.0
 40
3.0
 40
3.0
 40
4.0
 40
4.0
 40
4.0
 40
5.0
 40
5.0
 40
5.0
 40
6.0
 40
6.0
 40
6.0
 40
7.0
 40
7.0
 40
7.0
 40
8.0
 40
8.0
 40
8.0
 40
9.0
 40
9.0
 40
9.0
 40
10.0
 40
10.0
 40
10.0
 40
11.0
 40
11.0
 40
11.0
 40
12.0
 40
12.0
 40
12.0
 40
13.0
 40
13.0
 40
13.0
 40
14.0
 40
14.0
 40
14.0
 40
14.0
 10
119.650233260018
 20
-150.0270181916599
 10
119.5806423312159
 20
-150.3060709259651
 10
119.5041612114434
 20
-150.6106173668612
 10
119.1913465413827
 20
-150.9427245716393
 10
118.9543239719975
 20
-151.1924939943199
 10
118.7090331734477
 20
-151.2920572538436
 10
118.6032687420506
 20
-151.3340874187637
 10
118.6032687420506
 20
-151.3340874187637
 10
118.4086208471339
 20
-151.1521863771425
 10
118.4086208471339
 20
-151.1521863771425
 10
118.5946560033374
 20
-151.1056775880916
 10
118.9563910292886
 20
-151.0126600099899
 10
119.2526692410202
 20
-150.5175997887595
 10
119.4132106906328
 20
-150.2509493982011
 10
119.4259575439282
 20
-150.0776610952931
 10
119.4345702826413
 20
-149.9867105744825
 10
119.4345702826413
 20
-149.9867105744825
 10
118.9288302654067
 20
-149.9867105744825
 10
118.9288302654067
 20
-149.9867105744825
 10
118.8103189807141
 20
-149.9867105744825
 10
118.3893283124165
 20
-150.0056585996514
 10
118.2370550919685
 20
-150.0163383956556
 10
118.2370550919685
 20
-150.0163383956556
 10
118.2370550919685
 20
-149.8068765901524
 10
118.2370550919685
 20
-149.8068765901524
 10
118.3789930259608
 20
-149.8196234434479
 10
118.6559787029749
 20
-149.8237575580301
 10
118.7724229303763
 20
-149.8237575580301
 10
118.7724229303763
 20
-149.8237575580301
 10
119.1276122749056
 20
-149.8237575580301
 10
119.1276122749056
 20
-149.8237575580301
 10
119.1551730387876
 20
-149.8237575580301
 10
119.3160589979487
 20
-149.821690500739
 10
119.4259575439282
 20
-149.8068765901524
 10
119.4831461289834
 20
-149.8003309087305
 10
119.5000270968611
 20
-149.7813828835616
 10
119.5234537461608
 20
-149.7583007438104
 10
119.5234537461608
 20
-149.7583007438104
 10
119.7115559596554
 20
-149.9085069069673
 10
119.7115559596554
 20
-149.9085069069673
 10
119.6967420490689
 20
-149.9381347281405
 10
119.6864067626131
 20
-149.9570827533093
 10
119.650233260018
 20
-150.0270181916599
 97
        0
 97
        1
330
195
 75
     2
 76
     1
 98
        1
 10
0.0
 20
0.0
450
        0
451
        0
460
0.0
461
0.0
452
        0
462
0.0
453
        0
470

  0
SPLINE
  5
197
330
183
100
AcDbEntity
  8
レイヤー 1
100
AcDbSpline
210
0.0
220
0.0
230
1.0
 70
    11
 71
     3
 72
    17
 73
    13
 74
     0
 42
0.0000000001
 43
0.0000000001
 40
0.0
 40
0.0
 40
0.0
 40
0.0
 40
1.0
 40
1.0
 40
1.0
 40
2.0
 40
2.0
 40
2.0
 40
3.0
 40
3.0
 40
3.0
 40
4.0
 40
4.0
 40
4.0
 40
4.0
 10
120.0405625784968
 20
-149.8089436474436
 30
0.0
 10
120.0405625784968
 20
-149.8681992897899
 30
0.0
 10
120.0870713675477
 20
-149.9147080788407
 30
0.0
 10
120.146327009894
 20
-149.9147080788407
 30
0.0
 10
120.2055826522403
 20
-149.9147080788407
 30
0.0
 10
120.2541584985823
 20
-149.8681992897899
 30
0.0
 10
120.2541584985823
 20
-149.8089436474436
 30
0.0
 10
120.2541584985823
 20
-149.7496880050973
 30
0.0
 10
120.2055826522403
 20
-149.7011121587553
 30
0.0
 10
120.146327009894
 20
-149.7011121587553
 30
0.0
 10
120.0870713675477
 20
-149.7011121587553
 30
0.0
 10
120.0405625784968
 20
-149.7496880050973
 30
0.0
 10
120.0405625784968
 20
-149.8089436474436
 30
0.0
  0
SPLINE
  5
198
330
183
100
AcDbEntity
  8
レイヤー 1
100
AcDbSpline
210
0.0
220
0.0
230
1.0
 70
     9
 71
     3
 72
    17
 73
    13
 74
     0
 42
0.0000000001
 43
0.0000000001
 40
0.0
 40
0.0
 40
0.0
 40
0.0
 40
1.0
 40
1.0
 40
1.0
 40
2.0
 40
2.0
 40
2.0
 40
3.0
 40
3.0
 40
3.0
 40
4.0
 40
4.0
 40
4.0
 40
4.0
 10
120.3557888153971
 20
-149.8089436474436
 30
0.0
 10
120.3557888153971
 20
-149.9233208175539
 30
0.0
 10
120.2627712372954
 20
-150.0184054529468
 30
0.0
 10
120.146327009894
 20
-150.0184054529468
 30
0.0
 10
120.0319498397837
 20
-150.0184054529468
 30
0.0
 10
119.9368652043908
 20
-149.9233208175539
 30
0.0
 10
119.9368652043908
 20
-149.8089436474436
 30
0.0
 10
119.9368652043908
 20
-149.6924994200421
 30
0.0
 10
120.0319498397837
 20
-149.5994818419404
 30
0.0
 10
120.146327009894
 20
-149.5994818419404
 30
0.0
 10
120.2607041800042
 20
-149.5994818419404
 30
0.0
 10
120.3557888153971
 20
-149.6924994200421
 30
0.0
 10
120.3557888153971
 20
-149.8089436474436
 30
0.0
  0
HATCH
  5
199
330
183
100
AcDbEntity
  8
レイヤー 1
 62
    18
420
        0
440
 33554687
100
AcDbHatch
 10
0.0
 20
0.0
 30
0.0
210
0.0
220
0.0
230
1.0
  2
SOLID
 70
     1
 71
     1
 91
        2
 92
        1
 93
        1
 72
     4
 94
        3
 73
     0
 74
     0
 95
       17
 96
       13
 40
0.0
 40
0.0
 40
0.0
 40
0.0
 40
1.0
 40
1.0
 40
1.0
 40
2.0
 40
2.0
 40
2.0
 40
3.0
 40
3.0
 40
3.0
 40
4.0
 40
4.0
 40
4.0
 40
4.0
 10
120.0405625784968
 20
-149.8089436474436
 10
120.0405625784968
 20
-149.8681992897899
 10
120.0870713675477
 20
-149.9147080788407
 10
120.146327009894
 20
-149.9147080788407
 10
120.2055826522403
 20
-149.9147080788407
 10
120.2541584985823
 20
-149.8681992897899
 10
120.2541584985823
 20
-149.8089436474436
 10
120.2541584985823
 20
-149.7496880050973
 10
120.2055826522403
 20
-149.7011121587553
 10
120.146327009894
 20
-149.7011121587553
 10
120.0870713675477
 20
-149.7011121587553
 10
120.0405625784968
 20
-149.7496880050973
 10
120.0405625784968
 20
-149.8089436474436
 97
        0
 97
        1
330
197
 92
        1
 93
        1
 72
     4
 94
        3
 73
     0
 74
     0
 95
       17
 96
       13
 40
0.0
 40
0.0
 40
0.0
 40
0.0
 40
1.0
 40
1.0
 40
1.0
 40
2.0
 40
2.0
 40
2.0
 40
3.0
 40
3.0
 40
3.0
 40
4.0
 40
4.0
 40
4.0
 40
4.0
 10
120.3557888153971
 20
-149.8089436474436
 10
120.3557888153971
 20
-149.9233208175539
 10
120.2627712372954
 20
-150.0184054529468
 10
120.146327009894
 20
-150.0184054529468
 10
120.0319498397837
 20
-150.0184054529468
 10
119.9368652043908
 20
-149.9233208175539
 10
119.9368652043908
 20
-149.8089436474436
 10
119.9368652043908
 20
-149.6924994200421
 10
120.0319498397837
 20
-149.5994818419404
 10
120.146327009894
 20
-149.5994818419404
 10
120.2607041800042
 20
-149.5994818419404
 10
120.3557888153971
 20
-149.6924994200421
 10
120.3557888153971
 20
-149.8089436474436
 97
        0
 97
        1
330
198
 75
     2
 76
     1
 98
        1
 10
0.0
 20
0.0
450
        0
451
        0
460
0.0
461
0.0
452
        0
462
0.0
453
        0
470

  0
ENDBLK
  5
186
330
183
100
AcDbEntity
  8
0
100
AcDbBlockEnd
  0
ENDSEC
  0
SECTION
  2
ENTITIES
  0
INSERT
  5
7A
330
70
100
AcDbEntity
  8
レイヤー 1
100
AcDbBlockReference
  2
Block_0
 10
0.0
 20
0.0
 30
0.0
  0
INSERT
  5
B4
330
70
100
AcDbEntity
  8
レイヤー 1
100
AcDbBlockReference
  2
Block_1
 10
0.0
 20
0.0
 30
0.0
  0
INSERT
  5
175
330
70
100
AcDbEntity
  8
レイヤー 1
100
AcDbBlockReference
  2
Block_12
 10
0.0
 20
0.0
 30
0.0
  0
ENDSEC
  0
SECTION
  2
OBJECTS
  0
DICTIONARY
  5
C
330
0
100
AcDbDictionary
281
     1
  3
ACAD_COLOR
350
63
  3
ACAD_DETAILVIEWSTYLE
350
6A
  3
ACAD_GROUP
350
D
  3
ACAD_LAYOUT
350
62
  3
ACAD_MATERIAL
350
10
  3
ACAD_MLEADERSTYLE
350
66
  3
ACAD_MLINESTYLE
350
5F
  3
ACAD_PLOTSETTINGS
350
61
  3
ACAD_PLOTSTYLENAME
350
E
  3
ACAD_SCALELIST
350
42
  3
ACAD_SECTIONVIEWSTYLE
350
68
  3
ACAD_TABLESTYLE
350
64
  3
ACAD_VISUALSTYLE
350
29
  3
ACDB_RECOMPOSE_DATA
350
1A2
  3
AcDbVariableDictionary
350
19A
  0
DICTIONARY
  5
63
102
{ACAD_REACTORS
330
C
102
}
330
C
100
AcDbDictionary
281
     1
  0
DICTIONARY
  5
6A
102
{ACAD_REACTORS
330
C
102
}
330
C
100
AcDbDictionary
281
     1
  3
Imperial24
350
6B
  0
DICTIONARY
  5
D
102
{ACAD_REACTORS
330
C
102
}
330
C
100
AcDbDictionary
281
     1
  0
DICTIONARY
  5
62
102
{ACAD_REACTORS
330
C
102
}
330
C
100
AcDbDictionary
281
     1
  3
Layout1
350
6F
  3
Layout2
350
77
  3
Model
350
73
  0
DICTIONARY
  5
10
102
{ACAD_REACTORS
330
C
102
}
330
C
100
AcDbDictionary
281
     1
  3
ByBlock
350
19
  3
ByLayer
350
11
  3
Global
350
21
  0
DICTIONARY
  5
66
102
{ACAD_REACTORS
330
C
102
}
330
C
100
AcDbDictionary
281
     1
  3
Standard
350
67
  0
DICTIONARY
  5
5F
102
{ACAD_REACTORS
330
C
102
}
330
C
100
AcDbDictionary
281
     1
  3
Standard
350
60
  0
DICTIONARY
  5
61
102
{ACAD_REACTORS
330
C
102
}
330
C
100
AcDbDictionary
281
     1
  0
ACDBDICTIONARYWDFLT
  5
E
102
{ACAD_REACTORS
330
C
102
}
330
C
100
AcDbDictionary
281
     1
  3
Normal
350
F
100
AcDbDictionaryWithDefault
340
F
  0
DICTIONARY
  5
42
102
{ACAD_REACTORS
330
C
102
}
330
C
100
AcDbDictionary
281
     1
  3
A0
350
43
  3
A1
350
44
  3
A2
350
45
  3
A3
350
46
  3
A4
350
47
  3
A5
350
48
  3
A6
350
49
  3
A7
350
4A
  3
A8
350
4B
  3
A9
350
4C
  3
B0
350
4D
  3
B1
350
4E
  3
B2
350
4F
  3
B3
350
50
  3
B4
350
51
  3
B5
350
52
  3
B6
350
53
  0
DICTIONARY
  5
68
102
{ACAD_REACTORS
330
C
102
}
330
C
100
AcDbDictionary
281
     1
  3
Imperial24
350
69
  0
DICTIONARY
  5
64
102
{ACAD_REACTORS
330
C
102
}
330
C
100
AcDbDictionary
281
     1
  3
Standard
350
65
  0
DICTIONARY
  5
29
102
{ACAD_REACTORS
330
C
102
}
330
C
100
AcDbDictionary
281
     1
  3
2dWireframe
350
2F
  3
Basic
350
2E
  3
Brighten
350
35
  3
ColorChange
350
39
  3
Conceptual
350
32
  3
Dim
350
34
  3
EdgeColorOff
350
41
  3
Facepattern
350
38
  3
Flat
350
2A
  3
FlatWithEdges
350
2B
  3
Gouraud
350
2C
  3
GouraudWithEdges
350
2D
  3
Hidden
350
31
  3
JitterOff
350
3F
  3
Linepattern
350
37
  3
OverhangOff
350
40
  3
Realistic
350
33
  3
Shaded
350
3E
  3
Shaded with edges
350
3D
  3
Shades of Gray
350
3A
  3
Sketchy
350
3B
  3
Thicken
350
36
  3
Wireframe
350
30
  3
X-Ray
350
3C
  0
XRECORD
  5
1A2
102
{ACAD_REACTORS
330
C
102
}
330
C
100
AcDbXrecord
280
     1
 90
        1
330
65
  0
DICTIONARY
  5
19A
102
{ACAD_REACTORS
330
C
102
}
330
C
100
AcDbDictionary
281
     1
  3
CANNOSCALE
350
19F
  3
CMLEADERSTYLE
350
19C
  3
CTABLESTYLE
350
19B
  3
CVIEWDETAILSTYLE
350
19D
  3
CVIEWSECTIONSTYLE
350
19E
  0
ACDBDETAILVIEWSTYLE
  5
6B
102
{ACAD_XDICTIONARY
360
1D7
102
}
102
{ACAD_REACTORS
330
6A
102
}
330
6A
100
AcDbModelDocViewStyle
 70
     0
  3
Imperial24
290
     0
100
AcDbDetailViewStyle
 70
     0
 71
     0
 90
        3
 71
     1
340
55
 62
   256
 40
0.24
340
0
 62
   256
 40
0.24
300

 40
0.36
280
     3
 71
     2
340
5D
 90
       25
 62
   256
 71
     3
340
55
 62
   256
 40
0.24
 90
        1
 40
0.75
 90
        1
300
%<\AcVar ViewType \f "%tc1">% %<\AcVar ViewDetailId>%\PSCALE %<\AcVar ViewScale \f "%sn">%
 71
     4
340
5D
 90
       25
 62
   256
340
5D
 90
       25
 62
   256
280
     0
  0
LAYOUT
  5
6F
102
{ACAD_REACTORS
330
62
102
}
330
62
100
AcDbPlotSettings
  1

  2

  4

  6

 40
0.0
 41
0.0
 42
0.0
 43
0.0
 44
0.0
 45
0.0
 46
0.0
 47
0.0
 48
0.0
 49
0.0
140
0.0
141
0.0
142
1.0
143
1.0
 70
   688
 72
     0
 73
     0
 74
     5
  7

 75
    16
147
1.0
 76
     0
 77
     2
 78
   300
148
0.0
149
0.0
100
AcDbLayout
  1
Layout1
 70
     1
 71
     1
 10
0.0
 20
0.0
 11
12.0
 21
9.0
 12
0.0
 22
0.0
 32
0.0
 14
0.0
 24
0.0
 34
0.0
 15
0.0
 25
0.0
 35
0.0
146
0.0
 13
0.0
 23
0.0
 33
0.0
 16
1.0
 26
0.0
 36
0.0
 17
0.0
 27
1.0
 37
0.0
 76
     0
330
6C
  0
LAYOUT
  5
77
102
{ACAD_REACTORS
330
62
102
}
330
62
100
AcDbPlotSettings
  1

  2

  4

  6

 40
0.0
 41
0.0
 42
0.0
 43
0.0
 44
0.0
 45
0.0
 46
0.0
 47
0.0
 48
0.0
 49
0.0
140
0.0
141
0.0
142
1.0
143
1.0
 70
   688
 72
     0
 73
     0
 74
     5
  7

 75
    16
147
1.0
 76
     0
 77
     2
 78
   300
148
0.0
149
0.0
100
AcDbLayout
  1
Layout2
 70
     1
 71
     2
 10
0.0
 20
0.0
 11
12.0
 21
9.0
 12
0.0
 22
0.0
 32
0.0
 14
0.0
 24
0.0
 34
0.0
 15
0.0
 25
0.0
 35
0.0
146
0.0
 13
0.0
 23
0.0
 33
0.0
 16
1.0
 26
0.0
 36
0.0
 17
0.0
 27
1.0
 37
0.0
 76
     0
330
74
  0
LAYOUT
  5
73
102
{ACAD_REACTORS
330
62
102
}
330
62
100
AcDbPlotSettings
  1

  2

  4

  6

 40
0.0
 41
0.0
 42
0.0
 43
0.0
 44
0.0
 45
0.0
 46
0.0
 47
0.0
 48
0.0
 49
0.0
140
0.0
141
0.0
142
1.0
143
1.0
 70
  1712
 72
     0
 73
     0
 74
     0
  7

 75
     0
147
1.0
 76
     0
 77
     2
 78
   300
148
0.0
149
0.0
100
AcDbLayout
  1
Model
 70
     1
 71
     0
 10
0.0
 20
0.0
 11
12.0
 21
9.0
 12
0.0
 22
0.0
 32
0.0
 14
0.0
 24
0.0
 34
0.0
 15
0.0
 25
0.0
 35
0.0
146
0.0
 13
0.0
 23
0.0
 33
0.0
 16
1.0
 26
0.0
 36
0.0
 17
0.0
 27
1.0
 37
0.0
 76
     0
330
70
  0
MATERIAL
  5
19
102
{ACAD_XDICTIONARY
360
1A
102
}
102
{ACAD_REACTORS
330
10
102
}
330
10
100
AcDbMaterial
  1
ByBlock
 72
     0
 43
0.0208333333333333
 43
0.0
 43
0.0
 43
0.0
 43
0.0
 43
0.0208333333333333
 43
0.0
 43
0.0
 43
0.0
 43
0.0
 43
1.0
 43
0.0
 43
0.0
 43
0.0
 43
0.0
 43
1.0
 77
     0
 47
0.0208333333333333
 47
0.0
 47
0.0
 47
0.0
 47
0.0
 47
0.0208333333333333
 47
0.0
 47
0.0
 47
0.0
 47
0.0
 47
1.0
 47
0.0
 47
0.0
 47
0.0
 47
0.0
 47
1.0
171
     0
 49
0.0208333333333333
 49
0.0
 49
0.0
 49
0.0
 49
0.0
 49
0.0208333333333333
 49
0.0
 49
0.0
 49
0.0
 49
0.0
 49
1.0
 49
0.0
 49
0.0
 49
0.0
 49
0.0
 49
1.0
175
     0
142
0.0208333333333333
142
0.0
142
0.0
142
0.0
142
0.0
142
0.0208333333333333
142
0.0
142
0.0
142
0.0
142
0.0
142
1.0
142
0.0
142
0.0
142
0.0
142
0.0
142
1.0
179
     0
144
0.0208333333333333
144
0.0
144
0.0
144
0.0
144
0.0
144
0.0208333333333333
144
0.0
144
0.0
144
0.0
144
0.0
144
1.0
144
0.0
144
0.0
144
0.0
144
0.0
144
1.0
147
0.0208333333333333
147
0.0
147
0.0
147
0.0
147
0.0
147
0.0208333333333333
147
0.0
147
0.0
147
0.0
147
0.0
147
1.0
147
0.0
147
0.0
147
0.0
147
0.0
147
1.0
  0
MATERIAL
  5
11
102
{ACAD_XDICTIONARY
360
12
102
}
102
{ACAD_REACTORS
330
10
102
}
330
10
100
AcDbMaterial
  1
ByLayer
 72
     0
 43
0.0208333333333333
 43
0.0
 43
0.0
 43
0.0
 43
0.0
 43
0.0208333333333333
 43
0.0
 43
0.0
 43
0.0
 43
0.0
 43
1.0
 43
0.0
 43
0.0
 43
0.0
 43
0.0
 43
1.0
 77
     0
 47
0.0208333333333333
 47
0.0
 47
0.0
 47
0.0
 47
0.0
 47
0.0208333333333333
 47
0.0
 47
0.0
 47
0.0
 47
0.0
 47
1.0
 47
0.0
 47
0.0
 47
0.0
 47
0.0
 47
1.0
171
     0
 49
0.0208333333333333
 49
0.0
 49
0.0
 49
0.0
 49
0.0
 49
0.0208333333333333
 49
0.0
 49
0.0
 49
0.0
 49
0.0
 49
1.0
 49
0.0
 49
0.0
 49
0.0
 49
0.0
 49
1.0
175
     0
142
0.0208333333333333
142
0.0
142
0.0
142
0.0
142
0.0
142
0.0208333333333333
142
0.0
142
0.0
142
0.0
142
0.0
142
1.0
142
0.0
142
0.0
142
0.0
142
0.0
142
1.0
179
     0
144
0.0208333333333333
144
0.0
144
0.0
144
0.0
144
0.0
144
0.0208333333333333
144
0.0
144
0.0
144
0.0
144
0.0
144
1.0
144
0.0
144
0.0
144
0.0
144
0.0
144
1.0
147
0.0208333333333333
147
0.0
147
0.0
147
0.0
147
0.0
147
0.0208333333333333
147
0.0
147
0.0
147
0.0
147
0.0
147
1.0
147
0.0
147
0.0
147
0.0
147
0.0
147
1.0
  0
MATERIAL
  5
21
102
{ACAD_XDICTIONARY
360
22
102
}
102
{ACAD_REACTORS
330
10
102
}
330
10
100
AcDbMaterial
  1
Global
 72
     0
 43
0.0208333333333333
 43
0.0
 43
0.0
 43
0.0
 43
0.0
 43
0.0208333333333333
 43
0.0
 43
0.0
 43
0.0
 43
0.0
 43
1.0
 43
0.0
 43
0.0
 43
0.0
 43
0.0
 43
1.0
 77
     0
 47
0.0208333333333333
 47
0.0
 47
0.0
 47
0.0
 47
0.0
 47
0.0208333333333333
 47
0.0
 47
0.0
 47
0.0
 47
0.0
 47
1.0
 47
0.0
 47
0.0
 47
0.0
 47
0.0
 47
1.0
171
     0
 49
0.0208333333333333
 49
0.0
 49
0.0
 49
0.0
 49
0.0
 49
0.0208333333333333
 49
0.0
 49
0.0
 49
0.0
 49
0.0
 49
1.0
 49
0.0
 49
0.0
 49
0.0
 49
0.0
 49
1.0
175
     0
142
0.0208333333333333
142
0.0
142
0.0
142
0.0
142
0.0
142
0.0208333333333333
142
0.0
142
0.0
142
0.0
142
0.0
142
1.0
142
0.0
142
0.0
142
0.0
142
0.0
142
1.0
179
     0
144
0.0208333333333333
144
0.0
144
0.0
144
0.0
144
0.0
144
0.0208333333333333
144
0.0
144
0.0
144
0.0
144
0.0
144
1.0
144
0.0
144
0.0
144
0.0
144
0.0
144
1.0
147
0.0208333333333333
147
0.0
147
0.0
147
0.0
147
0.0
147
0.0208333333333333
147
0.0
147
0.0
147
0.0
147
0.0
147
1.0
147
0.0
147
0.0
147
0.0
147
0.0
147
1.0
  0
MLEADERSTYLE
  5
67
102
{ACAD_XDICTIONARY
360
1D3
102
}
102
{ACAD_REACTORS
330
66
102
}
330
66
100
AcDbMLeaderStyle
179
     2
170
     2
171
     1
172
     0
 90
        2
 40
0.0
 41
0.0
173
     1
 91
-1056964608
340
5B
 92
       -2
290
     1
 42
0.09
291
     1
 43
0.36
  3
Standard
 44
0.18
300

342
55
174
     1
178
     6
175
     1
176
     0
 93
-1056964608
 45
0.18
292
     0
297
     0
 46
0.18
 94
-1056964608
 47
1.0
 49
1.0
140
1.0
293
     1
141
0.0
294
     1
177
     0
142
1.0
295
     0
296
     0
143
0.125
271
     0
272
     9
273
     9
  0
MLINESTYLE
  5
60
102
{ACAD_REACTORS
330
5F
102
}
330
5F
100
AcDbMlineStyle
  2
STANDARD
 70
     0
  3

 62
   256
 51
90.0
 52
90.0
 71
     2
 49
0.5
 62
   256
  6
BYLAYER
 49
-0.5
 62
   256
  6
BYLAYER
  0
ACDBPLACEHOLDER
  5
F
102
{ACAD_REACTORS
330
E
102
}
330
E
  0
SCALE
  5
43
102
{ACAD_REACTORS
330
42
102
}
330
42
100
AcDbScale
 70
     0
300
1:1
140
1.0
141
1.0
290
     1
  0
SCALE
  5
44
102
{ACAD_REACTORS
330
42
102
}
330
42
100
AcDbScale
 70
     0
300
1/128" = 1'-0"
140
0.0078125
141
12.0
290
     0
  0
SCALE
  5
45
102
{ACAD_REACTORS
330
42
102
}
330
42
100
AcDbScale
 70
     0
300
1/64" = 1'-0"
140
0.015625
141
12.0
290
     0
  0
SCALE
  5
46
102
{ACAD_REACTORS
330
42
102
}
330
42
100
AcDbScale
 70
     0
300
1/32" = 1'-0"
140
0.03125
141
12.0
290
     0
  0
SCALE
  5
47
102
{ACAD_REACTORS
330
42
102
}
330
42
100
AcDbScale
 70
     0
300
1/16" = 1'-0"
140
0.0625
141
12.0
290
     0
  0
SCALE
  5
48
102
{ACAD_REACTORS
330
42
102
}
330
42
100
AcDbScale
 70
     0
300
3/32" = 1'-0"
140
0.09375
141
12.0
290
     0
  0
SCALE
  5
49
102
{ACAD_REACTORS
330
42
102
}
330
42
100
AcDbScale
 70
     0
300
1/8" = 1'-0"
140
0.125
141
12.0
290
     0
  0
SCALE
  5
4A
102
{ACAD_REACTORS
330
42
102
}
330
42
100
AcDbScale
 70
     0
300
3/16" = 1'-0"
140
0.1875
141
12.0
290
     0
  0
SCALE
  5
4B
102
{ACAD_REACTORS
330
42
102
}
330
42
100
AcDbScale
 70
     0
300
1/4" = 1'-0"
140
0.25
141
12.0
290
     0
  0
SCALE
  5
4C
102
{ACAD_REACTORS
330
42
102
}
330
42
100
AcDbScale
 70
     0
300
3/8" = 1'-0"
140
0.375
141
12.0
290
     0
  0
SCALE
  5
4D
102
{ACAD_REACTORS
330
42
102
}
330
42
100
AcDbScale
 70
     0
300
1/2" = 1'-0"
140
0.5
141
12.0
290
     0
  0
SCALE
  5
4E
102
{ACAD_REACTORS
330
42
102
}
330
42
100
AcDbScale
 70
     0
300
3/4" = 1'-0"
140
0.75
141
12.0
290
     0
  0
SCALE
  5
4F
102
{ACAD_REACTORS
330
42
102
}
330
42
100
AcDbScale
 70
     0
300
1" = 1'-0"
140
1.0
141
12.0
290
     0
  0
SCALE
  5
50
102
{ACAD_REACTORS
330
42
102
}
330
42
100
AcDbScale
 70
     0
300
1-1/2" = 1'-0"
140
1.5
141
12.0
290
     0
  0
SCALE
  5
51
102
{ACAD_REACTORS
330
42
102
}
330
42
100
AcDbScale
 70
     0
300
3" = 1'-0"
140
3.0
141
12.0
290
     0
  0
SCALE
  5
52
102
{ACAD_REACTORS
330
42
102
}
330
42
100
AcDbScale
 70
     0
300
6" = 1'-0"
140
6.0
141
12.0
290
     0
  0
SCALE
  5
53
102
{ACAD_REACTORS
330
42
102
}
330
42
100
AcDbScale
 70
     0
300
1'-0" = 1'-0"
140
12.0
141
12.0
290
     0
  0
ACDBSECTIONVIEWSTYLE
  5
69
102
{ACAD_XDICTIONARY
360
1D5
102
}
102
{ACAD_REACTORS
330
68
102
}
330
68
100
AcDbModelDocViewStyle
 70
     0
  3
Imperial24
290
     0
100
AcDbSectionViewStyle
 70
     0
 71
     0
 90
       78
 71
     1
340
55
 62
   256
 40
0.24
340
0
340
0
 62
   256
 40
0.24
300
I, O, Q, S, X, Z
 40
0.48
 90
        3
 40
0.18
 90
        1
 71
     2
340
5D
 90
       25
 62
   256
340
5D
 90
       50
 62
   256
 40
0.24
 40
0.0
 40
0.24
 71
     3
340
55
 62
   256
 40
0.24
 90
        1
 40
0.75
 90
        1
300
%<\AcVar ViewType \f "%tc1">% %<\AcVar ViewSectionStartId>%-%<\AcVar ViewSectionEndId>%\PSCALE %<\AcVar ViewScale \f "%sn">%
 71
     4
 62
   256
 62
   257
300
ANSI31
 40
1.0
 90
        0
290
     0
290
     0
 90
        6
 40
0.0
 40
1.570796326794896
 40
0.2617993877991494
 40
1.308996938995747
 40
-0.2617993877991494
 40
1.832595714594046
  0
TABLESTYLE
  5
65
102
{ACAD_XDICTIONARY
360
1A0
102
}
102
{ACAD_REACTORS
330
64
102
}
330
64
100
AcDbTableStyle
280
     0
  3
Standard
 70
     0
 71
     0
 40
0.06
 41
0.06
280
     0
281
     0
  7
Standard
140
0.18
170
     2
 62
     0
 63
     7
283
     0
 90
      512
 91
        0
  1

274
    -2
284
     1
 64
     0
275
    -2
285
     1
 65
     0
276
    -2
286
     1
 66
     0
277
    -2
287
     1
 67
     0
278
    -2
288
     1
 68
     0
279
    -2
289
     1
 69
     0
  7
Standard
140
0.25
170
     5
 62
     0
 63
     7
283
     0
 90
      512
 91
        0
  1

274
    -2
284
     1
 64
     0
275
    -2
285
     1
 65
     0
276
    -2
286
     1
 66
     0
277
    -2
287
     1
 67
     0
278
    -2
288
     1
 68
     0
279
    -2
289
     1
 69
     0
  7
Standard
140
0.18
170
     5
 62
     0
 63
     7
283
     0
 90
      512
 91
        0
  1

274
    -2
284
     1
 64
     0
275
    -2
285
     1
 65
     0
276
    -2
286
     1
 66
     0
277
    -2
287
     1
 67
     0
278
    -2
288
     1
 68
     0
279
    -2
289
     1
 69
     0
  0
VISUALSTYLE
  5
2F
102
{ACAD_XDICTIONARY
360
1AD
102
}
102
{ACAD_REACTORS
330
29
102
}
330
29
100
AcDbVisualStyle
  2
2dWireframe
 70
     4
177
     2
291
     0
 71
     0
176
     1
 72
     2
176
     1
 73
     0
176
     1
 90
        0
176
     1
 40
0.6
176
     1
 41
30.0
176
     1
 63
     7
421
 16777215
176
     1
 74
     1
176
     1
 91
        4
176
     1
 64
     7
176
     1
 65
   257
176
     1
 75
     1
176
     1
175
     1
176
     1
 42
1.0
176
     1
 92
        0
176
     1
 66
   257
176
     1
 43
1.0
176
     1
 76
     1
176
     1
 77
     6
176
     1
 78
     2
176
     1
 67
     7
176
     1
 79
     5
176
     1
170
     0
176
     1
171
     0
176
     1
290
     0
176
     1
 93
        1
176
     1
 44
0.0
176
     1
173
     0
176
     1
1001
ACAD
1000
AcDbSavedByObjectVersion
1070
     0
  0
VISUALSTYLE
  5
2E
102
{ACAD_XDICTIONARY
360
1AB
102
}
102
{ACAD_REACTORS
330
29
102
}
330
29
100
AcDbVisualStyle
  2
Basic
 70
     7
177
     2
291
     1
 71
     1
176
     1
 72
     0
176
     1
 73
     1
176
     1
 90
        0
176
     1
 40
0.6
176
     1
 41
30.0
176
     1
 63
     7
421
 16777215
176
     1
 74
     0
176
     1
 91
        4
176
     1
 64
     7
176
     1
 65
   257
176
     1
 75
     1
176
     1
175
     1
176
     1
 42
1.0
176
     1
 92
        8
176
     1
 66
     7
176
     1
 43
1.0
176
     1
 76
     1
176
     1
 77
     6
176
     1
 78
     2
176
     1
 67
     7
176
     1
 79
     5
176
     1
170
     0
176
     1
171
     0
176
     1
290
     0
176
     1
 93
        1
176
     1
 44
0.0
176
     1
173
     0
176
     1
1001
ACAD
1000
AcDbSavedByObjectVersion
1070
     0
  0
VISUALSTYLE
  5
35
102
{ACAD_XDICTIONARY
360
1B9
102
}
102
{ACAD_REACTORS
330
29
102
}
330
29
100
AcDbVisualStyle
  2
Brighten
 70
    12
177
     2
291
     1
 71
     2
176
     1
 72
     2
176
     1
 73
     0
176
     1
 90
        0
176
     1
 40
0.6
176
     1
 41
30.0
176
     1
 63
     7
421
 16777215
176
     1
 74
     1
176
     1
 91
        4
176
     1
 64
     7
176
     1
 65
   257
176
     1
 75
     1
176
     1
175
     1
176
     1
 42
1.0
176
     1
 92
        8
176
     1
 66
     7
176
     1
 43
1.0
176
     1
 76
     1
176
     1
 77
     6
176
     1
 78
     2
176
     1
 67
     7
176
     1
 79
     5
176
     1
170
     0
176
     1
171
     0
176
     1
290
     0
176
     1
 93
        1
176
     1
 44
50.0
176
     1
173
     0
176
     1
1001
ACAD
1000
AcDbSavedByObjectVersion
1070
     0
  0
VISUALSTYLE
  5
39
102
{ACAD_XDICTIONARY
360
1C1
102
}
102
{ACAD_REACTORS
330
29
102
}
330
29
100
AcDbVisualStyle
  2
ColorChange
 70
    16
177
     2
291
     1
 71
     2
176
     1
 72
     2
176
     1
 73
     3
176
     1
 90
        0
176
     1
 40
0.6
176
     1
 41
30.0
176
     1
 63
     8
421
  8421504
176
     1
 74
     1
176
     1
 91
        4
176
     1
 64
     7
176
     1
 65
   257
176
     1
 75
     1
176
     1
175
     1
176
     1
 42
1.0
176
     1
 92
        8
176
     1
 66
     8
424
  8421504
176
     1
 43
1.0
176
     1
 76
     1
176
     1
 77
     6
176
     1
 78
     2
176
     1
 67
     7
176
     1
 79
     5
176
     1
170
     0
176
     1
171
     0
176
     1
290
     0
176
     1
 93
        1
176
     1
 44
0.0
176
     1
173
     0
176
     1
1001
ACAD
1000
AcDbSavedByObjectVersion
1070
     0
  0
VISUALSTYLE
  5
32
102
{ACAD_XDICTIONARY
360
1B3
102
}
102
{ACAD_REACTORS
330
29
102
}
330
29
100
AcDbVisualStyle
  2
Conceptual
 70
     9
177
     2
291
     0
 71
     3
176
     1
 72
     2
176
     1
 73
     0
176
     1
 90
        0
176
     1
 40
0.6
176
     1
 41
30.0
176
     1
 63
     7
421
 16777215
176
     1
 74
     2
176
     1
 91
        2
176
     1
 64
     7
176
     1
 65
   257
176
     1
 75
     1
176
     1
175
     1
176
     1
 42
179.0
176
     1
 92
        8
176
     1
 66
     7
176
     1
 43
1.0
176
     1
 76
     1
176
     1
 77
     6
176
     1
 78
     2
176
     1
 67
     7
176
     1
 79
     3
176
     1
170
     0
176
     1
171
     0
176
     1
290
     0
176
     1
 93
        1
176
     1
 44
0.0
176
     1
173
     0
176
     1
1001
ACAD
1000
AcDbSavedByObjectVersion
1070
     0
  0
VISUALSTYLE
  5
34
102
{ACAD_XDICTIONARY
360
1B7
102
}
102
{ACAD_REACTORS
330
29
102
}
330
29
100
AcDbVisualStyle
  2
Dim
 70
    11
177
     2
291
     1
 71
     2
176
     1
 72
     2
176
     1
 73
     0
176
     1
 90
        0
176
     1
 40
0.6
176
     1
 41
30.0
176
     1
 63
     7
421
 16777215
176
     1
 74
     1
176
     1
 91
        4
176
     1
 64
     7
176
     1
 65
   257
176
     1
 75
     1
176
     1
175
     1
176
     1
 42
1.0
176
     1
 92
        8
176
     1
 66
     7
176
     1
 43
1.0
176
     1
 76
     1
176
     1
 77
     6
176
     1
 78
     2
176
     1
 67
     7
176
     1
 79
     5
176
     1
170
     0
176
     1
171
     0
176
     1
290
     0
176
     1
 93
        1
176
     1
 44
-50.0
176
     1
173
     0
176
     1
1001
ACAD
1000
AcDbSavedByObjectVersion
1070
     0
  0
VISUALSTYLE
  5
41
102
{ACAD_XDICTIONARY
360
1D1
102
}
102
{ACAD_REACTORS
330
29
102
}
330
29
100
AcDbVisualStyle
  2
EdgeColorOff
 70
    22
177
     2
291
     1
 71
     2
176
     0
 72
     2
176
     0
 73
     0
176
     0
 90
        0
176
     0
 40
0.6
176
     0
 41
30.0
176
     0
 63
     7
421
 16777215
176
     0
 74
     1
176
     0
 91
        4
176
     0
 64
     7
176
     0
 65
   257
176
     0
 75
     1
176
     0
175
     1
176
     0
 42
1.0
176
     0
 92
        8
176
     2
 66
     7
176
     0
 43
1.0
176
     0
 76
     1
176
     0
 77
     6
176
     0
 78
     2
176
     0
 67
     7
176
     0
 79
     5
176
     0
170
     0
176
     0
171
     0
176
     0
290
     0
176
     0
 93
        1
176
     0
 44
0.0
176
     0
173
     0
176
     0
1001
ACAD
1000
AcDbSavedByObjectVersion
1070
     0
  0
VISUALSTYLE
  5
38
102
{ACAD_XDICTIONARY
360
1BF
102
}
102
{ACAD_REACTORS
330
29
102
}
330
29
100
AcDbVisualStyle
  2
Facepattern
 70
    15
177
     2
291
     1
 71
     2
176
     1
 72
     2
176
     1
 73
     0
176
     1
 90
        0
176
     1
 40
0.6
176
     1
 41
30.0
176
     1
 63
     7
421
 16777215
176
     1
 74
     1
176
     1
 91
        4
176
     1
 64
     7
176
     1
 65
   257
176
     1
 75
     1
176
     1
175
     1
176
     1
 42
1.0
176
     1
 92
        8
176
     1
 66
     7
176
     1
 43
1.0
176
     1
 76
     1
176
     1
 77
     6
176
     1
 78
     2
176
     1
 67
     7
176
     1
 79
     5
176
     1
170
     0
176
     1
171
     0
176
     1
290
     0
176
     1
 93
        1
176
     1
 44
0.0
176
     1
173
     0
176
     1
1001
ACAD
1000
AcDbSavedByObjectVersion
1070
     0
  0
VISUALSTYLE
  5
2A
102
{ACAD_XDICTIONARY
360
1A3
102
}
102
{ACAD_REACTORS
330
29
102
}
330
29
100
AcDbVisualStyle
  2
Flat
 70
     0
177
     2
291
     1
 71
     2
176
     1
 72
     1
176
     1
 73
     1
176
     1
 90
        2
176
     1
 40
0.6
176
     1
 41
30.0
176
     1
 63
     7
421
 16777215
176
     1
 74
     0
176
     1
 91
        0
176
     1
 64
     7
176
     1
 65
   257
176
     1
 75
     1
176
     1
175
     1
176
     1
 42
1.0
176
     1
 92
        8
176
     1
 66
     7
176
     1
 43
1.0
176
     1
 76
     1
176
     1
 77
     6
176
     1
 78
     2
176
     1
 67
     7
176
     1
 79
     5
176
     1
170
     0
176
     1
171
     0
176
     1
290
     0
176
     1
 93
       13
176
     1
 44
0.0
176
     1
173
     0
176
     1
1001
ACAD
1000
AcDbSavedByObjectVersion
1070
     0
  0
VISUALSTYLE
  5
2B
102
{ACAD_XDICTIONARY
360
1A5
102
}
102
{ACAD_REACTORS
330
29
102
}
330
29
100
AcDbVisualStyle
  2
FlatWithEdges
 70
     1
177
     2
291
     1
 71
     2
176
     1
 72
     1
176
     1
 73
     1
176
     1
 90
        2
176
     1
 40
0.6
176
     1
 41
30.0
176
     1
 63
     7
421
 16777215
176
     1
 74
     1
176
     1
 91
        0
176
     1
 64
     7
176
     1
 65
   257
176
     1
 75
     1
176
     1
175
     1
176
     1
 42
1.0
176
     1
 92
        0
176
     1
 66
   257
176
     1
 43
1.0
176
     1
 76
     1
176
     1
 77
     6
176
     1
 78
     2
176
     1
 67
     7
176
     1
 79
     5
176
     1
170
     0
176
     1
171
     0
176
     1
290
     0
176
     1
 93
       13
176
     1
 44
0.0
176
     1
173
     0
176
     1
1001
ACAD
1000
AcDbSavedByObjectVersion
1070
     0
  0
VISUALSTYLE
  5
2C
102
{ACAD_XDICTIONARY
360
1A7
102
}
102
{ACAD_REACTORS
330
29
102
}
330
29
100
AcDbVisualStyle
  2
Gouraud
 70
     2
177
     2
291
     1
 71
     2
176
     1
 72
     2
176
     1
 73
     1
176
     1
 90
        2
176
     1
 40
0.6
176
     1
 41
30.0
176
     1
 63
     7
421
 16777215
176
     1
 74
     0
176
     1
 91
        0
176
     1
 64
     7
176
     1
 65
   257
176
     1
 75
     1
176
     1
175
     1
176
     1
 42
1.0
176
     1
 92
        0
176
     1
 66
     7
176
     1
 43
1.0
176
     1
 76
     1
176
     1
 77
     6
176
     1
 78
     2
176
     1
 67
     7
176
     1
 79
     5
176
     1
170
     0
176
     1
171
     0
176
     1
290
     0
176
     1
 93
       13
176
     1
 44
0.0
176
     1
173
     0
176
     1
1001
ACAD
1000
AcDbSavedByObjectVersion
1070
     0
  0
VISUALSTYLE
  5
2D
102
{ACAD_XDICTIONARY
360
1A9
102
}
102
{ACAD_REACTORS
330
29
102
}
330
29
100
AcDbVisualStyle
  2
GouraudWithEdges
 70
     3
177
     2
291
     1
 71
     2
176
     1
 72
     2
176
     1
 73
     1
176
     1
 90
        2
176
     1
 40
0.6
176
     1
 41
30.0
176
     1
 63
     7
421
 16777215
176
     1
 74
     1
176
     1
 91
        0
176
     1
 64
     7
176
     1
 65
   257
176
     1
 75
     1
176
     1
175
     1
176
     1
 42
1.0
176
     1
 92
        0
176
     1
 66
   257
176
     1
 43
1.0
176
     1
 76
     1
176
     1
 77
     6
176
     1
 78
     2
176
     1
 67
     7
176
     1
 79
     5
176
     1
170
     0
176
     1
171
     0
176
     1
290
     0
176
     1
 93
       13
176
     1
 44
0.0
176
     1
173
     0
176
     1
1001
ACAD
1000
AcDbSavedByObjectVersion
1070
     0
  0
VISUALSTYLE
  5
31
102
{ACAD_XDICTIONARY
360
1B1
102
}
102
{ACAD_REACTORS
330
29
102
}
330
29
100
AcDbVisualStyle
  2
Hidden
 70
     6
177
     2
291
     0
 71
     1
176
     1
 72
     2
176
     1
 73
     2
176
     1
 90
        0
176
     1
 40
0.6
176
     1
 41
30.0
176
     1
 63
     7
421
 16777215
176
     1
 74
     2
176
     1
 91
        2
176
     1
 64
     7
176
     1
 65
   257
176
     1
 75
     2
176
     1
175
     1
176
     1
 42
40.0
176
     1
 92
        0
176
     1
 66
   257
176
     1
 43
1.0
176
     1
 76
     1
176
     1
 77
     6
176
     1
 78
     2
176
     1
 67
     7
176
     1
 79
     3
176
     1
170
     0
176
     1
171
     0
176
     1
290
     0
176
     1
 93
        1
176
     1
 44
0.0
176
     1
173
     0
176
     1
1001
ACAD
1000
AcDbSavedByObjectVersion
1070
     0
  0
VISUALSTYLE
  5
3F
102
{ACAD_XDICTIONARY
360
1CD
102
}
102
{ACAD_REACTORS
330
29
102
}
330
29
100
AcDbVisualStyle
  2
JitterOff
 70
    20
177
     2
291
     1
 71
     2
176
     0
 72
     2
176
     0
 73
     0
176
     0
 90
        0
176
     0
 40
0.6
176
     0
 41
30.0
176
     0
 63
     7
421
 16777215
176
     0
 74
     1
176
     0
 91
        4
176
     0
 64
     7
176
     0
 65
   257
176
     0
 75
     1
176
     0
175
     1
176
     0
 42
1.0
176
     0
 92
       10
176
     2
 66
     7
176
     0
 43
1.0
176
     0
 76
     1
176
     0
 77
     6
176
     0
 78
     2
176
     0
 67
     7
176
     0
 79
     5
176
     0
170
     0
176
     0
171
     0
176
     0
290
     0
176
     0
 93
        1
176
     0
 44
0.0
176
     0
173
     0
176
     0
1001
ACAD
1000
AcDbSavedByObjectVersion
1070
     0
  0
VISUALSTYLE
  5
37
102
{ACAD_XDICTIONARY
360
1BD
102
}
102
{ACAD_REACTORS
330
29
102
}
330
29
100
AcDbVisualStyle
  2
Linepattern
 70
    14
177
     2
291
     1
 71
     2
176
     1
 72
     2
176
     1
 73
     0
176
     1
 90
        0
176
     1
 40
0.6
176
     1
 41
30.0
176
     1
 63
     7
421
 16777215
176
     1
 74
     1
176
     1
 91
        4
176
     1
 64
     7
176
     1
 65
   257
176
     1
 75
     7
176
     1
175
     7
176
     1
 42
1.0
176
     1
 92
        8
176
     1
 66
     7
176
     1
 43
1.0
176
     1
 76
     1
176
     1
 77
     6
176
     1
 78
     2
176
     1
 67
     7
176
     1
 79
     5
176
     1
170
     0
176
     1
171
     0
176
     1
290
     0
176
     1
 93
        1
176
     1
 44
0.0
176
     1
173
     0
176
     1
1001
ACAD
1000
AcDbSavedByObjectVersion
1070
     0
  0
VISUALSTYLE
  5
40
102
{ACAD_XDICTIONARY
360
1CF
102
}
102
{ACAD_REACTORS
330
29
102
}
330
29
100
AcDbVisualStyle
  2
OverhangOff
 70
    21
177
     2
291
     1
 71
     2
176
     0
 72
     2
176
     0
 73
     0
176
     0
 90
        0
176
     0
 40
0.6
176
     0
 41
30.0
176
     0
 63
     7
421
 16777215
176
     0
 74
     1
176
     0
 91
        4
176
     0
 64
     7
176
     0
 65
   257
176
     0
 75
     1
176
     0
175
     1
176
     0
 42
1.0
176
     0
 92
        9
176
     2
 66
     7
176
     0
 43
1.0
176
     0
 76
     1
176
     0
 77
     6
176
     0
 78
     2
176
     0
 67
     7
176
     0
 79
     5
176
     0
170
     0
176
     0
171
     0
176
     0
290
     0
176
     0
 93
        1
176
     0
 44
0.0
176
     0
173
     0
176
     0
1001
ACAD
1000
AcDbSavedByObjectVersion
1070
     0
  0
VISUALSTYLE
  5
33
102
{ACAD_XDICTIONARY
360
1B5
102
}
102
{ACAD_REACTORS
330
29
102
}
330
29
100
AcDbVisualStyle
  2
Realistic
 70
     8
177
     2
291
     0
 71
     2
176
     1
 72
     3
176
     1
 73
     0
176
     1
 90
        2
176
     1
 40
0.6
176
     1
 41
30.0
176
     1
 63
     7
421
 16777215
176
     1
 74
     0
176
     1
 91
        0
176
     1
 64
     7
176
     1
 65
   257
176
     1
 75
     1
176
     1
175
     1
176
     1
 42
1.0
176
     1
 92
        8
176
     1
 66
   257
176
     1
 43
1.0
176
     1
 76
     1
176
     1
 77
     6
176
     1
 78
     2
176
     1
 67
     7
176
     1
 79
     3
176
     1
170
     0
176
     1
171
     0
176
     1
290
     0
176
     1
 93
       13
176
     1
 44
0.0
176
     1
173
     0
176
     1
1001
ACAD
1000
AcDbSavedByObjectVersion
1070
     0
  0
VISUALSTYLE
  5
3E
102
{ACAD_XDICTIONARY
360
1CB
102
}
102
{ACAD_REACTORS
330
29
102
}
330
29
100
AcDbVisualStyle
  2
Shaded
 70
    27
177
     2
291
     0
 71
     2
176
     1
 72
     2
176
     1
 73
     1
176
     1
 90
        2
176
     1
 40
0.6
176
     1
 41
30.0
176
     1
 63
     7
421
 16777215
176
     1
 74
     0
176
     1
 91
        4
176
     1
 64
     7
176
     1
 65
   257
176
     1
 75
     1
176
     1
175
     1
176
     1
 42
1.0
176
     1
 92
        8
176
     1
 66
   257
176
     1
 43
1.0
176
     1
 76
     1
176
     1
 77
     6
176
     1
 78
     2
176
     1
 67
     8
425
  7895160
176
     1
 79
     3
176
     1
170
     0
176
     1
171
     0
176
     1
290
     0
176
     1
 93
        5
176
     1
 44
0.0
176
     1
173
     0
176
     1
1001
ACAD
1000
AcDbSavedByObjectVersion
1070
     0
  0
VISUALSTYLE
  5
3D
102
{ACAD_XDICTIONARY
360
1C9
102
}
102
{ACAD_REACTORS
330
29
102
}
330
29
100
AcDbVisualStyle
  2
Shaded with edges
 70
    26
177
     2
291
     0
 71
     2
176
     1
 72
     2
176
     1
 73
     1
176
     1
 90
        2
176
     1
 40
0.6
176
     1
 41
30.0
176
     1
 63
     7
421
 16777215
176
     1
 74
     1
176
     1
 91
        2
176
     1
 64
     7
176
     1
 65
   257
176
     1
 75
     2
176
     1
175
     1
176
     1
 42
1.0
176
     1
 92
        8
176
     1
 66
   257
176
     1
 43
1.0
176
     1
 76
     1
176
     1
 77
     6
176
     1
 78
     2
176
     1
 67
     7
176
     1
 79
     3
176
     1
170
     0
176
     1
171
     0
176
     1
290
     0
176
     1
 93
        5
176
     1
 44
0.0
176
     1
173
     0
176
     1
1001
ACAD
1000
AcDbSavedByObjectVersion
1070
     0
  0
VISUALSTYLE
  5
3A
102
{ACAD_XDICTIONARY
360
1C3
102
}
102
{ACAD_REACTORS
330
29
102
}
330
29
100
AcDbVisualStyle
  2
Shades of Gray
 70
    23
177
     2
291
     0
 71
     2
176
     1
 72
     2
176
     1
 73
     3
176
     1
 90
        0
176
     1
 40
0.6
176
     1
 41
30.0
176
     1
 63
     7
421
 16777215
176
     1
 74
     2
176
     1
 91
        2
176
     1
 64
     7
176
     1
 65
     7
176
     1
 75
     1
176
     1
175
     1
176
     1
 42
40.0
176
     1
 92
        8
176
     1
 66
     7
176
     1
 43
1.0
176
     1
 76
     1
176
     1
 77
     6
176
     1
 78
     2
176
     1
 67
     7
176
     1
 79
     3
176
     1
170
     0
176
     1
171
     0
176
     1
290
     0
176
     1
 93
        1
176
     1
 44
0.0
176
     1
173
     0
176
     1
1001
ACAD
1000
AcDbSavedByObjectVersion
1070
     0
  0
VISUALSTYLE
  5
3B
102
{ACAD_XDICTIONARY
360
1C5
102
}
102
{ACAD_REACTORS
330
29
102
}
330
29
100
AcDbVisualStyle
  2
Sketchy
 70
    24
177
     2
291
     0
 71
     1
176
     1
 72
     2
176
     1
 73
     2
176
     1
 90
        0
176
     1
 40
0.6
176
     1
 41
30.0
176
     1
 63
     7
421
 16777215
176
     1
 74
     2
176
     1
 91
        2
176
     1
 64
     7
176
     1
 65
     7
176
     1
 75
     1
176
     1
175
     1
176
     1
 42
40.0
176
     1
 92
       11
176
     1
 66
     7
176
     1
 43
1.0
176
     1
 76
     1
176
     1
 77
     6
176
     1
 78
     2
176
     1
 67
     7
176
     1
 79
     6
176
     1
170
     0
176
     1
171
     0
176
     1
290
     0
176
     1
 93
        1
176
     1
 44
0.0
176
     1
173
     0
176
     1
1001
ACAD
1000
AcDbSavedByObjectVersion
1070
     0
  0
VISUALSTYLE
  5
36
102
{ACAD_XDICTIONARY
360
1BB
102
}
102
{ACAD_REACTORS
330
29
102
}
330
29
100
AcDbVisualStyle
  2
Thicken
 70
    13
177
     2
291
     1
 71
     2
176
     1
 72
     2
176
     1
 73
     0
176
     1
 90
        0
176
     1
 40
0.6
176
     1
 41
30.0
176
     1
 63
     7
421
 16777215
176
     1
 74
     1
176
     1
 91
        4
176
     1
 64
     7
176
     1
 65
   257
176
     1
 75
     1
176
     1
175
     1
176
     1
 42
1.0
176
     1
 92
       12
176
     1
 66
     7
176
     1
 43
1.0
176
     1
 76
     1
176
     1
 77
     6
176
     1
 78
     2
176
     1
 67
     7
176
     1
 79
     5
176
     1
170
     0
176
     1
171
     0
176
     1
290
     0
176
     1
 93
        1
176
     1
 44
0.0
176
     1
173
     0
176
     1
1001
ACAD
1000
AcDbSavedByObjectVersion
1070
     0
  0
VISUALSTYLE
  5
30
102
{ACAD_XDICTIONARY
360
1AF
102
}
102
{ACAD_REACTORS
330
29
102
}
330
29
100
AcDbVisualStyle
  2
Wireframe
 70
     5
177
     2
291
     0
 71
     0
176
     1
 72
     2
176
     1
 73
     0
176
     1
 90
        0
176
     1
 40
0.6
176
     1
 41
30.0
176
     1
 63
     7
421
 16777215
176
     1
 74
     1
176
     1
 91
        4
176
     1
 64
     7
176
     1
 65
   257
176
     1
 75
     1
176
     1
175
     1
176
     1
 42
1.0
176
     1
 92
        0
176
     1
 66
   257
176
     1
 43
1.0
176
     1
 76
     1
176
     1
 77
     6
176
     1
 78
     2
176
     1
 67
     7
176
     1
 79
     3
176
     1
170
     0
176
     1
171
     0
176
     1
290
     0
176
     1
 93
        1
176
     1
 44
0.0
176
     1
173
     0
176
     1
1001
ACAD
1000
AcDbSavedByObjectVersion
1070
     0
  0
VISUALSTYLE
  5
3C
102
{ACAD_XDICTIONARY
360
1C7
102
}
102
{ACAD_REACTORS
330
29
102
}
330
29
100
AcDbVisualStyle
  2
X-Ray
 70
    25
177
     2
291
     0
 71
     2
176
     1
 72
     2
176
     1
 73
     1
176
     1
 90
        1
176
     1
 40
0.5
176
     1
 41
30.0
176
     1
 63
     7
421
 16777215
176
     1
 74
     1
176
     1
 91
        0
176
     1
 64
     7
176
     1
 65
   257
176
     1
 75
     1
176
     1
175
     1
176
     1
 42
1.0
176
     1
 92
        8
176
     1
 66
     7
176
     1
 43
1.0
176
     1
 76
     1
176
     1
 77
     6
176
     1
 78
     2
176
     1
 67
     7
176
     1
 79
     3
176
     1
170
     0
176
     1
171
     0
176
     1
290
     0
176
     1
 93
       13
176
     1
 44
0.0
176
     1
173
     0
176
     1
1001
ACAD
1000
AcDbSavedByObjectVersion
1070
     0
  0
DICTIONARYVAR
  5
19F
102
{ACAD_REACTORS
330
19A
102
}
330
19A
100
DictionaryVariables
280
     0
  1
1:1
  0
DICTIONARYVAR
  5
19C
102
{ACAD_REACTORS
330
19A
102
}
330
19A
100
DictionaryVariables
280
     0
  1
STANDARD
  0
DICTIONARYVAR
  5
19B
102
{ACAD_REACTORS
330
19A
102
}
330
19A
100
DictionaryVariables
280
     0
  1
STANDARD
  0
DICTIONARYVAR
  5
19D
102
{ACAD_REACTORS
330
19A
102
}
330
19A
100
DictionaryVariables
280
     0
  1
Imperial24
  0
DICTIONARYVAR
  5
19E
102
{ACAD_REACTORS
330
19A
102
}
330
19A
100
DictionaryVariables
280
     0
  1
Imperial24
  0
DICTIONARY
  5
1D7
330
6B
100
AcDbDictionary
280
     1
281
     1
  3
ACAD_XREC_ROUNDTRIP
360
1D8
  0
DICTIONARY
  5
1A
330
19
100
AcDbDictionary
280
     1
281
     1
  3
BUMPTILE
360
1C
  3
DIFFUSETILE
360
1B
  3
OPACITYTILE
360
1F
  3
REFLECTIONTILE
360
1E
  3
REFRACTIONTILE
360
20
  3
SPECULARTILE
360
1D
  0
DICTIONARY
  5
12
330
11
100
AcDbDictionary
280
     1
281
     1
  3
BUMPTILE
360
14
  3
DIFFUSETILE
360
13
  3
OPACITYTILE
360
17
  3
REFLECTIONTILE
360
16
  3
REFRACTIONTILE
360
18
  3
SPECULARTILE
360
15
  0
DICTIONARY
  5
22
330
21
100
AcDbDictionary
280
     1
281
     1
  3
BUMPTILE
360
24
  3
DIFFUSETILE
360
23
  3
OPACITYTILE
360
27
  3
REFLECTIONTILE
360
26
  3
REFRACTIONTILE
360
28
  3
SPECULARTILE
360
25
  0
DICTIONARY
  5
1D3
330
67
100
AcDbDictionary
280
     1
281
     1
  3
ACAD_XREC_ROUNDTRIP
360
1D4
  0
DICTIONARY
  5
1D5
330
69
100
AcDbDictionary
280
     1
281
     1
  3
ACAD_XREC_ROUNDTRIP
360
1D6
  0
DICTIONARY
  5
1A0
330
65
100
AcDbDictionary
280
     1
281
     1
  3
ACAD_ROUNDTRIP_2008_TABLESTYLE_CELLSTYLEMAP
360
1A1
  0
DICTIONARY
  5
1AD
330
2F
100
AcDbDictionary
280
     1
281
     1
  3
ACAD_XREC_ROUNDTRIP
360
1AE
  0
DICTIONARY
  5
1AB
330
2E
100
AcDbDictionary
280
     1
281
     1
  3
ACAD_XREC_ROUNDTRIP
360
1AC
  0
DICTIONARY
  5
1B9
330
35
100
AcDbDictionary
280
     1
281
     1
  3
ACAD_XREC_ROUNDTRIP
360
1BA
  0
DICTIONARY
  5
1C1
330
39
100
AcDbDictionary
280
     1
281
     1
  3
ACAD_XREC_ROUNDTRIP
360
1C2
  0
DICTIONARY
  5
1B3
330
32
100
AcDbDictionary
280
     1
281
     1
  3
ACAD_XREC_ROUNDTRIP
360
1B4
  0
DICTIONARY
  5
1B7
330
34
100
AcDbDictionary
280
     1
281
     1
  3
ACAD_XREC_ROUNDTRIP
360
1B8
  0
DICTIONARY
  5
1D1
330
41
100
AcDbDictionary
280
     1
281
     1
  3
ACAD_XREC_ROUNDTRIP
360
1D2
  0
DICTIONARY
  5
1BF
330
38
100
AcDbDictionary
280
     1
281
     1
  3
ACAD_XREC_ROUNDTRIP
360
1C0
  0
DICTIONARY
  5
1A3
330
2A
100
AcDbDictionary
280
     1
281
     1
  3
ACAD_XREC_ROUNDTRIP
360
1A4
  0
DICTIONARY
  5
1A5
330
2B
100
AcDbDictionary
280
     1
281
     1
  3
ACAD_XREC_ROUNDTRIP
360
1A6
  0
DICTIONARY
  5
1A7
330
2C
100
AcDbDictionary
280
     1
281
     1
  3
ACAD_XREC_ROUNDTRIP
360
1A8
  0
DICTIONARY
  5
1A9
330
2D
100
AcDbDictionary
280
     1
281
     1
  3
ACAD_XREC_ROUNDTRIP
360
1AA
  0
DICTIONARY
  5
1B1
330
31
100
AcDbDictionary
280
     1
281
     1
  3
ACAD_XREC_ROUNDTRIP
360
1B2
  0
DICTIONARY
  5
1CD
330
3F
100
AcDbDictionary
280
     1
281
     1
  3
ACAD_XREC_ROUNDTRIP
360
1CE
  0
DICTIONARY
  5
1BD
330
37
100
AcDbDictionary
280
     1
281
     1
  3
ACAD_XREC_ROUNDTRIP
360
1BE
  0
DICTIONARY
  5
1CF
330
40
100
AcDbDictionary
280
     1
281
     1
  3
ACAD_XREC_ROUNDTRIP
360
1D0
  0
DICTIONARY
  5
1B5
330
33
100
AcDbDictionary
280
     1
281
     1
  3
ACAD_XREC_ROUNDTRIP
360
1B6
  0
DICTIONARY
  5
1CB
330
3E
100
AcDbDictionary
280
     1
281
     1
  3
ACAD_XREC_ROUNDTRIP
360
1CC
  0
DICTIONARY
  5
1C9
330
3D
100
AcDbDictionary
280
     1
281
     1
  3
ACAD_XREC_ROUNDTRIP
360
1CA
  0
DICTIONARY
  5
1C3
330
3A
100
AcDbDictionary
280
     1
281
     1
  3
ACAD_XREC_ROUNDTRIP
360
1C4
  0
DICTIONARY
  5
1C5
330
3B
100
AcDbDictionary
280
     1
281
     1
  3
ACAD_XREC_ROUNDTRIP
360
1C6
  0
DICTIONARY
  5
1BB
330
36
100
AcDbDictionary
280
     1
281
     1
  3
ACAD_XREC_ROUNDTRIP
360
1BC
  0
DICTIONARY
  5
1AF
330
30
100
AcDbDictionary
280
     1
281
     1
  3
ACAD_XREC_ROUNDTRIP
360
1B0
  0
DICTIONARY
  5
1C7
330
3C
100
AcDbDictionary
280
     1
281
     1
  3
ACAD_XREC_ROUNDTRIP
360
1C8
  0
XRECORD
  5
1D8
102
{ACAD_REACTORS
330
1D7
102
}
330
1D7
100
AcDbXrecord
280
     1
102
DISPLAYNAME
  1
Imperial24
102
FLAGS
 90
        0
  0
XRECORD
  5
1C
102
{ACAD_REACTORS
330
1A
102
}
330
1A
100
AcDbXrecord
280
     1
270
     1
271
     1
  0
XRECORD
  5
1B
102
{ACAD_REACTORS
330
1A
102
}
330
1A
100
AcDbXrecord
280
     1
270
     1
271
     1
  0
XRECORD
  5
1F
102
{ACAD_REACTORS
330
1A
102
}
330
1A
100
AcDbXrecord
280
     1
270
     1
271
     1
  0
XRECORD
  5
1E
102
{ACAD_REACTORS
330
1A
102
}
330
1A
100
AcDbXrecord
280
     1
270
     1
271
     1
  0
XRECORD
  5
20
102
{ACAD_REACTORS
330
1A
102
}
330
1A
100
AcDbXrecord
280
     1
270
     1
271
     1
  0
XRECORD
  5
1D
102
{ACAD_REACTORS
330
1A
102
}
330
1A
100
AcDbXrecord
280
     1
270
     1
271
     1
  0
XRECORD
  5
14
102
{ACAD_REACTORS
330
12
102
}
330
12
100
AcDbXrecord
280
     1
270
     1
271
     1
  0
XRECORD
  5
13
102
{ACAD_REACTORS
330
12
102
}
330
12
100
AcDbXrecord
280
     1
270
     1
271
     1
  0
XRECORD
  5
17
102
{ACAD_REACTORS
330
12
102
}
330
12
100
AcDbXrecord
280
     1
270
     1
271
     1
  0
XRECORD
  5
16
102
{ACAD_REACTORS
330
12
102
}
330
12
100
AcDbXrecord
280
     1
270
     1
271
     1
  0
XRECORD
  5
18
102
{ACAD_REACTORS
330
12
102
}
330
12
100
AcDbXrecord
280
     1
270
     1
271
     1
  0
XRECORD
  5
15
102
{ACAD_REACTORS
330
12
102
}
330
12
100
AcDbXrecord
280
     1
270
     1
271
     1
  0
XRECORD
  5
24
102
{ACAD_REACTORS
330
22
102
}
330
22
100
AcDbXrecord
280
     1
270
     1
271
     1
  0
XRECORD
  5
23
102
{ACAD_REACTORS
330
22
102
}
330
22
100
AcDbXrecord
280
     1
270
     1
271
     1
  0
XRECORD
  5
27
102
{ACAD_REACTORS
330
22
102
}
330
22
100
AcDbXrecord
280
     1
270
     1
271
     1
  0
XRECORD
  5
26
102
{ACAD_REACTORS
330
22
102
}
330
22
100
AcDbXrecord
280
     1
270
     1
271
     1
  0
XRECORD
  5
28
102
{ACAD_REACTORS
330
22
102
}
330
22
100
AcDbXrecord
280
     1
270
     1
271
     1
  0
XRECORD
  5
25
102
{ACAD_REACTORS
330
22
102
}
330
22
100
AcDbXrecord
280
     1
270
     1
271
     1
  0
XRECORD
  5
1D4
102
{ACAD_REACTORS
330
1D3
102
}
330
1D3
100
AcDbXrecord
280
     1
102
ACAD_ROUNDTRIP_2012_MLEADER_STYLE
298
     1
  0
XRECORD
  5
1D6
102
{ACAD_REACTORS
330
1D5
102
}
330
1D5
100
AcDbXrecord
280
     1
102
DISPLAYNAME
  1
Imperial24
102
FLAGS
 90
        0
  0
CELLSTYLEMAP
  5
1A1
102
{ACAD_REACTORS
330
1A0
102
}
330
1A0
100
AcDbCellStyleMap
 90
        3
300
CELLSTYLE
  1
TABLEFORMAT_BEGIN
 90
        5
170
     1
 91
        0
 92
    32768
 62
   257
 93
        1
300
CONTENTFORMAT
  1
CONTENTFORMAT_BEGIN
 90
        0
 91
        0
 92
      512
 93
        0
300

 40
0.0
140
1.0
 94
        5
 62
     0
340
55
144
0.25
309
CONTENTFORMAT_END
171
     0
 94
        0
309
TABLEFORMAT_END
  1
CELLSTYLE_BEGIN
 90
        1
 91
        1
300
_TITLE
309
CELLSTYLE_END
300
CELLSTYLE
  1
TABLEFORMAT_BEGIN
 90
        5
170
     1
 91
        0
 92
        0
 62
   257
 93
        1
300
CONTENTFORMAT
  1
CONTENTFORMAT_BEGIN
 90
        0
 91
        0
 92
      512
 93
        0
300

 40
0.0
140
1.0
 94
        5
 62
     0
340
55
144
0.18
309
CONTENTFORMAT_END
171
     0
 94
        0
309
TABLEFORMAT_END
  1
CELLSTYLE_BEGIN
 90
        2
 91
        1
300
_HEADER
309
CELLSTYLE_END
300
CELLSTYLE
  1
TABLEFORMAT_BEGIN
 90
        5
170
     1
 91
        0
 92
        0
 62
   257
 93
        1
300
CONTENTFORMAT
  1
CONTENTFORMAT_BEGIN
 90
        0
 91
        0
 92
      512
 93
        0
300

 40
0.0
140
1.0
 94
        2
 62
     0
340
55
144
0.18
309
CONTENTFORMAT_END
171
     0
 94
        0
309
TABLEFORMAT_END
  1
CELLSTYLE_BEGIN
 90
        3
 91
        2
300
_DATA
309
CELLSTYLE_END
  0
XRECORD
  5
1AE
102
{ACAD_REACTORS
330
1AD
102
}
330
1AD
100
AcDbXrecord
280
     1
102
RTVSPost2010Prop28
280
     1
102
RTVSPost2010PropOp28
 70
     1
102
RTVSPost2010Prop29
280
     1
102
RTVSPost2010PropOp29
 70
     1
102
RTVSPost2010Prop30
280
     0
102
RTVSPost2010PropOp30
 70
     1
102
RTVSPost2010Prop31
280
     0
102
RTVSPost2010PropOp31
 70
     1
102
RTVSPost2010Prop32
280
     0
102
RTVSPost2010PropOp32
 70
     1
102
RTVSPost2010Prop33
280
     0
102
RTVSPost2010PropOp33
 70
     1
102
RTVSPost2010Prop34
280
     0
102
RTVSPost2010PropOp34
 70
     1
102
RTVSPost2010Prop35
280
     0
102
RTVSPost2010PropOp35
 70
     1
102
RTVSPost2010Prop36
280
     0
102
RTVSPost2010PropOp36
 70
     1
102
RTVSPost2010Prop37
 90
       50
102
RTVSPost2010PropOp37
 70
     1
102
RTVSPost2010Prop38
140
0.0
102
RTVSPost2010PropOp38
 70
     1
102
RTVSPost2010Prop39
140
1.0
102
RTVSPost2010PropOp39
 70
     1
102
RTVSPost2010Prop40
 90
        0
102
RTVSPost2010PropOp40
 70
     1
102
RTVSPost2010Prop41ColorIndex
 90
       18
102
RTVSPost2010Prop41ColorRGB
 90
        0
102
RTVSPost2010PropOp41
 70
     1
102
RTVSPost2010Prop42
 90
       50
102
RTVSPost2010PropOp42
 70
     1
102
RTVSPost2010Prop43
 90
        3
102
RTVSPost2010PropOp43
 70
     1
102
RTVSPost2010Prop44ColorIndex
 90
        5
102
RTVSPost2010Prop44ColorRGB
 90
      255
102
RTVSPost2010PropOp44
 70
     1
102
RTVSPost2010Prop45
280
     0
102
RTVSPost2010PropOp45
 70
     1
102
RTVSPost2010Prop46
 90
       50
102
RTVSPost2010PropOp46
 70
     1
102
RTVSPost2010Prop47
 90
       50
102
RTVSPost2010PropOp47
 70
     1
102
RTVSPost2010Prop48
 90
       50
102
RTVSPost2010PropOp48
 70
     1
102
RTVSPost2010Prop49
280
     0
102
RTVSPost2010PropOp49
 70
     1
102
RTVSPost2010Prop50
 90
       50
102
RTVSPost2010PropOp50
 70
     1
102
RTVSPost2010Prop51ColorIndex
 90
      256
102
RTVSPost2010Prop51ColorRGB
 90
-16777216
102
RTVSPost2010PropOp51
 70
     0
102
RTVSPost2010Prop52
140
1.0
102
RTVSPost2010PropOp52
 70
     0
102
RTVSPost2010Prop53
 90
        2
102
RTVSPost2010PropOp53
 70
     1
102
RTVSPost2010Prop54
  1
strokes_ogs.tif
102
RTVSPost2010PropOp54
 70
     1
102
RTVSPost2010Prop55
280
     0
102
RTVSPost2010PropOp55
 70
     1
102
RTVSPost2010Prop56
140
1.0
102
RTVSPost2010PropOp56
 70
     1
102
RTVSPost2010Prop57
140
1.0
102
RTVSPost2010PropOp57
 70
     1
  0
XRECORD
  5
1AC
102
{ACAD_REACTORS
330
1AB
102
}
330
1AB
100
AcDbXrecord
280
     1
102
RTVSPost2010Prop28
280
     0
102
RTVSPost2010PropOp28
 70
     1
102
RTVSPost2010Prop29
280
     1
102
RTVSPost2010PropOp29
 70
     1
102
RTVSPost2010Prop30
280
     1
102
RTVSPost2010PropOp30
 70
     1
102
RTVSPost2010Prop31
280
     0
102
RTVSPost2010PropOp31
 70
     1
102
RTVSPost2010Prop32
280
     0
102
RTVSPost2010PropOp32
 70
     1
102
RTVSPost2010Prop33
280
     0
102
RTVSPost2010PropOp33
 70
     1
102
RTVSPost2010Prop34
280
     0
102
RTVSPost2010PropOp34
 70
     1
102
RTVSPost2010Prop35
280
     0
102
RTVSPost2010PropOp35
 70
     1
102
RTVSPost2010Prop36
280
     0
102
RTVSPost2010PropOp36
 70
     1
102
RTVSPost2010Prop37
 90
       50
102
RTVSPost2010PropOp37
 70
     1
102
RTVSPost2010Prop38
140
0.0
102
RTVSPost2010PropOp38
 70
     1
102
RTVSPost2010Prop39
140
1.0
102
RTVSPost2010PropOp39
 70
     1
102
RTVSPost2010Prop40
 90
        0
102
RTVSPost2010PropOp40
 70
     1
102
RTVSPost2010Prop41ColorIndex
 90
       18
102
RTVSPost2010Prop41ColorRGB
 90
        0
102
RTVSPost2010PropOp41
 70
     1
102
RTVSPost2010Prop42
 90
       50
102
RTVSPost2010PropOp42
 70
     1
102
RTVSPost2010Prop43
 90
        3
102
RTVSPost2010PropOp43
 70
     1
102
RTVSPost2010Prop44ColorIndex
 90
        5
102
RTVSPost2010Prop44ColorRGB
 90
      255
102
RTVSPost2010PropOp44
 70
     1
102
RTVSPost2010Prop45
280
     0
102
RTVSPost2010PropOp45
 70
     1
102
RTVSPost2010Prop46
 90
       50
102
RTVSPost2010PropOp46
 70
     1
102
RTVSPost2010Prop47
 90
       50
102
RTVSPost2010PropOp47
 70
     1
102
RTVSPost2010Prop48
 90
       50
102
RTVSPost2010PropOp48
 70
     1
102
RTVSPost2010Prop49
280
     0
102
RTVSPost2010PropOp49
 70
     1
102
RTVSPost2010Prop50
 90
       50
102
RTVSPost2010PropOp50
 70
     1
102
RTVSPost2010Prop51ColorIndex
 90
      256
102
RTVSPost2010Prop51ColorRGB
 90
-16777216
102
RTVSPost2010PropOp51
 70
     0
102
RTVSPost2010Prop52
140
1.0
102
RTVSPost2010PropOp52
 70
     0
102
RTVSPost2010Prop53
 90
        2
102
RTVSPost2010PropOp53
 70
     1
102
RTVSPost2010Prop54
  1
strokes_ogs.tif
102
RTVSPost2010PropOp54
 70
     1
102
RTVSPost2010Prop55
280
     0
102
RTVSPost2010PropOp55
 70
     1
102
RTVSPost2010Prop56
140
1.0
102
RTVSPost2010PropOp56
 70
     1
102
RTVSPost2010Prop57
140
1.0
102
RTVSPost2010PropOp57
 70
     1
  0
XRECORD
  5
1BA
102
{ACAD_REACTORS
330
1B9
102
}
330
1B9
100
AcDbXrecord
280
     1
102
RTVSPost2010Prop28
280
     0
102
RTVSPost2010PropOp28
 70
     1
102
RTVSPost2010Prop29
280
     1
102
RTVSPost2010PropOp29
 70
     1
102
RTVSPost2010Prop30
280
     1
102
RTVSPost2010PropOp30
 70
     1
102
RTVSPost2010Prop31
280
     0
102
RTVSPost2010PropOp31
 70
     1
102
RTVSPost2010Prop32
280
     0
102
RTVSPost2010PropOp32
 70
     1
102
RTVSPost2010Prop33
280
     0
102
RTVSPost2010PropOp33
 70
     1
102
RTVSPost2010Prop34
280
     0
102
RTVSPost2010PropOp34
 70
     1
102
RTVSPost2010Prop35
280
     0
102
RTVSPost2010PropOp35
 70
     1
102
RTVSPost2010Prop36
280
     0
102
RTVSPost2010PropOp36
 70
     1
102
RTVSPost2010Prop37
 90
       50
102
RTVSPost2010PropOp37
 70
     1
102
RTVSPost2010Prop38
140
0.0
102
RTVSPost2010PropOp38
 70
     1
102
RTVSPost2010Prop39
140
1.0
102
RTVSPost2010PropOp39
 70
     1
102
RTVSPost2010Prop40
 90
        0
102
RTVSPost2010PropOp40
 70
     1
102
RTVSPost2010Prop41ColorIndex
 90
       18
102
RTVSPost2010Prop41ColorRGB
 90
        0
102
RTVSPost2010PropOp41
 70
     1
102
RTVSPost2010Prop42
 90
       50
102
RTVSPost2010PropOp42
 70
     1
102
RTVSPost2010Prop43
 90
        3
102
RTVSPost2010PropOp43
 70
     1
102
RTVSPost2010Prop44ColorIndex
 90
        5
102
RTVSPost2010Prop44ColorRGB
 90
      255
102
RTVSPost2010PropOp44
 70
     1
102
RTVSPost2010Prop45
280
     0
102
RTVSPost2010PropOp45
 70
     1
102
RTVSPost2010Prop46
 90
       50
102
RTVSPost2010PropOp46
 70
     1
102
RTVSPost2010Prop47
 90
       50
102
RTVSPost2010PropOp47
 70
     1
102
RTVSPost2010Prop48
 90
       50
102
RTVSPost2010PropOp48
 70
     1
102
RTVSPost2010Prop49
280
     0
102
RTVSPost2010PropOp49
 70
     1
102
RTVSPost2010Prop50
 90
       50
102
RTVSPost2010PropOp50
 70
     1
102
RTVSPost2010Prop51ColorIndex
 90
      256
102
RTVSPost2010Prop51ColorRGB
 90
-16777216
102
RTVSPost2010PropOp51
 70
     0
102
RTVSPost2010Prop52
140
1.0
102
RTVSPost2010PropOp52
 70
     0
102
RTVSPost2010Prop53
 90
        2
102
RTVSPost2010PropOp53
 70
     1
102
RTVSPost2010Prop54
  1
strokes_ogs.tif
102
RTVSPost2010PropOp54
 70
     1
102
RTVSPost2010Prop55
280
     0
102
RTVSPost2010PropOp55
 70
     1
102
RTVSPost2010Prop56
140
1.0
102
RTVSPost2010PropOp56
 70
     1
102
RTVSPost2010Prop57
140
1.0
102
RTVSPost2010PropOp57
 70
     1
  0
XRECORD
  5
1C2
102
{ACAD_REACTORS
330
1C1
102
}
330
1C1
100
AcDbXrecord
280
     1
102
RTVSPost2010Prop28
280
     0
102
RTVSPost2010PropOp28
 70
     1
102
RTVSPost2010Prop29
280
     1
102
RTVSPost2010PropOp29
 70
     1
102
RTVSPost2010Prop30
280
     1
102
RTVSPost2010PropOp30
 70
     1
102
RTVSPost2010Prop31
280
     0
102
RTVSPost2010PropOp31
 70
     1
102
RTVSPost2010Prop32
280
     0
102
RTVSPost2010PropOp32
 70
     1
102
RTVSPost2010Prop33
280
     0
102
RTVSPost2010PropOp33
 70
     1
102
RTVSPost2010Prop34
280
     0
102
RTVSPost2010PropOp34
 70
     1
102
RTVSPost2010Prop35
280
     0
102
RTVSPost2010PropOp35
 70
     1
102
RTVSPost2010Prop36
280
     0
102
RTVSPost2010PropOp36
 70
     1
102
RTVSPost2010Prop37
 90
       50
102
RTVSPost2010PropOp37
 70
     1
102
RTVSPost2010Prop38
140
0.0
102
RTVSPost2010PropOp38
 70
     1
102
RTVSPost2010Prop39
140
1.0
102
RTVSPost2010PropOp39
 70
     1
102
RTVSPost2010Prop40
 90
        0
102
RTVSPost2010PropOp40
 70
     1
102
RTVSPost2010Prop41ColorIndex
 90
       18
102
RTVSPost2010Prop41ColorRGB
 90
        0
102
RTVSPost2010PropOp41
 70
     1
102
RTVSPost2010Prop42
 90
       50
102
RTVSPost2010PropOp42
 70
     1
102
RTVSPost2010Prop43
 90
        3
102
RTVSPost2010PropOp43
 70
     1
102
RTVSPost2010Prop44ColorIndex
 90
        5
102
RTVSPost2010Prop44ColorRGB
 90
      255
102
RTVSPost2010PropOp44
 70
     1
102
RTVSPost2010Prop45
280
     0
102
RTVSPost2010PropOp45
 70
     1
102
RTVSPost2010Prop46
 90
       50
102
RTVSPost2010PropOp46
 70
     1
102
RTVSPost2010Prop47
 90
       50
102
RTVSPost2010PropOp47
 70
     1
102
RTVSPost2010Prop48
 90
       50
102
RTVSPost2010PropOp48
 70
     1
102
RTVSPost2010Prop49
280
     0
102
RTVSPost2010PropOp49
 70
     1
102
RTVSPost2010Prop50
 90
       50
102
RTVSPost2010PropOp50
 70
     1
102
RTVSPost2010Prop51ColorIndex
 90
      256
102
RTVSPost2010Prop51ColorRGB
 90
-16777216
102
RTVSPost2010PropOp51
 70
     0
102
RTVSPost2010Prop52
140
1.0
102
RTVSPost2010PropOp52
 70
     0
102
RTVSPost2010Prop53
 90
        2
102
RTVSPost2010PropOp53
 70
     1
102
RTVSPost2010Prop54
  1
strokes_ogs.tif
102
RTVSPost2010PropOp54
 70
     1
102
RTVSPost2010Prop55
280
     0
102
RTVSPost2010PropOp55
 70
     1
102
RTVSPost2010Prop56
140
1.0
102
RTVSPost2010PropOp56
 70
     1
102
RTVSPost2010Prop57
140
1.0
102
RTVSPost2010PropOp57
 70
     1
  0
XRECORD
  5
1B4
102
{ACAD_REACTORS
330
1B3
102
}
330
1B3
100
AcDbXrecord
280
     1
102
RTVSPost2010Prop28
280
     0
102
RTVSPost2010PropOp28
 70
     1
102
RTVSPost2010Prop29
280
     1
102
RTVSPost2010PropOp29
 70
     1
102
RTVSPost2010Prop30
280
     1
102
RTVSPost2010PropOp30
 70
     1
102
RTVSPost2010Prop31
280
     0
102
RTVSPost2010PropOp31
 70
     1
102
RTVSPost2010Prop32
280
     0
102
RTVSPost2010PropOp32
 70
     1
102
RTVSPost2010Prop33
280
     0
102
RTVSPost2010PropOp33
 70
     1
102
RTVSPost2010Prop34
280
     0
102
RTVSPost2010PropOp34
 70
     1
102
RTVSPost2010Prop35
280
     0
102
RTVSPost2010PropOp35
 70
     1
102
RTVSPost2010Prop36
280
     0
102
RTVSPost2010PropOp36
 70
     1
102
RTVSPost2010Prop37
 90
       50
102
RTVSPost2010PropOp37
 70
     1
102
RTVSPost2010Prop38
140
0.0
102
RTVSPost2010PropOp38
 70
     1
102
RTVSPost2010Prop39
140
1.0
102
RTVSPost2010PropOp39
 70
     1
102
RTVSPost2010Prop40
 90
        0
102
RTVSPost2010PropOp40
 70
     1
102
RTVSPost2010Prop41ColorIndex
 90
       18
102
RTVSPost2010Prop41ColorRGB
 90
        0
102
RTVSPost2010PropOp41
 70
     1
102
RTVSPost2010Prop42
 90
       50
102
RTVSPost2010PropOp42
 70
     1
102
RTVSPost2010Prop43
 90
        3
102
RTVSPost2010PropOp43
 70
     1
102
RTVSPost2010Prop44ColorIndex
 90
        5
102
RTVSPost2010Prop44ColorRGB
 90
      255
102
RTVSPost2010PropOp44
 70
     1
102
RTVSPost2010Prop45
280
     0
102
RTVSPost2010PropOp45
 70
     1
102
RTVSPost2010Prop46
 90
       50
102
RTVSPost2010PropOp46
 70
     1
102
RTVSPost2010Prop47
 90
       50
102
RTVSPost2010PropOp47
 70
     1
102
RTVSPost2010Prop48
 90
       50
102
RTVSPost2010PropOp48
 70
     1
102
RTVSPost2010Prop49
280
     0
102
RTVSPost2010PropOp49
 70
     1
102
RTVSPost2010Prop50
 90
       50
102
RTVSPost2010PropOp50
 70
     1
102
RTVSPost2010Prop51ColorIndex
 90
      256
102
RTVSPost2010Prop51ColorRGB
 90
-16777216
102
RTVSPost2010PropOp51
 70
     0
102
RTVSPost2010Prop52
140
1.0
102
RTVSPost2010PropOp52
 70
     0
102
RTVSPost2010Prop53
 90
        2
102
RTVSPost2010PropOp53
 70
     1
102
RTVSPost2010Prop54
  1
strokes_ogs.tif
102
RTVSPost2010PropOp54
 70
     1
102
RTVSPost2010Prop55
280
     0
102
RTVSPost2010PropOp55
 70
     1
102
RTVSPost2010Prop56
140
1.0
102
RTVSPost2010PropOp56
 70
     1
102
RTVSPost2010Prop57
140
1.0
102
RTVSPost2010PropOp57
 70
     1
  0
XRECORD
  5
1B8
102
{ACAD_REACTORS
330
1B7
102
}
330
1B7
100
AcDbXrecord
280
     1
102
RTVSPost2010Prop28
280
     0
102
RTVSPost2010PropOp28
 70
     1
102
RTVSPost2010Prop29
280
     1
102
RTVSPost2010PropOp29
 70
     1
102
RTVSPost2010Prop30
280
     1
102
RTVSPost2010PropOp30
 70
     1
102
RTVSPost2010Prop31
280
     0
102
RTVSPost2010PropOp31
 70
     1
102
RTVSPost2010Prop32
280
     0
102
RTVSPost2010PropOp32
 70
     1
102
RTVSPost2010Prop33
280
     0
102
RTVSPost2010PropOp33
 70
     1
102
RTVSPost2010Prop34
280
     0
102
RTVSPost2010PropOp34
 70
     1
102
RTVSPost2010Prop35
280
     0
102
RTVSPost2010PropOp35
 70
     1
102
RTVSPost2010Prop36
280
     0
102
RTVSPost2010PropOp36
 70
     1
102
RTVSPost2010Prop37
 90
       50
102
RTVSPost2010PropOp37
 70
     1
102
RTVSPost2010Prop38
140
0.0
102
RTVSPost2010PropOp38
 70
     1
102
RTVSPost2010Prop39
140
1.0
102
RTVSPost2010PropOp39
 70
     1
102
RTVSPost2010Prop40
 90
        0
102
RTVSPost2010PropOp40
 70
     1
102
RTVSPost2010Prop41ColorIndex
 90
       18
102
RTVSPost2010Prop41ColorRGB
 90
        0
102
RTVSPost2010PropOp41
 70
     1
102
RTVSPost2010Prop42
 90
       50
102
RTVSPost2010PropOp42
 70
     1
102
RTVSPost2010Prop43
 90
        3
102
RTVSPost2010PropOp43
 70
     1
102
RTVSPost2010Prop44ColorIndex
 90
        5
102
RTVSPost2010Prop44ColorRGB
 90
      255
102
RTVSPost2010PropOp44
 70
     1
102
RTVSPost2010Prop45
280
     0
102
RTVSPost2010PropOp45
 70
     1
102
RTVSPost2010Prop46
 90
       50
102
RTVSPost2010PropOp46
 70
     1
102
RTVSPost2010Prop47
 90
       50
102
RTVSPost2010PropOp47
 70
     1
102
RTVSPost2010Prop48
 90
       50
102
RTVSPost2010PropOp48
 70
     1
102
RTVSPost2010Prop49
280
     0
102
RTVSPost2010PropOp49
 70
     1
102
RTVSPost2010Prop50
 90
       50
102
RTVSPost2010PropOp50
 70
     1
102
RTVSPost2010Prop51ColorIndex
 90
      256
102
RTVSPost2010Prop51ColorRGB
 90
-16777216
102
RTVSPost2010PropOp51
 70
     0
102
RTVSPost2010Prop52
140
1.0
102
RTVSPost2010PropOp52
 70
     0
102
RTVSPost2010Prop53
 90
        2
102
RTVSPost2010PropOp53
 70
     1
102
RTVSPost2010Prop54
  1
strokes_ogs.tif
102
RTVSPost2010PropOp54
 70
     1
102
RTVSPost2010Prop55
280
     0
102
RTVSPost2010PropOp55
 70
     1
102
RTVSPost2010Prop56
140
1.0
102
RTVSPost2010PropOp56
 70
     1
102
RTVSPost2010Prop57
140
1.0
102
RTVSPost2010PropOp57
 70
     1
  0
XRECORD
  5
1D2
102
{ACAD_REACTORS
330
1D1
102
}
330
1D1
100
AcDbXrecord
280
     1
102
RTVSPost2010Prop28
280
     0
102
RTVSPost2010PropOp28
 70
     0
102
RTVSPost2010Prop29
280
     1
102
RTVSPost2010PropOp29
 70
     0
102
RTVSPost2010Prop30
280
     1
102
RTVSPost2010PropOp30
 70
     0
102
RTVSPost2010Prop31
280
     0
102
RTVSPost2010PropOp31
 70
     0
102
RTVSPost2010Prop32
280
     0
102
RTVSPost2010PropOp32
 70
     0
102
RTVSPost2010Prop33
280
     0
102
RTVSPost2010PropOp33
 70
     0
102
RTVSPost2010Prop34
280
     0
102
RTVSPost2010PropOp34
 70
     0
102
RTVSPost2010Prop35
280
     0
102
RTVSPost2010PropOp35
 70
     0
102
RTVSPost2010Prop36
280
     0
102
RTVSPost2010PropOp36
 70
     0
102
RTVSPost2010Prop37
 90
       50
102
RTVSPost2010PropOp37
 70
     0
102
RTVSPost2010Prop38
140
0.0
102
RTVSPost2010PropOp38
 70
     0
102
RTVSPost2010Prop39
140
1.0
102
RTVSPost2010PropOp39
 70
     0
102
RTVSPost2010Prop40
 90
        0
102
RTVSPost2010PropOp40
 70
     0
102
RTVSPost2010Prop41ColorIndex
 90
       18
102
RTVSPost2010Prop41ColorRGB
 90
        0
102
RTVSPost2010PropOp41
 70
     0
102
RTVSPost2010Prop42
 90
       50
102
RTVSPost2010PropOp42
 70
     0
102
RTVSPost2010Prop43
 90
        3
102
RTVSPost2010PropOp43
 70
     0
102
RTVSPost2010Prop44ColorIndex
 90
        5
102
RTVSPost2010Prop44ColorRGB
 90
      255
102
RTVSPost2010PropOp44
 70
     0
102
RTVSPost2010Prop45
280
     0
102
RTVSPost2010PropOp45
 70
     0
102
RTVSPost2010Prop46
 90
       50
102
RTVSPost2010PropOp46
 70
     0
102
RTVSPost2010Prop47
 90
       50
102
RTVSPost2010PropOp47
 70
     0
102
RTVSPost2010Prop48
 90
       50
102
RTVSPost2010PropOp48
 70
     0
102
RTVSPost2010Prop49
280
     0
102
RTVSPost2010PropOp49
 70
     0
102
RTVSPost2010Prop50
 90
       50
102
RTVSPost2010PropOp50
 70
     0
102
RTVSPost2010Prop51ColorIndex
 90
      256
102
RTVSPost2010Prop51ColorRGB
 90
-16777216
102
RTVSPost2010PropOp51
 70
     0
102
RTVSPost2010Prop52
140
1.0
102
RTVSPost2010PropOp52
 70
     0
102
RTVSPost2010Prop53
 90
        2
102
RTVSPost2010PropOp53
 70
     0
102
RTVSPost2010Prop54
  1
strokes_ogs.tif
102
RTVSPost2010PropOp54
 70
     0
102
RTVSPost2010Prop55
280
     0
102
RTVSPost2010PropOp55
 70
     0
102
RTVSPost2010Prop56
140
1.0
102
RTVSPost2010PropOp56
 70
     0
102
RTVSPost2010Prop57
140
1.0
102
RTVSPost2010PropOp57
 70
     0
  0
XRECORD
  5
1C0
102
{ACAD_REACTORS
330
1BF
102
}
330
1BF
100
AcDbXrecord
280
     1
102
RTVSPost2010Prop28
280
     0
102
RTVSPost2010PropOp28
 70
     1
102
RTVSPost2010Prop29
280
     1
102
RTVSPost2010PropOp29
 70
     1
102
RTVSPost2010Prop30
280
     1
102
RTVSPost2010PropOp30
 70
     1
102
RTVSPost2010Prop31
280
     0
102
RTVSPost2010PropOp31
 70
     1
102
RTVSPost2010Prop32
280
     0
102
RTVSPost2010PropOp32
 70
     1
102
RTVSPost2010Prop33
280
     0
102
RTVSPost2010PropOp33
 70
     1
102
RTVSPost2010Prop34
280
     0
102
RTVSPost2010PropOp34
 70
     1
102
RTVSPost2010Prop35
280
     0
102
RTVSPost2010PropOp35
 70
     1
102
RTVSPost2010Prop36
280
     0
102
RTVSPost2010PropOp36
 70
     1
102
RTVSPost2010Prop37
 90
       50
102
RTVSPost2010PropOp37
 70
     1
102
RTVSPost2010Prop38
140
0.0
102
RTVSPost2010PropOp38
 70
     1
102
RTVSPost2010Prop39
140
1.0
102
RTVSPost2010PropOp39
 70
     1
102
RTVSPost2010Prop40
 90
        0
102
RTVSPost2010PropOp40
 70
     1
102
RTVSPost2010Prop41ColorIndex
 90
       18
102
RTVSPost2010Prop41ColorRGB
 90
        0
102
RTVSPost2010PropOp41
 70
     1
102
RTVSPost2010Prop42
 90
       50
102
RTVSPost2010PropOp42
 70
     1
102
RTVSPost2010Prop43
 90
        3
102
RTVSPost2010PropOp43
 70
     1
102
RTVSPost2010Prop44ColorIndex
 90
        5
102
RTVSPost2010Prop44ColorRGB
 90
      255
102
RTVSPost2010PropOp44
 70
     1
102
RTVSPost2010Prop45
280
     0
102
RTVSPost2010PropOp45
 70
     1
102
RTVSPost2010Prop46
 90
       50
102
RTVSPost2010PropOp46
 70
     1
102
RTVSPost2010Prop47
 90
       50
102
RTVSPost2010PropOp47
 70
     1
102
RTVSPost2010Prop48
 90
       50
102
RTVSPost2010PropOp48
 70
     1
102
RTVSPost2010Prop49
280
     0
102
RTVSPost2010PropOp49
 70
     1
102
RTVSPost2010Prop50
 90
       50
102
RTVSPost2010PropOp50
 70
     1
102
RTVSPost2010Prop51ColorIndex
 90
      256
102
RTVSPost2010Prop51ColorRGB
 90
-16777216
102
RTVSPost2010PropOp51
 70
     0
102
RTVSPost2010Prop52
140
1.0
102
RTVSPost2010PropOp52
 70
     0
102
RTVSPost2010Prop53
 90
        2
102
RTVSPost2010PropOp53
 70
     1
102
RTVSPost2010Prop54
  1
strokes_ogs.tif
102
RTVSPost2010PropOp54
 70
     1
102
RTVSPost2010Prop55
280
     0
102
RTVSPost2010PropOp55
 70
     1
102
RTVSPost2010Prop56
140
1.0
102
RTVSPost2010PropOp56
 70
     1
102
RTVSPost2010Prop57
140
1.0
102
RTVSPost2010PropOp57
 70
     1
  0
XRECORD
  5
1A4
102
{ACAD_REACTORS
330
1A3
102
}
330
1A3
100
AcDbXrecord
280
     1
102
RTVSPost2010Prop28
280
     0
102
RTVSPost2010PropOp28
 70
     1
102
RTVSPost2010Prop29
280
     1
102
RTVSPost2010PropOp29
 70
     1
102
RTVSPost2010Prop30
280
     1
102
RTVSPost2010PropOp30
 70
     1
102
RTVSPost2010Prop31
280
     0
102
RTVSPost2010PropOp31
 70
     1
102
RTVSPost2010Prop32
280
     0
102
RTVSPost2010PropOp32
 70
     1
102
RTVSPost2010Prop33
280
     0
102
RTVSPost2010PropOp33
 70
     1
102
RTVSPost2010Prop34
280
     0
102
RTVSPost2010PropOp34
 70
     1
102
RTVSPost2010Prop35
280
     0
102
RTVSPost2010PropOp35
 70
     1
102
RTVSPost2010Prop36
280
     0
102
RTVSPost2010PropOp36
 70
     1
102
RTVSPost2010Prop37
 90
       50
102
RTVSPost2010PropOp37
 70
     1
102
RTVSPost2010Prop38
140
0.0
102
RTVSPost2010PropOp38
 70
     1
102
RTVSPost2010Prop39
140
1.0
102
RTVSPost2010PropOp39
 70
     1
102
RTVSPost2010Prop40
 90
        0
102
RTVSPost2010PropOp40
 70
     1
102
RTVSPost2010Prop41ColorIndex
 90
       18
102
RTVSPost2010Prop41ColorRGB
 90
        0
102
RTVSPost2010PropOp41
 70
     1
102
RTVSPost2010Prop42
 90
       50
102
RTVSPost2010PropOp42
 70
     1
102
RTVSPost2010Prop43
 90
        3
102
RTVSPost2010PropOp43
 70
     1
102
RTVSPost2010Prop44ColorIndex
 90
        5
102
RTVSPost2010Prop44ColorRGB
 90
      255
102
RTVSPost2010PropOp44
 70
     1
102
RTVSPost2010Prop45
280
     0
102
RTVSPost2010PropOp45
 70
     1
102
RTVSPost2010Prop46
 90
       50
102
RTVSPost2010PropOp46
 70
     1
102
RTVSPost2010Prop47
 90
       50
102
RTVSPost2010PropOp47
 70
     1
102
RTVSPost2010Prop48
 90
       50
102
RTVSPost2010PropOp48
 70
     1
102
RTVSPost2010Prop49
280
     0
102
RTVSPost2010PropOp49
 70
     1
102
RTVSPost2010Prop50
 90
       50
102
RTVSPost2010PropOp50
 70
     1
102
RTVSPost2010Prop51ColorIndex
 90
      256
102
RTVSPost2010Prop51ColorRGB
 90
-16777216
102
RTVSPost2010PropOp51
 70
     0
102
RTVSPost2010Prop52
140
1.0
102
RTVSPost2010PropOp52
 70
     0
102
RTVSPost2010Prop53
 90
        2
102
RTVSPost2010PropOp53
 70
     1
102
RTVSPost2010Prop54
  1
strokes_ogs.tif
102
RTVSPost2010PropOp54
 70
     1
102
RTVSPost2010Prop55
280
     0
102
RTVSPost2010PropOp55
 70
     1
102
RTVSPost2010Prop56
140
1.0
102
RTVSPost2010PropOp56
 70
     1
102
RTVSPost2010Prop57
140
1.0
102
RTVSPost2010PropOp57
 70
     1
  0
XRECORD
  5
1A6
102
{ACAD_REACTORS
330
1A5
102
}
330
1A5
100
AcDbXrecord
280
     1
102
RTVSPost2010Prop28
280
     0
102
RTVSPost2010PropOp28
 70
     1
102
RTVSPost2010Prop29
280
     1
102
RTVSPost2010PropOp29
 70
     1
102
RTVSPost2010Prop30
280
     1
102
RTVSPost2010PropOp30
 70
     1
102
RTVSPost2010Prop31
280
     0
102
RTVSPost2010PropOp31
 70
     1
102
RTVSPost2010Prop32
280
     0
102
RTVSPost2010PropOp32
 70
     1
102
RTVSPost2010Prop33
280
     0
102
RTVSPost2010PropOp33
 70
     1
102
RTVSPost2010Prop34
280
     0
102
RTVSPost2010PropOp34
 70
     1
102
RTVSPost2010Prop35
280
     0
102
RTVSPost2010PropOp35
 70
     1
102
RTVSPost2010Prop36
280
     0
102
RTVSPost2010PropOp36
 70
     1
102
RTVSPost2010Prop37
 90
       50
102
RTVSPost2010PropOp37
 70
     1
102
RTVSPost2010Prop38
140
0.0
102
RTVSPost2010PropOp38
 70
     1
102
RTVSPost2010Prop39
140
1.0
102
RTVSPost2010PropOp39
 70
     1
102
RTVSPost2010Prop40
 90
        0
102
RTVSPost2010PropOp40
 70
     1
102
RTVSPost2010Prop41ColorIndex
 90
       18
102
RTVSPost2010Prop41ColorRGB
 90
        0
102
RTVSPost2010PropOp41
 70
     1
102
RTVSPost2010Prop42
 90
       50
102
RTVSPost2010PropOp42
 70
     1
102
RTVSPost2010Prop43
 90
        3
102
RTVSPost2010PropOp43
 70
     1
102
RTVSPost2010Prop44ColorIndex
 90
        5
102
RTVSPost2010Prop44ColorRGB
 90
      255
102
RTVSPost2010PropOp44
 70
     1
102
RTVSPost2010Prop45
280
     0
102
RTVSPost2010PropOp45
 70
     1
102
RTVSPost2010Prop46
 90
       50
102
RTVSPost2010PropOp46
 70
     1
102
RTVSPost2010Prop47
 90
       50
102
RTVSPost2010PropOp47
 70
     1
102
RTVSPost2010Prop48
 90
       50
102
RTVSPost2010PropOp48
 70
     1
102
RTVSPost2010Prop49
280
     0
102
RTVSPost2010PropOp49
 70
     1
102
RTVSPost2010Prop50
 90
       50
102
RTVSPost2010PropOp50
 70
     1
102
RTVSPost2010Prop51ColorIndex
 90
      256
102
RTVSPost2010Prop51ColorRGB
 90
-16777216
102
RTVSPost2010PropOp51
 70
     0
102
RTVSPost2010Prop52
140
1.0
102
RTVSPost2010PropOp52
 70
     0
102
RTVSPost2010Prop53
 90
        2
102
RTVSPost2010PropOp53
 70
     1
102
RTVSPost2010Prop54
  1
strokes_ogs.tif
102
RTVSPost2010PropOp54
 70
     1
102
RTVSPost2010Prop55
280
     0
102
RTVSPost2010PropOp55
 70
     1
102
RTVSPost2010Prop56
140
1.0
102
RTVSPost2010PropOp56
 70
     1
102
RTVSPost2010Prop57
140
1.0
102
RTVSPost2010PropOp57
 70
     1
  0
XRECORD
  5
1A8
102
{ACAD_REACTORS
330
1A7
102
}
330
1A7
100
AcDbXrecord
280
     1
102
RTVSPost2010Prop28
280
     0
102
RTVSPost2010PropOp28
 70
     1
102
RTVSPost2010Prop29
280
     1
102
RTVSPost2010PropOp29
 70
     1
102
RTVSPost2010Prop30
280
     1
102
RTVSPost2010PropOp30
 70
     1
102
RTVSPost2010Prop31
280
     0
102
RTVSPost2010PropOp31
 70
     1
102
RTVSPost2010Prop32
280
     0
102
RTVSPost2010PropOp32
 70
     1
102
RTVSPost2010Prop33
280
     0
102
RTVSPost2010PropOp33
 70
     1
102
RTVSPost2010Prop34
280
     0
102
RTVSPost2010PropOp34
 70
     1
102
RTVSPost2010Prop35
280
     0
102
RTVSPost2010PropOp35
 70
     1
102
RTVSPost2010Prop36
280
     0
102
RTVSPost2010PropOp36
 70
     1
102
RTVSPost2010Prop37
 90
       50
102
RTVSPost2010PropOp37
 70
     1
102
RTVSPost2010Prop38
140
0.0
102
RTVSPost2010PropOp38
 70
     1
102
RTVSPost2010Prop39
140
1.0
102
RTVSPost2010PropOp39
 70
     1
102
RTVSPost2010Prop40
 90
        0
102
RTVSPost2010PropOp40
 70
     1
102
RTVSPost2010Prop41ColorIndex
 90
       18
102
RTVSPost2010Prop41ColorRGB
 90
        0
102
RTVSPost2010PropOp41
 70
     1
102
RTVSPost2010Prop42
 90
       50
102
RTVSPost2010PropOp42
 70
     1
102
RTVSPost2010Prop43
 90
        3
102
RTVSPost2010PropOp43
 70
     1
102
RTVSPost2010Prop44ColorIndex
 90
        5
102
RTVSPost2010Prop44ColorRGB
 90
      255
102
RTVSPost2010PropOp44
 70
     1
102
RTVSPost2010Prop45
280
     0
102
RTVSPost2010PropOp45
 70
     1
102
RTVSPost2010Prop46
 90
       50
102
RTVSPost2010PropOp46
 70
     1
102
RTVSPost2010Prop47
 90
       50
102
RTVSPost2010PropOp47
 70
     1
102
RTVSPost2010Prop48
 90
       50
102
RTVSPost2010PropOp48
 70
     1
102
RTVSPost2010Prop49
280
     0
102
RTVSPost2010PropOp49
 70
     1
102
RTVSPost2010Prop50
 90
       50
102
RTVSPost2010PropOp50
 70
     1
102
RTVSPost2010Prop51ColorIndex
 90
      256
102
RTVSPost2010Prop51ColorRGB
 90
-16777216
102
RTVSPost2010PropOp51
 70
     0
102
RTVSPost2010Prop52
140
1.0
102
RTVSPost2010PropOp52
 70
     0
102
RTVSPost2010Prop53
 90
        2
102
RTVSPost2010PropOp53
 70
     1
102
RTVSPost2010Prop54
  1
strokes_ogs.tif
102
RTVSPost2010PropOp54
 70
     1
102
RTVSPost2010Prop55
280
     0
102
RTVSPost2010PropOp55
 70
     1
102
RTVSPost2010Prop56
140
1.0
102
RTVSPost2010PropOp56
 70
     1
102
RTVSPost2010Prop57
140
1.0
102
RTVSPost2010PropOp57
 70
     1
  0
XRECORD
  5
1AA
102
{ACAD_REACTORS
330
1A9
102
}
330
1A9
100
AcDbXrecord
280
     1
102
RTVSPost2010Prop28
280
     0
102
RTVSPost2010PropOp28
 70
     1
102
RTVSPost2010Prop29
280
     1
102
RTVSPost2010PropOp29
 70
     1
102
RTVSPost2010Prop30
280
     1
102
RTVSPost2010PropOp30
 70
     1
102
RTVSPost2010Prop31
280
     0
102
RTVSPost2010PropOp31
 70
     1
102
RTVSPost2010Prop32
280
     0
102
RTVSPost2010PropOp32
 70
     1
102
RTVSPost2010Prop33
280
     0
102
RTVSPost2010PropOp33
 70
     1
102
RTVSPost2010Prop34
280
     0
102
RTVSPost2010PropOp34
 70
     1
102
RTVSPost2010Prop35
280
     0
102
RTVSPost2010PropOp35
 70
     1
102
RTVSPost2010Prop36
280
     0
102
RTVSPost2010PropOp36
 70
     1
102
RTVSPost2010Prop37
 90
       50
102
RTVSPost2010PropOp37
 70
     1
102
RTVSPost2010Prop38
140
0.0
102
RTVSPost2010PropOp38
 70
     1
102
RTVSPost2010Prop39
140
1.0
102
RTVSPost2010PropOp39
 70
     1
102
RTVSPost2010Prop40
 90
        0
102
RTVSPost2010PropOp40
 70
     1
102
RTVSPost2010Prop41ColorIndex
 90
       18
102
RTVSPost2010Prop41ColorRGB
 90
        0
102
RTVSPost2010PropOp41
 70
     1
102
RTVSPost2010Prop42
 90
       50
102
RTVSPost2010PropOp42
 70
     1
102
RTVSPost2010Prop43
 90
        3
102
RTVSPost2010PropOp43
 70
     1
102
RTVSPost2010Prop44ColorIndex
 90
        5
102
RTVSPost2010Prop44ColorRGB
 90
      255
102
RTVSPost2010PropOp44
 70
     1
102
RTVSPost2010Prop45
280
     0
102
RTVSPost2010PropOp45
 70
     1
102
RTVSPost2010Prop46
 90
       50
102
RTVSPost2010PropOp46
 70
     1
102
RTVSPost2010Prop47
 90
       50
102
RTVSPost2010PropOp47
 70
     1
102
RTVSPost2010Prop48
 90
       50
102
RTVSPost2010PropOp48
 70
     1
102
RTVSPost2010Prop49
280
     0
102
RTVSPost2010PropOp49
 70
     1
102
RTVSPost2010Prop50
 90
       50
102
RTVSPost2010PropOp50
 70
     1
102
RTVSPost2010Prop51ColorIndex
 90
      256
102
RTVSPost2010Prop51ColorRGB
 90
-16777216
102
RTVSPost2010PropOp51
 70
     0
102
RTVSPost2010Prop52
140
1.0
102
RTVSPost2010PropOp52
 70
     0
102
RTVSPost2010Prop53
 90
        2
102
RTVSPost2010PropOp53
 70
     1
102
RTVSPost2010Prop54
  1
strokes_ogs.tif
102
RTVSPost2010PropOp54
 70
     1
102
RTVSPost2010Prop55
280
     0
102
RTVSPost2010PropOp55
 70
     1
102
RTVSPost2010Prop56
140
1.0
102
RTVSPost2010PropOp56
 70
     1
102
RTVSPost2010Prop57
140
1.0
102
RTVSPost2010PropOp57
 70
     1
  0
XRECORD
  5
1B2
102
{ACAD_REACTORS
330
1B1
102
}
330
1B1
100
AcDbXrecord
280
     1
102
RTVSPost2010Prop28
280
     0
102
RTVSPost2010PropOp28
 70
     1
102
RTVSPost2010Prop29
280
     1
102
RTVSPost2010PropOp29
 70
     1
102
RTVSPost2010Prop30
280
     1
102
RTVSPost2010PropOp30
 70
     1
102
RTVSPost2010Prop31
280
     0
102
RTVSPost2010PropOp31
 70
     1
102
RTVSPost2010Prop32
280
     0
102
RTVSPost2010PropOp32
 70
     1
102
RTVSPost2010Prop33
280
     0
102
RTVSPost2010PropOp33
 70
     1
102
RTVSPost2010Prop34
280
     0
102
RTVSPost2010PropOp34
 70
     1
102
RTVSPost2010Prop35
280
     0
102
RTVSPost2010PropOp35
 70
     1
102
RTVSPost2010Prop36
280
     0
102
RTVSPost2010PropOp36
 70
     1
102
RTVSPost2010Prop37
 90
       50
102
RTVSPost2010PropOp37
 70
     1
102
RTVSPost2010Prop38
140
0.0
102
RTVSPost2010PropOp38
 70
     1
102
RTVSPost2010Prop39
140
1.0
102
RTVSPost2010PropOp39
 70
     1
102
RTVSPost2010Prop40
 90
        0
102
RTVSPost2010PropOp40
 70
     1
102
RTVSPost2010Prop41ColorIndex
 90
       18
102
RTVSPost2010Prop41ColorRGB
 90
        0
102
RTVSPost2010PropOp41
 70
     1
102
RTVSPost2010Prop42
 90
       50
102
RTVSPost2010PropOp42
 70
     1
102
RTVSPost2010Prop43
 90
        3
102
RTVSPost2010PropOp43
 70
     1
102
RTVSPost2010Prop44ColorIndex
 90
        5
102
RTVSPost2010Prop44ColorRGB
 90
      255
102
RTVSPost2010PropOp44
 70
     1
102
RTVSPost2010Prop45
280
     0
102
RTVSPost2010PropOp45
 70
     1
102
RTVSPost2010Prop46
 90
       50
102
RTVSPost2010PropOp46
 70
     1
102
RTVSPost2010Prop47
 90
       50
102
RTVSPost2010PropOp47
 70
     1
102
RTVSPost2010Prop48
 90
       50
102
RTVSPost2010PropOp48
 70
     1
102
RTVSPost2010Prop49
280
     0
102
RTVSPost2010PropOp49
 70
     1
102
RTVSPost2010Prop50
 90
       50
102
RTVSPost2010PropOp50
 70
     1
102
RTVSPost2010Prop51ColorIndex
 90
      256
102
RTVSPost2010Prop51ColorRGB
 90
-16777216
102
RTVSPost2010PropOp51
 70
     0
102
RTVSPost2010Prop52
140
1.0
102
RTVSPost2010PropOp52
 70
     0
102
RTVSPost2010Prop53
 90
        2
102
RTVSPost2010PropOp53
 70
     1
102
RTVSPost2010Prop54
  1
strokes_ogs.tif
102
RTVSPost2010PropOp54
 70
     1
102
RTVSPost2010Prop55
280
     0
102
RTVSPost2010PropOp55
 70
     1
102
RTVSPost2010Prop56
140
1.0
102
RTVSPost2010PropOp56
 70
     1
102
RTVSPost2010Prop57
140
1.0
102
RTVSPost2010PropOp57
 70
     1
  0
XRECORD
  5
1CE
102
{ACAD_REACTORS
330
1CD
102
}
330
1CD
100
AcDbXrecord
280
     1
102
RTVSPost2010Prop28
280
     0
102
RTVSPost2010PropOp28
 70
     0
102
RTVSPost2010Prop29
280
     1
102
RTVSPost2010PropOp29
 70
     0
102
RTVSPost2010Prop30
280
     1
102
RTVSPost2010PropOp30
 70
     0
102
RTVSPost2010Prop31
280
     0
102
RTVSPost2010PropOp31
 70
     0
102
RTVSPost2010Prop32
280
     0
102
RTVSPost2010PropOp32
 70
     0
102
RTVSPost2010Prop33
280
     0
102
RTVSPost2010PropOp33
 70
     0
102
RTVSPost2010Prop34
280
     0
102
RTVSPost2010PropOp34
 70
     0
102
RTVSPost2010Prop35
280
     0
102
RTVSPost2010PropOp35
 70
     0
102
RTVSPost2010Prop36
280
     0
102
RTVSPost2010PropOp36
 70
     0
102
RTVSPost2010Prop37
 90
       50
102
RTVSPost2010PropOp37
 70
     0
102
RTVSPost2010Prop38
140
0.0
102
RTVSPost2010PropOp38
 70
     0
102
RTVSPost2010Prop39
140
1.0
102
RTVSPost2010PropOp39
 70
     0
102
RTVSPost2010Prop40
 90
        0
102
RTVSPost2010PropOp40
 70
     0
102
RTVSPost2010Prop41ColorIndex
 90
       18
102
RTVSPost2010Prop41ColorRGB
 90
        0
102
RTVSPost2010PropOp41
 70
     0
102
RTVSPost2010Prop42
 90
       50
102
RTVSPost2010PropOp42
 70
     0
102
RTVSPost2010Prop43
 90
        3
102
RTVSPost2010PropOp43
 70
     0
102
RTVSPost2010Prop44ColorIndex
 90
        5
102
RTVSPost2010Prop44ColorRGB
 90
      255
102
RTVSPost2010PropOp44
 70
     0
102
RTVSPost2010Prop45
280
     0
102
RTVSPost2010PropOp45
 70
     0
102
RTVSPost2010Prop46
 90
       50
102
RTVSPost2010PropOp46
 70
     0
102
RTVSPost2010Prop47
 90
       50
102
RTVSPost2010PropOp47
 70
     0
102
RTVSPost2010Prop48
 90
       50
102
RTVSPost2010PropOp48
 70
     0
102
RTVSPost2010Prop49
280
     0
102
RTVSPost2010PropOp49
 70
     0
102
RTVSPost2010Prop50
 90
       50
102
RTVSPost2010PropOp50
 70
     0
102
RTVSPost2010Prop51ColorIndex
 90
      256
102
RTVSPost2010Prop51ColorRGB
 90
-16777216
102
RTVSPost2010PropOp51
 70
     0
102
RTVSPost2010Prop52
140
1.0
102
RTVSPost2010PropOp52
 70
     0
102
RTVSPost2010Prop53
 90
        2
102
RTVSPost2010PropOp53
 70
     0
102
RTVSPost2010Prop54
  1
strokes_ogs.tif
102
RTVSPost2010PropOp54
 70
     0
102
RTVSPost2010Prop55
280
     0
102
RTVSPost2010PropOp55
 70
     0
102
RTVSPost2010Prop56
140
1.0
102
RTVSPost2010PropOp56
 70
     0
102
RTVSPost2010Prop57
140
1.0
102
RTVSPost2010PropOp57
 70
     0
  0
XRECORD
  5
1BE
102
{ACAD_REACTORS
330
1BD
102
}
330
1BD
100
AcDbXrecord
280
     1
102
RTVSPost2010Prop28
280
     0
102
RTVSPost2010PropOp28
 70
     1
102
RTVSPost2010Prop29
280
     1
102
RTVSPost2010PropOp29
 70
     1
102
RTVSPost2010Prop30
280
     1
102
RTVSPost2010PropOp30
 70
     1
102
RTVSPost2010Prop31
280
     0
102
RTVSPost2010PropOp31
 70
     1
102
RTVSPost2010Prop32
280
     0
102
RTVSPost2010PropOp32
 70
     1
102
RTVSPost2010Prop33
280
     0
102
RTVSPost2010PropOp33
 70
     1
102
RTVSPost2010Prop34
280
     0
102
RTVSPost2010PropOp34
 70
     1
102
RTVSPost2010Prop35
280
     0
102
RTVSPost2010PropOp35
 70
     1
102
RTVSPost2010Prop36
280
     0
102
RTVSPost2010PropOp36
 70
     1
102
RTVSPost2010Prop37
 90
       50
102
RTVSPost2010PropOp37
 70
     1
102
RTVSPost2010Prop38
140
0.0
102
RTVSPost2010PropOp38
 70
     1
102
RTVSPost2010Prop39
140
1.0
102
RTVSPost2010PropOp39
 70
     1
102
RTVSPost2010Prop40
 90
        0
102
RTVSPost2010PropOp40
 70
     1
102
RTVSPost2010Prop41ColorIndex
 90
       18
102
RTVSPost2010Prop41ColorRGB
 90
        0
102
RTVSPost2010PropOp41
 70
     1
102
RTVSPost2010Prop42
 90
       50
102
RTVSPost2010PropOp42
 70
     1
102
RTVSPost2010Prop43
 90
        3
102
RTVSPost2010PropOp43
 70
     1
102
RTVSPost2010Prop44ColorIndex
 90
        5
102
RTVSPost2010Prop44ColorRGB
 90
      255
102
RTVSPost2010PropOp44
 70
     1
102
RTVSPost2010Prop45
280
     0
102
RTVSPost2010PropOp45
 70
     1
102
RTVSPost2010Prop46
 90
       50
102
RTVSPost2010PropOp46
 70
     1
102
RTVSPost2010Prop47
 90
       50
102
RTVSPost2010PropOp47
 70
     1
102
RTVSPost2010Prop48
 90
       50
102
RTVSPost2010PropOp48
 70
     1
102
RTVSPost2010Prop49
280
     0
102
RTVSPost2010PropOp49
 70
     1
102
RTVSPost2010Prop50
 90
       50
102
RTVSPost2010PropOp50
 70
     1
102
RTVSPost2010Prop51ColorIndex
 90
      256
102
RTVSPost2010Prop51ColorRGB
 90
-16777216
102
RTVSPost2010PropOp51
 70
     0
102
RTVSPost2010Prop52
140
1.0
102
RTVSPost2010PropOp52
 70
     0
102
RTVSPost2010Prop53
 90
        2
102
RTVSPost2010PropOp53
 70
     1
102
RTVSPost2010Prop54
  1
strokes_ogs.tif
102
RTVSPost2010PropOp54
 70
     1
102
RTVSPost2010Prop55
280
     0
102
RTVSPost2010PropOp55
 70
     1
102
RTVSPost2010Prop56
140
1.0
102
RTVSPost2010PropOp56
 70
     1
102
RTVSPost2010Prop57
140
1.0
102
RTVSPost2010PropOp57
 70
     1
  0
XRECORD
  5
1D0
102
{ACAD_REACTORS
330
1CF
102
}
330
1CF
100
AcDbXrecord
280
     1
102
RTVSPost2010Prop28
280
     0
102
RTVSPost2010PropOp28
 70
     0
102
RTVSPost2010Prop29
280
     1
102
RTVSPost2010PropOp29
 70
     0
102
RTVSPost2010Prop30
280
     1
102
RTVSPost2010PropOp30
 70
     0
102
RTVSPost2010Prop31
280
     0
102
RTVSPost2010PropOp31
 70
     0
102
RTVSPost2010Prop32
280
     0
102
RTVSPost2010PropOp32
 70
     0
102
RTVSPost2010Prop33
280
     0
102
RTVSPost2010PropOp33
 70
     0
102
RTVSPost2010Prop34
280
     0
102
RTVSPost2010PropOp34
 70
     0
102
RTVSPost2010Prop35
280
     0
102
RTVSPost2010PropOp35
 70
     0
102
RTVSPost2010Prop36
280
     0
102
RTVSPost2010PropOp36
 70
     0
102
RTVSPost2010Prop37
 90
       50
102
RTVSPost2010PropOp37
 70
     0
102
RTVSPost2010Prop38
140
0.0
102
RTVSPost2010PropOp38
 70
     0
102
RTVSPost2010Prop39
140
1.0
102
RTVSPost2010PropOp39
 70
     0
102
RTVSPost2010Prop40
 90
        0
102
RTVSPost2010PropOp40
 70
     0
102
RTVSPost2010Prop41ColorIndex
 90
       18
102
RTVSPost2010Prop41ColorRGB
 90
        0
102
RTVSPost2010PropOp41
 70
     0
102
RTVSPost2010Prop42
 90
       50
102
RTVSPost2010PropOp42
 70
     0
102
RTVSPost2010Prop43
 90
        3
102
RTVSPost2010PropOp43
 70
     0
102
RTVSPost2010Prop44ColorIndex
 90
        5
102
RTVSPost2010Prop44ColorRGB
 90
      255
102
RTVSPost2010PropOp44
 70
     0
102
RTVSPost2010Prop45
280
     0
102
RTVSPost2010PropOp45
 70
     0
102
RTVSPost2010Prop46
 90
       50
102
RTVSPost2010PropOp46
 70
     0
102
RTVSPost2010Prop47
 90
       50
102
RTVSPost2010PropOp47
 70
     0
102
RTVSPost2010Prop48
 90
       50
102
RTVSPost2010PropOp48
 70
     0
102
RTVSPost2010Prop49
280
     0
102
RTVSPost2010PropOp49
 70
     0
102
RTVSPost2010Prop50
 90
       50
102
RTVSPost2010PropOp50
 70
     0
102
RTVSPost2010Prop51ColorIndex
 90
      256
102
RTVSPost2010Prop51ColorRGB
 90
-16777216
102
RTVSPost2010PropOp51
 70
     0
102
RTVSPost2010Prop52
140
1.0
102
RTVSPost2010PropOp52
 70
     0
102
RTVSPost2010Prop53
 90
        2
102
RTVSPost2010PropOp53
 70
     0
102
RTVSPost2010Prop54
  1
strokes_ogs.tif
102
RTVSPost2010PropOp54
 70
     0
102
RTVSPost2010Prop55
280
     0
102
RTVSPost2010PropOp55
 70
     0
102
RTVSPost2010Prop56
140
1.0
102
RTVSPost2010PropOp56
 70
     0
102
RTVSPost2010Prop57
140
1.0
102
RTVSPost2010PropOp57
 70
     0
  0
XRECORD
  5
1B6
102
{ACAD_REACTORS
330
1B5
102
}
330
1B5
100
AcDbXrecord
280
     1
102
RTVSPost2010Prop28
280
     0
102
RTVSPost2010PropOp28
 70
     1
102
RTVSPost2010Prop29
280
     1
102
RTVSPost2010PropOp29
 70
     1
102
RTVSPost2010Prop30
280
     1
102
RTVSPost2010PropOp30
 70
     1
102
RTVSPost2010Prop31
280
     0
102
RTVSPost2010PropOp31
 70
     1
102
RTVSPost2010Prop32
280
     0
102
RTVSPost2010PropOp32
 70
     1
102
RTVSPost2010Prop33
280
     0
102
RTVSPost2010PropOp33
 70
     1
102
RTVSPost2010Prop34
280
     0
102
RTVSPost2010PropOp34
 70
     1
102
RTVSPost2010Prop35
280
     0
102
RTVSPost2010PropOp35
 70
     1
102
RTVSPost2010Prop36
280
     0
102
RTVSPost2010PropOp36
 70
     1
102
RTVSPost2010Prop37
 90
       50
102
RTVSPost2010PropOp37
 70
     1
102
RTVSPost2010Prop38
140
0.0
102
RTVSPost2010PropOp38
 70
     1
102
RTVSPost2010Prop39
140
1.0
102
RTVSPost2010PropOp39
 70
     1
102
RTVSPost2010Prop40
 90
        0
102
RTVSPost2010PropOp40
 70
     1
102
RTVSPost2010Prop41ColorIndex
 90
       18
102
RTVSPost2010Prop41ColorRGB
 90
        0
102
RTVSPost2010PropOp41
 70
     1
102
RTVSPost2010Prop42
 90
       50
102
RTVSPost2010PropOp42
 70
     1
102
RTVSPost2010Prop43
 90
        3
102
RTVSPost2010PropOp43
 70
     1
102
RTVSPost2010Prop44ColorIndex
 90
        5
102
RTVSPost2010Prop44ColorRGB
 90
      255
102
RTVSPost2010PropOp44
 70
     1
102
RTVSPost2010Prop45
280
     0
102
RTVSPost2010PropOp45
 70
     1
102
RTVSPost2010Prop46
 90
       50
102
RTVSPost2010PropOp46
 70
     1
102
RTVSPost2010Prop47
 90
       50
102
RTVSPost2010PropOp47
 70
     1
102
RTVSPost2010Prop48
 90
       50
102
RTVSPost2010PropOp48
 70
     1
102
RTVSPost2010Prop49
280
     0
102
RTVSPost2010PropOp49
 70
     1
102
RTVSPost2010Prop50
 90
       50
102
RTVSPost2010PropOp50
 70
     1
102
RTVSPost2010Prop51ColorIndex
 90
      256
102
RTVSPost2010Prop51ColorRGB
 90
-16777216
102
RTVSPost2010PropOp51
 70
     0
102
RTVSPost2010Prop52
140
1.0
102
RTVSPost2010PropOp52
 70
     0
102
RTVSPost2010Prop53
 90
        2
102
RTVSPost2010PropOp53
 70
     1
102
RTVSPost2010Prop54
  1
strokes_ogs.tif
102
RTVSPost2010PropOp54
 70
     1
102
RTVSPost2010Prop55
280
     0
102
RTVSPost2010PropOp55
 70
     1
102
RTVSPost2010Prop56
140
1.0
102
RTVSPost2010PropOp56
 70
     1
102
RTVSPost2010Prop57
140
1.0
102
RTVSPost2010PropOp57
 70
     1
  0
XRECORD
  5
1CC
102
{ACAD_REACTORS
330
1CB
102
}
330
1CB
100
AcDbXrecord
280
     1
102
RTVSPost2010Prop28
280
     0
102
RTVSPost2010PropOp28
 70
     1
102
RTVSPost2010Prop29
280
     1
102
RTVSPost2010PropOp29
 70
     1
102
RTVSPost2010Prop30
280
     1
102
RTVSPost2010PropOp30
 70
     1
102
RTVSPost2010Prop31
280
     0
102
RTVSPost2010PropOp31
 70
     1
102
RTVSPost2010Prop32
280
     0
102
RTVSPost2010PropOp32
 70
     1
102
RTVSPost2010Prop33
280
     0
102
RTVSPost2010PropOp33
 70
     1
102
RTVSPost2010Prop34
280
     0
102
RTVSPost2010PropOp34
 70
     1
102
RTVSPost2010Prop35
280
     0
102
RTVSPost2010PropOp35
 70
     1
102
RTVSPost2010Prop36
280
     0
102
RTVSPost2010PropOp36
 70
     1
102
RTVSPost2010Prop37
 90
       50
102
RTVSPost2010PropOp37
 70
     1
102
RTVSPost2010Prop38
140
0.0
102
RTVSPost2010PropOp38
 70
     1
102
RTVSPost2010Prop39
140
1.0
102
RTVSPost2010PropOp39
 70
     1
102
RTVSPost2010Prop40
 90
        0
102
RTVSPost2010PropOp40
 70
     1
102
RTVSPost2010Prop41ColorIndex
 90
       18
102
RTVSPost2010Prop41ColorRGB
 90
        0
102
RTVSPost2010PropOp41
 70
     1
102
RTVSPost2010Prop42
 90
       50
102
RTVSPost2010PropOp42
 70
     1
102
RTVSPost2010Prop43
 90
        3
102
RTVSPost2010PropOp43
 70
     1
102
RTVSPost2010Prop44ColorIndex
 90
        5
102
RTVSPost2010Prop44ColorRGB
 90
      255
102
RTVSPost2010PropOp44
 70
     1
102
RTVSPost2010Prop45
280
     0
102
RTVSPost2010PropOp45
 70
     1
102
RTVSPost2010Prop46
 90
       50
102
RTVSPost2010PropOp46
 70
     1
102
RTVSPost2010Prop47
 90
       50
102
RTVSPost2010PropOp47
 70
     1
102
RTVSPost2010Prop48
 90
       50
102
RTVSPost2010PropOp48
 70
     1
102
RTVSPost2010Prop49
280
     0
102
RTVSPost2010PropOp49
 70
     1
102
RTVSPost2010Prop50
 90
       50
102
RTVSPost2010PropOp50
 70
     1
102
RTVSPost2010Prop51ColorIndex
 90
      256
102
RTVSPost2010Prop51ColorRGB
 90
-16777216
102
RTVSPost2010PropOp51
 70
     0
102
RTVSPost2010Prop52
140
1.0
102
RTVSPost2010PropOp52
 70
     0
102
RTVSPost2010Prop53
 90
        2
102
RTVSPost2010PropOp53
 70
     1
102
RTVSPost2010Prop54
  1
strokes_ogs.tif
102
RTVSPost2010PropOp54
 70
     1
102
RTVSPost2010Prop55
280
     0
102
RTVSPost2010PropOp55
 70
     1
102
RTVSPost2010Prop56
140
1.0
102
RTVSPost2010PropOp56
 70
     1
102
RTVSPost2010Prop57
140
1.0
102
RTVSPost2010PropOp57
 70
     1
  0
XRECORD
  5
1CA
102
{ACAD_REACTORS
330
1C9
102
}
330
1C9
100
AcDbXrecord
280
     1
102
RTVSPost2010Prop28
280
     0
102
RTVSPost2010PropOp28
 70
     1
102
RTVSPost2010Prop29
280
     1
102
RTVSPost2010PropOp29
 70
     1
102
RTVSPost2010Prop30
280
     1
102
RTVSPost2010PropOp30
 70
     1
102
RTVSPost2010Prop31
280
     0
102
RTVSPost2010PropOp31
 70
     1
102
RTVSPost2010Prop32
280
     0
102
RTVSPost2010PropOp32
 70
     1
102
RTVSPost2010Prop33
280
     0
102
RTVSPost2010PropOp33
 70
     1
102
RTVSPost2010Prop34
280
     0
102
RTVSPost2010PropOp34
 70
     1
102
RTVSPost2010Prop35
280
     0
102
RTVSPost2010PropOp35
 70
     1
102
RTVSPost2010Prop36
280
     0
102
RTVSPost2010PropOp36
 70
     1
102
RTVSPost2010Prop37
 90
       50
102
RTVSPost2010PropOp37
 70
     1
102
RTVSPost2010Prop38
140
0.0
102
RTVSPost2010PropOp38
 70
     1
102
RTVSPost2010Prop39
140
1.0
102
RTVSPost2010PropOp39
 70
     1
102
RTVSPost2010Prop40
 90
        0
102
RTVSPost2010PropOp40
 70
     1
102
RTVSPost2010Prop41ColorIndex
 90
       18
102
RTVSPost2010Prop41ColorRGB
 90
        0
102
RTVSPost2010PropOp41
 70
     1
102
RTVSPost2010Prop42
 90
       50
102
RTVSPost2010PropOp42
 70
     1
102
RTVSPost2010Prop43
 90
        3
102
RTVSPost2010PropOp43
 70
     1
102
RTVSPost2010Prop44ColorIndex
 90
        5
102
RTVSPost2010Prop44ColorRGB
 90
      255
102
RTVSPost2010PropOp44
 70
     1
102
RTVSPost2010Prop45
280
     0
102
RTVSPost2010PropOp45
 70
     1
102
RTVSPost2010Prop46
 90
       50
102
RTVSPost2010PropOp46
 70
     1
102
RTVSPost2010Prop47
 90
       50
102
RTVSPost2010PropOp47
 70
     1
102
RTVSPost2010Prop48
 90
       50
102
RTVSPost2010PropOp48
 70
     1
102
RTVSPost2010Prop49
280
     0
102
RTVSPost2010PropOp49
 70
     1
102
RTVSPost2010Prop50
 90
       50
102
RTVSPost2010PropOp50
 70
     1
102
RTVSPost2010Prop51ColorIndex
 90
      256
102
RTVSPost2010Prop51ColorRGB
 90
-16777216
102
RTVSPost2010PropOp51
 70
     0
102
RTVSPost2010Prop52
140
1.0
102
RTVSPost2010PropOp52
 70
     0
102
RTVSPost2010Prop53
 90
        2
102
RTVSPost2010PropOp53
 70
     1
102
RTVSPost2010Prop54
  1
strokes_ogs.tif
102
RTVSPost2010PropOp54
 70
     1
102
RTVSPost2010Prop55
280
     0
102
RTVSPost2010PropOp55
 70
     1
102
RTVSPost2010Prop56
140
1.0
102
RTVSPost2010PropOp56
 70
     1
102
RTVSPost2010Prop57
140
1.0
102
RTVSPost2010PropOp57
 70
     1
  0
XRECORD
  5
1C4
102
{ACAD_REACTORS
330
1C3
102
}
330
1C3
100
AcDbXrecord
280
     1
102
RTVSPost2010Prop28
280
     0
102
RTVSPost2010PropOp28
 70
     1
102
RTVSPost2010Prop29
280
     1
102
RTVSPost2010PropOp29
 70
     1
102
RTVSPost2010Prop30
280
     1
102
RTVSPost2010PropOp30
 70
     1
102
RTVSPost2010Prop31
280
     0
102
RTVSPost2010PropOp31
 70
     1
102
RTVSPost2010Prop32
280
     0
102
RTVSPost2010PropOp32
 70
     1
102
RTVSPost2010Prop33
280
     0
102
RTVSPost2010PropOp33
 70
     1
102
RTVSPost2010Prop34
280
     0
102
RTVSPost2010PropOp34
 70
     1
102
RTVSPost2010Prop35
280
     0
102
RTVSPost2010PropOp35
 70
     1
102
RTVSPost2010Prop36
280
     0
102
RTVSPost2010PropOp36
 70
     1
102
RTVSPost2010Prop37
 90
       50
102
RTVSPost2010PropOp37
 70
     1
102
RTVSPost2010Prop38
140
0.0
102
RTVSPost2010PropOp38
 70
     1
102
RTVSPost2010Prop39
140
1.0
102
RTVSPost2010PropOp39
 70
     1
102
RTVSPost2010Prop40
 90
        0
102
RTVSPost2010PropOp40
 70
     1
102
RTVSPost2010Prop41ColorIndex
 90
       18
102
RTVSPost2010Prop41ColorRGB
 90
        0
102
RTVSPost2010PropOp41
 70
     1
102
RTVSPost2010Prop42
 90
       50
102
RTVSPost2010PropOp42
 70
     1
102
RTVSPost2010Prop43
 90
        3
102
RTVSPost2010PropOp43
 70
     1
102
RTVSPost2010Prop44ColorIndex
 90
        5
102
RTVSPost2010Prop44ColorRGB
 90
      255
102
RTVSPost2010PropOp44
 70
     1
102
RTVSPost2010Prop45
280
     0
102
RTVSPost2010PropOp45
 70
     1
102
RTVSPost2010Prop46
 90
       50
102
RTVSPost2010PropOp46
 70
     1
102
RTVSPost2010Prop47
 90
       50
102
RTVSPost2010PropOp47
 70
     1
102
RTVSPost2010Prop48
 90
       50
102
RTVSPost2010PropOp48
 70
     1
102
RTVSPost2010Prop49
280
     0
102
RTVSPost2010PropOp49
 70
     1
102
RTVSPost2010Prop50
 90
       50
102
RTVSPost2010PropOp50
 70
     1
102
RTVSPost2010Prop51ColorIndex
 90
      256
102
RTVSPost2010Prop51ColorRGB
 90
-16777216
102
RTVSPost2010PropOp51
 70
     0
102
RTVSPost2010Prop52
140
1.0
102
RTVSPost2010PropOp52
 70
     0
102
RTVSPost2010Prop53
 90
        2
102
RTVSPost2010PropOp53
 70
     1
102
RTVSPost2010Prop54
  1
strokes_ogs.tif
102
RTVSPost2010PropOp54
 70
     1
102
RTVSPost2010Prop55
280
     0
102
RTVSPost2010PropOp55
 70
     1
102
RTVSPost2010Prop56
140
1.0
102
RTVSPost2010PropOp56
 70
     1
102
RTVSPost2010Prop57
140
1.0
102
RTVSPost2010PropOp57
 70
     1
  0
XRECORD
  5
1C6
102
{ACAD_REACTORS
330
1C5
102
}
330
1C5
100
AcDbXrecord
280
     1
102
RTVSPost2010Prop28
280
     0
102
RTVSPost2010PropOp28
 70
     1
102
RTVSPost2010Prop29
280
     1
102
RTVSPost2010PropOp29
 70
     1
102
RTVSPost2010Prop30
280
     1
102
RTVSPost2010PropOp30
 70
     1
102
RTVSPost2010Prop31
280
     0
102
RTVSPost2010PropOp31
 70
     1
102
RTVSPost2010Prop32
280
     0
102
RTVSPost2010PropOp32
 70
     1
102
RTVSPost2010Prop33
280
     0
102
RTVSPost2010PropOp33
 70
     1
102
RTVSPost2010Prop34
280
     0
102
RTVSPost2010PropOp34
 70
     1
102
RTVSPost2010Prop35
280
     0
102
RTVSPost2010PropOp35
 70
     1
102
RTVSPost2010Prop36
280
     0
102
RTVSPost2010PropOp36
 70
     1
102
RTVSPost2010Prop37
 90
       50
102
RTVSPost2010PropOp37
 70
     1
102
RTVSPost2010Prop38
140
0.0
102
RTVSPost2010PropOp38
 70
     1
102
RTVSPost2010Prop39
140
1.0
102
RTVSPost2010PropOp39
 70
     1
102
RTVSPost2010Prop40
 90
        0
102
RTVSPost2010PropOp40
 70
     1
102
RTVSPost2010Prop41ColorIndex
 90
       18
102
RTVSPost2010Prop41ColorRGB
 90
        0
102
RTVSPost2010PropOp41
 70
     1
102
RTVSPost2010Prop42
 90
       50
102
RTVSPost2010PropOp42
 70
     1
102
RTVSPost2010Prop43
 90
        3
102
RTVSPost2010PropOp43
 70
     1
102
RTVSPost2010Prop44ColorIndex
 90
        5
102
RTVSPost2010Prop44ColorRGB
 90
      255
102
RTVSPost2010PropOp44
 70
     1
102
RTVSPost2010Prop45
280
     0
102
RTVSPost2010PropOp45
 70
     1
102
RTVSPost2010Prop46
 90
       50
102
RTVSPost2010PropOp46
 70
     1
102
RTVSPost2010Prop47
 90
       50
102
RTVSPost2010PropOp47
 70
     1
102
RTVSPost2010Prop48
 90
       50
102
RTVSPost2010PropOp48
 70
     1
102
RTVSPost2010Prop49
280
     0
102
RTVSPost2010PropOp49
 70
     1
102
RTVSPost2010Prop50
 90
       50
102
RTVSPost2010PropOp50
 70
     1
102
RTVSPost2010Prop51ColorIndex
 90
      256
102
RTVSPost2010Prop51ColorRGB
 90
-16777216
102
RTVSPost2010PropOp51
 70
     0
102
RTVSPost2010Prop52
140
1.0
102
RTVSPost2010PropOp52
 70
     0
102
RTVSPost2010Prop53
 90
        2
102
RTVSPost2010PropOp53
 70
     1
102
RTVSPost2010Prop54
  1
strokes_ogs.tif
102
RTVSPost2010PropOp54
 70
     1
102
RTVSPost2010Prop55
280
     0
102
RTVSPost2010PropOp55
 70
     1
102
RTVSPost2010Prop56
140
1.0
102
RTVSPost2010PropOp56
 70
     1
102
RTVSPost2010Prop57
140
1.0
102
RTVSPost2010PropOp57
 70
     1
  0
XRECORD
  5
1BC
102
{ACAD_REACTORS
330
1BB
102
}
330
1BB
100
AcDbXrecord
280
     1
102
RTVSPost2010Prop28
280
     0
102
RTVSPost2010PropOp28
 70
     1
102
RTVSPost2010Prop29
280
     1
102
RTVSPost2010PropOp29
 70
     1
102
RTVSPost2010Prop30
280
     1
102
RTVSPost2010PropOp30
 70
     1
102
RTVSPost2010Prop31
280
     0
102
RTVSPost2010PropOp31
 70
     1
102
RTVSPost2010Prop32
280
     0
102
RTVSPost2010PropOp32
 70
     1
102
RTVSPost2010Prop33
280
     0
102
RTVSPost2010PropOp33
 70
     1
102
RTVSPost2010Prop34
280
     0
102
RTVSPost2010PropOp34
 70
     1
102
RTVSPost2010Prop35
280
     0
102
RTVSPost2010PropOp35
 70
     1
102
RTVSPost2010Prop36
280
     0
102
RTVSPost2010PropOp36
 70
     1
102
RTVSPost2010Prop37
 90
       50
102
RTVSPost2010PropOp37
 70
     1
102
RTVSPost2010Prop38
140
0.0
102
RTVSPost2010PropOp38
 70
     1
102
RTVSPost2010Prop39
140
1.0
102
RTVSPost2010PropOp39
 70
     1
102
RTVSPost2010Prop40
 90
        0
102
RTVSPost2010PropOp40
 70
     1
102
RTVSPost2010Prop41ColorIndex
 90
       18
102
RTVSPost2010Prop41ColorRGB
 90
        0
102
RTVSPost2010PropOp41
 70
     1
102
RTVSPost2010Prop42
 90
       50
102
RTVSPost2010PropOp42
 70
     1
102
RTVSPost2010Prop43
 90
        3
102
RTVSPost2010PropOp43
 70
     1
102
RTVSPost2010Prop44ColorIndex
 90
        5
102
RTVSPost2010Prop44ColorRGB
 90
      255
102
RTVSPost2010PropOp44
 70
     1
102
RTVSPost2010Prop45
280
     0
102
RTVSPost2010PropOp45
 70
     1
102
RTVSPost2010Prop46
 90
       50
102
RTVSPost2010PropOp46
 70
     1
102
RTVSPost2010Prop47
 90
       50
102
RTVSPost2010PropOp47
 70
     1
102
RTVSPost2010Prop48
 90
       50
102
RTVSPost2010PropOp48
 70
     1
102
RTVSPost2010Prop49
280
     0
102
RTVSPost2010PropOp49
 70
     1
102
RTVSPost2010Prop50
 90
       50
102
RTVSPost2010PropOp50
 70
     1
102
RTVSPost2010Prop51ColorIndex
 90
      256
102
RTVSPost2010Prop51ColorRGB
 90
-16777216
102
RTVSPost2010PropOp51
 70
     0
102
RTVSPost2010Prop52
140
1.0
102
RTVSPost2010PropOp52
 70
     0
102
RTVSPost2010Prop53
 90
        2
102
RTVSPost2010PropOp53
 70
     1
102
RTVSPost2010Prop54
  1
strokes_ogs.tif
102
RTVSPost2010PropOp54
 70
     1
102
RTVSPost2010Prop55
280
     0
102
RTVSPost2010PropOp55
 70
     1
102
RTVSPost2010Prop56
140
1.0
102
RTVSPost2010PropOp56
 70
     1
102
RTVSPost2010Prop57
140
1.0
102
RTVSPost2010PropOp57
 70
     1
  0
XRECORD
  5
1B0
102
{ACAD_REACTORS
330
1AF
102
}
330
1AF
100
AcDbXrecord
280
     1
102
RTVSPost2010Prop28
280
     0
102
RTVSPost2010PropOp28
 70
     1
102
RTVSPost2010Prop29
280
     1
102
RTVSPost2010PropOp29
 70
     1
102
RTVSPost2010Prop30
280
     1
102
RTVSPost2010PropOp30
 70
     1
102
RTVSPost2010Prop31
280
     0
102
RTVSPost2010PropOp31
 70
     1
102
RTVSPost2010Prop32
280
     0
102
RTVSPost2010PropOp32
 70
     1
102
RTVSPost2010Prop33
280
     0
102
RTVSPost2010PropOp33
 70
     1
102
RTVSPost2010Prop34
280
     0
102
RTVSPost2010PropOp34
 70
     1
102
RTVSPost2010Prop35
280
     0
102
RTVSPost2010PropOp35
 70
     1
102
RTVSPost2010Prop36
280
     0
102
RTVSPost2010PropOp36
 70
     1
102
RTVSPost2010Prop37
 90
       50
102
RTVSPost2010PropOp37
 70
     1
102
RTVSPost2010Prop38
140
0.0
102
RTVSPost2010PropOp38
 70
     1
102
RTVSPost2010Prop39
140
1.0
102
RTVSPost2010PropOp39
 70
     1
102
RTVSPost2010Prop40
 90
        0
102
RTVSPost2010PropOp40
 70
     1
102
RTVSPost2010Prop41ColorIndex
 90
       18
102
RTVSPost2010Prop41ColorRGB
 90
        0
102
RTVSPost2010PropOp41
 70
     1
102
RTVSPost2010Prop42
 90
       50
102
RTVSPost2010PropOp42
 70
     1
102
RTVSPost2010Prop43
 90
        3
102
RTVSPost2010PropOp43
 70
     1
102
RTVSPost2010Prop44ColorIndex
 90
        5
102
RTVSPost2010Prop44ColorRGB
 90
      255
102
RTVSPost2010PropOp44
 70
     1
102
RTVSPost2010Prop45
280
     0
102
RTVSPost2010PropOp45
 70
     1
102
RTVSPost2010Prop46
 90
       50
102
RTVSPost2010PropOp46
 70
     1
102
RTVSPost2010Prop47
 90
       50
102
RTVSPost2010PropOp47
 70
     1
102
RTVSPost2010Prop48
 90
       50
102
RTVSPost2010PropOp48
 70
     1
102
RTVSPost2010Prop49
280
     0
102
RTVSPost2010PropOp49
 70
     1
102
RTVSPost2010Prop50
 90
       50
102
RTVSPost2010PropOp50
 70
     1
102
RTVSPost2010Prop51ColorIndex
 90
      256
102
RTVSPost2010Prop51ColorRGB
 90
-16777216
102
RTVSPost2010PropOp51
 70
     0
102
RTVSPost2010Prop52
140
1.0
102
RTVSPost2010PropOp52
 70
     0
102
RTVSPost2010Prop53
 90
        2
102
RTVSPost2010PropOp53
 70
     1
102
RTVSPost2010Prop54
  1
strokes_ogs.tif
102
RTVSPost2010PropOp54
 70
     1
102
RTVSPost2010Prop55
280
     0
102
RTVSPost2010PropOp55
 70
     1
102
RTVSPost2010Prop56
140
1.0
102
RTVSPost2010PropOp56
 70
     1
102
RTVSPost2010Prop57
140
1.0
102
RTVSPost2010PropOp57
 70
     1
  0
XRECORD
  5
1C8
102
{ACAD_REACTORS
330
1C7
102
}
330
1C7
100
AcDbXrecord
280
     1
102
RTVSPost2010Prop28
280
     0
102
RTVSPost2010PropOp28
 70
     1
102
RTVSPost2010Prop29
280
     1
102
RTVSPost2010PropOp29
 70
     1
102
RTVSPost2010Prop30
280
     1
102
RTVSPost2010PropOp30
 70
     1
102
RTVSPost2010Prop31
280
     0
102
RTVSPost2010PropOp31
 70
     1
102
RTVSPost2010Prop32
280
     0
102
RTVSPost2010PropOp32
 70
     1
102
RTVSPost2010Prop33
280
     0
102
RTVSPost2010PropOp33
 70
     1
102
RTVSPost2010Prop34
280
     0
102
RTVSPost2010PropOp34
 70
     1
102
RTVSPost2010Prop35
280
     0
102
RTVSPost2010PropOp35
 70
     1
102
RTVSPost2010Prop36
280
     0
102
RTVSPost2010PropOp36
 70
     1
102
RTVSPost2010Prop37
 90
       50
102
RTVSPost2010PropOp37
 70
     1
102
RTVSPost2010Prop38
140
0.0
102
RTVSPost2010PropOp38
 70
     1
102
RTVSPost2010Prop39
140
1.0
102
RTVSPost2010PropOp39
 70
     1
102
RTVSPost2010Prop40
 90
        0
102
RTVSPost2010PropOp40
 70
     1
102
RTVSPost2010Prop41ColorIndex
 90
       18
102
RTVSPost2010Prop41ColorRGB
 90
        0
102
RTVSPost2010PropOp41
 70
     1
102
RTVSPost2010Prop42
 90
       50
102
RTVSPost2010PropOp42
 70
     1
102
RTVSPost2010Prop43
 90
        3
102
RTVSPost2010PropOp43
 70
     1
102
RTVSPost2010Prop44ColorIndex
 90
        5
102
RTVSPost2010Prop44ColorRGB
 90
      255
102
RTVSPost2010PropOp44
 70
     1
102
RTVSPost2010Prop45
280
     0
102
RTVSPost2010PropOp45
 70
     1
102
RTVSPost2010Prop46
 90
       50
102
RTVSPost2010PropOp46
 70
     1
102
RTVSPost2010Prop47
 90
       50
102
RTVSPost2010PropOp47
 70
     1
102
RTVSPost2010Prop48
 90
       50
102
RTVSPost2010PropOp48
 70
     1
102
RTVSPost2010Prop49
280
     0
102
RTVSPost2010PropOp49
 70
     1
102
RTVSPost2010Prop50
 90
       50
102
RTVSPost2010PropOp50
 70
     1
102
RTVSPost2010Prop51ColorIndex
 90
      256
102
RTVSPost2010Prop51ColorRGB
 90
-16777216
102
RTVSPost2010PropOp51
 70
     0
102
RTVSPost2010Prop52
140
1.0
102
RTVSPost2010PropOp52
 70
     0
102
RTVSPost2010Prop53
 90
        2
102
RTVSPost2010PropOp53
 70
     1
102
RTVSPost2010Prop54
  1
strokes_ogs.tif
102
RTVSPost2010PropOp54
 70
     1
102
RTVSPost2010Prop55
280
     0
102
RTVSPost2010PropOp55
 70
     1
102
RTVSPost2010Prop56
140
1.0
102
RTVSPost2010PropOp56
 70
     1
102
RTVSPost2010Prop57
140
1.0
102
RTVSPost2010PropOp57
 70
     1
  0
ENDSEC
  0
EOF
