  0
SECTION
  2
HEADER
  9
$ACADVER
  1
AC1024
  9
$ACADMAINTVER
 70
   226
  9
$DWGCODEPAGE
  3
ANSI_932
  9
$INSBASE
 10
0.0
 20
0.0
 30
0.0
  9
$EXTMIN
 10
1.000000000000000E+20
 20
1.000000000000000E+20
 30
1.000000000000000E+20
  9
$EXTMAX
 10
-1.000000000000000E+20
 20
-1.000000000000000E+20
 30
-1.000000000000000E+20
  9
$LIMMIN
 10
0.0
 20
0.0
  9
$LIMMAX
 10
12.0
 20
9.0
  9
$ORTHOMODE
 70
     0
  9
$REGENMODE
 70
     1
  9
$FILLMODE
 70
     1
  9
$QTEXTMODE
 70
     0
  9
$MIRRTEXT
 70
     0
  9
$LTSCALE
 40
1.0
  9
$ATTMODE
 70
     1
  9
$TEXTSIZE
 40
0.2
  9
$TRACEWID
 40
0.05
  9
$TEXTSTYLE
  7
Standard
  9
$CLAYER
  8
0
  9
$CELTYPE
  6
ByLayer
  9
$CECOLOR
 62
   256
  9
$CELTSCALE
 40
1.0
  9
$DISPSILH
 70
     0
  9
$DIMSCALE
 40
1.0
  9
$DIMASZ
 40
0.18
  9
$DIMEXO
 40
0.0625
  9
$DIMDLI
 40
0.38
  9
$DIMRND
 40
0.0
  9
$DIMDLE
 40
0.0
  9
$DIMEXE
 40
0.18
  9
$DIMTP
 40
0.0
  9
$DIMTM
 40
0.0
  9
$DIMTXT
 40
0.18
  9
$DIMCEN
 40
0.09
  9
$DIMTSZ
 40
0.0
  9
$DIMTOL
 70
     0
  9
$DIMLIM
 70
     0
  9
$DIMTIH
 70
     1
  9
$DIMTOH
 70
     1
  9
$DIMSE1
 70
     0
  9
$DIMSE2
 70
     0
  9
$DIMTAD
 70
     0
  9
$DIMZIN
 70
     0
  9
$DIMBLK
  1

  9
$DIMASO
 70
     1
  9
$DIMSHO
 70
     1
  9
$DIMPOST
  1

  9
$DIMAPOST
  1

  9
$DIMALT
 70
     0
  9
$DIMALTD
 70
     2
  9
$DIMALTF
 40
25.4
  9
$DIMLFAC
 40
1.0
  9
$DIMTOFL
 70
     0
  9
$DIMTVP
 40
0.0
  9
$DIMTIX
 70
     0
  9
$DIMSOXD
 70
     0
  9
$DIMSAH
 70
     0
  9
$DIMBLK1
  1

  9
$DIMBLK2
  1

  9
$DIMSTYLE
  2
Standard
  9
$DIMCLRD
 70
     0
  9
$DIMCLRE
 70
     0
  9
$DIMCLRT
 70
     0
  9
$DIMTFAC
 40
1.0
  9
$DIMGAP
 40
0.09
  9
$DIMJUST
 70
     0
  9
$DIMSD1
 70
     0
  9
$DIMSD2
 70
     0
  9
$DIMTOLJ
 70
     1
  9
$DIMTZIN
 70
     0
  9
$DIMALTZ
 70
     0
  9
$DIMALTTZ
 70
     0
  9
$DIMUPT
 70
     0
  9
$DIMDEC
 70
     4
  9
$DIMTDEC
 70
     4
  9
$DIMALTU
 70
     2
  9
$DIMALTTD
 70
     2
  9
$DIMTXSTY
  7
Standard
  9
$DIMAUNIT
 70
     0
  9
$DIMADEC
 70
     0
  9
$DIMALTRND
 40
0.0
  9
$DIMAZIN
 70
     0
  9
$DIMDSEP
 70
    46
  9
$DIMATFIT
 70
     3
  9
$DIMFRAC
 70
     0
  9
$DIMLDRBLK
  1

  9
$DIMLUNIT
 70
     2
  9
$DIMLWD
 70
    -2
  9
$DIMLWE
 70
    -2
  9
$DIMTMOVE
 70
     0
  9
$DIMFXL
 40
1.0
  9
$DIMFXLON
 70
     0
  9
$DIMJOGANG
 40
0.7853981633974483
  9
$DIMTFILL
 70
     0
  9
$DIMTFILLCLR
 70
     0
  9
$DIMARCSYM
 70
     0
  9
$DIMLTYPE
  6

  9
$DIMLTEX1
  6

  9
$DIMLTEX2
  6

  9
$DIMTXTDIRECTION
 70
     0
  9
$LUNITS
 70
     2
  9
$LUPREC
 70
     4
  9
$SKETCHINC
 40
0.1
  9
$FILLETRAD
 40
0.0
  9
$AUNITS
 70
     0
  9
$AUPREC
 70
     0
  9
$MENU
  1
.
  9
$ELEVATION
 40
0.0
  9
$PELEVATION
 40
0.0
  9
$THICKNESS
 40
0.0
  9
$LIMCHECK
 70
     0
  9
$CHAMFERA
 40
0.0
  9
$CHAMFERB
 40
0.0
  9
$CHAMFERC
 40
0.0
  9
$CHAMFERD
 40
0.0
  9
$SKPOLY
 70
     0
  9
$TDCREATE
 40
2459569.503287037
  9
$TDUCREATE
 40
2459569.128287037
  9
$TDUPDATE
 40
2459569.503287037
  9
$TDUUPDATE
 40
2459569.128287037
  9
$TDINDWG
 40
0.0000000000
  9
$TDUSRTIMER
 40
0.0000000000
  9
$USRTIMER
 70
     1
  9
$ANGBASE
 50
0.0
  9
$ANGDIR
 70
     0
  9
$PDMODE
 70
     0
  9
$PDSIZE
 40
0.0
  9
$PLINEWID
 40
0.0
  9
$SPLFRAME
 70
     0
  9
$SPLINETYPE
 70
     6
  9
$SPLINESEGS
 70
     8
  9
$HANDSEED
  5
19B
  9
$SURFTAB1
 70
     6
  9
$SURFTAB2
 70
     6
  9
$SURFTYPE
 70
     6
  9
$SURFU
 70
     6
  9
$SURFV
 70
     6
  9
$UCSBASE
  2

  9
$UCSNAME
  2

  9
$UCSORG
 10
0.0
 20
0.0
 30
0.0
  9
$UCSXDIR
 10
1.0
 20
0.0
 30
0.0
  9
$UCSYDIR
 10
0.0
 20
1.0
 30
0.0
  9
$UCSORTHOREF
  2

  9
$UCSORTHOVIEW
 70
     0
  9
$UCSORGTOP
 10
0.0
 20
0.0
 30
0.0
  9
$UCSORGBOTTOM
 10
0.0
 20
0.0
 30
0.0
  9
$UCSORGLEFT
 10
0.0
 20
0.0
 30
0.0
  9
$UCSORGRIGHT
 10
0.0
 20
0.0
 30
0.0
  9
$UCSORGFRONT
 10
0.0
 20
0.0
 30
0.0
  9
$UCSORGBACK
 10
0.0
 20
0.0
 30
0.0
  9
$PUCSBASE
  2

  9
$PUCSNAME
  2

  9
$PUCSORG
 10
0.0
 20
0.0
 30
0.0
  9
$PUCSXDIR
 10
1.0
 20
0.0
 30
0.0
  9
$PUCSYDIR
 10
0.0
 20
1.0
 30
0.0
  9
$PUCSORTHOREF
  2

  9
$PUCSORTHOVIEW
 70
     0
  9
$PUCSORGTOP
 10
0.0
 20
0.0
 30
0.0
  9
$PUCSORGBOTTOM
 10
0.0
 20
0.0
 30
0.0
  9
$PUCSORGLEFT
 10
0.0
 20
0.0
 30
0.0
  9
$PUCSORGRIGHT
 10
0.0
 20
0.0
 30
0.0
  9
$PUCSORGFRONT
 10
0.0
 20
0.0
 30
0.0
  9
$PUCSORGBACK
 10
0.0
 20
0.0
 30
0.0
  9
$USERI1
 70
     0
  9
$USERI2
 70
     0
  9
$USERI3
 70
     0
  9
$USERI4
 70
     0
  9
$USERI5
 70
     0
  9
$USERR1
 40
0.0
  9
$USERR2
 40
0.0
  9
$USERR3
 40
0.0
  9
$USERR4
 40
0.0
  9
$USERR5
 40
0.0
  9
$WORLDVIEW
 70
     1
  9
$SHADEDGE
 70
     3
  9
$SHADEDIF
 70
    70
  9
$TILEMODE
 70
     1
  9
$MAXACTVP
 70
    64
  9
$PINSBASE
 10
0.0
 20
0.0
 30
0.0
  9
$PLIMCHECK
 70
     0
  9
$PEXTMIN
 10
1.000000000000000E+20
 20
1.000000000000000E+20
 30
1.000000000000000E+20
  9
$PEXTMAX
 10
-1.000000000000000E+20
 20
-1.000000000000000E+20
 30
-1.000000000000000E+20
  9
$PLIMMIN
 10
0.0
 20
0.0
  9
$PLIMMAX
 10
12.0
 20
9.0
  9
$UNITMODE
 70
     0
  9
$VISRETAIN
 70
     1
  9
$PLINEGEN
 70
     0
  9
$PSLTSCALE
 70
     1
  9
$TREEDEPTH
 70
  3020
  9
$CMLSTYLE
  2
Standard
  9
$CMLJUST
 70
     0
  9
$CMLSCALE
 40
1.0
  9
$PROXYGRAPHICS
 70
     1
  9
$MEASUREMENT
 70
     0
  9
$CELWEIGHT
370
    -1
  9
$ENDCAPS
280
     0
  9
$JOINSTYLE
280
     0
  9
$LWDISPLAY
290
     1
  9
$INSUNITS
 70
     4
  9
$HYPERLINKBASE
  1

  9
$STYLESHEET
  1

  9
$XEDIT
290
     1
  9
$CEPSNTYPE
380
     0
  9
$PSTYLEMODE
290
     1
  9
$FINGERPRINTGUID
  2
{E0262232-BAF2-3845-9906-30A59A157FCD}
  9
$VERSIONGUID
  2
{A545C238-7556-7441-ACEF-CCE63BA6E564}
  9
$EXTNAMES
290
     1
  9
$PSVPSCALE
 40
0.0
  9
$OLESTARTUP
290
     0
  9
$SORTENTS
280
   127
  9
$INDEXCTL
280
     0
  9
$HIDETEXT
280
     1
  9
$XCLIPFRAME
280
     2
  9
$HALOGAP
280
     0
  9
$OBSCOLOR
 70
   257
  9
$OBSLTYPE
280
     0
  9
$INTERSECTIONDISPLAY
280
     0
  9
$INTERSECTIONCOLOR
 70
   257
  9
$DIMASSOC
280
     2
  9
$PROJECTNAME
  1

  9
$CAMERADISPLAY
290
     0
  9
$LENSLENGTH
 40
50.0
  9
$CAMERAHEIGHT
 40
0.0
  9
$STEPSPERSEC
 40
2.0
  9
$STEPSIZE
 40
6.0
  9
$3DDWFPREC
 40
2.0
  9
$PSOLWIDTH
 40
0.25
  9
$PSOLHEIGHT
 40
4.0
  9
$LOFTANG1
 40
1.570796326794896
  9
$LOFTANG2
 40
1.570796326794896
  9
$LOFTMAG1
 40
0.0
  9
$LOFTMAG2
 40
0.0
  9
$LOFTPARAM
 70
     7
  9
$LOFTNORMALS
280
     1
  9
$LATITUDE
 40
37.795
  9
$LONGITUDE
 40
-122.394
  9
$NORTHDIRECTION
 40
0.0
  9
$TIMEZONE
 70
 -8000
  9
$LIGHTGLYPHDISPLAY
280
     1
  9
$TILEMODELIGHTSYNCH
280
     1
  9
$CMATERIAL
347
11
  9
$SOLIDHIST
280
     0
  9
$SHOWHIST
280
     1
  9
$DWFFRAME
280
     2
  9
$DGNFRAME
280
     0
  9
$REALWORLDSCALE
290
     1
  9
$INTERFERECOLOR
 62
     1
  9
$INTERFEREOBJVS
345
33
  9
$INTERFEREVPVS
346
30
  9
$CSHADOW
280
     0
  9
$SHADOWPLANELOCATION
 40
0.0
  0
ENDSEC
  0
SECTION
  2
CLASSES
  0
CLASS
  1
ACDBDICTIONARYWDFLT
  2
AcDbDictionaryWithDefault
  3
ObjectDBX Classes
 90
        0
 91
        1
280
     0
281
     0
  0
CLASS
  1
MATERIAL
  2
AcDbMaterial
  3
ObjectDBX Classes
 90
     1153
 91
        3
280
     0
281
     0
  0
CLASS
  1
VISUALSTYLE
  2
AcDbVisualStyle
  3
ObjectDBX Classes
 90
     4095
 91
       24
280
     0
281
     0
  0
CLASS
  1
SCALE
  2
AcDbScale
  3
ObjectDBX Classes
 90
     1153
 91
       17
280
     0
281
     0
  0
CLASS
  1
TABLESTYLE
  2
AcDbTableStyle
  3
ObjectDBX Classes
 90
     4095
 91
        1
280
     0
281
     0
  0
CLASS
  1
MLEADERSTYLE
  2
AcDbMLeaderStyle
  3
ACDB_MLEADERSTYLE_CLASS
 90
     4095
 91
        1
280
     0
281
     0
  0
CLASS
  1
ACDBSECTIONVIEWSTYLE
  2
AcDbSectionViewStyle
  3
ObjectDBX Classes
 90
     1025
 91
        1
280
     0
281
     0
  0
CLASS
  1
ACDBDETAILVIEWSTYLE
  2
AcDbDetailViewStyle
  3
ObjectDBX Classes
 90
     1025
 91
        1
280
     0
281
     0
  0
CLASS
  1
DICTIONARYVAR
  2
AcDbDictionaryVar
  3
ObjectDBX Classes
 90
        0
 91
        5
280
     0
281
     0
  0
CLASS
  1
CELLSTYLEMAP
  2
AcDbCellStyleMap
  3
ObjectDBX Classes
 90
     1152
 91
        1
280
     0
281
     0
  0
ENDSEC
  0
SECTION
  2
TABLES
  0
TABLE
  2
VPORT
  5
8
330
0
100
AcDbSymbolTable
 70
     1
  0
VPORT
  5
57
330
8
100
AcDbSymbolTableRecord
100
AcDbViewportTableRecord
  2
*Active
 70
     0
 10
0.0
 20
0.0
 11
1.0
 21
1.0
 12
0.0
 22
0.0
 13
0.0
 23
0.0
 14
1.0
 24
1.0
 15
0.0
 25
0.0
 16
0.0
 26
0.0
 36
1.0
 17
104.9999999737534
 27
-148.4999999628701
 37
0.0
 40
302.939999924255
 41
0.7070707070707534
 42
50.0
 43
0.0
 44
0.0
 50
0.0
 51
0.0
 71
     0
 72
   100
 73
     1
 74
     0
 75
     1
 76
     0
 77
     0
 78
     0
281
     0
 65
     1
110
0.0
120
0.0
130
0.0
111
1.0
121
0.0
131
0.0
112
0.0
122
1.0
132
0.0
 79
     0
146
0.0
 60
     3
 61
     5
292
     1
282
     1
141
0.0
142
0.0
 63
   250
421
  3355443
  0
ENDTAB
  0
TABLE
  2
LTYPE
  5
5
330
0
100
AcDbSymbolTable
 70
     3
  0
LTYPE
  5
5B
330
5
100
AcDbSymbolTableRecord
100
AcDbLinetypeTableRecord
  2
ByBlock
 70
     0
  3

 72
    65
 73
     0
 40
0.0
  0
LTYPE
  5
5C
330
5
100
AcDbSymbolTableRecord
100
AcDbLinetypeTableRecord
  2
ByLayer
 70
     0
  3

 72
    65
 73
     0
 40
0.0
  0
LTYPE
  5
5D
330
5
100
AcDbSymbolTableRecord
100
AcDbLinetypeTableRecord
  2
Continuous
 70
     0
  3
Solid line
 72
    65
 73
     0
 40
0.0
  0
LTYPE
  5
133
330
5
100
AcDbSymbolTableRecord
100
AcDbLinetypeTableRecord
  2
AI-Linetype-0
 70
     0
  3
Adobe Illustrator Linetype No. 0
 72
    65
 73
     2
 40
1.411111110758333
 49
0.7055555553791667
 74
     0
 49
-0.7055555553791667
 74
     0
  0
LTYPE
  5
135
330
5
100
AcDbSymbolTableRecord
100
AcDbLinetypeTableRecord
  2
AI-Linetype-1
 70
     0
  3
Adobe Illustrator Linetype No. 1
 72
    65
 73
     2
 40
1.411111110758333
 49
0.7055555553791667
 74
     0
 49
-0.7055555553791667
 74
     0
  0
ENDTAB
  0
TABLE
  2
LAYER
  5
2
330
0
100
AcDbSymbolTable
 70
     2
  0
LAYER
  5
54
330
2
100
AcDbSymbolTableRecord
100
AcDbLayerTableRecord
  2
0
 70
     0
 62
     7
  6
Continuous
370
    -3
390
F
347
21
  0
LAYER
  5
78
330
2
100
AcDbSymbolTableRecord
100
AcDbLayerTableRecord
  2
レイヤー 1
 70
     0
 62
     7
  6
Continuous
370
     0
390
F
347
21
  0
ENDTAB
  0
TABLE
  2
STYLE
  5
3
330
0
100
AcDbSymbolTable
 70
     2
  0
STYLE
  5
55
330
3
100
AcDbSymbolTableRecord
100
AcDbTextStyleTableRecord
  2
Standard
 70
     0
 40
0.0
 41
1.0
 50
0.0
 71
     0
 42
0.2
  3
txt
  4

  0
STYLE
  5
5A
330
3
100
AcDbSymbolTableRecord
100
AcDbTextStyleTableRecord
  2
Annotative
 70
     0
 40
0.0
 41
1.0
 50
0.0
 71
     0
 42
0.2
  3
txt
  4

1001
AcadAnnotative
1000
AnnotativeData
1002
{
1070
     1
1070
     1
1002
}
  0
ENDTAB
  0
TABLE
  2
VIEW
  5
6
330
0
100
AcDbSymbolTable
 70
     0
  0
ENDTAB
  0
TABLE
  2
UCS
  5
7
330
0
100
AcDbSymbolTable
 70
     0
  0
ENDTAB
  0
TABLE
  2
APPID
  5
9
330
0
100
AcDbSymbolTable
 70
     2
  0
APPID
  5
56
330
9
100
AcDbSymbolTableRecord
100
AcDbRegAppTableRecord
  2
ACAD
 70
     0
  0
APPID
  5
5E
330
9
100
AcDbSymbolTableRecord
100
AcDbRegAppTableRecord
  2
AcadAnnotative
 70
     0
  0
ENDTAB
  0
TABLE
  2
DIMSTYLE
  5
A
330
0
100
AcDbSymbolTable
 70
     2
100
AcDbDimStyleTable
 71
     0
  0
DIMSTYLE
105
58
330
A
100
AcDbSymbolTableRecord
100
AcDbDimStyleTableRecord
  2
Standard
 70
     0
340
55
  0
DIMSTYLE
105
59
330
A
100
AcDbSymbolTableRecord
100
AcDbDimStyleTableRecord
  2
Annotative
 70
     0
340
55
1001
AcadAnnotative
1000
AnnotativeData
1002
{
1070
     1
1070
     1
1002
}
  0
ENDTAB
  0
TABLE
  2
BLOCK_RECORD
  5
1
330
0
100
AcDbSymbolTable
 70
    15
  0
BLOCK_RECORD
  5
70
330
1
100
AcDbSymbolTableRecord
100
AcDbBlockTableRecord
  2
*Model_Space
340
73
 70
     0
280
     1
281
     0
  0
BLOCK_RECORD
  5
6C
330
1
100
AcDbSymbolTableRecord
100
AcDbBlockTableRecord
  2
*Paper_Space
340
6F
 70
     0
280
     1
281
     0
  0
BLOCK_RECORD
  5
74
330
1
100
AcDbSymbolTableRecord
100
AcDbBlockTableRecord
  2
*Paper_Space0
340
77
 70
     0
280
     1
281
     0
  0
BLOCK_RECORD
  5
79
330
1
100
AcDbSymbolTableRecord
100
AcDbBlockTableRecord
  2
Block_0
340
0
102
{BLKREFS
331
7A
102
}
 70
     0
280
     1
281
     0
  0
BLOCK_RECORD
  5
7D
330
1
100
AcDbSymbolTableRecord
100
AcDbBlockTableRecord
  2
Block_1
340
0
102
{BLKREFS
331
7E
102
}
 70
     0
280
     1
281
     0
  0
BLOCK_RECORD
  5
88
330
1
100
AcDbSymbolTableRecord
100
AcDbBlockTableRecord
  2
Block_2
340
0
102
{BLKREFS
331
89
102
}
 70
     0
280
     1
281
     0
  0
BLOCK_RECORD
  5
8C
330
1
100
AcDbSymbolTableRecord
100
AcDbBlockTableRecord
  2
Block_3
340
0
102
{BLKREFS
331
8D
102
}
 70
     0
280
     1
281
     0
  0
BLOCK_RECORD
  5
94
330
1
100
AcDbSymbolTableRecord
100
AcDbBlockTableRecord
  2
Block_4
340
0
102
{BLKREFS
331
95
102
}
 70
     0
280
     1
281
     0
  0
BLOCK_RECORD
  5
9C
330
1
100
AcDbSymbolTableRecord
100
AcDbBlockTableRecord
  2
Block_5
340
0
102
{BLKREFS
331
9D
102
}
 70
     0
280
     1
281
     0
  0
BLOCK_RECORD
  5
A0
330
1
100
AcDbSymbolTableRecord
100
AcDbBlockTableRecord
  2
Block_6
340
0
102
{BLKREFS
331
A1
102
}
 70
     0
280
     1
281
     0
  0
BLOCK_RECORD
  5
A8
330
1
100
AcDbSymbolTableRecord
100
AcDbBlockTableRecord
  2
Block_7
340
0
102
{BLKREFS
331
A9
102
}
 70
     0
280
     1
281
     0
  0
BLOCK_RECORD
  5
AE
330
1
100
AcDbSymbolTableRecord
100
AcDbBlockTableRecord
  2
Block_8
340
0
102
{BLKREFS
331
AF
102
}
 70
     0
280
     1
281
     0
  0
BLOCK_RECORD
  5
B2
330
1
100
AcDbSymbolTableRecord
100
AcDbBlockTableRecord
  2
Block_9
340
0
102
{BLKREFS
331
B3
102
}
 70
     0
280
     1
281
     0
  0
BLOCK_RECORD
  5
136
330
1
100
AcDbSymbolTableRecord
100
AcDbBlockTableRecord
  2
Block_10
340
0
102
{BLKREFS
331
137
102
}
 70
     0
280
     1
281
     0
  0
BLOCK_RECORD
  5
13A
330
1
100
AcDbSymbolTableRecord
100
AcDbBlockTableRecord
  2
Block_11
340
0
102
{BLKREFS
331
13B
102
}
 70
     0
280
     1
281
     0
  0
BLOCK_RECORD
  5
141
330
1
100
AcDbSymbolTableRecord
100
AcDbBlockTableRecord
  2
Block_12
340
0
102
{BLKREFS
331
142
102
}
 70
     0
280
     1
281
     0
  0
BLOCK_RECORD
  5
145
330
1
100
AcDbSymbolTableRecord
100
AcDbBlockTableRecord
  2
Block_13
340
0
102
{BLKREFS
331
146
102
}
 70
     0
280
     1
281
     0
  0
ENDTAB
  0
ENDSEC
  0
SECTION
  2
BLOCKS
  0
BLOCK
  5
71
330
70
100
AcDbEntity
  8
0
100
AcDbBlockBegin
  2
*Model_Space
 70
     0
 10
0.0
 20
0.0
 30
0.0
  3
*Model_Space
  1

  0
ENDBLK
  5
72
330
70
100
AcDbEntity
  8
0
100
AcDbBlockEnd
  0
BLOCK
  5
6D
330
6C
100
AcDbEntity
 67
     1
  8
0
100
AcDbBlockBegin
  2
*Paper_Space
 70
     0
 10
0.0
 20
0.0
 30
0.0
  3
*Paper_Space
  1

  0
ENDBLK
  5
6E
330
6C
100
AcDbEntity
 67
     1
  8
0
100
AcDbBlockEnd
  0
BLOCK
  5
75
330
74
100
AcDbEntity
 67
     1
  8
0
100
AcDbBlockBegin
  2
*Paper_Space0
 70
     0
 10
0.0
 20
0.0
 30
0.0
  3
*Paper_Space0
  1

  0
ENDBLK
  5
76
330
74
100
AcDbEntity
 67
     1
  8
0
100
AcDbBlockEnd
  0
BLOCK
  5
7B
330
79
100
AcDbEntity
  8
0
100
AcDbBlockBegin
  2
Block_0
 70
     0
 10
0.0
 20
0.0
 30
0.0
  3
Block_0
  1

  0
INSERT
  5
7E
330
79
100
AcDbEntity
  8
レイヤー 1
100
AcDbBlockReference
  2
Block_1
 10
0.0
 20
0.0
 30
0.0
  0
ENDBLK
  5
7C
330
79
100
AcDbEntity
  8
0
100
AcDbBlockEnd
  0
BLOCK
  5
7F
330
7D
100
AcDbEntity
  8
0
100
AcDbBlockBegin
  2
Block_1
 70
     0
 10
0.0
 20
0.0
 30
0.0
  3
Block_1
  1

  0
SPLINE
  5
81
330
7D
100
AcDbEntity
  8
レイヤー 1
100
AcDbSpline
210
0.0
220
0.0
230
1.0
 70
     9
 71
     3
 72
    17
 73
    13
 74
     0
 42
0.0000000001
 43
0.0000000001
 40
0.0
 40
0.0
 40
0.0
 40
0.0
 40
1.0
 40
1.0
 40
1.0
 40
2.0
 40
2.0
 40
2.0
 40
3.0
 40
3.0
 40
3.0
 40
4.0
 40
4.0
 40
4.0
 40
4.0
 10
73.79670137043972
 20
-146.8372042818671
 30
0.0
 10
73.79670137043972
 20
-147.0869737045477
 30
0.0
 10
74.08006047410151
 20
-147.1334824935986
 30
0.0
 10
74.42491453217503
 20
-147.1334824935986
 30
0.0
 10
74.74444713843195
 20
-147.1334824935986
 30
0.0
 10
75.0532999486846
 20
-147.0973089910034
 30
0.0
 10
75.0532999486846
 20
-146.8372042818671
 30
0.0
 10
75.0532999486846
 20
-146.5895019164776
 30
0.0
 10
74.77183564753969
 20
-146.5409260701356
 30
0.0
 10
74.42491453217503
 20
-146.5409260701356
 30
0.0
 10
74.10555418069236
 20
-146.5409260701356
 30
0.0
 10
73.79670137043972
 20
-146.5791666300219
 30
0.0
 10
73.79670137043972
 20
-146.8372042818671
 30
0.0
  0
SPLINE
  5
82
330
7D
100
AcDbEntity
  8
レイヤー 1
100
AcDbSpline
210
0.0
220
0.0
230
1.0
 70
     9
 71
     3
 72
    29
 73
    25
 74
     0
 42
0.0000000001
 43
0.0000000001
 40
0.0
 40
0.0
 40
0.0
 40
0.0
 40
1.0
 40
1.0
 40
1.0
 40
2.0
 40
2.0
 40
2.0
 40
3.0
 40
3.0
 40
3.0
 40
4.0
 40
4.0
 40
4.0
 40
5.0
 40
5.0
 40
5.0
 40
6.0
 40
6.0
 40
6.0
 40
7.0
 40
7.0
 40
7.0
 40
8.0
 40
8.0
 40
8.0
 40
8.0
 10
75.01936575815489
 20
-146.4392957533207
 30
0.0
 10
75.22882756365807
 20
-146.5474717515576
 30
0.0
 10
75.24794784360121
 20
-146.7207600544656
 30
0.0
 10
75.24794784360121
 20
-146.8372042818671
 30
0.0
 10
75.24794784360121
 20
-146.9980902410282
 30
0.0
 10
75.20143905455033
 20
-147.139683665472
 30
0.0
 10
75.01936575815489
 20
-147.2347683008649
 30
0.0
 10
74.82489011801253
 20
-147.3384656749709
 30
0.0
 10
74.58786754862734
 20
-147.3577582096883
 30
0.0
 10
74.42491453217503
 20
-147.3577582096883
 30
0.0
 10
74.28108179566584
 20
-147.3577582096883
 30
0.0
 10
74.02941757046834
 20
-147.3405327322621
 30
0.0
 10
73.83046330619517
 20
-147.2347683008649
 30
0.0
 10
73.62737492733969
 20
-147.1269368121766
 30
0.0
 10
73.60412053281425
 20
-146.9660508530154
 30
0.0
 10
73.60412053281425
 20
-146.8372042818671
 30
0.0
 10
73.60412053281425
 20
-146.6783853799971
 30
0.0
 10
73.64856226457397
 20
-146.5347248982622
 30
0.0
 10
73.83046330619517
 20
-146.4392957533207
 30
0.0
 10
74.02304414382062
 20
-146.3400770033455
 30
0.0
 10
74.25145397449269
 20
-146.3166503540458
 30
0.0
 10
74.42491453217503
 20
-146.3166503540458
 30
0.0
 10
74.5963080325662
 20
-146.3166503540458
 30
0.0
 10
74.82695717530368
 20
-146.3380099460544
 30
0.0
 10
75.01936575815489
 20
-146.4392957533207
 30
0.0
  0
HATCH
  5
83
330
7D
100
AcDbEntity
  8
レイヤー 1
 62
   250
420
  2299925
440
 33554687
100
AcDbHatch
 10
0.0
 20
0.0
 30
0.0
210
0.0
220
0.0
230
1.0
  2
SOLID
 70
     1
 71
     1
 91
        2
 92
        1
 93
        1
 72
     4
 94
        3
 73
     0
 74
     0
 95
       17
 96
       13
 40
0.0
 40
0.0
 40
0.0
 40
0.0
 40
1.0
 40
1.0
 40
1.0
 40
2.0
 40
2.0
 40
2.0
 40
3.0
 40
3.0
 40
3.0
 40
4.0
 40
4.0
 40
4.0
 40
4.0
 10
73.79670137043972
 20
-146.8372042818671
 10
73.79670137043972
 20
-147.0869737045477
 10
74.08006047410151
 20
-147.1334824935986
 10
74.42491453217503
 20
-147.1334824935986
 10
74.74444713843195
 20
-147.1334824935986
 10
75.0532999486846
 20
-147.0973089910034
 10
75.0532999486846
 20
-146.8372042818671
 10
75.0532999486846
 20
-146.5895019164776
 10
74.77183564753969
 20
-146.5409260701356
 10
74.42491453217503
 20
-146.5409260701356
 10
74.10555418069236
 20
-146.5409260701356
 10
73.79670137043972
 20
-146.5791666300219
 10
73.79670137043972
 20
-146.8372042818671
 97
        0
 97
        1
330
81
 92
        1
 93
        1
 72
     4
 94
        3
 73
     0
 74
     0
 95
       29
 96
       25
 40
0.0
 40
0.0
 40
0.0
 40
0.0
 40
1.0
 40
1.0
 40
1.0
 40
2.0
 40
2.0
 40
2.0
 40
3.0
 40
3.0
 40
3.0
 40
4.0
 40
4.0
 40
4.0
 40
5.0
 40
5.0
 40
5.0
 40
6.0
 40
6.0
 40
6.0
 40
7.0
 40
7.0
 40
7.0
 40
8.0
 40
8.0
 40
8.0
 40
8.0
 10
75.01936575815489
 20
-146.4392957533207
 10
75.22882756365807
 20
-146.5474717515576
 10
75.24794784360121
 20
-146.7207600544656
 10
75.24794784360121
 20
-146.8372042818671
 10
75.24794784360121
 20
-146.9980902410282
 10
75.20143905455033
 20
-147.139683665472
 10
75.01936575815489
 20
-147.2347683008649
 10
74.82489011801253
 20
-147.3384656749709
 10
74.58786754862734
 20
-147.3577582096883
 10
74.42491453217503
 20
-147.3577582096883
 10
74.28108179566584
 20
-147.3577582096883
 10
74.02941757046834
 20
-147.3405327322621
 10
73.83046330619517
 20
-147.2347683008649
 10
73.62737492733969
 20
-147.1269368121766
 10
73.60412053281425
 20
-146.9660508530154
 10
73.60412053281425
 20
-146.8372042818671
 10
73.60412053281425
 20
-146.6783853799971
 10
73.64856226457397
 20
-146.5347248982622
 10
73.83046330619517
 20
-146.4392957533207
 10
74.02304414382062
 20
-146.3400770033455
 10
74.25145397449269
 20
-146.3166503540458
 10
74.42491453217503
 20
-146.3166503540458
 10
74.5963080325662
 20
-146.3166503540458
 10
74.82695717530368
 20
-146.3380099460544
 10
75.01936575815489
 20
-146.4392957533207
 97
        0
 97
        1
330
82
 75
     2
 76
     1
 98
        1
 10
0.0
 20
0.0
450
        0
451
        0
460
0.0
461
0.0
452
        0
462
0.0
453
        0
470

  0
SPLINE
  5
84
330
7D
100
AcDbEntity
  8
レイヤー 1
100
AcDbSpline
210
0.0
220
0.0
230
1.0
 70
    11
 71
     3
 72
    17
 73
    13
 74
     0
 42
0.0000000001
 43
0.0000000001
 40
0.0
 40
0.0
 40
0.0
 40
0.0
 40
1.0
 40
1.0
 40
1.0
 40
2.0
 40
2.0
 40
2.0
 40
3.0
 40
3.0
 40
3.0
 40
4.0
 40
4.0
 40
4.0
 40
4.0
 10
75.19713268519378
 20
-146.1002983575721
 30
0.0
 10
75.19713268519378
 20
-146.1002983575721
 30
0.0
 10
74.94546845999628
 20
-146.1002983575721
 30
0.0
 10
74.94546845999628
 20
-146.1002983575721
 30
0.0
 10
74.94546845999628
 20
-146.1002983575721
 30
0.0
 10
74.94546845999628
 20
-145.8484618776004
 30
0.0
 10
74.94546845999628
 20
-145.8484618776004
 30
0.0
 10
74.94546845999628
 20
-145.8484618776004
 30
0.0
 10
75.19713268519378
 20
-145.8484618776004
 30
0.0
 10
75.19713268519378
 20
-145.8484618776004
 30
0.0
 10
75.19713268519378
 20
-145.8484618776004
 30
0.0
 10
75.19713268519378
 20
-146.1002983575721
 30
0.0
 10
75.19713268519378
 20
-146.1002983575721
 30
0.0
  0
HATCH
  5
85
330
7D
100
AcDbEntity
  8
レイヤー 1
 62
   250
420
  2299925
440
 33554687
100
AcDbHatch
 10
0.0
 20
0.0
 30
0.0
210
0.0
220
0.0
230
1.0
  2
SOLID
 70
     1
 71
     1
 91
        1
 92
        1
 93
        1
 72
     4
 94
        3
 73
     0
 74
     0
 95
       17
 96
       13
 40
0.0
 40
0.0
 40
0.0
 40
0.0
 40
1.0
 40
1.0
 40
1.0
 40
2.0
 40
2.0
 40
2.0
 40
3.0
 40
3.0
 40
3.0
 40
4.0
 40
4.0
 40
4.0
 40
4.0
 10
75.19713268519378
 20
-146.1002983575721
 10
75.19713268519378
 20
-146.1002983575721
 10
74.94546845999628
 20
-146.1002983575721
 10
74.94546845999628
 20
-146.1002983575721
 10
74.94546845999628
 20
-146.1002983575721
 10
74.94546845999628
 20
-145.8484618776004
 10
74.94546845999628
 20
-145.8484618776004
 10
74.94546845999628
 20
-145.8484618776004
 10
75.19713268519378
 20
-145.8484618776004
 10
75.19713268519378
 20
-145.8484618776004
 10
75.19713268519378
 20
-145.8484618776004
 10
75.19713268519378
 20
-146.1002983575721
 10
75.19713268519378
 20
-146.1002983575721
 97
        0
 97
        1
330
84
 75
     2
 76
     1
 98
        1
 10
0.0
 20
0.0
450
        0
451
        0
460
0.0
461
0.0
452
        0
462
0.0
453
        0
470

  0
SPLINE
  5
86
330
7D
100
AcDbEntity
  8
レイヤー 1
100
AcDbSpline
210
0.0
220
0.0
230
1.0
 70
     9
 71
     3
 72
    53
 73
    49
 74
     0
 42
0.0000000001
 43
0.0000000001
 40
0.0
 40
0.0
 40
0.0
 40
0.0
 40
1.0
 40
1.0
 40
1.0
 40
2.0
 40
2.0
 40
2.0
 40
3.0
 40
3.0
 40
3.0
 40
4.0
 40
4.0
 40
4.0
 40
5.0
 40
5.0
 40
5.0
 40
6.0
 40
6.0
 40
6.0
 40
7.0
 40
7.0
 40
7.0
 40
8.0
 40
8.0
 40
8.0
 40
9.0
 40
9.0
 40
9.0
 40
10.0
 40
10.0
 40
10.0
 40
11.0
 40
11.0
 40
11.0
 40
12.0
 40
12.0
 40
12.0
 40
13.0
 40
13.0
 40
13.0
 40
14.0
 40
14.0
 40
14.0
 40
15.0
 40
15.0
 40
15.0
 40
16.0
 40
16.0
 40
16.0
 40
16.0
 10
75.24794784360121
 20
-145.1311929975713
 30
0.0
 10
75.24794784360121
 20
-145.2093966650865
 30
0.0
 10
75.23106687572348
 20
-145.3110269819014
 30
0.0
 10
75.16750486402063
 20
-145.4126572987163
 30
0.0
 10
75.0574340632669
 20
-145.5859456016243
 30
0.0
 10
74.92634818005313
 20
-145.6073051936329
 30
0.0
 10
74.81851669136482
 20
-145.6262532188017
 30
0.0
 10
74.81851669136482
 20
-145.6262532188017
 30
0.0
 10
74.81851669136482
 20
-145.4040445600031
 30
0.0
 10
74.81851669136482
 20
-145.4040445600031
 30
0.0
 10
75.01729870086373
 20
-145.3492675417877
 30
0.0
 10
75.04692652203688
 20
-145.222143518382
 30
0.0
 10
75.04692652203688
 20
-145.1291259402802
 30
0.0
 10
75.04692652203688
 20
-144.9895995731276
 30
0.0
 10
74.94753551728742
 20
-144.8373263526795
 30
0.0
 10
74.7148193172588
 20
-144.8373263526795
 30
0.0
 10
74.45884872270473
 20
-144.8373263526795
 30
0.0
 10
74.38908553912843
 20
-145.0171603370096
 30
0.0
 10
74.38908553912843
 20
-145.1377386789933
 30
0.0
 10
74.38908553912843
 20
-145.1694335574576
 30
0.0
 10
74.38908553912843
 20
-145.3110269819014
 30
0.0
 10
74.51810436505103
 20
-145.3999104454208
 30
0.0
 10
74.51810436505103
 20
-145.3999104454208
 30
0.0
 10
74.49898408510789
 20
-145.5756103151686
 30
0.0
 10
74.49898408510789
 20
-145.5756103151686
 30
0.0
 10
74.49898408510789
 20
-145.5756103151686
 30
0.0
 10
73.65286863393054
 20
-145.4550319731849
 30
0.0
 10
73.65286863393054
 20
-145.4550319731849
 30
0.0
 10
73.65286863393054
 20
-145.4550319731849
 30
0.0
 10
73.65286863393054
 20
-144.6764403935184
 30
0.0
 10
73.65286863393054
 20
-144.6764403935184
 30
0.0
 10
73.65286863393054
 20
-144.6764403935184
 30
0.0
 10
73.84751652884715
 20
-144.6764403935184
 30
0.0
 10
73.84751652884715
 20
-144.6764403935184
 30
0.0
 10
73.84751652884715
 20
-144.6764403935184
 30
0.0
 10
73.84751652884715
 20
-145.2920789567325
 30
0.0
 10
73.84751652884715
 20
-145.2920789567325
 30
0.0
 10
73.84751652884715
 20
-145.2920789567325
 30
0.0
 10
74.27057425443583
 20
-145.3575357709523
 30
0.0
 10
74.27057425443583
 20
-145.3575357709523
 30
0.0
 10
74.23664006390612
 20
-145.2962130713148
 30
0.0
 10
74.19650470150296
 20
-145.2138752892174
 30
0.0
 10
74.19650470150296
 20
-145.0953640045248
 30
0.0
 10
74.19650470150296
 20
-144.8414604672618
 30
0.0
 10
74.38271211248071
 20
-144.6044378978766
 30
0.0
 10
74.69569903731566
 20
-144.6044378978766
 30
0.0
 10
75.01316458628143
 20
-144.6044378978766
 30
0.0
 10
75.24794784360121
 20
-144.8287136139664
 30
0.0
 10
75.24794784360121
 20
-145.1311929975713
 30
0.0
  0
HATCH
  5
87
330
7D
100
AcDbEntity
  8
レイヤー 1
 62
   250
420
  2299925
440
 33554687
100
AcDbHatch
 10
0.0
 20
0.0
 30
0.0
210
0.0
220
0.0
230
1.0
  2
SOLID
 70
     1
 71
     1
 91
        1
 92
        1
 93
        1
 72
     4
 94
        3
 73
     0
 74
     0
 95
       53
 96
       49
 40
0.0
 40
0.0
 40
0.0
 40
0.0
 40
1.0
 40
1.0
 40
1.0
 40
2.0
 40
2.0
 40
2.0
 40
3.0
 40
3.0
 40
3.0
 40
4.0
 40
4.0
 40
4.0
 40
5.0
 40
5.0
 40
5.0
 40
6.0
 40
6.0
 40
6.0
 40
7.0
 40
7.0
 40
7.0
 40
8.0
 40
8.0
 40
8.0
 40
9.0
 40
9.0
 40
9.0
 40
10.0
 40
10.0
 40
10.0
 40
11.0
 40
11.0
 40
11.0
 40
12.0
 40
12.0
 40
12.0
 40
13.0
 40
13.0
 40
13.0
 40
14.0
 40
14.0
 40
14.0
 40
15.0
 40
15.0
 40
15.0
 40
16.0
 40
16.0
 40
16.0
 40
16.0
 10
75.24794784360121
 20
-145.1311929975713
 10
75.24794784360121
 20
-145.2093966650865
 10
75.23106687572348
 20
-145.3110269819014
 10
75.16750486402063
 20
-145.4126572987163
 10
75.0574340632669
 20
-145.5859456016243
 10
74.92634818005313
 20
-145.6073051936329
 10
74.81851669136482
 20
-145.6262532188017
 10
74.81851669136482
 20
-145.6262532188017
 10
74.81851669136482
 20
-145.4040445600031
 10
74.81851669136482
 20
-145.4040445600031
 10
75.01729870086373
 20
-145.3492675417877
 10
75.04692652203688
 20
-145.222143518382
 10
75.04692652203688
 20
-145.1291259402802
 10
75.04692652203688
 20
-144.9895995731276
 10
74.94753551728742
 20
-144.8373263526795
 10
74.7148193172588
 20
-144.8373263526795
 10
74.45884872270473
 20
-144.8373263526795
 10
74.38908553912843
 20
-145.0171603370096
 10
74.38908553912843
 20
-145.1377386789933
 10
74.38908553912843
 20
-145.1694335574576
 10
74.38908553912843
 20
-145.3110269819014
 10
74.51810436505103
 20
-145.3999104454208
 10
74.51810436505103
 20
-145.3999104454208
 10
74.49898408510789
 20
-145.5756103151686
 10
74.49898408510789
 20
-145.5756103151686
 10
74.49898408510789
 20
-145.5756103151686
 10
73.65286863393054
 20
-145.4550319731849
 10
73.65286863393054
 20
-145.4550319731849
 10
73.65286863393054
 20
-145.4550319731849
 10
73.65286863393054
 20
-144.6764403935184
 10
73.65286863393054
 20
-144.6764403935184
 10
73.65286863393054
 20
-144.6764403935184
 10
73.84751652884715
 20
-144.6764403935184
 10
73.84751652884715
 20
-144.6764403935184
 10
73.84751652884715
 20
-144.6764403935184
 10
73.84751652884715
 20
-145.2920789567325
 10
73.84751652884715
 20
-145.2920789567325
 10
73.84751652884715
 20
-145.2920789567325
 10
74.27057425443583
 20
-145.3575357709523
 10
74.27057425443583
 20
-145.3575357709523
 10
74.23664006390612
 20
-145.2962130713148
 10
74.19650470150296
 20
-145.2138752892174
 10
74.19650470150296
 20
-145.0953640045248
 10
74.19650470150296
 20
-144.8414604672618
 10
74.38271211248071
 20
-144.6044378978766
 10
74.69569903731566
 20
-144.6044378978766
 10
75.01316458628143
 20
-144.6044378978766
 10
75.24794784360121
 20
-144.8287136139664
 10
75.24794784360121
 20
-145.1311929975713
 97
        0
 97
        1
330
86
 75
     2
 76
     1
 98
        1
 10
0.0
 20
0.0
450
        0
451
        0
460
0.0
461
0.0
452
        0
462
0.0
453
        0
470

  0
ENDBLK
  5
80
330
7D
100
AcDbEntity
  8
0
100
AcDbBlockEnd
  0
BLOCK
  5
8A
330
88
100
AcDbEntity
  8
0
100
AcDbBlockBegin
  2
Block_2
 70
     0
 10
0.0
 20
0.0
 30
0.0
  3
Block_2
  1

  0
INSERT
  5
8D
330
88
100
AcDbEntity
  8
レイヤー 1
100
AcDbBlockReference
  2
Block_3
 10
0.0
 20
0.0
 30
0.0
  0
ENDBLK
  5
8B
330
88
100
AcDbEntity
  8
0
100
AcDbBlockEnd
  0
BLOCK
  5
8E
330
8C
100
AcDbEntity
  8
0
100
AcDbBlockBegin
  2
Block_3
 70
     0
 10
0.0
 20
0.0
 30
0.0
  3
Block_3
  1

  0
SPLINE
  5
90
330
8C
100
AcDbEntity
  8
レイヤー 1
100
AcDbSpline
210
0.0
220
0.0
230
1.0
 70
     9
 71
     3
 72
    44
 73
    40
 74
     0
 42
0.0000000001
 43
0.0000000001
 40
0.0
 40
0.0
 40
0.0
 40
0.0
 40
1.0
 40
1.0
 40
1.0
 40
2.0
 40
2.0
 40
2.0
 40
3.0
 40
3.0
 40
3.0
 40
4.0
 40
4.0
 40
4.0
 40
5.0
 40
5.0
 40
5.0
 40
6.0
 40
6.0
 40
6.0
 40
7.0
 40
7.0
 40
7.0
 40
8.0
 40
8.0
 40
8.0
 40
9.0
 40
9.0
 40
9.0
 40
10.0
 40
10.0
 40
10.0
 40
11.0
 40
11.0
 40
11.0
 40
12.0
 40
12.0
 40
12.0
 40
13.0
 40
13.0
 40
13.0
 40
13.0
 10
90.68800453461966
 20
-139.6248968834965
 30
0.0
 10
90.47010224517761
 20
-139.7835435305923
 30
0.0
 10
90.37691241230161
 20
-139.8576130835252
 30
0.0
 10
90.32833656595959
 20
-140.0014458200343
 30
0.0
 10
90.32833656595959
 20
-140.0014458200343
 30
0.0
 10
91.10675589085179
 20
-140.0014458200343
 30
0.0
 10
91.10675589085179
 20
-140.0014458200343
 30
0.0
 10
91.10675589085179
 20
-140.0014458200343
 30
0.0
 10
91.10675589085179
 20
-140.206601256181
 30
0.0
 10
91.10675589085179
 20
-140.206601256181
 30
0.0
 10
91.10675589085179
 20
-140.206601256181
 30
0.0
 10
90.07873939805323
 20
-140.206601256181
 30
0.0
 10
90.07873939805323
 20
-140.206601256181
 30
0.0
 10
90.11043427651754
 20
-139.849000344812
 30
0.0
 10
90.17606334551153
 20
-139.7707966772969
 30
0.0
 10
90.5610527659882
 20
-139.4724514082742
 30
0.0
 10
90.81702336054227
 20
-139.2736693987753
 30
0.0
 10
90.88248017476201
 20
-139.2059732724902
 30
0.0
 10
90.88248017476201
 20
-139.0685139626287
 30
0.0
 10
90.88248017476201
 20
-138.9500026779361
 30
0.0
 10
90.81064993389457
 20
-138.8187445399481
 30
0.0
 10
90.6139349816868
 20
-138.8187445399481
 30
0.0
 10
90.35365801777617
 20
-138.8187445399481
 30
0.0
 10
90.34521753383732
 20
-139.0493936826856
 30
0.0
 10
90.34091116448074
 20
-139.165837910087
 30
0.0
 10
90.34091116448074
 20
-139.165837910087
 30
0.0
 10
90.11680770316525
 20
-139.165837910087
 30
0.0
 10
90.11680770316525
 20
-139.165837910087
 30
0.0
 10
90.1252481871041
 20
-139.0388861414555
 30
0.0
 10
90.13575572833412
 20
-138.9267482834107
 30
0.0
 10
90.2161987079147
 20
-138.8082369987181
 30
0.0
 10
90.32609725389418
 20
-138.6475232943312
 30
0.0
 10
90.51230466487194
 20
-138.6135891038015
 30
0.0
 10
90.62874889227337
 20
-138.6135891038015
 30
0.0
 10
90.90590682406171
 20
-138.6135891038015
 30
0.0
 10
91.11312931749949
 20
-138.797729457488
 30
0.0
 10
91.11312931749949
 20
-139.0705810199198
 30
0.0
 10
91.11312931749949
 20
-139.2989908505919
 30
0.0
 10
90.99685734487231
 20
-139.3985541101156
 30
0.0
 10
90.68800453461966
 20
-139.6248968834965
 30
0.0
  0
HATCH
  5
91
330
8C
100
AcDbEntity
  8
レイヤー 1
 62
   250
420
  2299925
440
 33554687
100
AcDbHatch
 10
0.0
 20
0.0
 30
0.0
210
0.0
220
0.0
230
1.0
  2
SOLID
 70
     1
 71
     1
 91
        1
 92
        1
 93
        1
 72
     4
 94
        3
 73
     0
 74
     0
 95
       44
 96
       40
 40
0.0
 40
0.0
 40
0.0
 40
0.0
 40
1.0
 40
1.0
 40
1.0
 40
2.0
 40
2.0
 40
2.0
 40
3.0
 40
3.0
 40
3.0
 40
4.0
 40
4.0
 40
4.0
 40
5.0
 40
5.0
 40
5.0
 40
6.0
 40
6.0
 40
6.0
 40
7.0
 40
7.0
 40
7.0
 40
8.0
 40
8.0
 40
8.0
 40
9.0
 40
9.0
 40
9.0
 40
10.0
 40
10.0
 40
10.0
 40
11.0
 40
11.0
 40
11.0
 40
12.0
 40
12.0
 40
12.0
 40
13.0
 40
13.0
 40
13.0
 40
13.0
 10
90.68800453461966
 20
-139.6248968834965
 10
90.47010224517761
 20
-139.7835435305923
 10
90.37691241230161
 20
-139.8576130835252
 10
90.32833656595959
 20
-140.0014458200343
 10
90.32833656595959
 20
-140.0014458200343
 10
91.10675589085179
 20
-140.0014458200343
 10
91.10675589085179
 20
-140.0014458200343
 10
91.10675589085179
 20
-140.0014458200343
 10
91.10675589085179
 20
-140.206601256181
 10
91.10675589085179
 20
-140.206601256181
 10
91.10675589085179
 20
-140.206601256181
 10
90.07873939805323
 20
-140.206601256181
 10
90.07873939805323
 20
-140.206601256181
 10
90.11043427651754
 20
-139.849000344812
 10
90.17606334551153
 20
-139.7707966772969
 10
90.5610527659882
 20
-139.4724514082742
 10
90.81702336054227
 20
-139.2736693987753
 10
90.88248017476201
 20
-139.2059732724902
 10
90.88248017476201
 20
-139.0685139626287
 10
90.88248017476201
 20
-138.9500026779361
 10
90.81064993389457
 20
-138.8187445399481
 10
90.6139349816868
 20
-138.8187445399481
 10
90.35365801777617
 20
-138.8187445399481
 10
90.34521753383732
 20
-139.0493936826856
 10
90.34091116448074
 20
-139.165837910087
 10
90.34091116448074
 20
-139.165837910087
 10
90.11680770316525
 20
-139.165837910087
 10
90.11680770316525
 20
-139.165837910087
 10
90.1252481871041
 20
-139.0388861414555
 10
90.13575572833412
 20
-138.9267482834107
 10
90.2161987079147
 20
-138.8082369987181
 10
90.32609725389418
 20
-138.6475232943312
 10
90.51230466487194
 20
-138.6135891038015
 10
90.62874889227337
 20
-138.6135891038015
 10
90.90590682406171
 20
-138.6135891038015
 10
91.11312931749949
 20
-138.797729457488
 10
91.11312931749949
 20
-139.0705810199198
 10
91.11312931749949
 20
-139.2989908505919
 10
90.99685734487231
 20
-139.3985541101156
 10
90.68800453461966
 20
-139.6248968834965
 97
        0
 97
        1
330
90
 75
     2
 76
     1
 98
        1
 10
0.0
 20
0.0
450
        0
451
        0
460
0.0
461
0.0
452
        0
462
0.0
453
        0
470

  0
SPLINE
  5
92
330
8C
100
AcDbEntity
  8
レイヤー 1
100
AcDbSpline
210
0.0
220
0.0
230
1.0
 70
    11
 71
     3
 72
    26
 73
    22
 74
     0
 42
0.0000000001
 43
0.0000000001
 40
0.0
 40
0.0
 40
0.0
 40
0.0
 40
1.0
 40
1.0
 40
1.0
 40
2.0
 40
2.0
 40
2.0
 40
3.0
 40
3.0
 40
3.0
 40
4.0
 40
4.0
 40
4.0
 40
5.0
 40
5.0
 40
5.0
 40
6.0
 40
6.0
 40
6.0
 40
7.0
 40
7.0
 40
7.0
 40
7.0
 10
91.72308347316299
 20
-140.206601256181
 30
0.0
 10
91.72308347316299
 20
-140.206601256181
 30
0.0
 10
91.72308347316299
 20
-139.1022758983841
 30
0.0
 10
91.72308347316299
 20
-139.1022758983841
 30
0.0
 10
91.72308347316299
 20
-139.1022758983841
 30
0.0
 10
91.39304332567604
 20
-139.1022758983841
 30
0.0
 10
91.39304332567604
 20
-139.1022758983841
 30
0.0
 10
91.39304332567604
 20
-139.1022758983841
 30
0.0
 10
91.39304332567604
 20
-138.9541367925184
 30
0.0
 10
91.39304332567604
 20
-138.9541367925184
 30
0.0
 10
91.72515053045414
 20
-138.9394951367061
 30
0.0
 10
91.77165931950501
 20
-138.7765421202538
 30
0.0
 10
91.80128714067816
 20
-138.6623372049177
 30
0.0
 10
91.80128714067816
 20
-138.6623372049177
 30
0.0
 10
91.94735918925275
 20
-138.6623372049177
 30
0.0
 10
91.94735918925275
 20
-138.6623372049177
 30
0.0
 10
91.94735918925275
 20
-138.6623372049177
 30
0.0
 10
91.94735918925275
 20
-140.206601256181
 30
0.0
 10
91.94735918925275
 20
-140.206601256181
 30
0.0
 10
91.94735918925275
 20
-140.206601256181
 30
0.0
 10
91.72308347316299
 20
-140.206601256181
 30
0.0
 10
91.72308347316299
 20
-140.206601256181
 30
0.0
  0
HATCH
  5
93
330
8C
100
AcDbEntity
  8
レイヤー 1
 62
   250
420
  2299925
440
 33554687
100
AcDbHatch
 10
0.0
 20
0.0
 30
0.0
210
0.0
220
0.0
230
1.0
  2
SOLID
 70
     1
 71
     1
 91
        1
 92
        1
 93
        1
 72
     4
 94
        3
 73
     0
 74
     0
 95
       26
 96
       22
 40
0.0
 40
0.0
 40
0.0
 40
0.0
 40
1.0
 40
1.0
 40
1.0
 40
2.0
 40
2.0
 40
2.0
 40
3.0
 40
3.0
 40
3.0
 40
4.0
 40
4.0
 40
4.0
 40
5.0
 40
5.0
 40
5.0
 40
6.0
 40
6.0
 40
6.0
 40
7.0
 40
7.0
 40
7.0
 40
7.0
 10
91.72308347316299
 20
-140.206601256181
 10
91.72308347316299
 20
-140.206601256181
 10
91.72308347316299
 20
-139.1022758983841
 10
91.72308347316299
 20
-139.1022758983841
 10
91.72308347316299
 20
-139.1022758983841
 10
91.39304332567604
 20
-139.1022758983841
 10
91.39304332567604
 20
-139.1022758983841
 10
91.39304332567604
 20
-139.1022758983841
 10
91.39304332567604
 20
-138.9541367925184
 10
91.39304332567604
 20
-138.9541367925184
 10
91.72515053045414
 20
-138.9394951367061
 10
91.77165931950501
 20
-138.7765421202538
 10
91.80128714067816
 20
-138.6623372049177
 10
91.80128714067816
 20
-138.6623372049177
 10
91.94735918925275
 20
-138.6623372049177
 10
91.94735918925275
 20
-138.6623372049177
 10
91.94735918925275
 20
-138.6623372049177
 10
91.94735918925275
 20
-140.206601256181
 10
91.94735918925275
 20
-140.206601256181
 10
91.94735918925275
 20
-140.206601256181
 10
91.72308347316299
 20
-140.206601256181
 10
91.72308347316299
 20
-140.206601256181
 97
        0
 97
        1
330
92
 75
     2
 76
     1
 98
        1
 10
0.0
 20
0.0
450
        0
451
        0
460
0.0
461
0.0
452
        0
462
0.0
453
        0
470

  0
ENDBLK
  5
8F
330
8C
100
AcDbEntity
  8
0
100
AcDbBlockEnd
  0
BLOCK
  5
96
330
94
100
AcDbEntity
  8
0
100
AcDbBlockBegin
  2
Block_4
 70
     0
 10
0.0
 20
0.0
 30
0.0
  3
Block_4
  1

  0
SPLINE
  5
98
330
94
100
AcDbEntity
  8
レイヤー 1
100
AcDbSpline
210
0.0
220
0.0
230
1.0
 70
     9
 71
     3
 72
    17
 73
    13
 74
     0
 42
0.0000000001
 43
0.0000000001
 40
0.0
 40
0.0
 40
0.0
 40
0.0
 40
1.0
 40
1.0
 40
1.0
 40
2.0
 40
2.0
 40
2.0
 40
3.0
 40
3.0
 40
3.0
 40
4.0
 40
4.0
 40
4.0
 40
4.0
 10
75.30479191910782
 20
-150.4152804528476
 30
0.0
 10
75.30479191910782
 20
-150.5589409345825
 30
0.0
 10
75.39143607056186
 20
-150.711558664579
 30
0.0
 10
75.59452444941735
 20
-150.711558664579
 30
0.0
 10
75.79967988556397
 20
-150.711558664579
 30
0.0
 10
75.90131020237883
 20
-150.5844346411733
 30
0.0
 10
75.90131020237883
 20
-150.4152804528476
 30
0.0
 10
75.90131020237883
 20
-150.229245296644
 30
0.0
 10
75.77866480310395
 20
-150.119002241116
 30
0.0
 10
75.60089787606506
 20
-150.119002241116
 30
0.0
 10
75.37868921726644
 20
-150.119002241116
 30
0.0
 10
75.30479191910782
 20
-150.2819552575684
 30
0.0
 10
75.30479191910782
 20
-150.4152804528476
 30
0.0
  0
SPLINE
  5
99
330
94
100
AcDbEntity
  8
レイヤー 1
100
AcDbSpline
210
0.0
220
0.0
230
1.0
 70
     9
 71
     3
 72
    17
 73
    13
 74
     0
 42
0.0000000001
 43
0.0000000001
 40
0.0
 40
0.0
 40
0.0
 40
0.0
 40
1.0
 40
1.0
 40
1.0
 40
2.0
 40
2.0
 40
2.0
 40
3.0
 40
3.0
 40
3.0
 40
4.0
 40
4.0
 40
4.0
 40
4.0
 10
74.64471162413396
 20
-150.4152804528476
 30
0.0
 10
74.64471162413396
 20
-150.580300526591
 30
0.0
 10
74.73979625952686
 20
-150.6650498755282
 30
0.0
 10
74.87518851209718
 20
-150.6650498755282
 30
0.0
 10
74.99800616614634
 20
-150.6650498755282
 30
0.0
 10
75.11651745083892
 20
-150.5930473798864
 30
0.0
 10
75.11651745083892
 20
-150.4152804528476
 30
0.0
 10
75.11651745083892
 20
-150.2375135258087
 30
0.0
 10
74.99800616614634
 20
-150.1655110301669
 30
0.0
 10
74.87518851209718
 20
-150.1655110301669
 30
0.0
 10
74.73979625952686
 20
-150.1655110301669
 30
0.0
 10
74.64471162413396
 20
-150.2523274363952
 30
0.0
 10
74.64471162413396
 20
-150.4152804528476
 30
0.0
  0
SPLINE
  5
9A
330
94
100
AcDbEntity
  8
レイヤー 1
100
AcDbSpline
210
0.0
220
0.0
230
1.0
 70
     9
 71
     3
 72
    29
 73
    25
 74
     0
 42
0.0000000001
 43
0.0000000001
 40
0.0
 40
0.0
 40
0.0
 40
0.0
 40
1.0
 40
1.0
 40
1.0
 40
2.0
 40
2.0
 40
2.0
 40
3.0
 40
3.0
 40
3.0
 40
4.0
 40
4.0
 40
4.0
 40
5.0
 40
5.0
 40
5.0
 40
6.0
 40
6.0
 40
6.0
 40
7.0
 40
7.0
 40
7.0
 40
8.0
 40
8.0
 40
8.0
 40
8.0
 10
76.09595809729547
 20
-150.4152804528476
 30
0.0
 10
76.09595809729547
 20
-150.6819308434059
 30
0.0
 10
75.95832653265972
 20
-150.9358343806688
 30
0.0
 10
75.60933836000391
 20
-150.9358343806688
 30
0.0
 10
75.35336776544986
 20
-150.9358343806688
 30
0.0
 10
75.25811087528269
 20
-150.7938964466765
 30
0.0
 10
75.19678817564525
 20
-150.6881320152793
 30
0.0
 10
75.13753253329895
 20
-150.8128444718454
 30
0.0
 10
75.02332761796292
 20
-150.8889810820694
 30
0.0
 10
74.86261391357601
 20
-150.8889810820694
 30
0.0
 10
74.58752303907882
 20
-150.8889810820694
 30
0.0
 10
74.45213078650851
 20
-150.6901990725705
 30
0.0
 10
74.45213078650851
 20
-150.4152804528476
 30
0.0
 10
74.45213078650851
 20
-150.1317490944115
 30
0.0
 10
74.59596352301767
 20
-149.9412353140772
 30
0.0
 10
74.86261391357601
 20
-149.9412353140772
 30
0.0
 10
75.02332761796292
 20
-149.9412353140772
 30
0.0
 10
75.13753253329895
 20
-150.0197834911409
 30
0.0
 10
75.19678817564525
 20
-150.1444959477069
 30
0.0
 10
75.24760333405268
 20
-150.0556124841875
 30
0.0
 10
75.34286022421984
 20
-149.8967935823175
 30
0.0
 10
75.60503199064736
 20
-149.8967935823175
 30
0.0
 10
75.97951386989402
 20
-149.8967935823175
 30
0.0
 10
76.09595809729547
 20
-150.1761908261712
 30
0.0
 10
76.09595809729547
 20
-150.4152804528476
 30
0.0
  0
HATCH
  5
9B
330
94
100
AcDbEntity
  8
レイヤー 1
 62
   250
420
  2299925
440
 33554687
100
AcDbHatch
 10
0.0
 20
0.0
 30
0.0
210
0.0
220
0.0
230
1.0
  2
SOLID
 70
     1
 71
     1
 91
        3
 92
        1
 93
        1
 72
     4
 94
        3
 73
     0
 74
     0
 95
       17
 96
       13
 40
0.0
 40
0.0
 40
0.0
 40
0.0
 40
1.0
 40
1.0
 40
1.0
 40
2.0
 40
2.0
 40
2.0
 40
3.0
 40
3.0
 40
3.0
 40
4.0
 40
4.0
 40
4.0
 40
4.0
 10
75.30479191910782
 20
-150.4152804528476
 10
75.30479191910782
 20
-150.5589409345825
 10
75.39143607056186
 20
-150.711558664579
 10
75.59452444941735
 20
-150.711558664579
 10
75.79967988556397
 20
-150.711558664579
 10
75.90131020237883
 20
-150.5844346411733
 10
75.90131020237883
 20
-150.4152804528476
 10
75.90131020237883
 20
-150.229245296644
 10
75.77866480310395
 20
-150.119002241116
 10
75.60089787606506
 20
-150.119002241116
 10
75.37868921726644
 20
-150.119002241116
 10
75.30479191910782
 20
-150.2819552575684
 10
75.30479191910782
 20
-150.4152804528476
 97
        0
 97
        1
330
98
 92
        1
 93
        1
 72
     4
 94
        3
 73
     0
 74
     0
 95
       17
 96
       13
 40
0.0
 40
0.0
 40
0.0
 40
0.0
 40
1.0
 40
1.0
 40
1.0
 40
2.0
 40
2.0
 40
2.0
 40
3.0
 40
3.0
 40
3.0
 40
4.0
 40
4.0
 40
4.0
 40
4.0
 10
74.64471162413396
 20
-150.4152804528476
 10
74.64471162413396
 20
-150.580300526591
 10
74.73979625952686
 20
-150.6650498755282
 10
74.87518851209718
 20
-150.6650498755282
 10
74.99800616614634
 20
-150.6650498755282
 10
75.11651745083892
 20
-150.5930473798864
 10
75.11651745083892
 20
-150.4152804528476
 10
75.11651745083892
 20
-150.2375135258087
 10
74.99800616614634
 20
-150.1655110301669
 10
74.87518851209718
 20
-150.1655110301669
 10
74.73979625952686
 20
-150.1655110301669
 10
74.64471162413396
 20
-150.2523274363952
 10
74.64471162413396
 20
-150.4152804528476
 97
        0
 97
        1
330
99
 92
        1
 93
        1
 72
     4
 94
        3
 73
     0
 74
     0
 95
       29
 96
       25
 40
0.0
 40
0.0
 40
0.0
 40
0.0
 40
1.0
 40
1.0
 40
1.0
 40
2.0
 40
2.0
 40
2.0
 40
3.0
 40
3.0
 40
3.0
 40
4.0
 40
4.0
 40
4.0
 40
5.0
 40
5.0
 40
5.0
 40
6.0
 40
6.0
 40
6.0
 40
7.0
 40
7.0
 40
7.0
 40
8.0
 40
8.0
 40
8.0
 40
8.0
 10
76.09595809729547
 20
-150.4152804528476
 10
76.09595809729547
 20
-150.6819308434059
 10
75.95832653265972
 20
-150.9358343806688
 10
75.60933836000391
 20
-150.9358343806688
 10
75.35336776544986
 20
-150.9358343806688
 10
75.25811087528269
 20
-150.7938964466765
 10
75.19678817564525
 20
-150.6881320152793
 10
75.13753253329895
 20
-150.8128444718454
 10
75.02332761796292
 20
-150.8889810820694
 10
74.86261391357601
 20
-150.8889810820694
 10
74.58752303907882
 20
-150.8889810820694
 10
74.45213078650851
 20
-150.6901990725705
 10
74.45213078650851
 20
-150.4152804528476
 10
74.45213078650851
 20
-150.1317490944115
 10
74.59596352301767
 20
-149.9412353140772
 10
74.86261391357601
 20
-149.9412353140772
 10
75.02332761796292
 20
-149.9412353140772
 10
75.13753253329895
 20
-150.0197834911409
 10
75.19678817564525
 20
-150.1444959477069
 10
75.24760333405268
 20
-150.0556124841875
 10
75.34286022421984
 20
-149.8967935823175
 10
75.60503199064736
 20
-149.8967935823175
 10
75.97951386989402
 20
-149.8967935823175
 10
76.09595809729547
 20
-150.1761908261712
 10
76.09595809729547
 20
-150.4152804528476
 97
        0
 97
        1
330
9A
 75
     2
 76
     1
 98
        1
 10
0.0
 20
0.0
450
        0
451
        0
460
0.0
461
0.0
452
        0
462
0.0
453
        0
470

  0
ENDBLK
  5
97
330
94
100
AcDbEntity
  8
0
100
AcDbBlockEnd
  0
BLOCK
  5
9E
330
9C
100
AcDbEntity
  8
0
100
AcDbBlockBegin
  2
Block_5
 70
     0
 10
0.0
 20
0.0
 30
0.0
  3
Block_5
  1

  0
INSERT
  5
A1
330
9C
100
AcDbEntity
  8
レイヤー 1
100
AcDbBlockReference
  2
Block_6
 10
0.0
 20
0.0
 30
0.0
  0
ENDBLK
  5
9F
330
9C
100
AcDbEntity
  8
0
100
AcDbBlockEnd
  0
BLOCK
  5
A2
330
A0
100
AcDbEntity
  8
0
100
AcDbBlockBegin
  2
Block_6
 70
     0
 10
0.0
 20
0.0
 30
0.0
  3
Block_6
  1

  0
SPLINE
  5
A4
330
A0
100
AcDbEntity
  8
レイヤー 1
100
AcDbSpline
210
0.0
220
0.0
230
1.0
 70
     9
 71
     3
 72
    44
 73
    40
 74
     0
 42
0.0000000001
 43
0.0000000001
 40
0.0
 40
0.0
 40
0.0
 40
0.0
 40
1.0
 40
1.0
 40
1.0
 40
2.0
 40
2.0
 40
2.0
 40
3.0
 40
3.0
 40
3.0
 40
4.0
 40
4.0
 40
4.0
 40
5.0
 40
5.0
 40
5.0
 40
6.0
 40
6.0
 40
6.0
 40
7.0
 40
7.0
 40
7.0
 40
8.0
 40
8.0
 40
8.0
 40
9.0
 40
9.0
 40
9.0
 40
10.0
 40
10.0
 40
10.0
 40
11.0
 40
11.0
 40
11.0
 40
12.0
 40
12.0
 40
12.0
 40
13.0
 40
13.0
 40
13.0
 40
13.0
 10
116.9854519021772
 20
-139.6248968834965
 30
0.0
 10
116.7677218675094
 20
-139.7835435305923
 30
0.0
 10
116.6747042894077
 20
-139.8576130835252
 30
0.0
 10
116.6257839335171
 20
-140.0014458200343
 30
0.0
 10
116.6257839335171
 20
-140.0014458200343
 30
0.0
 10
117.4043755131836
 20
-140.0014458200343
 30
0.0
 10
117.4043755131836
 20
-140.0014458200343
 30
0.0
 10
117.4043755131836
 20
-140.0014458200343
 30
0.0
 10
117.4043755131836
 20
-140.206601256181
 30
0.0
 10
117.4043755131836
 20
-140.206601256181
 30
0.0
 10
117.4043755131836
 20
-140.206601256181
 30
0.0
 10
116.3763590203851
 20
-140.206601256181
 30
0.0
 10
116.3763590203851
 20
-140.206601256181
 30
0.0
 10
116.4080538988494
 20
-139.849000344812
 30
0.0
 10
116.4735107130691
 20
-139.7707966772969
 30
0.0
 10
116.85867238832
 20
-139.4724514082742
 30
0.0
 10
117.1146429828741
 20
-139.2736693987753
 30
0.0
 10
117.1800997970938
 20
-139.2059732724902
 30
0.0
 10
117.1800997970938
 20
-139.0685139626287
 30
0.0
 10
117.1800997970938
 20
-138.9500026779361
 30
0.0
 10
117.1080973014521
 20
-138.8187445399481
 30
0.0
 10
116.9113823492444
 20
-138.8187445399481
 30
0.0
 10
116.651277640108
 20
-138.8187445399481
 30
0.0
 10
116.6430094109434
 20
-139.0493936826856
 30
0.0
 10
116.6385307868126
 20
-139.165837910087
 30
0.0
 10
116.6385307868126
 20
-139.165837910087
 30
0.0
 10
116.4142550707228
 20
-139.165837910087
 30
0.0
 10
116.4142550707228
 20
-139.165837910087
 30
0.0
 10
116.4228678094359
 20
-139.0388861414555
 30
0.0
 10
116.4335476054402
 20
-138.9267482834107
 30
0.0
 10
116.5138183302465
 20
-138.8082369987181
 30
0.0
 10
116.623716876226
 20
-138.6475232943312
 30
0.0
 10
116.810096541978
 20
-138.6135891038015
 30
0.0
 10
116.9261962598309
 20
-138.6135891038015
 30
0.0
 10
117.2035264463936
 20
-138.6135891038015
 30
0.0
 10
117.4109211946056
 20
-138.797729457488
 30
0.0
 10
117.4109211946056
 20
-139.0705810199198
 30
0.0
 10
117.4109211946056
 20
-139.2989908505919
 30
0.0
 10
117.2944769672041
 20
-139.3985541101156
 30
0.0
 10
116.9854519021772
 20
-139.6248968834965
 30
0.0
  0
HATCH
  5
A5
330
A0
100
AcDbEntity
  8
レイヤー 1
 62
   250
420
  2299925
440
 33554687
100
AcDbHatch
 10
0.0
 20
0.0
 30
0.0
210
0.0
220
0.0
230
1.0
  2
SOLID
 70
     1
 71
     1
 91
        1
 92
        1
 93
        1
 72
     4
 94
        3
 73
     0
 74
     0
 95
       44
 96
       40
 40
0.0
 40
0.0
 40
0.0
 40
0.0
 40
1.0
 40
1.0
 40
1.0
 40
2.0
 40
2.0
 40
2.0
 40
3.0
 40
3.0
 40
3.0
 40
4.0
 40
4.0
 40
4.0
 40
5.0
 40
5.0
 40
5.0
 40
6.0
 40
6.0
 40
6.0
 40
7.0
 40
7.0
 40
7.0
 40
8.0
 40
8.0
 40
8.0
 40
9.0
 40
9.0
 40
9.0
 40
10.0
 40
10.0
 40
10.0
 40
11.0
 40
11.0
 40
11.0
 40
12.0
 40
12.0
 40
12.0
 40
13.0
 40
13.0
 40
13.0
 40
13.0
 10
116.9854519021772
 20
-139.6248968834965
 10
116.7677218675094
 20
-139.7835435305923
 10
116.6747042894077
 20
-139.8576130835252
 10
116.6257839335171
 20
-140.0014458200343
 10
116.6257839335171
 20
-140.0014458200343
 10
117.4043755131836
 20
-140.0014458200343
 10
117.4043755131836
 20
-140.0014458200343
 10
117.4043755131836
 20
-140.0014458200343
 10
117.4043755131836
 20
-140.206601256181
 10
117.4043755131836
 20
-140.206601256181
 10
117.4043755131836
 20
-140.206601256181
 10
116.3763590203851
 20
-140.206601256181
 10
116.3763590203851
 20
-140.206601256181
 10
116.4080538988494
 20
-139.849000344812
 10
116.4735107130691
 20
-139.7707966772969
 10
116.85867238832
 20
-139.4724514082742
 10
117.1146429828741
 20
-139.2736693987753
 10
117.1800997970938
 20
-139.2059732724902
 10
117.1800997970938
 20
-139.0685139626287
 10
117.1800997970938
 20
-138.9500026779361
 10
117.1080973014521
 20
-138.8187445399481
 10
116.9113823492444
 20
-138.8187445399481
 10
116.651277640108
 20
-138.8187445399481
 10
116.6430094109434
 20
-139.0493936826856
 10
116.6385307868126
 20
-139.165837910087
 10
116.6385307868126
 20
-139.165837910087
 10
116.4142550707228
 20
-139.165837910087
 10
116.4142550707228
 20
-139.165837910087
 10
116.4228678094359
 20
-139.0388861414555
 10
116.4335476054402
 20
-138.9267482834107
 10
116.5138183302465
 20
-138.8082369987181
 10
116.623716876226
 20
-138.6475232943312
 10
116.810096541978
 20
-138.6135891038015
 10
116.9261962598309
 20
-138.6135891038015
 10
117.2035264463936
 20
-138.6135891038015
 10
117.4109211946056
 20
-138.797729457488
 10
117.4109211946056
 20
-139.0705810199198
 10
117.4109211946056
 20
-139.2989908505919
 10
117.2944769672041
 20
-139.3985541101156
 10
116.9854519021772
 20
-139.6248968834965
 97
        0
 97
        1
330
A4
 75
     2
 76
     1
 98
        1
 10
0.0
 20
0.0
450
        0
451
        0
460
0.0
461
0.0
452
        0
462
0.0
453
        0
470

  0
SPLINE
  5
A6
330
A0
100
AcDbEntity
  8
レイヤー 1
100
AcDbSpline
210
0.0
220
0.0
230
1.0
 70
    11
 71
     3
 72
    26
 73
    22
 74
     0
 42
0.0000000001
 43
0.0000000001
 40
0.0
 40
0.0
 40
0.0
 40
0.0
 40
1.0
 40
1.0
 40
1.0
 40
2.0
 40
2.0
 40
2.0
 40
3.0
 40
3.0
 40
3.0
 40
4.0
 40
4.0
 40
4.0
 40
5.0
 40
5.0
 40
5.0
 40
6.0
 40
6.0
 40
6.0
 40
7.0
 40
7.0
 40
7.0
 40
7.0
 10
118.0207030954948
 20
-140.206601256181
 30
0.0
 10
118.0207030954948
 20
-140.206601256181
 30
0.0
 10
118.0207030954948
 20
-139.1022758983841
 30
0.0
 10
118.0207030954948
 20
-139.1022758983841
 30
0.0
 10
118.0207030954948
 20
-139.1022758983841
 30
0.0
 10
117.6906629480079
 20
-139.1022758983841
 30
0.0
 10
117.6906629480079
 20
-139.1022758983841
 30
0.0
 10
117.6906629480079
 20
-139.1022758983841
 30
0.0
 10
117.6906629480079
 20
-138.9541367925184
 30
0.0
 10
117.6906629480079
 20
-138.9541367925184
 30
0.0
 10
118.022770152786
 20
-138.9394951367061
 30
0.0
 10
118.0692789418368
 20
-138.7765421202538
 30
0.0
 10
118.09890676301
 20
-138.6623372049177
 30
0.0
 10
118.09890676301
 20
-138.6623372049177
 30
0.0
 10
118.2449788115846
 20
-138.6623372049177
 30
0.0
 10
118.2449788115846
 20
-138.6623372049177
 30
0.0
 10
118.2449788115846
 20
-138.6623372049177
 30
0.0
 10
118.2449788115846
 20
-140.206601256181
 30
0.0
 10
118.2449788115846
 20
-140.206601256181
 30
0.0
 10
118.2449788115846
 20
-140.206601256181
 30
0.0
 10
118.0207030954948
 20
-140.206601256181
 30
0.0
 10
118.0207030954948
 20
-140.206601256181
 30
0.0
  0
HATCH
  5
A7
330
A0
100
AcDbEntity
  8
レイヤー 1
 62
   250
420
  2299925
440
 33554687
100
AcDbHatch
 10
0.0
 20
0.0
 30
0.0
210
0.0
220
0.0
230
1.0
  2
SOLID
 70
     1
 71
     1
 91
        1
 92
        1
 93
        1
 72
     4
 94
        3
 73
     0
 74
     0
 95
       26
 96
       22
 40
0.0
 40
0.0
 40
0.0
 40
0.0
 40
1.0
 40
1.0
 40
1.0
 40
2.0
 40
2.0
 40
2.0
 40
3.0
 40
3.0
 40
3.0
 40
4.0
 40
4.0
 40
4.0
 40
5.0
 40
5.0
 40
5.0
 40
6.0
 40
6.0
 40
6.0
 40
7.0
 40
7.0
 40
7.0
 40
7.0
 10
118.0207030954948
 20
-140.206601256181
 10
118.0207030954948
 20
-140.206601256181
 10
118.0207030954948
 20
-139.1022758983841
 10
118.0207030954948
 20
-139.1022758983841
 10
118.0207030954948
 20
-139.1022758983841
 10
117.6906629480079
 20
-139.1022758983841
 10
117.6906629480079
 20
-139.1022758983841
 10
117.6906629480079
 20
-139.1022758983841
 10
117.6906629480079
 20
-138.9541367925184
 10
117.6906629480079
 20
-138.9541367925184
 10
118.022770152786
 20
-138.9394951367061
 10
118.0692789418368
 20
-138.7765421202538
 10
118.09890676301
 20
-138.6623372049177
 10
118.09890676301
 20
-138.6623372049177
 10
118.2449788115846
 20
-138.6623372049177
 10
118.2449788115846
 20
-138.6623372049177
 10
118.2449788115846
 20
-138.6623372049177
 10
118.2449788115846
 20
-140.206601256181
 10
118.2449788115846
 20
-140.206601256181
 10
118.2449788115846
 20
-140.206601256181
 10
118.0207030954948
 20
-140.206601256181
 10
118.0207030954948
 20
-140.206601256181
 97
        0
 97
        1
330
A6
 75
     2
 76
     1
 98
        1
 10
0.0
 20
0.0
450
        0
451
        0
460
0.0
461
0.0
452
        0
462
0.0
453
        0
470

  0
ENDBLK
  5
A3
330
A0
100
AcDbEntity
  8
0
100
AcDbBlockEnd
  0
BLOCK
  5
AA
330
A8
100
AcDbEntity
  8
0
100
AcDbBlockBegin
  2
Block_7
 70
     0
 10
0.0
 20
0.0
 30
0.0
  3
Block_7
  1

  0
SPLINE
  5
AC
330
A8
100
AcDbEntity
  8
レイヤー 1
100
AcDbSpline
210
0.0
220
0.0
230
1.0
 70
     9
 71
     3
 72
    62
 73
    58
 74
     0
 42
0.0000000001
 43
0.0000000001
 40
0.0
 40
0.0
 40
0.0
 40
0.0
 40
1.0
 40
1.0
 40
1.0
 40
2.0
 40
2.0
 40
2.0
 40
3.0
 40
3.0
 40
3.0
 40
4.0
 40
4.0
 40
4.0
 40
5.0
 40
5.0
 40
5.0
 40
6.0
 40
6.0
 40
6.0
 40
7.0
 40
7.0
 40
7.0
 40
8.0
 40
8.0
 40
8.0
 40
9.0
 40
9.0
 40
9.0
 40
10.0
 40
10.0
 40
10.0
 40
11.0
 40
11.0
 40
11.0
 40
12.0
 40
12.0
 40
12.0
 40
13.0
 40
13.0
 40
13.0
 40
14.0
 40
14.0
 40
14.0
 40
15.0
 40
15.0
 40
15.0
 40
16.0
 40
16.0
 40
16.0
 40
17.0
 40
17.0
 40
17.0
 40
18.0
 40
18.0
 40
18.0
 40
19.0
 40
19.0
 40
19.0
 40
19.0
 10
103.2650146226212
 20
-140.0224609024944
 30
0.0
 10
103.1695854776798
 20
-140.0224609024944
 30
0.0
 10
102.951855443012
 20
-140.0012735652601
 30
0.0
 10
102.8267984768974
 20
-139.8150661542823
 30
0.0
 10
102.7527289239646
 20
-139.7029282962374
 30
0.0
 10
102.7485948093823
 20
-139.603537291488
 30
0.0
 10
102.7444606948
 20
-139.5189601973251
 30
0.0
 10
102.7444606948
 20
-139.5189601973251
 30
0.0
 10
102.9646022963074
 20
-139.5189601973251
 30
0.0
 10
102.9646022963074
 20
-139.5189601973251
 30
0.0
 10
102.9666693535986
 20
-139.593029750258
 30
0.0
 10
102.9770046400543
 20
-139.8278130075778
 30
0.0
 10
103.2605359984904
 20
-139.8278130075778
 30
0.0
 10
103.3979953083519
 20
-139.8278130075778
 30
0.0
 10
103.5506130383484
 20
-139.7580498240014
 30
0.0
 10
103.5506130383484
 20
-139.5294677385551
 30
0.0
 10
103.5506130383484
 20
-139.4131957659279
 30
0.0
 10
103.5123724784622
 20
-139.3644476648117
 30
0.0
 10
103.4806775999979
 20
-139.3327527863474
 30
0.0
 10
103.406608047065
 20
-139.2586832334145
 30
0.0
 10
103.2901638196636
 20
-139.2461086348933
 30
0.0
 10
103.2353868014481
 20
-139.2461086348933
 30
0.0
 10
103.2160942667307
 20
-139.2461086348933
 30
0.0
 10
103.1802652736841
 20
-139.2481756921845
 30
0.0
 10
103.1527045098021
 20
-139.2523098067668
 30
0.0
 10
103.1527045098021
 20
-139.2523098067668
 30
0.0
 10
103.1527045098021
 20
-139.0578341666244
 30
0.0
 10
103.1527045098021
 20
-139.0578341666244
 30
0.0
 10
103.1909450696884
 20
-139.0640353384979
 30
0.0
 10
103.2329752346084
 20
-139.0662746505633
 30
0.0
 10
103.2395209160304
 20
-139.0662746505633
 30
0.0
 10
103.3049777302501
 20
-139.0662746505633
 30
0.0
 10
103.5037597397491
 20
-139.045087313329
 30
0.0
 10
103.5037597397491
 20
-138.8080647439438
 30
0.0
 10
103.5037597397491
 20
-138.6304700716792
 30
0.0
 10
103.3728461113095
 20
-138.5753485439152
 30
0.0
 10
103.2626030557816
 20
-138.5753485439152
 30
0.0
 10
102.9983642320629
 20
-138.5753485439152
 30
0.0
 10
102.9897514933498
 20
-138.8080647439438
 30
0.0
 10
102.9856173787675
 20
-138.8800672395855
 30
0.0
 10
102.9856173787675
 20
-138.8800672395855
 30
0.0
 10
102.7823567451377
 20
-138.8800672395855
 30
0.0
 10
102.7823567451377
 20
-138.8800672395855
 30
0.0
 10
102.7909694838508
 20
-138.7551825282452
 30
0.0
 10
102.8185302477328
 20
-138.3786335917074
 30
0.0
 10
103.275349909077
 20
-138.3786335917074
 30
0.0
 10
103.4996256251667
 20
-138.3786335917074
 30
0.0
 10
103.7407823091342
 20
-138.5055853603389
 30
0.0
 10
103.7407823091342
 20
-138.8016913172961
 30
0.0
 10
103.7407823091342
 20
-138.9878987282739
 30
0.0
 10
103.6456976737413
 20
-139.0704087651456
 30
0.0
 10
103.5461344142176
 20
-139.131731464783
 30
0.0
 10
103.6074571138551
 20
-139.159292228665
 30
0.0
 10
103.7893581554762
 20
-139.2397352082456
 30
0.0
 10
103.7893581554762
 20
-139.5168931400339
 30
0.0
 10
103.7893581554762
 20
-139.8553737714598
 30
0.0
 10
103.5420002996353
 20
-140.0224609024944
 30
0.0
 10
103.2650146226212
 20
-140.0224609024944
 30
0.0
  0
HATCH
  5
AD
330
A8
100
AcDbEntity
  8
レイヤー 1
 62
   250
420
  2299925
440
 33554687
100
AcDbHatch
 10
0.0
 20
0.0
 30
0.0
210
0.0
220
0.0
230
1.0
  2
SOLID
 70
     1
 71
     1
 91
        1
 92
        1
 93
        1
 72
     4
 94
        3
 73
     0
 74
     0
 95
       62
 96
       58
 40
0.0
 40
0.0
 40
0.0
 40
0.0
 40
1.0
 40
1.0
 40
1.0
 40
2.0
 40
2.0
 40
2.0
 40
3.0
 40
3.0
 40
3.0
 40
4.0
 40
4.0
 40
4.0
 40
5.0
 40
5.0
 40
5.0
 40
6.0
 40
6.0
 40
6.0
 40
7.0
 40
7.0
 40
7.0
 40
8.0
 40
8.0
 40
8.0
 40
9.0
 40
9.0
 40
9.0
 40
10.0
 40
10.0
 40
10.0
 40
11.0
 40
11.0
 40
11.0
 40
12.0
 40
12.0
 40
12.0
 40
13.0
 40
13.0
 40
13.0
 40
14.0
 40
14.0
 40
14.0
 40
15.0
 40
15.0
 40
15.0
 40
16.0
 40
16.0
 40
16.0
 40
17.0
 40
17.0
 40
17.0
 40
18.0
 40
18.0
 40
18.0
 40
19.0
 40
19.0
 40
19.0
 40
19.0
 10
103.2650146226212
 20
-140.0224609024944
 10
103.1695854776798
 20
-140.0224609024944
 10
102.951855443012
 20
-140.0012735652601
 10
102.8267984768974
 20
-139.8150661542823
 10
102.7527289239646
 20
-139.7029282962374
 10
102.7485948093823
 20
-139.603537291488
 10
102.7444606948
 20
-139.5189601973251
 10
102.7444606948
 20
-139.5189601973251
 10
102.9646022963074
 20
-139.5189601973251
 10
102.9646022963074
 20
-139.5189601973251
 10
102.9666693535986
 20
-139.593029750258
 10
102.9770046400543
 20
-139.8278130075778
 10
103.2605359984904
 20
-139.8278130075778
 10
103.3979953083519
 20
-139.8278130075778
 10
103.5506130383484
 20
-139.7580498240014
 10
103.5506130383484
 20
-139.5294677385551
 10
103.5506130383484
 20
-139.4131957659279
 10
103.5123724784622
 20
-139.3644476648117
 10
103.4806775999979
 20
-139.3327527863474
 10
103.406608047065
 20
-139.2586832334145
 10
103.2901638196636
 20
-139.2461086348933
 10
103.2353868014481
 20
-139.2461086348933
 10
103.2160942667307
 20
-139.2461086348933
 10
103.1802652736841
 20
-139.2481756921845
 10
103.1527045098021
 20
-139.2523098067668
 10
103.1527045098021
 20
-139.2523098067668
 10
103.1527045098021
 20
-139.0578341666244
 10
103.1527045098021
 20
-139.0578341666244
 10
103.1909450696884
 20
-139.0640353384979
 10
103.2329752346084
 20
-139.0662746505633
 10
103.2395209160304
 20
-139.0662746505633
 10
103.3049777302501
 20
-139.0662746505633
 10
103.5037597397491
 20
-139.045087313329
 10
103.5037597397491
 20
-138.8080647439438
 10
103.5037597397491
 20
-138.6304700716792
 10
103.3728461113095
 20
-138.5753485439152
 10
103.2626030557816
 20
-138.5753485439152
 10
102.9983642320629
 20
-138.5753485439152
 10
102.9897514933498
 20
-138.8080647439438
 10
102.9856173787675
 20
-138.8800672395855
 10
102.9856173787675
 20
-138.8800672395855
 10
102.7823567451377
 20
-138.8800672395855
 10
102.7823567451377
 20
-138.8800672395855
 10
102.7909694838508
 20
-138.7551825282452
 10
102.8185302477328
 20
-138.3786335917074
 10
103.275349909077
 20
-138.3786335917074
 10
103.4996256251667
 20
-138.3786335917074
 10
103.7407823091342
 20
-138.5055853603389
 10
103.7407823091342
 20
-138.8016913172961
 10
103.7407823091342
 20
-138.9878987282739
 10
103.6456976737413
 20
-139.0704087651456
 10
103.5461344142176
 20
-139.131731464783
 10
103.6074571138551
 20
-139.159292228665
 10
103.7893581554762
 20
-139.2397352082456
 10
103.7893581554762
 20
-139.5168931400339
 10
103.7893581554762
 20
-139.8553737714598
 10
103.5420002996353
 20
-140.0224609024944
 10
103.2650146226212
 20
-140.0224609024944
 97
        0
 97
        1
330
AC
 75
     2
 76
     1
 98
        1
 10
0.0
 20
0.0
450
        0
451
        0
460
0.0
461
0.0
452
        0
462
0.0
453
        0
470

  0
ENDBLK
  5
AB
330
A8
100
AcDbEntity
  8
0
100
AcDbBlockEnd
  0
BLOCK
  5
B0
330
AE
100
AcDbEntity
  8
0
100
AcDbBlockBegin
  2
Block_8
 70
     0
 10
0.0
 20
0.0
 30
0.0
  3
Block_8
  1

  0
INSERT
  5
B3
330
AE
100
AcDbEntity
  8
レイヤー 1
100
AcDbBlockReference
  2
Block_9
 10
0.0
 20
0.0
 30
0.0
  0
ENDBLK
  5
B1
330
AE
100
AcDbEntity
  8
0
100
AcDbBlockEnd
  0
BLOCK
  5
B4
330
B2
100
AcDbEntity
  8
0
100
AcDbBlockBegin
  2
Block_9
 70
     0
 10
0.0
 20
0.0
 30
0.0
  3
Block_9
  1

  0
SPLINE
  5
B6
330
B2
100
AcDbEntity
  8
レイヤー 1
100
AcDbSpline
210
0.0
220
0.0
230
1.0
 70
     9
 71
     3
 72
    17
 73
    13
 74
     0
 42
0.0000000001
 43
0.0000000001
 40
0.0
 40
0.0
 40
0.0
 40
0.0
 40
1.0
 40
1.0
 40
1.0
 40
2.0
 40
2.0
 40
2.0
 40
3.0
 40
3.0
 40
3.0
 40
4.0
 40
4.0
 40
4.0
 40
4.0
 10
102.7244791409855
 20
-156.4362738324187
 30
0.0
 10
102.4621351197838
 20
-156.4362738324187
 30
0.0
 10
102.4240668146717
 20
-156.647802695213
 30
0.0
 10
102.4240668146717
 20
-156.7642469226145
 30
0.0
 10
102.4240668146717
 20
-156.9399467923622
 30
0.0
 10
102.5193237048389
 20
-157.1028998088145
 30
0.0
 10
102.7032918037512
 20
-157.1028998088145
 30
0.0
 10
102.823870145735
 20
-157.1028998088145
 30
0.0
 10
102.9995700154827
 20
-157.0436441664682
 30
0.0
 10
102.9995700154827
 20
-156.758045750741
 30
0.0
 10
102.9995700154827
 20
-156.5337700346513
 30
0.0
 10
102.8598713935558
 20
-156.4362738324187
 30
0.0
 10
102.7244791409855
 20
-156.4362738324187
 30
0.0
  0
SPLINE
  5
B7
330
B2
100
AcDbEntity
  8
レイヤー 1
100
AcDbSpline
210
0.0
220
0.0
230
1.0
 70
     9
 71
     3
 72
    32
 73
    28
 74
     0
 42
0.0000000001
 43
0.0000000001
 40
0.0
 40
0.0
 40
0.0
 40
0.0
 40
1.0
 40
1.0
 40
1.0
 40
2.0
 40
2.0
 40
2.0
 40
3.0
 40
3.0
 40
3.0
 40
4.0
 40
4.0
 40
4.0
 40
5.0
 40
5.0
 40
5.0
 40
6.0
 40
6.0
 40
6.0
 40
7.0
 40
7.0
 40
7.0
 40
8.0
 40
8.0
 40
8.0
 40
9.0
 40
9.0
 40
9.0
 40
9.0
 10
102.7075981731078
 20
-157.2951361368915
 30
0.0
 10
102.1913506146431
 20
-157.2951361368915
 30
0.0
 10
102.1829101307042
 20
-156.7411647828633
 30
0.0
 10
102.1829101307042
 20
-156.5272243532293
 30
0.0
 10
102.1829101307042
 20
-156.2967474652661
 30
0.0
 10
102.2020304106474
 20
-155.6494140235876
 30
0.0
 10
102.7456664782198
 20
-155.6494140235876
 30
0.0
 10
102.9191270359021
 20
-155.6494140235876
 30
0.0
 10
103.1644178344519
 20
-155.7193494619382
 30
0.0
 10
103.2026583943382
 20
-156.0514566667163
 30
0.0
 10
103.2026583943382
 20
-156.0514566667163
 30
0.0
 10
102.9888902194785
 20
-156.0514566667163
 30
0.0
 10
102.9888902194785
 20
-156.0514566667163
 30
0.0
 10
102.9783826782484
 20
-155.9942680816611
 30
0.0
 10
102.9466877997841
 20
-155.8461289757954
 30
0.0
 10
102.7435994209287
 20
-155.8461289757954
 30
0.0
 10
102.4516275785537
 20
-155.8461289757954
 30
0.0
 10
102.4113199613763
 20
-156.1741020659912
 30
0.0
 10
102.3987453628552
 20
-156.3790852473635
 30
0.0
 10
102.4917629409569
 20
-156.3008815798484
 30
0.0
 10
102.5594590672421
 20
-156.2416259375021
 30
0.0
 10
102.7413601088632
 20
-156.2416259375021
 30
0.0
 10
102.9211940931933
 20
-156.2416259375021
 30
0.0
 10
103.2236734767982
 20
-156.3498019357389
 30
0.0
 10
103.2236734767982
 20
-156.7559786934499
 30
0.0
 10
103.2236734767982
 20
-157.0753390449325
 30
0.0
 10
103.0248914672993
 20
-157.2951361368915
 30
0.0
 10
102.7075981731078
 20
-157.2951361368915
 30
0.0
  0
HATCH
  5
B8
330
B2
100
AcDbEntity
  8
レイヤー 1
 62
   250
420
  2299925
440
 33554687
100
AcDbHatch
 10
0.0
 20
0.0
 30
0.0
210
0.0
220
0.0
230
1.0
  2
SOLID
 70
     1
 71
     1
 91
        2
 92
        1
 93
        1
 72
     4
 94
        3
 73
     0
 74
     0
 95
       17
 96
       13
 40
0.0
 40
0.0
 40
0.0
 40
0.0
 40
1.0
 40
1.0
 40
1.0
 40
2.0
 40
2.0
 40
2.0
 40
3.0
 40
3.0
 40
3.0
 40
4.0
 40
4.0
 40
4.0
 40
4.0
 10
102.7244791409855
 20
-156.4362738324187
 10
102.4621351197838
 20
-156.4362738324187
 10
102.4240668146717
 20
-156.647802695213
 10
102.4240668146717
 20
-156.7642469226145
 10
102.4240668146717
 20
-156.9399467923622
 10
102.5193237048389
 20
-157.1028998088145
 10
102.7032918037512
 20
-157.1028998088145
 10
102.823870145735
 20
-157.1028998088145
 10
102.9995700154827
 20
-157.0436441664682
 10
102.9995700154827
 20
-156.758045750741
 10
102.9995700154827
 20
-156.5337700346513
 10
102.8598713935558
 20
-156.4362738324187
 10
102.7244791409855
 20
-156.4362738324187
 97
        0
 97
        1
330
B6
 92
        1
 93
        1
 72
     4
 94
        3
 73
     0
 74
     0
 95
       32
 96
       28
 40
0.0
 40
0.0
 40
0.0
 40
0.0
 40
1.0
 40
1.0
 40
1.0
 40
2.0
 40
2.0
 40
2.0
 40
3.0
 40
3.0
 40
3.0
 40
4.0
 40
4.0
 40
4.0
 40
5.0
 40
5.0
 40
5.0
 40
6.0
 40
6.0
 40
6.0
 40
7.0
 40
7.0
 40
7.0
 40
8.0
 40
8.0
 40
8.0
 40
9.0
 40
9.0
 40
9.0
 40
9.0
 10
102.7075981731078
 20
-157.2951361368915
 10
102.1913506146431
 20
-157.2951361368915
 10
102.1829101307042
 20
-156.7411647828633
 10
102.1829101307042
 20
-156.5272243532293
 10
102.1829101307042
 20
-156.2967474652661
 10
102.2020304106474
 20
-155.6494140235876
 10
102.7456664782198
 20
-155.6494140235876
 10
102.9191270359021
 20
-155.6494140235876
 10
103.1644178344519
 20
-155.7193494619382
 10
103.2026583943382
 20
-156.0514566667163
 10
103.2026583943382
 20
-156.0514566667163
 10
102.9888902194785
 20
-156.0514566667163
 10
102.9888902194785
 20
-156.0514566667163
 10
102.9783826782484
 20
-155.9942680816611
 10
102.9466877997841
 20
-155.8461289757954
 10
102.7435994209287
 20
-155.8461289757954
 10
102.4516275785537
 20
-155.8461289757954
 10
102.4113199613763
 20
-156.1741020659912
 10
102.3987453628552
 20
-156.3790852473635
 10
102.4917629409569
 20
-156.3008815798484
 10
102.5594590672421
 20
-156.2416259375021
 10
102.7413601088632
 20
-156.2416259375021
 10
102.9211940931933
 20
-156.2416259375021
 10
103.2236734767982
 20
-156.3498019357389
 10
103.2236734767982
 20
-156.7559786934499
 10
103.2236734767982
 20
-157.0753390449325
 10
103.0248914672993
 20
-157.2951361368915
 10
102.7075981731078
 20
-157.2951361368915
 97
        0
 97
        1
330
B7
 75
     2
 76
     1
 98
        1
 10
0.0
 20
0.0
450
        0
451
        0
460
0.0
461
0.0
452
        0
462
0.0
453
        0
470

  0
SPLINE
  5
B9
330
B2
100
AcDbEntity
  8
レイヤー 1
100
AcDbSpline
210
0.0
220
0.0
230
1.0
 70
    11
 71
     3
 72
    17
 73
    13
 74
     0
 42
0.0000000001
 43
0.0000000001
 40
0.0
 40
0.0
 40
0.0
 40
0.0
 40
1.0
 40
1.0
 40
1.0
 40
2.0
 40
2.0
 40
2.0
 40
3.0
 40
3.0
 40
3.0
 40
4.0
 40
4.0
 40
4.0
 40
4.0
 10
103.4401977280462
 20
-157.2444932332583
 30
0.0
 10
103.4401977280462
 20
-157.2444932332583
 30
0.0
 10
103.4401977280462
 20
-156.9926567532865
 30
0.0
 10
103.4401977280462
 20
-156.9926567532865
 30
0.0
 10
103.4401977280462
 20
-156.9926567532865
 30
0.0
 10
103.6918619532437
 20
-156.9926567532865
 30
0.0
 10
103.6918619532437
 20
-156.9926567532865
 30
0.0
 10
103.6918619532437
 20
-156.9926567532865
 30
0.0
 10
103.6918619532437
 20
-157.2444932332583
 30
0.0
 10
103.6918619532437
 20
-157.2444932332583
 30
0.0
 10
103.6918619532437
 20
-157.2444932332583
 30
0.0
 10
103.4401977280462
 20
-157.2444932332583
 30
0.0
 10
103.4401977280462
 20
-157.2444932332583
 30
0.0
  0
HATCH
  5
BA
330
B2
100
AcDbEntity
  8
レイヤー 1
 62
   250
420
  2299925
440
 33554687
100
AcDbHatch
 10
0.0
 20
0.0
 30
0.0
210
0.0
220
0.0
230
1.0
  2
SOLID
 70
     1
 71
     1
 91
        1
 92
        1
 93
        1
 72
     4
 94
        3
 73
     0
 74
     0
 95
       17
 96
       13
 40
0.0
 40
0.0
 40
0.0
 40
0.0
 40
1.0
 40
1.0
 40
1.0
 40
2.0
 40
2.0
 40
2.0
 40
3.0
 40
3.0
 40
3.0
 40
4.0
 40
4.0
 40
4.0
 40
4.0
 10
103.4401977280462
 20
-157.2444932332583
 10
103.4401977280462
 20
-157.2444932332583
 10
103.4401977280462
 20
-156.9926567532865
 10
103.4401977280462
 20
-156.9926567532865
 10
103.4401977280462
 20
-156.9926567532865
 10
103.6918619532437
 20
-156.9926567532865
 10
103.6918619532437
 20
-156.9926567532865
 10
103.6918619532437
 20
-156.9926567532865
 10
103.6918619532437
 20
-157.2444932332583
 10
103.6918619532437
 20
-157.2444932332583
 10
103.6918619532437
 20
-157.2444932332583
 10
103.4401977280462
 20
-157.2444932332583
 10
103.4401977280462
 20
-157.2444932332583
 97
        0
 97
        1
330
B9
 75
     2
 76
     1
 98
        1
 10
0.0
 20
0.0
450
        0
451
        0
460
0.0
461
0.0
452
        0
462
0.0
453
        0
470

  0
SPLINE
  5
BB
330
B2
100
AcDbEntity
  8
レイヤー 1
100
AcDbSpline
210
0.0
220
0.0
230
1.0
 70
     9
 71
     3
 72
    53
 73
    49
 74
     0
 42
0.0000000001
 43
0.0000000001
 40
0.0
 40
0.0
 40
0.0
 40
0.0
 40
1.0
 40
1.0
 40
1.0
 40
2.0
 40
2.0
 40
2.0
 40
3.0
 40
3.0
 40
3.0
 40
4.0
 40
4.0
 40
4.0
 40
5.0
 40
5.0
 40
5.0
 40
6.0
 40
6.0
 40
6.0
 40
7.0
 40
7.0
 40
7.0
 40
8.0
 40
8.0
 40
8.0
 40
9.0
 40
9.0
 40
9.0
 40
10.0
 40
10.0
 40
10.0
 40
11.0
 40
11.0
 40
11.0
 40
12.0
 40
12.0
 40
12.0
 40
13.0
 40
13.0
 40
13.0
 40
14.0
 40
14.0
 40
14.0
 40
15.0
 40
15.0
 40
15.0
 40
16.0
 40
16.0
 40
16.0
 40
16.0
 10
104.409303088047
 20
-157.2951361368915
 30
0.0
 10
104.3310994205318
 20
-157.2951361368915
 30
0.0
 10
104.2294691037169
 20
-157.2782551690138
 30
0.0
 10
104.1280110416763
 20
-157.2148654120852
 30
0.0
 10
103.954550483994
 20
-157.1049668661057
 30
0.0
 10
103.9333631467597
 20
-156.9737087281177
 30
0.0
 10
103.9142428668166
 20
-156.8658772394293
 30
0.0
 10
103.9142428668166
 20
-156.8658772394293
 30
0.0
 10
104.1364515256152
 20
-156.8658772394293
 30
0.0
 10
104.1364515256152
 20
-156.8658772394293
 30
0.0
 10
104.1914007986049
 20
-157.0646592489282
 30
0.0
 10
104.3183525672364
 20
-157.0942870701014
 30
0.0
 10
104.4115424001124
 20
-157.0942870701014
 30
0.0
 10
104.551068767265
 20
-157.0942870701014
 30
0.0
 10
104.703341987713
 20
-156.9947238105777
 30
0.0
 10
104.703341987713
 20
-156.7621798653233
 30
0.0
 10
104.703341987713
 20
-156.5062092707693
 30
0.0
 10
104.523508003383
 20
-156.4362738324187
 30
0.0
 10
104.4029296613993
 20
-156.4362738324187
 30
0.0
 10
104.3712347829349
 20
-156.4362738324187
 30
0.0
 10
104.2294691037169
 20
-156.4362738324187
 30
0.0
 10
104.1407578949717
 20
-156.5654649131156
 30
0.0
 10
104.1407578949717
 20
-156.5654649131156
 30
0.0
 10
103.965058025224
 20
-156.5465168879467
 30
0.0
 10
103.965058025224
 20
-156.5465168879467
 30
0.0
 10
103.965058025224
 20
-156.5465168879467
 30
0.0
 10
104.0856363672078
 20
-155.7000569272208
 30
0.0
 10
104.0856363672078
 20
-155.7000569272208
 30
0.0
 10
104.0856363672078
 20
-155.7000569272208
 30
0.0
 10
104.8642279468742
 20
-155.7000569272208
 30
0.0
 10
104.8642279468742
 20
-155.7000569272208
 30
0.0
 10
104.8642279468742
 20
-155.7000569272208
 30
0.0
 10
104.8642279468742
 20
-155.8947048221374
 30
0.0
 10
104.8642279468742
 20
-155.8947048221374
 30
0.0
 10
104.8642279468742
 20
-155.8947048221374
 30
0.0
 10
104.2485893836601
 20
-155.8947048221374
 30
0.0
 10
104.2485893836601
 20
-155.8947048221374
 30
0.0
 10
104.2485893836601
 20
-155.8947048221374
 30
0.0
 10
104.182960314666
 20
-156.3177625477261
 30
0.0
 10
104.182960314666
 20
-156.3177625477261
 30
0.0
 10
104.2442830143035
 20
-156.2840006119706
 30
0.0
 10
104.3267930511752
 20
-156.2436929947932
 30
0.0
 10
104.4453043358678
 20
-156.2436929947932
 30
0.0
 10
104.6992078731307
 20
-156.2436929947932
 30
0.0
 10
104.9360581877416
 20
-156.4300726605452
 30
0.0
 10
104.9360581877416
 20
-156.7432318401544
 30
0.0
 10
104.9360581877416
 20
-157.060525134346
 30
0.0
 10
104.7117824716519
 20
-157.2951361368915
 30
0.0
 10
104.409303088047
 20
-157.2951361368915
 30
0.0
  0
HATCH
  5
BC
330
B2
100
AcDbEntity
  8
レイヤー 1
 62
   250
420
  2299925
440
 33554687
100
AcDbHatch
 10
0.0
 20
0.0
 30
0.0
210
0.0
220
0.0
230
1.0
  2
SOLID
 70
     1
 71
     1
 91
        1
 92
        1
 93
        1
 72
     4
 94
        3
 73
     0
 74
     0
 95
       53
 96
       49
 40
0.0
 40
0.0
 40
0.0
 40
0.0
 40
1.0
 40
1.0
 40
1.0
 40
2.0
 40
2.0
 40
2.0
 40
3.0
 40
3.0
 40
3.0
 40
4.0
 40
4.0
 40
4.0
 40
5.0
 40
5.0
 40
5.0
 40
6.0
 40
6.0
 40
6.0
 40
7.0
 40
7.0
 40
7.0
 40
8.0
 40
8.0
 40
8.0
 40
9.0
 40
9.0
 40
9.0
 40
10.0
 40
10.0
 40
10.0
 40
11.0
 40
11.0
 40
11.0
 40
12.0
 40
12.0
 40
12.0
 40
13.0
 40
13.0
 40
13.0
 40
14.0
 40
14.0
 40
14.0
 40
15.0
 40
15.0
 40
15.0
 40
16.0
 40
16.0
 40
16.0
 40
16.0
 10
104.409303088047
 20
-157.2951361368915
 10
104.3310994205318
 20
-157.2951361368915
 10
104.2294691037169
 20
-157.2782551690138
 10
104.1280110416763
 20
-157.2148654120852
 10
103.954550483994
 20
-157.1049668661057
 10
103.9333631467597
 20
-156.9737087281177
 10
103.9142428668166
 20
-156.8658772394293
 10
103.9142428668166
 20
-156.8658772394293
 10
104.1364515256152
 20
-156.8658772394293
 10
104.1364515256152
 20
-156.8658772394293
 10
104.1914007986049
 20
-157.0646592489282
 10
104.3183525672364
 20
-157.0942870701014
 10
104.4115424001124
 20
-157.0942870701014
 10
104.551068767265
 20
-157.0942870701014
 10
104.703341987713
 20
-156.9947238105777
 10
104.703341987713
 20
-156.7621798653233
 10
104.703341987713
 20
-156.5062092707693
 10
104.523508003383
 20
-156.4362738324187
 10
104.4029296613993
 20
-156.4362738324187
 10
104.3712347829349
 20
-156.4362738324187
 10
104.2294691037169
 20
-156.4362738324187
 10
104.1407578949717
 20
-156.5654649131156
 10
104.1407578949717
 20
-156.5654649131156
 10
103.965058025224
 20
-156.5465168879467
 10
103.965058025224
 20
-156.5465168879467
 10
103.965058025224
 20
-156.5465168879467
 10
104.0856363672078
 20
-155.7000569272208
 10
104.0856363672078
 20
-155.7000569272208
 10
104.0856363672078
 20
-155.7000569272208
 10
104.8642279468742
 20
-155.7000569272208
 10
104.8642279468742
 20
-155.7000569272208
 10
104.8642279468742
 20
-155.7000569272208
 10
104.8642279468742
 20
-155.8947048221374
 10
104.8642279468742
 20
-155.8947048221374
 10
104.8642279468742
 20
-155.8947048221374
 10
104.2485893836601
 20
-155.8947048221374
 10
104.2485893836601
 20
-155.8947048221374
 10
104.2485893836601
 20
-155.8947048221374
 10
104.182960314666
 20
-156.3177625477261
 10
104.182960314666
 20
-156.3177625477261
 10
104.2442830143035
 20
-156.2840006119706
 10
104.3267930511752
 20
-156.2436929947932
 10
104.4453043358678
 20
-156.2436929947932
 10
104.6992078731307
 20
-156.2436929947932
 10
104.9360581877416
 20
-156.4300726605452
 10
104.9360581877416
 20
-156.7432318401544
 10
104.9360581877416
 20
-157.060525134346
 10
104.7117824716519
 20
-157.2951361368915
 10
104.409303088047
 20
-157.2951361368915
 97
        0
 97
        1
330
BB
 75
     2
 76
     1
 98
        1
 10
0.0
 20
0.0
450
        0
451
        0
460
0.0
461
0.0
452
        0
462
0.0
453
        0
470

  0
ENDBLK
  5
B5
330
B2
100
AcDbEntity
  8
0
100
AcDbBlockEnd
  0
BLOCK
  5
138
330
136
100
AcDbEntity
  8
0
100
AcDbBlockBegin
  2
Block_10
 70
     0
 10
0.0
 20
0.0
 30
0.0
  3
Block_10
  1

  0
INSERT
  5
13B
330
136
100
AcDbEntity
  8
レイヤー 1
100
AcDbBlockReference
  2
Block_11
 10
0.0
 20
0.0
 30
0.0
  0
INSERT
  5
142
330
136
100
AcDbEntity
  8
レイヤー 1
100
AcDbBlockReference
  2
Block_12
 10
0.0
 20
0.0
 30
0.0
  0
ENDBLK
  5
139
330
136
100
AcDbEntity
  8
0
100
AcDbBlockEnd
  0
BLOCK
  5
13C
330
13A
100
AcDbEntity
  8
0
100
AcDbBlockBegin
  2
Block_11
 70
     0
 10
0.0
 20
0.0
 30
0.0
  3
Block_11
  1

  0
LINE
  5
13E
330
13A
100
AcDbEntity
  8
レイヤー 1
 62
    18
420
        0
370
     9
100
AcDbLine
 10
120.0048514331926
 20
-147.4858832390748
 30
0.0
 11
120.8161697458274
 21
-148.0705065722618
 31
0.0
  0
LINE
  5
13F
330
13A
100
AcDbEntity
  8
レイヤー 1
 62
    18
420
        0
370
     9
100
AcDbLine
 10
120.0048514331926
 20
-147.4858832390748
 30
0.0
 11
122.5824927563204
 21
-150.6429621271744
 31
0.0
  0
LINE
  5
140
330
13A
100
AcDbEntity
  8
レイヤー 1
 62
    18
420
        0
370
     9
100
AcDbLine
 10
120.0048514331926
 20
-147.4858832390748
 30
0.0
 11
120.4151672560579
 21
-148.3979901832909
 31
0.0
  0
ENDBLK
  5
13D
330
13A
100
AcDbEntity
  8
0
100
AcDbBlockEnd
  0
BLOCK
  5
143
330
141
100
AcDbEntity
  8
0
100
AcDbBlockBegin
  2
Block_12
 70
     0
 10
0.0
 20
0.0
 30
0.0
  3
Block_12
  1

  0
INSERT
  5
146
330
141
100
AcDbEntity
  8
レイヤー 1
100
AcDbBlockReference
  2
Block_13
 10
0.0
 20
0.0
 30
0.0
  0
ENDBLK
  5
144
330
141
100
AcDbEntity
  8
0
100
AcDbBlockEnd
  0
BLOCK
  5
147
330
145
100
AcDbEntity
  8
0
100
AcDbBlockBegin
  2
Block_13
 70
     0
 10
0.0
 20
0.0
 30
0.0
  3
Block_13
  1

  0
SPLINE
  5
149
330
145
100
AcDbEntity
  8
レイヤー 1
100
AcDbSpline
210
0.0
220
0.0
230
1.0
 70
     9
 71
     3
 72
    17
 73
    13
 74
     0
 42
0.0000000001
 43
0.0000000001
 40
0.0
 40
0.0
 40
0.0
 40
0.0
 40
1.0
 40
1.0
 40
1.0
 40
2.0
 40
2.0
 40
2.0
 40
3.0
 40
3.0
 40
3.0
 40
4.0
 40
4.0
 40
4.0
 40
4.0
 10
124.2487467137295
 20
-151.0898301488595
 30
0.0
 10
124.2318657458517
 20
-151.1194579700326
 30
0.0
 10
124.1812228422186
 20
-151.2124755481344
 30
0.0
 10
124.1705430462143
 20
-151.2314235733032
 30
0.0
 10
124.3610568265486
 20
-151.2906792156495
 30
0.0
 10
124.3820719090086
 20
-151.2972248970715
 30
0.0
 10
124.4540744046503
 20
-151.324441151405
 30
0.0
 10
124.5088514228658
 20
-151.2379692547252
 30
0.0
 10
124.5322780721655
 20
-151.1638997017923
 30
0.0
 10
124.5470919827521
 20
-151.0898301488595
 30
0.0
 10
124.5470919827521
 20
-151.0898301488595
 30
0.0
 10
124.2487467137295
 20
-151.0898301488595
 30
0.0
 10
124.2487467137295
 20
-151.0898301488595
 30
0.0
  0
SPLINE
  5
14A
330
145
100
AcDbEntity
  8
レイヤー 1
100
AcDbSpline
210
0.0
220
0.0
230
1.0
 70
    11
 71
     3
 72
    20
 73
    16
 74
     0
 42
0.0000000001
 43
0.0000000001
 40
0.0
 40
0.0
 40
0.0
 40
0.0
 40
1.0
 40
1.0
 40
1.0
 40
2.0
 40
2.0
 40
2.0
 40
3.0
 40
3.0
 40
3.0
 40
4.0
 40
4.0
 40
4.0
 40
5.0
 40
5.0
 40
5.0
 40
5.0
 10
124.1853569568009
 20
-150.2392360735513
 30
0.0
 10
124.1853569568009
 20
-150.2392360735513
 30
0.0
 10
124.1536620783366
 20
-150.2392360735513
 30
0.0
 10
124.1536620783366
 20
-150.2392360735513
 30
0.0
 10
124.2001708673874
 20
-150.338799333075
 30
0.0
 10
124.2318657458517
 20
-150.4190700578813
 30
0.0
 10
124.2656276816072
 20
-150.546194081287
 30
0.0
 10
124.2656276816072
 20
-150.546194081287
 30
0.0
 10
124.4730224298192
 20
-150.546194081287
 30
0.0
 10
124.4730224298192
 20
-150.546194081287
 30
0.0
 10
124.5047173082835
 20
-150.4531765031853
 30
0.0
 10
124.5281439575832
 20
-150.3684271542481
 30
0.0
 10
124.5512260973344
 20
-150.2392360735513
 30
0.0
 10
124.5512260973344
 20
-150.2392360735513
 30
0.0
 10
124.1853569568009
 20
-150.2392360735513
 30
0.0
 10
124.1853569568009
 20
-150.2392360735513
 30
0.0
  0
SPLINE
  5
14B
330
145
100
AcDbEntity
  8
レイヤー 1
100
AcDbSpline
210
0.0
220
0.0
230
1.0
 70
     9
 71
     3
 72
   242
 73
   238
 74
     0
 42
0.0000000001
 43
0.0000000001
 40
0.0
 40
0.0
 40
0.0
 40
0.0
 40
1.0
 40
1.0
 40
1.0
 40
2.0
 40
2.0
 40
2.0
 40
3.0
 40
3.0
 40
3.0
 40
4.0
 40
4.0
 40
4.0
 40
5.0
 40
5.0
 40
5.0
 40
6.0
 40
6.0
 40
6.0
 40
7.0
 40
7.0
 40
7.0
 40
8.0
 40
8.0
 40
8.0
 40
9.0
 40
9.0
 40
9.0
 40
10.0
 40
10.0
 40
10.0
 40
11.0
 40
11.0
 40
11.0
 40
12.0
 40
12.0
 40
12.0
 40
13.0
 40
13.0
 40
13.0
 40
14.0
 40
14.0
 40
14.0
 40
15.0
 40
15.0
 40
15.0
 40
16.0
 40
16.0
 40
16.0
 40
17.0
 40
17.0
 40
17.0
 40
18.0
 40
18.0
 40
18.0
 40
19.0
 40
19.0
 40
19.0
 40
20.0
 40
20.0
 40
20.0
 40
21.0
 40
21.0
 40
21.0
 40
22.0
 40
22.0
 40
22.0
 40
23.0
 40
23.0
 40
23.0
 40
24.0
 40
24.0
 40
24.0
 40
25.0
 40
25.0
 40
25.0
 40
26.0
 40
26.0
 40
26.0
 40
27.0
 40
27.0
 40
27.0
 40
28.0
 40
28.0
 40
28.0
 40
29.0
 40
29.0
 40
29.0
 40
30.0
 40
30.0
 40
30.0
 40
31.0
 40
31.0
 40
31.0
 40
32.0
 40
32.0
 40
32.0
 40
33.0
 40
33.0
 40
33.0
 40
34.0
 40
34.0
 40
34.0
 40
35.0
 40
35.0
 40
35.0
 40
36.0
 40
36.0
 40
36.0
 40
37.0
 40
37.0
 40
37.0
 40
38.0
 40
38.0
 40
38.0
 40
39.0
 40
39.0
 40
39.0
 40
40.0
 40
40.0
 40
40.0
 40
41.0
 40
41.0
 40
41.0
 40
42.0
 40
42.0
 40
42.0
 40
43.0
 40
43.0
 40
43.0
 40
44.0
 40
44.0
 40
44.0
 40
45.0
 40
45.0
 40
45.0
 40
46.0
 40
46.0
 40
46.0
 40
47.0
 40
47.0
 40
47.0
 40
48.0
 40
48.0
 40
48.0
 40
49.0
 40
49.0
 40
49.0
 40
50.0
 40
50.0
 40
50.0
 40
51.0
 40
51.0
 40
51.0
 40
52.0
 40
52.0
 40
52.0
 40
53.0
 40
53.0
 40
53.0
 40
54.0
 40
54.0
 40
54.0
 40
55.0
 40
55.0
 40
55.0
 40
56.0
 40
56.0
 40
56.0
 40
57.0
 40
57.0
 40
57.0
 40
58.0
 40
58.0
 40
58.0
 40
59.0
 40
59.0
 40
59.0
 40
60.0
 40
60.0
 40
60.0
 40
61.0
 40
61.0
 40
61.0
 40
62.0
 40
62.0
 40
62.0
 40
63.0
 40
63.0
 40
63.0
 40
64.0
 40
64.0
 40
64.0
 40
65.0
 40
65.0
 40
65.0
 40
66.0
 40
66.0
 40
66.0
 40
67.0
 40
67.0
 40
67.0
 40
68.0
 40
68.0
 40
68.0
 40
69.0
 40
69.0
 40
69.0
 40
70.0
 40
70.0
 40
70.0
 40
71.0
 40
71.0
 40
71.0
 40
72.0
 40
72.0
 40
72.0
 40
73.0
 40
73.0
 40
73.0
 40
74.0
 40
74.0
 40
74.0
 40
75.0
 40
75.0
 40
75.0
 40
76.0
 40
76.0
 40
76.0
 40
77.0
 40
77.0
 40
77.0
 40
78.0
 40
78.0
 40
78.0
 40
79.0
 40
79.0
 40
79.0
 40
79.0
 10
124.8137423733104
 20
-150.7046684736085
 30
0.0
 10
124.8137423733104
 20
-150.7046684736085
 30
0.0
 10
124.5598388360475
 20
-150.7046684736085
 30
0.0
 10
124.5598388360475
 20
-150.7046684736085
 30
0.0
 10
124.5598388360475
 20
-150.7046684736085
 30
0.0
 10
124.2825086494849
 20
-150.7046684736085
 30
0.0
 10
124.2825086494849
 20
-150.7046684736085
 30
0.0
 10
124.2825086494849
 20
-150.7046684736085
 30
0.0
 10
124.4096326728906
 20
-150.7470431480771
 30
0.0
 10
124.4096326728906
 20
-150.7470431480771
 30
0.0
 10
124.4203124688949
 20
-150.7511772626594
 30
0.0
 10
124.4327148126418
 20
-150.7577229440814
 30
0.0
 10
124.4327148126418
 20
-150.7704697973768
 30
0.0
 10
124.4327148126418
 20
-150.7914848798368
 30
0.0
 10
124.4010199341775
 20
-150.7976860517103
 30
0.0
 10
124.3800048517175
 20
-150.8021646758411
 30
0.0
 10
124.3693250557132
 20
-150.8252468155923
 30
0.0
 10
124.3396972345401
 20
-150.8910481393606
 30
0.0
 10
124.3207492093712
 20
-150.9354898711203
 30
0.0
 10
124.3207492093712
 20
-150.9354898711203
 30
0.0
 10
124.5915337145118
 20
-150.9354898711203
 30
0.0
 10
124.5915337145118
 20
-150.9354898711203
 30
0.0
 10
124.6824842353224
 20
-150.9354898711203
 30
0.0
 10
124.8791991875302
 20
-150.9310112469894
 30
0.0
 10
125.020792611974
 20
-150.9227430178248
 30
0.0
 10
125.020792611974
 20
-150.9227430178248
 30
0.0
 10
125.020792611974
 20
-151.1005099448637
 30
0.0
 10
125.020792611974
 20
-151.1005099448637
 30
0.0
 10
124.9384548298765
 20
-151.0960313207329
 30
0.0
 10
124.9174397474165
 20
-151.0960313207329
 30
0.0
 10
124.7376057630864
 20
-151.0918972061506
 30
0.0
 10
124.7059108846221
 20
-151.2462374838898
 30
0.0
 10
124.6614691528624
 20
-151.3268527182447
 30
0.0
 10
124.6170274211027
 20
-151.3964436470467
 30
0.0
 10
124.7376057630864
 20
-151.455699289393
 30
0.0
 10
124.8433701944836
 20
-151.5235676704524
 30
0.0
 10
124.9470675685896
 20
-151.6059054525499
 30
0.0
 10
124.9470675685896
 20
-151.6059054525499
 30
0.0
 10
124.828556283897
 20
-151.7729925835845
 30
0.0
 10
124.828556283897
 20
-151.7729925835845
 30
0.0
 10
124.8051296345973
 20
-151.7540445584157
 30
0.0
 10
124.7923827813019
 20
-151.7454318197025
 30
0.0
 10
124.6804171780313
 20
-151.6610269803139
 30
0.0
 10
124.6318413316892
 20
-151.6227864204276
 30
0.0
 10
124.5725856893429
 20
-151.586957427381
 30
0.0
 10
124.4919704549881
 20
-151.5425156956213
 30
0.0
 10
124.2804415921938
 20
-151.7285508518248
 30
0.0
 10
124.0754584108214
 20
-151.7519775011245
 30
0.0
 10
123.7853813709633
 20
-151.7816053222976
 30
0.0
 10
123.7853813709633
 20
-151.7816053222976
 30
0.0
 10
123.6816839968573
 20
-151.6017713379676
 30
0.0
 10
123.6816839968573
 20
-151.6017713379676
 30
0.0
 10
123.9993218005974
 20
-151.5976372233853
 30
0.0
 10
124.1746771607966
 20
-151.5721435167945
 30
0.0
 10
124.3269503812446
 20
-151.462244970815
 30
0.0
 10
124.208439096552
 20
-151.4112575576333
 30
0.0
 10
124.1199001425811
 20
-151.3836967937513
 30
0.0
 10
124.083726639986
 20
-151.3712944500044
 30
0.0
 10
124.0647786148171
 20
-151.3985107043378
 30
0.0
 10
124.0499647042305
 20
-151.4178032390552
 30
0.0
 10
124.0224039403486
 20
-151.4515651748107
 30
0.0
 10
124.0224039403486
 20
-151.4515651748107
 30
0.0
 10
123.8256889881408
 20
-151.3688828831647
 30
0.0
 10
123.8256889881408
 20
-151.3688828831647
 30
0.0
 10
123.9083712797868
 20
-151.2886121583584
 30
0.0
 10
123.9696939794242
 20
-151.1935275229655
 30
0.0
 10
124.0265380549308
 20
-151.0918972061506
 30
0.0
 10
123.8363687841451
 20
-151.0960313207329
 30
0.0
 10
123.8150091921365
 20
-151.0960313207329
 30
0.0
 10
123.732671410039
 20
-151.1005099448637
 30
0.0
 10
123.732671410039
 20
-151.1005099448637
 30
0.0
 10
123.732671410039
 20
-150.9227430178248
 30
0.0
 10
123.732671410039
 20
-150.9227430178248
 30
0.0
 10
123.8721977771916
 20
-150.9289441896983
 30
0.0
 10
124.0816595826949
 20
-150.9330783042806
 30
0.0
 10
124.1071532892857
 20
-150.9330783042806
 30
0.0
 10
124.1240342571634
 20
-150.8993163685252
 30
0.0
 10
124.1791557849274
 20
-150.7787380265414
 30
0.0
 10
124.1981038100963
 20
-150.7046684736085
 30
0.0
 10
124.1791557849274
 20
-150.7046684736085
 30
0.0
 10
124.0013888578885
 20
-150.7112141550305
 30
0.0
 10
123.8067409629719
 20
-150.7239610083259
 30
0.0
 10
123.8067409629719
 20
-150.7239610083259
 30
0.0
 10
123.8067409629719
 20
-150.8569416940566
 30
0.0
 10
123.8067409629719
 20
-150.8569416940566
 30
0.0
 10
123.7581651166299
 20
-150.8824354006474
 30
0.0
 10
123.6989094742836
 20
-150.9141302791117
 30
0.0
 10
123.5655842790044
 20
-150.97993160288
 30
0.0
 10
123.5655842790044
 20
-150.97993160288
 30
0.0
 10
123.5655842790044
 20
-151.125659141906
 30
0.0
 10
123.5655842790044
 20
-151.125659141906
 30
0.0
 10
123.5655842790044
 20
-151.125659141906
 30
0.0
 10
123.5655842790044
 20
-151.5931585992545
 30
0.0
 10
123.5655842790044
 20
-151.5931585992545
 30
0.0
 10
123.5655842790044
 20
-151.7202826226602
 30
0.0
 10
123.5294107764093
 20
-151.7795382650065
 30
0.0
 10
123.2458794179732
 20
-151.7709255262934
 30
0.0
 10
123.2458794179732
 20
-151.7709255262934
 30
0.0
 10
123.1425265534157
 20
-151.5635307780813
 30
0.0
 10
123.1425265534157
 20
-151.5635307780813
 30
0.0
 10
123.2059163103443
 20
-151.5762776313767
 30
0.0
 10
123.2544921566864
 20
-151.5807562555076
 30
0.0
 10
123.2947997738638
 20
-151.5807562555076
 30
0.0
 10
123.3709363840878
 20
-151.5807562555076
 30
0.0
 10
123.3812716705436
 20
-151.5573296062079
 30
0.0
 10
123.3812716705436
 20
-151.4918727919881
 30
0.0
 10
123.3812716705436
 20
-151.4918727919881
 30
0.0
 10
123.3812716705436
 20
-151.0622693849775
 30
0.0
 10
123.3812716705436
 20
-151.0622693849775
 30
0.0
 10
123.2841199778595
 20
-151.1025770021549
 30
0.0
 10
123.2672390099818
 20
-151.1087781740283
 30
0.0
 10
123.2207302209309
 20
-151.1277261991972
 30
0.0
 10
123.2165961063486
 20
-151.1490857912058
 30
0.0
 10
123.2121174822178
 20
-151.1787136123789
 30
0.0
 10
123.1931694570489
 20
-151.1787136123789
 30
0.0
 10
123.1845567183358
 20
-151.1787136123789
 30
0.0
 10
123.17422143188
 20
-151.1742349882481
 30
0.0
 10
123.1676757504581
 20
-151.1511528484969
 30
0.0
 10
123.1676757504581
 20
-151.1511528484969
 30
0.0
 10
123.1149657895338
 20
-150.9585720108715
 30
0.0
 10
123.1149657895338
 20
-150.9585720108715
 30
0.0
 10
123.2606933285598
 20
-150.9120632218206
 30
0.0
 10
123.3264946523281
 20
-150.8889810820694
 30
0.0
 10
123.3812716705436
 20
-150.8676214900608
 30
0.0
 10
123.3812716705436
 20
-150.8676214900608
 30
0.0
 10
123.3812716705436
 20
-150.4552435604765
 30
0.0
 10
123.3812716705436
 20
-150.4552435604765
 30
0.0
 10
123.3812716705436
 20
-150.4552435604765
 30
0.0
 10
123.3285617096192
 20
-150.4552435604765
 30
0.0
 10
123.3285617096192
 20
-150.4552435604765
 30
0.0
 10
123.3285617096192
 20
-150.4552435604765
 30
0.0
 10
123.2503580421041
 20
-150.4552435604765
 30
0.0
 10
123.2503580421041
 20
-150.4552435604765
 30
0.0
 10
123.1824896610446
 20
-150.4552435604765
 30
0.0
 10
123.17422143188
 20
-150.4552435604765
 30
0.0
 10
123.1380479292849
 20
-150.4614447323499
 30
0.0
 10
123.1380479292849
 20
-150.4614447323499
 30
0.0
 10
123.1380479292849
 20
-150.2667968374333
 30
0.0
 10
123.1380479292849
 20
-150.2667968374333
 30
0.0
 10
123.1656086931669
 20
-150.2733425188553
 30
0.0
 10
123.17422143188
 20
-150.2733425188553
 30
0.0
 10
123.2438123606821
 20
-150.2733425188553
 30
0.0
 10
123.2438123606821
 20
-150.2733425188553
 30
0.0
 10
123.3771375559613
 20
-150.2733425188553
 30
0.0
 10
123.3771375559613
 20
-150.2733425188553
 30
0.0
 10
123.3771375559613
 20
-150.2034070805047
 30
0.0
 10
123.3771375559613
 20
-150.1207247888587
 30
0.0
 10
123.3750704986701
 20
-150.1165906742764
 30
0.0
 10
123.3668022695055
 20
-149.9367566899463
 30
0.0
 10
123.3668022695055
 20
-149.9178086647775
 30
0.0
 10
123.3643907026658
 20
-149.8712998757266
 30
0.0
 10
123.3643907026658
 20
-149.8712998757266
 30
0.0
 10
123.580398189591
 20
-149.8795681048912
 30
0.0
 10
123.580398189591
 20
-149.8795681048912
 30
0.0
 10
123.5907334760467
 20
-149.8795681048912
 30
0.0
 10
123.6120930680553
 20
-149.8819796717309
 30
0.0
 10
123.6120930680553
 20
-149.8988606396086
 30
0.0
 10
123.6120930680553
 20
-149.9178086647775
 30
0.0
 10
123.5972791574687
 20
-149.9284884607817
 30
0.0
 10
123.5717854508779
 20
-149.9474364859506
 30
0.0
 10
123.5717854508779
 20
-149.9980793895838
 30
0.0
 10
123.5655842790044
 20
-150.2268337298044
 30
0.0
 10
123.5676513362956
 20
-150.2733425188553
 30
0.0
 10
123.6964979074439
 20
-150.2733425188553
 30
0.0
 10
123.7092447607393
 20
-150.2733425188553
 30
0.0
 10
123.8067409629719
 20
-150.2647297801421
 30
0.0
 10
123.8067409629719
 20
-150.2647297801421
 30
0.0
 10
123.8067409629719
 20
-150.4593776750587
 30
0.0
 10
123.8067409629719
 20
-150.4593776750587
 30
0.0
 10
123.7685004030856
 20
-150.4573106177676
 30
0.0
 10
123.7009765315747
 20
-150.4531765031853
 30
0.0
 10
123.5655842790044
 20
-150.4552435604765
 30
0.0
 10
123.5655842790044
 20
-150.4552435604765
 30
0.0
 10
123.5655842790044
 20
-150.793551937128
 30
0.0
 10
123.5655842790044
 20
-150.793551937128
 30
0.0
 10
123.6203612972199
 20
-150.7704697973768
 30
0.0
 10
123.6861626209882
 20
-150.7429090334948
 30
0.0
 10
123.7347384673302
 20
-150.7194823841951
 30
0.0
 10
123.7347384673302
 20
-150.7194823841951
 30
0.0
 10
123.7347384673302
 20
-150.5417154571562
 30
0.0
 10
123.7347384673302
 20
-150.5417154571562
 30
0.0
 10
123.8491156374405
 20
-150.5544623104516
 30
0.0
 10
123.9672824125846
 20
-150.5544623104516
 30
0.0
 10
124.083726639986
 20
-150.5544623104516
 30
0.0
 10
124.0606445002348
 20
-150.4593776750587
 30
0.0
 10
124.0330837363528
 20
-150.3766953834127
 30
0.0
 10
123.9696939794242
 20
-150.2437146976821
 30
0.0
 10
123.9252522476645
 20
-150.2457817549732
 30
0.0
 10
123.8425699560185
 20
-150.2499158695556
 30
0.0
 10
123.8046739056808
 20
-150.2519829268467
 30
0.0
 10
123.8046739056808
 20
-150.2519829268467
 30
0.0
 10
123.8046739056808
 20
-150.0721489425167
 30
0.0
 10
123.8046739056808
 20
-150.0721489425167
 30
0.0
 10
123.9293863622468
 20
-150.0807616812298
 30
0.0
 10
124.1026746651549
 20
-150.0848957958121
 30
0.0
 10
124.1853569568009
 20
-150.0848957958121
 30
0.0
 10
124.1853569568009
 20
-150.0848957958121
 30
0.0
 10
124.2676947388983
 20
-150.0848957958121
 30
0.0
 10
124.2676947388983
 20
-150.0848957958121
 30
0.0
 10
124.2676947388983
 20
-149.9219427793598
 30
0.0
 10
124.2676947388983
 20
-149.911607492904
 30
0.0
 10
124.2656276816072
 20
-149.85648596514
 30
0.0
 10
124.2656276816072
 20
-149.85648596514
 30
0.0
 10
124.489903397697
 20
-149.8819796717309
 30
0.0
 10
124.489903397697
 20
-149.8819796717309
 30
0.0
 10
124.4940375122792
 20
-149.8819796717309
 30
0.0
 10
124.5153971042878
 20
-149.884046729022
 30
0.0
 10
124.5153971042878
 20
-149.9009276968997
 30
0.0
 10
124.5153971042878
 20
-149.9157416074863
 30
0.0
 10
124.5047173082835
 20
-149.9240098366509
 30
0.0
 10
124.4771565444015
 20
-149.9388237472375
 30
0.0
 10
124.4709553725281
 20
-150.0046250710058
 30
0.0
 10
124.4688883152369
 20
-150.0256401534658
 30
0.0
 10
124.4688883152369
 20
-150.0848957958121
 30
0.0
 10
124.4688883152369
 20
-150.0848957958121
 30
0.0
 10
124.5639729506298
 20
-150.0848957958121
 30
0.0
 10
124.5639729506298
 20
-150.0848957958121
 30
0.0
 10
124.6466552422758
 20
-150.0848957958121
 30
0.0
 10
124.8199435451839
 20
-150.0807616812298
 30
0.0
 10
124.9446560017499
 20
-150.0721489425167
 30
0.0
 10
124.9446560017499
 20
-150.0721489425167
 30
0.0
 10
124.9446560017499
 20
-150.2519829268467
 30
0.0
 10
124.9446560017499
 20
-150.2519829268467
 30
0.0
 10
124.9150281805768
 20
-150.2499158695556
 30
0.0
 10
124.7968614054327
 20
-150.2457817549732
 30
0.0
 10
124.7565537882553
 20
-150.2437146976821
 30
0.0
 10
124.7417398776687
 20
-150.2943576013153
 30
0.0
 10
124.7079779419133
 20
-150.4063232045859
 30
0.0
 10
124.642176618145
 20
-150.546194081287
 30
0.0
 10
124.6845512926136
 20
-150.546194081287
 30
0.0
 10
124.9618814791762
 20
-150.5269015465696
 30
0.0
 10
125.0232041788136
 20
-150.5248344892785
 30
0.0
 10
125.0232041788136
 20
-150.5248344892785
 30
0.0
 10
125.0232041788136
 20
-150.7091470977394
 30
0.0
 10
125.0232041788136
 20
-150.7091470977394
 30
0.0
 10
124.9935763576405
 20
-150.7091470977394
 30
0.0
 10
124.9766953897628
 20
-150.7046684736085
 30
0.0
 10
124.8137423733104
 20
-150.7046684736085
 30
0.0
  0
HATCH
  5
14C
330
145
100
AcDbEntity
  8
レイヤー 1
 62
    18
420
        0
440
 33554687
100
AcDbHatch
 10
0.0
 20
0.0
 30
0.0
210
0.0
220
0.0
230
1.0
  2
SOLID
 70
     1
 71
     1
 91
        3
 92
        1
 93
        1
 72
     4
 94
        3
 73
     0
 74
     0
 95
       17
 96
       13
 40
0.0
 40
0.0
 40
0.0
 40
0.0
 40
1.0
 40
1.0
 40
1.0
 40
2.0
 40
2.0
 40
2.0
 40
3.0
 40
3.0
 40
3.0
 40
4.0
 40
4.0
 40
4.0
 40
4.0
 10
124.2487467137295
 20
-151.0898301488595
 10
124.2318657458517
 20
-151.1194579700326
 10
124.1812228422186
 20
-151.2124755481344
 10
124.1705430462143
 20
-151.2314235733032
 10
124.3610568265486
 20
-151.2906792156495
 10
124.3820719090086
 20
-151.2972248970715
 10
124.4540744046503
 20
-151.324441151405
 10
124.5088514228658
 20
-151.2379692547252
 10
124.5322780721655
 20
-151.1638997017923
 10
124.5470919827521
 20
-151.0898301488595
 10
124.5470919827521
 20
-151.0898301488595
 10
124.2487467137295
 20
-151.0898301488595
 10
124.2487467137295
 20
-151.0898301488595
 97
        0
 97
        1
330
149
 92
        1
 93
        1
 72
     4
 94
        3
 73
     0
 74
     0
 95
       20
 96
       16
 40
0.0
 40
0.0
 40
0.0
 40
0.0
 40
1.0
 40
1.0
 40
1.0
 40
2.0
 40
2.0
 40
2.0
 40
3.0
 40
3.0
 40
3.0
 40
4.0
 40
4.0
 40
4.0
 40
5.0
 40
5.0
 40
5.0
 40
5.0
 10
124.1853569568009
 20
-150.2392360735513
 10
124.1853569568009
 20
-150.2392360735513
 10
124.1536620783366
 20
-150.2392360735513
 10
124.1536620783366
 20
-150.2392360735513
 10
124.2001708673874
 20
-150.338799333075
 10
124.2318657458517
 20
-150.4190700578813
 10
124.2656276816072
 20
-150.546194081287
 10
124.2656276816072
 20
-150.546194081287
 10
124.4730224298192
 20
-150.546194081287
 10
124.4730224298192
 20
-150.546194081287
 10
124.5047173082835
 20
-150.4531765031853
 10
124.5281439575832
 20
-150.3684271542481
 10
124.5512260973344
 20
-150.2392360735513
 10
124.5512260973344
 20
-150.2392360735513
 10
124.1853569568009
 20
-150.2392360735513
 10
124.1853569568009
 20
-150.2392360735513
 97
        0
 97
        1
330
14A
 92
        1
 93
        1
 72
     4
 94
        3
 73
     0
 74
     0
 95
      242
 96
      238
 40
0.0
 40
0.0
 40
0.0
 40
0.0
 40
1.0
 40
1.0
 40
1.0
 40
2.0
 40
2.0
 40
2.0
 40
3.0
 40
3.0
 40
3.0
 40
4.0
 40
4.0
 40
4.0
 40
5.0
 40
5.0
 40
5.0
 40
6.0
 40
6.0
 40
6.0
 40
7.0
 40
7.0
 40
7.0
 40
8.0
 40
8.0
 40
8.0
 40
9.0
 40
9.0
 40
9.0
 40
10.0
 40
10.0
 40
10.0
 40
11.0
 40
11.0
 40
11.0
 40
12.0
 40
12.0
 40
12.0
 40
13.0
 40
13.0
 40
13.0
 40
14.0
 40
14.0
 40
14.0
 40
15.0
 40
15.0
 40
15.0
 40
16.0
 40
16.0
 40
16.0
 40
17.0
 40
17.0
 40
17.0
 40
18.0
 40
18.0
 40
18.0
 40
19.0
 40
19.0
 40
19.0
 40
20.0
 40
20.0
 40
20.0
 40
21.0
 40
21.0
 40
21.0
 40
22.0
 40
22.0
 40
22.0
 40
23.0
 40
23.0
 40
23.0
 40
24.0
 40
24.0
 40
24.0
 40
25.0
 40
25.0
 40
25.0
 40
26.0
 40
26.0
 40
26.0
 40
27.0
 40
27.0
 40
27.0
 40
28.0
 40
28.0
 40
28.0
 40
29.0
 40
29.0
 40
29.0
 40
30.0
 40
30.0
 40
30.0
 40
31.0
 40
31.0
 40
31.0
 40
32.0
 40
32.0
 40
32.0
 40
33.0
 40
33.0
 40
33.0
 40
34.0
 40
34.0
 40
34.0
 40
35.0
 40
35.0
 40
35.0
 40
36.0
 40
36.0
 40
36.0
 40
37.0
 40
37.0
 40
37.0
 40
38.0
 40
38.0
 40
38.0
 40
39.0
 40
39.0
 40
39.0
 40
40.0
 40
40.0
 40
40.0
 40
41.0
 40
41.0
 40
41.0
 40
42.0
 40
42.0
 40
42.0
 40
43.0
 40
43.0
 40
43.0
 40
44.0
 40
44.0
 40
44.0
 40
45.0
 40
45.0
 40
45.0
 40
46.0
 40
46.0
 40
46.0
 40
47.0
 40
47.0
 40
47.0
 40
48.0
 40
48.0
 40
48.0
 40
49.0
 40
49.0
 40
49.0
 40
50.0
 40
50.0
 40
50.0
 40
51.0
 40
51.0
 40
51.0
 40
52.0
 40
52.0
 40
52.0
 40
53.0
 40
53.0
 40
53.0
 40
54.0
 40
54.0
 40
54.0
 40
55.0
 40
55.0
 40
55.0
 40
56.0
 40
56.0
 40
56.0
 40
57.0
 40
57.0
 40
57.0
 40
58.0
 40
58.0
 40
58.0
 40
59.0
 40
59.0
 40
59.0
 40
60.0
 40
60.0
 40
60.0
 40
61.0
 40
61.0
 40
61.0
 40
62.0
 40
62.0
 40
62.0
 40
63.0
 40
63.0
 40
63.0
 40
64.0
 40
64.0
 40
64.0
 40
65.0
 40
65.0
 40
65.0
 40
66.0
 40
66.0
 40
66.0
 40
67.0
 40
67.0
 40
67.0
 40
68.0
 40
68.0
 40
68.0
 40
69.0
 40
69.0
 40
69.0
 40
70.0
 40
70.0
 40
70.0
 40
71.0
 40
71.0
 40
71.0
 40
72.0
 40
72.0
 40
72.0
 40
73.0
 40
73.0
 40
73.0
 40
74.0
 40
74.0
 40
74.0
 40
75.0
 40
75.0
 40
75.0
 40
76.0
 40
76.0
 40
76.0
 40
77.0
 40
77.0
 40
77.0
 40
78.0
 40
78.0
 40
78.0
 40
79.0
 40
79.0
 40
79.0
 40
79.0
 10
124.8137423733104
 20
-150.7046684736085
 10
124.8137423733104
 20
-150.7046684736085
 10
124.5598388360475
 20
-150.7046684736085
 10
124.5598388360475
 20
-150.7046684736085
 10
124.5598388360475
 20
-150.7046684736085
 10
124.2825086494849
 20
-150.7046684736085
 10
124.2825086494849
 20
-150.7046684736085
 10
124.2825086494849
 20
-150.7046684736085
 10
124.4096326728906
 20
-150.7470431480771
 10
124.4096326728906
 20
-150.7470431480771
 10
124.4203124688949
 20
-150.7511772626594
 10
124.4327148126418
 20
-150.7577229440814
 10
124.4327148126418
 20
-150.7704697973768
 10
124.4327148126418
 20
-150.7914848798368
 10
124.4010199341775
 20
-150.7976860517103
 10
124.3800048517175
 20
-150.8021646758411
 10
124.3693250557132
 20
-150.8252468155923
 10
124.3396972345401
 20
-150.8910481393606
 10
124.3207492093712
 20
-150.9354898711203
 10
124.3207492093712
 20
-150.9354898711203
 10
124.5915337145118
 20
-150.9354898711203
 10
124.5915337145118
 20
-150.9354898711203
 10
124.6824842353224
 20
-150.9354898711203
 10
124.8791991875302
 20
-150.9310112469894
 10
125.020792611974
 20
-150.9227430178248
 10
125.020792611974
 20
-150.9227430178248
 10
125.020792611974
 20
-151.1005099448637
 10
125.020792611974
 20
-151.1005099448637
 10
124.9384548298765
 20
-151.0960313207329
 10
124.9174397474165
 20
-151.0960313207329
 10
124.7376057630864
 20
-151.0918972061506
 10
124.7059108846221
 20
-151.2462374838898
 10
124.6614691528624
 20
-151.3268527182447
 10
124.6170274211027
 20
-151.3964436470467
 10
124.7376057630864
 20
-151.455699289393
 10
124.8433701944836
 20
-151.5235676704524
 10
124.9470675685896
 20
-151.6059054525499
 10
124.9470675685896
 20
-151.6059054525499
 10
124.828556283897
 20
-151.7729925835845
 10
124.828556283897
 20
-151.7729925835845
 10
124.8051296345973
 20
-151.7540445584157
 10
124.7923827813019
 20
-151.7454318197025
 10
124.6804171780313
 20
-151.6610269803139
 10
124.6318413316892
 20
-151.6227864204276
 10
124.5725856893429
 20
-151.586957427381
 10
124.4919704549881
 20
-151.5425156956213
 10
124.2804415921938
 20
-151.7285508518248
 10
124.0754584108214
 20
-151.7519775011245
 10
123.7853813709633
 20
-151.7816053222976
 10
123.7853813709633
 20
-151.7816053222976
 10
123.6816839968573
 20
-151.6017713379676
 10
123.6816839968573
 20
-151.6017713379676
 10
123.9993218005974
 20
-151.5976372233853
 10
124.1746771607966
 20
-151.5721435167945
 10
124.3269503812446
 20
-151.462244970815
 10
124.208439096552
 20
-151.4112575576333
 10
124.1199001425811
 20
-151.3836967937513
 10
124.083726639986
 20
-151.3712944500044
 10
124.0647786148171
 20
-151.3985107043378
 10
124.0499647042305
 20
-151.4178032390552
 10
124.0224039403486
 20
-151.4515651748107
 10
124.0224039403486
 20
-151.4515651748107
 10
123.8256889881408
 20
-151.3688828831647
 10
123.8256889881408
 20
-151.3688828831647
 10
123.9083712797868
 20
-151.2886121583584
 10
123.9696939794242
 20
-151.1935275229655
 10
124.0265380549308
 20
-151.0918972061506
 10
123.8363687841451
 20
-151.0960313207329
 10
123.8150091921365
 20
-151.0960313207329
 10
123.732671410039
 20
-151.1005099448637
 10
123.732671410039
 20
-151.1005099448637
 10
123.732671410039
 20
-150.9227430178248
 10
123.732671410039
 20
-150.9227430178248
 10
123.8721977771916
 20
-150.9289441896983
 10
124.0816595826949
 20
-150.9330783042806
 10
124.1071532892857
 20
-150.9330783042806
 10
124.1240342571634
 20
-150.8993163685252
 10
124.1791557849274
 20
-150.7787380265414
 10
124.1981038100963
 20
-150.7046684736085
 10
124.1791557849274
 20
-150.7046684736085
 10
124.0013888578885
 20
-150.7112141550305
 10
123.8067409629719
 20
-150.7239610083259
 10
123.8067409629719
 20
-150.7239610083259
 10
123.8067409629719
 20
-150.8569416940566
 10
123.8067409629719
 20
-150.8569416940566
 10
123.7581651166299
 20
-150.8824354006474
 10
123.6989094742836
 20
-150.9141302791117
 10
123.5655842790044
 20
-150.97993160288
 10
123.5655842790044
 20
-150.97993160288
 10
123.5655842790044
 20
-151.125659141906
 10
123.5655842790044
 20
-151.125659141906
 10
123.5655842790044
 20
-151.125659141906
 10
123.5655842790044
 20
-151.5931585992545
 10
123.5655842790044
 20
-151.5931585992545
 10
123.5655842790044
 20
-151.7202826226602
 10
123.5294107764093
 20
-151.7795382650065
 10
123.2458794179732
 20
-151.7709255262934
 10
123.2458794179732
 20
-151.7709255262934
 10
123.1425265534157
 20
-151.5635307780813
 10
123.1425265534157
 20
-151.5635307780813
 10
123.2059163103443
 20
-151.5762776313767
 10
123.2544921566864
 20
-151.5807562555076
 10
123.2947997738638
 20
-151.5807562555076
 10
123.3709363840878
 20
-151.5807562555076
 10
123.3812716705436
 20
-151.5573296062079
 10
123.3812716705436
 20
-151.4918727919881
 10
123.3812716705436
 20
-151.4918727919881
 10
123.3812716705436
 20
-151.0622693849775
 10
123.3812716705436
 20
-151.0622693849775
 10
123.2841199778595
 20
-151.1025770021549
 10
123.2672390099818
 20
-151.1087781740283
 10
123.2207302209309
 20
-151.1277261991972
 10
123.2165961063486
 20
-151.1490857912058
 10
123.2121174822178
 20
-151.1787136123789
 10
123.1931694570489
 20
-151.1787136123789
 10
123.1845567183358
 20
-151.1787136123789
 10
123.17422143188
 20
-151.1742349882481
 10
123.1676757504581
 20
-151.1511528484969
 10
123.1676757504581
 20
-151.1511528484969
 10
123.1149657895338
 20
-150.9585720108715
 10
123.1149657895338
 20
-150.9585720108715
 10
123.2606933285598
 20
-150.9120632218206
 10
123.3264946523281
 20
-150.8889810820694
 10
123.3812716705436
 20
-150.8676214900608
 10
123.3812716705436
 20
-150.8676214900608
 10
123.3812716705436
 20
-150.4552435604765
 10
123.3812716705436
 20
-150.4552435604765
 10
123.3812716705436
 20
-150.4552435604765
 10
123.3285617096192
 20
-150.4552435604765
 10
123.3285617096192
 20
-150.4552435604765
 10
123.3285617096192
 20
-150.4552435604765
 10
123.2503580421041
 20
-150.4552435604765
 10
123.2503580421041
 20
-150.4552435604765
 10
123.1824896610446
 20
-150.4552435604765
 10
123.17422143188
 20
-150.4552435604765
 10
123.1380479292849
 20
-150.4614447323499
 10
123.1380479292849
 20
-150.4614447323499
 10
123.1380479292849
 20
-150.2667968374333
 10
123.1380479292849
 20
-150.2667968374333
 10
123.1656086931669
 20
-150.2733425188553
 10
123.17422143188
 20
-150.2733425188553
 10
123.2438123606821
 20
-150.2733425188553
 10
123.2438123606821
 20
-150.2733425188553
 10
123.3771375559613
 20
-150.2733425188553
 10
123.3771375559613
 20
-150.2733425188553
 10
123.3771375559613
 20
-150.2034070805047
 10
123.3771375559613
 20
-150.1207247888587
 10
123.3750704986701
 20
-150.1165906742764
 10
123.3668022695055
 20
-149.9367566899463
 10
123.3668022695055
 20
-149.9178086647775
 10
123.3643907026658
 20
-149.8712998757266
 10
123.3643907026658
 20
-149.8712998757266
 10
123.580398189591
 20
-149.8795681048912
 10
123.580398189591
 20
-149.8795681048912
 10
123.5907334760467
 20
-149.8795681048912
 10
123.6120930680553
 20
-149.8819796717309
 10
123.6120930680553
 20
-149.8988606396086
 10
123.6120930680553
 20
-149.9178086647775
 10
123.5972791574687
 20
-149.9284884607817
 10
123.5717854508779
 20
-149.9474364859506
 10
123.5717854508779
 20
-149.9980793895838
 10
123.5655842790044
 20
-150.2268337298044
 10
123.5676513362956
 20
-150.2733425188553
 10
123.6964979074439
 20
-150.2733425188553
 10
123.7092447607393
 20
-150.2733425188553
 10
123.8067409629719
 20
-150.2647297801421
 10
123.8067409629719
 20
-150.2647297801421
 10
123.8067409629719
 20
-150.4593776750587
 10
123.8067409629719
 20
-150.4593776750587
 10
123.7685004030856
 20
-150.4573106177676
 10
123.7009765315747
 20
-150.4531765031853
 10
123.5655842790044
 20
-150.4552435604765
 10
123.5655842790044
 20
-150.4552435604765
 10
123.5655842790044
 20
-150.793551937128
 10
123.5655842790044
 20
-150.793551937128
 10
123.6203612972199
 20
-150.7704697973768
 10
123.6861626209882
 20
-150.7429090334948
 10
123.7347384673302
 20
-150.7194823841951
 10
123.7347384673302
 20
-150.7194823841951
 10
123.7347384673302
 20
-150.5417154571562
 10
123.7347384673302
 20
-150.5417154571562
 10
123.8491156374405
 20
-150.5544623104516
 10
123.9672824125846
 20
-150.5544623104516
 10
124.083726639986
 20
-150.5544623104516
 10
124.0606445002348
 20
-150.4593776750587
 10
124.0330837363528
 20
-150.3766953834127
 10
123.9696939794242
 20
-150.2437146976821
 10
123.9252522476645
 20
-150.2457817549732
 10
123.8425699560185
 20
-150.2499158695556
 10
123.8046739056808
 20
-150.2519829268467
 10
123.8046739056808
 20
-150.2519829268467
 10
123.8046739056808
 20
-150.0721489425167
 10
123.8046739056808
 20
-150.0721489425167
 10
123.9293863622468
 20
-150.0807616812298
 10
124.1026746651549
 20
-150.0848957958121
 10
124.1853569568009
 20
-150.0848957958121
 10
124.1853569568009
 20
-150.0848957958121
 10
124.2676947388983
 20
-150.0848957958121
 10
124.2676947388983
 20
-150.0848957958121
 10
124.2676947388983
 20
-149.9219427793598
 10
124.2676947388983
 20
-149.911607492904
 10
124.2656276816072
 20
-149.85648596514
 10
124.2656276816072
 20
-149.85648596514
 10
124.489903397697
 20
-149.8819796717309
 10
124.489903397697
 20
-149.8819796717309
 10
124.4940375122792
 20
-149.8819796717309
 10
124.5153971042878
 20
-149.884046729022
 10
124.5153971042878
 20
-149.9009276968997
 10
124.5153971042878
 20
-149.9157416074863
 10
124.5047173082835
 20
-149.9240098366509
 10
124.4771565444015
 20
-149.9388237472375
 10
124.4709553725281
 20
-150.0046250710058
 10
124.4688883152369
 20
-150.0256401534658
 10
124.4688883152369
 20
-150.0848957958121
 10
124.4688883152369
 20
-150.0848957958121
 10
124.5639729506298
 20
-150.0848957958121
 10
124.5639729506298
 20
-150.0848957958121
 10
124.6466552422758
 20
-150.0848957958121
 10
124.8199435451839
 20
-150.0807616812298
 10
124.9446560017499
 20
-150.0721489425167
 10
124.9446560017499
 20
-150.0721489425167
 10
124.9446560017499
 20
-150.2519829268467
 10
124.9446560017499
 20
-150.2519829268467
 10
124.9150281805768
 20
-150.2499158695556
 10
124.7968614054327
 20
-150.2457817549732
 10
124.7565537882553
 20
-150.2437146976821
 10
124.7417398776687
 20
-150.2943576013153
 10
124.7079779419133
 20
-150.4063232045859
 10
124.642176618145
 20
-150.546194081287
 10
124.6845512926136
 20
-150.546194081287
 10
124.9618814791762
 20
-150.5269015465696
 10
125.0232041788136
 20
-150.5248344892785
 10
125.0232041788136
 20
-150.5248344892785
 10
125.0232041788136
 20
-150.7091470977394
 10
125.0232041788136
 20
-150.7091470977394
 10
124.9935763576405
 20
-150.7091470977394
 10
124.9766953897628
 20
-150.7046684736085
 10
124.8137423733104
 20
-150.7046684736085
 97
        0
 97
        1
330
14B
 75
     2
 76
     1
 98
        1
 10
0.0
 20
0.0
450
        0
451
        0
460
0.0
461
0.0
452
        0
462
0.0
453
        0
470

  0
SPLINE
  5
14D
330
145
100
AcDbEntity
  8
レイヤー 1
100
AcDbSpline
210
0.0
220
0.0
230
1.0
 70
    11
 71
     3
 72
    17
 73
    13
 74
     0
 42
0.0000000001
 43
0.0000000001
 40
0.0
 40
0.0
 40
0.0
 40
0.0
 40
1.0
 40
1.0
 40
1.0
 40
2.0
 40
2.0
 40
2.0
 40
3.0
 40
3.0
 40
3.0
 40
4.0
 40
4.0
 40
4.0
 40
4.0
 10
126.6699598207631
 20
-151.504275135735
 30
0.0
 10
126.6699598207631
 20
-151.504275135735
 30
0.0
 10
125.9633707367383
 20
-151.504275135735
 30
0.0
 10
125.9633707367383
 20
-151.504275135735
 30
0.0
 10
125.9633707367383
 20
-151.504275135735
 30
0.0
 10
125.9633707367383
 20
-151.6186523058453
 30
0.0
 10
125.9633707367383
 20
-151.6186523058453
 30
0.0
 10
125.9633707367383
 20
-151.6186523058453
 30
0.0
 10
126.6699598207631
 20
-151.6186523058453
 30
0.0
 10
126.6699598207631
 20
-151.6186523058453
 30
0.0
 10
126.6699598207631
 20
-151.6186523058453
 30
0.0
 10
126.6699598207631
 20
-151.504275135735
 30
0.0
 10
126.6699598207631
 20
-151.504275135735
 30
0.0
  0
SPLINE
  5
14E
330
145
100
AcDbEntity
  8
レイヤー 1
100
AcDbSpline
210
0.0
220
0.0
230
1.0
 70
    11
 71
     3
 72
    17
 73
    13
 74
     0
 42
0.0000000001
 43
0.0000000001
 40
0.0
 40
0.0
 40
0.0
 40
0.0
 40
1.0
 40
1.0
 40
1.0
 40
2.0
 40
2.0
 40
2.0
 40
3.0
 40
3.0
 40
3.0
 40
4.0
 40
4.0
 40
4.0
 40
4.0
 10
126.6699598207631
 20
-151.2610513944764
 30
0.0
 10
126.6699598207631
 20
-151.2610513944764
 30
0.0
 10
125.9633707367383
 20
-151.2610513944764
 30
0.0
 10
125.9633707367383
 20
-151.2610513944764
 30
0.0
 10
125.9633707367383
 20
-151.2610513944764
 30
0.0
 10
125.9633707367383
 20
-151.3754285645867
 30
0.0
 10
125.9633707367383
 20
-151.3754285645867
 30
0.0
 10
125.9633707367383
 20
-151.3754285645867
 30
0.0
 10
126.6699598207631
 20
-151.3754285645867
 30
0.0
 10
126.6699598207631
 20
-151.3754285645867
 30
0.0
 10
126.6699598207631
 20
-151.3754285645867
 30
0.0
 10
126.6699598207631
 20
-151.2610513944764
 30
0.0
 10
126.6699598207631
 20
-151.2610513944764
 30
0.0
  0
SPLINE
  5
14F
330
145
100
AcDbEntity
  8
レイヤー 1
100
AcDbSpline
210
0.0
220
0.0
230
1.0
 70
    11
 71
     3
 72
    17
 73
    13
 74
     0
 42
0.0000000001
 43
0.0000000001
 40
0.0
 40
0.0
 40
0.0
 40
0.0
 40
1.0
 40
1.0
 40
1.0
 40
2.0
 40
2.0
 40
2.0
 40
3.0
 40
3.0
 40
3.0
 40
4.0
 40
4.0
 40
4.0
 40
4.0
 10
126.6699598207631
 20
-151.028507449222
 30
0.0
 10
126.6699598207631
 20
-151.028507449222
 30
0.0
 10
125.9633707367383
 20
-151.028507449222
 30
0.0
 10
125.9633707367383
 20
-151.028507449222
 30
0.0
 10
125.9633707367383
 20
-151.028507449222
 30
0.0
 10
125.9633707367383
 20
-151.1363389379104
 30
0.0
 10
125.9633707367383
 20
-151.1363389379104
 30
0.0
 10
125.9633707367383
 20
-151.1363389379104
 30
0.0
 10
126.6699598207631
 20
-151.1363389379104
 30
0.0
 10
126.6699598207631
 20
-151.1363389379104
 30
0.0
 10
126.6699598207631
 20
-151.1363389379104
 30
0.0
 10
126.6699598207631
 20
-151.028507449222
 30
0.0
 10
126.6699598207631
 20
-151.028507449222
 30
0.0
  0
SPLINE
  5
150
330
145
100
AcDbEntity
  8
レイヤー 1
100
AcDbSpline
210
0.0
220
0.0
230
1.0
 70
     9
 71
     3
 72
   203
 73
   199
 74
     0
 42
0.0000000001
 43
0.0000000001
 40
0.0
 40
0.0
 40
0.0
 40
0.0
 40
1.0
 40
1.0
 40
1.0
 40
2.0
 40
2.0
 40
2.0
 40
3.0
 40
3.0
 40
3.0
 40
4.0
 40
4.0
 40
4.0
 40
5.0
 40
5.0
 40
5.0
 40
6.0
 40
6.0
 40
6.0
 40
7.0
 40
7.0
 40
7.0
 40
8.0
 40
8.0
 40
8.0
 40
9.0
 40
9.0
 40
9.0
 40
10.0
 40
10.0
 40
10.0
 40
11.0
 40
11.0
 40
11.0
 40
12.0
 40
12.0
 40
12.0
 40
13.0
 40
13.0
 40
13.0
 40
14.0
 40
14.0
 40
14.0
 40
15.0
 40
15.0
 40
15.0
 40
16.0
 40
16.0
 40
16.0
 40
17.0
 40
17.0
 40
17.0
 40
18.0
 40
18.0
 40
18.0
 40
19.0
 40
19.0
 40
19.0
 40
20.0
 40
20.0
 40
20.0
 40
21.0
 40
21.0
 40
21.0
 40
22.0
 40
22.0
 40
22.0
 40
23.0
 40
23.0
 40
23.0
 40
24.0
 40
24.0
 40
24.0
 40
25.0
 40
25.0
 40
25.0
 40
26.0
 40
26.0
 40
26.0
 40
27.0
 40
27.0
 40
27.0
 40
28.0
 40
28.0
 40
28.0
 40
29.0
 40
29.0
 40
29.0
 40
30.0
 40
30.0
 40
30.0
 40
31.0
 40
31.0
 40
31.0
 40
32.0
 40
32.0
 40
32.0
 40
33.0
 40
33.0
 40
33.0
 40
34.0
 40
34.0
 40
34.0
 40
35.0
 40
35.0
 40
35.0
 40
36.0
 40
36.0
 40
36.0
 40
37.0
 40
37.0
 40
37.0
 40
38.0
 40
38.0
 40
38.0
 40
39.0
 40
39.0
 40
39.0
 40
40.0
 40
40.0
 40
40.0
 40
41.0
 40
41.0
 40
41.0
 40
42.0
 40
42.0
 40
42.0
 40
43.0
 40
43.0
 40
43.0
 40
44.0
 40
44.0
 40
44.0
 40
45.0
 40
45.0
 40
45.0
 40
46.0
 40
46.0
 40
46.0
 40
47.0
 40
47.0
 40
47.0
 40
48.0
 40
48.0
 40
48.0
 40
49.0
 40
49.0
 40
49.0
 40
50.0
 40
50.0
 40
50.0
 40
51.0
 40
51.0
 40
51.0
 40
52.0
 40
52.0
 40
52.0
 40
53.0
 40
53.0
 40
53.0
 40
54.0
 40
54.0
 40
54.0
 40
55.0
 40
55.0
 40
55.0
 40
56.0
 40
56.0
 40
56.0
 40
57.0
 40
57.0
 40
57.0
 40
58.0
 40
58.0
 40
58.0
 40
59.0
 40
59.0
 40
59.0
 40
60.0
 40
60.0
 40
60.0
 40
61.0
 40
61.0
 40
61.0
 40
62.0
 40
62.0
 40
62.0
 40
63.0
 40
63.0
 40
63.0
 40
64.0
 40
64.0
 40
64.0
 40
65.0
 40
65.0
 40
65.0
 40
66.0
 40
66.0
 40
66.0
 40
66.0
 10
126.5049397470196
 20
-150.772536854668
 30
0.0
 10
126.5049397470196
 20
-150.772536854668
 30
0.0
 10
125.9464897688606
 20
-150.772536854668
 30
0.0
 10
125.9464897688606
 20
-150.772536854668
 30
0.0
 10
125.9361544824048
 20
-150.8169785864277
 30
0.0
 10
125.9275417436917
 20
-150.848673464892
 30
0.0
 10
125.9147948903963
 20
-150.8865695152297
 30
0.0
 10
125.9402885969871
 20
-150.8865695152297
 30
0.0
 10
125.9551025075737
 20
-150.8889810820694
 30
0.0
 10
125.9613036794472
 20
-150.8889810820694
 30
0.0
 10
125.9613036794472
 20
-150.8889810820694
 30
0.0
 10
126.1497504024903
 20
-150.8889810820694
 30
0.0
 10
126.1497504024903
 20
-150.8889810820694
 30
0.0
 10
126.1497504024903
 20
-150.8889810820694
 30
0.0
 10
126.524232281737
 20
-150.8889810820694
 30
0.0
 10
126.524232281737
 20
-150.8889810820694
 30
0.0
 10
126.5748751853702
 20
-150.8889810820694
 30
0.0
 10
126.8584065438062
 20
-150.876234228774
 30
0.0
 10
126.8901014222705
 20
-150.876234228774
 30
0.0
 10
126.8880343649794
 20
-150.9034504831075
 30
0.0
 10
126.8859673076882
 20
-150.9227430178248
 30
0.0
 10
126.8859673076882
 20
-150.952370838998
 30
0.0
 10
126.8839002503971
 20
-150.9840657174623
 30
0.0
 10
126.8839002503971
 20
-151.1194579700326
 30
0.0
 10
126.8839002503971
 20
-151.1470187339146
 30
0.0
 10
126.8839002503971
 20
-151.1470187339146
 30
0.0
 10
126.8839002503971
 20
-151.3923095324644
 30
0.0
 10
126.8839002503971
 20
-151.3923095324644
 30
0.0
 10
126.8839002503971
 20
-151.4367512642241
 30
0.0
 10
126.8880343649794
 20
-151.6334662164319
 30
0.0
 10
126.8921684795617
 20
-151.7857394368799
 30
0.0
 10
126.8921684795617
 20
-151.7857394368799
 30
0.0
 10
126.6658257061807
 20
-151.7857394368799
 30
0.0
 10
126.6658257061807
 20
-151.7857394368799
 30
0.0
 10
126.6658257061807
 20
-151.7857394368799
 30
0.0
 10
126.6678927634719
 20
-151.7519775011245
 30
0.0
 10
126.6678927634719
 20
-151.7519775011245
 30
0.0
 10
126.6678927634719
 20
-151.7519775011245
 30
0.0
 10
125.965782303578
 20
-151.7519775011245
 30
0.0
 10
125.965782303578
 20
-151.7519775011245
 30
0.0
 10
125.965782303578
 20
-151.7519775011245
 30
0.0
 10
125.9678493608691
 20
-151.7857394368799
 30
0.0
 10
125.9678493608691
 20
-151.7857394368799
 30
0.0
 10
125.9678493608691
 20
-151.7857394368799
 30
0.0
 10
125.7497748166528
 20
-151.7857394368799
 30
0.0
 10
125.7497748166528
 20
-151.7857394368799
 30
0.0
 10
125.7542534407837
 20
-151.7306179091159
 30
0.0
 10
125.7542534407837
 20
-151.718215565369
 30
0.0
 10
125.7604546126571
 20
-151.6038383952587
 30
0.0
 10
125.7625216699483
 20
-151.5762776313767
 30
0.0
 10
125.7645887272394
 20
-151.4429524360976
 30
0.0
 10
125.7645887272394
 20
-151.4240044109287
 30
0.0
 10
125.7645887272394
 20
-151.4240044109287
 30
0.0
 10
125.7645887272394
 20
-151.2210882868475
 30
0.0
 10
125.7645887272394
 20
-151.2210882868475
 30
0.0
 10
125.6250623600868
 20
-151.4705131999796
 30
0.0
 10
125.455908171761
 20
-151.6017713379676
 30
0.0
 10
125.3501437403638
 20
-151.6672281521873
 30
0.0
 10
125.3501437403638
 20
-151.6672281521873
 30
0.0
 10
125.1765109279072
 20
-151.5277017850347
 30
0.0
 10
125.1765109279072
 20
-151.5277017850347
 30
0.0
 10
125.2653943914267
 20
-151.4770588814015
 30
0.0
 10
125.4093993827101
 20
-151.3902424751733
 30
0.0
 10
125.5468586925716
 20
-151.1955945802566
 30
0.0
 10
125.6378092133822
 20
-151.0684705568509
 30
0.0
 10
125.703266027602
 20
-150.924810075116
 30
0.0
 10
125.7370279633574
 20
-150.772536854668
 30
0.0
 10
125.5086181326853
 20
-150.7746039119591
 30
0.0
 10
125.3287841483553
 20
-150.7808050838326
 30
0.0
 10
125.2336995129624
 20
-150.7828721411237
 30
0.0
 10
125.2336995129624
 20
-150.7828721411237
 30
0.0
 10
125.2336995129624
 20
-150.6054497236333
 30
0.0
 10
125.2336995129624
 20
-150.6054497236333
 30
0.0
 10
125.4304144651702
 20
-150.6116508955068
 30
0.0
 10
125.7139458236062
 20
-150.6157850100891
 30
0.0
 10
125.8641519867631
 20
-150.6157850100891
 30
0.0
 10
125.8641519867631
 20
-150.6157850100891
 30
0.0
 10
126.0777479068486
 20
-150.6157850100891
 30
0.0
 10
126.0777479068486
 20
-150.6157850100891
 30
0.0
 10
126.0777479068486
 20
-150.6157850100891
 30
0.0
 10
126.0777479068486
 20
-150.5079535214008
 30
0.0
 10
126.0777479068486
 20
-150.5079535214008
 30
0.0
 10
126.0777479068486
 20
-150.5079535214008
 30
0.0
 10
125.931675858274
 20
-150.5079535214008
 30
0.0
 10
125.931675858274
 20
-150.5079535214008
 30
0.0
 10
125.7625216699483
 20
-150.5079535214008
 30
0.0
 10
125.5933674816225
 20
-150.5120876359831
 30
0.0
 10
125.4262803505878
 20
-150.518633317405
 30
0.0
 10
125.4262803505878
 20
-150.518633317405
 30
0.0
 10
125.4262803505878
 20
-150.3474120717881
 30
0.0
 10
125.4262803505878
 20
-150.3474120717881
 30
0.0
 10
125.580620628327
 20
-150.3577473582439
 30
0.0
 10
125.7666557845305
 20
-150.3577473582439
 30
0.0
 10
125.931675858274
 20
-150.3577473582439
 30
0.0
 10
125.931675858274
 20
-150.3577473582439
 30
0.0
 10
126.0777479068486
 20
-150.3577473582439
 30
0.0
 10
126.0777479068486
 20
-150.3577473582439
 30
0.0
 10
126.0777479068486
 20
-150.3577473582439
 30
0.0
 10
126.0777479068486
 20
-150.2392360735513
 30
0.0
 10
126.0777479068486
 20
-150.2392360735513
 30
0.0
 10
126.0777479068486
 20
-150.2392360735513
 30
0.0
 10
125.9464897688606
 20
-150.2392360735513
 30
0.0
 10
125.9464897688606
 20
-150.2392360735513
 30
0.0
 10
125.8999809798097
 20
-150.2392360735513
 30
0.0
 10
125.6970648557285
 20
-150.2478488122644
 30
0.0
 10
125.6546901812599
 20
-150.2478488122644
 30
0.0
 10
125.4514295476302
 20
-150.2519829268467
 30
0.0
 10
125.3752929374062
 20
-150.2540499841378
 30
0.0
 10
125.297089269891
 20
-150.256117041429
 30
0.0
 10
125.297089269891
 20
-150.256117041429
 30
0.0
 10
125.297089269891
 20
-150.0721489425167
 30
0.0
 10
125.297089269891
 20
-150.0721489425167
 30
0.0
 10
125.4114664400013
 20
-150.0807616812298
 30
0.0
 10
125.455908171761
 20
-150.0807616812298
 30
0.0
 10
125.8386582801723
 20
-150.0890299103944
 30
0.0
 10
125.7752685232436
 20
-149.9939452750015
 30
0.0
 10
125.7477077593617
 20
-149.9663845111195
 30
0.0
 10
125.7118787663151
 20
-149.9305555180729
 30
0.0
 10
125.7118787663151
 20
-149.9305555180729
 30
0.0
 10
125.8872341265143
 20
-149.8478732264269
 30
0.0
 10
125.8872341265143
 20
-149.8478732264269
 30
0.0
 10
125.9275417436917
 20
-149.884046729022
 30
0.0
 10
125.9719834754514
 20
-149.9264214034906
 30
0.0
 10
126.0460530283843
 20
-150.0363199494701
 30
0.0
 10
126.0460530283843
 20
-150.0363199494701
 30
0.0
 10
125.931675858274
 20
-150.0910969676855
 30
0.0
 10
125.931675858274
 20
-150.0910969676855
 30
0.0
 10
125.931675858274
 20
-150.0910969676855
 30
0.0
 10
125.9423556542783
 20
-150.0910969676855
 30
0.0
 10
125.9423556542783
 20
-150.0910969676855
 30
0.0
 10
125.9423556542783
 20
-150.0910969676855
 30
0.0
 10
126.4649766393907
 20
-150.0910969676855
 30
0.0
 10
126.4649766393907
 20
-150.0910969676855
 30
0.0
 10
126.4649766393907
 20
-150.0910969676855
 30
0.0
 10
126.3695474944493
 20
-150.0469997454743
 30
0.0
 10
126.3695474944493
 20
-150.0469997454743
 30
0.0
 10
126.3971082583313
 20
-150.0087591855881
 30
0.0
 10
126.4542968433864
 20
-149.9284884607817
 30
0.0
 10
126.469110753973
 20
-149.8544189078489
 30
0.0
 10
126.469110753973
 20
-149.8544189078489
 30
0.0
 10
126.6827066740585
 20
-149.9178086647775
 30
0.0
 10
126.6827066740585
 20
-149.9178086647775
 30
0.0
 10
126.6913194127716
 20
-149.9198757220686
 30
0.0
 10
126.7123344952316
 20
-149.9305555180729
 30
0.0
 10
126.7123344952316
 20
-149.9515706005329
 30
0.0
 10
126.7123344952316
 20
-149.9898111604192
 30
0.0
 10
126.6468776810119
 20
-149.9898111604192
 30
0.0
 10
126.627929655843
 20
-149.9898111604192
 30
0.0
 10
126.6172498598387
 20
-150.0087591855881
 30
0.0
 10
126.593823210539
 20
-150.0490668027655
 30
0.0
 10
126.5641953893659
 20
-150.0890299103944
 30
0.0
 10
126.9641709752034
 20
-150.0828287385209
 30
0.0
 10
126.9937987963765
 20
-150.0807616812298
 30
0.0
 10
127.0699354066006
 20
-150.0742159998078
 30
0.0
 10
127.0699354066006
 20
-150.0742159998078
 30
0.0
 10
127.0699354066006
 20
-150.256117041429
 30
0.0
 10
127.0699354066006
 20
-150.256117041429
 30
0.0
 10
127.0509873814317
 20
-150.256117041429
 30
0.0
 10
127.0254936748408
 20
-150.2540499841378
 30
0.0
 10
126.8053520733334
 20
-150.2457817549732
 30
0.0
 10
126.7547091697002
 20
-150.2437146976821
 30
0.0
 10
126.5345675681927
 20
-150.2392360735513
 30
0.0
 10
126.490125836433
 20
-150.2392360735513
 30
0.0
 10
126.490125836433
 20
-150.2392360735513
 30
0.0
 10
126.2744628590564
 20
-150.2392360735513
 30
0.0
 10
126.2744628590564
 20
-150.2392360735513
 30
0.0
 10
126.2744628590564
 20
-150.2392360735513
 30
0.0
 10
126.2744628590564
 20
-150.3577473582439
 30
0.0
 10
126.2744628590564
 20
-150.3577473582439
 30
0.0
 10
126.2744628590564
 20
-150.3577473582439
 30
0.0
 10
126.448095671513
 20
-150.3577473582439
 30
0.0
 10
126.448095671513
 20
-150.3577473582439
 30
0.0
 10
126.6107041784167
 20
-150.3577473582439
 30
0.0
 10
126.8012179587511
 20
-150.3577473582439
 30
0.0
 10
126.9579698033299
 20
-150.3474120717881
 30
0.0
 10
126.9579698033299
 20
-150.3474120717881
 30
0.0
 10
126.9579698033299
 20
-150.518633317405
 30
0.0
 10
126.9579698033299
 20
-150.518633317405
 30
0.0
 10
126.7485079978267
 20
-150.5100205786919
 30
0.0
 10
126.551793045619
 20
-150.5079535214008
 30
0.0
 10
126.448095671513
 20
-150.5079535214008
 30
0.0
 10
126.448095671513
 20
-150.5079535214008
 30
0.0
 10
126.2744628590564
 20
-150.5079535214008
 30
0.0
 10
126.2744628590564
 20
-150.5079535214008
 30
0.0
 10
126.2744628590564
 20
-150.5079535214008
 30
0.0
 10
126.2744628590564
 20
-150.6157850100891
 30
0.0
 10
126.2744628590564
 20
-150.6157850100891
 30
0.0
 10
126.2744628590564
 20
-150.6157850100891
 30
0.0
 10
126.5049397470196
 20
-150.6157850100891
 30
0.0
 10
126.5049397470196
 20
-150.6157850100891
 30
0.0
 10
126.6382649422987
 20
-150.6157850100891
 30
0.0
 10
126.9259304153171
 20
-150.6116508955068
 30
0.0
 10
127.1353922208203
 20
-150.6054497236333
 30
0.0
 10
127.1353922208203
 20
-150.6054497236333
 30
0.0
 10
127.1353922208203
 20
-150.7828721411237
 30
0.0
 10
127.1353922208203
 20
-150.7828721411237
 30
0.0
 10
126.9431558927434
 20
-150.7766709692503
 30
0.0
 10
126.6299967131341
 20
-150.772536854668
 30
0.0
 10
126.5049397470196
 20
-150.772536854668
 30
0.0
  0
HATCH
  5
151
330
145
100
AcDbEntity
  8
レイヤー 1
 62
    18
420
        0
440
 33554687
100
AcDbHatch
 10
0.0
 20
0.0
 30
0.0
210
0.0
220
0.0
230
1.0
  2
SOLID
 70
     1
 71
     1
 91
        4
 92
        1
 93
        1
 72
     4
 94
        3
 73
     0
 74
     0
 95
       17
 96
       13
 40
0.0
 40
0.0
 40
0.0
 40
0.0
 40
1.0
 40
1.0
 40
1.0
 40
2.0
 40
2.0
 40
2.0
 40
3.0
 40
3.0
 40
3.0
 40
4.0
 40
4.0
 40
4.0
 40
4.0
 10
126.6699598207631
 20
-151.504275135735
 10
126.6699598207631
 20
-151.504275135735
 10
125.9633707367383
 20
-151.504275135735
 10
125.9633707367383
 20
-151.504275135735
 10
125.9633707367383
 20
-151.504275135735
 10
125.9633707367383
 20
-151.6186523058453
 10
125.9633707367383
 20
-151.6186523058453
 10
125.9633707367383
 20
-151.6186523058453
 10
126.6699598207631
 20
-151.6186523058453
 10
126.6699598207631
 20
-151.6186523058453
 10
126.6699598207631
 20
-151.6186523058453
 10
126.6699598207631
 20
-151.504275135735
 10
126.6699598207631
 20
-151.504275135735
 97
        0
 97
        1
330
14D
 92
        1
 93
        1
 72
     4
 94
        3
 73
     0
 74
     0
 95
       17
 96
       13
 40
0.0
 40
0.0
 40
0.0
 40
0.0
 40
1.0
 40
1.0
 40
1.0
 40
2.0
 40
2.0
 40
2.0
 40
3.0
 40
3.0
 40
3.0
 40
4.0
 40
4.0
 40
4.0
 40
4.0
 10
126.6699598207631
 20
-151.2610513944764
 10
126.6699598207631
 20
-151.2610513944764
 10
125.9633707367383
 20
-151.2610513944764
 10
125.9633707367383
 20
-151.2610513944764
 10
125.9633707367383
 20
-151.2610513944764
 10
125.9633707367383
 20
-151.3754285645867
 10
125.9633707367383
 20
-151.3754285645867
 10
125.9633707367383
 20
-151.3754285645867
 10
126.6699598207631
 20
-151.3754285645867
 10
126.6699598207631
 20
-151.3754285645867
 10
126.6699598207631
 20
-151.3754285645867
 10
126.6699598207631
 20
-151.2610513944764
 10
126.6699598207631
 20
-151.2610513944764
 97
        0
 97
        1
330
14E
 92
        1
 93
        1
 72
     4
 94
        3
 73
     0
 74
     0
 95
       17
 96
       13
 40
0.0
 40
0.0
 40
0.0
 40
0.0
 40
1.0
 40
1.0
 40
1.0
 40
2.0
 40
2.0
 40
2.0
 40
3.0
 40
3.0
 40
3.0
 40
4.0
 40
4.0
 40
4.0
 40
4.0
 10
126.6699598207631
 20
-151.028507449222
 10
126.6699598207631
 20
-151.028507449222
 10
125.9633707367383
 20
-151.028507449222
 10
125.9633707367383
 20
-151.028507449222
 10
125.9633707367383
 20
-151.028507449222
 10
125.9633707367383
 20
-151.1363389379104
 10
125.9633707367383
 20
-151.1363389379104
 10
125.9633707367383
 20
-151.1363389379104
 10
126.6699598207631
 20
-151.1363389379104
 10
126.6699598207631
 20
-151.1363389379104
 10
126.6699598207631
 20
-151.1363389379104
 10
126.6699598207631
 20
-151.028507449222
 10
126.6699598207631
 20
-151.028507449222
 97
        0
 97
        1
330
14F
 92
        1
 93
        1
 72
     4
 94
        3
 73
     0
 74
     0
 95
      203
 96
      199
 40
0.0
 40
0.0
 40
0.0
 40
0.0
 40
1.0
 40
1.0
 40
1.0
 40
2.0
 40
2.0
 40
2.0
 40
3.0
 40
3.0
 40
3.0
 40
4.0
 40
4.0
 40
4.0
 40
5.0
 40
5.0
 40
5.0
 40
6.0
 40
6.0
 40
6.0
 40
7.0
 40
7.0
 40
7.0
 40
8.0
 40
8.0
 40
8.0
 40
9.0
 40
9.0
 40
9.0
 40
10.0
 40
10.0
 40
10.0
 40
11.0
 40
11.0
 40
11.0
 40
12.0
 40
12.0
 40
12.0
 40
13.0
 40
13.0
 40
13.0
 40
14.0
 40
14.0
 40
14.0
 40
15.0
 40
15.0
 40
15.0
 40
16.0
 40
16.0
 40
16.0
 40
17.0
 40
17.0
 40
17.0
 40
18.0
 40
18.0
 40
18.0
 40
19.0
 40
19.0
 40
19.0
 40
20.0
 40
20.0
 40
20.0
 40
21.0
 40
21.0
 40
21.0
 40
22.0
 40
22.0
 40
22.0
 40
23.0
 40
23.0
 40
23.0
 40
24.0
 40
24.0
 40
24.0
 40
25.0
 40
25.0
 40
25.0
 40
26.0
 40
26.0
 40
26.0
 40
27.0
 40
27.0
 40
27.0
 40
28.0
 40
28.0
 40
28.0
 40
29.0
 40
29.0
 40
29.0
 40
30.0
 40
30.0
 40
30.0
 40
31.0
 40
31.0
 40
31.0
 40
32.0
 40
32.0
 40
32.0
 40
33.0
 40
33.0
 40
33.0
 40
34.0
 40
34.0
 40
34.0
 40
35.0
 40
35.0
 40
35.0
 40
36.0
 40
36.0
 40
36.0
 40
37.0
 40
37.0
 40
37.0
 40
38.0
 40
38.0
 40
38.0
 40
39.0
 40
39.0
 40
39.0
 40
40.0
 40
40.0
 40
40.0
 40
41.0
 40
41.0
 40
41.0
 40
42.0
 40
42.0
 40
42.0
 40
43.0
 40
43.0
 40
43.0
 40
44.0
 40
44.0
 40
44.0
 40
45.0
 40
45.0
 40
45.0
 40
46.0
 40
46.0
 40
46.0
 40
47.0
 40
47.0
 40
47.0
 40
48.0
 40
48.0
 40
48.0
 40
49.0
 40
49.0
 40
49.0
 40
50.0
 40
50.0
 40
50.0
 40
51.0
 40
51.0
 40
51.0
 40
52.0
 40
52.0
 40
52.0
 40
53.0
 40
53.0
 40
53.0
 40
54.0
 40
54.0
 40
54.0
 40
55.0
 40
55.0
 40
55.0
 40
56.0
 40
56.0
 40
56.0
 40
57.0
 40
57.0
 40
57.0
 40
58.0
 40
58.0
 40
58.0
 40
59.0
 40
59.0
 40
59.0
 40
60.0
 40
60.0
 40
60.0
 40
61.0
 40
61.0
 40
61.0
 40
62.0
 40
62.0
 40
62.0
 40
63.0
 40
63.0
 40
63.0
 40
64.0
 40
64.0
 40
64.0
 40
65.0
 40
65.0
 40
65.0
 40
66.0
 40
66.0
 40
66.0
 40
66.0
 10
126.5049397470196
 20
-150.772536854668
 10
126.5049397470196
 20
-150.772536854668
 10
125.9464897688606
 20
-150.772536854668
 10
125.9464897688606
 20
-150.772536854668
 10
125.9361544824048
 20
-150.8169785864277
 10
125.9275417436917
 20
-150.848673464892
 10
125.9147948903963
 20
-150.8865695152297
 10
125.9402885969871
 20
-150.8865695152297
 10
125.9551025075737
 20
-150.8889810820694
 10
125.9613036794472
 20
-150.8889810820694
 10
125.9613036794472
 20
-150.8889810820694
 10
126.1497504024903
 20
-150.8889810820694
 10
126.1497504024903
 20
-150.8889810820694
 10
126.1497504024903
 20
-150.8889810820694
 10
126.524232281737
 20
-150.8889810820694
 10
126.524232281737
 20
-150.8889810820694
 10
126.5748751853702
 20
-150.8889810820694
 10
126.8584065438062
 20
-150.876234228774
 10
126.8901014222705
 20
-150.876234228774
 10
126.8880343649794
 20
-150.9034504831075
 10
126.8859673076882
 20
-150.9227430178248
 10
126.8859673076882
 20
-150.952370838998
 10
126.8839002503971
 20
-150.9840657174623
 10
126.8839002503971
 20
-151.1194579700326
 10
126.8839002503971
 20
-151.1470187339146
 10
126.8839002503971
 20
-151.1470187339146
 10
126.8839002503971
 20
-151.3923095324644
 10
126.8839002503971
 20
-151.3923095324644
 10
126.8839002503971
 20
-151.4367512642241
 10
126.8880343649794
 20
-151.6334662164319
 10
126.8921684795617
 20
-151.7857394368799
 10
126.8921684795617
 20
-151.7857394368799
 10
126.6658257061807
 20
-151.7857394368799
 10
126.6658257061807
 20
-151.7857394368799
 10
126.6658257061807
 20
-151.7857394368799
 10
126.6678927634719
 20
-151.7519775011245
 10
126.6678927634719
 20
-151.7519775011245
 10
126.6678927634719
 20
-151.7519775011245
 10
125.965782303578
 20
-151.7519775011245
 10
125.965782303578
 20
-151.7519775011245
 10
125.965782303578
 20
-151.7519775011245
 10
125.9678493608691
 20
-151.7857394368799
 10
125.9678493608691
 20
-151.7857394368799
 10
125.9678493608691
 20
-151.7857394368799
 10
125.7497748166528
 20
-151.7857394368799
 10
125.7497748166528
 20
-151.7857394368799
 10
125.7542534407837
 20
-151.7306179091159
 10
125.7542534407837
 20
-151.718215565369
 10
125.7604546126571
 20
-151.6038383952587
 10
125.7625216699483
 20
-151.5762776313767
 10
125.7645887272394
 20
-151.4429524360976
 10
125.7645887272394
 20
-151.4240044109287
 10
125.7645887272394
 20
-151.4240044109287
 10
125.7645887272394
 20
-151.2210882868475
 10
125.7645887272394
 20
-151.2210882868475
 10
125.6250623600868
 20
-151.4705131999796
 10
125.455908171761
 20
-151.6017713379676
 10
125.3501437403638
 20
-151.6672281521873
 10
125.3501437403638
 20
-151.6672281521873
 10
125.1765109279072
 20
-151.5277017850347
 10
125.1765109279072
 20
-151.5277017850347
 10
125.2653943914267
 20
-151.4770588814015
 10
125.4093993827101
 20
-151.3902424751733
 10
125.5468586925716
 20
-151.1955945802566
 10
125.6378092133822
 20
-151.0684705568509
 10
125.703266027602
 20
-150.924810075116
 10
125.7370279633574
 20
-150.772536854668
 10
125.5086181326853
 20
-150.7746039119591
 10
125.3287841483553
 20
-150.7808050838326
 10
125.2336995129624
 20
-150.7828721411237
 10
125.2336995129624
 20
-150.7828721411237
 10
125.2336995129624
 20
-150.6054497236333
 10
125.2336995129624
 20
-150.6054497236333
 10
125.4304144651702
 20
-150.6116508955068
 10
125.7139458236062
 20
-150.6157850100891
 10
125.8641519867631
 20
-150.6157850100891
 10
125.8641519867631
 20
-150.6157850100891
 10
126.0777479068486
 20
-150.6157850100891
 10
126.0777479068486
 20
-150.6157850100891
 10
126.0777479068486
 20
-150.6157850100891
 10
126.0777479068486
 20
-150.5079535214008
 10
126.0777479068486
 20
-150.5079535214008
 10
126.0777479068486
 20
-150.5079535214008
 10
125.931675858274
 20
-150.5079535214008
 10
125.931675858274
 20
-150.5079535214008
 10
125.7625216699483
 20
-150.5079535214008
 10
125.5933674816225
 20
-150.5120876359831
 10
125.4262803505878
 20
-150.518633317405
 10
125.4262803505878
 20
-150.518633317405
 10
125.4262803505878
 20
-150.3474120717881
 10
125.4262803505878
 20
-150.3474120717881
 10
125.580620628327
 20
-150.3577473582439
 10
125.7666557845305
 20
-150.3577473582439
 10
125.931675858274
 20
-150.3577473582439
 10
125.931675858274
 20
-150.3577473582439
 10
126.0777479068486
 20
-150.3577473582439
 10
126.0777479068486
 20
-150.3577473582439
 10
126.0777479068486
 20
-150.3577473582439
 10
126.0777479068486
 20
-150.2392360735513
 10
126.0777479068486
 20
-150.2392360735513
 10
126.0777479068486
 20
-150.2392360735513
 10
125.9464897688606
 20
-150.2392360735513
 10
125.9464897688606
 20
-150.2392360735513
 10
125.8999809798097
 20
-150.2392360735513
 10
125.6970648557285
 20
-150.2478488122644
 10
125.6546901812599
 20
-150.2478488122644
 10
125.4514295476302
 20
-150.2519829268467
 10
125.3752929374062
 20
-150.2540499841378
 10
125.297089269891
 20
-150.256117041429
 10
125.297089269891
 20
-150.256117041429
 10
125.297089269891
 20
-150.0721489425167
 10
125.297089269891
 20
-150.0721489425167
 10
125.4114664400013
 20
-150.0807616812298
 10
125.455908171761
 20
-150.0807616812298
 10
125.8386582801723
 20
-150.0890299103944
 10
125.7752685232436
 20
-149.9939452750015
 10
125.7477077593617
 20
-149.9663845111195
 10
125.7118787663151
 20
-149.9305555180729
 10
125.7118787663151
 20
-149.9305555180729
 10
125.8872341265143
 20
-149.8478732264269
 10
125.8872341265143
 20
-149.8478732264269
 10
125.9275417436917
 20
-149.884046729022
 10
125.9719834754514
 20
-149.9264214034906
 10
126.0460530283843
 20
-150.0363199494701
 10
126.0460530283843
 20
-150.0363199494701
 10
125.931675858274
 20
-150.0910969676855
 10
125.931675858274
 20
-150.0910969676855
 10
125.931675858274
 20
-150.0910969676855
 10
125.9423556542783
 20
-150.0910969676855
 10
125.9423556542783
 20
-150.0910969676855
 10
125.9423556542783
 20
-150.0910969676855
 10
126.4649766393907
 20
-150.0910969676855
 10
126.4649766393907
 20
-150.0910969676855
 10
126.4649766393907
 20
-150.0910969676855
 10
126.3695474944493
 20
-150.0469997454743
 10
126.3695474944493
 20
-150.0469997454743
 10
126.3971082583313
 20
-150.0087591855881
 10
126.4542968433864
 20
-149.9284884607817
 10
126.469110753973
 20
-149.8544189078489
 10
126.469110753973
 20
-149.8544189078489
 10
126.6827066740585
 20
-149.9178086647775
 10
126.6827066740585
 20
-149.9178086647775
 10
126.6913194127716
 20
-149.9198757220686
 10
126.7123344952316
 20
-149.9305555180729
 10
126.7123344952316
 20
-149.9515706005329
 10
126.7123344952316
 20
-149.9898111604192
 10
126.6468776810119
 20
-149.9898111604192
 10
126.627929655843
 20
-149.9898111604192
 10
126.6172498598387
 20
-150.0087591855881
 10
126.593823210539
 20
-150.0490668027655
 10
126.5641953893659
 20
-150.0890299103944
 10
126.9641709752034
 20
-150.0828287385209
 10
126.9937987963765
 20
-150.0807616812298
 10
127.0699354066006
 20
-150.0742159998078
 10
127.0699354066006
 20
-150.0742159998078
 10
127.0699354066006
 20
-150.256117041429
 10
127.0699354066006
 20
-150.256117041429
 10
127.0509873814317
 20
-150.256117041429
 10
127.0254936748408
 20
-150.2540499841378
 10
126.8053520733334
 20
-150.2457817549732
 10
126.7547091697002
 20
-150.2437146976821
 10
126.5345675681927
 20
-150.2392360735513
 10
126.490125836433
 20
-150.2392360735513
 10
126.490125836433
 20
-150.2392360735513
 10
126.2744628590564
 20
-150.2392360735513
 10
126.2744628590564
 20
-150.2392360735513
 10
126.2744628590564
 20
-150.2392360735513
 10
126.2744628590564
 20
-150.3577473582439
 10
126.2744628590564
 20
-150.3577473582439
 10
126.2744628590564
 20
-150.3577473582439
 10
126.448095671513
 20
-150.3577473582439
 10
126.448095671513
 20
-150.3577473582439
 10
126.6107041784167
 20
-150.3577473582439
 10
126.8012179587511
 20
-150.3577473582439
 10
126.9579698033299
 20
-150.3474120717881
 10
126.9579698033299
 20
-150.3474120717881
 10
126.9579698033299
 20
-150.518633317405
 10
126.9579698033299
 20
-150.518633317405
 10
126.7485079978267
 20
-150.5100205786919
 10
126.551793045619
 20
-150.5079535214008
 10
126.448095671513
 20
-150.5079535214008
 10
126.448095671513
 20
-150.5079535214008
 10
126.2744628590564
 20
-150.5079535214008
 10
126.2744628590564
 20
-150.5079535214008
 10
126.2744628590564
 20
-150.5079535214008
 10
126.2744628590564
 20
-150.6157850100891
 10
126.2744628590564
 20
-150.6157850100891
 10
126.2744628590564
 20
-150.6157850100891
 10
126.5049397470196
 20
-150.6157850100891
 10
126.5049397470196
 20
-150.6157850100891
 10
126.6382649422987
 20
-150.6157850100891
 10
126.9259304153171
 20
-150.6116508955068
 10
127.1353922208203
 20
-150.6054497236333
 10
127.1353922208203
 20
-150.6054497236333
 10
127.1353922208203
 20
-150.7828721411237
 10
127.1353922208203
 20
-150.7828721411237
 10
126.9431558927434
 20
-150.7766709692503
 10
126.6299967131341
 20
-150.772536854668
 10
126.5049397470196
 20
-150.772536854668
 97
        0
 97
        1
330
150
 75
     2
 76
     1
 98
        1
 10
0.0
 20
0.0
450
        0
451
        0
460
0.0
461
0.0
452
        0
462
0.0
453
        0
470

  0
SPLINE
  5
152
330
145
100
AcDbEntity
  8
レイヤー 1
100
AcDbSpline
210
0.0
220
0.0
230
1.0
 70
     9
 71
     3
 72
    29
 73
    25
 74
     0
 42
0.0000000001
 43
0.0000000001
 40
0.0
 40
0.0
 40
0.0
 40
0.0
 40
1.0
 40
1.0
 40
1.0
 40
2.0
 40
2.0
 40
2.0
 40
3.0
 40
3.0
 40
3.0
 40
4.0
 40
4.0
 40
4.0
 40
5.0
 40
5.0
 40
5.0
 40
6.0
 40
6.0
 40
6.0
 40
7.0
 40
7.0
 40
7.0
 40
8.0
 40
8.0
 40
8.0
 40
8.0
 10
128.3804497291896
 20
-150.2202880483824
 30
0.0
 10
128.3804497291896
 20
-150.2202880483824
 30
0.0
 10
128.0273274419515
 20
-150.2202880483824
 30
0.0
 10
128.0273274419515
 20
-150.2202880483824
 30
0.0
 10
127.9150173291323
 20
-150.2202880483824
 30
0.0
 10
127.7754909619797
 20
-150.2268337298044
 30
0.0
 10
127.6676594732914
 20
-150.2392360735513
 30
0.0
 10
127.6676594732914
 20
-150.2392360735513
 30
0.0
 10
127.6676594732914
 20
-150.0046250710058
 30
0.0
 10
127.6676594732914
 20
-150.0046250710058
 30
0.0
 10
127.786170757984
 20
-150.0194389815924
 30
0.0
 10
127.9701388568963
 20
-150.0235730961746
 30
0.0
 10
128.0273274419515
 20
-150.0235730961746
 30
0.0
 10
128.0273274419515
 20
-150.0235730961746
 30
0.0
 10
128.3804497291896
 20
-150.0235730961746
 30
0.0
 10
128.3804497291896
 20
-150.0235730961746
 30
0.0
 10
128.399742263907
 20
-150.0235730961746
 30
0.0
 10
128.6026583879882
 20
-150.0235730961746
 30
0.0
 10
128.744251812432
 20
-150.0046250710058
 30
0.0
 10
128.744251812432
 20
-150.0046250710058
 30
0.0
 10
128.744251812432
 20
-150.2392360735513
 30
0.0
 10
128.744251812432
 20
-150.2392360735513
 30
0.0
 10
128.5878444774016
 20
-150.2202880483824
 30
0.0
 10
128.3973306970673
 20
-150.2202880483824
 30
0.0
 10
128.3804497291896
 20
-150.2202880483824
 30
0.0
  0
SPLINE
  5
153
330
145
100
AcDbEntity
  8
レイヤー 1
100
AcDbSpline
210
0.0
220
0.0
230
1.0
 70
     9
 71
     3
 72
    47
 73
    43
 74
     0
 42
0.0000000001
 43
0.0000000001
 40
0.0
 40
0.0
 40
0.0
 40
0.0
 40
1.0
 40
1.0
 40
1.0
 40
2.0
 40
2.0
 40
2.0
 40
3.0
 40
3.0
 40
3.0
 40
4.0
 40
4.0
 40
4.0
 40
5.0
 40
5.0
 40
5.0
 40
6.0
 40
6.0
 40
6.0
 40
7.0
 40
7.0
 40
7.0
 40
8.0
 40
8.0
 40
8.0
 40
9.0
 40
9.0
 40
9.0
 40
10.0
 40
10.0
 40
10.0
 40
11.0
 40
11.0
 40
11.0
 40
12.0
 40
12.0
 40
12.0
 40
13.0
 40
13.0
 40
13.0
 40
14.0
 40
14.0
 40
14.0
 40
14.0
 10
128.4820800460044
 20
-150.7491102053682
 30
0.0
 10
128.4820800460044
 20
-150.7491102053682
 30
0.0
 10
128.3804497291896
 20
-150.7491102053682
 30
0.0
 10
128.3804497291896
 20
-150.7491102053682
 30
0.0
 10
128.3804497291896
 20
-150.8359266115966
 30
0.0
 10
128.3594346467296
 20
-151.2252224014298
 30
0.0
 10
128.1627196945218
 20
-151.4450194933887
 30
0.0
 10
128.0104464740738
 20
-151.614518191263
 30
0.0
 10
127.8030517258617
 20
-151.6841091200651
 30
0.0
 10
127.7183023769246
 20
-151.7116698839471
 30
0.0
 10
127.7183023769246
 20
-151.7116698839471
 30
0.0
 10
127.523654482008
 20
-151.5445827529124
 30
0.0
 10
127.523654482008
 20
-151.5445827529124
 30
0.0
 10
127.6211506842405
 20
-151.531835899617
 30
0.0
 10
127.7965060444397
 20
-151.5087537598659
 30
0.0
 10
127.9849527674829
 20
-151.3203070368227
 30
0.0
 10
128.0590223204158
 20
-151.248304541181
 30
0.0
 10
128.1627196945218
 20
-151.1087781740283
 30
0.0
 10
128.1627196945218
 20
-150.7491102053682
 30
0.0
 10
128.1627196945218
 20
-150.7491102053682
 30
0.0
 10
127.9318982970101
 20
-150.7491102053682
 30
0.0
 10
127.9318982970101
 20
-150.7491102053682
 30
0.0
 10
127.7458631408066
 20
-150.7491102053682
 30
0.0
 10
127.5598279846031
 20
-150.7535888294991
 30
0.0
 10
127.3734483188511
 20
-150.7684027400857
 30
0.0
 10
127.3734483188511
 20
-150.7684027400857
 30
0.0
 10
127.3734483188511
 20
-150.5482611385782
 30
0.0
 10
127.3734483188511
 20
-150.5482611385782
 30
0.0
 10
127.5618950418942
 20
-150.5630750491647
 30
0.0
 10
127.8474934576214
 20
-150.5672091637471
 30
0.0
 10
127.9318982970101
 20
-150.5672091637471
 30
0.0
 10
127.9318982970101
 20
-150.5672091637471
 30
0.0
 10
128.4820800460044
 20
-150.5672091637471
 30
0.0
 10
128.4820800460044
 20
-150.5672091637471
 30
0.0
 10
128.5010280711733
 20
-150.5672091637471
 30
0.0
 10
128.8183213653649
 20
-150.5672091637471
 30
0.0
 10
129.0470757055854
 20
-150.5482611385782
 30
0.0
 10
129.0470757055854
 20
-150.5482611385782
 30
0.0
 10
129.0470757055854
 20
-150.7684027400857
 30
0.0
 10
129.0470757055854
 20
-150.7684027400857
 30
0.0
 10
128.8586289825422
 20
-150.7535888294991
 30
0.0
 10
128.6705267690476
 20
-150.7491102053682
 30
0.0
 10
128.4820800460044
 20
-150.7491102053682
 30
0.0
  0
HATCH
  5
154
330
145
100
AcDbEntity
  8
レイヤー 1
 62
    18
420
        0
440
 33554687
100
AcDbHatch
 10
0.0
 20
0.0
 30
0.0
210
0.0
220
0.0
230
1.0
  2
SOLID
 70
     1
 71
     1
 91
        2
 92
        1
 93
        1
 72
     4
 94
        3
 73
     0
 74
     0
 95
       29
 96
       25
 40
0.0
 40
0.0
 40
0.0
 40
0.0
 40
1.0
 40
1.0
 40
1.0
 40
2.0
 40
2.0
 40
2.0
 40
3.0
 40
3.0
 40
3.0
 40
4.0
 40
4.0
 40
4.0
 40
5.0
 40
5.0
 40
5.0
 40
6.0
 40
6.0
 40
6.0
 40
7.0
 40
7.0
 40
7.0
 40
8.0
 40
8.0
 40
8.0
 40
8.0
 10
128.3804497291896
 20
-150.2202880483824
 10
128.3804497291896
 20
-150.2202880483824
 10
128.0273274419515
 20
-150.2202880483824
 10
128.0273274419515
 20
-150.2202880483824
 10
127.9150173291323
 20
-150.2202880483824
 10
127.7754909619797
 20
-150.2268337298044
 10
127.6676594732914
 20
-150.2392360735513
 10
127.6676594732914
 20
-150.2392360735513
 10
127.6676594732914
 20
-150.0046250710058
 10
127.6676594732914
 20
-150.0046250710058
 10
127.786170757984
 20
-150.0194389815924
 10
127.9701388568963
 20
-150.0235730961746
 10
128.0273274419515
 20
-150.0235730961746
 10
128.0273274419515
 20
-150.0235730961746
 10
128.3804497291896
 20
-150.0235730961746
 10
128.3804497291896
 20
-150.0235730961746
 10
128.399742263907
 20
-150.0235730961746
 10
128.6026583879882
 20
-150.0235730961746
 10
128.744251812432
 20
-150.0046250710058
 10
128.744251812432
 20
-150.0046250710058
 10
128.744251812432
 20
-150.2392360735513
 10
128.744251812432
 20
-150.2392360735513
 10
128.5878444774016
 20
-150.2202880483824
 10
128.3973306970673
 20
-150.2202880483824
 10
128.3804497291896
 20
-150.2202880483824
 97
        0
 97
        1
330
152
 92
        1
 93
        1
 72
     4
 94
        3
 73
     0
 74
     0
 95
       47
 96
       43
 40
0.0
 40
0.0
 40
0.0
 40
0.0
 40
1.0
 40
1.0
 40
1.0
 40
2.0
 40
2.0
 40
2.0
 40
3.0
 40
3.0
 40
3.0
 40
4.0
 40
4.0
 40
4.0
 40
5.0
 40
5.0
 40
5.0
 40
6.0
 40
6.0
 40
6.0
 40
7.0
 40
7.0
 40
7.0
 40
8.0
 40
8.0
 40
8.0
 40
9.0
 40
9.0
 40
9.0
 40
10.0
 40
10.0
 40
10.0
 40
11.0
 40
11.0
 40
11.0
 40
12.0
 40
12.0
 40
12.0
 40
13.0
 40
13.0
 40
13.0
 40
14.0
 40
14.0
 40
14.0
 40
14.0
 10
128.4820800460044
 20
-150.7491102053682
 10
128.4820800460044
 20
-150.7491102053682
 10
128.3804497291896
 20
-150.7491102053682
 10
128.3804497291896
 20
-150.7491102053682
 10
128.3804497291896
 20
-150.8359266115966
 10
128.3594346467296
 20
-151.2252224014298
 10
128.1627196945218
 20
-151.4450194933887
 10
128.0104464740738
 20
-151.614518191263
 10
127.8030517258617
 20
-151.6841091200651
 10
127.7183023769246
 20
-151.7116698839471
 10
127.7183023769246
 20
-151.7116698839471
 10
127.523654482008
 20
-151.5445827529124
 10
127.523654482008
 20
-151.5445827529124
 10
127.6211506842405
 20
-151.531835899617
 10
127.7965060444397
 20
-151.5087537598659
 10
127.9849527674829
 20
-151.3203070368227
 10
128.0590223204158
 20
-151.248304541181
 10
128.1627196945218
 20
-151.1087781740283
 10
128.1627196945218
 20
-150.7491102053682
 10
128.1627196945218
 20
-150.7491102053682
 10
127.9318982970101
 20
-150.7491102053682
 10
127.9318982970101
 20
-150.7491102053682
 10
127.7458631408066
 20
-150.7491102053682
 10
127.5598279846031
 20
-150.7535888294991
 10
127.3734483188511
 20
-150.7684027400857
 10
127.3734483188511
 20
-150.7684027400857
 10
127.3734483188511
 20
-150.5482611385782
 10
127.3734483188511
 20
-150.5482611385782
 10
127.5618950418942
 20
-150.5630750491647
 10
127.8474934576214
 20
-150.5672091637471
 10
127.9318982970101
 20
-150.5672091637471
 10
127.9318982970101
 20
-150.5672091637471
 10
128.4820800460044
 20
-150.5672091637471
 10
128.4820800460044
 20
-150.5672091637471
 10
128.5010280711733
 20
-150.5672091637471
 10
128.8183213653649
 20
-150.5672091637471
 10
129.0470757055854
 20
-150.5482611385782
 10
129.0470757055854
 20
-150.5482611385782
 10
129.0470757055854
 20
-150.7684027400857
 10
129.0470757055854
 20
-150.7684027400857
 10
128.8586289825422
 20
-150.7535888294991
 10
128.6705267690476
 20
-150.7491102053682
 10
128.4820800460044
 20
-150.7491102053682
 97
        0
 97
        1
330
153
 75
     2
 76
     1
 98
        1
 10
0.0
 20
0.0
450
        0
451
        0
460
0.0
461
0.0
452
        0
462
0.0
453
        0
470

  0
SPLINE
  5
155
330
145
100
AcDbEntity
  8
レイヤー 1
100
AcDbSpline
210
0.0
220
0.0
230
1.0
 70
     9
 71
     3
 72
    29
 73
    25
 74
     0
 42
0.0000000001
 43
0.0000000001
 40
0.0
 40
0.0
 40
0.0
 40
0.0
 40
1.0
 40
1.0
 40
1.0
 40
2.0
 40
2.0
 40
2.0
 40
3.0
 40
3.0
 40
3.0
 40
4.0
 40
4.0
 40
4.0
 40
5.0
 40
5.0
 40
5.0
 40
6.0
 40
6.0
 40
6.0
 40
7.0
 40
7.0
 40
7.0
 40
8.0
 40
8.0
 40
8.0
 40
8.0
 10
130.3279622070013
 20
-150.9120632218206
 30
0.0
 10
130.3279622070013
 20
-150.9120632218206
 30
0.0
 10
129.8435817817752
 20
-150.9120632218206
 30
0.0
 10
129.8435817817752
 20
-150.9120632218206
 30
0.0
 10
129.8160210178932
 20
-150.9120632218206
 30
0.0
 10
129.4987277237017
 20
-150.9120632218206
 30
0.0
 10
129.2871988609074
 20
-150.9375569284114
 30
0.0
 10
129.2871988609074
 20
-150.9375569284114
 30
0.0
 10
129.2871988609074
 20
-150.7067355308997
 30
0.0
 10
129.2871988609074
 20
-150.7067355308997
 30
0.0
 10
129.4456732532289
 20
-150.7301621801994
 30
0.0
 10
129.6361870335632
 20
-150.7322292374905
 30
0.0
 10
129.8435817817752
 20
-150.7322292374905
 30
0.0
 10
129.8435817817752
 20
-150.7322292374905
 30
0.0
 10
130.3279622070013
 20
-150.7322292374905
 30
0.0
 10
130.3279622070013
 20
-150.7322292374905
 30
0.0
 10
130.5139973632048
 20
-150.7322292374905
 30
0.0
 10
130.7000325194083
 20
-150.7301621801994
 30
0.0
 10
130.8843451278692
 20
-150.7067355308997
 30
0.0
 10
130.8843451278692
 20
-150.7067355308997
 30
0.0
 10
130.8843451278692
 20
-150.9375569284114
 30
0.0
 10
130.8843451278692
 20
-150.9375569284114
 30
0.0
 10
130.7000325194083
 20
-150.9141302791117
 30
0.0
 10
130.4526746635674
 20
-150.9120632218206
 30
0.0
 10
130.3279622070013
 20
-150.9120632218206
 30
0.0
  0
HATCH
  5
156
330
145
100
AcDbEntity
  8
レイヤー 1
 62
    18
420
        0
440
 33554687
100
AcDbHatch
 10
0.0
 20
0.0
 30
0.0
210
0.0
220
0.0
230
1.0
  2
SOLID
 70
     1
 71
     1
 91
        1
 92
        1
 93
        1
 72
     4
 94
        3
 73
     0
 74
     0
 95
       29
 96
       25
 40
0.0
 40
0.0
 40
0.0
 40
0.0
 40
1.0
 40
1.0
 40
1.0
 40
2.0
 40
2.0
 40
2.0
 40
3.0
 40
3.0
 40
3.0
 40
4.0
 40
4.0
 40
4.0
 40
5.0
 40
5.0
 40
5.0
 40
6.0
 40
6.0
 40
6.0
 40
7.0
 40
7.0
 40
7.0
 40
8.0
 40
8.0
 40
8.0
 40
8.0
 10
130.3279622070013
 20
-150.9120632218206
 10
130.3279622070013
 20
-150.9120632218206
 10
129.8435817817752
 20
-150.9120632218206
 10
129.8435817817752
 20
-150.9120632218206
 10
129.8160210178932
 20
-150.9120632218206
 10
129.4987277237017
 20
-150.9120632218206
 10
129.2871988609074
 20
-150.9375569284114
 10
129.2871988609074
 20
-150.9375569284114
 10
129.2871988609074
 20
-150.7067355308997
 10
129.2871988609074
 20
-150.7067355308997
 10
129.4456732532289
 20
-150.7301621801994
 10
129.6361870335632
 20
-150.7322292374905
 10
129.8435817817752
 20
-150.7322292374905
 10
129.8435817817752
 20
-150.7322292374905
 10
130.3279622070013
 20
-150.7322292374905
 10
130.3279622070013
 20
-150.7322292374905
 10
130.5139973632048
 20
-150.7322292374905
 10
130.7000325194083
 20
-150.7301621801994
 10
130.8843451278692
 20
-150.7067355308997
 10
130.8843451278692
 20
-150.7067355308997
 10
130.8843451278692
 20
-150.9375569284114
 10
130.8843451278692
 20
-150.9375569284114
 10
130.7000325194083
 20
-150.9141302791117
 10
130.4526746635674
 20
-150.9120632218206
 10
130.3279622070013
 20
-150.9120632218206
 97
        0
 97
        1
330
155
 75
     2
 76
     1
 98
        1
 10
0.0
 20
0.0
450
        0
451
        0
460
0.0
461
0.0
452
        0
462
0.0
453
        0
470

  0
SPLINE
  5
157
330
145
100
AcDbEntity
  8
レイヤー 1
100
AcDbSpline
210
0.0
220
0.0
230
1.0
 70
     9
 71
     3
 72
    47
 73
    43
 74
     0
 42
0.0000000001
 43
0.0000000001
 40
0.0
 40
0.0
 40
0.0
 40
0.0
 40
1.0
 40
1.0
 40
1.0
 40
2.0
 40
2.0
 40
2.0
 40
3.0
 40
3.0
 40
3.0
 40
4.0
 40
4.0
 40
4.0
 40
5.0
 40
5.0
 40
5.0
 40
6.0
 40
6.0
 40
6.0
 40
7.0
 40
7.0
 40
7.0
 40
8.0
 40
8.0
 40
8.0
 40
9.0
 40
9.0
 40
9.0
 40
10.0
 40
10.0
 40
10.0
 40
11.0
 40
11.0
 40
11.0
 40
12.0
 40
12.0
 40
12.0
 40
13.0
 40
13.0
 40
13.0
 40
14.0
 40
14.0
 40
14.0
 40
14.0
 10
132.5479817376963
 20
-150.317784250615
 30
0.0
 10
132.4783908088943
 20
-150.5968369849202
 30
0.0
 10
132.4019096891217
 20
-150.9013834258163
 30
0.0
 10
132.089095019061
 20
-151.2334906305944
 30
0.0
 10
131.8520724496759
 20
-151.483260053275
 30
0.0
 10
131.6067816511261
 20
-151.5828233127987
 30
0.0
 10
131.5010172197289
 20
-151.6248534777188
 30
0.0
 10
131.5010172197289
 20
-151.6248534777188
 30
0.0
 10
131.3063693248123
 20
-151.4429524360976
 30
0.0
 10
131.3063693248123
 20
-151.4429524360976
 30
0.0
 10
131.4924044810158
 20
-151.3964436470467
 30
0.0
 10
131.854139506967
 20
-151.3034260689449
 30
0.0
 10
132.1504177186985
 20
-150.8083658477145
 30
0.0
 10
132.3109591683111
 20
-150.5417154571562
 30
0.0
 10
132.3237060216065
 20
-150.3684271542481
 30
0.0
 10
132.3323187603197
 20
-150.2774766334376
 30
0.0
 10
132.3323187603197
 20
-150.2774766334376
 30
0.0
 10
131.826578743085
 20
-150.2774766334376
 30
0.0
 10
131.826578743085
 20
-150.2774766334376
 30
0.0
 10
131.7080674583924
 20
-150.2774766334376
 30
0.0
 10
131.2870767900949
 20
-150.2964246586064
 30
0.0
 10
131.1348035696468
 20
-150.3071044546107
 30
0.0
 10
131.1348035696468
 20
-150.3071044546107
 30
0.0
 10
131.1348035696468
 20
-150.0976426491075
 30
0.0
 10
131.1348035696468
 20
-150.0976426491075
 30
0.0
 10
131.2767415036391
 20
-150.1103895024029
 30
0.0
 10
131.5537271806532
 20
-150.1145236169852
 30
0.0
 10
131.6701714080547
 20
-150.1145236169852
 30
0.0
 10
131.6701714080547
 20
-150.1145236169852
 30
0.0
 10
132.0253607525839
 20
-150.1145236169852
 30
0.0
 10
132.0253607525839
 20
-150.1145236169852
 30
0.0
 10
132.0529215164659
 20
-150.1145236169852
 30
0.0
 10
132.2138074756271
 20
-150.1124565596941
 30
0.0
 10
132.3237060216065
 20
-150.0976426491075
 30
0.0
 10
132.3808946066617
 20
-150.0910969676855
 30
0.0
 10
132.3977755745394
 20
-150.0721489425167
 30
0.0
 10
132.4212022238391
 20
-150.0490668027655
 30
0.0
 10
132.4212022238391
 20
-150.0490668027655
 30
0.0
 10
132.6093044373338
 20
-150.1992729659224
 30
0.0
 10
132.6093044373338
 20
-150.1992729659224
 30
0.0
 10
132.5944905267472
 20
-150.2289007870955
 30
0.0
 10
132.5841552402915
 20
-150.2478488122644
 30
0.0
 10
132.5479817376963
 20
-150.317784250615
 30
0.0
  0
HATCH
  5
158
330
145
100
AcDbEntity
  8
レイヤー 1
 62
    18
420
        0
440
 33554687
100
AcDbHatch
 10
0.0
 20
0.0
 30
0.0
210
0.0
220
0.0
230
1.0
  2
SOLID
 70
     1
 71
     1
 91
        1
 92
        1
 93
        1
 72
     4
 94
        3
 73
     0
 74
     0
 95
       47
 96
       43
 40
0.0
 40
0.0
 40
0.0
 40
0.0
 40
1.0
 40
1.0
 40
1.0
 40
2.0
 40
2.0
 40
2.0
 40
3.0
 40
3.0
 40
3.0
 40
4.0
 40
4.0
 40
4.0
 40
5.0
 40
5.0
 40
5.0
 40
6.0
 40
6.0
 40
6.0
 40
7.0
 40
7.0
 40
7.0
 40
8.0
 40
8.0
 40
8.0
 40
9.0
 40
9.0
 40
9.0
 40
10.0
 40
10.0
 40
10.0
 40
11.0
 40
11.0
 40
11.0
 40
12.0
 40
12.0
 40
12.0
 40
13.0
 40
13.0
 40
13.0
 40
14.0
 40
14.0
 40
14.0
 40
14.0
 10
132.5479817376963
 20
-150.317784250615
 10
132.4783908088943
 20
-150.5968369849202
 10
132.4019096891217
 20
-150.9013834258163
 10
132.089095019061
 20
-151.2334906305944
 10
131.8520724496759
 20
-151.483260053275
 10
131.6067816511261
 20
-151.5828233127987
 10
131.5010172197289
 20
-151.6248534777188
 10
131.5010172197289
 20
-151.6248534777188
 10
131.3063693248123
 20
-151.4429524360976
 10
131.3063693248123
 20
-151.4429524360976
 10
131.4924044810158
 20
-151.3964436470467
 10
131.854139506967
 20
-151.3034260689449
 10
132.1504177186985
 20
-150.8083658477145
 10
132.3109591683111
 20
-150.5417154571562
 10
132.3237060216065
 20
-150.3684271542481
 10
132.3323187603197
 20
-150.2774766334376
 10
132.3323187603197
 20
-150.2774766334376
 10
131.826578743085
 20
-150.2774766334376
 10
131.826578743085
 20
-150.2774766334376
 10
131.7080674583924
 20
-150.2774766334376
 10
131.2870767900949
 20
-150.2964246586064
 10
131.1348035696468
 20
-150.3071044546107
 10
131.1348035696468
 20
-150.3071044546107
 10
131.1348035696468
 20
-150.0976426491075
 10
131.1348035696468
 20
-150.0976426491075
 10
131.2767415036391
 20
-150.1103895024029
 10
131.5537271806532
 20
-150.1145236169852
 10
131.6701714080547
 20
-150.1145236169852
 10
131.6701714080547
 20
-150.1145236169852
 10
132.0253607525839
 20
-150.1145236169852
 10
132.0253607525839
 20
-150.1145236169852
 10
132.0529215164659
 20
-150.1145236169852
 10
132.2138074756271
 20
-150.1124565596941
 10
132.3237060216065
 20
-150.0976426491075
 10
132.3808946066617
 20
-150.0910969676855
 10
132.3977755745394
 20
-150.0721489425167
 10
132.4212022238391
 20
-150.0490668027655
 10
132.4212022238391
 20
-150.0490668027655
 10
132.6093044373338
 20
-150.1992729659224
 10
132.6093044373338
 20
-150.1992729659224
 10
132.5944905267472
 20
-150.2289007870955
 10
132.5841552402915
 20
-150.2478488122644
 10
132.5479817376963
 20
-150.317784250615
 97
        0
 97
        1
330
157
 75
     2
 76
     1
 98
        1
 10
0.0
 20
0.0
450
        0
451
        0
460
0.0
461
0.0
452
        0
462
0.0
453
        0
470

  0
SPLINE
  5
159
330
145
100
AcDbEntity
  8
レイヤー 1
100
AcDbSpline
210
0.0
220
0.0
230
1.0
 70
    11
 71
     3
 72
    17
 73
    13
 74
     0
 42
0.0000000001
 43
0.0000000001
 40
0.0
 40
0.0
 40
0.0
 40
0.0
 40
1.0
 40
1.0
 40
1.0
 40
2.0
 40
2.0
 40
2.0
 40
3.0
 40
3.0
 40
3.0
 40
4.0
 40
4.0
 40
4.0
 40
4.0
 10
132.9383110561751
 20
-150.0997097063987
 30
0.0
 10
132.9383110561751
 20
-150.158965348745
 30
0.0
 10
132.984819845226
 20
-150.2054741377958
 30
0.0
 10
133.0440754875723
 20
-150.2054741377958
 30
0.0
 10
133.1033311299186
 20
-150.2054741377958
 30
0.0
 10
133.1519069762606
 20
-150.158965348745
 30
0.0
 10
133.1519069762606
 20
-150.0997097063987
 30
0.0
 10
133.1519069762606
 20
-150.0404540640524
 30
0.0
 10
133.1033311299186
 20
-149.9918782177103
 30
0.0
 10
133.0440754875723
 20
-149.9918782177103
 30
0.0
 10
132.984819845226
 20
-149.9918782177103
 30
0.0
 10
132.9383110561751
 20
-150.0404540640524
 30
0.0
 10
132.9383110561751
 20
-150.0997097063987
 30
0.0
  0
SPLINE
  5
15A
330
145
100
AcDbEntity
  8
レイヤー 1
100
AcDbSpline
210
0.0
220
0.0
230
1.0
 70
     9
 71
     3
 72
    17
 73
    13
 74
     0
 42
0.0000000001
 43
0.0000000001
 40
0.0
 40
0.0
 40
0.0
 40
0.0
 40
1.0
 40
1.0
 40
1.0
 40
2.0
 40
2.0
 40
2.0
 40
3.0
 40
3.0
 40
3.0
 40
4.0
 40
4.0
 40
4.0
 40
4.0
 10
133.2535372930755
 20
-150.0997097063987
 30
0.0
 10
133.2535372930755
 20
-150.214086876509
 30
0.0
 10
133.1605197149737
 20
-150.3091715119019
 30
0.0
 10
133.0440754875723
 20
-150.3091715119019
 30
0.0
 10
132.929698317462
 20
-150.3091715119019
 30
0.0
 10
132.8346136820691
 20
-150.214086876509
 30
0.0
 10
132.8346136820691
 20
-150.0997097063987
 30
0.0
 10
132.8346136820691
 20
-149.9832654789972
 30
0.0
 10
132.929698317462
 20
-149.8902479008955
 30
0.0
 10
133.0440754875723
 20
-149.8902479008955
 30
0.0
 10
133.1584526576826
 20
-149.8902479008955
 30
0.0
 10
133.2535372930755
 20
-149.9832654789972
 30
0.0
 10
133.2535372930755
 20
-150.0997097063987
 30
0.0
  0
HATCH
  5
15B
330
145
100
AcDbEntity
  8
レイヤー 1
 62
    18
420
        0
440
 33554687
100
AcDbHatch
 10
0.0
 20
0.0
 30
0.0
210
0.0
220
0.0
230
1.0
  2
SOLID
 70
     1
 71
     1
 91
        2
 92
        1
 93
        1
 72
     4
 94
        3
 73
     0
 74
     0
 95
       17
 96
       13
 40
0.0
 40
0.0
 40
0.0
 40
0.0
 40
1.0
 40
1.0
 40
1.0
 40
2.0
 40
2.0
 40
2.0
 40
3.0
 40
3.0
 40
3.0
 40
4.0
 40
4.0
 40
4.0
 40
4.0
 10
132.9383110561751
 20
-150.0997097063987
 10
132.9383110561751
 20
-150.158965348745
 10
132.984819845226
 20
-150.2054741377958
 10
133.0440754875723
 20
-150.2054741377958
 10
133.1033311299186
 20
-150.2054741377958
 10
133.1519069762606
 20
-150.158965348745
 10
133.1519069762606
 20
-150.0997097063987
 10
133.1519069762606
 20
-150.0404540640524
 10
133.1033311299186
 20
-149.9918782177103
 10
133.0440754875723
 20
-149.9918782177103
 10
132.984819845226
 20
-149.9918782177103
 10
132.9383110561751
 20
-150.0404540640524
 10
132.9383110561751
 20
-150.0997097063987
 97
        0
 97
        1
330
159
 92
        1
 93
        1
 72
     4
 94
        3
 73
     0
 74
     0
 95
       17
 96
       13
 40
0.0
 40
0.0
 40
0.0
 40
0.0
 40
1.0
 40
1.0
 40
1.0
 40
2.0
 40
2.0
 40
2.0
 40
3.0
 40
3.0
 40
3.0
 40
4.0
 40
4.0
 40
4.0
 40
4.0
 10
133.2535372930755
 20
-150.0997097063987
 10
133.2535372930755
 20
-150.214086876509
 10
133.1605197149737
 20
-150.3091715119019
 10
133.0440754875723
 20
-150.3091715119019
 10
132.929698317462
 20
-150.3091715119019
 10
132.8346136820691
 20
-150.214086876509
 10
132.8346136820691
 20
-150.0997097063987
 10
132.8346136820691
 20
-149.9832654789972
 10
132.929698317462
 20
-149.8902479008955
 10
133.0440754875723
 20
-149.8902479008955
 10
133.1584526576826
 20
-149.8902479008955
 10
133.2535372930755
 20
-149.9832654789972
 10
133.2535372930755
 20
-150.0997097063987
 97
        0
 97
        1
330
15A
 75
     2
 76
     1
 98
        1
 10
0.0
 20
0.0
450
        0
451
        0
460
0.0
461
0.0
452
        0
462
0.0
453
        0
470

  0
ENDBLK
  5
148
330
145
100
AcDbEntity
  8
0
100
AcDbBlockEnd
  0
ENDSEC
  0
SECTION
  2
ENTITIES
  0
INSERT
  5
7A
330
70
100
AcDbEntity
  8
レイヤー 1
100
AcDbBlockReference
  2
Block_0
 10
0.0
 20
0.0
 30
0.0
  0
INSERT
  5
89
330
70
100
AcDbEntity
  8
レイヤー 1
100
AcDbBlockReference
  2
Block_2
 10
0.0
 20
0.0
 30
0.0
  0
INSERT
  5
95
330
70
100
AcDbEntity
  8
レイヤー 1
100
AcDbBlockReference
  2
Block_4
 10
0.0
 20
0.0
 30
0.0
  0
INSERT
  5
9D
330
70
100
AcDbEntity
  8
レイヤー 1
100
AcDbBlockReference
  2
Block_5
 10
0.0
 20
0.0
 30
0.0
  0
INSERT
  5
A9
330
70
100
AcDbEntity
  8
レイヤー 1
100
AcDbBlockReference
  2
Block_7
 10
0.0
 20
0.0
 30
0.0
  0
INSERT
  5
AF
330
70
100
AcDbEntity
  8
レイヤー 1
100
AcDbBlockReference
  2
Block_8
 10
0.0
 20
0.0
 30
0.0
  0
LINE
  5
BD
330
70
100
AcDbEntity
  8
レイヤー 1
 62
   250
420
  2299925
370
    25
100
AcDbLine
 10
106.5083501108504
 20
-154.4811490706593
 30
0.0
 11
100.0088430544447
 21
-154.4811490706593
 31
0.0
  0
LINE
  5
BE
330
70
100
AcDbEntity
  8
レイヤー 1
 62
   250
420
  2299925
370
    25
100
AcDbLine
 10
80.75867743444623
 20
-145.980897961673
 30
0.0
 11
80.75867743444623
 21
-146.481136850437
 31
0.0
  0
LINE
  5
BF
330
70
100
AcDbEntity
  8
レイヤー 1
 62
   250
420
  2299925
370
    25
100
AcDbLine
 10
100.8494419218881
 20
-146.481136850437
 30
0.0
 11
80.75867743444623
 21
-146.481136850437
 31
0.0
  0
LINE
  5
C0
330
70
100
AcDbEntity
  8
レイヤー 1
 62
   250
420
  2299925
370
    25
100
AcDbLine
 10
105.6257354111455
 20
-153.4807065709094
 30
0.0
 11
100.8914577541495
 21
-153.4807065709094
 31
0.0
  0
LINE
  5
C1
330
70
100
AcDbEntity
  8
レイヤー 1
 62
   250
420
  2299925
370
    25
100
AcDbLine
 10
100.0088430544447
 20
-154.4811490706593
 30
0.0
 11
100.8494419218881
 21
-146.481136850437
 31
0.0
  0
LINE
  5
C2
330
70
100
AcDbEntity
  8
レイヤー 1
 62
   250
420
  2299925
370
    25
100
AcDbLine
 10
100.8914577541495
 20
-153.4807065709094
 30
0.0
 11
101.7596438431114
 21
-145.2188274063082
 31
0.0
  0
LINE
  5
C3
330
70
100
AcDbEntity
  8
レイヤー 1
 62
   250
420
  2299925
370
    25
100
AcDbLine
 10
80.75867743444623
 20
-145.980897961673
 30
0.0
 11
81.27267464355531
 21
-146.3626035171335
 31
0.0
  0
LINE
  5
C4
330
70
100
AcDbEntity
  8
レイヤー 1
 62
   250
420
  2299925
370
    25
100
AcDbLine
 10
81.27267464355531
 20
-146.3626035171335
 30
0.0
 11
81.75809685339336
 21
-145.9450557394597
 31
0.0
  0
LINE
  5
C5
330
70
100
AcDbEntity
  8
レイヤー 1
 62
   250
420
  2299925
370
    25
100
AcDbLine
 10
82.27209406250244
 20
-146.3274668504752
 30
0.0
 11
82.75751627234082
 21
-145.9092487950247
 31
0.0
  0
LINE
  5
C6
330
70
100
AcDbEntity
  8
レイヤー 1
 62
   250
420
  2299925
370
    25
100
AcDbLine
 10
81.75809685339336
 20
-145.9450557394597
 30
0.0
 11
82.27209406250244
 21
-146.3274668504752
 31
0.0
  0
LINE
  5
C7
330
70
100
AcDbEntity
  8
レイヤー 1
 62
   250
420
  2299925
370
    25
100
AcDbLine
 10
82.75751627234082
 20
-145.9092487950247
 30
0.0
 11
83.27151348144957
 21
-146.2916246282619
 31
0.0
  0
LINE
  5
C8
330
70
100
AcDbEntity
  8
レイヤー 1
 62
   250
420
  2299925
370
    25
100
AcDbLine
 10
83.27151348144957
 20
-146.2916246282619
 30
0.0
 11
83.75693569128763
 21
-145.8741121283666
 31
0.0
  0
LINE
  5
C9
330
70
100
AcDbEntity
  8
レイヤー 1
 62
   250
420
  2299925
370
    25
100
AcDbLine
 10
83.75693569128763
 20
-145.8741121283666
 30
0.0
 11
84.2706154004048
 21
-146.2558176838265
 31
0.0
  0
LINE
  5
CA
330
70
100
AcDbEntity
  8
レイヤー 1
 62
   250
420
  2299925
370
    25
100
AcDbLine
 10
84.2706154004048
 20
-146.2558176838265
 30
0.0
 11
84.75635511023476
 21
-145.8382699061534
 31
0.0
  0
LINE
  5
CB
330
70
100
AcDbEntity
  8
レイヤー 1
 62
   250
420
  2299925
370
    25
100
AcDbLine
 10
84.75635511023476
 20
-145.8382699061534
 30
0.0
 11
85.2703875971207
 21
-146.2199754616133
 31
0.0
  0
LINE
  5
CC
330
70
100
AcDbEntity
  8
レイヤー 1
 62
   250
420
  2299925
370
    25
100
AcDbLine
 10
85.2703875971207
 20
-146.2199754616133
 30
0.0
 11
85.75577452918189
 21
-145.8024276839398
 31
0.0
  0
LINE
  5
CD
330
70
100
AcDbEntity
  8
レイヤー 1
 62
   250
420
  2299925
370
    25
100
AcDbLine
 10
85.75577452918189
 20
-145.8024276839398
 30
0.0
 11
86.26980701606782
 21
-146.1841685171779
 31
0.0
  0
LINE
  5
CE
330
70
100
AcDbEntity
  8
レイヤー 1
 62
   250
420
  2299925
370
    25
100
AcDbLine
 10
86.26980701606782
 20
-146.1841685171779
 30
0.0
 11
86.75487644813712
 21
-145.7666207395044
 31
0.0
  0
LINE
  5
CF
330
70
100
AcDbEntity
  8
レイヤー 1
 62
   250
420
  2299925
370
    25
100
AcDbLine
 10
86.75487644813712
 20
-145.7666207395044
 30
0.0
 11
87.26887365724619
 21
-146.1490318505198
 31
0.0
  0
LINE
  5
D0
330
70
100
AcDbEntity
  8
レイヤー 1
 62
   250
420
  2299925
370
    25
100
AcDbLine
 10
87.26887365724619
 20
-146.1490318505198
 30
0.0
 11
87.75429586708424
 21
-145.7307785172911
 31
0.0
  0
LINE
  5
D1
330
70
100
AcDbEntity
  8
レイヤー 1
 62
   250
420
  2299925
370
    25
100
AcDbLine
 10
88.26829307619332
 20
-146.1131896283066
 30
0.0
 11
88.75371528603137
 21
-145.6956418506334
 31
0.0
  0
LINE
  5
D2
330
70
100
AcDbEntity
  8
レイヤー 1
 62
   250
420
  2299925
370
    25
100
AcDbLine
 10
87.75429586708424
 20
-145.7307785172911
 30
0.0
 11
88.26829307619332
 21
-146.1131896283066
 31
0.0
  0
LINE
  5
D3
330
70
100
AcDbEntity
  8
レイヤー 1
 62
   250
420
  2299925
370
    25
100
AcDbLine
 10
88.75371528603137
 20
-145.6956418506334
 30
0.0
 11
89.26771249514045
 21
-146.0773474060933
 31
0.0
  0
LINE
  5
D4
330
70
100
AcDbEntity
  8
レイヤー 1
 62
   250
420
  2299925
370
    25
100
AcDbLine
 10
89.26771249514045
 20
-146.0773474060933
 30
0.0
 11
89.75313470497884
 21
-145.6597996284202
 31
0.0
  0
LINE
  5
D5
330
70
100
AcDbEntity
  8
レイヤー 1
 62
   250
420
  2299925
370
    25
100
AcDbLine
 10
90.26681441409568
 20
-146.0415404616583
 30
0.0
 11
90.75255412392532
 21
-145.6239926839844
 31
0.0
  0
LINE
  5
D6
330
70
100
AcDbEntity
  8
レイヤー 1
 62
   250
420
  2299925
370
    25
100
AcDbLine
 10
89.75313470497884
 20
-145.6597996284202
 30
0.0
 11
90.26681441409568
 21
-146.0415404616583
 31
0.0
  0
LINE
  5
D7
330
70
100
AcDbEntity
  8
レイヤー 1
 62
   250
420
  2299925
370
    25
100
AcDbLine
 10
91.26655133303502
 20
-146.0056982394447
 30
0.0
 11
91.751620765104
 21
-145.5881504617712
 31
0.0
  0
LINE
  5
D8
330
70
100
AcDbEntity
  8
レイヤー 1
 62
   250
420
  2299925
370
    25
100
AcDbLine
 10
90.75255412392532
 20
-145.6239926839844
 30
0.0
 11
91.26655133303502
 21
-146.0056982394447
 31
0.0
  0
LINE
  5
D9
330
70
100
AcDbEntity
  8
レイヤー 1
 62
   250
420
  2299925
370
    25
100
AcDbLine
 10
91.751620765104
 20
-145.5881504617712
 30
0.0
 11
92.26565325198995
 21
-145.970561572787
 31
0.0
  0
LINE
  5
DA
330
70
100
AcDbEntity
  8
レイヤー 1
 62
   250
420
  2299925
370
    25
100
AcDbLine
 10
92.26565325198995
 20
-145.970561572787
 30
0.0
 11
92.7513929618199
 21
-145.5523082395579
 31
0.0
  0
LINE
  5
DB
330
70
100
AcDbEntity
  8
レイヤー 1
 62
   250
420
  2299925
370
    25
100
AcDbLine
 10
92.7513929618199
 20
-145.5523082395579
 30
0.0
 11
93.26436711539951
 21
-145.9347193505734
 31
0.0
  0
LINE
  5
DC
330
70
100
AcDbEntity
  8
レイヤー 1
 62
   250
420
  2299925
370
    25
100
AcDbLine
 10
93.26436711539951
 20
-145.9347193505734
 30
0.0
 11
93.74978932523758
 21
-145.5171715729002
 31
0.0
  0
LINE
  5
DD
330
70
100
AcDbEntity
  8
レイヤー 1
 62
   250
420
  2299925
370
    25
100
AcDbLine
 10
93.74978932523758
 20
-145.5171715729002
 30
0.0
 11
94.26449208988453
 21
-145.898912406138
 31
0.0
  0
LINE
  5
DE
330
70
100
AcDbEntity
  8
レイヤー 1
 62
   250
420
  2299925
370
    25
100
AcDbLine
 10
94.26449208988453
 20
-145.898912406138
 30
0.0
 11
94.7495615219535
 21
-145.4813646284648
 31
0.0
  0
LINE
  5
DF
330
70
100
AcDbEntity
  8
レイヤー 1
 62
   250
420
  2299925
370
    25
100
AcDbLine
 10
94.7495615219535
 20
-145.4813646284648
 30
0.0
 11
95.26355873106256
 21
-145.8630701839247
 31
0.0
  0
LINE
  5
E0
330
70
100
AcDbEntity
  8
レイヤー 1
 62
   250
420
  2299925
370
    25
100
AcDbLine
 10
95.26355873106256
 20
-145.8630701839247
 30
0.0
 11
95.7493337186694
 21
-145.4455224062512
 31
0.0
  0
LINE
  5
E1
330
70
100
AcDbEntity
  8
レイヤー 1
 62
   250
420
  2299925
370
    25
100
AcDbLine
 10
95.7493337186694
 20
-145.4455224062512
 30
0.0
 11
96.26262537224091
 21
-145.8272279617115
 31
0.0
  0
LINE
  5
E2
330
70
100
AcDbEntity
  8
レイヤー 1
 62
   250
420
  2299925
370
    25
100
AcDbLine
 10
96.26262537224091
 20
-145.8272279617115
 30
0.0
 11
96.74840035984775
 21
-145.409680184038
 31
0.0
  0
LINE
  5
E3
330
70
100
AcDbEntity
  8
レイヤー 1
 62
   250
420
  2299925
370
    25
100
AcDbLine
 10
96.74840035984775
 20
-145.409680184038
 30
0.0
 11
97.26239756895681
 21
-145.7920912950537
 31
0.0
  0
LINE
  5
E4
330
70
100
AcDbEntity
  8
レイヤー 1
 62
   250
420
  2299925
370
    25
100
AcDbLine
 10
97.26239756895681
 20
-145.7920912950537
 30
0.0
 11
97.74746700102642
 21
-145.3738732396026
 31
0.0
  0
LINE
  5
E5
330
70
100
AcDbEntity
  8
レイヤー 1
 62
   250
420
  2299925
370
    25
100
AcDbLine
 10
97.74746700102642
 20
-145.3738732396026
 30
0.0
 11
98.26149948791204
 21
-145.756284350618
 31
0.0
  0
LINE
  5
E6
330
70
100
AcDbEntity
  8
レイヤー 1
 62
   250
420
  2299925
370
    25
100
AcDbLine
 10
98.26149948791204
 20
-145.756284350618
 30
0.0
 11
98.74723919774202
 21
-145.3387365729448
 31
0.0
  0
LINE
  5
E7
330
70
100
AcDbEntity
  8
レイヤー 1
 62
   250
420
  2299925
370
    25
100
AcDbLine
 10
98.74723919774202
 20
-145.3387365729448
 30
0.0
 11
99.26123640685108
 21
-145.7204421284048
 31
0.0
  0
LINE
  5
E8
330
70
100
AcDbEntity
  8
レイヤー 1
 62
   250
420
  2299925
370
    25
100
AcDbLine
 10
99.26123640685108
 20
-145.7204421284048
 30
0.0
 11
99.74630583892036
 21
-145.3028943507316
 31
0.0
  0
LINE
  5
E9
330
70
100
AcDbEntity
  8
レイヤー 1
 62
   250
420
  2299925
370
    25
100
AcDbLine
 10
99.74630583892036
 20
-145.3028943507316
 30
0.0
 11
100.2603383258063
 21
-145.6845999061915
 31
0.0
  0
LINE
  5
EA
330
70
100
AcDbEntity
  8
レイヤー 1
 62
   250
420
  2299925
370
    25
100
AcDbLine
 10
100.2603383258063
 20
-145.6845999061915
 30
0.0
 11
100.7460780356359
 21
-145.2670874062959
 31
0.0
  0
LINE
  5
EB
330
70
100
AcDbEntity
  8
レイヤー 1
 62
   250
420
  2299925
370
    25
100
AcDbLine
 10
100.7460780356359
 20
-145.2670874062959
 30
0.0
 11
101.7596438431114
 21
-145.2188274063082
 31
0.0
  0
LINE
  5
EC
330
70
100
AcDbEntity
  8
レイヤー 1
 62
   250
420
  2299925
370
    25
100
AcDbLine
 10
115.7646390413694
 20
-145.6239926839844
 30
0.0
 11
115.2506418322603
 21
-146.0056982394447
 31
0.0
  0
LINE
  5
ED
330
70
100
AcDbEntity
  8
レイヤー 1
 62
   250
420
  2299925
370
    25
100
AcDbLine
 10
120.7614186361132
 20
-145.8024276839398
 30
0.0
 11
120.2473861492272
 21
-146.1841685171779
 31
0.0
  0
LINE
  5
EE
330
70
100
AcDbEntity
  8
レイヤー 1
 62
   250
420
  2299925
370
    25
100
AcDbLine
 10
116.2503787511994
 20
-146.0415404616583
 30
0.0
 11
115.7646390413694
 21
-145.6239926839844
 31
0.0
  0
LINE
  5
EF
330
70
100
AcDbEntity
  8
レイヤー 1
 62
   250
420
  2299925
370
    25
100
AcDbLine
 10
117.2494806701546
 20
-146.0773474060933
 30
0.0
 11
116.7644112380853
 21
-145.6597996284202
 31
0.0
  0
LINE
  5
F0
330
70
100
AcDbEntity
  8
レイヤー 1
 62
   250
420
  2299925
370
    25
100
AcDbLine
 10
115.2506418322603
 20
-146.0056982394447
 30
0.0
 11
114.765572400191
 21
-145.5881504617712
 31
0.0
  0
LINE
  5
F1
330
70
100
AcDbEntity
  8
レイヤー 1
 62
   250
420
  2299925
370
    25
100
AcDbLine
 10
116.7644112380853
 20
-145.6597996284202
 30
0.0
 11
116.2503787511994
 21
-146.0415404616583
 31
0.0
  0
LINE
  5
F2
330
70
100
AcDbEntity
  8
レイヤー 1
 62
   250
420
  2299925
370
    25
100
AcDbLine
 10
124.7590963119017
 20
-145.9450557394597
 30
0.0
 11
124.2450991027926
 21
-146.3274668504752
 31
0.0
  0
LINE
  5
F3
330
70
100
AcDbEntity
  8
レイヤー 1
 62
   250
420
  2299925
370
    25
100
AcDbLine
 10
117.7634778792637
 20
-145.6956418506334
 30
0.0
 11
117.2494806701546
 21
-146.0773474060933
 31
0.0
  0
LINE
  5
F4
330
70
100
AcDbEntity
  8
レイヤー 1
 62
   250
420
  2299925
370
    25
100
AcDbLine
 10
118.7632500759796
 20
-145.7307785172911
 30
0.0
 11
118.2492528668705
 21
-146.1131896283066
 31
0.0
  0
LINE
  5
F5
330
70
100
AcDbEntity
  8
レイヤー 1
 62
   250
420
  2299925
370
    25
100
AcDbLine
 10
118.2492528668705
 20
-146.1131896283066
 30
0.0
 11
117.7634778792637
 21
-145.6956418506334
 31
0.0
  0
LINE
  5
F6
330
70
100
AcDbEntity
  8
レイヤー 1
 62
   250
420
  2299925
370
    25
100
AcDbLine
 10
119.2483195080489
 20
-146.1490318505198
 30
0.0
 11
118.7632500759796
 21
-145.7307785172911
 31
0.0
  0
LINE
  5
F7
330
70
100
AcDbEntity
  8
レイヤー 1
 62
   250
420
  2299925
370
    25
100
AcDbLine
 10
124.2450991027926
 20
-146.3274668504752
 30
0.0
 11
123.7600296707233
 21
-145.9092487950247
 31
0.0
  0
LINE
  5
F8
330
70
100
AcDbEntity
  8
レイヤー 1
 62
   250
420
  2299925
370
    25
100
AcDbLine
 10
119.7623167171579
 20
-145.7666207395044
 30
0.0
 11
119.2483195080489
 21
-146.1490318505198
 31
0.0
  0
LINE
  5
F9
330
70
100
AcDbEntity
  8
レイヤー 1
 62
   250
420
  2299925
370
    25
100
AcDbLine
 10
120.2473861492272
 20
-146.1841685171779
 30
0.0
 11
119.7623167171579
 21
-145.7666207395044
 31
0.0
  0
LINE
  5
FA
330
70
100
AcDbEntity
  8
レイヤー 1
 62
   250
420
  2299925
370
    25
100
AcDbLine
 10
125.244165743971
 20
-146.3626035171335
 30
0.0
 11
124.7590963119017
 21
-145.9450557394597
 31
0.0
  0
LINE
  5
FB
330
70
100
AcDbEntity
  8
レイヤー 1
 62
   250
420
  2299925
370
    25
100
AcDbLine
 10
121.7611555550522
 20
-145.8382699061534
 30
0.0
 11
121.2471583459431
 21
-146.2199754616133
 31
0.0
  0
LINE
  5
FC
330
70
100
AcDbEntity
  8
レイヤー 1
 62
   250
420
  2299925
370
    25
100
AcDbLine
 10
122.7602574740074
 20
-145.8741121283666
 30
0.0
 11
122.2462249871215
 21
-146.2558176838265
 31
0.0
  0
LINE
  5
FD
330
70
100
AcDbEntity
  8
レイヤー 1
 62
   250
420
  2299925
370
    25
100
AcDbLine
 10
122.2462249871215
 20
-146.2558176838265
 30
0.0
 11
121.7611555550522
 21
-145.8382699061534
 31
0.0
  0
LINE
  5
FE
330
70
100
AcDbEntity
  8
レイヤー 1
 62
   250
420
  2299925
370
    25
100
AcDbLine
 10
125.75816295308
 20
-145.980897961673
 30
0.0
 11
125.244165743971
 21
-146.3626035171335
 31
0.0
  0
LINE
  5
FF
330
70
100
AcDbEntity
  8
レイヤー 1
 62
   250
420
  2299925
370
    25
100
AcDbLine
 10
121.2471583459431
 20
-146.2199754616133
 30
0.0
 11
120.7614186361132
 21
-145.8024276839398
 31
0.0
  0
LINE
  5
100
330
70
100
AcDbEntity
  8
レイヤー 1
 62
   250
420
  2299925
370
    25
100
AcDbLine
 10
105.6257354111455
 20
-153.4807065709094
 30
0.0
 11
104.7568790444233
 21
-145.2188274063082
 31
0.0
  0
LINE
  5
101
330
70
100
AcDbEntity
  8
レイヤー 1
 62
   250
420
  2299925
370
    25
100
AcDbLine
 10
123.7600296707233
 20
-145.9092487950247
 30
0.0
 11
123.2459971838374
 21
-146.2916246282619
 31
0.0
  0
LINE
  5
102
330
70
100
AcDbEntity
  8
レイヤー 1
 62
   250
420
  2299925
370
    25
100
AcDbLine
 10
123.2459971838374
 20
-146.2916246282619
 30
0.0
 11
122.7602574740074
 21
-145.8741121283666
 31
0.0
  0
LINE
  5
103
330
70
100
AcDbEntity
  8
レイヤー 1
 62
   250
420
  2299925
370
    25
100
AcDbLine
 10
106.5083501108504
 20
-154.4811490706593
 30
0.0
 11
105.6677512434069
 21
-146.481136850437
 31
0.0
  0
LINE
  5
104
330
70
100
AcDbEntity
  8
レイヤー 1
 62
   250
420
  2299925
370
    25
100
AcDbLine
 10
125.75816295308
 20
-145.980897961673
 30
0.0
 11
125.75816295308
 21
-146.481136850437
 31
0.0
  0
LINE
  5
105
330
70
100
AcDbEntity
  8
レイヤー 1
 62
   250
420
  2299925
370
    25
100
AcDbLine
 10
105.6677512434069
 20
-146.481136850437
 30
0.0
 11
125.75816295308
 21
-146.481136850437
 31
0.0
  0
LINE
  5
106
330
70
100
AcDbEntity
  8
レイヤー 1
 62
   250
420
  2299925
370
    25
100
AcDbLine
 10
114.765572400191
 20
-145.5881504617712
 30
0.0
 11
114.2515399133051
 21
-145.970561572787
 31
0.0
  0
LINE
  5
107
330
70
100
AcDbEntity
  8
レイヤー 1
 62
   250
420
  2299925
370
    25
100
AcDbLine
 10
114.2515399133051
 20
-145.970561572787
 30
0.0
 11
113.7658002034751
 21
-145.5523082395579
 31
0.0
  0
LINE
  5
108
330
70
100
AcDbEntity
  8
レイヤー 1
 62
   250
420
  2299925
370
    25
100
AcDbLine
 10
113.7658002034751
 20
-145.5523082395579
 30
0.0
 11
113.2524732721268
 21
-145.9347193505734
 31
0.0
  0
LINE
  5
109
330
70
100
AcDbEntity
  8
レイヤー 1
 62
   250
420
  2299925
370
    25
100
AcDbLine
 10
113.2524732721268
 20
-145.9347193505734
 30
0.0
 11
112.7666982845199
 21
-145.5171715729002
 31
0.0
  0
LINE
  5
10A
330
70
100
AcDbEntity
  8
レイヤー 1
 62
   250
420
  2299925
370
    25
100
AcDbLine
 10
112.7666982845199
 20
-145.5171715729002
 30
0.0
 11
112.2527010754108
 21
-145.898912406138
 31
0.0
  0
LINE
  5
10B
330
70
100
AcDbEntity
  8
レイヤー 1
 62
   250
420
  2299925
370
    25
100
AcDbLine
 10
112.2527010754108
 20
-145.898912406138
 30
0.0
 11
111.7676316433416
 21
-145.4813646284648
 31
0.0
  0
LINE
  5
10C
330
70
100
AcDbEntity
  8
レイヤー 1
 62
   250
420
  2299925
370
    25
100
AcDbLine
 10
111.7676316433416
 20
-145.4813646284648
 30
0.0
 11
111.2536344342325
 21
-145.8630701839247
 31
0.0
  0
LINE
  5
10D
330
70
100
AcDbEntity
  8
レイヤー 1
 62
   250
420
  2299925
370
    25
100
AcDbLine
 10
111.2536344342325
 20
-145.8630701839247
 30
0.0
 11
110.7678594466257
 21
-145.4455224062512
 31
0.0
  0
LINE
  5
10E
330
70
100
AcDbEntity
  8
レイヤー 1
 62
   250
420
  2299925
370
    25
100
AcDbLine
 10
110.7678594466257
 20
-145.4455224062512
 30
0.0
 11
110.2538622375166
 21
-145.8272279617115
 31
0.0
  0
LINE
  5
10F
330
70
100
AcDbEntity
  8
レイヤー 1
 62
   250
420
  2299925
370
    25
100
AcDbLine
 10
110.2538622375166
 20
-145.8272279617115
 30
0.0
 11
109.7687928054473
 21
-145.409680184038
 31
0.0
  0
LINE
  5
110
330
70
100
AcDbEntity
  8
レイヤー 1
 62
   250
420
  2299925
370
    25
100
AcDbLine
 10
109.7687928054473
 20
-145.409680184038
 30
0.0
 11
109.2547955963382
 21
-145.7920912950537
 31
0.0
  0
LINE
  5
111
330
70
100
AcDbEntity
  8
レイヤー 1
 62
   250
420
  2299925
370
    25
100
AcDbLine
 10
109.2547955963382
 20
-145.7920912950537
 30
0.0
 11
108.7690206087314
 21
-145.3738732396026
 31
0.0
  0
LINE
  5
112
330
70
100
AcDbEntity
  8
レイヤー 1
 62
   250
420
  2299925
370
    25
100
AcDbLine
 10
108.7690206087314
 20
-145.3738732396026
 30
0.0
 11
108.2550233996223
 21
-145.756284350618
 31
0.0
  0
LINE
  5
113
330
70
100
AcDbEntity
  8
レイヤー 1
 62
   250
420
  2299925
370
    25
100
AcDbLine
 10
108.2550233996223
 20
-145.756284350618
 30
0.0
 11
107.769953967553
 21
-145.3387365729448
 31
0.0
  0
LINE
  5
114
330
70
100
AcDbEntity
  8
レイヤー 1
 62
   250
420
  2299925
370
    25
100
AcDbLine
 10
107.769953967553
 20
-145.3387365729448
 30
0.0
 11
107.255956758444
 21
-145.7204421284048
 31
0.0
  0
LINE
  5
115
330
70
100
AcDbEntity
  8
レイヤー 1
 62
   250
420
  2299925
370
    25
100
AcDbLine
 10
107.255956758444
 20
-145.7204421284048
 30
0.0
 11
106.7708873263747
 21
-145.3028943507316
 31
0.0
  0
LINE
  5
116
330
70
100
AcDbEntity
  8
レイヤー 1
 62
   250
420
  2299925
370
    25
100
AcDbLine
 10
106.7708873263747
 20
-145.3028943507316
 30
0.0
 11
106.2568548394887
 21
-145.6845999061915
 31
0.0
  0
LINE
  5
117
330
70
100
AcDbEntity
  8
レイヤー 1
 62
   250
420
  2299925
370
    25
100
AcDbLine
 10
106.2568548394887
 20
-145.6845999061915
 30
0.0
 11
105.7711151296588
 21
-145.2670874062959
 31
0.0
  0
LINE
  5
118
330
70
100
AcDbEntity
  8
レイヤー 1
 62
   250
420
  2299925
370
    25
100
AcDbLine
 10
105.7711151296588
 20
-145.2670874062959
 30
0.0
 11
104.7568790444233
 21
-145.2188274063082
 31
0.0
  0
SPLINE
  5
119
330
70
100
AcDbEntity
  8
レイヤー 1
 62
   250
420
  2299925
370
     9
100
AcDbSpline
210
0.0
220
0.0
230
1.0
 70
     9
 71
     3
 72
    17
 73
    13
 74
     0
 42
0.0000000001
 43
0.0000000001
 40
0.0
 40
0.0
 40
0.0
 40
0.0
 40
1.0
 40
1.0
 40
1.0
 40
2.0
 40
2.0
 40
2.0
 40
3.0
 40
3.0
 40
3.0
 40
4.0
 40
4.0
 40
4.0
 40
4.0
 10
80.8585840985644
 20
-141.218750740641
 30
0.0
 10
80.8585840985644
 20
-141.1632587962109
 30
0.0
 10
80.81381659970618
 20
-141.118491296222
 30
0.0
 10
80.75867743444623
 20
-141.118491296222
 30
0.0
 10
80.70357354696318
 20
-141.118491296222
 30
0.0
 10
80.6587707703284
 20
-141.1632587962109
 30
0.0
 10
80.6587707703284
 20
-141.218750740641
 30
0.0
 10
80.6587707703284
 20
-141.2742074072944
 30
0.0
 10
80.70357354696318
 20
-141.318657407283
 30
0.0
 10
80.75867743444623
 20
-141.318657407283
 30
0.0
 10
80.81381659970618
 20
-141.318657407283
 30
0.0
 10
80.8585840985644
 20
-141.2742074072944
 30
0.0
 10
80.8585840985644
 20
-141.218750740641
 30
0.0
  0
SPLINE
  5
11A
330
70
100
AcDbEntity
  8
レイヤー 1
 62
   250
420
  2299925
370
     9
100
AcDbSpline
210
0.0
220
0.0
230
1.0
 70
     9
 71
     3
 72
    17
 73
    13
 74
     0
 42
0.0000000001
 43
0.0000000001
 40
0.0
 40
0.0
 40
0.0
 40
0.0
 40
1.0
 40
1.0
 40
1.0
 40
2.0
 40
2.0
 40
2.0
 40
3.0
 40
3.0
 40
3.0
 40
4.0
 40
4.0
 40
4.0
 40
4.0
 10
76.85882503393976
 20
-145.980897961673
 30
0.0
 10
76.85882503393976
 20
-145.9257587950203
 30
0.0
 10
76.81405753508187
 20
-145.8809912950314
 30
0.0
 10
76.75891836982192
 20
-145.8809912950314
 30
0.0
 10
76.70381681579046
 20
-145.8809912950314
 30
0.0
 10
76.65901403802374
 20
-145.9257587950203
 30
0.0
 10
76.65901403802374
 20
-145.980897961673
 30
0.0
 10
76.65901403802374
 20
-146.0360018505482
 30
0.0
 10
76.70381681579046
 20
-146.080804628315
 30
0.0
 10
76.75891836982192
 20
-146.080804628315
 30
0.0
 10
76.81405753508187
 20
-146.080804628315
 30
0.0
 10
76.85882503393976
 20
-146.0360018505482
 30
0.0
 10
76.85882503393976
 20
-145.980897961673
 30
0.0
  0
SPLINE
  5
11B
330
70
100
AcDbEntity
  8
レイヤー 1
 62
   250
420
  2299925
370
     9
100
AcDbSpline
210
0.0
220
0.0
230
1.0
 70
     9
 71
     3
 72
    17
 73
    13
 74
     0
 42
0.0000000001
 43
0.0000000001
 40
0.0
 40
0.0
 40
0.0
 40
0.0
 40
1.0
 40
1.0
 40
1.0
 40
2.0
 40
2.0
 40
2.0
 40
3.0
 40
3.0
 40
3.0
 40
4.0
 40
4.0
 40
4.0
 40
4.0
 10
76.85882503393976
 20
-146.481136850437
 30
0.0
 10
76.85882503393976
 20
-146.4259976837839
 30
0.0
 10
76.81405753508187
 20
-146.3812301837954
 30
0.0
 10
76.75891836982192
 20
-146.3812301837954
 30
0.0
 10
76.70381681579046
 20
-146.3812301837954
 30
0.0
 10
76.65901403802374
 20
-146.4259976837839
 30
0.0
 10
76.65901403802374
 20
-146.481136850437
 30
0.0
 10
76.65901403802374
 20
-146.5362407393119
 30
0.0
 10
76.70381681579046
 20
-146.5810435170786
 30
0.0
 10
76.75891836982192
 20
-146.5810435170786
 30
0.0
 10
76.81405753508187
 20
-146.5810435170786
 30
0.0
 10
76.85882503393976
 20
-146.5362407393119
 30
0.0
 10
76.85882503393976
 20
-146.481136850437
 30
0.0
  0
SPLINE
  5
11C
330
70
100
AcDbEntity
  8
レイヤー 1
 62
   250
420
  2299925
370
     9
100
AcDbSpline
210
0.0
220
0.0
230
1.0
 70
     9
 71
     3
 72
    17
 73
    13
 74
     0
 42
0.0000000001
 43
0.0000000001
 40
0.0
 40
0.0
 40
0.0
 40
0.0
 40
1.0
 40
1.0
 40
1.0
 40
2.0
 40
2.0
 40
2.0
 40
3.0
 40
3.0
 40
3.0
 40
4.0
 40
4.0
 40
4.0
 40
4.0
 10
76.85882503393976
 20
-154.4811490706593
 30
0.0
 10
76.85882503393976
 20
-154.4260451817844
 30
0.0
 10
76.81405753508187
 20
-154.3812424040176
 30
0.0
 10
76.75891836982192
 20
-154.3812424040176
 30
0.0
 10
76.70381681579046
 20
-154.3812424040176
 30
0.0
 10
76.65901403802374
 20
-154.4260451817844
 30
0.0
 10
76.65901403802374
 20
-154.4811490706593
 30
0.0
 10
76.65901403802374
 20
-154.5362882373123
 30
0.0
 10
76.70381681579046
 20
-154.5810557373009
 30
0.0
 10
76.75891836982192
 20
-154.5810557373009
 30
0.0
 10
76.81405753508187
 20
-154.5810557373009
 30
0.0
 10
76.85882503393976
 20
-154.5362882373123
 30
0.0
 10
76.85882503393976
 20
-154.4811490706593
 30
0.0
  0
SPLINE
  5
11D
330
70
100
AcDbEntity
  8
レイヤー 1
 62
   250
420
  2299925
370
     9
100
AcDbSpline
210
0.0
220
0.0
230
1.0
 70
     9
 71
     3
 72
    17
 73
    13
 74
     0
 42
0.0000000001
 43
0.0000000001
 40
0.0
 40
0.0
 40
0.0
 40
0.0
 40
1.0
 40
1.0
 40
1.0
 40
2.0
 40
2.0
 40
2.0
 40
3.0
 40
3.0
 40
3.0
 40
4.0
 40
4.0
 40
4.0
 40
4.0
 10
100.1087497185625
 20
-158.4809082363261
 30
0.0
 10
100.1087497185625
 20
-158.4257690696731
 30
0.0
 10
100.0639469419277
 20
-158.3810015696839
 30
0.0
 10
100.0088430544447
 20
-158.3810015696839
 30
0.0
 10
99.95303361142408
 20
-158.3810015696839
 30
0.0
 10
99.90823083478932
 20
-158.4257690696731
 30
0.0
 10
99.90823083478932
 20
-158.4809082363261
 30
0.0
 10
99.90823083478932
 20
-158.5360121252011
 30
0.0
 10
99.95303361142408
 20
-158.5808149029672
 30
0.0
 10
100.0088430544447
 20
-158.5808149029672
 30
0.0
 10
100.0639469419277
 20
-158.5808149029672
 30
0.0
 10
100.1087497185625
 20
-158.5360121252011
 30
0.0
 10
100.1087497185625
 20
-158.4809082363261
 30
0.0
  0
CIRCLE
  5
11E
330
70
100
AcDbEntity
  8
レイヤー 1
 62
   250
420
  2299925
370
     9
100
AcDbCircle
 10
106.5083501108504
 20
-158.4809082363258
 30
0.0
 40
0.0999066653798969
  0
SPLINE
  5
11F
330
70
100
AcDbEntity
  8
レイヤー 1
 62
   250
420
  2299925
370
     9
100
AcDbSpline
210
0.0
220
0.0
230
1.0
 70
     9
 71
     3
 72
    17
 73
    13
 74
     0
 42
0.0000000001
 43
0.0000000001
 40
0.0
 40
0.0
 40
0.0
 40
0.0
 40
1.0
 40
1.0
 40
1.0
 40
2.0
 40
2.0
 40
2.0
 40
3.0
 40
3.0
 40
3.0
 40
4.0
 40
4.0
 40
4.0
 40
4.0
 10
125.8587751727354
 20
-141.218750740641
 30
0.0
 10
125.8587751727354
 20
-141.1632587962109
 30
0.0
 10
125.8139723961007
 20
-141.118491296222
 30
0.0
 10
125.75816295308
 20
-141.118491296222
 30
0.0
 10
125.703059065597
 20
-141.118491296222
 30
0.0
 10
125.6582562889622
 20
-141.1632587962109
 30
0.0
 10
125.6582562889622
 20
-141.218750740641
 30
0.0
 10
125.6582562889622
 20
-141.2742074072944
 30
0.0
 10
125.703059065597
 20
-141.318657407283
 30
0.0
 10
125.75816295308
 20
-141.318657407283
 30
0.0
 10
125.8139723961007
 20
-141.318657407283
 30
0.0
 10
125.8587751727354
 20
-141.2742074072944
 30
0.0
 10
125.8587751727354
 20
-141.218750740641
 30
0.0
  0
SPLINE
  5
120
330
70
100
AcDbEntity
  8
レイヤー 1
 62
   250
420
  2299925
370
     9
100
AcDbSpline
210
0.0
220
0.0
230
1.0
 70
     9
 71
     3
 72
    17
 73
    13
 74
     0
 42
0.0000000001
 43
0.0000000001
 40
0.0
 40
0.0
 40
0.0
 40
0.0
 40
1.0
 40
1.0
 40
1.0
 40
2.0
 40
2.0
 40
2.0
 40
3.0
 40
3.0
 40
3.0
 40
4.0
 40
4.0
 40
4.0
 40
4.0
 10
104.8574559863018
 20
-141.218750740641
 30
0.0
 10
104.8574559863018
 20
-141.1632587962109
 30
0.0
 10
104.8126884874439
 20
-141.118491296222
 30
0.0
 10
104.7568790444233
 20
-141.118491296222
 30
0.0
 10
104.7017398791634
 20
-141.118491296222
 30
0.0
 10
104.6569723803058
 20
-141.1632587962109
 30
0.0
 10
104.6569723803058
 20
-141.218750740641
 30
0.0
 10
104.6569723803058
 20
-141.2742074072944
 30
0.0
 10
104.7017398791634
 20
-141.318657407283
 30
0.0
 10
104.7568790444233
 20
-141.318657407283
 30
0.0
 10
104.8126884874439
 20
-141.318657407283
 30
0.0
 10
104.8574559863018
 20
-141.2742074072944
 30
0.0
 10
104.8574559863018
 20
-141.218750740641
 30
0.0
  0
SPLINE
  5
121
330
70
100
AcDbEntity
  8
レイヤー 1
 62
   250
420
  2299925
370
     9
100
AcDbSpline
210
0.0
220
0.0
230
1.0
 70
     9
 71
     3
 72
    17
 73
    13
 74
     0
 42
0.0000000001
 43
0.0000000001
 40
0.0
 40
0.0
 40
0.0
 40
0.0
 40
1.0
 40
1.0
 40
1.0
 40
2.0
 40
2.0
 40
2.0
 40
3.0
 40
3.0
 40
3.0
 40
4.0
 40
4.0
 40
4.0
 40
4.0
 10
101.8595505072292
 20
-141.218750740641
 30
0.0
 10
101.8595505072292
 20
-141.1632587962109
 30
0.0
 10
101.8147477305944
 20
-141.118491296222
 30
0.0
 10
101.7596438431114
 20
-141.118491296222
 30
0.0
 10
101.7045046778514
 20
-141.118491296222
 30
0.0
 10
101.6597371789935
 20
-141.1632587962109
 30
0.0
 10
101.6597371789935
 20
-141.218750740641
 30
0.0
 10
101.6597371789935
 20
-141.2742074072944
 30
0.0
 10
101.7045046778514
 20
-141.318657407283
 30
0.0
 10
101.7596438431114
 20
-141.318657407283
 30
0.0
 10
101.8147477305944
 20
-141.318657407283
 30
0.0
 10
101.8595505072292
 20
-141.2742074072944
 30
0.0
 10
101.8595505072292
 20
-141.218750740641
 30
0.0
  0
LINE
  5
122
330
70
100
AcDbEntity
  8
レイヤー 1
 62
   250
420
  2299925
370
     9
100
AcDbLine
 10
101.7596438431114
 20
-141.218750740641
 30
0.0
 11
104.7568790444233
 21
-141.218750740641
 31
0.0
  0
LINE
  5
123
330
70
100
AcDbEntity
  8
レイヤー 1
 62
   250
420
  2299925
370
     9
100
AcDbLine
 10
101.7596438431114
 20
-142.6787568513876
 30
0.0
 11
101.7596438431114
 21
-140.2186257408914
 31
0.0
  0
LINE
  5
124
330
70
100
AcDbEntity
  8
レイヤー 1
 62
   250
420
  2299925
370
     9
100
AcDbLine
 10
104.7568790444233
 20
-142.6787568513876
 30
0.0
 11
104.7568790444233
 21
-140.2186257408914
 31
0.0
  0
LINE
  5
125
330
70
100
AcDbEntity
  8
レイヤー 1
 62
   250
420
  2299925
370
     9
100
AcDbLine
 10
106.5083501108504
 20
-158.4809082363261
 30
0.0
 11
100.0088430544447
 21
-158.4809082363261
 31
0.0
  0
LINE
  5
126
330
70
100
AcDbEntity
  8
レイヤー 1
 62
   250
420
  2299925
370
     9
100
AcDbLine
 10
106.5083501108504
 20
-157.0208668478024
 30
0.0
 11
106.5083501108504
 21
-159.4813507360754
 31
0.0
  0
LINE
  5
127
330
70
100
AcDbEntity
  8
レイヤー 1
 62
   250
420
  2299925
370
     9
100
AcDbLine
 10
100.0088430544447
 20
-157.0208668478024
 30
0.0
 11
100.0088430544447
 21
-159.4813507360754
 31
0.0
  0
LINE
  5
128
330
70
100
AcDbEntity
  8
レイヤー 1
 62
   250
420
  2299925
370
     9
100
AcDbLine
 10
76.75891836982192
 20
-145.980897961673
 30
0.0
 11
76.75891836982192
 21
-140.7229921296544
 31
0.0
  0
LINE
  5
129
330
70
100
AcDbEntity
  8
レイヤー 1
 62
   250
420
  2299925
370
     9
100
AcDbLine
 10
76.75891836982192
 20
-145.980897961673
 30
0.0
 11
76.75891836982192
 21
-146.481136850437
 31
0.0
  0
LINE
  5
12A
330
70
100
AcDbEntity
  8
レイヤー 1
 62
   250
420
  2299925
370
     9
100
AcDbLine
 10
78.21895972146205
 20
-145.980897961673
 30
0.0
 11
75.75882867311412
 21
-145.980897961673
 31
0.0
  0
LINE
  5
12B
330
70
100
AcDbEntity
  8
レイヤー 1
 62
   250
420
  2299925
370
     9
100
AcDbLine
 10
78.21895972146205
 20
-146.481136850437
 30
0.0
 11
75.75882867311412
 21
-146.481136850437
 31
0.0
  0
LINE
  5
12C
330
70
100
AcDbEntity
  8
レイヤー 1
 62
   250
420
  2299925
370
     9
100
AcDbLine
 10
80.75867743444623
 20
-141.218750740641
 30
0.0
 11
101.7596438431114
 21
-141.218750740641
 31
0.0
  0
LINE
  5
12D
330
70
100
AcDbEntity
  8
レイヤー 1
 62
   250
420
  2299925
370
     9
100
AcDbLine
 10
80.75867743444623
 20
-143.4408274067527
 30
0.0
 11
80.75867743444623
 21
-140.2186257408914
 31
0.0
  0
LINE
  5
12E
330
70
100
AcDbEntity
  8
レイヤー 1
 62
   250
420
  2299925
370
     9
100
AcDbLine
 10
104.7568790444233
 20
-141.218750740641
 30
0.0
 11
125.75816295308
 21
-141.218750740641
 31
0.0
  0
LINE
  5
12F
330
70
100
AcDbEntity
  8
レイヤー 1
 62
   250
420
  2299925
370
     9
100
AcDbLine
 10
125.75816295308
 20
-143.4408274067527
 30
0.0
 11
125.75816295308
 21
-140.2186257408914
 31
0.0
  0
LINE
  5
130
330
70
100
AcDbEntity
  8
レイヤー 1
 62
   250
420
  2299925
370
     9
100
AcDbLine
 10
76.75891836982192
 20
-146.481136850437
 30
0.0
 11
76.75891836982192
 21
-154.4811490706593
 31
0.0
  0
LINE
  5
131
330
70
100
AcDbEntity
  8
レイヤー 1
 62
   250
420
  2299925
370
     9
100
AcDbLine
 10
97.46841978592298
 20
-154.4811490706593
 30
0.0
 11
75.75882867311412
 21
-154.4811490706593
 31
0.0
  0
LINE
  5
132
330
70
100
AcDbEntity
  8
レイヤー 1
  6
AI-Linetype-0
 62
   154
420
    23468
370
    25
100
AcDbLine
 10
80.90956048615245
 20
-147.1418896280495
 30
0.0
 11
90.90897578660166
 21
-147.1418896280495
 31
0.0
  0
LINE
  5
134
330
70
100
AcDbEntity
  8
レイヤー 1
  6
AI-Linetype-1
 62
   154
420
    23468
370
    25
100
AcDbLine
 10
115.480758770834
 20
-147.1418896280495
 30
0.0
 11
125.75816295308
 21
-147.1418896280495
 31
0.0
  0
INSERT
  5
137
330
70
100
AcDbEntity
  8
レイヤー 1
100
AcDbBlockReference
  2
Block_10
 10
0.0
 20
0.0
 30
0.0
  0
ENDSEC
  0
SECTION
  2
OBJECTS
  0
DICTIONARY
  5
C
330
0
100
AcDbDictionary
281
     1
  3
ACAD_COLOR
350
63
  3
ACAD_DETAILVIEWSTYLE
350
6A
  3
ACAD_GROUP
350
D
  3
ACAD_LAYOUT
350
62
  3
ACAD_MATERIAL
350
10
  3
ACAD_MLEADERSTYLE
350
66
  3
ACAD_MLINESTYLE
350
5F
  3
ACAD_PLOTSETTINGS
350
61
  3
ACAD_PLOTSTYLENAME
350
E
  3
ACAD_SCALELIST
350
42
  3
ACAD_SECTIONVIEWSTYLE
350
68
  3
ACAD_TABLESTYLE
350
64
  3
ACAD_VISUALSTYLE
350
29
  3
ACDB_RECOMPOSE_DATA
350
164
  3
AcDbVariableDictionary
350
15C
  0
DICTIONARY
  5
63
102
{ACAD_REACTORS
330
C
102
}
330
C
100
AcDbDictionary
281
     1
  0
DICTIONARY
  5
6A
102
{ACAD_REACTORS
330
C
102
}
330
C
100
AcDbDictionary
281
     1
  3
Imperial24
350
6B
  0
DICTIONARY
  5
D
102
{ACAD_REACTORS
330
C
102
}
330
C
100
AcDbDictionary
281
     1
  0
DICTIONARY
  5
62
102
{ACAD_REACTORS
330
C
102
}
330
C
100
AcDbDictionary
281
     1
  3
Layout1
350
6F
  3
Layout2
350
77
  3
Model
350
73
  0
DICTIONARY
  5
10
102
{ACAD_REACTORS
330
C
102
}
330
C
100
AcDbDictionary
281
     1
  3
ByBlock
350
19
  3
ByLayer
350
11
  3
Global
350
21
  0
DICTIONARY
  5
66
102
{ACAD_REACTORS
330
C
102
}
330
C
100
AcDbDictionary
281
     1
  3
Standard
350
67
  0
DICTIONARY
  5
5F
102
{ACAD_REACTORS
330
C
102
}
330
C
100
AcDbDictionary
281
     1
  3
Standard
350
60
  0
DICTIONARY
  5
61
102
{ACAD_REACTORS
330
C
102
}
330
C
100
AcDbDictionary
281
     1
  0
ACDBDICTIONARYWDFLT
  5
E
102
{ACAD_REACTORS
330
C
102
}
330
C
100
AcDbDictionary
281
     1
  3
Normal
350
F
100
AcDbDictionaryWithDefault
340
F
  0
DICTIONARY
  5
42
102
{ACAD_REACTORS
330
C
102
}
330
C
100
AcDbDictionary
281
     1
  3
A0
350
43
  3
A1
350
44
  3
A2
350
45
  3
A3
350
46
  3
A4
350
47
  3
A5
350
48
  3
A6
350
49
  3
A7
350
4A
  3
A8
350
4B
  3
A9
350
4C
  3
B0
350
4D
  3
B1
350
4E
  3
B2
350
4F
  3
B3
350
50
  3
B4
350
51
  3
B5
350
52
  3
B6
350
53
  0
DICTIONARY
  5
68
102
{ACAD_REACTORS
330
C
102
}
330
C
100
AcDbDictionary
281
     1
  3
Imperial24
350
69
  0
DICTIONARY
  5
64
102
{ACAD_REACTORS
330
C
102
}
330
C
100
AcDbDictionary
281
     1
  3
Standard
350
65
  0
DICTIONARY
  5
29
102
{ACAD_REACTORS
330
C
102
}
330
C
100
AcDbDictionary
281
     1
  3
2dWireframe
350
2F
  3
Basic
350
2E
  3
Brighten
350
35
  3
ColorChange
350
39
  3
Conceptual
350
32
  3
Dim
350
34
  3
EdgeColorOff
350
41
  3
Facepattern
350
38
  3
Flat
350
2A
  3
FlatWithEdges
350
2B
  3
Gouraud
350
2C
  3
GouraudWithEdges
350
2D
  3
Hidden
350
31
  3
JitterOff
350
3F
  3
Linepattern
350
37
  3
OverhangOff
350
40
  3
Realistic
350
33
  3
Shaded
350
3E
  3
Shaded with edges
350
3D
  3
Shades of Gray
350
3A
  3
Sketchy
350
3B
  3
Thicken
350
36
  3
Wireframe
350
30
  3
X-Ray
350
3C
  0
XRECORD
  5
164
102
{ACAD_REACTORS
330
C
102
}
330
C
100
AcDbXrecord
280
     1
 90
        1
330
65
  0
DICTIONARY
  5
15C
102
{ACAD_REACTORS
330
C
102
}
330
C
100
AcDbDictionary
281
     1
  3
CANNOSCALE
350
161
  3
CMLEADERSTYLE
350
15E
  3
CTABLESTYLE
350
15D
  3
CVIEWDETAILSTYLE
350
15F
  3
CVIEWSECTIONSTYLE
350
160
  0
ACDBDETAILVIEWSTYLE
  5
6B
102
{ACAD_XDICTIONARY
360
199
102
}
102
{ACAD_REACTORS
330
6A
102
}
330
6A
100
AcDbModelDocViewStyle
 70
     0
  3
Imperial24
290
     0
100
AcDbDetailViewStyle
 70
     0
 71
     0
 90
        3
 71
     1
340
55
 62
   256
 40
0.24
340
0
 62
   256
 40
0.24
300

 40
0.36
280
     3
 71
     2
340
5D
 90
       25
 62
   256
 71
     3
340
55
 62
   256
 40
0.24
 90
        1
 40
0.75
 90
        1
300
%<\AcVar ViewType \f "%tc1">% %<\AcVar ViewDetailId>%\PSCALE %<\AcVar ViewScale \f "%sn">%
 71
     4
340
5D
 90
       25
 62
   256
340
5D
 90
       25
 62
   256
280
     0
  0
LAYOUT
  5
6F
102
{ACAD_REACTORS
330
62
102
}
330
62
100
AcDbPlotSettings
  1

  2

  4

  6

 40
0.0
 41
0.0
 42
0.0
 43
0.0
 44
0.0
 45
0.0
 46
0.0
 47
0.0
 48
0.0
 49
0.0
140
0.0
141
0.0
142
1.0
143
1.0
 70
   688
 72
     0
 73
     0
 74
     5
  7

 75
    16
147
1.0
 76
     0
 77
     2
 78
   300
148
0.0
149
0.0
100
AcDbLayout
  1
Layout1
 70
     1
 71
     1
 10
0.0
 20
0.0
 11
12.0
 21
9.0
 12
0.0
 22
0.0
 32
0.0
 14
0.0
 24
0.0
 34
0.0
 15
0.0
 25
0.0
 35
0.0
146
0.0
 13
0.0
 23
0.0
 33
0.0
 16
1.0
 26
0.0
 36
0.0
 17
0.0
 27
1.0
 37
0.0
 76
     0
330
6C
  0
LAYOUT
  5
77
102
{ACAD_REACTORS
330
62
102
}
330
62
100
AcDbPlotSettings
  1

  2

  4

  6

 40
0.0
 41
0.0
 42
0.0
 43
0.0
 44
0.0
 45
0.0
 46
0.0
 47
0.0
 48
0.0
 49
0.0
140
0.0
141
0.0
142
1.0
143
1.0
 70
   688
 72
     0
 73
     0
 74
     5
  7

 75
    16
147
1.0
 76
     0
 77
     2
 78
   300
148
0.0
149
0.0
100
AcDbLayout
  1
Layout2
 70
     1
 71
     2
 10
0.0
 20
0.0
 11
12.0
 21
9.0
 12
0.0
 22
0.0
 32
0.0
 14
0.0
 24
0.0
 34
0.0
 15
0.0
 25
0.0
 35
0.0
146
0.0
 13
0.0
 23
0.0
 33
0.0
 16
1.0
 26
0.0
 36
0.0
 17
0.0
 27
1.0
 37
0.0
 76
     0
330
74
  0
LAYOUT
  5
73
102
{ACAD_REACTORS
330
62
102
}
330
62
100
AcDbPlotSettings
  1

  2

  4

  6

 40
0.0
 41
0.0
 42
0.0
 43
0.0
 44
0.0
 45
0.0
 46
0.0
 47
0.0
 48
0.0
 49
0.0
140
0.0
141
0.0
142
1.0
143
1.0
 70
  1712
 72
     0
 73
     0
 74
     0
  7

 75
     0
147
1.0
 76
     0
 77
     2
 78
   300
148
0.0
149
0.0
100
AcDbLayout
  1
Model
 70
     1
 71
     0
 10
0.0
 20
0.0
 11
12.0
 21
9.0
 12
0.0
 22
0.0
 32
0.0
 14
0.0
 24
0.0
 34
0.0
 15
0.0
 25
0.0
 35
0.0
146
0.0
 13
0.0
 23
0.0
 33
0.0
 16
1.0
 26
0.0
 36
0.0
 17
0.0
 27
1.0
 37
0.0
 76
     0
330
70
  0
MATERIAL
  5
19
102
{ACAD_XDICTIONARY
360
1A
102
}
102
{ACAD_REACTORS
330
10
102
}
330
10
100
AcDbMaterial
  1
ByBlock
 72
     0
 43
0.0208333333333333
 43
0.0
 43
0.0
 43
0.0
 43
0.0
 43
0.0208333333333333
 43
0.0
 43
0.0
 43
0.0
 43
0.0
 43
1.0
 43
0.0
 43
0.0
 43
0.0
 43
0.0
 43
1.0
 77
     0
 47
0.0208333333333333
 47
0.0
 47
0.0
 47
0.0
 47
0.0
 47
0.0208333333333333
 47
0.0
 47
0.0
 47
0.0
 47
0.0
 47
1.0
 47
0.0
 47
0.0
 47
0.0
 47
0.0
 47
1.0
171
     0
 49
0.0208333333333333
 49
0.0
 49
0.0
 49
0.0
 49
0.0
 49
0.0208333333333333
 49
0.0
 49
0.0
 49
0.0
 49
0.0
 49
1.0
 49
0.0
 49
0.0
 49
0.0
 49
0.0
 49
1.0
175
     0
142
0.0208333333333333
142
0.0
142
0.0
142
0.0
142
0.0
142
0.0208333333333333
142
0.0
142
0.0
142
0.0
142
0.0
142
1.0
142
0.0
142
0.0
142
0.0
142
0.0
142
1.0
179
     0
144
0.0208333333333333
144
0.0
144
0.0
144
0.0
144
0.0
144
0.0208333333333333
144
0.0
144
0.0
144
0.0
144
0.0
144
1.0
144
0.0
144
0.0
144
0.0
144
0.0
144
1.0
147
0.0208333333333333
147
0.0
147
0.0
147
0.0
147
0.0
147
0.0208333333333333
147
0.0
147
0.0
147
0.0
147
0.0
147
1.0
147
0.0
147
0.0
147
0.0
147
0.0
147
1.0
  0
MATERIAL
  5
11
102
{ACAD_XDICTIONARY
360
12
102
}
102
{ACAD_REACTORS
330
10
102
}
330
10
100
AcDbMaterial
  1
ByLayer
 72
     0
 43
0.0208333333333333
 43
0.0
 43
0.0
 43
0.0
 43
0.0
 43
0.0208333333333333
 43
0.0
 43
0.0
 43
0.0
 43
0.0
 43
1.0
 43
0.0
 43
0.0
 43
0.0
 43
0.0
 43
1.0
 77
     0
 47
0.0208333333333333
 47
0.0
 47
0.0
 47
0.0
 47
0.0
 47
0.0208333333333333
 47
0.0
 47
0.0
 47
0.0
 47
0.0
 47
1.0
 47
0.0
 47
0.0
 47
0.0
 47
0.0
 47
1.0
171
     0
 49
0.0208333333333333
 49
0.0
 49
0.0
 49
0.0
 49
0.0
 49
0.0208333333333333
 49
0.0
 49
0.0
 49
0.0
 49
0.0
 49
1.0
 49
0.0
 49
0.0
 49
0.0
 49
0.0
 49
1.0
175
     0
142
0.0208333333333333
142
0.0
142
0.0
142
0.0
142
0.0
142
0.0208333333333333
142
0.0
142
0.0
142
0.0
142
0.0
142
1.0
142
0.0
142
0.0
142
0.0
142
0.0
142
1.0
179
     0
144
0.0208333333333333
144
0.0
144
0.0
144
0.0
144
0.0
144
0.0208333333333333
144
0.0
144
0.0
144
0.0
144
0.0
144
1.0
144
0.0
144
0.0
144
0.0
144
0.0
144
1.0
147
0.0208333333333333
147
0.0
147
0.0
147
0.0
147
0.0
147
0.0208333333333333
147
0.0
147
0.0
147
0.0
147
0.0
147
1.0
147
0.0
147
0.0
147
0.0
147
0.0
147
1.0
  0
MATERIAL
  5
21
102
{ACAD_XDICTIONARY
360
22
102
}
102
{ACAD_REACTORS
330
10
102
}
330
10
100
AcDbMaterial
  1
Global
 72
     0
 43
0.0208333333333333
 43
0.0
 43
0.0
 43
0.0
 43
0.0
 43
0.0208333333333333
 43
0.0
 43
0.0
 43
0.0
 43
0.0
 43
1.0
 43
0.0
 43
0.0
 43
0.0
 43
0.0
 43
1.0
 77
     0
 47
0.0208333333333333
 47
0.0
 47
0.0
 47
0.0
 47
0.0
 47
0.0208333333333333
 47
0.0
 47
0.0
 47
0.0
 47
0.0
 47
1.0
 47
0.0
 47
0.0
 47
0.0
 47
0.0
 47
1.0
171
     0
 49
0.0208333333333333
 49
0.0
 49
0.0
 49
0.0
 49
0.0
 49
0.0208333333333333
 49
0.0
 49
0.0
 49
0.0
 49
0.0
 49
1.0
 49
0.0
 49
0.0
 49
0.0
 49
0.0
 49
1.0
175
     0
142
0.0208333333333333
142
0.0
142
0.0
142
0.0
142
0.0
142
0.0208333333333333
142
0.0
142
0.0
142
0.0
142
0.0
142
1.0
142
0.0
142
0.0
142
0.0
142
0.0
142
1.0
179
     0
144
0.0208333333333333
144
0.0
144
0.0
144
0.0
144
0.0
144
0.0208333333333333
144
0.0
144
0.0
144
0.0
144
0.0
144
1.0
144
0.0
144
0.0
144
0.0
144
0.0
144
1.0
147
0.0208333333333333
147
0.0
147
0.0
147
0.0
147
0.0
147
0.0208333333333333
147
0.0
147
0.0
147
0.0
147
0.0
147
1.0
147
0.0
147
0.0
147
0.0
147
0.0
147
1.0
  0
MLEADERSTYLE
  5
67
102
{ACAD_XDICTIONARY
360
195
102
}
102
{ACAD_REACTORS
330
66
102
}
330
66
100
AcDbMLeaderStyle
179
     2
170
     2
171
     1
172
     0
 90
        2
 40
0.0
 41
0.0
173
     1
 91
-1056964608
340
5B
 92
       -2
290
     1
 42
0.09
291
     1
 43
0.36
  3
Standard
 44
0.18
300

342
55
174
     1
178
     6
175
     1
176
     0
 93
-1056964608
 45
0.18
292
     0
297
     0
 46
0.18
 94
-1056964608
 47
1.0
 49
1.0
140
1.0
293
     1
141
0.0
294
     1
177
     0
142
1.0
295
     0
296
     0
143
0.125
271
     0
272
     9
273
     9
  0
MLINESTYLE
  5
60
102
{ACAD_REACTORS
330
5F
102
}
330
5F
100
AcDbMlineStyle
  2
STANDARD
 70
     0
  3

 62
   256
 51
90.0
 52
90.0
 71
     2
 49
0.5
 62
   256
  6
BYLAYER
 49
-0.5
 62
   256
  6
BYLAYER
  0
ACDBPLACEHOLDER
  5
F
102
{ACAD_REACTORS
330
E
102
}
330
E
  0
SCALE
  5
43
102
{ACAD_REACTORS
330
42
102
}
330
42
100
AcDbScale
 70
     0
300
1:1
140
1.0
141
1.0
290
     1
  0
SCALE
  5
44
102
{ACAD_REACTORS
330
42
102
}
330
42
100
AcDbScale
 70
     0
300
1/128" = 1'-0"
140
0.0078125
141
12.0
290
     0
  0
SCALE
  5
45
102
{ACAD_REACTORS
330
42
102
}
330
42
100
AcDbScale
 70
     0
300
1/64" = 1'-0"
140
0.015625
141
12.0
290
     0
  0
SCALE
  5
46
102
{ACAD_REACTORS
330
42
102
}
330
42
100
AcDbScale
 70
     0
300
1/32" = 1'-0"
140
0.03125
141
12.0
290
     0
  0
SCALE
  5
47
102
{ACAD_REACTORS
330
42
102
}
330
42
100
AcDbScale
 70
     0
300
1/16" = 1'-0"
140
0.0625
141
12.0
290
     0
  0
SCALE
  5
48
102
{ACAD_REACTORS
330
42
102
}
330
42
100
AcDbScale
 70
     0
300
3/32" = 1'-0"
140
0.09375
141
12.0
290
     0
  0
SCALE
  5
49
102
{ACAD_REACTORS
330
42
102
}
330
42
100
AcDbScale
 70
     0
300
1/8" = 1'-0"
140
0.125
141
12.0
290
     0
  0
SCALE
  5
4A
102
{ACAD_REACTORS
330
42
102
}
330
42
100
AcDbScale
 70
     0
300
3/16" = 1'-0"
140
0.1875
141
12.0
290
     0
  0
SCALE
  5
4B
102
{ACAD_REACTORS
330
42
102
}
330
42
100
AcDbScale
 70
     0
300
1/4" = 1'-0"
140
0.25
141
12.0
290
     0
  0
SCALE
  5
4C
102
{ACAD_REACTORS
330
42
102
}
330
42
100
AcDbScale
 70
     0
300
3/8" = 1'-0"
140
0.375
141
12.0
290
     0
  0
SCALE
  5
4D
102
{ACAD_REACTORS
330
42
102
}
330
42
100
AcDbScale
 70
     0
300
1/2" = 1'-0"
140
0.5
141
12.0
290
     0
  0
SCALE
  5
4E
102
{ACAD_REACTORS
330
42
102
}
330
42
100
AcDbScale
 70
     0
300
3/4" = 1'-0"
140
0.75
141
12.0
290
     0
  0
SCALE
  5
4F
102
{ACAD_REACTORS
330
42
102
}
330
42
100
AcDbScale
 70
     0
300
1" = 1'-0"
140
1.0
141
12.0
290
     0
  0
SCALE
  5
50
102
{ACAD_REACTORS
330
42
102
}
330
42
100
AcDbScale
 70
     0
300
1-1/2" = 1'-0"
140
1.5
141
12.0
290
     0
  0
SCALE
  5
51
102
{ACAD_REACTORS
330
42
102
}
330
42
100
AcDbScale
 70
     0
300
3" = 1'-0"
140
3.0
141
12.0
290
     0
  0
SCALE
  5
52
102
{ACAD_REACTORS
330
42
102
}
330
42
100
AcDbScale
 70
     0
300
6" = 1'-0"
140
6.0
141
12.0
290
     0
  0
SCALE
  5
53
102
{ACAD_REACTORS
330
42
102
}
330
42
100
AcDbScale
 70
     0
300
1'-0" = 1'-0"
140
12.0
141
12.0
290
     0
  0
ACDBSECTIONVIEWSTYLE
  5
69
102
{ACAD_XDICTIONARY
360
197
102
}
102
{ACAD_REACTORS
330
68
102
}
330
68
100
AcDbModelDocViewStyle
 70
     0
  3
Imperial24
290
     0
100
AcDbSectionViewStyle
 70
     0
 71
     0
 90
       78
 71
     1
340
55
 62
   256
 40
0.24
340
0
340
0
 62
   256
 40
0.24
300
I, O, Q, S, X, Z
 40
0.48
 90
        3
 40
0.18
 90
        1
 71
     2
340
5D
 90
       25
 62
   256
340
5D
 90
       50
 62
   256
 40
0.24
 40
0.0
 40
0.24
 71
     3
340
55
 62
   256
 40
0.24
 90
        1
 40
0.75
 90
        1
300
%<\AcVar ViewType \f "%tc1">% %<\AcVar ViewSectionStartId>%-%<\AcVar ViewSectionEndId>%\PSCALE %<\AcVar ViewScale \f "%sn">%
 71
     4
 62
   256
 62
   257
300
ANSI31
 40
1.0
 90
        0
290
     0
290
     0
 90
        6
 40
0.0
 40
1.570796326794896
 40
0.2617993877991494
 40
1.308996938995747
 40
-0.2617993877991494
 40
1.832595714594046
  0
TABLESTYLE
  5
65
102
{ACAD_XDICTIONARY
360
162
102
}
102
{ACAD_REACTORS
330
64
102
}
330
64
100
AcDbTableStyle
280
     0
  3
Standard
 70
     0
 71
     0
 40
0.06
 41
0.06
280
     0
281
     0
  7
Standard
140
0.18
170
     2
 62
     0
 63
     7
283
     0
 90
      512
 91
        0
  1

274
    -2
284
     1
 64
     0
275
    -2
285
     1
 65
     0
276
    -2
286
     1
 66
     0
277
    -2
287
     1
 67
     0
278
    -2
288
     1
 68
     0
279
    -2
289
     1
 69
     0
  7
Standard
140
0.25
170
     5
 62
     0
 63
     7
283
     0
 90
      512
 91
        0
  1

274
    -2
284
     1
 64
     0
275
    -2
285
     1
 65
     0
276
    -2
286
     1
 66
     0
277
    -2
287
     1
 67
     0
278
    -2
288
     1
 68
     0
279
    -2
289
     1
 69
     0
  7
Standard
140
0.18
170
     5
 62
     0
 63
     7
283
     0
 90
      512
 91
        0
  1

274
    -2
284
     1
 64
     0
275
    -2
285
     1
 65
     0
276
    -2
286
     1
 66
     0
277
    -2
287
     1
 67
     0
278
    -2
288
     1
 68
     0
279
    -2
289
     1
 69
     0
  0
VISUALSTYLE
  5
2F
102
{ACAD_XDICTIONARY
360
16F
102
}
102
{ACAD_REACTORS
330
29
102
}
330
29
100
AcDbVisualStyle
  2
2dWireframe
 70
     4
177
     2
291
     0
 71
     0
176
     1
 72
     2
176
     1
 73
     0
176
     1
 90
        0
176
     1
 40
0.6
176
     1
 41
30.0
176
     1
 63
     7
421
 16777215
176
     1
 74
     1
176
     1
 91
        4
176
     1
 64
     7
176
     1
 65
   257
176
     1
 75
     1
176
     1
175
     1
176
     1
 42
1.0
176
     1
 92
        0
176
     1
 66
   257
176
     1
 43
1.0
176
     1
 76
     1
176
     1
 77
     6
176
     1
 78
     2
176
     1
 67
     7
176
     1
 79
     5
176
     1
170
     0
176
     1
171
     0
176
     1
290
     0
176
     1
 93
        1
176
     1
 44
0.0
176
     1
173
     0
176
     1
1001
ACAD
1000
AcDbSavedByObjectVersion
1070
     0
  0
VISUALSTYLE
  5
2E
102
{ACAD_XDICTIONARY
360
16D
102
}
102
{ACAD_REACTORS
330
29
102
}
330
29
100
AcDbVisualStyle
  2
Basic
 70
     7
177
     2
291
     1
 71
     1
176
     1
 72
     0
176
     1
 73
     1
176
     1
 90
        0
176
     1
 40
0.6
176
     1
 41
30.0
176
     1
 63
     7
421
 16777215
176
     1
 74
     0
176
     1
 91
        4
176
     1
 64
     7
176
     1
 65
   257
176
     1
 75
     1
176
     1
175
     1
176
     1
 42
1.0
176
     1
 92
        8
176
     1
 66
     7
176
     1
 43
1.0
176
     1
 76
     1
176
     1
 77
     6
176
     1
 78
     2
176
     1
 67
     7
176
     1
 79
     5
176
     1
170
     0
176
     1
171
     0
176
     1
290
     0
176
     1
 93
        1
176
     1
 44
0.0
176
     1
173
     0
176
     1
1001
ACAD
1000
AcDbSavedByObjectVersion
1070
     0
  0
VISUALSTYLE
  5
35
102
{ACAD_XDICTIONARY
360
17B
102
}
102
{ACAD_REACTORS
330
29
102
}
330
29
100
AcDbVisualStyle
  2
Brighten
 70
    12
177
     2
291
     1
 71
     2
176
     1
 72
     2
176
     1
 73
     0
176
     1
 90
        0
176
     1
 40
0.6
176
     1
 41
30.0
176
     1
 63
     7
421
 16777215
176
     1
 74
     1
176
     1
 91
        4
176
     1
 64
     7
176
     1
 65
   257
176
     1
 75
     1
176
     1
175
     1
176
     1
 42
1.0
176
     1
 92
        8
176
     1
 66
     7
176
     1
 43
1.0
176
     1
 76
     1
176
     1
 77
     6
176
     1
 78
     2
176
     1
 67
     7
176
     1
 79
     5
176
     1
170
     0
176
     1
171
     0
176
     1
290
     0
176
     1
 93
        1
176
     1
 44
50.0
176
     1
173
     0
176
     1
1001
ACAD
1000
AcDbSavedByObjectVersion
1070
     0
  0
VISUALSTYLE
  5
39
102
{ACAD_XDICTIONARY
360
183
102
}
102
{ACAD_REACTORS
330
29
102
}
330
29
100
AcDbVisualStyle
  2
ColorChange
 70
    16
177
     2
291
     1
 71
     2
176
     1
 72
     2
176
     1
 73
     3
176
     1
 90
        0
176
     1
 40
0.6
176
     1
 41
30.0
176
     1
 63
     8
421
  8421504
176
     1
 74
     1
176
     1
 91
        4
176
     1
 64
     7
176
     1
 65
   257
176
     1
 75
     1
176
     1
175
     1
176
     1
 42
1.0
176
     1
 92
        8
176
     1
 66
     8
424
  8421504
176
     1
 43
1.0
176
     1
 76
     1
176
     1
 77
     6
176
     1
 78
     2
176
     1
 67
     7
176
     1
 79
     5
176
     1
170
     0
176
     1
171
     0
176
     1
290
     0
176
     1
 93
        1
176
     1
 44
0.0
176
     1
173
     0
176
     1
1001
ACAD
1000
AcDbSavedByObjectVersion
1070
     0
  0
VISUALSTYLE
  5
32
102
{ACAD_XDICTIONARY
360
175
102
}
102
{ACAD_REACTORS
330
29
102
}
330
29
100
AcDbVisualStyle
  2
Conceptual
 70
     9
177
     2
291
     0
 71
     3
176
     1
 72
     2
176
     1
 73
     0
176
     1
 90
        0
176
     1
 40
0.6
176
     1
 41
30.0
176
     1
 63
     7
421
 16777215
176
     1
 74
     2
176
     1
 91
        2
176
     1
 64
     7
176
     1
 65
   257
176
     1
 75
     1
176
     1
175
     1
176
     1
 42
179.0
176
     1
 92
        8
176
     1
 66
     7
176
     1
 43
1.0
176
     1
 76
     1
176
     1
 77
     6
176
     1
 78
     2
176
     1
 67
     7
176
     1
 79
     3
176
     1
170
     0
176
     1
171
     0
176
     1
290
     0
176
     1
 93
        1
176
     1
 44
0.0
176
     1
173
     0
176
     1
1001
ACAD
1000
AcDbSavedByObjectVersion
1070
     0
  0
VISUALSTYLE
  5
34
102
{ACAD_XDICTIONARY
360
179
102
}
102
{ACAD_REACTORS
330
29
102
}
330
29
100
AcDbVisualStyle
  2
Dim
 70
    11
177
     2
291
     1
 71
     2
176
     1
 72
     2
176
     1
 73
     0
176
     1
 90
        0
176
     1
 40
0.6
176
     1
 41
30.0
176
     1
 63
     7
421
 16777215
176
     1
 74
     1
176
     1
 91
        4
176
     1
 64
     7
176
     1
 65
   257
176
     1
 75
     1
176
     1
175
     1
176
     1
 42
1.0
176
     1
 92
        8
176
     1
 66
     7
176
     1
 43
1.0
176
     1
 76
     1
176
     1
 77
     6
176
     1
 78
     2
176
     1
 67
     7
176
     1
 79
     5
176
     1
170
     0
176
     1
171
     0
176
     1
290
     0
176
     1
 93
        1
176
     1
 44
-50.0
176
     1
173
     0
176
     1
1001
ACAD
1000
AcDbSavedByObjectVersion
1070
     0
  0
VISUALSTYLE
  5
41
102
{ACAD_XDICTIONARY
360
193
102
}
102
{ACAD_REACTORS
330
29
102
}
330
29
100
AcDbVisualStyle
  2
EdgeColorOff
 70
    22
177
     2
291
     1
 71
     2
176
     0
 72
     2
176
     0
 73
     0
176
     0
 90
        0
176
     0
 40
0.6
176
     0
 41
30.0
176
     0
 63
     7
421
 16777215
176
     0
 74
     1
176
     0
 91
        4
176
     0
 64
     7
176
     0
 65
   257
176
     0
 75
     1
176
     0
175
     1
176
     0
 42
1.0
176
     0
 92
        8
176
     2
 66
     7
176
     0
 43
1.0
176
     0
 76
     1
176
     0
 77
     6
176
     0
 78
     2
176
     0
 67
     7
176
     0
 79
     5
176
     0
170
     0
176
     0
171
     0
176
     0
290
     0
176
     0
 93
        1
176
     0
 44
0.0
176
     0
173
     0
176
     0
1001
ACAD
1000
AcDbSavedByObjectVersion
1070
     0
  0
VISUALSTYLE
  5
38
102
{ACAD_XDICTIONARY
360
181
102
}
102
{ACAD_REACTORS
330
29
102
}
330
29
100
AcDbVisualStyle
  2
Facepattern
 70
    15
177
     2
291
     1
 71
     2
176
     1
 72
     2
176
     1
 73
     0
176
     1
 90
        0
176
     1
 40
0.6
176
     1
 41
30.0
176
     1
 63
     7
421
 16777215
176
     1
 74
     1
176
     1
 91
        4
176
     1
 64
     7
176
     1
 65
   257
176
     1
 75
     1
176
     1
175
     1
176
     1
 42
1.0
176
     1
 92
        8
176
     1
 66
     7
176
     1
 43
1.0
176
     1
 76
     1
176
     1
 77
     6
176
     1
 78
     2
176
     1
 67
     7
176
     1
 79
     5
176
     1
170
     0
176
     1
171
     0
176
     1
290
     0
176
     1
 93
        1
176
     1
 44
0.0
176
     1
173
     0
176
     1
1001
ACAD
1000
AcDbSavedByObjectVersion
1070
     0
  0
VISUALSTYLE
  5
2A
102
{ACAD_XDICTIONARY
360
165
102
}
102
{ACAD_REACTORS
330
29
102
}
330
29
100
AcDbVisualStyle
  2
Flat
 70
     0
177
     2
291
     1
 71
     2
176
     1
 72
     1
176
     1
 73
     1
176
     1
 90
        2
176
     1
 40
0.6
176
     1
 41
30.0
176
     1
 63
     7
421
 16777215
176
     1
 74
     0
176
     1
 91
        0
176
     1
 64
     7
176
     1
 65
   257
176
     1
 75
     1
176
     1
175
     1
176
     1
 42
1.0
176
     1
 92
        8
176
     1
 66
     7
176
     1
 43
1.0
176
     1
 76
     1
176
     1
 77
     6
176
     1
 78
     2
176
     1
 67
     7
176
     1
 79
     5
176
     1
170
     0
176
     1
171
     0
176
     1
290
     0
176
     1
 93
       13
176
     1
 44
0.0
176
     1
173
     0
176
     1
1001
ACAD
1000
AcDbSavedByObjectVersion
1070
     0
  0
VISUALSTYLE
  5
2B
102
{ACAD_XDICTIONARY
360
167
102
}
102
{ACAD_REACTORS
330
29
102
}
330
29
100
AcDbVisualStyle
  2
FlatWithEdges
 70
     1
177
     2
291
     1
 71
     2
176
     1
 72
     1
176
     1
 73
     1
176
     1
 90
        2
176
     1
 40
0.6
176
     1
 41
30.0
176
     1
 63
     7
421
 16777215
176
     1
 74
     1
176
     1
 91
        0
176
     1
 64
     7
176
     1
 65
   257
176
     1
 75
     1
176
     1
175
     1
176
     1
 42
1.0
176
     1
 92
        0
176
     1
 66
   257
176
     1
 43
1.0
176
     1
 76
     1
176
     1
 77
     6
176
     1
 78
     2
176
     1
 67
     7
176
     1
 79
     5
176
     1
170
     0
176
     1
171
     0
176
     1
290
     0
176
     1
 93
       13
176
     1
 44
0.0
176
     1
173
     0
176
     1
1001
ACAD
1000
AcDbSavedByObjectVersion
1070
     0
  0
VISUALSTYLE
  5
2C
102
{ACAD_XDICTIONARY
360
169
102
}
102
{ACAD_REACTORS
330
29
102
}
330
29
100
AcDbVisualStyle
  2
Gouraud
 70
     2
177
     2
291
     1
 71
     2
176
     1
 72
     2
176
     1
 73
     1
176
     1
 90
        2
176
     1
 40
0.6
176
     1
 41
30.0
176
     1
 63
     7
421
 16777215
176
     1
 74
     0
176
     1
 91
        0
176
     1
 64
     7
176
     1
 65
   257
176
     1
 75
     1
176
     1
175
     1
176
     1
 42
1.0
176
     1
 92
        0
176
     1
 66
     7
176
     1
 43
1.0
176
     1
 76
     1
176
     1
 77
     6
176
     1
 78
     2
176
     1
 67
     7
176
     1
 79
     5
176
     1
170
     0
176
     1
171
     0
176
     1
290
     0
176
     1
 93
       13
176
     1
 44
0.0
176
     1
173
     0
176
     1
1001
ACAD
1000
AcDbSavedByObjectVersion
1070
     0
  0
VISUALSTYLE
  5
2D
102
{ACAD_XDICTIONARY
360
16B
102
}
102
{ACAD_REACTORS
330
29
102
}
330
29
100
AcDbVisualStyle
  2
GouraudWithEdges
 70
     3
177
     2
291
     1
 71
     2
176
     1
 72
     2
176
     1
 73
     1
176
     1
 90
        2
176
     1
 40
0.6
176
     1
 41
30.0
176
     1
 63
     7
421
 16777215
176
     1
 74
     1
176
     1
 91
        0
176
     1
 64
     7
176
     1
 65
   257
176
     1
 75
     1
176
     1
175
     1
176
     1
 42
1.0
176
     1
 92
        0
176
     1
 66
   257
176
     1
 43
1.0
176
     1
 76
     1
176
     1
 77
     6
176
     1
 78
     2
176
     1
 67
     7
176
     1
 79
     5
176
     1
170
     0
176
     1
171
     0
176
     1
290
     0
176
     1
 93
       13
176
     1
 44
0.0
176
     1
173
     0
176
     1
1001
ACAD
1000
AcDbSavedByObjectVersion
1070
     0
  0
VISUALSTYLE
  5
31
102
{ACAD_XDICTIONARY
360
173
102
}
102
{ACAD_REACTORS
330
29
102
}
330
29
100
AcDbVisualStyle
  2
Hidden
 70
     6
177
     2
291
     0
 71
     1
176
     1
 72
     2
176
     1
 73
     2
176
     1
 90
        0
176
     1
 40
0.6
176
     1
 41
30.0
176
     1
 63
     7
421
 16777215
176
     1
 74
     2
176
     1
 91
        2
176
     1
 64
     7
176
     1
 65
   257
176
     1
 75
     2
176
     1
175
     1
176
     1
 42
40.0
176
     1
 92
        0
176
     1
 66
   257
176
     1
 43
1.0
176
     1
 76
     1
176
     1
 77
     6
176
     1
 78
     2
176
     1
 67
     7
176
     1
 79
     3
176
     1
170
     0
176
     1
171
     0
176
     1
290
     0
176
     1
 93
        1
176
     1
 44
0.0
176
     1
173
     0
176
     1
1001
ACAD
1000
AcDbSavedByObjectVersion
1070
     0
  0
VISUALSTYLE
  5
3F
102
{ACAD_XDICTIONARY
360
18F
102
}
102
{ACAD_REACTORS
330
29
102
}
330
29
100
AcDbVisualStyle
  2
JitterOff
 70
    20
177
     2
291
     1
 71
     2
176
     0
 72
     2
176
     0
 73
     0
176
     0
 90
        0
176
     0
 40
0.6
176
     0
 41
30.0
176
     0
 63
     7
421
 16777215
176
     0
 74
     1
176
     0
 91
        4
176
     0
 64
     7
176
     0
 65
   257
176
     0
 75
     1
176
     0
175
     1
176
     0
 42
1.0
176
     0
 92
       10
176
     2
 66
     7
176
     0
 43
1.0
176
     0
 76
     1
176
     0
 77
     6
176
     0
 78
     2
176
     0
 67
     7
176
     0
 79
     5
176
     0
170
     0
176
     0
171
     0
176
     0
290
     0
176
     0
 93
        1
176
     0
 44
0.0
176
     0
173
     0
176
     0
1001
ACAD
1000
AcDbSavedByObjectVersion
1070
     0
  0
VISUALSTYLE
  5
37
102
{ACAD_XDICTIONARY
360
17F
102
}
102
{ACAD_REACTORS
330
29
102
}
330
29
100
AcDbVisualStyle
  2
Linepattern
 70
    14
177
     2
291
     1
 71
     2
176
     1
 72
     2
176
     1
 73
     0
176
     1
 90
        0
176
     1
 40
0.6
176
     1
 41
30.0
176
     1
 63
     7
421
 16777215
176
     1
 74
     1
176
     1
 91
        4
176
     1
 64
     7
176
     1
 65
   257
176
     1
 75
     7
176
     1
175
     7
176
     1
 42
1.0
176
     1
 92
        8
176
     1
 66
     7
176
     1
 43
1.0
176
     1
 76
     1
176
     1
 77
     6
176
     1
 78
     2
176
     1
 67
     7
176
     1
 79
     5
176
     1
170
     0
176
     1
171
     0
176
     1
290
     0
176
     1
 93
        1
176
     1
 44
0.0
176
     1
173
     0
176
     1
1001
ACAD
1000
AcDbSavedByObjectVersion
1070
     0
  0
VISUALSTYLE
  5
40
102
{ACAD_XDICTIONARY
360
191
102
}
102
{ACAD_REACTORS
330
29
102
}
330
29
100
AcDbVisualStyle
  2
OverhangOff
 70
    21
177
     2
291
     1
 71
     2
176
     0
 72
     2
176
     0
 73
     0
176
     0
 90
        0
176
     0
 40
0.6
176
     0
 41
30.0
176
     0
 63
     7
421
 16777215
176
     0
 74
     1
176
     0
 91
        4
176
     0
 64
     7
176
     0
 65
   257
176
     0
 75
     1
176
     0
175
     1
176
     0
 42
1.0
176
     0
 92
        9
176
     2
 66
     7
176
     0
 43
1.0
176
     0
 76
     1
176
     0
 77
     6
176
     0
 78
     2
176
     0
 67
     7
176
     0
 79
     5
176
     0
170
     0
176
     0
171
     0
176
     0
290
     0
176
     0
 93
        1
176
     0
 44
0.0
176
     0
173
     0
176
     0
1001
ACAD
1000
AcDbSavedByObjectVersion
1070
     0
  0
VISUALSTYLE
  5
33
102
{ACAD_XDICTIONARY
360
177
102
}
102
{ACAD_REACTORS
330
29
102
}
330
29
100
AcDbVisualStyle
  2
Realistic
 70
     8
177
     2
291
     0
 71
     2
176
     1
 72
     3
176
     1
 73
     0
176
     1
 90
        2
176
     1
 40
0.6
176
     1
 41
30.0
176
     1
 63
     7
421
 16777215
176
     1
 74
     0
176
     1
 91
        0
176
     1
 64
     7
176
     1
 65
   257
176
     1
 75
     1
176
     1
175
     1
176
     1
 42
1.0
176
     1
 92
        8
176
     1
 66
   257
176
     1
 43
1.0
176
     1
 76
     1
176
     1
 77
     6
176
     1
 78
     2
176
     1
 67
     7
176
     1
 79
     3
176
     1
170
     0
176
     1
171
     0
176
     1
290
     0
176
     1
 93
       13
176
     1
 44
0.0
176
     1
173
     0
176
     1
1001
ACAD
1000
AcDbSavedByObjectVersion
1070
     0
  0
VISUALSTYLE
  5
3E
102
{ACAD_XDICTIONARY
360
18D
102
}
102
{ACAD_REACTORS
330
29
102
}
330
29
100
AcDbVisualStyle
  2
Shaded
 70
    27
177
     2
291
     0
 71
     2
176
     1
 72
     2
176
     1
 73
     1
176
     1
 90
        2
176
     1
 40
0.6
176
     1
 41
30.0
176
     1
 63
     7
421
 16777215
176
     1
 74
     0
176
     1
 91
        4
176
     1
 64
     7
176
     1
 65
   257
176
     1
 75
     1
176
     1
175
     1
176
     1
 42
1.0
176
     1
 92
        8
176
     1
 66
   257
176
     1
 43
1.0
176
     1
 76
     1
176
     1
 77
     6
176
     1
 78
     2
176
     1
 67
     8
425
  7895160
176
     1
 79
     3
176
     1
170
     0
176
     1
171
     0
176
     1
290
     0
176
     1
 93
        5
176
     1
 44
0.0
176
     1
173
     0
176
     1
1001
ACAD
1000
AcDbSavedByObjectVersion
1070
     0
  0
VISUALSTYLE
  5
3D
102
{ACAD_XDICTIONARY
360
18B
102
}
102
{ACAD_REACTORS
330
29
102
}
330
29
100
AcDbVisualStyle
  2
Shaded with edges
 70
    26
177
     2
291
     0
 71
     2
176
     1
 72
     2
176
     1
 73
     1
176
     1
 90
        2
176
     1
 40
0.6
176
     1
 41
30.0
176
     1
 63
     7
421
 16777215
176
     1
 74
     1
176
     1
 91
        2
176
     1
 64
     7
176
     1
 65
   257
176
     1
 75
     2
176
     1
175
     1
176
     1
 42
1.0
176
     1
 92
        8
176
     1
 66
   257
176
     1
 43
1.0
176
     1
 76
     1
176
     1
 77
     6
176
     1
 78
     2
176
     1
 67
     7
176
     1
 79
     3
176
     1
170
     0
176
     1
171
     0
176
     1
290
     0
176
     1
 93
        5
176
     1
 44
0.0
176
     1
173
     0
176
     1
1001
ACAD
1000
AcDbSavedByObjectVersion
1070
     0
  0
VISUALSTYLE
  5
3A
102
{ACAD_XDICTIONARY
360
185
102
}
102
{ACAD_REACTORS
330
29
102
}
330
29
100
AcDbVisualStyle
  2
Shades of Gray
 70
    23
177
     2
291
     0
 71
     2
176
     1
 72
     2
176
     1
 73
     3
176
     1
 90
        0
176
     1
 40
0.6
176
     1
 41
30.0
176
     1
 63
     7
421
 16777215
176
     1
 74
     2
176
     1
 91
        2
176
     1
 64
     7
176
     1
 65
     7
176
     1
 75
     1
176
     1
175
     1
176
     1
 42
40.0
176
     1
 92
        8
176
     1
 66
     7
176
     1
 43
1.0
176
     1
 76
     1
176
     1
 77
     6
176
     1
 78
     2
176
     1
 67
     7
176
     1
 79
     3
176
     1
170
     0
176
     1
171
     0
176
     1
290
     0
176
     1
 93
        1
176
     1
 44
0.0
176
     1
173
     0
176
     1
1001
ACAD
1000
AcDbSavedByObjectVersion
1070
     0
  0
VISUALSTYLE
  5
3B
102
{ACAD_XDICTIONARY
360
187
102
}
102
{ACAD_REACTORS
330
29
102
}
330
29
100
AcDbVisualStyle
  2
Sketchy
 70
    24
177
     2
291
     0
 71
     1
176
     1
 72
     2
176
     1
 73
     2
176
     1
 90
        0
176
     1
 40
0.6
176
     1
 41
30.0
176
     1
 63
     7
421
 16777215
176
     1
 74
     2
176
     1
 91
        2
176
     1
 64
     7
176
     1
 65
     7
176
     1
 75
     1
176
     1
175
     1
176
     1
 42
40.0
176
     1
 92
       11
176
     1
 66
     7
176
     1
 43
1.0
176
     1
 76
     1
176
     1
 77
     6
176
     1
 78
     2
176
     1
 67
     7
176
     1
 79
     6
176
     1
170
     0
176
     1
171
     0
176
     1
290
     0
176
     1
 93
        1
176
     1
 44
0.0
176
     1
173
     0
176
     1
1001
ACAD
1000
AcDbSavedByObjectVersion
1070
     0
  0
VISUALSTYLE
  5
36
102
{ACAD_XDICTIONARY
360
17D
102
}
102
{ACAD_REACTORS
330
29
102
}
330
29
100
AcDbVisualStyle
  2
Thicken
 70
    13
177
     2
291
     1
 71
     2
176
     1
 72
     2
176
     1
 73
     0
176
     1
 90
        0
176
     1
 40
0.6
176
     1
 41
30.0
176
     1
 63
     7
421
 16777215
176
     1
 74
     1
176
     1
 91
        4
176
     1
 64
     7
176
     1
 65
   257
176
     1
 75
     1
176
     1
175
     1
176
     1
 42
1.0
176
     1
 92
       12
176
     1
 66
     7
176
     1
 43
1.0
176
     1
 76
     1
176
     1
 77
     6
176
     1
 78
     2
176
     1
 67
     7
176
     1
 79
     5
176
     1
170
     0
176
     1
171
     0
176
     1
290
     0
176
     1
 93
        1
176
     1
 44
0.0
176
     1
173
     0
176
     1
1001
ACAD
1000
AcDbSavedByObjectVersion
1070
     0
  0
VISUALSTYLE
  5
30
102
{ACAD_XDICTIONARY
360
171
102
}
102
{ACAD_REACTORS
330
29
102
}
330
29
100
AcDbVisualStyle
  2
Wireframe
 70
     5
177
     2
291
     0
 71
     0
176
     1
 72
     2
176
     1
 73
     0
176
     1
 90
        0
176
     1
 40
0.6
176
     1
 41
30.0
176
     1
 63
     7
421
 16777215
176
     1
 74
     1
176
     1
 91
        4
176
     1
 64
     7
176
     1
 65
   257
176
     1
 75
     1
176
     1
175
     1
176
     1
 42
1.0
176
     1
 92
        0
176
     1
 66
   257
176
     1
 43
1.0
176
     1
 76
     1
176
     1
 77
     6
176
     1
 78
     2
176
     1
 67
     7
176
     1
 79
     3
176
     1
170
     0
176
     1
171
     0
176
     1
290
     0
176
     1
 93
        1
176
     1
 44
0.0
176
     1
173
     0
176
     1
1001
ACAD
1000
AcDbSavedByObjectVersion
1070
     0
  0
VISUALSTYLE
  5
3C
102
{ACAD_XDICTIONARY
360
189
102
}
102
{ACAD_REACTORS
330
29
102
}
330
29
100
AcDbVisualStyle
  2
X-Ray
 70
    25
177
     2
291
     0
 71
     2
176
     1
 72
     2
176
     1
 73
     1
176
     1
 90
        1
176
     1
 40
0.5
176
     1
 41
30.0
176
     1
 63
     7
421
 16777215
176
     1
 74
     1
176
     1
 91
        0
176
     1
 64
     7
176
     1
 65
   257
176
     1
 75
     1
176
     1
175
     1
176
     1
 42
1.0
176
     1
 92
        8
176
     1
 66
     7
176
     1
 43
1.0
176
     1
 76
     1
176
     1
 77
     6
176
     1
 78
     2
176
     1
 67
     7
176
     1
 79
     3
176
     1
170
     0
176
     1
171
     0
176
     1
290
     0
176
     1
 93
       13
176
     1
 44
0.0
176
     1
173
     0
176
     1
1001
ACAD
1000
AcDbSavedByObjectVersion
1070
     0
  0
DICTIONARYVAR
  5
161
102
{ACAD_REACTORS
330
15C
102
}
330
15C
100
DictionaryVariables
280
     0
  1
1:1
  0
DICTIONARYVAR
  5
15E
102
{ACAD_REACTORS
330
15C
102
}
330
15C
100
DictionaryVariables
280
     0
  1
STANDARD
  0
DICTIONARYVAR
  5
15D
102
{ACAD_REACTORS
330
15C
102
}
330
15C
100
DictionaryVariables
280
     0
  1
STANDARD
  0
DICTIONARYVAR
  5
15F
102
{ACAD_REACTORS
330
15C
102
}
330
15C
100
DictionaryVariables
280
     0
  1
Imperial24
  0
DICTIONARYVAR
  5
160
102
{ACAD_REACTORS
330
15C
102
}
330
15C
100
DictionaryVariables
280
     0
  1
Imperial24
  0
DICTIONARY
  5
199
330
6B
100
AcDbDictionary
280
     1
281
     1
  3
ACAD_XREC_ROUNDTRIP
360
19A
  0
DICTIONARY
  5
1A
330
19
100
AcDbDictionary
280
     1
281
     1
  3
BUMPTILE
360
1C
  3
DIFFUSETILE
360
1B
  3
OPACITYTILE
360
1F
  3
REFLECTIONTILE
360
1E
  3
REFRACTIONTILE
360
20
  3
SPECULARTILE
360
1D
  0
DICTIONARY
  5
12
330
11
100
AcDbDictionary
280
     1
281
     1
  3
BUMPTILE
360
14
  3
DIFFUSETILE
360
13
  3
OPACITYTILE
360
17
  3
REFLECTIONTILE
360
16
  3
REFRACTIONTILE
360
18
  3
SPECULARTILE
360
15
  0
DICTIONARY
  5
22
330
21
100
AcDbDictionary
280
     1
281
     1
  3
BUMPTILE
360
24
  3
DIFFUSETILE
360
23
  3
OPACITYTILE
360
27
  3
REFLECTIONTILE
360
26
  3
REFRACTIONTILE
360
28
  3
SPECULARTILE
360
25
  0
DICTIONARY
  5
195
330
67
100
AcDbDictionary
280
     1
281
     1
  3
ACAD_XREC_ROUNDTRIP
360
196
  0
DICTIONARY
  5
197
330
69
100
AcDbDictionary
280
     1
281
     1
  3
ACAD_XREC_ROUNDTRIP
360
198
  0
DICTIONARY
  5
162
330
65
100
AcDbDictionary
280
     1
281
     1
  3
ACAD_ROUNDTRIP_2008_TABLESTYLE_CELLSTYLEMAP
360
163
  0
DICTIONARY
  5
16F
330
2F
100
AcDbDictionary
280
     1
281
     1
  3
ACAD_XREC_ROUNDTRIP
360
170
  0
DICTIONARY
  5
16D
330
2E
100
AcDbDictionary
280
     1
281
     1
  3
ACAD_XREC_ROUNDTRIP
360
16E
  0
DICTIONARY
  5
17B
330
35
100
AcDbDictionary
280
     1
281
     1
  3
ACAD_XREC_ROUNDTRIP
360
17C
  0
DICTIONARY
  5
183
330
39
100
AcDbDictionary
280
     1
281
     1
  3
ACAD_XREC_ROUNDTRIP
360
184
  0
DICTIONARY
  5
175
330
32
100
AcDbDictionary
280
     1
281
     1
  3
ACAD_XREC_ROUNDTRIP
360
176
  0
DICTIONARY
  5
179
330
34
100
AcDbDictionary
280
     1
281
     1
  3
ACAD_XREC_ROUNDTRIP
360
17A
  0
DICTIONARY
  5
193
330
41
100
AcDbDictionary
280
     1
281
     1
  3
ACAD_XREC_ROUNDTRIP
360
194
  0
DICTIONARY
  5
181
330
38
100
AcDbDictionary
280
     1
281
     1
  3
ACAD_XREC_ROUNDTRIP
360
182
  0
DICTIONARY
  5
165
330
2A
100
AcDbDictionary
280
     1
281
     1
  3
ACAD_XREC_ROUNDTRIP
360
166
  0
DICTIONARY
  5
167
330
2B
100
AcDbDictionary
280
     1
281
     1
  3
ACAD_XREC_ROUNDTRIP
360
168
  0
DICTIONARY
  5
169
330
2C
100
AcDbDictionary
280
     1
281
     1
  3
ACAD_XREC_ROUNDTRIP
360
16A
  0
DICTIONARY
  5
16B
330
2D
100
AcDbDictionary
280
     1
281
     1
  3
ACAD_XREC_ROUNDTRIP
360
16C
  0
DICTIONARY
  5
173
330
31
100
AcDbDictionary
280
     1
281
     1
  3
ACAD_XREC_ROUNDTRIP
360
174
  0
DICTIONARY
  5
18F
330
3F
100
AcDbDictionary
280
     1
281
     1
  3
ACAD_XREC_ROUNDTRIP
360
190
  0
DICTIONARY
  5
17F
330
37
100
AcDbDictionary
280
     1
281
     1
  3
ACAD_XREC_ROUNDTRIP
360
180
  0
DICTIONARY
  5
191
330
40
100
AcDbDictionary
280
     1
281
     1
  3
ACAD_XREC_ROUNDTRIP
360
192
  0
DICTIONARY
  5
177
330
33
100
AcDbDictionary
280
     1
281
     1
  3
ACAD_XREC_ROUNDTRIP
360
178
  0
DICTIONARY
  5
18D
330
3E
100
AcDbDictionary
280
     1
281
     1
  3
ACAD_XREC_ROUNDTRIP
360
18E
  0
DICTIONARY
  5
18B
330
3D
100
AcDbDictionary
280
     1
281
     1
  3
ACAD_XREC_ROUNDTRIP
360
18C
  0
DICTIONARY
  5
185
330
3A
100
AcDbDictionary
280
     1
281
     1
  3
ACAD_XREC_ROUNDTRIP
360
186
  0
DICTIONARY
  5
187
330
3B
100
AcDbDictionary
280
     1
281
     1
  3
ACAD_XREC_ROUNDTRIP
360
188
  0
DICTIONARY
  5
17D
330
36
100
AcDbDictionary
280
     1
281
     1
  3
ACAD_XREC_ROUNDTRIP
360
17E
  0
DICTIONARY
  5
171
330
30
100
AcDbDictionary
280
     1
281
     1
  3
ACAD_XREC_ROUNDTRIP
360
172
  0
DICTIONARY
  5
189
330
3C
100
AcDbDictionary
280
     1
281
     1
  3
ACAD_XREC_ROUNDTRIP
360
18A
  0
XRECORD
  5
19A
102
{ACAD_REACTORS
330
199
102
}
330
199
100
AcDbXrecord
280
     1
102
DISPLAYNAME
  1
Imperial24
102
FLAGS
 90
        0
  0
XRECORD
  5
1C
102
{ACAD_REACTORS
330
1A
102
}
330
1A
100
AcDbXrecord
280
     1
270
     1
271
     1
  0
XRECORD
  5
1B
102
{ACAD_REACTORS
330
1A
102
}
330
1A
100
AcDbXrecord
280
     1
270
     1
271
     1
  0
XRECORD
  5
1F
102
{ACAD_REACTORS
330
1A
102
}
330
1A
100
AcDbXrecord
280
     1
270
     1
271
     1
  0
XRECORD
  5
1E
102
{ACAD_REACTORS
330
1A
102
}
330
1A
100
AcDbXrecord
280
     1
270
     1
271
     1
  0
XRECORD
  5
20
102
{ACAD_REACTORS
330
1A
102
}
330
1A
100
AcDbXrecord
280
     1
270
     1
271
     1
  0
XRECORD
  5
1D
102
{ACAD_REACTORS
330
1A
102
}
330
1A
100
AcDbXrecord
280
     1
270
     1
271
     1
  0
XRECORD
  5
14
102
{ACAD_REACTORS
330
12
102
}
330
12
100
AcDbXrecord
280
     1
270
     1
271
     1
  0
XRECORD
  5
13
102
{ACAD_REACTORS
330
12
102
}
330
12
100
AcDbXrecord
280
     1
270
     1
271
     1
  0
XRECORD
  5
17
102
{ACAD_REACTORS
330
12
102
}
330
12
100
AcDbXrecord
280
     1
270
     1
271
     1
  0
XRECORD
  5
16
102
{ACAD_REACTORS
330
12
102
}
330
12
100
AcDbXrecord
280
     1
270
     1
271
     1
  0
XRECORD
  5
18
102
{ACAD_REACTORS
330
12
102
}
330
12
100
AcDbXrecord
280
     1
270
     1
271
     1
  0
XRECORD
  5
15
102
{ACAD_REACTORS
330
12
102
}
330
12
100
AcDbXrecord
280
     1
270
     1
271
     1
  0
XRECORD
  5
24
102
{ACAD_REACTORS
330
22
102
}
330
22
100
AcDbXrecord
280
     1
270
     1
271
     1
  0
XRECORD
  5
23
102
{ACAD_REACTORS
330
22
102
}
330
22
100
AcDbXrecord
280
     1
270
     1
271
     1
  0
XRECORD
  5
27
102
{ACAD_REACTORS
330
22
102
}
330
22
100
AcDbXrecord
280
     1
270
     1
271
     1
  0
XRECORD
  5
26
102
{ACAD_REACTORS
330
22
102
}
330
22
100
AcDbXrecord
280
     1
270
     1
271
     1
  0
XRECORD
  5
28
102
{ACAD_REACTORS
330
22
102
}
330
22
100
AcDbXrecord
280
     1
270
     1
271
     1
  0
XRECORD
  5
25
102
{ACAD_REACTORS
330
22
102
}
330
22
100
AcDbXrecord
280
     1
270
     1
271
     1
  0
XRECORD
  5
196
102
{ACAD_REACTORS
330
195
102
}
330
195
100
AcDbXrecord
280
     1
102
ACAD_ROUNDTRIP_2012_MLEADER_STYLE
298
     1
  0
XRECORD
  5
198
102
{ACAD_REACTORS
330
197
102
}
330
197
100
AcDbXrecord
280
     1
102
DISPLAYNAME
  1
Imperial24
102
FLAGS
 90
        0
  0
CELLSTYLEMAP
  5
163
102
{ACAD_REACTORS
330
162
102
}
330
162
100
AcDbCellStyleMap
 90
        3
300
CELLSTYLE
  1
TABLEFORMAT_BEGIN
 90
        5
170
     1
 91
        0
 92
    32768
 62
   257
 93
        1
300
CONTENTFORMAT
  1
CONTENTFORMAT_BEGIN
 90
        0
 91
        0
 92
      512
 93
        0
300

 40
0.0
140
1.0
 94
        5
 62
     0
340
55
144
0.25
309
CONTENTFORMAT_END
171
     0
 94
        0
309
TABLEFORMAT_END
  1
CELLSTYLE_BEGIN
 90
        1
 91
        1
300
_TITLE
309
CELLSTYLE_END
300
CELLSTYLE
  1
TABLEFORMAT_BEGIN
 90
        5
170
     1
 91
        0
 92
        0
 62
   257
 93
        1
300
CONTENTFORMAT
  1
CONTENTFORMAT_BEGIN
 90
        0
 91
        0
 92
      512
 93
        0
300

 40
0.0
140
1.0
 94
        5
 62
     0
340
55
144
0.18
309
CONTENTFORMAT_END
171
     0
 94
        0
309
TABLEFORMAT_END
  1
CELLSTYLE_BEGIN
 90
        2
 91
        1
300
_HEADER
309
CELLSTYLE_END
300
CELLSTYLE
  1
TABLEFORMAT_BEGIN
 90
        5
170
     1
 91
        0
 92
        0
 62
   257
 93
        1
300
CONTENTFORMAT
  1
CONTENTFORMAT_BEGIN
 90
        0
 91
        0
 92
      512
 93
        0
300

 40
0.0
140
1.0
 94
        2
 62
     0
340
55
144
0.18
309
CONTENTFORMAT_END
171
     0
 94
        0
309
TABLEFORMAT_END
  1
CELLSTYLE_BEGIN
 90
        3
 91
        2
300
_DATA
309
CELLSTYLE_END
  0
XRECORD
  5
170
102
{ACAD_REACTORS
330
16F
102
}
330
16F
100
AcDbXrecord
280
     1
102
RTVSPost2010Prop28
280
     1
102
RTVSPost2010PropOp28
 70
     1
102
RTVSPost2010Prop29
280
     1
102
RTVSPost2010PropOp29
 70
     1
102
RTVSPost2010Prop30
280
     0
102
RTVSPost2010PropOp30
 70
     1
102
RTVSPost2010Prop31
280
     0
102
RTVSPost2010PropOp31
 70
     1
102
RTVSPost2010Prop32
280
     0
102
RTVSPost2010PropOp32
 70
     1
102
RTVSPost2010Prop33
280
     0
102
RTVSPost2010PropOp33
 70
     1
102
RTVSPost2010Prop34
280
     0
102
RTVSPost2010PropOp34
 70
     1
102
RTVSPost2010Prop35
280
     0
102
RTVSPost2010PropOp35
 70
     1
102
RTVSPost2010Prop36
280
     0
102
RTVSPost2010PropOp36
 70
     1
102
RTVSPost2010Prop37
 90
       50
102
RTVSPost2010PropOp37
 70
     1
102
RTVSPost2010Prop38
140
0.0
102
RTVSPost2010PropOp38
 70
     1
102
RTVSPost2010Prop39
140
1.0
102
RTVSPost2010PropOp39
 70
     1
102
RTVSPost2010Prop40
 90
        0
102
RTVSPost2010PropOp40
 70
     1
102
RTVSPost2010Prop41ColorIndex
 90
       18
102
RTVSPost2010Prop41ColorRGB
 90
        0
102
RTVSPost2010PropOp41
 70
     1
102
RTVSPost2010Prop42
 90
       50
102
RTVSPost2010PropOp42
 70
     1
102
RTVSPost2010Prop43
 90
        3
102
RTVSPost2010PropOp43
 70
     1
102
RTVSPost2010Prop44ColorIndex
 90
        5
102
RTVSPost2010Prop44ColorRGB
 90
      255
102
RTVSPost2010PropOp44
 70
     1
102
RTVSPost2010Prop45
280
     0
102
RTVSPost2010PropOp45
 70
     1
102
RTVSPost2010Prop46
 90
       50
102
RTVSPost2010PropOp46
 70
     1
102
RTVSPost2010Prop47
 90
       50
102
RTVSPost2010PropOp47
 70
     1
102
RTVSPost2010Prop48
 90
       50
102
RTVSPost2010PropOp48
 70
     1
102
RTVSPost2010Prop49
280
     0
102
RTVSPost2010PropOp49
 70
     1
102
RTVSPost2010Prop50
 90
       50
102
RTVSPost2010PropOp50
 70
     1
102
RTVSPost2010Prop51ColorIndex
 90
      256
102
RTVSPost2010Prop51ColorRGB
 90
-16777216
102
RTVSPost2010PropOp51
 70
     0
102
RTVSPost2010Prop52
140
1.0
102
RTVSPost2010PropOp52
 70
     0
102
RTVSPost2010Prop53
 90
        2
102
RTVSPost2010PropOp53
 70
     1
102
RTVSPost2010Prop54
  1
strokes_ogs.tif
102
RTVSPost2010PropOp54
 70
     1
102
RTVSPost2010Prop55
280
     0
102
RTVSPost2010PropOp55
 70
     1
102
RTVSPost2010Prop56
140
1.0
102
RTVSPost2010PropOp56
 70
     1
102
RTVSPost2010Prop57
140
1.0
102
RTVSPost2010PropOp57
 70
     1
  0
XRECORD
  5
16E
102
{ACAD_REACTORS
330
16D
102
}
330
16D
100
AcDbXrecord
280
     1
102
RTVSPost2010Prop28
280
     0
102
RTVSPost2010PropOp28
 70
     1
102
RTVSPost2010Prop29
280
     1
102
RTVSPost2010PropOp29
 70
     1
102
RTVSPost2010Prop30
280
     1
102
RTVSPost2010PropOp30
 70
     1
102
RTVSPost2010Prop31
280
     0
102
RTVSPost2010PropOp31
 70
     1
102
RTVSPost2010Prop32
280
     0
102
RTVSPost2010PropOp32
 70
     1
102
RTVSPost2010Prop33
280
     0
102
RTVSPost2010PropOp33
 70
     1
102
RTVSPost2010Prop34
280
     0
102
RTVSPost2010PropOp34
 70
     1
102
RTVSPost2010Prop35
280
     0
102
RTVSPost2010PropOp35
 70
     1
102
RTVSPost2010Prop36
280
     0
102
RTVSPost2010PropOp36
 70
     1
102
RTVSPost2010Prop37
 90
       50
102
RTVSPost2010PropOp37
 70
     1
102
RTVSPost2010Prop38
140
0.0
102
RTVSPost2010PropOp38
 70
     1
102
RTVSPost2010Prop39
140
1.0
102
RTVSPost2010PropOp39
 70
     1
102
RTVSPost2010Prop40
 90
        0
102
RTVSPost2010PropOp40
 70
     1
102
RTVSPost2010Prop41ColorIndex
 90
       18
102
RTVSPost2010Prop41ColorRGB
 90
        0
102
RTVSPost2010PropOp41
 70
     1
102
RTVSPost2010Prop42
 90
       50
102
RTVSPost2010PropOp42
 70
     1
102
RTVSPost2010Prop43
 90
        3
102
RTVSPost2010PropOp43
 70
     1
102
RTVSPost2010Prop44ColorIndex
 90
        5
102
RTVSPost2010Prop44ColorRGB
 90
      255
102
RTVSPost2010PropOp44
 70
     1
102
RTVSPost2010Prop45
280
     0
102
RTVSPost2010PropOp45
 70
     1
102
RTVSPost2010Prop46
 90
       50
102
RTVSPost2010PropOp46
 70
     1
102
RTVSPost2010Prop47
 90
       50
102
RTVSPost2010PropOp47
 70
     1
102
RTVSPost2010Prop48
 90
       50
102
RTVSPost2010PropOp48
 70
     1
102
RTVSPost2010Prop49
280
     0
102
RTVSPost2010PropOp49
 70
     1
102
RTVSPost2010Prop50
 90
       50
102
RTVSPost2010PropOp50
 70
     1
102
RTVSPost2010Prop51ColorIndex
 90
      256
102
RTVSPost2010Prop51ColorRGB
 90
-16777216
102
RTVSPost2010PropOp51
 70
     0
102
RTVSPost2010Prop52
140
1.0
102
RTVSPost2010PropOp52
 70
     0
102
RTVSPost2010Prop53
 90
        2
102
RTVSPost2010PropOp53
 70
     1
102
RTVSPost2010Prop54
  1
strokes_ogs.tif
102
RTVSPost2010PropOp54
 70
     1
102
RTVSPost2010Prop55
280
     0
102
RTVSPost2010PropOp55
 70
     1
102
RTVSPost2010Prop56
140
1.0
102
RTVSPost2010PropOp56
 70
     1
102
RTVSPost2010Prop57
140
1.0
102
RTVSPost2010PropOp57
 70
     1
  0
XRECORD
  5
17C
102
{ACAD_REACTORS
330
17B
102
}
330
17B
100
AcDbXrecord
280
     1
102
RTVSPost2010Prop28
280
     0
102
RTVSPost2010PropOp28
 70
     1
102
RTVSPost2010Prop29
280
     1
102
RTVSPost2010PropOp29
 70
     1
102
RTVSPost2010Prop30
280
     1
102
RTVSPost2010PropOp30
 70
     1
102
RTVSPost2010Prop31
280
     0
102
RTVSPost2010PropOp31
 70
     1
102
RTVSPost2010Prop32
280
     0
102
RTVSPost2010PropOp32
 70
     1
102
RTVSPost2010Prop33
280
     0
102
RTVSPost2010PropOp33
 70
     1
102
RTVSPost2010Prop34
280
     0
102
RTVSPost2010PropOp34
 70
     1
102
RTVSPost2010Prop35
280
     0
102
RTVSPost2010PropOp35
 70
     1
102
RTVSPost2010Prop36
280
     0
102
RTVSPost2010PropOp36
 70
     1
102
RTVSPost2010Prop37
 90
       50
102
RTVSPost2010PropOp37
 70
     1
102
RTVSPost2010Prop38
140
0.0
102
RTVSPost2010PropOp38
 70
     1
102
RTVSPost2010Prop39
140
1.0
102
RTVSPost2010PropOp39
 70
     1
102
RTVSPost2010Prop40
 90
        0
102
RTVSPost2010PropOp40
 70
     1
102
RTVSPost2010Prop41ColorIndex
 90
       18
102
RTVSPost2010Prop41ColorRGB
 90
        0
102
RTVSPost2010PropOp41
 70
     1
102
RTVSPost2010Prop42
 90
       50
102
RTVSPost2010PropOp42
 70
     1
102
RTVSPost2010Prop43
 90
        3
102
RTVSPost2010PropOp43
 70
     1
102
RTVSPost2010Prop44ColorIndex
 90
        5
102
RTVSPost2010Prop44ColorRGB
 90
      255
102
RTVSPost2010PropOp44
 70
     1
102
RTVSPost2010Prop45
280
     0
102
RTVSPost2010PropOp45
 70
     1
102
RTVSPost2010Prop46
 90
       50
102
RTVSPost2010PropOp46
 70
     1
102
RTVSPost2010Prop47
 90
       50
102
RTVSPost2010PropOp47
 70
     1
102
RTVSPost2010Prop48
 90
       50
102
RTVSPost2010PropOp48
 70
     1
102
RTVSPost2010Prop49
280
     0
102
RTVSPost2010PropOp49
 70
     1
102
RTVSPost2010Prop50
 90
       50
102
RTVSPost2010PropOp50
 70
     1
102
RTVSPost2010Prop51ColorIndex
 90
      256
102
RTVSPost2010Prop51ColorRGB
 90
-16777216
102
RTVSPost2010PropOp51
 70
     0
102
RTVSPost2010Prop52
140
1.0
102
RTVSPost2010PropOp52
 70
     0
102
RTVSPost2010Prop53
 90
        2
102
RTVSPost2010PropOp53
 70
     1
102
RTVSPost2010Prop54
  1
strokes_ogs.tif
102
RTVSPost2010PropOp54
 70
     1
102
RTVSPost2010Prop55
280
     0
102
RTVSPost2010PropOp55
 70
     1
102
RTVSPost2010Prop56
140
1.0
102
RTVSPost2010PropOp56
 70
     1
102
RTVSPost2010Prop57
140
1.0
102
RTVSPost2010PropOp57
 70
     1
  0
XRECORD
  5
184
102
{ACAD_REACTORS
330
183
102
}
330
183
100
AcDbXrecord
280
     1
102
RTVSPost2010Prop28
280
     0
102
RTVSPost2010PropOp28
 70
     1
102
RTVSPost2010Prop29
280
     1
102
RTVSPost2010PropOp29
 70
     1
102
RTVSPost2010Prop30
280
     1
102
RTVSPost2010PropOp30
 70
     1
102
RTVSPost2010Prop31
280
     0
102
RTVSPost2010PropOp31
 70
     1
102
RTVSPost2010Prop32
280
     0
102
RTVSPost2010PropOp32
 70
     1
102
RTVSPost2010Prop33
280
     0
102
RTVSPost2010PropOp33
 70
     1
102
RTVSPost2010Prop34
280
     0
102
RTVSPost2010PropOp34
 70
     1
102
RTVSPost2010Prop35
280
     0
102
RTVSPost2010PropOp35
 70
     1
102
RTVSPost2010Prop36
280
     0
102
RTVSPost2010PropOp36
 70
     1
102
RTVSPost2010Prop37
 90
       50
102
RTVSPost2010PropOp37
 70
     1
102
RTVSPost2010Prop38
140
0.0
102
RTVSPost2010PropOp38
 70
     1
102
RTVSPost2010Prop39
140
1.0
102
RTVSPost2010PropOp39
 70
     1
102
RTVSPost2010Prop40
 90
        0
102
RTVSPost2010PropOp40
 70
     1
102
RTVSPost2010Prop41ColorIndex
 90
       18
102
RTVSPost2010Prop41ColorRGB
 90
        0
102
RTVSPost2010PropOp41
 70
     1
102
RTVSPost2010Prop42
 90
       50
102
RTVSPost2010PropOp42
 70
     1
102
RTVSPost2010Prop43
 90
        3
102
RTVSPost2010PropOp43
 70
     1
102
RTVSPost2010Prop44ColorIndex
 90
        5
102
RTVSPost2010Prop44ColorRGB
 90
      255
102
RTVSPost2010PropOp44
 70
     1
102
RTVSPost2010Prop45
280
     0
102
RTVSPost2010PropOp45
 70
     1
102
RTVSPost2010Prop46
 90
       50
102
RTVSPost2010PropOp46
 70
     1
102
RTVSPost2010Prop47
 90
       50
102
RTVSPost2010PropOp47
 70
     1
102
RTVSPost2010Prop48
 90
       50
102
RTVSPost2010PropOp48
 70
     1
102
RTVSPost2010Prop49
280
     0
102
RTVSPost2010PropOp49
 70
     1
102
RTVSPost2010Prop50
 90
       50
102
RTVSPost2010PropOp50
 70
     1
102
RTVSPost2010Prop51ColorIndex
 90
      256
102
RTVSPost2010Prop51ColorRGB
 90
-16777216
102
RTVSPost2010PropOp51
 70
     0
102
RTVSPost2010Prop52
140
1.0
102
RTVSPost2010PropOp52
 70
     0
102
RTVSPost2010Prop53
 90
        2
102
RTVSPost2010PropOp53
 70
     1
102
RTVSPost2010Prop54
  1
strokes_ogs.tif
102
RTVSPost2010PropOp54
 70
     1
102
RTVSPost2010Prop55
280
     0
102
RTVSPost2010PropOp55
 70
     1
102
RTVSPost2010Prop56
140
1.0
102
RTVSPost2010PropOp56
 70
     1
102
RTVSPost2010Prop57
140
1.0
102
RTVSPost2010PropOp57
 70
     1
  0
XRECORD
  5
176
102
{ACAD_REACTORS
330
175
102
}
330
175
100
AcDbXrecord
280
     1
102
RTVSPost2010Prop28
280
     0
102
RTVSPost2010PropOp28
 70
     1
102
RTVSPost2010Prop29
280
     1
102
RTVSPost2010PropOp29
 70
     1
102
RTVSPost2010Prop30
280
     1
102
RTVSPost2010PropOp30
 70
     1
102
RTVSPost2010Prop31
280
     0
102
RTVSPost2010PropOp31
 70
     1
102
RTVSPost2010Prop32
280
     0
102
RTVSPost2010PropOp32
 70
     1
102
RTVSPost2010Prop33
280
     0
102
RTVSPost2010PropOp33
 70
     1
102
RTVSPost2010Prop34
280
     0
102
RTVSPost2010PropOp34
 70
     1
102
RTVSPost2010Prop35
280
     0
102
RTVSPost2010PropOp35
 70
     1
102
RTVSPost2010Prop36
280
     0
102
RTVSPost2010PropOp36
 70
     1
102
RTVSPost2010Prop37
 90
       50
102
RTVSPost2010PropOp37
 70
     1
102
RTVSPost2010Prop38
140
0.0
102
RTVSPost2010PropOp38
 70
     1
102
RTVSPost2010Prop39
140
1.0
102
RTVSPost2010PropOp39
 70
     1
102
RTVSPost2010Prop40
 90
        0
102
RTVSPost2010PropOp40
 70
     1
102
RTVSPost2010Prop41ColorIndex
 90
       18
102
RTVSPost2010Prop41ColorRGB
 90
        0
102
RTVSPost2010PropOp41
 70
     1
102
RTVSPost2010Prop42
 90
       50
102
RTVSPost2010PropOp42
 70
     1
102
RTVSPost2010Prop43
 90
        3
102
RTVSPost2010PropOp43
 70
     1
102
RTVSPost2010Prop44ColorIndex
 90
        5
102
RTVSPost2010Prop44ColorRGB
 90
      255
102
RTVSPost2010PropOp44
 70
     1
102
RTVSPost2010Prop45
280
     0
102
RTVSPost2010PropOp45
 70
     1
102
RTVSPost2010Prop46
 90
       50
102
RTVSPost2010PropOp46
 70
     1
102
RTVSPost2010Prop47
 90
       50
102
RTVSPost2010PropOp47
 70
     1
102
RTVSPost2010Prop48
 90
       50
102
RTVSPost2010PropOp48
 70
     1
102
RTVSPost2010Prop49
280
     0
102
RTVSPost2010PropOp49
 70
     1
102
RTVSPost2010Prop50
 90
       50
102
RTVSPost2010PropOp50
 70
     1
102
RTVSPost2010Prop51ColorIndex
 90
      256
102
RTVSPost2010Prop51ColorRGB
 90
-16777216
102
RTVSPost2010PropOp51
 70
     0
102
RTVSPost2010Prop52
140
1.0
102
RTVSPost2010PropOp52
 70
     0
102
RTVSPost2010Prop53
 90
        2
102
RTVSPost2010PropOp53
 70
     1
102
RTVSPost2010Prop54
  1
strokes_ogs.tif
102
RTVSPost2010PropOp54
 70
     1
102
RTVSPost2010Prop55
280
     0
102
RTVSPost2010PropOp55
 70
     1
102
RTVSPost2010Prop56
140
1.0
102
RTVSPost2010PropOp56
 70
     1
102
RTVSPost2010Prop57
140
1.0
102
RTVSPost2010PropOp57
 70
     1
  0
XRECORD
  5
17A
102
{ACAD_REACTORS
330
179
102
}
330
179
100
AcDbXrecord
280
     1
102
RTVSPost2010Prop28
280
     0
102
RTVSPost2010PropOp28
 70
     1
102
RTVSPost2010Prop29
280
     1
102
RTVSPost2010PropOp29
 70
     1
102
RTVSPost2010Prop30
280
     1
102
RTVSPost2010PropOp30
 70
     1
102
RTVSPost2010Prop31
280
     0
102
RTVSPost2010PropOp31
 70
     1
102
RTVSPost2010Prop32
280
     0
102
RTVSPost2010PropOp32
 70
     1
102
RTVSPost2010Prop33
280
     0
102
RTVSPost2010PropOp33
 70
     1
102
RTVSPost2010Prop34
280
     0
102
RTVSPost2010PropOp34
 70
     1
102
RTVSPost2010Prop35
280
     0
102
RTVSPost2010PropOp35
 70
     1
102
RTVSPost2010Prop36
280
     0
102
RTVSPost2010PropOp36
 70
     1
102
RTVSPost2010Prop37
 90
       50
102
RTVSPost2010PropOp37
 70
     1
102
RTVSPost2010Prop38
140
0.0
102
RTVSPost2010PropOp38
 70
     1
102
RTVSPost2010Prop39
140
1.0
102
RTVSPost2010PropOp39
 70
     1
102
RTVSPost2010Prop40
 90
        0
102
RTVSPost2010PropOp40
 70
     1
102
RTVSPost2010Prop41ColorIndex
 90
       18
102
RTVSPost2010Prop41ColorRGB
 90
        0
102
RTVSPost2010PropOp41
 70
     1
102
RTVSPost2010Prop42
 90
       50
102
RTVSPost2010PropOp42
 70
     1
102
RTVSPost2010Prop43
 90
        3
102
RTVSPost2010PropOp43
 70
     1
102
RTVSPost2010Prop44ColorIndex
 90
        5
102
RTVSPost2010Prop44ColorRGB
 90
      255
102
RTVSPost2010PropOp44
 70
     1
102
RTVSPost2010Prop45
280
     0
102
RTVSPost2010PropOp45
 70
     1
102
RTVSPost2010Prop46
 90
       50
102
RTVSPost2010PropOp46
 70
     1
102
RTVSPost2010Prop47
 90
       50
102
RTVSPost2010PropOp47
 70
     1
102
RTVSPost2010Prop48
 90
       50
102
RTVSPost2010PropOp48
 70
     1
102
RTVSPost2010Prop49
280
     0
102
RTVSPost2010PropOp49
 70
     1
102
RTVSPost2010Prop50
 90
       50
102
RTVSPost2010PropOp50
 70
     1
102
RTVSPost2010Prop51ColorIndex
 90
      256
102
RTVSPost2010Prop51ColorRGB
 90
-16777216
102
RTVSPost2010PropOp51
 70
     0
102
RTVSPost2010Prop52
140
1.0
102
RTVSPost2010PropOp52
 70
     0
102
RTVSPost2010Prop53
 90
        2
102
RTVSPost2010PropOp53
 70
     1
102
RTVSPost2010Prop54
  1
strokes_ogs.tif
102
RTVSPost2010PropOp54
 70
     1
102
RTVSPost2010Prop55
280
     0
102
RTVSPost2010PropOp55
 70
     1
102
RTVSPost2010Prop56
140
1.0
102
RTVSPost2010PropOp56
 70
     1
102
RTVSPost2010Prop57
140
1.0
102
RTVSPost2010PropOp57
 70
     1
  0
XRECORD
  5
194
102
{ACAD_REACTORS
330
193
102
}
330
193
100
AcDbXrecord
280
     1
102
RTVSPost2010Prop28
280
     0
102
RTVSPost2010PropOp28
 70
     0
102
RTVSPost2010Prop29
280
     1
102
RTVSPost2010PropOp29
 70
     0
102
RTVSPost2010Prop30
280
     1
102
RTVSPost2010PropOp30
 70
     0
102
RTVSPost2010Prop31
280
     0
102
RTVSPost2010PropOp31
 70
     0
102
RTVSPost2010Prop32
280
     0
102
RTVSPost2010PropOp32
 70
     0
102
RTVSPost2010Prop33
280
     0
102
RTVSPost2010PropOp33
 70
     0
102
RTVSPost2010Prop34
280
     0
102
RTVSPost2010PropOp34
 70
     0
102
RTVSPost2010Prop35
280
     0
102
RTVSPost2010PropOp35
 70
     0
102
RTVSPost2010Prop36
280
     0
102
RTVSPost2010PropOp36
 70
     0
102
RTVSPost2010Prop37
 90
       50
102
RTVSPost2010PropOp37
 70
     0
102
RTVSPost2010Prop38
140
0.0
102
RTVSPost2010PropOp38
 70
     0
102
RTVSPost2010Prop39
140
1.0
102
RTVSPost2010PropOp39
 70
     0
102
RTVSPost2010Prop40
 90
        0
102
RTVSPost2010PropOp40
 70
     0
102
RTVSPost2010Prop41ColorIndex
 90
       18
102
RTVSPost2010Prop41ColorRGB
 90
        0
102
RTVSPost2010PropOp41
 70
     0
102
RTVSPost2010Prop42
 90
       50
102
RTVSPost2010PropOp42
 70
     0
102
RTVSPost2010Prop43
 90
        3
102
RTVSPost2010PropOp43
 70
     0
102
RTVSPost2010Prop44ColorIndex
 90
        5
102
RTVSPost2010Prop44ColorRGB
 90
      255
102
RTVSPost2010PropOp44
 70
     0
102
RTVSPost2010Prop45
280
     0
102
RTVSPost2010PropOp45
 70
     0
102
RTVSPost2010Prop46
 90
       50
102
RTVSPost2010PropOp46
 70
     0
102
RTVSPost2010Prop47
 90
       50
102
RTVSPost2010PropOp47
 70
     0
102
RTVSPost2010Prop48
 90
       50
102
RTVSPost2010PropOp48
 70
     0
102
RTVSPost2010Prop49
280
     0
102
RTVSPost2010PropOp49
 70
     0
102
RTVSPost2010Prop50
 90
       50
102
RTVSPost2010PropOp50
 70
     0
102
RTVSPost2010Prop51ColorIndex
 90
      256
102
RTVSPost2010Prop51ColorRGB
 90
-16777216
102
RTVSPost2010PropOp51
 70
     0
102
RTVSPost2010Prop52
140
1.0
102
RTVSPost2010PropOp52
 70
     0
102
RTVSPost2010Prop53
 90
        2
102
RTVSPost2010PropOp53
 70
     0
102
RTVSPost2010Prop54
  1
strokes_ogs.tif
102
RTVSPost2010PropOp54
 70
     0
102
RTVSPost2010Prop55
280
     0
102
RTVSPost2010PropOp55
 70
     0
102
RTVSPost2010Prop56
140
1.0
102
RTVSPost2010PropOp56
 70
     0
102
RTVSPost2010Prop57
140
1.0
102
RTVSPost2010PropOp57
 70
     0
  0
XRECORD
  5
182
102
{ACAD_REACTORS
330
181
102
}
330
181
100
AcDbXrecord
280
     1
102
RTVSPost2010Prop28
280
     0
102
RTVSPost2010PropOp28
 70
     1
102
RTVSPost2010Prop29
280
     1
102
RTVSPost2010PropOp29
 70
     1
102
RTVSPost2010Prop30
280
     1
102
RTVSPost2010PropOp30
 70
     1
102
RTVSPost2010Prop31
280
     0
102
RTVSPost2010PropOp31
 70
     1
102
RTVSPost2010Prop32
280
     0
102
RTVSPost2010PropOp32
 70
     1
102
RTVSPost2010Prop33
280
     0
102
RTVSPost2010PropOp33
 70
     1
102
RTVSPost2010Prop34
280
     0
102
RTVSPost2010PropOp34
 70
     1
102
RTVSPost2010Prop35
280
     0
102
RTVSPost2010PropOp35
 70
     1
102
RTVSPost2010Prop36
280
     0
102
RTVSPost2010PropOp36
 70
     1
102
RTVSPost2010Prop37
 90
       50
102
RTVSPost2010PropOp37
 70
     1
102
RTVSPost2010Prop38
140
0.0
102
RTVSPost2010PropOp38
 70
     1
102
RTVSPost2010Prop39
140
1.0
102
RTVSPost2010PropOp39
 70
     1
102
RTVSPost2010Prop40
 90
        0
102
RTVSPost2010PropOp40
 70
     1
102
RTVSPost2010Prop41ColorIndex
 90
       18
102
RTVSPost2010Prop41ColorRGB
 90
        0
102
RTVSPost2010PropOp41
 70
     1
102
RTVSPost2010Prop42
 90
       50
102
RTVSPost2010PropOp42
 70
     1
102
RTVSPost2010Prop43
 90
        3
102
RTVSPost2010PropOp43
 70
     1
102
RTVSPost2010Prop44ColorIndex
 90
        5
102
RTVSPost2010Prop44ColorRGB
 90
      255
102
RTVSPost2010PropOp44
 70
     1
102
RTVSPost2010Prop45
280
     0
102
RTVSPost2010PropOp45
 70
     1
102
RTVSPost2010Prop46
 90
       50
102
RTVSPost2010PropOp46
 70
     1
102
RTVSPost2010Prop47
 90
       50
102
RTVSPost2010PropOp47
 70
     1
102
RTVSPost2010Prop48
 90
       50
102
RTVSPost2010PropOp48
 70
     1
102
RTVSPost2010Prop49
280
     0
102
RTVSPost2010PropOp49
 70
     1
102
RTVSPost2010Prop50
 90
       50
102
RTVSPost2010PropOp50
 70
     1
102
RTVSPost2010Prop51ColorIndex
 90
      256
102
RTVSPost2010Prop51ColorRGB
 90
-16777216
102
RTVSPost2010PropOp51
 70
     0
102
RTVSPost2010Prop52
140
1.0
102
RTVSPost2010PropOp52
 70
     0
102
RTVSPost2010Prop53
 90
        2
102
RTVSPost2010PropOp53
 70
     1
102
RTVSPost2010Prop54
  1
strokes_ogs.tif
102
RTVSPost2010PropOp54
 70
     1
102
RTVSPost2010Prop55
280
     0
102
RTVSPost2010PropOp55
 70
     1
102
RTVSPost2010Prop56
140
1.0
102
RTVSPost2010PropOp56
 70
     1
102
RTVSPost2010Prop57
140
1.0
102
RTVSPost2010PropOp57
 70
     1
  0
XRECORD
  5
166
102
{ACAD_REACTORS
330
165
102
}
330
165
100
AcDbXrecord
280
     1
102
RTVSPost2010Prop28
280
     0
102
RTVSPost2010PropOp28
 70
     1
102
RTVSPost2010Prop29
280
     1
102
RTVSPost2010PropOp29
 70
     1
102
RTVSPost2010Prop30
280
     1
102
RTVSPost2010PropOp30
 70
     1
102
RTVSPost2010Prop31
280
     0
102
RTVSPost2010PropOp31
 70
     1
102
RTVSPost2010Prop32
280
     0
102
RTVSPost2010PropOp32
 70
     1
102
RTVSPost2010Prop33
280
     0
102
RTVSPost2010PropOp33
 70
     1
102
RTVSPost2010Prop34
280
     0
102
RTVSPost2010PropOp34
 70
     1
102
RTVSPost2010Prop35
280
     0
102
RTVSPost2010PropOp35
 70
     1
102
RTVSPost2010Prop36
280
     0
102
RTVSPost2010PropOp36
 70
     1
102
RTVSPost2010Prop37
 90
       50
102
RTVSPost2010PropOp37
 70
     1
102
RTVSPost2010Prop38
140
0.0
102
RTVSPost2010PropOp38
 70
     1
102
RTVSPost2010Prop39
140
1.0
102
RTVSPost2010PropOp39
 70
     1
102
RTVSPost2010Prop40
 90
        0
102
RTVSPost2010PropOp40
 70
     1
102
RTVSPost2010Prop41ColorIndex
 90
       18
102
RTVSPost2010Prop41ColorRGB
 90
        0
102
RTVSPost2010PropOp41
 70
     1
102
RTVSPost2010Prop42
 90
       50
102
RTVSPost2010PropOp42
 70
     1
102
RTVSPost2010Prop43
 90
        3
102
RTVSPost2010PropOp43
 70
     1
102
RTVSPost2010Prop44ColorIndex
 90
        5
102
RTVSPost2010Prop44ColorRGB
 90
      255
102
RTVSPost2010PropOp44
 70
     1
102
RTVSPost2010Prop45
280
     0
102
RTVSPost2010PropOp45
 70
     1
102
RTVSPost2010Prop46
 90
       50
102
RTVSPost2010PropOp46
 70
     1
102
RTVSPost2010Prop47
 90
       50
102
RTVSPost2010PropOp47
 70
     1
102
RTVSPost2010Prop48
 90
       50
102
RTVSPost2010PropOp48
 70
     1
102
RTVSPost2010Prop49
280
     0
102
RTVSPost2010PropOp49
 70
     1
102
RTVSPost2010Prop50
 90
       50
102
RTVSPost2010PropOp50
 70
     1
102
RTVSPost2010Prop51ColorIndex
 90
      256
102
RTVSPost2010Prop51ColorRGB
 90
-16777216
102
RTVSPost2010PropOp51
 70
     0
102
RTVSPost2010Prop52
140
1.0
102
RTVSPost2010PropOp52
 70
     0
102
RTVSPost2010Prop53
 90
        2
102
RTVSPost2010PropOp53
 70
     1
102
RTVSPost2010Prop54
  1
strokes_ogs.tif
102
RTVSPost2010PropOp54
 70
     1
102
RTVSPost2010Prop55
280
     0
102
RTVSPost2010PropOp55
 70
     1
102
RTVSPost2010Prop56
140
1.0
102
RTVSPost2010PropOp56
 70
     1
102
RTVSPost2010Prop57
140
1.0
102
RTVSPost2010PropOp57
 70
     1
  0
XRECORD
  5
168
102
{ACAD_REACTORS
330
167
102
}
330
167
100
AcDbXrecord
280
     1
102
RTVSPost2010Prop28
280
     0
102
RTVSPost2010PropOp28
 70
     1
102
RTVSPost2010Prop29
280
     1
102
RTVSPost2010PropOp29
 70
     1
102
RTVSPost2010Prop30
280
     1
102
RTVSPost2010PropOp30
 70
     1
102
RTVSPost2010Prop31
280
     0
102
RTVSPost2010PropOp31
 70
     1
102
RTVSPost2010Prop32
280
     0
102
RTVSPost2010PropOp32
 70
     1
102
RTVSPost2010Prop33
280
     0
102
RTVSPost2010PropOp33
 70
     1
102
RTVSPost2010Prop34
280
     0
102
RTVSPost2010PropOp34
 70
     1
102
RTVSPost2010Prop35
280
     0
102
RTVSPost2010PropOp35
 70
     1
102
RTVSPost2010Prop36
280
     0
102
RTVSPost2010PropOp36
 70
     1
102
RTVSPost2010Prop37
 90
       50
102
RTVSPost2010PropOp37
 70
     1
102
RTVSPost2010Prop38
140
0.0
102
RTVSPost2010PropOp38
 70
     1
102
RTVSPost2010Prop39
140
1.0
102
RTVSPost2010PropOp39
 70
     1
102
RTVSPost2010Prop40
 90
        0
102
RTVSPost2010PropOp40
 70
     1
102
RTVSPost2010Prop41ColorIndex
 90
       18
102
RTVSPost2010Prop41ColorRGB
 90
        0
102
RTVSPost2010PropOp41
 70
     1
102
RTVSPost2010Prop42
 90
       50
102
RTVSPost2010PropOp42
 70
     1
102
RTVSPost2010Prop43
 90
        3
102
RTVSPost2010PropOp43
 70
     1
102
RTVSPost2010Prop44ColorIndex
 90
        5
102
RTVSPost2010Prop44ColorRGB
 90
      255
102
RTVSPost2010PropOp44
 70
     1
102
RTVSPost2010Prop45
280
     0
102
RTVSPost2010PropOp45
 70
     1
102
RTVSPost2010Prop46
 90
       50
102
RTVSPost2010PropOp46
 70
     1
102
RTVSPost2010Prop47
 90
       50
102
RTVSPost2010PropOp47
 70
     1
102
RTVSPost2010Prop48
 90
       50
102
RTVSPost2010PropOp48
 70
     1
102
RTVSPost2010Prop49
280
     0
102
RTVSPost2010PropOp49
 70
     1
102
RTVSPost2010Prop50
 90
       50
102
RTVSPost2010PropOp50
 70
     1
102
RTVSPost2010Prop51ColorIndex
 90
      256
102
RTVSPost2010Prop51ColorRGB
 90
-16777216
102
RTVSPost2010PropOp51
 70
     0
102
RTVSPost2010Prop52
140
1.0
102
RTVSPost2010PropOp52
 70
     0
102
RTVSPost2010Prop53
 90
        2
102
RTVSPost2010PropOp53
 70
     1
102
RTVSPost2010Prop54
  1
strokes_ogs.tif
102
RTVSPost2010PropOp54
 70
     1
102
RTVSPost2010Prop55
280
     0
102
RTVSPost2010PropOp55
 70
     1
102
RTVSPost2010Prop56
140
1.0
102
RTVSPost2010PropOp56
 70
     1
102
RTVSPost2010Prop57
140
1.0
102
RTVSPost2010PropOp57
 70
     1
  0
XRECORD
  5
16A
102
{ACAD_REACTORS
330
169
102
}
330
169
100
AcDbXrecord
280
     1
102
RTVSPost2010Prop28
280
     0
102
RTVSPost2010PropOp28
 70
     1
102
RTVSPost2010Prop29
280
     1
102
RTVSPost2010PropOp29
 70
     1
102
RTVSPost2010Prop30
280
     1
102
RTVSPost2010PropOp30
 70
     1
102
RTVSPost2010Prop31
280
     0
102
RTVSPost2010PropOp31
 70
     1
102
RTVSPost2010Prop32
280
     0
102
RTVSPost2010PropOp32
 70
     1
102
RTVSPost2010Prop33
280
     0
102
RTVSPost2010PropOp33
 70
     1
102
RTVSPost2010Prop34
280
     0
102
RTVSPost2010PropOp34
 70
     1
102
RTVSPost2010Prop35
280
     0
102
RTVSPost2010PropOp35
 70
     1
102
RTVSPost2010Prop36
280
     0
102
RTVSPost2010PropOp36
 70
     1
102
RTVSPost2010Prop37
 90
       50
102
RTVSPost2010PropOp37
 70
     1
102
RTVSPost2010Prop38
140
0.0
102
RTVSPost2010PropOp38
 70
     1
102
RTVSPost2010Prop39
140
1.0
102
RTVSPost2010PropOp39
 70
     1
102
RTVSPost2010Prop40
 90
        0
102
RTVSPost2010PropOp40
 70
     1
102
RTVSPost2010Prop41ColorIndex
 90
       18
102
RTVSPost2010Prop41ColorRGB
 90
        0
102
RTVSPost2010PropOp41
 70
     1
102
RTVSPost2010Prop42
 90
       50
102
RTVSPost2010PropOp42
 70
     1
102
RTVSPost2010Prop43
 90
        3
102
RTVSPost2010PropOp43
 70
     1
102
RTVSPost2010Prop44ColorIndex
 90
        5
102
RTVSPost2010Prop44ColorRGB
 90
      255
102
RTVSPost2010PropOp44
 70
     1
102
RTVSPost2010Prop45
280
     0
102
RTVSPost2010PropOp45
 70
     1
102
RTVSPost2010Prop46
 90
       50
102
RTVSPost2010PropOp46
 70
     1
102
RTVSPost2010Prop47
 90
       50
102
RTVSPost2010PropOp47
 70
     1
102
RTVSPost2010Prop48
 90
       50
102
RTVSPost2010PropOp48
 70
     1
102
RTVSPost2010Prop49
280
     0
102
RTVSPost2010PropOp49
 70
     1
102
RTVSPost2010Prop50
 90
       50
102
RTVSPost2010PropOp50
 70
     1
102
RTVSPost2010Prop51ColorIndex
 90
      256
102
RTVSPost2010Prop51ColorRGB
 90
-16777216
102
RTVSPost2010PropOp51
 70
     0
102
RTVSPost2010Prop52
140
1.0
102
RTVSPost2010PropOp52
 70
     0
102
RTVSPost2010Prop53
 90
        2
102
RTVSPost2010PropOp53
 70
     1
102
RTVSPost2010Prop54
  1
strokes_ogs.tif
102
RTVSPost2010PropOp54
 70
     1
102
RTVSPost2010Prop55
280
     0
102
RTVSPost2010PropOp55
 70
     1
102
RTVSPost2010Prop56
140
1.0
102
RTVSPost2010PropOp56
 70
     1
102
RTVSPost2010Prop57
140
1.0
102
RTVSPost2010PropOp57
 70
     1
  0
XRECORD
  5
16C
102
{ACAD_REACTORS
330
16B
102
}
330
16B
100
AcDbXrecord
280
     1
102
RTVSPost2010Prop28
280
     0
102
RTVSPost2010PropOp28
 70
     1
102
RTVSPost2010Prop29
280
     1
102
RTVSPost2010PropOp29
 70
     1
102
RTVSPost2010Prop30
280
     1
102
RTVSPost2010PropOp30
 70
     1
102
RTVSPost2010Prop31
280
     0
102
RTVSPost2010PropOp31
 70
     1
102
RTVSPost2010Prop32
280
     0
102
RTVSPost2010PropOp32
 70
     1
102
RTVSPost2010Prop33
280
     0
102
RTVSPost2010PropOp33
 70
     1
102
RTVSPost2010Prop34
280
     0
102
RTVSPost2010PropOp34
 70
     1
102
RTVSPost2010Prop35
280
     0
102
RTVSPost2010PropOp35
 70
     1
102
RTVSPost2010Prop36
280
     0
102
RTVSPost2010PropOp36
 70
     1
102
RTVSPost2010Prop37
 90
       50
102
RTVSPost2010PropOp37
 70
     1
102
RTVSPost2010Prop38
140
0.0
102
RTVSPost2010PropOp38
 70
     1
102
RTVSPost2010Prop39
140
1.0
102
RTVSPost2010PropOp39
 70
     1
102
RTVSPost2010Prop40
 90
        0
102
RTVSPost2010PropOp40
 70
     1
102
RTVSPost2010Prop41ColorIndex
 90
       18
102
RTVSPost2010Prop41ColorRGB
 90
        0
102
RTVSPost2010PropOp41
 70
     1
102
RTVSPost2010Prop42
 90
       50
102
RTVSPost2010PropOp42
 70
     1
102
RTVSPost2010Prop43
 90
        3
102
RTVSPost2010PropOp43
 70
     1
102
RTVSPost2010Prop44ColorIndex
 90
        5
102
RTVSPost2010Prop44ColorRGB
 90
      255
102
RTVSPost2010PropOp44
 70
     1
102
RTVSPost2010Prop45
280
     0
102
RTVSPost2010PropOp45
 70
     1
102
RTVSPost2010Prop46
 90
       50
102
RTVSPost2010PropOp46
 70
     1
102
RTVSPost2010Prop47
 90
       50
102
RTVSPost2010PropOp47
 70
     1
102
RTVSPost2010Prop48
 90
       50
102
RTVSPost2010PropOp48
 70
     1
102
RTVSPost2010Prop49
280
     0
102
RTVSPost2010PropOp49
 70
     1
102
RTVSPost2010Prop50
 90
       50
102
RTVSPost2010PropOp50
 70
     1
102
RTVSPost2010Prop51ColorIndex
 90
      256
102
RTVSPost2010Prop51ColorRGB
 90
-16777216
102
RTVSPost2010PropOp51
 70
     0
102
RTVSPost2010Prop52
140
1.0
102
RTVSPost2010PropOp52
 70
     0
102
RTVSPost2010Prop53
 90
        2
102
RTVSPost2010PropOp53
 70
     1
102
RTVSPost2010Prop54
  1
strokes_ogs.tif
102
RTVSPost2010PropOp54
 70
     1
102
RTVSPost2010Prop55
280
     0
102
RTVSPost2010PropOp55
 70
     1
102
RTVSPost2010Prop56
140
1.0
102
RTVSPost2010PropOp56
 70
     1
102
RTVSPost2010Prop57
140
1.0
102
RTVSPost2010PropOp57
 70
     1
  0
XRECORD
  5
174
102
{ACAD_REACTORS
330
173
102
}
330
173
100
AcDbXrecord
280
     1
102
RTVSPost2010Prop28
280
     0
102
RTVSPost2010PropOp28
 70
     1
102
RTVSPost2010Prop29
280
     1
102
RTVSPost2010PropOp29
 70
     1
102
RTVSPost2010Prop30
280
     1
102
RTVSPost2010PropOp30
 70
     1
102
RTVSPost2010Prop31
280
     0
102
RTVSPost2010PropOp31
 70
     1
102
RTVSPost2010Prop32
280
     0
102
RTVSPost2010PropOp32
 70
     1
102
RTVSPost2010Prop33
280
     0
102
RTVSPost2010PropOp33
 70
     1
102
RTVSPost2010Prop34
280
     0
102
RTVSPost2010PropOp34
 70
     1
102
RTVSPost2010Prop35
280
     0
102
RTVSPost2010PropOp35
 70
     1
102
RTVSPost2010Prop36
280
     0
102
RTVSPost2010PropOp36
 70
     1
102
RTVSPost2010Prop37
 90
       50
102
RTVSPost2010PropOp37
 70
     1
102
RTVSPost2010Prop38
140
0.0
102
RTVSPost2010PropOp38
 70
     1
102
RTVSPost2010Prop39
140
1.0
102
RTVSPost2010PropOp39
 70
     1
102
RTVSPost2010Prop40
 90
        0
102
RTVSPost2010PropOp40
 70
     1
102
RTVSPost2010Prop41ColorIndex
 90
       18
102
RTVSPost2010Prop41ColorRGB
 90
        0
102
RTVSPost2010PropOp41
 70
     1
102
RTVSPost2010Prop42
 90
       50
102
RTVSPost2010PropOp42
 70
     1
102
RTVSPost2010Prop43
 90
        3
102
RTVSPost2010PropOp43
 70
     1
102
RTVSPost2010Prop44ColorIndex
 90
        5
102
RTVSPost2010Prop44ColorRGB
 90
      255
102
RTVSPost2010PropOp44
 70
     1
102
RTVSPost2010Prop45
280
     0
102
RTVSPost2010PropOp45
 70
     1
102
RTVSPost2010Prop46
 90
       50
102
RTVSPost2010PropOp46
 70
     1
102
RTVSPost2010Prop47
 90
       50
102
RTVSPost2010PropOp47
 70
     1
102
RTVSPost2010Prop48
 90
       50
102
RTVSPost2010PropOp48
 70
     1
102
RTVSPost2010Prop49
280
     0
102
RTVSPost2010PropOp49
 70
     1
102
RTVSPost2010Prop50
 90
       50
102
RTVSPost2010PropOp50
 70
     1
102
RTVSPost2010Prop51ColorIndex
 90
      256
102
RTVSPost2010Prop51ColorRGB
 90
-16777216
102
RTVSPost2010PropOp51
 70
     0
102
RTVSPost2010Prop52
140
1.0
102
RTVSPost2010PropOp52
 70
     0
102
RTVSPost2010Prop53
 90
        2
102
RTVSPost2010PropOp53
 70
     1
102
RTVSPost2010Prop54
  1
strokes_ogs.tif
102
RTVSPost2010PropOp54
 70
     1
102
RTVSPost2010Prop55
280
     0
102
RTVSPost2010PropOp55
 70
     1
102
RTVSPost2010Prop56
140
1.0
102
RTVSPost2010PropOp56
 70
     1
102
RTVSPost2010Prop57
140
1.0
102
RTVSPost2010PropOp57
 70
     1
  0
XRECORD
  5
190
102
{ACAD_REACTORS
330
18F
102
}
330
18F
100
AcDbXrecord
280
     1
102
RTVSPost2010Prop28
280
     0
102
RTVSPost2010PropOp28
 70
     0
102
RTVSPost2010Prop29
280
     1
102
RTVSPost2010PropOp29
 70
     0
102
RTVSPost2010Prop30
280
     1
102
RTVSPost2010PropOp30
 70
     0
102
RTVSPost2010Prop31
280
     0
102
RTVSPost2010PropOp31
 70
     0
102
RTVSPost2010Prop32
280
     0
102
RTVSPost2010PropOp32
 70
     0
102
RTVSPost2010Prop33
280
     0
102
RTVSPost2010PropOp33
 70
     0
102
RTVSPost2010Prop34
280
     0
102
RTVSPost2010PropOp34
 70
     0
102
RTVSPost2010Prop35
280
     0
102
RTVSPost2010PropOp35
 70
     0
102
RTVSPost2010Prop36
280
     0
102
RTVSPost2010PropOp36
 70
     0
102
RTVSPost2010Prop37
 90
       50
102
RTVSPost2010PropOp37
 70
     0
102
RTVSPost2010Prop38
140
0.0
102
RTVSPost2010PropOp38
 70
     0
102
RTVSPost2010Prop39
140
1.0
102
RTVSPost2010PropOp39
 70
     0
102
RTVSPost2010Prop40
 90
        0
102
RTVSPost2010PropOp40
 70
     0
102
RTVSPost2010Prop41ColorIndex
 90
       18
102
RTVSPost2010Prop41ColorRGB
 90
        0
102
RTVSPost2010PropOp41
 70
     0
102
RTVSPost2010Prop42
 90
       50
102
RTVSPost2010PropOp42
 70
     0
102
RTVSPost2010Prop43
 90
        3
102
RTVSPost2010PropOp43
 70
     0
102
RTVSPost2010Prop44ColorIndex
 90
        5
102
RTVSPost2010Prop44ColorRGB
 90
      255
102
RTVSPost2010PropOp44
 70
     0
102
RTVSPost2010Prop45
280
     0
102
RTVSPost2010PropOp45
 70
     0
102
RTVSPost2010Prop46
 90
       50
102
RTVSPost2010PropOp46
 70
     0
102
RTVSPost2010Prop47
 90
       50
102
RTVSPost2010PropOp47
 70
     0
102
RTVSPost2010Prop48
 90
       50
102
RTVSPost2010PropOp48
 70
     0
102
RTVSPost2010Prop49
280
     0
102
RTVSPost2010PropOp49
 70
     0
102
RTVSPost2010Prop50
 90
       50
102
RTVSPost2010PropOp50
 70
     0
102
RTVSPost2010Prop51ColorIndex
 90
      256
102
RTVSPost2010Prop51ColorRGB
 90
-16777216
102
RTVSPost2010PropOp51
 70
     0
102
RTVSPost2010Prop52
140
1.0
102
RTVSPost2010PropOp52
 70
     0
102
RTVSPost2010Prop53
 90
        2
102
RTVSPost2010PropOp53
 70
     0
102
RTVSPost2010Prop54
  1
strokes_ogs.tif
102
RTVSPost2010PropOp54
 70
     0
102
RTVSPost2010Prop55
280
     0
102
RTVSPost2010PropOp55
 70
     0
102
RTVSPost2010Prop56
140
1.0
102
RTVSPost2010PropOp56
 70
     0
102
RTVSPost2010Prop57
140
1.0
102
RTVSPost2010PropOp57
 70
     0
  0
XRECORD
  5
180
102
{ACAD_REACTORS
330
17F
102
}
330
17F
100
AcDbXrecord
280
     1
102
RTVSPost2010Prop28
280
     0
102
RTVSPost2010PropOp28
 70
     1
102
RTVSPost2010Prop29
280
     1
102
RTVSPost2010PropOp29
 70
     1
102
RTVSPost2010Prop30
280
     1
102
RTVSPost2010PropOp30
 70
     1
102
RTVSPost2010Prop31
280
     0
102
RTVSPost2010PropOp31
 70
     1
102
RTVSPost2010Prop32
280
     0
102
RTVSPost2010PropOp32
 70
     1
102
RTVSPost2010Prop33
280
     0
102
RTVSPost2010PropOp33
 70
     1
102
RTVSPost2010Prop34
280
     0
102
RTVSPost2010PropOp34
 70
     1
102
RTVSPost2010Prop35
280
     0
102
RTVSPost2010PropOp35
 70
     1
102
RTVSPost2010Prop36
280
     0
102
RTVSPost2010PropOp36
 70
     1
102
RTVSPost2010Prop37
 90
       50
102
RTVSPost2010PropOp37
 70
     1
102
RTVSPost2010Prop38
140
0.0
102
RTVSPost2010PropOp38
 70
     1
102
RTVSPost2010Prop39
140
1.0
102
RTVSPost2010PropOp39
 70
     1
102
RTVSPost2010Prop40
 90
        0
102
RTVSPost2010PropOp40
 70
     1
102
RTVSPost2010Prop41ColorIndex
 90
       18
102
RTVSPost2010Prop41ColorRGB
 90
        0
102
RTVSPost2010PropOp41
 70
     1
102
RTVSPost2010Prop42
 90
       50
102
RTVSPost2010PropOp42
 70
     1
102
RTVSPost2010Prop43
 90
        3
102
RTVSPost2010PropOp43
 70
     1
102
RTVSPost2010Prop44ColorIndex
 90
        5
102
RTVSPost2010Prop44ColorRGB
 90
      255
102
RTVSPost2010PropOp44
 70
     1
102
RTVSPost2010Prop45
280
     0
102
RTVSPost2010PropOp45
 70
     1
102
RTVSPost2010Prop46
 90
       50
102
RTVSPost2010PropOp46
 70
     1
102
RTVSPost2010Prop47
 90
       50
102
RTVSPost2010PropOp47
 70
     1
102
RTVSPost2010Prop48
 90
       50
102
RTVSPost2010PropOp48
 70
     1
102
RTVSPost2010Prop49
280
     0
102
RTVSPost2010PropOp49
 70
     1
102
RTVSPost2010Prop50
 90
       50
102
RTVSPost2010PropOp50
 70
     1
102
RTVSPost2010Prop51ColorIndex
 90
      256
102
RTVSPost2010Prop51ColorRGB
 90
-16777216
102
RTVSPost2010PropOp51
 70
     0
102
RTVSPost2010Prop52
140
1.0
102
RTVSPost2010PropOp52
 70
     0
102
RTVSPost2010Prop53
 90
        2
102
RTVSPost2010PropOp53
 70
     1
102
RTVSPost2010Prop54
  1
strokes_ogs.tif
102
RTVSPost2010PropOp54
 70
     1
102
RTVSPost2010Prop55
280
     0
102
RTVSPost2010PropOp55
 70
     1
102
RTVSPost2010Prop56
140
1.0
102
RTVSPost2010PropOp56
 70
     1
102
RTVSPost2010Prop57
140
1.0
102
RTVSPost2010PropOp57
 70
     1
  0
XRECORD
  5
192
102
{ACAD_REACTORS
330
191
102
}
330
191
100
AcDbXrecord
280
     1
102
RTVSPost2010Prop28
280
     0
102
RTVSPost2010PropOp28
 70
     0
102
RTVSPost2010Prop29
280
     1
102
RTVSPost2010PropOp29
 70
     0
102
RTVSPost2010Prop30
280
     1
102
RTVSPost2010PropOp30
 70
     0
102
RTVSPost2010Prop31
280
     0
102
RTVSPost2010PropOp31
 70
     0
102
RTVSPost2010Prop32
280
     0
102
RTVSPost2010PropOp32
 70
     0
102
RTVSPost2010Prop33
280
     0
102
RTVSPost2010PropOp33
 70
     0
102
RTVSPost2010Prop34
280
     0
102
RTVSPost2010PropOp34
 70
     0
102
RTVSPost2010Prop35
280
     0
102
RTVSPost2010PropOp35
 70
     0
102
RTVSPost2010Prop36
280
     0
102
RTVSPost2010PropOp36
 70
     0
102
RTVSPost2010Prop37
 90
       50
102
RTVSPost2010PropOp37
 70
     0
102
RTVSPost2010Prop38
140
0.0
102
RTVSPost2010PropOp38
 70
     0
102
RTVSPost2010Prop39
140
1.0
102
RTVSPost2010PropOp39
 70
     0
102
RTVSPost2010Prop40
 90
        0
102
RTVSPost2010PropOp40
 70
     0
102
RTVSPost2010Prop41ColorIndex
 90
       18
102
RTVSPost2010Prop41ColorRGB
 90
        0
102
RTVSPost2010PropOp41
 70
     0
102
RTVSPost2010Prop42
 90
       50
102
RTVSPost2010PropOp42
 70
     0
102
RTVSPost2010Prop43
 90
        3
102
RTVSPost2010PropOp43
 70
     0
102
RTVSPost2010Prop44ColorIndex
 90
        5
102
RTVSPost2010Prop44ColorRGB
 90
      255
102
RTVSPost2010PropOp44
 70
     0
102
RTVSPost2010Prop45
280
     0
102
RTVSPost2010PropOp45
 70
     0
102
RTVSPost2010Prop46
 90
       50
102
RTVSPost2010PropOp46
 70
     0
102
RTVSPost2010Prop47
 90
       50
102
RTVSPost2010PropOp47
 70
     0
102
RTVSPost2010Prop48
 90
       50
102
RTVSPost2010PropOp48
 70
     0
102
RTVSPost2010Prop49
280
     0
102
RTVSPost2010PropOp49
 70
     0
102
RTVSPost2010Prop50
 90
       50
102
RTVSPost2010PropOp50
 70
     0
102
RTVSPost2010Prop51ColorIndex
 90
      256
102
RTVSPost2010Prop51ColorRGB
 90
-16777216
102
RTVSPost2010PropOp51
 70
     0
102
RTVSPost2010Prop52
140
1.0
102
RTVSPost2010PropOp52
 70
     0
102
RTVSPost2010Prop53
 90
        2
102
RTVSPost2010PropOp53
 70
     0
102
RTVSPost2010Prop54
  1
strokes_ogs.tif
102
RTVSPost2010PropOp54
 70
     0
102
RTVSPost2010Prop55
280
     0
102
RTVSPost2010PropOp55
 70
     0
102
RTVSPost2010Prop56
140
1.0
102
RTVSPost2010PropOp56
 70
     0
102
RTVSPost2010Prop57
140
1.0
102
RTVSPost2010PropOp57
 70
     0
  0
XRECORD
  5
178
102
{ACAD_REACTORS
330
177
102
}
330
177
100
AcDbXrecord
280
     1
102
RTVSPost2010Prop28
280
     0
102
RTVSPost2010PropOp28
 70
     1
102
RTVSPost2010Prop29
280
     1
102
RTVSPost2010PropOp29
 70
     1
102
RTVSPost2010Prop30
280
     1
102
RTVSPost2010PropOp30
 70
     1
102
RTVSPost2010Prop31
280
     0
102
RTVSPost2010PropOp31
 70
     1
102
RTVSPost2010Prop32
280
     0
102
RTVSPost2010PropOp32
 70
     1
102
RTVSPost2010Prop33
280
     0
102
RTVSPost2010PropOp33
 70
     1
102
RTVSPost2010Prop34
280
     0
102
RTVSPost2010PropOp34
 70
     1
102
RTVSPost2010Prop35
280
     0
102
RTVSPost2010PropOp35
 70
     1
102
RTVSPost2010Prop36
280
     0
102
RTVSPost2010PropOp36
 70
     1
102
RTVSPost2010Prop37
 90
       50
102
RTVSPost2010PropOp37
 70
     1
102
RTVSPost2010Prop38
140
0.0
102
RTVSPost2010PropOp38
 70
     1
102
RTVSPost2010Prop39
140
1.0
102
RTVSPost2010PropOp39
 70
     1
102
RTVSPost2010Prop40
 90
        0
102
RTVSPost2010PropOp40
 70
     1
102
RTVSPost2010Prop41ColorIndex
 90
       18
102
RTVSPost2010Prop41ColorRGB
 90
        0
102
RTVSPost2010PropOp41
 70
     1
102
RTVSPost2010Prop42
 90
       50
102
RTVSPost2010PropOp42
 70
     1
102
RTVSPost2010Prop43
 90
        3
102
RTVSPost2010PropOp43
 70
     1
102
RTVSPost2010Prop44ColorIndex
 90
        5
102
RTVSPost2010Prop44ColorRGB
 90
      255
102
RTVSPost2010PropOp44
 70
     1
102
RTVSPost2010Prop45
280
     0
102
RTVSPost2010PropOp45
 70
     1
102
RTVSPost2010Prop46
 90
       50
102
RTVSPost2010PropOp46
 70
     1
102
RTVSPost2010Prop47
 90
       50
102
RTVSPost2010PropOp47
 70
     1
102
RTVSPost2010Prop48
 90
       50
102
RTVSPost2010PropOp48
 70
     1
102
RTVSPost2010Prop49
280
     0
102
RTVSPost2010PropOp49
 70
     1
102
RTVSPost2010Prop50
 90
       50
102
RTVSPost2010PropOp50
 70
     1
102
RTVSPost2010Prop51ColorIndex
 90
      256
102
RTVSPost2010Prop51ColorRGB
 90
-16777216
102
RTVSPost2010PropOp51
 70
     0
102
RTVSPost2010Prop52
140
1.0
102
RTVSPost2010PropOp52
 70
     0
102
RTVSPost2010Prop53
 90
        2
102
RTVSPost2010PropOp53
 70
     1
102
RTVSPost2010Prop54
  1
strokes_ogs.tif
102
RTVSPost2010PropOp54
 70
     1
102
RTVSPost2010Prop55
280
     0
102
RTVSPost2010PropOp55
 70
     1
102
RTVSPost2010Prop56
140
1.0
102
RTVSPost2010PropOp56
 70
     1
102
RTVSPost2010Prop57
140
1.0
102
RTVSPost2010PropOp57
 70
     1
  0
XRECORD
  5
18E
102
{ACAD_REACTORS
330
18D
102
}
330
18D
100
AcDbXrecord
280
     1
102
RTVSPost2010Prop28
280
     0
102
RTVSPost2010PropOp28
 70
     1
102
RTVSPost2010Prop29
280
     1
102
RTVSPost2010PropOp29
 70
     1
102
RTVSPost2010Prop30
280
     1
102
RTVSPost2010PropOp30
 70
     1
102
RTVSPost2010Prop31
280
     0
102
RTVSPost2010PropOp31
 70
     1
102
RTVSPost2010Prop32
280
     0
102
RTVSPost2010PropOp32
 70
     1
102
RTVSPost2010Prop33
280
     0
102
RTVSPost2010PropOp33
 70
     1
102
RTVSPost2010Prop34
280
     0
102
RTVSPost2010PropOp34
 70
     1
102
RTVSPost2010Prop35
280
     0
102
RTVSPost2010PropOp35
 70
     1
102
RTVSPost2010Prop36
280
     0
102
RTVSPost2010PropOp36
 70
     1
102
RTVSPost2010Prop37
 90
       50
102
RTVSPost2010PropOp37
 70
     1
102
RTVSPost2010Prop38
140
0.0
102
RTVSPost2010PropOp38
 70
     1
102
RTVSPost2010Prop39
140
1.0
102
RTVSPost2010PropOp39
 70
     1
102
RTVSPost2010Prop40
 90
        0
102
RTVSPost2010PropOp40
 70
     1
102
RTVSPost2010Prop41ColorIndex
 90
       18
102
RTVSPost2010Prop41ColorRGB
 90
        0
102
RTVSPost2010PropOp41
 70
     1
102
RTVSPost2010Prop42
 90
       50
102
RTVSPost2010PropOp42
 70
     1
102
RTVSPost2010Prop43
 90
        3
102
RTVSPost2010PropOp43
 70
     1
102
RTVSPost2010Prop44ColorIndex
 90
        5
102
RTVSPost2010Prop44ColorRGB
 90
      255
102
RTVSPost2010PropOp44
 70
     1
102
RTVSPost2010Prop45
280
     0
102
RTVSPost2010PropOp45
 70
     1
102
RTVSPost2010Prop46
 90
       50
102
RTVSPost2010PropOp46
 70
     1
102
RTVSPost2010Prop47
 90
       50
102
RTVSPost2010PropOp47
 70
     1
102
RTVSPost2010Prop48
 90
       50
102
RTVSPost2010PropOp48
 70
     1
102
RTVSPost2010Prop49
280
     0
102
RTVSPost2010PropOp49
 70
     1
102
RTVSPost2010Prop50
 90
       50
102
RTVSPost2010PropOp50
 70
     1
102
RTVSPost2010Prop51ColorIndex
 90
      256
102
RTVSPost2010Prop51ColorRGB
 90
-16777216
102
RTVSPost2010PropOp51
 70
     0
102
RTVSPost2010Prop52
140
1.0
102
RTVSPost2010PropOp52
 70
     0
102
RTVSPost2010Prop53
 90
        2
102
RTVSPost2010PropOp53
 70
     1
102
RTVSPost2010Prop54
  1
strokes_ogs.tif
102
RTVSPost2010PropOp54
 70
     1
102
RTVSPost2010Prop55
280
     0
102
RTVSPost2010PropOp55
 70
     1
102
RTVSPost2010Prop56
140
1.0
102
RTVSPost2010PropOp56
 70
     1
102
RTVSPost2010Prop57
140
1.0
102
RTVSPost2010PropOp57
 70
     1
  0
XRECORD
  5
18C
102
{ACAD_REACTORS
330
18B
102
}
330
18B
100
AcDbXrecord
280
     1
102
RTVSPost2010Prop28
280
     0
102
RTVSPost2010PropOp28
 70
     1
102
RTVSPost2010Prop29
280
     1
102
RTVSPost2010PropOp29
 70
     1
102
RTVSPost2010Prop30
280
     1
102
RTVSPost2010PropOp30
 70
     1
102
RTVSPost2010Prop31
280
     0
102
RTVSPost2010PropOp31
 70
     1
102
RTVSPost2010Prop32
280
     0
102
RTVSPost2010PropOp32
 70
     1
102
RTVSPost2010Prop33
280
     0
102
RTVSPost2010PropOp33
 70
     1
102
RTVSPost2010Prop34
280
     0
102
RTVSPost2010PropOp34
 70
     1
102
RTVSPost2010Prop35
280
     0
102
RTVSPost2010PropOp35
 70
     1
102
RTVSPost2010Prop36
280
     0
102
RTVSPost2010PropOp36
 70
     1
102
RTVSPost2010Prop37
 90
       50
102
RTVSPost2010PropOp37
 70
     1
102
RTVSPost2010Prop38
140
0.0
102
RTVSPost2010PropOp38
 70
     1
102
RTVSPost2010Prop39
140
1.0
102
RTVSPost2010PropOp39
 70
     1
102
RTVSPost2010Prop40
 90
        0
102
RTVSPost2010PropOp40
 70
     1
102
RTVSPost2010Prop41ColorIndex
 90
       18
102
RTVSPost2010Prop41ColorRGB
 90
        0
102
RTVSPost2010PropOp41
 70
     1
102
RTVSPost2010Prop42
 90
       50
102
RTVSPost2010PropOp42
 70
     1
102
RTVSPost2010Prop43
 90
        3
102
RTVSPost2010PropOp43
 70
     1
102
RTVSPost2010Prop44ColorIndex
 90
        5
102
RTVSPost2010Prop44ColorRGB
 90
      255
102
RTVSPost2010PropOp44
 70
     1
102
RTVSPost2010Prop45
280
     0
102
RTVSPost2010PropOp45
 70
     1
102
RTVSPost2010Prop46
 90
       50
102
RTVSPost2010PropOp46
 70
     1
102
RTVSPost2010Prop47
 90
       50
102
RTVSPost2010PropOp47
 70
     1
102
RTVSPost2010Prop48
 90
       50
102
RTVSPost2010PropOp48
 70
     1
102
RTVSPost2010Prop49
280
     0
102
RTVSPost2010PropOp49
 70
     1
102
RTVSPost2010Prop50
 90
       50
102
RTVSPost2010PropOp50
 70
     1
102
RTVSPost2010Prop51ColorIndex
 90
      256
102
RTVSPost2010Prop51ColorRGB
 90
-16777216
102
RTVSPost2010PropOp51
 70
     0
102
RTVSPost2010Prop52
140
1.0
102
RTVSPost2010PropOp52
 70
     0
102
RTVSPost2010Prop53
 90
        2
102
RTVSPost2010PropOp53
 70
     1
102
RTVSPost2010Prop54
  1
strokes_ogs.tif
102
RTVSPost2010PropOp54
 70
     1
102
RTVSPost2010Prop55
280
     0
102
RTVSPost2010PropOp55
 70
     1
102
RTVSPost2010Prop56
140
1.0
102
RTVSPost2010PropOp56
 70
     1
102
RTVSPost2010Prop57
140
1.0
102
RTVSPost2010PropOp57
 70
     1
  0
XRECORD
  5
186
102
{ACAD_REACTORS
330
185
102
}
330
185
100
AcDbXrecord
280
     1
102
RTVSPost2010Prop28
280
     0
102
RTVSPost2010PropOp28
 70
     1
102
RTVSPost2010Prop29
280
     1
102
RTVSPost2010PropOp29
 70
     1
102
RTVSPost2010Prop30
280
     1
102
RTVSPost2010PropOp30
 70
     1
102
RTVSPost2010Prop31
280
     0
102
RTVSPost2010PropOp31
 70
     1
102
RTVSPost2010Prop32
280
     0
102
RTVSPost2010PropOp32
 70
     1
102
RTVSPost2010Prop33
280
     0
102
RTVSPost2010PropOp33
 70
     1
102
RTVSPost2010Prop34
280
     0
102
RTVSPost2010PropOp34
 70
     1
102
RTVSPost2010Prop35
280
     0
102
RTVSPost2010PropOp35
 70
     1
102
RTVSPost2010Prop36
280
     0
102
RTVSPost2010PropOp36
 70
     1
102
RTVSPost2010Prop37
 90
       50
102
RTVSPost2010PropOp37
 70
     1
102
RTVSPost2010Prop38
140
0.0
102
RTVSPost2010PropOp38
 70
     1
102
RTVSPost2010Prop39
140
1.0
102
RTVSPost2010PropOp39
 70
     1
102
RTVSPost2010Prop40
 90
        0
102
RTVSPost2010PropOp40
 70
     1
102
RTVSPost2010Prop41ColorIndex
 90
       18
102
RTVSPost2010Prop41ColorRGB
 90
        0
102
RTVSPost2010PropOp41
 70
     1
102
RTVSPost2010Prop42
 90
       50
102
RTVSPost2010PropOp42
 70
     1
102
RTVSPost2010Prop43
 90
        3
102
RTVSPost2010PropOp43
 70
     1
102
RTVSPost2010Prop44ColorIndex
 90
        5
102
RTVSPost2010Prop44ColorRGB
 90
      255
102
RTVSPost2010PropOp44
 70
     1
102
RTVSPost2010Prop45
280
     0
102
RTVSPost2010PropOp45
 70
     1
102
RTVSPost2010Prop46
 90
       50
102
RTVSPost2010PropOp46
 70
     1
102
RTVSPost2010Prop47
 90
       50
102
RTVSPost2010PropOp47
 70
     1
102
RTVSPost2010Prop48
 90
       50
102
RTVSPost2010PropOp48
 70
     1
102
RTVSPost2010Prop49
280
     0
102
RTVSPost2010PropOp49
 70
     1
102
RTVSPost2010Prop50
 90
       50
102
RTVSPost2010PropOp50
 70
     1
102
RTVSPost2010Prop51ColorIndex
 90
      256
102
RTVSPost2010Prop51ColorRGB
 90
-16777216
102
RTVSPost2010PropOp51
 70
     0
102
RTVSPost2010Prop52
140
1.0
102
RTVSPost2010PropOp52
 70
     0
102
RTVSPost2010Prop53
 90
        2
102
RTVSPost2010PropOp53
 70
     1
102
RTVSPost2010Prop54
  1
strokes_ogs.tif
102
RTVSPost2010PropOp54
 70
     1
102
RTVSPost2010Prop55
280
     0
102
RTVSPost2010PropOp55
 70
     1
102
RTVSPost2010Prop56
140
1.0
102
RTVSPost2010PropOp56
 70
     1
102
RTVSPost2010Prop57
140
1.0
102
RTVSPost2010PropOp57
 70
     1
  0
XRECORD
  5
188
102
{ACAD_REACTORS
330
187
102
}
330
187
100
AcDbXrecord
280
     1
102
RTVSPost2010Prop28
280
     0
102
RTVSPost2010PropOp28
 70
     1
102
RTVSPost2010Prop29
280
     1
102
RTVSPost2010PropOp29
 70
     1
102
RTVSPost2010Prop30
280
     1
102
RTVSPost2010PropOp30
 70
     1
102
RTVSPost2010Prop31
280
     0
102
RTVSPost2010PropOp31
 70
     1
102
RTVSPost2010Prop32
280
     0
102
RTVSPost2010PropOp32
 70
     1
102
RTVSPost2010Prop33
280
     0
102
RTVSPost2010PropOp33
 70
     1
102
RTVSPost2010Prop34
280
     0
102
RTVSPost2010PropOp34
 70
     1
102
RTVSPost2010Prop35
280
     0
102
RTVSPost2010PropOp35
 70
     1
102
RTVSPost2010Prop36
280
     0
102
RTVSPost2010PropOp36
 70
     1
102
RTVSPost2010Prop37
 90
       50
102
RTVSPost2010PropOp37
 70
     1
102
RTVSPost2010Prop38
140
0.0
102
RTVSPost2010PropOp38
 70
     1
102
RTVSPost2010Prop39
140
1.0
102
RTVSPost2010PropOp39
 70
     1
102
RTVSPost2010Prop40
 90
        0
102
RTVSPost2010PropOp40
 70
     1
102
RTVSPost2010Prop41ColorIndex
 90
       18
102
RTVSPost2010Prop41ColorRGB
 90
        0
102
RTVSPost2010PropOp41
 70
     1
102
RTVSPost2010Prop42
 90
       50
102
RTVSPost2010PropOp42
 70
     1
102
RTVSPost2010Prop43
 90
        3
102
RTVSPost2010PropOp43
 70
     1
102
RTVSPost2010Prop44ColorIndex
 90
        5
102
RTVSPost2010Prop44ColorRGB
 90
      255
102
RTVSPost2010PropOp44
 70
     1
102
RTVSPost2010Prop45
280
     0
102
RTVSPost2010PropOp45
 70
     1
102
RTVSPost2010Prop46
 90
       50
102
RTVSPost2010PropOp46
 70
     1
102
RTVSPost2010Prop47
 90
       50
102
RTVSPost2010PropOp47
 70
     1
102
RTVSPost2010Prop48
 90
       50
102
RTVSPost2010PropOp48
 70
     1
102
RTVSPost2010Prop49
280
     0
102
RTVSPost2010PropOp49
 70
     1
102
RTVSPost2010Prop50
 90
       50
102
RTVSPost2010PropOp50
 70
     1
102
RTVSPost2010Prop51ColorIndex
 90
      256
102
RTVSPost2010Prop51ColorRGB
 90
-16777216
102
RTVSPost2010PropOp51
 70
     0
102
RTVSPost2010Prop52
140
1.0
102
RTVSPost2010PropOp52
 70
     0
102
RTVSPost2010Prop53
 90
        2
102
RTVSPost2010PropOp53
 70
     1
102
RTVSPost2010Prop54
  1
strokes_ogs.tif
102
RTVSPost2010PropOp54
 70
     1
102
RTVSPost2010Prop55
280
     0
102
RTVSPost2010PropOp55
 70
     1
102
RTVSPost2010Prop56
140
1.0
102
RTVSPost2010PropOp56
 70
     1
102
RTVSPost2010Prop57
140
1.0
102
RTVSPost2010PropOp57
 70
     1
  0
XRECORD
  5
17E
102
{ACAD_REACTORS
330
17D
102
}
330
17D
100
AcDbXrecord
280
     1
102
RTVSPost2010Prop28
280
     0
102
RTVSPost2010PropOp28
 70
     1
102
RTVSPost2010Prop29
280
     1
102
RTVSPost2010PropOp29
 70
     1
102
RTVSPost2010Prop30
280
     1
102
RTVSPost2010PropOp30
 70
     1
102
RTVSPost2010Prop31
280
     0
102
RTVSPost2010PropOp31
 70
     1
102
RTVSPost2010Prop32
280
     0
102
RTVSPost2010PropOp32
 70
     1
102
RTVSPost2010Prop33
280
     0
102
RTVSPost2010PropOp33
 70
     1
102
RTVSPost2010Prop34
280
     0
102
RTVSPost2010PropOp34
 70
     1
102
RTVSPost2010Prop35
280
     0
102
RTVSPost2010PropOp35
 70
     1
102
RTVSPost2010Prop36
280
     0
102
RTVSPost2010PropOp36
 70
     1
102
RTVSPost2010Prop37
 90
       50
102
RTVSPost2010PropOp37
 70
     1
102
RTVSPost2010Prop38
140
0.0
102
RTVSPost2010PropOp38
 70
     1
102
RTVSPost2010Prop39
140
1.0
102
RTVSPost2010PropOp39
 70
     1
102
RTVSPost2010Prop40
 90
        0
102
RTVSPost2010PropOp40
 70
     1
102
RTVSPost2010Prop41ColorIndex
 90
       18
102
RTVSPost2010Prop41ColorRGB
 90
        0
102
RTVSPost2010PropOp41
 70
     1
102
RTVSPost2010Prop42
 90
       50
102
RTVSPost2010PropOp42
 70
     1
102
RTVSPost2010Prop43
 90
        3
102
RTVSPost2010PropOp43
 70
     1
102
RTVSPost2010Prop44ColorIndex
 90
        5
102
RTVSPost2010Prop44ColorRGB
 90
      255
102
RTVSPost2010PropOp44
 70
     1
102
RTVSPost2010Prop45
280
     0
102
RTVSPost2010PropOp45
 70
     1
102
RTVSPost2010Prop46
 90
       50
102
RTVSPost2010PropOp46
 70
     1
102
RTVSPost2010Prop47
 90
       50
102
RTVSPost2010PropOp47
 70
     1
102
RTVSPost2010Prop48
 90
       50
102
RTVSPost2010PropOp48
 70
     1
102
RTVSPost2010Prop49
280
     0
102
RTVSPost2010PropOp49
 70
     1
102
RTVSPost2010Prop50
 90
       50
102
RTVSPost2010PropOp50
 70
     1
102
RTVSPost2010Prop51ColorIndex
 90
      256
102
RTVSPost2010Prop51ColorRGB
 90
-16777216
102
RTVSPost2010PropOp51
 70
     0
102
RTVSPost2010Prop52
140
1.0
102
RTVSPost2010PropOp52
 70
     0
102
RTVSPost2010Prop53
 90
        2
102
RTVSPost2010PropOp53
 70
     1
102
RTVSPost2010Prop54
  1
strokes_ogs.tif
102
RTVSPost2010PropOp54
 70
     1
102
RTVSPost2010Prop55
280
     0
102
RTVSPost2010PropOp55
 70
     1
102
RTVSPost2010Prop56
140
1.0
102
RTVSPost2010PropOp56
 70
     1
102
RTVSPost2010Prop57
140
1.0
102
RTVSPost2010PropOp57
 70
     1
  0
XRECORD
  5
172
102
{ACAD_REACTORS
330
171
102
}
330
171
100
AcDbXrecord
280
     1
102
RTVSPost2010Prop28
280
     0
102
RTVSPost2010PropOp28
 70
     1
102
RTVSPost2010Prop29
280
     1
102
RTVSPost2010PropOp29
 70
     1
102
RTVSPost2010Prop30
280
     1
102
RTVSPost2010PropOp30
 70
     1
102
RTVSPost2010Prop31
280
     0
102
RTVSPost2010PropOp31
 70
     1
102
RTVSPost2010Prop32
280
     0
102
RTVSPost2010PropOp32
 70
     1
102
RTVSPost2010Prop33
280
     0
102
RTVSPost2010PropOp33
 70
     1
102
RTVSPost2010Prop34
280
     0
102
RTVSPost2010PropOp34
 70
     1
102
RTVSPost2010Prop35
280
     0
102
RTVSPost2010PropOp35
 70
     1
102
RTVSPost2010Prop36
280
     0
102
RTVSPost2010PropOp36
 70
     1
102
RTVSPost2010Prop37
 90
       50
102
RTVSPost2010PropOp37
 70
     1
102
RTVSPost2010Prop38
140
0.0
102
RTVSPost2010PropOp38
 70
     1
102
RTVSPost2010Prop39
140
1.0
102
RTVSPost2010PropOp39
 70
     1
102
RTVSPost2010Prop40
 90
        0
102
RTVSPost2010PropOp40
 70
     1
102
RTVSPost2010Prop41ColorIndex
 90
       18
102
RTVSPost2010Prop41ColorRGB
 90
        0
102
RTVSPost2010PropOp41
 70
     1
102
RTVSPost2010Prop42
 90
       50
102
RTVSPost2010PropOp42
 70
     1
102
RTVSPost2010Prop43
 90
        3
102
RTVSPost2010PropOp43
 70
     1
102
RTVSPost2010Prop44ColorIndex
 90
        5
102
RTVSPost2010Prop44ColorRGB
 90
      255
102
RTVSPost2010PropOp44
 70
     1
102
RTVSPost2010Prop45
280
     0
102
RTVSPost2010PropOp45
 70
     1
102
RTVSPost2010Prop46
 90
       50
102
RTVSPost2010PropOp46
 70
     1
102
RTVSPost2010Prop47
 90
       50
102
RTVSPost2010PropOp47
 70
     1
102
RTVSPost2010Prop48
 90
       50
102
RTVSPost2010PropOp48
 70
     1
102
RTVSPost2010Prop49
280
     0
102
RTVSPost2010PropOp49
 70
     1
102
RTVSPost2010Prop50
 90
       50
102
RTVSPost2010PropOp50
 70
     1
102
RTVSPost2010Prop51ColorIndex
 90
      256
102
RTVSPost2010Prop51ColorRGB
 90
-16777216
102
RTVSPost2010PropOp51
 70
     0
102
RTVSPost2010Prop52
140
1.0
102
RTVSPost2010PropOp52
 70
     0
102
RTVSPost2010Prop53
 90
        2
102
RTVSPost2010PropOp53
 70
     1
102
RTVSPost2010Prop54
  1
strokes_ogs.tif
102
RTVSPost2010PropOp54
 70
     1
102
RTVSPost2010Prop55
280
     0
102
RTVSPost2010PropOp55
 70
     1
102
RTVSPost2010Prop56
140
1.0
102
RTVSPost2010PropOp56
 70
     1
102
RTVSPost2010Prop57
140
1.0
102
RTVSPost2010PropOp57
 70
     1
  0
XRECORD
  5
18A
102
{ACAD_REACTORS
330
189
102
}
330
189
100
AcDbXrecord
280
     1
102
RTVSPost2010Prop28
280
     0
102
RTVSPost2010PropOp28
 70
     1
102
RTVSPost2010Prop29
280
     1
102
RTVSPost2010PropOp29
 70
     1
102
RTVSPost2010Prop30
280
     1
102
RTVSPost2010PropOp30
 70
     1
102
RTVSPost2010Prop31
280
     0
102
RTVSPost2010PropOp31
 70
     1
102
RTVSPost2010Prop32
280
     0
102
RTVSPost2010PropOp32
 70
     1
102
RTVSPost2010Prop33
280
     0
102
RTVSPost2010PropOp33
 70
     1
102
RTVSPost2010Prop34
280
     0
102
RTVSPost2010PropOp34
 70
     1
102
RTVSPost2010Prop35
280
     0
102
RTVSPost2010PropOp35
 70
     1
102
RTVSPost2010Prop36
280
     0
102
RTVSPost2010PropOp36
 70
     1
102
RTVSPost2010Prop37
 90
       50
102
RTVSPost2010PropOp37
 70
     1
102
RTVSPost2010Prop38
140
0.0
102
RTVSPost2010PropOp38
 70
     1
102
RTVSPost2010Prop39
140
1.0
102
RTVSPost2010PropOp39
 70
     1
102
RTVSPost2010Prop40
 90
        0
102
RTVSPost2010PropOp40
 70
     1
102
RTVSPost2010Prop41ColorIndex
 90
       18
102
RTVSPost2010Prop41ColorRGB
 90
        0
102
RTVSPost2010PropOp41
 70
     1
102
RTVSPost2010Prop42
 90
       50
102
RTVSPost2010PropOp42
 70
     1
102
RTVSPost2010Prop43
 90
        3
102
RTVSPost2010PropOp43
 70
     1
102
RTVSPost2010Prop44ColorIndex
 90
        5
102
RTVSPost2010Prop44ColorRGB
 90
      255
102
RTVSPost2010PropOp44
 70
     1
102
RTVSPost2010Prop45
280
     0
102
RTVSPost2010PropOp45
 70
     1
102
RTVSPost2010Prop46
 90
       50
102
RTVSPost2010PropOp46
 70
     1
102
RTVSPost2010Prop47
 90
       50
102
RTVSPost2010PropOp47
 70
     1
102
RTVSPost2010Prop48
 90
       50
102
RTVSPost2010PropOp48
 70
     1
102
RTVSPost2010Prop49
280
     0
102
RTVSPost2010PropOp49
 70
     1
102
RTVSPost2010Prop50
 90
       50
102
RTVSPost2010PropOp50
 70
     1
102
RTVSPost2010Prop51ColorIndex
 90
      256
102
RTVSPost2010Prop51ColorRGB
 90
-16777216
102
RTVSPost2010PropOp51
 70
     0
102
RTVSPost2010Prop52
140
1.0
102
RTVSPost2010PropOp52
 70
     0
102
RTVSPost2010Prop53
 90
        2
102
RTVSPost2010PropOp53
 70
     1
102
RTVSPost2010Prop54
  1
strokes_ogs.tif
102
RTVSPost2010PropOp54
 70
     1
102
RTVSPost2010Prop55
280
     0
102
RTVSPost2010PropOp55
 70
     1
102
RTVSPost2010Prop56
140
1.0
102
RTVSPost2010PropOp56
 70
     1
102
RTVSPost2010Prop57
140
1.0
102
RTVSPost2010PropOp57
 70
     1
  0
ENDSEC
  0
EOF
