  0
SECTION
  2
HEADER
  9
$ACADVER
  1
AC1024
  9
$ACADMAINTVER
 70
   226
  9
$DWGCODEPAGE
  3
ANSI_932
  9
$INSBASE
 10
0.0
 20
0.0
 30
0.0
  9
$EXTMIN
 10
1.000000000000000E+20
 20
1.000000000000000E+20
 30
1.000000000000000E+20
  9
$EXTMAX
 10
-1.000000000000000E+20
 20
-1.000000000000000E+20
 30
-1.000000000000000E+20
  9
$LIMMIN
 10
0.0
 20
0.0
  9
$LIMMAX
 10
12.0
 20
9.0
  9
$ORTHOMODE
 70
     0
  9
$REGENMODE
 70
     1
  9
$FILLMODE
 70
     1
  9
$QTEXTMODE
 70
     0
  9
$MIRRTEXT
 70
     0
  9
$LTSCALE
 40
1.0
  9
$ATTMODE
 70
     1
  9
$TEXTSIZE
 40
0.2
  9
$TRACEWID
 40
0.05
  9
$TEXTSTYLE
  7
Standard
  9
$CLAYER
  8
0
  9
$CELTYPE
  6
ByLayer
  9
$CECOLOR
 62
   256
  9
$CELTSCALE
 40
1.0
  9
$DISPSILH
 70
     0
  9
$DIMSCALE
 40
1.0
  9
$DIMASZ
 40
0.18
  9
$DIMEXO
 40
0.0625
  9
$DIMDLI
 40
0.38
  9
$DIMRND
 40
0.0
  9
$DIMDLE
 40
0.0
  9
$DIMEXE
 40
0.18
  9
$DIMTP
 40
0.0
  9
$DIMTM
 40
0.0
  9
$DIMTXT
 40
0.18
  9
$DIMCEN
 40
0.09
  9
$DIMTSZ
 40
0.0
  9
$DIMTOL
 70
     0
  9
$DIMLIM
 70
     0
  9
$DIMTIH
 70
     1
  9
$DIMTOH
 70
     1
  9
$DIMSE1
 70
     0
  9
$DIMSE2
 70
     0
  9
$DIMTAD
 70
     0
  9
$DIMZIN
 70
     0
  9
$DIMBLK
  1

  9
$DIMASO
 70
     1
  9
$DIMSHO
 70
     1
  9
$DIMPOST
  1

  9
$DIMAPOST
  1

  9
$DIMALT
 70
     0
  9
$DIMALTD
 70
     2
  9
$DIMALTF
 40
25.4
  9
$DIMLFAC
 40
1.0
  9
$DIMTOFL
 70
     0
  9
$DIMTVP
 40
0.0
  9
$DIMTIX
 70
     0
  9
$DIMSOXD
 70
     0
  9
$DIMSAH
 70
     0
  9
$DIMBLK1
  1

  9
$DIMBLK2
  1

  9
$DIMSTYLE
  2
Standard
  9
$DIMCLRD
 70
     0
  9
$DIMCLRE
 70
     0
  9
$DIMCLRT
 70
     0
  9
$DIMTFAC
 40
1.0
  9
$DIMGAP
 40
0.09
  9
$DIMJUST
 70
     0
  9
$DIMSD1
 70
     0
  9
$DIMSD2
 70
     0
  9
$DIMTOLJ
 70
     1
  9
$DIMTZIN
 70
     0
  9
$DIMALTZ
 70
     0
  9
$DIMALTTZ
 70
     0
  9
$DIMUPT
 70
     0
  9
$DIMDEC
 70
     4
  9
$DIMTDEC
 70
     4
  9
$DIMALTU
 70
     2
  9
$DIMALTTD
 70
     2
  9
$DIMTXSTY
  7
Standard
  9
$DIMAUNIT
 70
     0
  9
$DIMADEC
 70
     0
  9
$DIMALTRND
 40
0.0
  9
$DIMAZIN
 70
     0
  9
$DIMDSEP
 70
    46
  9
$DIMATFIT
 70
     3
  9
$DIMFRAC
 70
     0
  9
$DIMLDRBLK
  1

  9
$DIMLUNIT
 70
     2
  9
$DIMLWD
 70
    -2
  9
$DIMLWE
 70
    -2
  9
$DIMTMOVE
 70
     0
  9
$DIMFXL
 40
1.0
  9
$DIMFXLON
 70
     0
  9
$DIMJOGANG
 40
0.7853981633974483
  9
$DIMTFILL
 70
     0
  9
$DIMTFILLCLR
 70
     0
  9
$DIMARCSYM
 70
     0
  9
$DIMLTYPE
  6

  9
$DIMLTEX1
  6

  9
$DIMLTEX2
  6

  9
$DIMTXTDIRECTION
 70
     0
  9
$LUNITS
 70
     2
  9
$LUPREC
 70
     4
  9
$SKETCHINC
 40
0.1
  9
$FILLETRAD
 40
0.0
  9
$AUNITS
 70
     0
  9
$AUPREC
 70
     0
  9
$MENU
  1
.
  9
$ELEVATION
 40
0.0
  9
$PELEVATION
 40
0.0
  9
$THICKNESS
 40
0.0
  9
$LIMCHECK
 70
     0
  9
$CHAMFERA
 40
0.0
  9
$CHAMFERB
 40
0.0
  9
$CHAMFERC
 40
0.0
  9
$CHAMFERD
 40
0.0
  9
$SKPOLY
 70
     0
  9
$TDCREATE
 40
2459569.503275463
  9
$TDUCREATE
 40
2459569.128275463
  9
$TDUPDATE
 40
2459569.503275463
  9
$TDUUPDATE
 40
2459569.128275463
  9
$TDINDWG
 40
0.0000000000
  9
$TDUSRTIMER
 40
0.0000000000
  9
$USRTIMER
 70
     1
  9
$ANGBASE
 50
0.0
  9
$ANGDIR
 70
     0
  9
$PDMODE
 70
     0
  9
$PDSIZE
 40
0.0
  9
$PLINEWID
 40
0.0
  9
$SPLFRAME
 70
     0
  9
$SPLINETYPE
 70
     6
  9
$SPLINESEGS
 70
     8
  9
$HANDSEED
  5
1A9
  9
$SURFTAB1
 70
     6
  9
$SURFTAB2
 70
     6
  9
$SURFTYPE
 70
     6
  9
$SURFU
 70
     6
  9
$SURFV
 70
     6
  9
$UCSBASE
  2

  9
$UCSNAME
  2

  9
$UCSORG
 10
0.0
 20
0.0
 30
0.0
  9
$UCSXDIR
 10
1.0
 20
0.0
 30
0.0
  9
$UCSYDIR
 10
0.0
 20
1.0
 30
0.0
  9
$UCSORTHOREF
  2

  9
$UCSORTHOVIEW
 70
     0
  9
$UCSORGTOP
 10
0.0
 20
0.0
 30
0.0
  9
$UCSORGBOTTOM
 10
0.0
 20
0.0
 30
0.0
  9
$UCSORGLEFT
 10
0.0
 20
0.0
 30
0.0
  9
$UCSORGRIGHT
 10
0.0
 20
0.0
 30
0.0
  9
$UCSORGFRONT
 10
0.0
 20
0.0
 30
0.0
  9
$UCSORGBACK
 10
0.0
 20
0.0
 30
0.0
  9
$PUCSBASE
  2

  9
$PUCSNAME
  2

  9
$PUCSORG
 10
0.0
 20
0.0
 30
0.0
  9
$PUCSXDIR
 10
1.0
 20
0.0
 30
0.0
  9
$PUCSYDIR
 10
0.0
 20
1.0
 30
0.0
  9
$PUCSORTHOREF
  2

  9
$PUCSORTHOVIEW
 70
     0
  9
$PUCSORGTOP
 10
0.0
 20
0.0
 30
0.0
  9
$PUCSORGBOTTOM
 10
0.0
 20
0.0
 30
0.0
  9
$PUCSORGLEFT
 10
0.0
 20
0.0
 30
0.0
  9
$PUCSORGRIGHT
 10
0.0
 20
0.0
 30
0.0
  9
$PUCSORGFRONT
 10
0.0
 20
0.0
 30
0.0
  9
$PUCSORGBACK
 10
0.0
 20
0.0
 30
0.0
  9
$USERI1
 70
     0
  9
$USERI2
 70
     0
  9
$USERI3
 70
     0
  9
$USERI4
 70
     0
  9
$USERI5
 70
     0
  9
$USERR1
 40
0.0
  9
$USERR2
 40
0.0
  9
$USERR3
 40
0.0
  9
$USERR4
 40
0.0
  9
$USERR5
 40
0.0
  9
$WORLDVIEW
 70
     1
  9
$SHADEDGE
 70
     3
  9
$SHADEDIF
 70
    70
  9
$TILEMODE
 70
     1
  9
$MAXACTVP
 70
    64
  9
$PINSBASE
 10
0.0
 20
0.0
 30
0.0
  9
$PLIMCHECK
 70
     0
  9
$PEXTMIN
 10
1.000000000000000E+20
 20
1.000000000000000E+20
 30
1.000000000000000E+20
  9
$PEXTMAX
 10
-1.000000000000000E+20
 20
-1.000000000000000E+20
 30
-1.000000000000000E+20
  9
$PLIMMIN
 10
0.0
 20
0.0
  9
$PLIMMAX
 10
12.0
 20
9.0
  9
$UNITMODE
 70
     0
  9
$VISRETAIN
 70
     1
  9
$PLINEGEN
 70
     0
  9
$PSLTSCALE
 70
     1
  9
$TREEDEPTH
 70
  3020
  9
$CMLSTYLE
  2
Standard
  9
$CMLJUST
 70
     0
  9
$CMLSCALE
 40
1.0
  9
$PROXYGRAPHICS
 70
     1
  9
$MEASUREMENT
 70
     0
  9
$CELWEIGHT
370
    -1
  9
$ENDCAPS
280
     0
  9
$JOINSTYLE
280
     0
  9
$LWDISPLAY
290
     1
  9
$INSUNITS
 70
     4
  9
$HYPERLINKBASE
  1

  9
$STYLESHEET
  1

  9
$XEDIT
290
     1
  9
$CEPSNTYPE
380
     0
  9
$PSTYLEMODE
290
     1
  9
$FINGERPRINTGUID
  2
{9E6114C5-DD81-4249-ABF5-22CC8B228BB1}
  9
$VERSIONGUID
  2
{CA0E85AF-40DA-CF41-BF87-999128A5C260}
  9
$EXTNAMES
290
     1
  9
$PSVPSCALE
 40
0.0
  9
$OLESTARTUP
290
     0
  9
$SORTENTS
280
   127
  9
$INDEXCTL
280
     0
  9
$HIDETEXT
280
     1
  9
$XCLIPFRAME
280
     2
  9
$HALOGAP
280
     0
  9
$OBSCOLOR
 70
   257
  9
$OBSLTYPE
280
     0
  9
$INTERSECTIONDISPLAY
280
     0
  9
$INTERSECTIONCOLOR
 70
   257
  9
$DIMASSOC
280
     2
  9
$PROJECTNAME
  1

  9
$CAMERADISPLAY
290
     0
  9
$LENSLENGTH
 40
50.0
  9
$CAMERAHEIGHT
 40
0.0
  9
$STEPSPERSEC
 40
2.0
  9
$STEPSIZE
 40
6.0
  9
$3DDWFPREC
 40
2.0
  9
$PSOLWIDTH
 40
0.25
  9
$PSOLHEIGHT
 40
4.0
  9
$LOFTANG1
 40
1.570796326794896
  9
$LOFTANG2
 40
1.570796326794896
  9
$LOFTMAG1
 40
0.0
  9
$LOFTMAG2
 40
0.0
  9
$LOFTPARAM
 70
     7
  9
$LOFTNORMALS
280
     1
  9
$LATITUDE
 40
37.795
  9
$LONGITUDE
 40
-122.394
  9
$NORTHDIRECTION
 40
0.0
  9
$TIMEZONE
 70
 -8000
  9
$LIGHTGLYPHDISPLAY
280
     1
  9
$TILEMODELIGHTSYNCH
280
     1
  9
$CMATERIAL
347
11
  9
$SOLIDHIST
280
     0
  9
$SHOWHIST
280
     1
  9
$DWFFRAME
280
     2
  9
$DGNFRAME
280
     0
  9
$REALWORLDSCALE
290
     1
  9
$INTERFERECOLOR
 62
     1
  9
$INTERFEREOBJVS
345
33
  9
$INTERFEREVPVS
346
30
  9
$CSHADOW
280
     0
  9
$SHADOWPLANELOCATION
 40
0.0
  0
ENDSEC
  0
SECTION
  2
CLASSES
  0
CLASS
  1
ACDBDICTIONARYWDFLT
  2
AcDbDictionaryWithDefault
  3
ObjectDBX Classes
 90
        0
 91
        1
280
     0
281
     0
  0
CLASS
  1
MATERIAL
  2
AcDbMaterial
  3
ObjectDBX Classes
 90
     1153
 91
        3
280
     0
281
     0
  0
CLASS
  1
VISUALSTYLE
  2
AcDbVisualStyle
  3
ObjectDBX Classes
 90
     4095
 91
       24
280
     0
281
     0
  0
CLASS
  1
SCALE
  2
AcDbScale
  3
ObjectDBX Classes
 90
     1153
 91
       17
280
     0
281
     0
  0
CLASS
  1
TABLESTYLE
  2
AcDbTableStyle
  3
ObjectDBX Classes
 90
     4095
 91
        1
280
     0
281
     0
  0
CLASS
  1
MLEADERSTYLE
  2
AcDbMLeaderStyle
  3
ACDB_MLEADERSTYLE_CLASS
 90
     4095
 91
        1
280
     0
281
     0
  0
CLASS
  1
ACDBSECTIONVIEWSTYLE
  2
AcDbSectionViewStyle
  3
ObjectDBX Classes
 90
     1025
 91
        1
280
     0
281
     0
  0
CLASS
  1
ACDBDETAILVIEWSTYLE
  2
AcDbDetailViewStyle
  3
ObjectDBX Classes
 90
     1025
 91
        1
280
     0
281
     0
  0
CLASS
  1
DICTIONARYVAR
  2
AcDbDictionaryVar
  3
ObjectDBX Classes
 90
        0
 91
        5
280
     0
281
     0
  0
CLASS
  1
CELLSTYLEMAP
  2
AcDbCellStyleMap
  3
ObjectDBX Classes
 90
     1152
 91
        1
280
     0
281
     0
  0
ENDSEC
  0
SECTION
  2
TABLES
  0
TABLE
  2
VPORT
  5
8
330
0
100
AcDbSymbolTable
 70
     1
  0
VPORT
  5
57
330
8
100
AcDbSymbolTableRecord
100
AcDbViewportTableRecord
  2
*Active
 70
     0
 10
0.0
 20
0.0
 11
1.0
 21
1.0
 12
0.0
 22
0.0
 13
0.0
 23
0.0
 14
1.0
 24
1.0
 15
0.0
 25
0.0
 16
0.0
 26
0.0
 36
1.0
 17
104.9999999737534
 27
-148.4999999628701
 37
0.0
 40
302.939999924255
 41
0.7070707070707534
 42
50.0
 43
0.0
 44
0.0
 50
0.0
 51
0.0
 71
     0
 72
   100
 73
     1
 74
     0
 75
     1
 76
     0
 77
     0
 78
     0
281
     0
 65
     1
110
0.0
120
0.0
130
0.0
111
1.0
121
0.0
131
0.0
112
0.0
122
1.0
132
0.0
 79
     0
146
0.0
 60
     3
 61
     5
292
     1
282
     1
141
0.0
142
0.0
 63
   250
421
  3355443
  0
ENDTAB
  0
TABLE
  2
LTYPE
  5
5
330
0
100
AcDbSymbolTable
 70
     2
  0
LTYPE
  5
5B
330
5
100
AcDbSymbolTableRecord
100
AcDbLinetypeTableRecord
  2
ByBlock
 70
     0
  3

 72
    65
 73
     0
 40
0.0
  0
LTYPE
  5
5C
330
5
100
AcDbSymbolTableRecord
100
AcDbLinetypeTableRecord
  2
ByLayer
 70
     0
  3

 72
    65
 73
     0
 40
0.0
  0
LTYPE
  5
5D
330
5
100
AcDbSymbolTableRecord
100
AcDbLinetypeTableRecord
  2
Continuous
 70
     0
  3
Solid line
 72
    65
 73
     0
 40
0.0
  0
LTYPE
  5
A5
330
5
100
AcDbSymbolTableRecord
100
AcDbLinetypeTableRecord
  2
AI-Linetype-0
 70
     0
  3
Adobe Illustrator Linetype No. 0
 72
    65
 73
     2
 40
1.411111110758333
 49
0.7055555553791667
 74
     0
 49
-0.7055555553791667
 74
     0
  0
ENDTAB
  0
TABLE
  2
LAYER
  5
2
330
0
100
AcDbSymbolTable
 70
     2
  0
LAYER
  5
54
330
2
100
AcDbSymbolTableRecord
100
AcDbLayerTableRecord
  2
0
 70
     0
 62
     7
  6
Continuous
370
    -3
390
F
347
21
  0
LAYER
  5
78
330
2
100
AcDbSymbolTableRecord
100
AcDbLayerTableRecord
  2
レイヤー 1
 70
     0
 62
     7
  6
Continuous
370
     0
390
F
347
21
  0
ENDTAB
  0
TABLE
  2
STYLE
  5
3
330
0
100
AcDbSymbolTable
 70
     2
  0
STYLE
  5
55
330
3
100
AcDbSymbolTableRecord
100
AcDbTextStyleTableRecord
  2
Standard
 70
     0
 40
0.0
 41
1.0
 50
0.0
 71
     0
 42
0.2
  3
txt
  4

  0
STYLE
  5
5A
330
3
100
AcDbSymbolTableRecord
100
AcDbTextStyleTableRecord
  2
Annotative
 70
     0
 40
0.0
 41
1.0
 50
0.0
 71
     0
 42
0.2
  3
txt
  4

1001
AcadAnnotative
1000
AnnotativeData
1002
{
1070
     1
1070
     1
1002
}
  0
ENDTAB
  0
TABLE
  2
VIEW
  5
6
330
0
100
AcDbSymbolTable
 70
     0
  0
ENDTAB
  0
TABLE
  2
UCS
  5
7
330
0
100
AcDbSymbolTable
 70
     0
  0
ENDTAB
  0
TABLE
  2
APPID
  5
9
330
0
100
AcDbSymbolTable
 70
     2
  0
APPID
  5
56
330
9
100
AcDbSymbolTableRecord
100
AcDbRegAppTableRecord
  2
ACAD
 70
     0
  0
APPID
  5
5E
330
9
100
AcDbSymbolTableRecord
100
AcDbRegAppTableRecord
  2
AcadAnnotative
 70
     0
  0
ENDTAB
  0
TABLE
  2
DIMSTYLE
  5
A
330
0
100
AcDbSymbolTable
 70
     2
100
AcDbDimStyleTable
 71
     0
  0
DIMSTYLE
105
58
330
A
100
AcDbSymbolTableRecord
100
AcDbDimStyleTableRecord
  2
Standard
 70
     0
340
55
  0
DIMSTYLE
105
59
330
A
100
AcDbSymbolTableRecord
100
AcDbDimStyleTableRecord
  2
Annotative
 70
     0
340
55
1001
AcadAnnotative
1000
AnnotativeData
1002
{
1070
     1
1070
     1
1002
}
  0
ENDTAB
  0
TABLE
  2
BLOCK_RECORD
  5
1
330
0
100
AcDbSymbolTable
 70
    16
  0
BLOCK_RECORD
  5
70
330
1
100
AcDbSymbolTableRecord
100
AcDbBlockTableRecord
  2
*Model_Space
340
73
 70
     0
280
     1
281
     0
  0
BLOCK_RECORD
  5
6C
330
1
100
AcDbSymbolTableRecord
100
AcDbBlockTableRecord
  2
*Paper_Space
340
6F
 70
     0
280
     1
281
     0
  0
BLOCK_RECORD
  5
74
330
1
100
AcDbSymbolTableRecord
100
AcDbBlockTableRecord
  2
*Paper_Space0
340
77
 70
     0
280
     1
281
     0
  0
BLOCK_RECORD
  5
79
330
1
100
AcDbSymbolTableRecord
100
AcDbBlockTableRecord
  2
Block_0
340
0
102
{BLKREFS
331
7A
102
}
 70
     0
280
     1
281
     0
  0
BLOCK_RECORD
  5
7D
330
1
100
AcDbSymbolTableRecord
100
AcDbBlockTableRecord
  2
Block_1
340
0
102
{BLKREFS
331
7E
102
}
 70
     0
280
     1
281
     0
  0
BLOCK_RECORD
  5
81
330
1
100
AcDbSymbolTableRecord
100
AcDbBlockTableRecord
  2
Block_2
340
0
102
{BLKREFS
331
82
102
}
 70
     0
280
     1
281
     0
  0
BLOCK_RECORD
  5
A6
330
1
100
AcDbSymbolTableRecord
100
AcDbBlockTableRecord
  2
Block_3
340
0
102
{BLKREFS
331
A7
102
}
 70
     0
280
     1
281
     0
  0
BLOCK_RECORD
  5
111
330
1
100
AcDbSymbolTableRecord
100
AcDbBlockTableRecord
  2
Block_4
340
0
102
{BLKREFS
331
112
102
}
 70
     0
280
     1
281
     0
  0
BLOCK_RECORD
  5
115
330
1
100
AcDbSymbolTableRecord
100
AcDbBlockTableRecord
  2
Block_5
340
0
102
{BLKREFS
331
116
102
}
 70
     0
280
     1
281
     0
  0
BLOCK_RECORD
  5
122
330
1
100
AcDbSymbolTableRecord
100
AcDbBlockTableRecord
  2
Block_6
340
0
102
{BLKREFS
331
123
102
}
 70
     0
280
     1
281
     0
  0
BLOCK_RECORD
  5
126
330
1
100
AcDbSymbolTableRecord
100
AcDbBlockTableRecord
  2
Block_7
340
0
102
{BLKREFS
331
127
102
}
 70
     0
280
     1
281
     0
  0
BLOCK_RECORD
  5
130
330
1
100
AcDbSymbolTableRecord
100
AcDbBlockTableRecord
  2
Block_8
340
0
102
{BLKREFS
331
131
102
}
 70
     0
280
     1
281
     0
  0
BLOCK_RECORD
  5
13A
330
1
100
AcDbSymbolTableRecord
100
AcDbBlockTableRecord
  2
Block_9
340
0
102
{BLKREFS
331
13B
102
}
 70
     0
280
     1
281
     0
  0
BLOCK_RECORD
  5
13E
330
1
100
AcDbSymbolTableRecord
100
AcDbBlockTableRecord
  2
Block_10
340
0
102
{BLKREFS
331
13F
102
}
 70
     0
280
     1
281
     0
  0
BLOCK_RECORD
  5
149
330
1
100
AcDbSymbolTableRecord
100
AcDbBlockTableRecord
  2
Block_11
340
0
102
{BLKREFS
331
14A
102
}
 70
     0
280
     1
281
     0
  0
BLOCK_RECORD
  5
152
330
1
100
AcDbSymbolTableRecord
100
AcDbBlockTableRecord
  2
Block_12
340
0
102
{BLKREFS
331
153
102
}
 70
     0
280
     1
281
     0
  0
BLOCK_RECORD
  5
15D
330
1
100
AcDbSymbolTableRecord
100
AcDbBlockTableRecord
  2
Block_13
340
0
102
{BLKREFS
331
15E
102
}
 70
     0
280
     1
281
     0
  0
BLOCK_RECORD
  5
161
330
1
100
AcDbSymbolTableRecord
100
AcDbBlockTableRecord
  2
Block_14
340
0
102
{BLKREFS
331
162
102
}
 70
     0
280
     1
281
     0
  0
ENDTAB
  0
ENDSEC
  0
SECTION
  2
BLOCKS
  0
BLOCK
  5
71
330
70
100
AcDbEntity
  8
0
100
AcDbBlockBegin
  2
*Model_Space
 70
     0
 10
0.0
 20
0.0
 30
0.0
  3
*Model_Space
  1

  0
ENDBLK
  5
72
330
70
100
AcDbEntity
  8
0
100
AcDbBlockEnd
  0
BLOCK
  5
6D
330
6C
100
AcDbEntity
 67
     1
  8
0
100
AcDbBlockBegin
  2
*Paper_Space
 70
     0
 10
0.0
 20
0.0
 30
0.0
  3
*Paper_Space
  1

  0
ENDBLK
  5
6E
330
6C
100
AcDbEntity
 67
     1
  8
0
100
AcDbBlockEnd
  0
BLOCK
  5
75
330
74
100
AcDbEntity
 67
     1
  8
0
100
AcDbBlockBegin
  2
*Paper_Space0
 70
     0
 10
0.0
 20
0.0
 30
0.0
  3
*Paper_Space0
  1

  0
ENDBLK
  5
76
330
74
100
AcDbEntity
 67
     1
  8
0
100
AcDbBlockEnd
  0
BLOCK
  5
7B
330
79
100
AcDbEntity
  8
0
100
AcDbBlockBegin
  2
Block_0
 70
     0
 10
0.0
 20
0.0
 30
0.0
  3
Block_0
  1

  0
INSERT
  5
7E
330
79
100
AcDbEntity
  8
レイヤー 1
100
AcDbBlockReference
  2
Block_1
 10
0.0
 20
0.0
 30
0.0
  0
LWPOLYLINE
  5
A3
330
79
100
AcDbEntity
  8
レイヤー 1
 62
   250
420
  2299925
370
     9
100
AcDbPolyline
 90
        3
 70
     0
 43
0.0
 10
118.8727227442318
 20
-144.6458949357481
 10
125.046333697841
 20
-152.7594663226082
 10
135.688901956156
 20
-152.7594663226082
  0
LWPOLYLINE
  5
A4
330
79
100
AcDbEntity
  8
レイヤー 1
  6
AI-Linetype-0
 62
   154
420
    23468
370
    25
100
AcDbPolyline
 90
        6
 70
     0
 43
0.0
 10
79.30319264262322
 20
-145.1750616022825
 10
100.8817297426355
 20
-144.2342032691842
 10
100.8817297426355
 20
-152.6419913226381
 10
108.0551130741748
 20
-152.6419913226381
 10
108.0551130741748
 20
-144.1167282692137
 10
129.6331186243362
 20
-145.1750616022825
  0
INSERT
  5
A7
330
79
100
AcDbEntity
  8
レイヤー 1
100
AcDbBlockReference
  2
Block_3
 10
0.0
 20
0.0
 30
0.0
  0
ENDBLK
  5
7C
330
79
100
AcDbEntity
  8
0
100
AcDbBlockEnd
  0
BLOCK
  5
7F
330
7D
100
AcDbEntity
  8
0
100
AcDbBlockBegin
  2
Block_1
 70
     0
 10
0.0
 20
0.0
 30
0.0
  3
Block_1
  1

  0
INSERT
  5
82
330
7D
100
AcDbEntity
  8
レイヤー 1
100
AcDbBlockReference
  2
Block_2
 10
0.0
 20
0.0
 30
0.0
  0
ENDBLK
  5
80
330
7D
100
AcDbEntity
  8
0
100
AcDbBlockEnd
  0
BLOCK
  5
83
330
81
100
AcDbEntity
  8
0
100
AcDbBlockBegin
  2
Block_2
 70
     0
 10
0.0
 20
0.0
 30
0.0
  3
Block_2
  1

  0
SPLINE
  5
85
330
81
100
AcDbEntity
  8
レイヤー 1
100
AcDbSpline
210
0.0
220
0.0
230
1.0
 70
     9
 71
     3
 72
    59
 73
    55
 74
     0
 42
0.0000000001
 43
0.0000000001
 40
0.0
 40
0.0
 40
0.0
 40
0.0
 40
1.0
 40
1.0
 40
1.0
 40
2.0
 40
2.0
 40
2.0
 40
3.0
 40
3.0
 40
3.0
 40
4.0
 40
4.0
 40
4.0
 40
5.0
 40
5.0
 40
5.0
 40
6.0
 40
6.0
 40
6.0
 40
7.0
 40
7.0
 40
7.0
 40
8.0
 40
8.0
 40
8.0
 40
9.0
 40
9.0
 40
9.0
 40
10.0
 40
10.0
 40
10.0
 40
11.0
 40
11.0
 40
11.0
 40
12.0
 40
12.0
 40
12.0
 40
13.0
 40
13.0
 40
13.0
 40
14.0
 40
14.0
 40
14.0
 40
15.0
 40
15.0
 40
15.0
 40
16.0
 40
16.0
 40
16.0
 40
17.0
 40
17.0
 40
17.0
 40
18.0
 40
18.0
 40
18.0
 40
18.0
 10
126.4060655065929
 20
-148.3769897089995
 30
0.0
 10
126.2599934580183
 20
-148.863609446291
 30
0.0
 10
126.0415744042535
 20
-149.3858859218549
 30
0.0
 10
125.5172308713984
 20
-149.7031792160464
 30
0.0
 10
125.5172308713984
 20
-149.7031792160464
 30
0.0
 10
125.3525553072035
 20
-149.5509059955984
 30
0.0
 10
125.3525553072035
 20
-149.5509059955984
 30
0.0
 10
125.4934597125502
 20
-149.4813150667963
 30
0.0
 10
125.7080891612813
 20
-149.3710720112683
 30
0.0
 10
125.9285752723373
 20
-149.0410318637814
 30
0.0
 10
126.1359700205493
 20
-148.7282171937207
 30
0.0
 10
126.1859239050854
 20
-148.4722465991667
 30
0.0
 10
126.2100395734822
 20
-148.3452948305352
 30
0.0
 10
126.2100395734822
 20
-148.3452948305352
 30
0.0
 10
125.6433213661586
 20
-148.3452948305352
 30
0.0
 10
125.6433213661586
 20
-148.3452948305352
 30
0.0
 10
125.5527153548965
 20
-148.5060085349221
 30
0.0
 10
125.4469509234994
 20
-148.6730956659567
 30
0.0
 10
125.2784857542706
 20
-148.8444891663479
 30
0.0
 10
125.2784857542706
 20
-148.8444891663479
 30
0.0
 10
125.1265570433711
 20
-148.721843767073
 30
0.0
 10
125.1265570433711
 20
-148.721843767073
 30
0.0
 10
125.1785779851984
 20
-148.6753349780221
 30
0.0
 10
125.3081135754438
 20
-148.5631971199772
 30
0.0
 10
125.4524630762757
 20
-148.3135999520709
 30
0.0
 10
125.5192979286896
 20
-148.1950886673783
 30
0.0
 10
125.6099039399517
 20
-148.0257622242783
 30
0.0
 10
125.6322970606058
 20
-147.9031168250034
 30
0.0
 10
125.6322970606058
 20
-147.9031168250034
 30
0.0
 10
125.8341796560414
 20
-148.004574887044
 30
0.0
 10
125.8341796560414
 20
-148.004574887044
 30
0.0
 10
125.8469265093369
 20
-148.0109483136917
 30
0.0
 10
125.8600178721808
 20
-148.0193887976305
 30
0.0
 10
125.8600178721808
 20
-148.0342027082171
 30
0.0
 10
125.8600178721808
 20
-148.0553900454514
 30
0.0
 10
125.8376247515267
 20
-148.0681368987468
 30
0.0
 10
125.8303900510077
 20
-148.070203956038
 30
0.0
 10
125.8062743826109
 20
-148.0786444399768
 30
0.0
 10
125.7990396820919
 20
-148.0765773826857
 30
0.0
 10
125.7766465614378
 20
-148.1018988345023
 30
0.0
 10
125.7542534407837
 20
-148.1273925410931
 30
0.0
 10
125.7563204980748
 20
-148.135833025032
 30
0.0
 10
125.7284152246443
 20
-148.1887152407306
 30
0.0
 10
125.7284152246443
 20
-148.1887152407306
 30
0.0
 10
126.020903831342
 20
-148.1887152407306
 30
0.0
 10
126.020903831342
 20
-148.1887152407306
 30
0.0
 10
126.2451795474317
 20
-148.1887152407306
 30
0.0
 10
126.2730848208623
 20
-148.1759683874352
 30
0.0
 10
126.3230387053984
 20
-148.146340566262
 30
0.0
 10
126.3230387053984
 20
-148.146340566262
 30
0.0
 10
126.4598089961628
 20
-148.3113606400055
 30
0.0
 10
126.4598089961628
 20
-148.3113606400055
 30
0.0
 10
126.4301811749897
 20
-148.3473618878264
 30
0.0
 10
126.428458627247
 20
-148.3494289451175
 30
0.0
 10
126.4060655065929
 20
-148.3769897089995
 30
0.0
  0
HATCH
  5
86
330
81
100
AcDbEntity
  8
レイヤー 1
 62
   250
420
  2299925
440
 33554687
100
AcDbHatch
 10
0.0
 20
0.0
 30
0.0
210
0.0
220
0.0
230
1.0
  2
SOLID
 70
     1
 71
     1
 91
        1
 92
        1
 93
        1
 72
     4
 94
        3
 73
     0
 74
     0
 95
       59
 96
       55
 40
0.0
 40
0.0
 40
0.0
 40
0.0
 40
1.0
 40
1.0
 40
1.0
 40
2.0
 40
2.0
 40
2.0
 40
3.0
 40
3.0
 40
3.0
 40
4.0
 40
4.0
 40
4.0
 40
5.0
 40
5.0
 40
5.0
 40
6.0
 40
6.0
 40
6.0
 40
7.0
 40
7.0
 40
7.0
 40
8.0
 40
8.0
 40
8.0
 40
9.0
 40
9.0
 40
9.0
 40
10.0
 40
10.0
 40
10.0
 40
11.0
 40
11.0
 40
11.0
 40
12.0
 40
12.0
 40
12.0
 40
13.0
 40
13.0
 40
13.0
 40
14.0
 40
14.0
 40
14.0
 40
15.0
 40
15.0
 40
15.0
 40
16.0
 40
16.0
 40
16.0
 40
17.0
 40
17.0
 40
17.0
 40
18.0
 40
18.0
 40
18.0
 40
18.0
 10
126.4060655065929
 20
-148.3769897089995
 10
126.2599934580183
 20
-148.863609446291
 10
126.0415744042535
 20
-149.3858859218549
 10
125.5172308713984
 20
-149.7031792160464
 10
125.5172308713984
 20
-149.7031792160464
 10
125.3525553072035
 20
-149.5509059955984
 10
125.3525553072035
 20
-149.5509059955984
 10
125.4934597125502
 20
-149.4813150667963
 10
125.7080891612813
 20
-149.3710720112683
 10
125.9285752723373
 20
-149.0410318637814
 10
126.1359700205493
 20
-148.7282171937207
 10
126.1859239050854
 20
-148.4722465991667
 10
126.2100395734822
 20
-148.3452948305352
 10
126.2100395734822
 20
-148.3452948305352
 10
125.6433213661586
 20
-148.3452948305352
 10
125.6433213661586
 20
-148.3452948305352
 10
125.5527153548965
 20
-148.5060085349221
 10
125.4469509234994
 20
-148.6730956659567
 10
125.2784857542706
 20
-148.8444891663479
 10
125.2784857542706
 20
-148.8444891663479
 10
125.1265570433711
 20
-148.721843767073
 10
125.1265570433711
 20
-148.721843767073
 10
125.1785779851984
 20
-148.6753349780221
 10
125.3081135754438
 20
-148.5631971199772
 10
125.4524630762757
 20
-148.3135999520709
 10
125.5192979286896
 20
-148.1950886673783
 10
125.6099039399517
 20
-148.0257622242783
 10
125.6322970606058
 20
-147.9031168250034
 10
125.6322970606058
 20
-147.9031168250034
 10
125.8341796560414
 20
-148.004574887044
 10
125.8341796560414
 20
-148.004574887044
 10
125.8469265093369
 20
-148.0109483136917
 10
125.8600178721808
 20
-148.0193887976305
 10
125.8600178721808
 20
-148.0342027082171
 10
125.8600178721808
 20
-148.0553900454514
 10
125.8376247515267
 20
-148.0681368987468
 10
125.8303900510077
 20
-148.070203956038
 10
125.8062743826109
 20
-148.0786444399768
 10
125.7990396820919
 20
-148.0765773826857
 10
125.7766465614378
 20
-148.1018988345023
 10
125.7542534407837
 20
-148.1273925410931
 10
125.7563204980748
 20
-148.135833025032
 10
125.7284152246443
 20
-148.1887152407306
 10
125.7284152246443
 20
-148.1887152407306
 10
126.020903831342
 20
-148.1887152407306
 10
126.020903831342
 20
-148.1887152407306
 10
126.2451795474317
 20
-148.1887152407306
 10
126.2730848208623
 20
-148.1759683874352
 10
126.3230387053984
 20
-148.146340566262
 10
126.3230387053984
 20
-148.146340566262
 10
126.4598089961628
 20
-148.3113606400055
 10
126.4598089961628
 20
-148.3113606400055
 10
126.4301811749897
 20
-148.3473618878264
 10
126.428458627247
 20
-148.3494289451175
 10
126.4060655065929
 20
-148.3769897089995
 97
        0
 97
        1
330
85
 75
     2
 76
     1
 98
        1
 10
0.0
 20
0.0
450
        0
451
        0
460
0.0
461
0.0
452
        0
462
0.0
453
        0
470

  0
SPLINE
  5
87
330
81
100
AcDbEntity
  8
レイヤー 1
100
AcDbSpline
210
0.0
220
0.0
230
1.0
 70
    11
 71
     3
 72
    17
 73
    13
 74
     0
 42
0.0000000001
 43
0.0000000001
 40
0.0
 40
0.0
 40
0.0
 40
0.0
 40
1.0
 40
1.0
 40
1.0
 40
2.0
 40
2.0
 40
2.0
 40
3.0
 40
3.0
 40
3.0
 40
4.0
 40
4.0
 40
4.0
 40
4.0
 10
127.8450818907818
 20
-148.2860391881889
 30
0.0
 10
127.8450818907818
 20
-148.2860391881889
 30
0.0
 10
126.9338541349332
 20
-148.2860391881889
 30
0.0
 10
126.9338541349332
 20
-148.2860391881889
 30
0.0
 10
126.9338541349332
 20
-148.2860391881889
 30
0.0
 10
126.9338541349332
 20
-149.1743570590606
 30
0.0
 10
126.9338541349332
 20
-149.1743570590606
 30
0.0
 10
126.9338541349332
 20
-149.1743570590606
 30
0.0
 10
127.8450818907818
 20
-149.1743570590606
 30
0.0
 10
127.8450818907818
 20
-149.1743570590606
 30
0.0
 10
127.8450818907818
 20
-149.1743570590606
 30
0.0
 10
127.8450818907818
 20
-148.2860391881889
 30
0.0
 10
127.8450818907818
 20
-148.2860391881889
 30
0.0
  0
SPLINE
  5
88
330
81
100
AcDbEntity
  8
レイヤー 1
100
AcDbSpline
210
0.0
220
0.0
230
1.0
 70
     9
 71
     3
 72
    53
 73
    49
 74
     0
 42
0.0000000001
 43
0.0000000001
 40
0.0
 40
0.0
 40
0.0
 40
0.0
 40
1.0
 40
1.0
 40
1.0
 40
2.0
 40
2.0
 40
2.0
 40
3.0
 40
3.0
 40
3.0
 40
4.0
 40
4.0
 40
4.0
 40
5.0
 40
5.0
 40
5.0
 40
6.0
 40
6.0
 40
6.0
 40
7.0
 40
7.0
 40
7.0
 40
8.0
 40
8.0
 40
8.0
 40
9.0
 40
9.0
 40
9.0
 40
10.0
 40
10.0
 40
10.0
 40
11.0
 40
11.0
 40
11.0
 40
12.0
 40
12.0
 40
12.0
 40
13.0
 40
13.0
 40
13.0
 40
14.0
 40
14.0
 40
14.0
 40
15.0
 40
15.0
 40
15.0
 40
16.0
 40
16.0
 40
16.0
 40
16.0
 10
127.8247558274188
 20
-149.4895832959609
 30
0.0
 10
127.8319905279378
 20
-149.4451415642012
 30
0.0
 10
127.8319905279378
 20
-149.4368733350366
 30
0.0
 10
127.8375026807142
 20
-149.3628037821037
 30
0.0
 10
127.8375026807142
 20
-149.3628037821037
 30
0.0
 10
126.9359211922243
 20
-149.3628037821037
 30
0.0
 10
126.9359211922243
 20
-149.3628037821037
 30
0.0
 10
126.9359211922243
 20
-149.394498660568
 30
0.0
 10
126.9359211922243
 20
-149.449620188332
 30
0.0
 10
126.9393662877096
 20
-149.4854491813786
 30
0.0
 10
126.9393662877096
 20
-149.4854491813786
 30
0.0
 10
126.7285264440123
 20
-149.4854491813786
 30
0.0
 10
126.7285264440123
 20
-149.4854491813786
 30
0.0
 10
126.7340385967887
 20
-149.4303276536146
 30
0.0
 10
126.7433403545989
 20
-149.339377132804
 30
0.0
 10
126.7433403545989
 20
-149.2105305616557
 30
0.0
 10
126.7450629023415
 20
-149.0052028707348
 30
0.0
 10
126.7450629023415
 20
-148.9817762214351
 30
0.0
 10
126.7450629023415
 20
-148.9586940816839
 30
0.0
 10
126.7450629023415
 20
-148.9586940816839
 30
0.0
 10
126.7450629023415
 20
-148.5187553882175
 30
0.0
 10
126.7450629023415
 20
-148.5187553882175
 30
0.0
 10
126.7450629023415
 20
-148.4531263192235
 30
0.0
 10
126.7395507495651
 20
-148.1294595983843
 30
0.0
 10
126.7357611445313
 20
-148.0745103253946
 30
0.0
 10
126.8449706714137
 20
-148.0870849239157
 30
0.0
 10
127.0764810880225
 20
-148.0913912932723
 30
0.0
 10
127.1915472772299
 20
-148.0913912932723
 30
0.0
 10
127.1915472772299
 20
-148.0913912932723
 30
0.0
 10
127.5894558057762
 20
-148.0913912932723
 30
0.0
 10
127.5894558057762
 20
-148.0913912932723
 30
0.0
 10
127.7210584533128
 20
-148.0913912932723
 30
0.0
 10
127.9170843864235
 20
-148.0893242359811
 30
0.0
 10
128.0448974289263
 20
-148.0808837520423
 30
0.0
 10
128.0376627284072
 20
-148.1907822980217
 30
0.0
 10
128.0338731233735
 20
-148.4403794659281
 30
0.0
 10
128.0338731233735
 20
-148.5588907506207
 30
0.0
 10
128.0338731233735
 20
-148.5588907506207
 30
0.0
 10
128.0338731233735
 20
-148.9776421068528
 30
0.0
 10
128.0338731233735
 20
-148.9776421068528
 30
0.0
 10
128.0338731233735
 20
-149.0200167813214
 30
0.0
 10
128.0393852761499
 20
-149.2019178229426
 30
0.0
 10
128.0393852761499
 20
-149.2401583828288
 30
0.0
 10
128.041452333441
 20
-149.3903645459857
 30
0.0
 10
128.04868703396
 20
-149.4410074496189
 30
0.0
 10
128.0562662440276
 20
-149.4895832959609
 30
0.0
 10
128.0562662440276
 20
-149.4895832959609
 30
0.0
 10
127.8247558274188
 20
-149.4895832959609
 30
0.0
 10
127.8247558274188
 20
-149.4895832959609
 30
0.0
  0
HATCH
  5
89
330
81
100
AcDbEntity
  8
レイヤー 1
 62
   250
420
  2299925
440
 33554687
100
AcDbHatch
 10
0.0
 20
0.0
 30
0.0
210
0.0
220
0.0
230
1.0
  2
SOLID
 70
     1
 71
     1
 91
        2
 92
        1
 93
        1
 72
     4
 94
        3
 73
     0
 74
     0
 95
       17
 96
       13
 40
0.0
 40
0.0
 40
0.0
 40
0.0
 40
1.0
 40
1.0
 40
1.0
 40
2.0
 40
2.0
 40
2.0
 40
3.0
 40
3.0
 40
3.0
 40
4.0
 40
4.0
 40
4.0
 40
4.0
 10
127.8450818907818
 20
-148.2860391881889
 10
127.8450818907818
 20
-148.2860391881889
 10
126.9338541349332
 20
-148.2860391881889
 10
126.9338541349332
 20
-148.2860391881889
 10
126.9338541349332
 20
-148.2860391881889
 10
126.9338541349332
 20
-149.1743570590606
 10
126.9338541349332
 20
-149.1743570590606
 10
126.9338541349332
 20
-149.1743570590606
 10
127.8450818907818
 20
-149.1743570590606
 10
127.8450818907818
 20
-149.1743570590606
 10
127.8450818907818
 20
-149.1743570590606
 10
127.8450818907818
 20
-148.2860391881889
 10
127.8450818907818
 20
-148.2860391881889
 97
        0
 97
        1
330
87
 92
        1
 93
        1
 72
     4
 94
        3
 73
     0
 74
     0
 95
       53
 96
       49
 40
0.0
 40
0.0
 40
0.0
 40
0.0
 40
1.0
 40
1.0
 40
1.0
 40
2.0
 40
2.0
 40
2.0
 40
3.0
 40
3.0
 40
3.0
 40
4.0
 40
4.0
 40
4.0
 40
5.0
 40
5.0
 40
5.0
 40
6.0
 40
6.0
 40
6.0
 40
7.0
 40
7.0
 40
7.0
 40
8.0
 40
8.0
 40
8.0
 40
9.0
 40
9.0
 40
9.0
 40
10.0
 40
10.0
 40
10.0
 40
11.0
 40
11.0
 40
11.0
 40
12.0
 40
12.0
 40
12.0
 40
13.0
 40
13.0
 40
13.0
 40
14.0
 40
14.0
 40
14.0
 40
15.0
 40
15.0
 40
15.0
 40
16.0
 40
16.0
 40
16.0
 40
16.0
 10
127.8247558274188
 20
-149.4895832959609
 10
127.8319905279378
 20
-149.4451415642012
 10
127.8319905279378
 20
-149.4368733350366
 10
127.8375026807142
 20
-149.3628037821037
 10
127.8375026807142
 20
-149.3628037821037
 10
126.9359211922243
 20
-149.3628037821037
 10
126.9359211922243
 20
-149.3628037821037
 10
126.9359211922243
 20
-149.394498660568
 10
126.9359211922243
 20
-149.449620188332
 10
126.9393662877096
 20
-149.4854491813786
 10
126.9393662877096
 20
-149.4854491813786
 10
126.7285264440123
 20
-149.4854491813786
 10
126.7285264440123
 20
-149.4854491813786
 10
126.7340385967887
 20
-149.4303276536146
 10
126.7433403545989
 20
-149.339377132804
 10
126.7433403545989
 20
-149.2105305616557
 10
126.7450629023415
 20
-149.0052028707348
 10
126.7450629023415
 20
-148.9817762214351
 10
126.7450629023415
 20
-148.9586940816839
 10
126.7450629023415
 20
-148.9586940816839
 10
126.7450629023415
 20
-148.5187553882175
 10
126.7450629023415
 20
-148.5187553882175
 10
126.7450629023415
 20
-148.4531263192235
 10
126.7395507495651
 20
-148.1294595983843
 10
126.7357611445313
 20
-148.0745103253946
 10
126.8449706714137
 20
-148.0870849239157
 10
127.0764810880225
 20
-148.0913912932723
 10
127.1915472772299
 20
-148.0913912932723
 10
127.1915472772299
 20
-148.0913912932723
 10
127.5894558057762
 20
-148.0913912932723
 10
127.5894558057762
 20
-148.0913912932723
 10
127.7210584533128
 20
-148.0913912932723
 10
127.9170843864235
 20
-148.0893242359811
 10
128.0448974289263
 20
-148.0808837520423
 10
128.0376627284072
 20
-148.1907822980217
 10
128.0338731233735
 20
-148.4403794659281
 10
128.0338731233735
 20
-148.5588907506207
 10
128.0338731233735
 20
-148.5588907506207
 10
128.0338731233735
 20
-148.9776421068528
 10
128.0338731233735
 20
-148.9776421068528
 10
128.0338731233735
 20
-149.0200167813214
 10
128.0393852761499
 20
-149.2019178229426
 10
128.0393852761499
 20
-149.2401583828288
 10
128.041452333441
 20
-149.3903645459857
 10
128.04868703396
 20
-149.4410074496189
 10
128.0562662440276
 20
-149.4895832959609
 10
128.0562662440276
 20
-149.4895832959609
 10
127.8247558274188
 20
-149.4895832959609
 10
127.8247558274188
 20
-149.4895832959609
 97
        0
 97
        1
330
88
 75
     2
 76
     1
 98
        1
 10
0.0
 20
0.0
450
        0
451
        0
460
0.0
461
0.0
452
        0
462
0.0
453
        0
470

  0
SPLINE
  5
8A
330
81
100
AcDbEntity
  8
レイヤー 1
100
AcDbSpline
210
0.0
220
0.0
230
1.0
 70
     9
 71
     3
 72
    56
 73
    52
 74
     0
 42
0.0000000001
 43
0.0000000001
 40
0.0
 40
0.0
 40
0.0
 40
0.0
 40
1.0
 40
1.0
 40
1.0
 40
2.0
 40
2.0
 40
2.0
 40
3.0
 40
3.0
 40
3.0
 40
4.0
 40
4.0
 40
4.0
 40
5.0
 40
5.0
 40
5.0
 40
6.0
 40
6.0
 40
6.0
 40
7.0
 40
7.0
 40
7.0
 40
8.0
 40
8.0
 40
8.0
 40
9.0
 40
9.0
 40
9.0
 40
10.0
 40
10.0
 40
10.0
 40
11.0
 40
11.0
 40
11.0
 40
12.0
 40
12.0
 40
12.0
 40
13.0
 40
13.0
 40
13.0
 40
14.0
 40
14.0
 40
14.0
 40
15.0
 40
15.0
 40
15.0
 40
16.0
 40
16.0
 40
16.0
 40
17.0
 40
17.0
 40
17.0
 40
17.0
 10
129.5858886394785
 20
-149.5553846197292
 30
0.0
 10
129.4174234702498
 20
-149.2463595547023
 30
0.0
 10
129.1917697159659
 20
-149.0410318637814
 30
0.0
 10
129.1118435007081
 20
-148.9755750495616
 30
0.0
 10
128.85449486796
 20
-149.3142279357617
 30
0.0
 10
128.6009358402456
 20
-149.4665011562098
 30
0.0
 10
128.4269585182405
 20
-149.5595187343115
 30
0.0
 10
128.4269585182405
 20
-149.5595187343115
 30
0.0
 10
128.2877766606363
 20
-149.3710720112683
 30
0.0
 10
128.2877766606363
 20
-149.3710720112683
 30
0.0
 10
128.378727181447
 20
-149.3352430182217
 30
0.0
 10
128.5657958662961
 20
-149.2591064079977
 30
0.0
 10
128.7694010094743
 20
-149.0730712517942
 30
0.0
 10
129.0009114260831
 20
-148.8613701342256
 30
0.0
 10
129.1638644425354
 20
-148.5737046612072
 30
0.0
 10
129.2713514216752
 20
-148.2607177363723
 30
0.0
 10
129.2713514216752
 20
-148.2607177363723
 30
0.0
 10
128.9416557837368
 20
-148.2607177363723
 30
0.0
 10
128.9416557837368
 20
-148.2607177363723
 30
0.0
 10
128.8083305884576
 20
-148.2607177363723
 30
0.0
 10
128.6250515086423
 20
-148.2648518509546
 30
0.0
 10
128.4934488611058
 20
-148.2839721308977
 30
0.0
 10
128.4934488611058
 20
-148.2839721308977
 30
0.0
 10
128.4934488611058
 20
-148.0724432681034
 30
0.0
 10
128.4934488611058
 20
-148.0724432681034
 30
0.0
 10
128.5527045034521
 20
-148.0786444399768
 30
0.0
 10
128.7804253150271
 20
-148.0893242359811
 30
0.0
 10
128.8565619252511
 20
-148.0893242359811
 30
0.0
 10
128.8565619252511
 20
-148.0893242359811
 30
0.0
 10
129.1287244685859
 20
-148.0893242359811
 30
0.0
 10
129.1287244685859
 20
-148.0893242359811
 30
0.0
 10
129.3102810006585
 20
-148.0893242359811
 30
0.0
 10
129.3306070640215
 20
-148.0829508093334
 30
0.0
 10
129.3509331273845
 20
-148.0786444399768
 30
0.0
 10
129.3898627063678
 20
-148.0724432681034
 30
0.0
 10
129.4229356230262
 20
-148.0469495615126
 30
0.0
 10
129.4415391386465
 20
-148.0300685936348
 30
0.0
 10
129.4415391386465
 20
-148.0300685936348
 30
0.0
 10
129.5786539389595
 20
-148.2035291513172
 30
0.0
 10
129.5786539389595
 20
-148.2035291513172
 30
0.0
 10
129.5435139650099
 20
-148.2310899151992
 30
0.0
 10
129.5321451499086
 20
-148.2415974564292
 30
0.0
 10
129.48977047544
 20
-148.27759870425
 30
0.0
 10
129.3767713435238
 20
-148.5251288148652
 30
0.0
 10
129.3064913956247
 20
-148.6753349780221
 30
0.0
 10
129.2155408748141
 20
-148.8212347718224
 30
0.0
 10
129.48977047544
 20
-149.0389648064903
 30
0.0
 10
129.6895860135845
 20
-149.3245632222174
 30
0.0
 10
129.7360948026354
 20
-149.4027668897326
 30
0.0
 10
129.7360948026354
 20
-149.4027668897326
 30
0.0
 10
129.5858886394785
 20
-149.5553846197292
 30
0.0
 10
129.5858886394785
 20
-149.5553846197292
 30
0.0
  0
HATCH
  5
8B
330
81
100
AcDbEntity
  8
レイヤー 1
 62
   250
420
  2299925
440
 33554687
100
AcDbHatch
 10
0.0
 20
0.0
 30
0.0
210
0.0
220
0.0
230
1.0
  2
SOLID
 70
     1
 71
     1
 91
        1
 92
        1
 93
        1
 72
     4
 94
        3
 73
     0
 74
     0
 95
       56
 96
       52
 40
0.0
 40
0.0
 40
0.0
 40
0.0
 40
1.0
 40
1.0
 40
1.0
 40
2.0
 40
2.0
 40
2.0
 40
3.0
 40
3.0
 40
3.0
 40
4.0
 40
4.0
 40
4.0
 40
5.0
 40
5.0
 40
5.0
 40
6.0
 40
6.0
 40
6.0
 40
7.0
 40
7.0
 40
7.0
 40
8.0
 40
8.0
 40
8.0
 40
9.0
 40
9.0
 40
9.0
 40
10.0
 40
10.0
 40
10.0
 40
11.0
 40
11.0
 40
11.0
 40
12.0
 40
12.0
 40
12.0
 40
13.0
 40
13.0
 40
13.0
 40
14.0
 40
14.0
 40
14.0
 40
15.0
 40
15.0
 40
15.0
 40
16.0
 40
16.0
 40
16.0
 40
17.0
 40
17.0
 40
17.0
 40
17.0
 10
129.5858886394785
 20
-149.5553846197292
 10
129.4174234702498
 20
-149.2463595547023
 10
129.1917697159659
 20
-149.0410318637814
 10
129.1118435007081
 20
-148.9755750495616
 10
128.85449486796
 20
-149.3142279357617
 10
128.6009358402456
 20
-149.4665011562098
 10
128.4269585182405
 20
-149.5595187343115
 10
128.4269585182405
 20
-149.5595187343115
 10
128.2877766606363
 20
-149.3710720112683
 10
128.2877766606363
 20
-149.3710720112683
 10
128.378727181447
 20
-149.3352430182217
 10
128.5657958662961
 20
-149.2591064079977
 10
128.7694010094743
 20
-149.0730712517942
 10
129.0009114260831
 20
-148.8613701342256
 10
129.1638644425354
 20
-148.5737046612072
 10
129.2713514216752
 20
-148.2607177363723
 10
129.2713514216752
 20
-148.2607177363723
 10
128.9416557837368
 20
-148.2607177363723
 10
128.9416557837368
 20
-148.2607177363723
 10
128.8083305884576
 20
-148.2607177363723
 10
128.6250515086423
 20
-148.2648518509546
 10
128.4934488611058
 20
-148.2839721308977
 10
128.4934488611058
 20
-148.2839721308977
 10
128.4934488611058
 20
-148.0724432681034
 10
128.4934488611058
 20
-148.0724432681034
 10
128.5527045034521
 20
-148.0786444399768
 10
128.7804253150271
 20
-148.0893242359811
 10
128.8565619252511
 20
-148.0893242359811
 10
128.8565619252511
 20
-148.0893242359811
 10
129.1287244685859
 20
-148.0893242359811
 10
129.1287244685859
 20
-148.0893242359811
 10
129.3102810006585
 20
-148.0893242359811
 10
129.3306070640215
 20
-148.0829508093334
 10
129.3509331273845
 20
-148.0786444399768
 10
129.3898627063678
 20
-148.0724432681034
 10
129.4229356230262
 20
-148.0469495615126
 10
129.4415391386465
 20
-148.0300685936348
 10
129.4415391386465
 20
-148.0300685936348
 10
129.5786539389595
 20
-148.2035291513172
 10
129.5786539389595
 20
-148.2035291513172
 10
129.5435139650099
 20
-148.2310899151992
 10
129.5321451499086
 20
-148.2415974564292
 10
129.48977047544
 20
-148.27759870425
 10
129.3767713435238
 20
-148.5251288148652
 10
129.3064913956247
 20
-148.6753349780221
 10
129.2155408748141
 20
-148.8212347718224
 10
129.48977047544
 20
-149.0389648064903
 10
129.6895860135845
 20
-149.3245632222174
 10
129.7360948026354
 20
-149.4027668897326
 10
129.7360948026354
 20
-149.4027668897326
 10
129.5858886394785
 20
-149.5553846197292
 10
129.5858886394785
 20
-149.5553846197292
 97
        0
 97
        1
330
8A
 75
     2
 76
     1
 98
        1
 10
0.0
 20
0.0
450
        0
451
        0
460
0.0
461
0.0
452
        0
462
0.0
453
        0
470

  0
SPLINE
  5
8C
330
81
100
AcDbEntity
  8
レイヤー 1
100
AcDbSpline
210
0.0
220
0.0
230
1.0
 70
    11
 71
     3
 72
    17
 73
    13
 74
     0
 42
0.0000000001
 43
0.0000000001
 40
0.0
 40
0.0
 40
0.0
 40
0.0
 40
1.0
 40
1.0
 40
1.0
 40
2.0
 40
2.0
 40
2.0
 40
3.0
 40
3.0
 40
3.0
 40
4.0
 40
4.0
 40
4.0
 40
4.0
 10
131.2343668291706
 20
-148.5780110305638
 30
0.0
 10
131.2343668291706
 20
-148.5780110305638
 30
0.0
 10
130.8326686955904
 20
-148.5780110305638
 30
0.0
 10
130.8326686955904
 20
-148.5780110305638
 30
0.0
 10
130.8326686955904
 20
-148.5780110305638
 30
0.0
 10
130.8326686955904
 20
-148.8866915860422
 30
0.0
 10
130.8326686955904
 20
-148.8866915860422
 30
0.0
 10
130.8326686955904
 20
-148.8866915860422
 30
0.0
 10
131.2343668291706
 20
-148.8866915860422
 30
0.0
 10
131.2343668291706
 20
-148.8866915860422
 30
0.0
 10
131.2343668291706
 20
-148.8866915860422
 30
0.0
 10
131.2343668291706
 20
-148.5780110305638
 30
0.0
 10
131.2343668291706
 20
-148.5780110305638
 30
0.0
  0
SPLINE
  5
8D
330
81
100
AcDbEntity
  8
レイヤー 1
100
AcDbSpline
210
0.0
220
0.0
230
1.0
 70
    11
 71
     3
 72
    17
 73
    13
 74
     0
 42
0.0000000001
 43
0.0000000001
 40
0.0
 40
0.0
 40
0.0
 40
0.0
 40
1.0
 40
1.0
 40
1.0
 40
2.0
 40
2.0
 40
2.0
 40
3.0
 40
3.0
 40
3.0
 40
4.0
 40
4.0
 40
4.0
 40
4.0
 10
131.2343668291706
 20
-148.1062052038589
 30
0.0
 10
131.2343668291706
 20
-148.1062052038589
 30
0.0
 10
130.8326686955904
 20
-148.1062052038589
 30
0.0
 10
130.8326686955904
 20
-148.1062052038589
 30
0.0
 10
130.8326686955904
 20
-148.1062052038589
 30
0.0
 10
130.8326686955904
 20
-148.4107516447549
 30
0.0
 10
130.8326686955904
 20
-148.4107516447549
 30
0.0
 10
130.8326686955904
 20
-148.4107516447549
 30
0.0
 10
131.2343668291706
 20
-148.4107516447549
 30
0.0
 10
131.2343668291706
 20
-148.4107516447549
 30
0.0
 10
131.2343668291706
 20
-148.4107516447549
 30
0.0
 10
131.2343668291706
 20
-148.1062052038589
 30
0.0
 10
131.2343668291706
 20
-148.1062052038589
 30
0.0
  0
SPLINE
  5
8E
330
81
100
AcDbEntity
  8
レイヤー 1
100
AcDbSpline
210
0.0
220
0.0
230
1.0
 70
    11
 71
     3
 72
    17
 73
    13
 74
     0
 42
0.0000000001
 43
0.0000000001
 40
0.0
 40
0.0
 40
0.0
 40
0.0
 40
1.0
 40
1.0
 40
1.0
 40
2.0
 40
2.0
 40
2.0
 40
3.0
 40
3.0
 40
3.0
 40
4.0
 40
4.0
 40
4.0
 40
4.0
 10
130.6659260741043
 20
-148.5780110305638
 30
0.0
 10
130.6659260741043
 20
-148.5780110305638
 30
0.0
 10
130.282486946596
 20
-148.5780110305638
 30
0.0
 10
130.282486946596
 20
-148.5780110305638
 30
0.0
 10
130.282486946596
 20
-148.5780110305638
 30
0.0
 10
130.282486946596
 20
-148.8866915860422
 30
0.0
 10
130.282486946596
 20
-148.8866915860422
 30
0.0
 10
130.282486946596
 20
-148.8866915860422
 30
0.0
 10
130.6659260741043
 20
-148.8866915860422
 30
0.0
 10
130.6659260741043
 20
-148.8866915860422
 30
0.0
 10
130.6659260741043
 20
-148.8866915860422
 30
0.0
 10
130.6659260741043
 20
-148.5780110305638
 30
0.0
 10
130.6659260741043
 20
-148.5780110305638
 30
0.0
  0
SPLINE
  5
8F
330
81
100
AcDbEntity
  8
レイヤー 1
100
AcDbSpline
210
0.0
220
0.0
230
1.0
 70
    11
 71
     3
 72
    17
 73
    13
 74
     0
 42
0.0000000001
 43
0.0000000001
 40
0.0
 40
0.0
 40
0.0
 40
0.0
 40
1.0
 40
1.0
 40
1.0
 40
2.0
 40
2.0
 40
2.0
 40
3.0
 40
3.0
 40
3.0
 40
4.0
 40
4.0
 40
4.0
 40
4.0
 10
130.6659260741043
 20
-148.1062052038589
 30
0.0
 10
130.6659260741043
 20
-148.1062052038589
 30
0.0
 10
130.282486946596
 20
-148.1062052038589
 30
0.0
 10
130.282486946596
 20
-148.1062052038589
 30
0.0
 10
130.282486946596
 20
-148.1062052038589
 30
0.0
 10
130.282486946596
 20
-148.4107516447549
 30
0.0
 10
130.282486946596
 20
-148.4107516447549
 30
0.0
 10
130.282486946596
 20
-148.4107516447549
 30
0.0
 10
130.6659260741043
 20
-148.4107516447549
 30
0.0
 10
130.6659260741043
 20
-148.4107516447549
 30
0.0
 10
130.6659260741043
 20
-148.4107516447549
 30
0.0
 10
130.6659260741043
 20
-148.1062052038589
 30
0.0
 10
130.6659260741043
 20
-148.1062052038589
 30
0.0
  0
SPLINE
  5
90
330
81
100
AcDbEntity
  8
レイヤー 1
100
AcDbSpline
210
0.0
220
0.0
230
1.0
 70
     9
 71
     3
 72
    77
 73
    73
 74
     0
 42
0.0000000001
 43
0.0000000001
 40
0.0
 40
0.0
 40
0.0
 40
0.0
 40
1.0
 40
1.0
 40
1.0
 40
2.0
 40
2.0
 40
2.0
 40
3.0
 40
3.0
 40
3.0
 40
4.0
 40
4.0
 40
4.0
 40
5.0
 40
5.0
 40
5.0
 40
6.0
 40
6.0
 40
6.0
 40
7.0
 40
7.0
 40
7.0
 40
8.0
 40
8.0
 40
8.0
 40
9.0
 40
9.0
 40
9.0
 40
10.0
 40
10.0
 40
10.0
 40
11.0
 40
11.0
 40
11.0
 40
12.0
 40
12.0
 40
12.0
 40
13.0
 40
13.0
 40
13.0
 40
14.0
 40
14.0
 40
14.0
 40
15.0
 40
15.0
 40
15.0
 40
16.0
 40
16.0
 40
16.0
 40
17.0
 40
17.0
 40
17.0
 40
18.0
 40
18.0
 40
18.0
 40
19.0
 40
19.0
 40
19.0
 40
20.0
 40
20.0
 40
20.0
 40
21.0
 40
21.0
 40
21.0
 40
22.0
 40
22.0
 40
22.0
 40
23.0
 40
23.0
 40
23.0
 40
24.0
 40
24.0
 40
24.0
 40
24.0
 10
131.3528781138632
 20
-149.6928439295906
 30
0.0
 10
131.3122259871372
 20
-149.717993126633
 30
0.0
 10
131.2030164602548
 20
-149.7307399799284
 30
0.0
 10
131.1344590600983
 20
-149.7307399799284
 30
0.0
 10
131.123090244997
 20
-149.7307399799284
 30
0.0
 10
131.1010416338914
 20
-149.7307399799284
 30
0.0
 10
131.0714138127182
 20
-149.7266058653461
 30
0.0
 10
131.0714138127182
 20
-149.7266058653461
 30
0.0
 10
130.9863199542325
 20
-149.5002630919652
 30
0.0
 10
130.9863199542325
 20
-149.5002630919652
 30
0.0
 10
131.0121581703719
 20
-149.5064642638386
 30
0.0
 10
131.0621120549081
 20
-149.5150770025518
 30
0.0
 10
131.1640868812715
 20
-149.5150770025518
 30
0.0
 10
131.2326442814279
 20
-149.5150770025518
 30
0.0
 10
131.2343668291706
 20
-149.4727023280832
 30
0.0
 10
131.2343668291706
 20
-149.4155137430281
 30
0.0
 10
131.2343668291706
 20
-149.4155137430281
 30
0.0
 10
131.2343668291706
 20
-149.0665255703722
 30
0.0
 10
131.2343668291706
 20
-149.0665255703722
 30
0.0
 10
131.2343668291706
 20
-149.0665255703722
 30
0.0
 10
130.8326686955904
 20
-149.0665255703722
 30
0.0
 10
130.8326686955904
 20
-149.0665255703722
 30
0.0
 10
130.834391243333
 20
-149.2039848802337
 30
0.0
 10
130.8361137910757
 20
-149.4027668897326
 30
0.0
 10
130.8419704534006
 20
-149.5360920850118
 30
0.0
 10
130.8436930011432
 20
-149.5636528488938
 30
0.0
 10
130.8436930011432
 20
-149.6080945806535
 30
0.0
 10
130.854717306696
 20
-149.669417280291
 30
0.0
 10
130.854717306696
 20
-149.669417280291
 30
0.0
 10
130.6435329534502
 20
-149.669417280291
 30
0.0
 10
130.6435329534502
 20
-149.669417280291
 30
0.0
 10
130.6659260741043
 20
-149.5447048237249
 30
0.0
 10
130.6659260741043
 20
-149.2039848802337
 30
0.0
 10
130.6659260741043
 20
-149.0665255703722
 30
0.0
 10
130.6659260741043
 20
-149.0665255703722
 30
0.0
 10
130.2790418511108
 20
-149.0665255703722
 30
0.0
 10
130.2790418511108
 20
-149.0665255703722
 30
0.0
 10
130.2583712781993
 20
-149.2739203185843
 30
0.0
 10
130.2011826931441
 20
-149.5426377664338
 30
0.0
 10
130.0289279188816
 20
-149.7266058653461
 30
0.0
 10
130.0289279188816
 20
-149.7266058653461
 30
0.0
 10
129.8642523546867
 20
-149.6039604660712
 30
0.0
 10
129.8642523546867
 20
-149.6039604660712
 30
0.0
 10
130.0861165039368
 20
-149.3838188645637
 30
0.0
 10
130.1140217773673
 20
-149.0517116597857
 30
0.0
 10
130.1140217773673
 20
-148.7197767097818
 30
0.0
 10
130.1140217773673
 20
-148.7197767097818
 30
0.0
 10
130.1140217773673
 20
-148.2839721308977
 30
0.0
 10
130.1140217773673
 20
-148.2839721308977
 30
0.0
 10
130.1140217773673
 20
-148.2479708830769
 30
0.0
 10
130.1122992296247
 20
-148.0152546830483
 30
0.0
 10
130.1047200195571
 20
-147.9136243662334
 30
0.0
 10
130.2270209092835
 20
-147.9243041622377
 30
0.0
 10
130.4382052625293
 20
-147.9243041622377
 30
0.0
 10
130.5639512477409
 20
-147.9243041622377
 30
0.0
 10
130.5639512477409
 20
-147.9243041622377
 30
0.0
 10
130.9659938908696
 20
-147.9243041622377
 30
0.0
 10
130.9659938908696
 20
-147.9243041622377
 30
0.0
 10
130.978740744165
 20
-147.9243041622377
 30
0.0
 10
131.2843207137067
 20
-147.9243041622377
 30
0.0
 10
131.4231580617623
 20
-147.9136243662334
 30
0.0
 10
131.4214355140196
 20
-147.966506581932
 30
0.0
 10
131.4159233612432
 20
-148.1273925410931
 30
0.0
 10
131.4159233612432
 20
-148.1782076995006
 30
0.0
 10
131.4159233612432
 20
-148.1782076995006
 30
0.0
 10
131.4159233612432
 20
-148.7852335240016
 30
0.0
 10
131.4159233612432
 20
-148.7852335240016
 30
0.0
 10
131.4159233612432
 20
-148.8043538039447
 30
0.0
 10
131.4252251190534
 20
-149.3755506353991
 30
0.0
 10
131.4252251190534
 20
-149.4875162386698
 30
0.0
 10
131.4252251190534
 20
-149.5447048237249
 30
0.0
 10
131.4252251190534
 20
-149.6463351405398
 30
0.0
 10
131.3528781138632
 20
-149.6928439295906
 30
0.0
  0
HATCH
  5
91
330
81
100
AcDbEntity
  8
レイヤー 1
 62
   250
420
  2299925
440
 33554687
100
AcDbHatch
 10
0.0
 20
0.0
 30
0.0
210
0.0
220
0.0
230
1.0
  2
SOLID
 70
     1
 71
     1
 91
        5
 92
        1
 93
        1
 72
     4
 94
        3
 73
     0
 74
     0
 95
       17
 96
       13
 40
0.0
 40
0.0
 40
0.0
 40
0.0
 40
1.0
 40
1.0
 40
1.0
 40
2.0
 40
2.0
 40
2.0
 40
3.0
 40
3.0
 40
3.0
 40
4.0
 40
4.0
 40
4.0
 40
4.0
 10
131.2343668291706
 20
-148.5780110305638
 10
131.2343668291706
 20
-148.5780110305638
 10
130.8326686955904
 20
-148.5780110305638
 10
130.8326686955904
 20
-148.5780110305638
 10
130.8326686955904
 20
-148.5780110305638
 10
130.8326686955904
 20
-148.8866915860422
 10
130.8326686955904
 20
-148.8866915860422
 10
130.8326686955904
 20
-148.8866915860422
 10
131.2343668291706
 20
-148.8866915860422
 10
131.2343668291706
 20
-148.8866915860422
 10
131.2343668291706
 20
-148.8866915860422
 10
131.2343668291706
 20
-148.5780110305638
 10
131.2343668291706
 20
-148.5780110305638
 97
        0
 97
        1
330
8C
 92
        1
 93
        1
 72
     4
 94
        3
 73
     0
 74
     0
 95
       17
 96
       13
 40
0.0
 40
0.0
 40
0.0
 40
0.0
 40
1.0
 40
1.0
 40
1.0
 40
2.0
 40
2.0
 40
2.0
 40
3.0
 40
3.0
 40
3.0
 40
4.0
 40
4.0
 40
4.0
 40
4.0
 10
131.2343668291706
 20
-148.1062052038589
 10
131.2343668291706
 20
-148.1062052038589
 10
130.8326686955904
 20
-148.1062052038589
 10
130.8326686955904
 20
-148.1062052038589
 10
130.8326686955904
 20
-148.1062052038589
 10
130.8326686955904
 20
-148.4107516447549
 10
130.8326686955904
 20
-148.4107516447549
 10
130.8326686955904
 20
-148.4107516447549
 10
131.2343668291706
 20
-148.4107516447549
 10
131.2343668291706
 20
-148.4107516447549
 10
131.2343668291706
 20
-148.4107516447549
 10
131.2343668291706
 20
-148.1062052038589
 10
131.2343668291706
 20
-148.1062052038589
 97
        0
 97
        1
330
8D
 92
        1
 93
        1
 72
     4
 94
        3
 73
     0
 74
     0
 95
       17
 96
       13
 40
0.0
 40
0.0
 40
0.0
 40
0.0
 40
1.0
 40
1.0
 40
1.0
 40
2.0
 40
2.0
 40
2.0
 40
3.0
 40
3.0
 40
3.0
 40
4.0
 40
4.0
 40
4.0
 40
4.0
 10
130.6659260741043
 20
-148.5780110305638
 10
130.6659260741043
 20
-148.5780110305638
 10
130.282486946596
 20
-148.5780110305638
 10
130.282486946596
 20
-148.5780110305638
 10
130.282486946596
 20
-148.5780110305638
 10
130.282486946596
 20
-148.8866915860422
 10
130.282486946596
 20
-148.8866915860422
 10
130.282486946596
 20
-148.8866915860422
 10
130.6659260741043
 20
-148.8866915860422
 10
130.6659260741043
 20
-148.8866915860422
 10
130.6659260741043
 20
-148.8866915860422
 10
130.6659260741043
 20
-148.5780110305638
 10
130.6659260741043
 20
-148.5780110305638
 97
        0
 97
        1
330
8E
 92
        1
 93
        1
 72
     4
 94
        3
 73
     0
 74
     0
 95
       17
 96
       13
 40
0.0
 40
0.0
 40
0.0
 40
0.0
 40
1.0
 40
1.0
 40
1.0
 40
2.0
 40
2.0
 40
2.0
 40
3.0
 40
3.0
 40
3.0
 40
4.0
 40
4.0
 40
4.0
 40
4.0
 10
130.6659260741043
 20
-148.1062052038589
 10
130.6659260741043
 20
-148.1062052038589
 10
130.282486946596
 20
-148.1062052038589
 10
130.282486946596
 20
-148.1062052038589
 10
130.282486946596
 20
-148.1062052038589
 10
130.282486946596
 20
-148.4107516447549
 10
130.282486946596
 20
-148.4107516447549
 10
130.282486946596
 20
-148.4107516447549
 10
130.6659260741043
 20
-148.4107516447549
 10
130.6659260741043
 20
-148.4107516447549
 10
130.6659260741043
 20
-148.4107516447549
 10
130.6659260741043
 20
-148.1062052038589
 10
130.6659260741043
 20
-148.1062052038589
 97
        0
 97
        1
330
8F
 92
        1
 93
        1
 72
     4
 94
        3
 73
     0
 74
     0
 95
       77
 96
       73
 40
0.0
 40
0.0
 40
0.0
 40
0.0
 40
1.0
 40
1.0
 40
1.0
 40
2.0
 40
2.0
 40
2.0
 40
3.0
 40
3.0
 40
3.0
 40
4.0
 40
4.0
 40
4.0
 40
5.0
 40
5.0
 40
5.0
 40
6.0
 40
6.0
 40
6.0
 40
7.0
 40
7.0
 40
7.0
 40
8.0
 40
8.0
 40
8.0
 40
9.0
 40
9.0
 40
9.0
 40
10.0
 40
10.0
 40
10.0
 40
11.0
 40
11.0
 40
11.0
 40
12.0
 40
12.0
 40
12.0
 40
13.0
 40
13.0
 40
13.0
 40
14.0
 40
14.0
 40
14.0
 40
15.0
 40
15.0
 40
15.0
 40
16.0
 40
16.0
 40
16.0
 40
17.0
 40
17.0
 40
17.0
 40
18.0
 40
18.0
 40
18.0
 40
19.0
 40
19.0
 40
19.0
 40
20.0
 40
20.0
 40
20.0
 40
21.0
 40
21.0
 40
21.0
 40
22.0
 40
22.0
 40
22.0
 40
23.0
 40
23.0
 40
23.0
 40
24.0
 40
24.0
 40
24.0
 40
24.0
 10
131.3528781138632
 20
-149.6928439295906
 10
131.3122259871372
 20
-149.717993126633
 10
131.2030164602548
 20
-149.7307399799284
 10
131.1344590600983
 20
-149.7307399799284
 10
131.123090244997
 20
-149.7307399799284
 10
131.1010416338914
 20
-149.7307399799284
 10
131.0714138127182
 20
-149.7266058653461
 10
131.0714138127182
 20
-149.7266058653461
 10
130.9863199542325
 20
-149.5002630919652
 10
130.9863199542325
 20
-149.5002630919652
 10
131.0121581703719
 20
-149.5064642638386
 10
131.0621120549081
 20
-149.5150770025518
 10
131.1640868812715
 20
-149.5150770025518
 10
131.2326442814279
 20
-149.5150770025518
 10
131.2343668291706
 20
-149.4727023280832
 10
131.2343668291706
 20
-149.4155137430281
 10
131.2343668291706
 20
-149.4155137430281
 10
131.2343668291706
 20
-149.0665255703722
 10
131.2343668291706
 20
-149.0665255703722
 10
131.2343668291706
 20
-149.0665255703722
 10
130.8326686955904
 20
-149.0665255703722
 10
130.8326686955904
 20
-149.0665255703722
 10
130.834391243333
 20
-149.2039848802337
 10
130.8361137910757
 20
-149.4027668897326
 10
130.8419704534006
 20
-149.5360920850118
 10
130.8436930011432
 20
-149.5636528488938
 10
130.8436930011432
 20
-149.6080945806535
 10
130.854717306696
 20
-149.669417280291
 10
130.854717306696
 20
-149.669417280291
 10
130.6435329534502
 20
-149.669417280291
 10
130.6435329534502
 20
-149.669417280291
 10
130.6659260741043
 20
-149.5447048237249
 10
130.6659260741043
 20
-149.2039848802337
 10
130.6659260741043
 20
-149.0665255703722
 10
130.6659260741043
 20
-149.0665255703722
 10
130.2790418511108
 20
-149.0665255703722
 10
130.2790418511108
 20
-149.0665255703722
 10
130.2583712781993
 20
-149.2739203185843
 10
130.2011826931441
 20
-149.5426377664338
 10
130.0289279188816
 20
-149.7266058653461
 10
130.0289279188816
 20
-149.7266058653461
 10
129.8642523546867
 20
-149.6039604660712
 10
129.8642523546867
 20
-149.6039604660712
 10
130.0861165039368
 20
-149.3838188645637
 10
130.1140217773673
 20
-149.0517116597857
 10
130.1140217773673
 20
-148.7197767097818
 10
130.1140217773673
 20
-148.7197767097818
 10
130.1140217773673
 20
-148.2839721308977
 10
130.1140217773673
 20
-148.2839721308977
 10
130.1140217773673
 20
-148.2479708830769
 10
130.1122992296247
 20
-148.0152546830483
 10
130.1047200195571
 20
-147.9136243662334
 10
130.2270209092835
 20
-147.9243041622377
 10
130.4382052625293
 20
-147.9243041622377
 10
130.5639512477409
 20
-147.9243041622377
 10
130.5639512477409
 20
-147.9243041622377
 10
130.9659938908696
 20
-147.9243041622377
 10
130.9659938908696
 20
-147.9243041622377
 10
130.978740744165
 20
-147.9243041622377
 10
131.2843207137067
 20
-147.9243041622377
 10
131.4231580617623
 20
-147.9136243662334
 10
131.4214355140196
 20
-147.966506581932
 10
131.4159233612432
 20
-148.1273925410931
 10
131.4159233612432
 20
-148.1782076995006
 10
131.4159233612432
 20
-148.1782076995006
 10
131.4159233612432
 20
-148.7852335240016
 10
131.4159233612432
 20
-148.7852335240016
 10
131.4159233612432
 20
-148.8043538039447
 10
131.4252251190534
 20
-149.3755506353991
 10
131.4252251190534
 20
-149.4875162386698
 10
131.4252251190534
 20
-149.5447048237249
 10
131.4252251190534
 20
-149.6463351405398
 10
131.3528781138632
 20
-149.6928439295906
 97
        0
 97
        1
330
90
 75
     2
 76
     1
 98
        1
 10
0.0
 20
0.0
450
        0
451
        0
460
0.0
461
0.0
452
        0
462
0.0
453
        0
470

  0
SPLINE
  5
92
330
81
100
AcDbEntity
  8
レイヤー 1
100
AcDbSpline
210
0.0
220
0.0
230
1.0
 70
     9
 71
     3
 72
    17
 73
    13
 74
     0
 42
0.0000000001
 43
0.0000000001
 40
0.0
 40
0.0
 40
0.0
 40
0.0
 40
1.0
 40
1.0
 40
1.0
 40
2.0
 40
2.0
 40
2.0
 40
3.0
 40
3.0
 40
3.0
 40
4.0
 40
4.0
 40
4.0
 40
4.0
 10
126.5748751853702
 20
-150.4535210127338
 30
0.0
 10
126.5266438485767
 20
-150.4535210127338
 30
0.0
 10
126.4877142695933
 20
-150.4979627444936
 30
0.0
 10
126.4877142695933
 20
-150.5530842722575
 30
0.0
 10
126.4877142695933
 20
-150.6102728573127
 30
0.0
 10
126.5266438485767
 20
-150.6588487036547
 30
0.0
 10
126.5786647904039
 20
-150.6588487036547
 30
0.0
 10
126.6303412226827
 20
-150.6588487036547
 30
0.0
 10
126.6654811966322
 20
-150.6082058000216
 30
0.0
 10
126.6654811966322
 20
-150.5551513295487
 30
0.0
 10
126.6654811966322
 20
-150.4979627444936
 30
0.0
 10
126.6248290699063
 20
-150.4535210127338
 30
0.0
 10
126.5748751853702
 20
-150.4535210127338
 30
0.0
  0
SPLINE
  5
93
330
81
100
AcDbEntity
  8
レイヤー 1
100
AcDbSpline
210
0.0
220
0.0
230
1.0
 70
     9
 71
     3
 72
    17
 73
    13
 74
     0
 42
0.0000000001
 43
0.0000000001
 40
0.0
 40
0.0
 40
0.0
 40
0.0
 40
1.0
 40
1.0
 40
1.0
 40
2.0
 40
2.0
 40
2.0
 40
3.0
 40
3.0
 40
3.0
 40
4.0
 40
4.0
 40
4.0
 40
4.0
 10
126.5765977331128
 20
-150.7835611602208
 30
0.0
 10
126.4656656584877
 20
-150.7835611602208
 30
0.0
 10
126.3767821949683
 20
-150.6822753529544
 30
0.0
 10
126.3767821949683
 20
-150.5551513295487
 30
0.0
 10
126.3767821949683
 20
-150.4283718156915
 30
0.0
 10
126.4656656584877
 20
-150.3246744415855
 30
0.0
 10
126.5765977331128
 20
-150.3246744415855
 30
0.0
 10
126.6878743172863
 20
-150.3246744415855
 30
0.0
 10
126.7784803285484
 20
-150.4283718156915
 30
0.0
 10
126.7784803285484
 20
-150.5551513295487
 30
0.0
 10
126.7784803285484
 20
-150.6822753529544
 30
0.0
 10
126.6878743172863
 20
-150.7835611602208
 30
0.0
 10
126.5765977331128
 20
-150.7835611602208
 30
0.0
  0
SPLINE
  5
94
330
81
100
AcDbEntity
  8
レイヤー 1
100
AcDbSpline
210
0.0
220
0.0
230
1.0
 70
     9
 71
     3
 72
    44
 73
    40
 74
     0
 42
0.0000000001
 43
0.0000000001
 40
0.0
 40
0.0
 40
0.0
 40
0.0
 40
1.0
 40
1.0
 40
1.0
 40
2.0
 40
2.0
 40
2.0
 40
3.0
 40
3.0
 40
3.0
 40
4.0
 40
4.0
 40
4.0
 40
5.0
 40
5.0
 40
5.0
 40
6.0
 40
6.0
 40
6.0
 40
7.0
 40
7.0
 40
7.0
 40
8.0
 40
8.0
 40
8.0
 40
9.0
 40
9.0
 40
9.0
 40
10.0
 40
10.0
 40
10.0
 40
11.0
 40
11.0
 40
11.0
 40
12.0
 40
12.0
 40
12.0
 40
13.0
 40
13.0
 40
13.0
 40
13.0
 10
126.3933186532975
 20
-150.9826876792682
 30
0.0
 10
126.2951334319678
 20
-151.3506238770929
 30
0.0
 10
126.2506917002081
 20
-151.5094427789629
 30
0.0
 10
126.0784369259457
 20
-151.758867692095
 30
0.0
 10
125.9175509667845
 20
-151.9896890896067
 30
0.0
 10
125.7101562185724
 20
-152.1757242458102
 30
0.0
 10
125.4655544391197
 20
-152.268741823912
 30
0.0
 10
125.4655544391197
 20
-152.268741823912
 30
0.0
 10
125.297089269891
 20
-152.0889078395819
 30
0.0
 10
125.297089269891
 20
-152.0889078395819
 30
0.0
 10
125.8582953244382
 20
-151.9366346191339
 30
0.0
 10
126.1469943261021
 20
-151.380251698266
 30
0.0
 10
126.2028048729632
 20
-150.9403130047996
 30
0.0
 10
126.2028048729632
 20
-150.9403130047996
 30
0.0
 10
125.5323892915336
 20
-150.9403130047996
 30
0.0
 10
125.5323892915336
 20
-150.9403130047996
 30
0.0
 10
125.4507405285331
 20
-150.9403130047996
 30
0.0
 10
125.289854569372
 20
-150.9444471193819
 30
0.0
 10
125.152739769059
 20
-150.9633951445508
 30
0.0
 10
125.152739769059
 20
-150.9633951445508
 30
0.0
 10
125.152739769059
 20
-150.7435980525919
 30
0.0
 10
125.152739769059
 20
-150.7435980525919
 30
0.0
 10
125.2285318697345
 20
-150.7646131350519
 30
0.0
 10
125.4490179807905
 20
-150.7646131350519
 30
0.0
 10
125.5358343870188
 20
-150.7646131350519
 30
0.0
 10
125.5358343870188
 20
-150.7646131350519
 30
0.0
 10
125.9137613617507
 20
-150.7646131350519
 30
0.0
 10
125.9137613617507
 20
-150.7646131350519
 30
0.0
 10
125.9506238834429
 20
-150.7646131350519
 30
0.0
 10
126.1562960839123
 20
-150.7625460777607
 30
0.0
 10
126.1897135101192
 20
-150.7563449058873
 30
0.0
 10
126.2265760318114
 20
-150.7497992244653
 30
0.0
 10
126.2286430891025
 20
-150.7477321671742
 30
0.0
 10
126.2823865786724
 20
-150.7074245499967
 30
0.0
 10
126.2823865786724
 20
-150.7074245499967
 30
0.0
 10
126.4470621428674
 20
-150.8621093372845
 30
0.0
 10
126.4470621428674
 20
-150.8621093372845
 30
0.0
 10
126.421223926728
 20
-150.8917371584576
 30
0.0
 10
126.4081325638841
 20
-150.9234320369219
 30
0.0
 10
126.3933186532975
 20
-150.9826876792682
 30
0.0
  0
HATCH
  5
95
330
81
100
AcDbEntity
  8
レイヤー 1
 62
   250
420
  2299925
440
 33554687
100
AcDbHatch
 10
0.0
 20
0.0
 30
0.0
210
0.0
220
0.0
230
1.0
  2
SOLID
 70
     1
 71
     1
 91
        3
 92
        1
 93
        1
 72
     4
 94
        3
 73
     0
 74
     0
 95
       17
 96
       13
 40
0.0
 40
0.0
 40
0.0
 40
0.0
 40
1.0
 40
1.0
 40
1.0
 40
2.0
 40
2.0
 40
2.0
 40
3.0
 40
3.0
 40
3.0
 40
4.0
 40
4.0
 40
4.0
 40
4.0
 10
126.5748751853702
 20
-150.4535210127338
 10
126.5266438485767
 20
-150.4535210127338
 10
126.4877142695933
 20
-150.4979627444936
 10
126.4877142695933
 20
-150.5530842722575
 10
126.4877142695933
 20
-150.6102728573127
 10
126.5266438485767
 20
-150.6588487036547
 10
126.5786647904039
 20
-150.6588487036547
 10
126.6303412226827
 20
-150.6588487036547
 10
126.6654811966322
 20
-150.6082058000216
 10
126.6654811966322
 20
-150.5551513295487
 10
126.6654811966322
 20
-150.4979627444936
 10
126.6248290699063
 20
-150.4535210127338
 10
126.5748751853702
 20
-150.4535210127338
 97
        0
 97
        1
330
92
 92
        1
 93
        1
 72
     4
 94
        3
 73
     0
 74
     0
 95
       17
 96
       13
 40
0.0
 40
0.0
 40
0.0
 40
0.0
 40
1.0
 40
1.0
 40
1.0
 40
2.0
 40
2.0
 40
2.0
 40
3.0
 40
3.0
 40
3.0
 40
4.0
 40
4.0
 40
4.0
 40
4.0
 10
126.5765977331128
 20
-150.7835611602208
 10
126.4656656584877
 20
-150.7835611602208
 10
126.3767821949683
 20
-150.6822753529544
 10
126.3767821949683
 20
-150.5551513295487
 10
126.3767821949683
 20
-150.4283718156915
 10
126.4656656584877
 20
-150.3246744415855
 10
126.5765977331128
 20
-150.3246744415855
 10
126.6878743172863
 20
-150.3246744415855
 10
126.7784803285484
 20
-150.4283718156915
 10
126.7784803285484
 20
-150.5551513295487
 10
126.7784803285484
 20
-150.6822753529544
 10
126.6878743172863
 20
-150.7835611602208
 10
126.5765977331128
 20
-150.7835611602208
 97
        0
 97
        1
330
93
 92
        1
 93
        1
 72
     4
 94
        3
 73
     0
 74
     0
 95
       44
 96
       40
 40
0.0
 40
0.0
 40
0.0
 40
0.0
 40
1.0
 40
1.0
 40
1.0
 40
2.0
 40
2.0
 40
2.0
 40
3.0
 40
3.0
 40
3.0
 40
4.0
 40
4.0
 40
4.0
 40
5.0
 40
5.0
 40
5.0
 40
6.0
 40
6.0
 40
6.0
 40
7.0
 40
7.0
 40
7.0
 40
8.0
 40
8.0
 40
8.0
 40
9.0
 40
9.0
 40
9.0
 40
10.0
 40
10.0
 40
10.0
 40
11.0
 40
11.0
 40
11.0
 40
12.0
 40
12.0
 40
12.0
 40
13.0
 40
13.0
 40
13.0
 40
13.0
 10
126.3933186532975
 20
-150.9826876792682
 10
126.2951334319678
 20
-151.3506238770929
 10
126.2506917002081
 20
-151.5094427789629
 10
126.0784369259457
 20
-151.758867692095
 10
125.9175509667845
 20
-151.9896890896067
 10
125.7101562185724
 20
-152.1757242458102
 10
125.4655544391197
 20
-152.268741823912
 10
125.4655544391197
 20
-152.268741823912
 10
125.297089269891
 20
-152.0889078395819
 10
125.297089269891
 20
-152.0889078395819
 10
125.8582953244382
 20
-151.9366346191339
 10
126.1469943261021
 20
-151.380251698266
 10
126.2028048729632
 20
-150.9403130047996
 10
126.2028048729632
 20
-150.9403130047996
 10
125.5323892915336
 20
-150.9403130047996
 10
125.5323892915336
 20
-150.9403130047996
 10
125.4507405285331
 20
-150.9403130047996
 10
125.289854569372
 20
-150.9444471193819
 10
125.152739769059
 20
-150.9633951445508
 10
125.152739769059
 20
-150.9633951445508
 10
125.152739769059
 20
-150.7435980525919
 10
125.152739769059
 20
-150.7435980525919
 10
125.2285318697345
 20
-150.7646131350519
 10
125.4490179807905
 20
-150.7646131350519
 10
125.5358343870188
 20
-150.7646131350519
 10
125.5358343870188
 20
-150.7646131350519
 10
125.9137613617507
 20
-150.7646131350519
 10
125.9137613617507
 20
-150.7646131350519
 10
125.9506238834429
 20
-150.7646131350519
 10
126.1562960839123
 20
-150.7625460777607
 10
126.1897135101192
 20
-150.7563449058873
 10
126.2265760318114
 20
-150.7497992244653
 10
126.2286430891025
 20
-150.7477321671742
 10
126.2823865786724
 20
-150.7074245499967
 10
126.2823865786724
 20
-150.7074245499967
 10
126.4470621428674
 20
-150.8621093372845
 10
126.4470621428674
 20
-150.8621093372845
 10
126.421223926728
 20
-150.8917371584576
 10
126.4081325638841
 20
-150.9234320369219
 10
126.3933186532975
 20
-150.9826876792682
 97
        0
 97
        1
330
94
 75
     2
 76
     1
 98
        1
 10
0.0
 20
0.0
450
        0
451
        0
460
0.0
461
0.0
452
        0
462
0.0
453
        0
470

  0
SPLINE
  5
96
330
81
100
AcDbEntity
  8
レイヤー 1
100
AcDbSpline
210
0.0
220
0.0
230
1.0
 70
     9
 71
     3
 72
    29
 73
    25
 74
     0
 42
0.0000000001
 43
0.0000000001
 40
0.0
 40
0.0
 40
0.0
 40
0.0
 40
1.0
 40
1.0
 40
1.0
 40
2.0
 40
2.0
 40
2.0
 40
3.0
 40
3.0
 40
3.0
 40
4.0
 40
4.0
 40
4.0
 40
5.0
 40
5.0
 40
5.0
 40
6.0
 40
6.0
 40
6.0
 40
7.0
 40
7.0
 40
7.0
 40
8.0
 40
8.0
 40
8.0
 40
8.0
 10
127.7176133578275
 20
-150.6653943850767
 30
0.0
 10
127.7176133578275
 20
-150.6653943850767
 30
0.0
 10
127.4196125983534
 20
-150.6653943850767
 30
0.0
 10
127.4196125983534
 20
-150.6653943850767
 30
0.0
 10
127.3197048292812
 20
-150.6653943850767
 30
0.0
 10
127.2177300029178
 20
-150.669528499659
 30
0.0
 10
127.1178222338455
 20
-150.6843424102456
 30
0.0
 10
127.1178222338455
 20
-150.6843424102456
 30
0.0
 10
127.1178222338455
 20
-150.4748806047424
 30
0.0
 10
127.1178222338455
 20
-150.4748806047424
 30
0.0
 10
127.2215196079515
 20
-150.489694515329
 30
0.0
 10
127.3734483188511
 20
-150.4938286299112
 30
0.0
 10
127.4196125983534
 20
-150.4938286299112
 30
0.0
 10
127.4196125983534
 20
-150.4938286299112
 30
0.0
 10
127.7176133578275
 20
-150.4938286299112
 30
0.0
 10
127.7176133578275
 20
-150.4938286299112
 30
0.0
 10
127.8195881841909
 20
-150.4938286299112
 30
0.0
 10
127.9212185010058
 20
-150.489694515329
 30
0.0
 10
128.0231933273692
 20
-150.4748806047424
 30
0.0
 10
128.0231933273692
 20
-150.4748806047424
 30
0.0
 10
128.0231933273692
 20
-150.6843424102456
 30
0.0
 10
128.0231933273692
 20
-150.6843424102456
 30
0.0
 10
127.8915906798326
 20
-150.6653943850767
 30
0.0
 10
127.7307047206715
 20
-150.6653943850767
 30
0.0
 10
127.7176133578275
 20
-150.6653943850767
 30
0.0
  0
SPLINE
  5
97
330
81
100
AcDbEntity
  8
レイヤー 1
100
AcDbSpline
210
0.0
220
0.0
230
1.0
 70
     9
 71
     3
 72
    50
 73
    46
 74
     0
 42
0.0000000001
 43
0.0000000001
 40
0.0
 40
0.0
 40
0.0
 40
0.0
 40
1.0
 40
1.0
 40
1.0
 40
2.0
 40
2.0
 40
2.0
 40
3.0
 40
3.0
 40
3.0
 40
4.0
 40
4.0
 40
4.0
 40
5.0
 40
5.0
 40
5.0
 40
6.0
 40
6.0
 40
6.0
 40
7.0
 40
7.0
 40
7.0
 40
8.0
 40
8.0
 40
8.0
 40
9.0
 40
9.0
 40
9.0
 40
10.0
 40
10.0
 40
10.0
 40
11.0
 40
11.0
 40
11.0
 40
12.0
 40
12.0
 40
12.0
 40
13.0
 40
13.0
 40
13.0
 40
14.0
 40
14.0
 40
14.0
 40
15.0
 40
15.0
 40
15.0
 40
15.0
 10
128.1492838221293
 20
-151.2913682347466
 30
0.0
 10
128.0807264219729
 20
-151.4691351617855
 30
0.0
 10
127.9622151372802
 20
-151.6765299099975
 30
0.0
 10
127.8416367952965
 20
-151.8160562771501
 30
0.0
 10
127.6934976894308
 20
-151.9872775227671
 30
0.0
 10
127.5512152458899
 20
-152.0761609862865
 30
0.0
 10
127.2714734924877
 20
-152.2180989202788
 30
0.0
 10
127.2714734924877
 20
-152.2180989202788
 30
0.0
 10
127.1233343866219
 20
-152.0296521972356
 30
0.0
 10
127.1233343866219
 20
-152.0296521972356
 30
0.0
 10
127.2862874030742
 20
-152.0065700574845
 30
0.0
 10
127.4361490566826
 20
-151.9197536512562
 30
0.0
 10
127.5694742519618
 20
-151.813989219859
 30
0.0
 10
127.7992621208279
 20
-151.6320881782378
 30
0.0
 10
127.966004742314
 20
-151.3189289986286
 30
0.0
 10
128.0083794167826
 20
-151.1370279570074
 30
0.0
 10
128.0083794167826
 20
-151.1370279570074
 30
0.0
 10
127.421335146096
 20
-151.1370279570074
 30
0.0
 10
127.421335146096
 20
-151.1370279570074
 30
0.0
 10
127.2824977980405
 20
-151.1370279570074
 30
0.0
 10
127.0268717130349
 20
-151.145296186172
 30
0.0
 10
126.8935465177557
 20
-151.1625216635982
 30
0.0
 10
126.8935465177557
 20
-151.1625216635982
 30
0.0
 10
126.8935465177557
 20
-150.9337673233777
 30
0.0
 10
126.8935465177557
 20
-150.9337673233777
 30
0.0
 10
126.9231743389289
 20
-150.9403130047996
 30
0.0
 10
126.945567459583
 20
-150.9465141766731
 30
0.0
 10
126.9917317390854
 20
-150.9506482912554
 30
0.0
 10
127.0806152026048
 20
-150.9571939726773
 30
0.0
 10
127.2528699768673
 20
-150.9592610299685
 30
0.0
 10
127.3269395298002
 20
-150.9592610299685
 30
0.0
 10
127.3269395298002
 20
-150.9592610299685
 30
0.0
 10
127.7696342996548
 20
-150.9592610299685
 30
0.0
 10
127.7696342996548
 20
-150.9592610299685
 30
0.0
 10
127.8288899420011
 20
-150.9592610299685
 30
0.0
 10
127.9567029845039
 20
-150.9551269153862
 30
0.0
 10
128.0101019645252
 20
-150.9485812339642
 30
0.0
 10
128.0731472119053
 20
-150.9403130047996
 30
0.0
 10
128.097262880302
 20
-150.9254990942131
 30
0.0
 10
128.1268907014752
 20
-150.9020724449134
 30
0.0
 10
128.1268907014752
 20
-150.9020724449134
 30
0.0
 10
128.2712402023072
 20
-151.069159575948
 30
0.0
 10
128.2712402023072
 20
-151.069159575948
 30
0.0
 10
128.2102620122183
 20
-151.1370279570074
 30
0.0
 10
128.1696098854923
 20
-151.2407253311134
 30
0.0
 10
128.1492838221293
 20
-151.2913682347466
 30
0.0
  0
HATCH
  5
98
330
81
100
AcDbEntity
  8
レイヤー 1
 62
   250
420
  2299925
440
 33554687
100
AcDbHatch
 10
0.0
 20
0.0
 30
0.0
210
0.0
220
0.0
230
1.0
  2
SOLID
 70
     1
 71
     1
 91
        2
 92
        1
 93
        1
 72
     4
 94
        3
 73
     0
 74
     0
 95
       29
 96
       25
 40
0.0
 40
0.0
 40
0.0
 40
0.0
 40
1.0
 40
1.0
 40
1.0
 40
2.0
 40
2.0
 40
2.0
 40
3.0
 40
3.0
 40
3.0
 40
4.0
 40
4.0
 40
4.0
 40
5.0
 40
5.0
 40
5.0
 40
6.0
 40
6.0
 40
6.0
 40
7.0
 40
7.0
 40
7.0
 40
8.0
 40
8.0
 40
8.0
 40
8.0
 10
127.7176133578275
 20
-150.6653943850767
 10
127.7176133578275
 20
-150.6653943850767
 10
127.4196125983534
 20
-150.6653943850767
 10
127.4196125983534
 20
-150.6653943850767
 10
127.3197048292812
 20
-150.6653943850767
 10
127.2177300029178
 20
-150.669528499659
 10
127.1178222338455
 20
-150.6843424102456
 10
127.1178222338455
 20
-150.6843424102456
 10
127.1178222338455
 20
-150.4748806047424
 10
127.1178222338455
 20
-150.4748806047424
 10
127.2215196079515
 20
-150.489694515329
 10
127.3734483188511
 20
-150.4938286299112
 10
127.4196125983534
 20
-150.4938286299112
 10
127.4196125983534
 20
-150.4938286299112
 10
127.7176133578275
 20
-150.4938286299112
 10
127.7176133578275
 20
-150.4938286299112
 10
127.8195881841909
 20
-150.4938286299112
 10
127.9212185010058
 20
-150.489694515329
 10
128.0231933273692
 20
-150.4748806047424
 10
128.0231933273692
 20
-150.4748806047424
 10
128.0231933273692
 20
-150.6843424102456
 10
128.0231933273692
 20
-150.6843424102456
 10
127.8915906798326
 20
-150.6653943850767
 10
127.7307047206715
 20
-150.6653943850767
 10
127.7176133578275
 20
-150.6653943850767
 97
        0
 97
        1
330
96
 92
        1
 93
        1
 72
     4
 94
        3
 73
     0
 74
     0
 95
       50
 96
       46
 40
0.0
 40
0.0
 40
0.0
 40
0.0
 40
1.0
 40
1.0
 40
1.0
 40
2.0
 40
2.0
 40
2.0
 40
3.0
 40
3.0
 40
3.0
 40
4.0
 40
4.0
 40
4.0
 40
5.0
 40
5.0
 40
5.0
 40
6.0
 40
6.0
 40
6.0
 40
7.0
 40
7.0
 40
7.0
 40
8.0
 40
8.0
 40
8.0
 40
9.0
 40
9.0
 40
9.0
 40
10.0
 40
10.0
 40
10.0
 40
11.0
 40
11.0
 40
11.0
 40
12.0
 40
12.0
 40
12.0
 40
13.0
 40
13.0
 40
13.0
 40
14.0
 40
14.0
 40
14.0
 40
15.0
 40
15.0
 40
15.0
 40
15.0
 10
128.1492838221293
 20
-151.2913682347466
 10
128.0807264219729
 20
-151.4691351617855
 10
127.9622151372802
 20
-151.6765299099975
 10
127.8416367952965
 20
-151.8160562771501
 10
127.6934976894308
 20
-151.9872775227671
 10
127.5512152458899
 20
-152.0761609862865
 10
127.2714734924877
 20
-152.2180989202788
 10
127.2714734924877
 20
-152.2180989202788
 10
127.1233343866219
 20
-152.0296521972356
 10
127.1233343866219
 20
-152.0296521972356
 10
127.2862874030742
 20
-152.0065700574845
 10
127.4361490566826
 20
-151.9197536512562
 10
127.5694742519618
 20
-151.813989219859
 10
127.7992621208279
 20
-151.6320881782378
 10
127.966004742314
 20
-151.3189289986286
 10
128.0083794167826
 20
-151.1370279570074
 10
128.0083794167826
 20
-151.1370279570074
 10
127.421335146096
 20
-151.1370279570074
 10
127.421335146096
 20
-151.1370279570074
 10
127.2824977980405
 20
-151.1370279570074
 10
127.0268717130349
 20
-151.145296186172
 10
126.8935465177557
 20
-151.1625216635982
 10
126.8935465177557
 20
-151.1625216635982
 10
126.8935465177557
 20
-150.9337673233777
 10
126.8935465177557
 20
-150.9337673233777
 10
126.9231743389289
 20
-150.9403130047996
 10
126.945567459583
 20
-150.9465141766731
 10
126.9917317390854
 20
-150.9506482912554
 10
127.0806152026048
 20
-150.9571939726773
 10
127.2528699768673
 20
-150.9592610299685
 10
127.3269395298002
 20
-150.9592610299685
 10
127.3269395298002
 20
-150.9592610299685
 10
127.7696342996548
 20
-150.9592610299685
 10
127.7696342996548
 20
-150.9592610299685
 10
127.8288899420011
 20
-150.9592610299685
 10
127.9567029845039
 20
-150.9551269153862
 10
128.0101019645252
 20
-150.9485812339642
 10
128.0731472119053
 20
-150.9403130047996
 10
128.097262880302
 20
-150.9254990942131
 10
128.1268907014752
 20
-150.9020724449134
 10
128.1268907014752
 20
-150.9020724449134
 10
128.2712402023072
 20
-151.069159575948
 10
128.2712402023072
 20
-151.069159575948
 10
128.2102620122183
 20
-151.1370279570074
 10
128.1696098854923
 20
-151.2407253311134
 10
128.1492838221293
 20
-151.2913682347466
 97
        0
 97
        1
330
97
 75
     2
 76
     1
 98
        1
 10
0.0
 20
0.0
450
        0
451
        0
460
0.0
461
0.0
452
        0
462
0.0
453
        0
470

  0
SPLINE
  5
99
330
81
100
AcDbEntity
  8
レイヤー 1
100
AcDbSpline
210
0.0
220
0.0
230
1.0
 70
     9
 71
     3
 72
    50
 73
    46
 74
     0
 42
0.0000000001
 43
0.0000000001
 40
0.0
 40
0.0
 40
0.0
 40
0.0
 40
1.0
 40
1.0
 40
1.0
 40
2.0
 40
2.0
 40
2.0
 40
3.0
 40
3.0
 40
3.0
 40
4.0
 40
4.0
 40
4.0
 40
5.0
 40
5.0
 40
5.0
 40
6.0
 40
6.0
 40
6.0
 40
7.0
 40
7.0
 40
7.0
 40
8.0
 40
8.0
 40
8.0
 40
9.0
 40
9.0
 40
9.0
 40
10.0
 40
10.0
 40
10.0
 40
11.0
 40
11.0
 40
11.0
 40
12.0
 40
12.0
 40
12.0
 40
13.0
 40
13.0
 40
13.0
 40
14.0
 40
14.0
 40
14.0
 40
15.0
 40
15.0
 40
15.0
 40
15.0
 10
129.647211339116
 20
-150.6505804744901
 30
0.0
 10
129.4639322593007
 20
-150.8641763945756
 30
0.0
 10
129.4012315214691
 20
-150.9361788902173
 30
0.0
 10
129.2768635744516
 20
-151.0543456653614
 30
0.0
 10
129.2768635744516
 20
-151.0543456653614
 30
0.0
 10
129.2768635744516
 20
-151.6214083822335
 30
0.0
 10
129.2768635744516
 20
-151.6214083822335
 30
0.0
 10
129.2768635744516
 20
-151.7716145453904
 30
0.0
 10
129.2827202367765
 20
-151.7905625705593
 30
0.0
 10
129.2861653322618
 20
-151.9683294975982
 30
0.0
 10
129.2882323895529
 20
-152.0995876355862
 30
0.0
 10
129.2937445423293
 20
-152.1481634819282
 30
0.0
 10
129.2992566951057
 20
-152.2074191242745
 30
0.0
 10
129.2992566951057
 20
-152.2074191242745
 30
0.0
 10
129.1011637047039
 20
-152.2074191242745
 30
0.0
 10
129.1011637047039
 20
-152.2074191242745
 30
0.0
 10
129.1049533097376
 20
-152.1629773925148
 30
0.0
 10
129.1083984052229
 20
-152.1164686034639
 30
0.0
 10
129.1083984052229
 20
-152.1078558647508
 30
0.0
 10
129.1083984052229
 20
-152.0275851399445
 30
0.0
 10
129.1121880102567
 20
-151.6765299099975
 30
0.0
 10
129.1121880102567
 20
-151.6045274143558
 30
0.0
 10
129.1121880102567
 20
-151.6045274143558
 30
0.0
 10
129.1121880102567
 20
-151.1983506566448
 30
0.0
 10
129.1121880102567
 20
-151.1983506566448
 30
0.0
 10
128.9530245988381
 20
-151.3230631132109
 30
0.0
 10
128.7824923723182
 20
-151.4333061687389
 30
0.0
 10
128.6047254452793
 20
-151.5197780654187
 30
0.0
 10
128.6047254452793
 20
-151.5197780654187
 30
0.0
 10
128.4269585182405
 20
-151.3568250489663
 30
0.0
 10
128.4269585182405
 20
-151.3568250489663
 30
0.0
 10
128.5344454973803
 20
-151.3209960559197
 30
0.0
 10
128.7583767039215
 20
-151.2469265029869
 30
0.0
 10
129.0601670684294
 20
-150.9909559084328
 30
0.0
 10
129.2493028105696
 20
-150.8324815161113
 30
0.0
 10
129.4177679797983
 20
-150.6440347930681
 30
0.0
 10
129.5510931750775
 20
-150.4238931915607
 30
0.0
 10
129.5510931750775
 20
-150.4238931915607
 30
0.0
 10
129.7195583443062
 20
-150.5678981828441
 30
0.0
 10
129.7195583443062
 20
-150.5678981828441
 30
0.0
 10
129.730582649859
 20
-150.5785779788484
 30
0.0
 10
129.7381618599265
 20
-150.593391889435
 30
0.0
 10
129.7381618599265
 20
-150.6061387427304
 30
0.0
 10
129.7381618599265
 20
-150.6461018503593
 30
0.0
 10
129.7047444337196
 20
-150.6461018503593
 30
0.0
 10
129.647211339116
 20
-150.6505804744901
 30
0.0
  0
HATCH
  5
9A
330
81
100
AcDbEntity
  8
レイヤー 1
 62
   250
420
  2299925
440
 33554687
100
AcDbHatch
 10
0.0
 20
0.0
 30
0.0
210
0.0
220
0.0
230
1.0
  2
SOLID
 70
     1
 71
     1
 91
        1
 92
        1
 93
        1
 72
     4
 94
        3
 73
     0
 74
     0
 95
       50
 96
       46
 40
0.0
 40
0.0
 40
0.0
 40
0.0
 40
1.0
 40
1.0
 40
1.0
 40
2.0
 40
2.0
 40
2.0
 40
3.0
 40
3.0
 40
3.0
 40
4.0
 40
4.0
 40
4.0
 40
5.0
 40
5.0
 40
5.0
 40
6.0
 40
6.0
 40
6.0
 40
7.0
 40
7.0
 40
7.0
 40
8.0
 40
8.0
 40
8.0
 40
9.0
 40
9.0
 40
9.0
 40
10.0
 40
10.0
 40
10.0
 40
11.0
 40
11.0
 40
11.0
 40
12.0
 40
12.0
 40
12.0
 40
13.0
 40
13.0
 40
13.0
 40
14.0
 40
14.0
 40
14.0
 40
15.0
 40
15.0
 40
15.0
 40
15.0
 10
129.647211339116
 20
-150.6505804744901
 10
129.4639322593007
 20
-150.8641763945756
 10
129.4012315214691
 20
-150.9361788902173
 10
129.2768635744516
 20
-151.0543456653614
 10
129.2768635744516
 20
-151.0543456653614
 10
129.2768635744516
 20
-151.6214083822335
 10
129.2768635744516
 20
-151.6214083822335
 10
129.2768635744516
 20
-151.7716145453904
 10
129.2827202367765
 20
-151.7905625705593
 10
129.2861653322618
 20
-151.9683294975982
 10
129.2882323895529
 20
-152.0995876355862
 10
129.2937445423293
 20
-152.1481634819282
 10
129.2992566951057
 20
-152.2074191242745
 10
129.2992566951057
 20
-152.2074191242745
 10
129.1011637047039
 20
-152.2074191242745
 10
129.1011637047039
 20
-152.2074191242745
 10
129.1049533097376
 20
-152.1629773925148
 10
129.1083984052229
 20
-152.1164686034639
 10
129.1083984052229
 20
-152.1078558647508
 10
129.1083984052229
 20
-152.0275851399445
 10
129.1121880102567
 20
-151.6765299099975
 10
129.1121880102567
 20
-151.6045274143558
 10
129.1121880102567
 20
-151.6045274143558
 10
129.1121880102567
 20
-151.1983506566448
 10
129.1121880102567
 20
-151.1983506566448
 10
128.9530245988381
 20
-151.3230631132109
 10
128.7824923723182
 20
-151.4333061687389
 10
128.6047254452793
 20
-151.5197780654187
 10
128.6047254452793
 20
-151.5197780654187
 10
128.4269585182405
 20
-151.3568250489663
 10
128.4269585182405
 20
-151.3568250489663
 10
128.5344454973803
 20
-151.3209960559197
 10
128.7583767039215
 20
-151.2469265029869
 10
129.0601670684294
 20
-150.9909559084328
 10
129.2493028105696
 20
-150.8324815161113
 10
129.4177679797983
 20
-150.6440347930681
 10
129.5510931750775
 20
-150.4238931915607
 10
129.5510931750775
 20
-150.4238931915607
 10
129.7195583443062
 20
-150.5678981828441
 10
129.7195583443062
 20
-150.5678981828441
 10
129.730582649859
 20
-150.5785779788484
 10
129.7381618599265
 20
-150.593391889435
 10
129.7381618599265
 20
-150.6061387427304
 10
129.7381618599265
 20
-150.6461018503593
 10
129.7047444337196
 20
-150.6461018503593
 10
129.647211339116
 20
-150.6505804744901
 97
        0
 97
        1
330
99
 75
     2
 76
     1
 98
        1
 10
0.0
 20
0.0
450
        0
451
        0
460
0.0
461
0.0
452
        0
462
0.0
453
        0
470

  0
SPLINE
  5
9B
330
81
100
AcDbEntity
  8
レイヤー 1
100
AcDbSpline
210
0.0
220
0.0
230
1.0
 70
     9
 71
     3
 72
    50
 73
    46
 74
     0
 42
0.0000000001
 43
0.0000000001
 40
0.0
 40
0.0
 40
0.0
 40
0.0
 40
1.0
 40
1.0
 40
1.0
 40
2.0
 40
2.0
 40
2.0
 40
3.0
 40
3.0
 40
3.0
 40
4.0
 40
4.0
 40
4.0
 40
5.0
 40
5.0
 40
5.0
 40
6.0
 40
6.0
 40
6.0
 40
7.0
 40
7.0
 40
7.0
 40
8.0
 40
8.0
 40
8.0
 40
9.0
 40
9.0
 40
9.0
 40
10.0
 40
10.0
 40
10.0
 40
11.0
 40
11.0
 40
11.0
 40
12.0
 40
12.0
 40
12.0
 40
13.0
 40
13.0
 40
13.0
 40
14.0
 40
14.0
 40
14.0
 40
15.0
 40
15.0
 40
15.0
 40
15.0
 10
131.1434163083599
 20
-151.1773355741848
 30
0.0
 10
131.0900173283386
 20
-151.248993560278
 30
0.0
 10
130.8619520072151
 20
-151.5662868544695
 30
0.0
 10
130.8119981226789
 20
-151.6300211209467
 30
0.0
 10
130.8860676756118
 20
-151.7271728136307
 30
0.0
 10
130.9305094073715
 20
-151.7905625705593
 30
0.0
 10
130.9880425019752
 20
-151.8815130913699
 30
0.0
 10
130.9880425019752
 20
-151.8815130913699
 30
0.0
 10
130.8268120332655
 20
-152.0193169107799
 30
0.0
 10
130.8268120332655
 20
-152.0193169107799
 30
0.0
 10
130.7083007485729
 20
-151.807443538437
 30
0.0
 10
130.5584390949645
 20
-151.5835123318958
 30
0.0
 10
130.3010904622164
 20
-151.3843858128483
 30
0.0
 10
130.3010904622164
 20
-151.3843858128483
 30
0.0
 10
130.4306260524618
 20
-151.2300455351091
 30
0.0
 10
130.4306260524618
 20
-151.2300455351091
 30
0.0
 10
130.5270887260488
 20
-151.3103162599155
 30
0.0
 10
130.6176947373108
 20
-151.3991997234349
 30
0.0
 10
130.7027885957965
 20
-151.4946288683763
 30
0.0
 10
130.7620442381428
 20
-151.4184922581523
 30
0.0
 10
130.9398111651817
 20
-151.1749240073451
 30
0.0
 10
131.0565999021317
 20
-150.9465141766731
 30
0.0
 10
131.0565999021317
 20
-150.9465141766731
 30
0.0
 10
130.4678330837025
 20
-150.9465141766731
 30
0.0
 10
130.4678330837025
 20
-150.9465141766731
 30
0.0
 10
130.3582790472715
 20
-150.9465141766731
 30
0.0
 10
130.1381374457641
 20
-150.9551269153862
 30
0.0
 10
129.9548583659487
 20
-150.9654622018419
 30
0.0
 10
129.9548583659487
 20
-150.9654622018419
 30
0.0
 10
129.9548583659487
 20
-150.745665109883
 30
0.0
 10
129.9548583659487
 20
-150.745665109883
 30
0.0
 10
130.1157443251099
 20
-150.7646131350519
 30
0.0
 10
130.29557830944
 20
-150.7687472496342
 30
0.0
 10
130.4602538736349
 20
-150.7687472496342
 30
0.0
 10
130.4602538736349
 20
-150.7687472496342
 30
0.0
 10
130.9008815861984
 20
-150.7687472496342
 30
0.0
 10
130.9008815861984
 20
-150.7687472496342
 30
0.0
 10
131.1971597979299
 20
-150.7687472496342
 30
0.0
 10
131.2360893769132
 20
-150.7539333390476
 30
0.0
 10
131.3084363821034
 20
-150.7139702314187
 30
0.0
 10
131.3084363821034
 20
-150.7139702314187
 30
0.0
 10
131.454508430678
 20
-150.8724446237402
 30
0.0
 10
131.454508430678
 20
-150.8724446237402
 30
0.0
 10
131.3211832353988
 20
-150.9444471193819
 30
0.0
 10
131.1954372501872
 20
-151.1074001358343
 30
0.0
 10
131.1434163083599
 20
-151.1773355741848
 30
0.0
  0
HATCH
  5
9C
330
81
100
AcDbEntity
  8
レイヤー 1
 62
   250
420
  2299925
440
 33554687
100
AcDbHatch
 10
0.0
 20
0.0
 30
0.0
210
0.0
220
0.0
230
1.0
  2
SOLID
 70
     1
 71
     1
 91
        1
 92
        1
 93
        1
 72
     4
 94
        3
 73
     0
 74
     0
 95
       50
 96
       46
 40
0.0
 40
0.0
 40
0.0
 40
0.0
 40
1.0
 40
1.0
 40
1.0
 40
2.0
 40
2.0
 40
2.0
 40
3.0
 40
3.0
 40
3.0
 40
4.0
 40
4.0
 40
4.0
 40
5.0
 40
5.0
 40
5.0
 40
6.0
 40
6.0
 40
6.0
 40
7.0
 40
7.0
 40
7.0
 40
8.0
 40
8.0
 40
8.0
 40
9.0
 40
9.0
 40
9.0
 40
10.0
 40
10.0
 40
10.0
 40
11.0
 40
11.0
 40
11.0
 40
12.0
 40
12.0
 40
12.0
 40
13.0
 40
13.0
 40
13.0
 40
14.0
 40
14.0
 40
14.0
 40
15.0
 40
15.0
 40
15.0
 40
15.0
 10
131.1434163083599
 20
-151.1773355741848
 10
131.0900173283386
 20
-151.248993560278
 10
130.8619520072151
 20
-151.5662868544695
 10
130.8119981226789
 20
-151.6300211209467
 10
130.8860676756118
 20
-151.7271728136307
 10
130.9305094073715
 20
-151.7905625705593
 10
130.9880425019752
 20
-151.8815130913699
 10
130.9880425019752
 20
-151.8815130913699
 10
130.8268120332655
 20
-152.0193169107799
 10
130.8268120332655
 20
-152.0193169107799
 10
130.7083007485729
 20
-151.807443538437
 10
130.5584390949645
 20
-151.5835123318958
 10
130.3010904622164
 20
-151.3843858128483
 10
130.3010904622164
 20
-151.3843858128483
 10
130.4306260524618
 20
-151.2300455351091
 10
130.4306260524618
 20
-151.2300455351091
 10
130.5270887260488
 20
-151.3103162599155
 10
130.6176947373108
 20
-151.3991997234349
 10
130.7027885957965
 20
-151.4946288683763
 10
130.7620442381428
 20
-151.4184922581523
 10
130.9398111651817
 20
-151.1749240073451
 10
131.0565999021317
 20
-150.9465141766731
 10
131.0565999021317
 20
-150.9465141766731
 10
130.4678330837025
 20
-150.9465141766731
 10
130.4678330837025
 20
-150.9465141766731
 10
130.3582790472715
 20
-150.9465141766731
 10
130.1381374457641
 20
-150.9551269153862
 10
129.9548583659487
 20
-150.9654622018419
 10
129.9548583659487
 20
-150.9654622018419
 10
129.9548583659487
 20
-150.745665109883
 10
129.9548583659487
 20
-150.745665109883
 10
130.1157443251099
 20
-150.7646131350519
 10
130.29557830944
 20
-150.7687472496342
 10
130.4602538736349
 20
-150.7687472496342
 10
130.4602538736349
 20
-150.7687472496342
 10
130.9008815861984
 20
-150.7687472496342
 10
130.9008815861984
 20
-150.7687472496342
 10
131.1971597979299
 20
-150.7687472496342
 10
131.2360893769132
 20
-150.7539333390476
 10
131.3084363821034
 20
-150.7139702314187
 10
131.3084363821034
 20
-150.7139702314187
 10
131.454508430678
 20
-150.8724446237402
 10
131.454508430678
 20
-150.8724446237402
 10
131.3211832353988
 20
-150.9444471193819
 10
131.1954372501872
 20
-151.1074001358343
 10
131.1434163083599
 20
-151.1773355741848
 97
        0
 97
        1
330
9B
 75
     2
 76
     1
 98
        1
 10
0.0
 20
0.0
450
        0
451
        0
460
0.0
461
0.0
452
        0
462
0.0
453
        0
470

  0
SPLINE
  5
9D
330
81
100
AcDbEntity
  8
レイヤー 1
100
AcDbSpline
210
0.0
220
0.0
230
1.0
 70
     9
 71
     3
 72
    29
 73
    25
 74
     0
 42
0.0000000001
 43
0.0000000001
 40
0.0
 40
0.0
 40
0.0
 40
0.0
 40
1.0
 40
1.0
 40
1.0
 40
2.0
 40
2.0
 40
2.0
 40
3.0
 40
3.0
 40
3.0
 40
4.0
 40
4.0
 40
4.0
 40
5.0
 40
5.0
 40
5.0
 40
6.0
 40
6.0
 40
6.0
 40
7.0
 40
7.0
 40
7.0
 40
8.0
 40
8.0
 40
8.0
 40
8.0
 10
132.5658962342196
 20
-151.4205593154435
 30
0.0
 10
132.5658962342196
 20
-151.4205593154435
 30
0.0
 10
132.1418049799853
 20
-151.4205593154435
 30
0.0
 10
132.1418049799853
 20
-151.4205593154435
 30
0.0
 10
132.1176893115886
 20
-151.4205593154435
 30
0.0
 10
131.839670105929
 20
-151.4205593154435
 30
0.0
 10
131.654668478371
 20
-151.4457085124858
 30
0.0
 10
131.654668478371
 20
-151.4457085124858
 30
0.0
 10
131.654668478371
 20
-151.2152316245226
 30
0.0
 10
131.654668478371
 20
-151.2152316245226
 30
0.0
 10
131.7935058264266
 20
-151.2386582738223
 30
0.0
 10
131.9602484479127
 20
-151.2407253311134
 30
0.0
 10
132.1418049799853
 20
-151.2407253311134
 30
0.0
 10
132.1418049799853
 20
-151.2407253311134
 30
0.0
 10
132.5658962342196
 20
-151.2407253311134
 30
0.0
 10
132.5658962342196
 20
-151.2407253311134
 30
0.0
 10
132.7285047411234
 20
-151.2407253311134
 30
0.0
 10
132.8918022671243
 20
-151.2386582738223
 30
0.0
 10
133.0526882262854
 20
-151.2152316245226
 30
0.0
 10
133.0526882262854
 20
-151.2152316245226
 30
0.0
 10
133.0526882262854
 20
-151.4457085124858
 30
0.0
 10
133.0526882262854
 20
-151.4457085124858
 30
0.0
 10
132.8918022671243
 20
-151.4226263727346
 30
0.0
 10
132.675105761102
 20
-151.4205593154435
 30
0.0
 10
132.5658962342196
 20
-151.4205593154435
 30
0.0
  0
HATCH
  5
9E
330
81
100
AcDbEntity
  8
レイヤー 1
 62
   250
420
  2299925
440
 33554687
100
AcDbHatch
 10
0.0
 20
0.0
 30
0.0
210
0.0
220
0.0
230
1.0
  2
SOLID
 70
     1
 71
     1
 91
        1
 92
        1
 93
        1
 72
     4
 94
        3
 73
     0
 74
     0
 95
       29
 96
       25
 40
0.0
 40
0.0
 40
0.0
 40
0.0
 40
1.0
 40
1.0
 40
1.0
 40
2.0
 40
2.0
 40
2.0
 40
3.0
 40
3.0
 40
3.0
 40
4.0
 40
4.0
 40
4.0
 40
5.0
 40
5.0
 40
5.0
 40
6.0
 40
6.0
 40
6.0
 40
7.0
 40
7.0
 40
7.0
 40
8.0
 40
8.0
 40
8.0
 40
8.0
 10
132.5658962342196
 20
-151.4205593154435
 10
132.5658962342196
 20
-151.4205593154435
 10
132.1418049799853
 20
-151.4205593154435
 10
132.1418049799853
 20
-151.4205593154435
 10
132.1176893115886
 20
-151.4205593154435
 10
131.839670105929
 20
-151.4205593154435
 10
131.654668478371
 20
-151.4457085124858
 10
131.654668478371
 20
-151.4457085124858
 10
131.654668478371
 20
-151.2152316245226
 10
131.654668478371
 20
-151.2152316245226
 10
131.7935058264266
 20
-151.2386582738223
 10
131.9602484479127
 20
-151.2407253311134
 10
132.1418049799853
 20
-151.2407253311134
 10
132.1418049799853
 20
-151.2407253311134
 10
132.5658962342196
 20
-151.2407253311134
 10
132.5658962342196
 20
-151.2407253311134
 10
132.7285047411234
 20
-151.2407253311134
 10
132.8918022671243
 20
-151.2386582738223
 10
133.0526882262854
 20
-151.2152316245226
 10
133.0526882262854
 20
-151.2152316245226
 10
133.0526882262854
 20
-151.4457085124858
 10
133.0526882262854
 20
-151.4457085124858
 10
132.8918022671243
 20
-151.4226263727346
 10
132.675105761102
 20
-151.4205593154435
 10
132.5658962342196
 20
-151.4205593154435
 97
        0
 97
        1
330
9D
 75
     2
 76
     1
 98
        1
 10
0.0
 20
0.0
450
        0
451
        0
460
0.0
461
0.0
452
        0
462
0.0
453
        0
470

  0
SPLINE
  5
9F
330
81
100
AcDbEntity
  8
レイヤー 1
100
AcDbSpline
210
0.0
220
0.0
230
1.0
 70
     9
 71
     3
 72
    20
 73
    16
 74
     0
 42
0.0000000001
 43
0.0000000001
 40
0.0
 40
0.0
 40
0.0
 40
0.0
 40
1.0
 40
1.0
 40
1.0
 40
2.0
 40
2.0
 40
2.0
 40
3.0
 40
3.0
 40
3.0
 40
4.0
 40
4.0
 40
4.0
 40
5.0
 40
5.0
 40
5.0
 40
5.0
 10
134.1416829091729
 20
-151.7716145453904
 30
0.0
 10
134.1010307824469
 20
-151.5938476183515
 30
0.0
 10
134.0159369239613
 20
-151.4522541939077
 30
0.0
 10
133.8936360342349
 20
-151.3423556479283
 30
0.0
 10
133.8936360342349
 20
-151.3423556479283
 30
0.0
 10
134.0345404395816
 20
-151.227978477818
 30
0.0
 10
134.0345404395816
 20
-151.227978477818
 30
0.0
 10
134.087939419603
 20
-151.2703531522866
 30
0.0
 10
134.1234239031011
 20
-151.304115088042
 30
0.0
 10
134.1899142459664
 20
-151.4119465767303
 30
0.0
 10
134.2601941938655
 20
-151.5283908041318
 30
0.0
 10
134.2787977094858
 20
-151.5811007650561
 30
0.0
 10
134.30119083014
 20
-151.6469020888244
 30
0.0
 10
134.30119083014
 20
-151.6469020888244
 30
0.0
 10
134.1416829091729
 20
-151.7716145453904
 30
0.0
 10
134.1416829091729
 20
-151.7716145453904
 30
0.0
  0
SPLINE
  5
A0
330
81
100
AcDbEntity
  8
レイヤー 1
100
AcDbSpline
210
0.0
220
0.0
230
1.0
 70
     9
 71
     3
 72
    77
 73
    73
 74
     0
 42
0.0000000001
 43
0.0000000001
 40
0.0
 40
0.0
 40
0.0
 40
0.0
 40
1.0
 40
1.0
 40
1.0
 40
2.0
 40
2.0
 40
2.0
 40
3.0
 40
3.0
 40
3.0
 40
4.0
 40
4.0
 40
4.0
 40
5.0
 40
5.0
 40
5.0
 40
6.0
 40
6.0
 40
6.0
 40
7.0
 40
7.0
 40
7.0
 40
8.0
 40
8.0
 40
8.0
 40
9.0
 40
9.0
 40
9.0
 40
10.0
 40
10.0
 40
10.0
 40
11.0
 40
11.0
 40
11.0
 40
12.0
 40
12.0
 40
12.0
 40
13.0
 40
13.0
 40
13.0
 40
14.0
 40
14.0
 40
14.0
 40
15.0
 40
15.0
 40
15.0
 40
16.0
 40
16.0
 40
16.0
 40
17.0
 40
17.0
 40
17.0
 40
18.0
 40
18.0
 40
18.0
 40
19.0
 40
19.0
 40
19.0
 40
20.0
 40
20.0
 40
20.0
 40
21.0
 40
21.0
 40
21.0
 40
22.0
 40
22.0
 40
22.0
 40
23.0
 40
23.0
 40
23.0
 40
24.0
 40
24.0
 40
24.0
 40
24.0
 10
134.8158880956363
 20
-151.0460774361968
 30
0.0
 10
134.7549099055473
 20
-151.0419433216145
 30
0.0
 10
134.6956542632011
 20
-151.0419433216145
 30
0.0
 10
134.6363986208548
 20
-151.0419433216145
 30
0.0
 10
134.6363986208548
 20
-151.0419433216145
 30
0.0
 10
134.6363986208548
 20
-151.8160562771501
 30
0.0
 10
134.6363986208548
 20
-151.8160562771501
 30
0.0
 10
134.6363986208548
 20
-152.0806396104173
 30
0.0
 10
134.6343315635636
 20
-152.1102674315905
 30
0.0
 10
134.6288194107872
 20
-152.1398952527636
 30
0.0
 10
134.5991915896141
 20
-152.2728759384943
 30
0.0
 10
134.5103081260946
 20
-152.2814886772074
 30
0.0
 10
134.3566568674525
 20
-152.2814886772074
 30
0.0
 10
134.321516893503
 20
-152.2814886772074
 30
0.0
 10
134.3067029829164
 20
-152.2814886772074
 30
0.0
 10
134.2715630089668
 20
-152.2773545626251
 30
0.0
 10
134.2715630089668
 20
-152.2773545626251
 30
0.0
 10
134.1623534820844
 20
-152.0361978786576
 30
0.0
 10
134.1623534820844
 20
-152.0361978786576
 30
0.0
 10
134.2639837988993
 20
-152.0678927571219
 30
0.0
 10
134.3363308040895
 20
-152.0678927571219
 30
0.0
 10
134.3566568674525
 20
-152.0678927571219
 30
0.0
 10
134.4176350575414
 20
-152.0678927571219
 30
0.0
 10
134.4472628787146
 20
-152.0510117892442
 30
0.0
 10
134.4510524837483
 20
-151.993823204189
 30
0.0
 10
134.4510524837483
 20
-151.9810763508936
 30
0.0
 10
134.452775031491
 20
-151.8839246582096
 30
0.0
 10
134.452775031491
 20
-151.8267360731544
 30
0.0
 10
134.452775031491
 20
-151.8267360731544
 30
0.0
 10
134.452775031491
 20
-151.0395317547748
 30
0.0
 10
134.452775031491
 20
-151.0395317547748
 30
0.0
 10
134.452775031491
 20
-151.0395317547748
 30
0.0
 10
134.1954263987428
 20
-151.0395317547748
 30
0.0
 10
134.1954263987428
 20
-151.0395317547748
 30
0.0
 10
134.06761335624
 20
-151.0395317547748
 30
0.0
 10
133.9398003137372
 20
-151.0460774361968
 30
0.0
 10
133.8140543285256
 20
-151.0588242894922
 30
0.0
 10
133.8140543285256
 20
-151.0588242894922
 30
0.0
 10
133.8140543285256
 20
-150.8514295412802
 30
0.0
 10
133.8140543285256
 20
-150.8514295412802
 30
0.0
 10
133.9456569760622
 20
-150.8641763945756
 30
0.0
 10
134.1361707563965
 20
-150.8683105091579
 30
0.0
 10
134.1954263987428
 20
-150.8683105091579
 30
0.0
 10
134.1954263987428
 20
-150.8683105091579
 30
0.0
 10
134.452775031491
 20
-150.8683105091579
 30
0.0
 10
134.452775031491
 20
-150.8683105091579
 30
0.0
 10
134.4510524837483
 20
-150.5995930613084
 30
0.0
 10
134.4510524837483
 20
-150.5234564510844
 30
0.0
 10
134.4434732736808
 20
-150.3753173452187
 30
0.0
 10
134.4434732736808
 20
-150.3753173452187
 30
0.0
 10
134.6694715375132
 20
-150.4135579051049
 30
0.0
 10
134.6694715375132
 20
-150.4135579051049
 30
0.0
 10
134.6825629003571
 20
-150.4156249623961
 30
0.0
 10
134.6956542632011
 20
-150.4218261342695
 30
0.0
 10
134.6956542632011
 20
-150.4431857262781
 30
0.0
 10
134.6956542632011
 20
-150.4621337514469
 30
0.0
 10
134.6897976008762
 20
-150.4642008087381
 30
0.0
 10
134.63984371634
 20
-150.4979627444936
 30
0.0
 10
134.6363986208548
 20
-150.5765109215572
 30
0.0
 10
134.6363986208548
 20
-150.5913248321438
 30
0.0
 10
134.6363986208548
 20
-150.8683105091579
 30
0.0
 10
134.7917724272395
 20
-150.8641763945756
 30
0.0
 10
134.8083088855687
 20
-150.8641763945756
 30
0.0
 10
134.8379367067419
 20
-150.8596977704448
 30
0.0
 10
134.8823784385016
 20
-150.8555636558625
 30
0.0
 10
134.8861680435354
 20
-150.8534965985713
 30
0.0
 10
134.9250976225187
 20
-150.8514295412802
 30
0.0
 10
134.9250976225187
 20
-150.8514295412802
 30
0.0
 10
134.9250976225187
 20
-151.0588242894922
 30
0.0
 10
134.9250976225187
 20
-151.0588242894922
 30
0.0
 10
134.8992594063793
 20
-151.0567572322011
 30
0.0
 10
134.8510280695858
 20
-151.048144493488
 30
0.0
 10
134.8158880956363
 20
-151.0460774361968
 30
0.0
  0
SPLINE
  5
A1
330
81
100
AcDbEntity
  8
レイヤー 1
100
AcDbSpline
210
0.0
220
0.0
230
1.0
 70
     9
 71
     3
 72
    53
 73
    49
 74
     0
 42
0.0000000001
 43
0.0000000001
 40
0.0
 40
0.0
 40
0.0
 40
0.0
 40
1.0
 40
1.0
 40
1.0
 40
2.0
 40
2.0
 40
2.0
 40
3.0
 40
3.0
 40
3.0
 40
4.0
 40
4.0
 40
4.0
 40
5.0
 40
5.0
 40
5.0
 40
6.0
 40
6.0
 40
6.0
 40
7.0
 40
7.0
 40
7.0
 40
8.0
 40
8.0
 40
8.0
 40
9.0
 40
9.0
 40
9.0
 40
10.0
 40
10.0
 40
10.0
 40
11.0
 40
11.0
 40
11.0
 40
12.0
 40
12.0
 40
12.0
 40
13.0
 40
13.0
 40
13.0
 40
14.0
 40
14.0
 40
14.0
 40
15.0
 40
15.0
 40
15.0
 40
16.0
 40
16.0
 40
16.0
 40
16.0
 10
133.8085421757492
 20
-150.5468831003841
 30
0.0
 10
133.7492865334029
 20
-150.6991563208321
 30
0.0
 10
133.7120795021622
 20
-150.7773599883473
 30
0.0
 10
133.6790065855038
 20
-150.8448838598582
 30
0.0
 10
133.715869107196
 20
-150.8662434518668
 30
0.0
 10
133.7196587122298
 20
-150.8683105091579
 30
0.0
 10
133.7196587122298
 20
-150.8831244197445
 30
0.0
 10
133.7196587122298
 20
-150.8958712730399
 30
0.0
 10
133.6900308910566
 20
-150.9296332087953
 30
0.0
 10
133.6807291332465
 20
-150.9382459475085
 30
0.0
 10
133.6790065855038
 20
-151.1349608997162
 30
0.0
 10
133.6790065855038
 20
-151.1559759821763
 30
0.0
 10
133.6790065855038
 20
-151.2893011774554
 30
0.0
 10
133.6769395282127
 20
-151.3020480307509
 30
0.0
 10
133.6769395282127
 20
-151.3168619413374
 30
0.0
 10
133.6769395282127
 20
-151.331675851924
 30
0.0
 10
133.6769395282127
 20
-151.331675851924
 30
0.0
 10
133.6769395282127
 20
-151.8666991807833
 30
0.0
 10
133.6769395282127
 20
-151.8666991807833
 30
0.0
 10
133.6769395282127
 20
-151.938701676425
 30
0.0
 10
133.6807291332465
 20
-152.1736571885191
 30
0.0
 10
133.688308343314
 20
-152.2835557344985
 30
0.0
 10
133.688308343314
 20
-152.2835557344985
 30
0.0
 10
133.4750569327771
 20
-152.2835557344985
 30
0.0
 10
133.4750569327771
 20
-152.2835557344985
 30
0.0
 10
133.49538299614
 20
-152.1250813421771
 30
0.0
 10
133.501239658465
 20
-151.8839246582096
 30
0.0
 10
133.501239658465
 20
-151.862565066201
 30
0.0
 10
133.501239658465
 20
-151.862565066201
 30
0.0
 10
133.501239658465
 20
-151.145296186172
 30
0.0
 10
133.501239658465
 20
-151.145296186172
 30
0.0
 10
133.4216579527557
 20
-151.2596733562823
 30
0.0
 10
133.3679144631858
 20
-151.3189289986286
 30
0.0
 10
133.3307074319451
 20
-151.3613036730972
 30
0.0
 10
133.3307074319451
 20
-151.3613036730972
 30
0.0
 10
133.163964810459
 20
-151.2238443632357
 30
0.0
 10
133.163964810459
 20
-151.2238443632357
 30
0.0
 10
133.4102891376544
 20
-151.0078368763105
 30
0.0
 10
133.5787543068831
 20
-150.6991563208321
 30
0.0
 10
133.6769395282127
 20
-150.3625704919232
 30
0.0
 10
133.6769395282127
 20
-150.3625704919232
 30
0.0
 10
133.8695203658382
 20
-150.4769476620335
 30
0.0
 10
133.8695203658382
 20
-150.4769476620335
 30
0.0
 10
133.880544671391
 20
-150.483148833907
 30
0.0
 10
133.8881238814585
 20
-150.4876274580378
 30
0.0
 10
133.8881238814585
 20
-150.5024413686244
 30
0.0
 10
133.8881238814585
 20
-150.5275905656667
 30
0.0
 10
133.8733099708719
 20
-150.5320691897975
 30
0.0
 10
133.8085421757492
 20
-150.5468831003841
 30
0.0
  0
HATCH
  5
A2
330
81
100
AcDbEntity
  8
レイヤー 1
 62
   250
420
  2299925
440
 33554687
100
AcDbHatch
 10
0.0
 20
0.0
 30
0.0
210
0.0
220
0.0
230
1.0
  2
SOLID
 70
     1
 71
     1
 91
        3
 92
        1
 93
        1
 72
     4
 94
        3
 73
     0
 74
     0
 95
       20
 96
       16
 40
0.0
 40
0.0
 40
0.0
 40
0.0
 40
1.0
 40
1.0
 40
1.0
 40
2.0
 40
2.0
 40
2.0
 40
3.0
 40
3.0
 40
3.0
 40
4.0
 40
4.0
 40
4.0
 40
5.0
 40
5.0
 40
5.0
 40
5.0
 10
134.1416829091729
 20
-151.7716145453904
 10
134.1010307824469
 20
-151.5938476183515
 10
134.0159369239613
 20
-151.4522541939077
 10
133.8936360342349
 20
-151.3423556479283
 10
133.8936360342349
 20
-151.3423556479283
 10
134.0345404395816
 20
-151.227978477818
 10
134.0345404395816
 20
-151.227978477818
 10
134.087939419603
 20
-151.2703531522866
 10
134.1234239031011
 20
-151.304115088042
 10
134.1899142459664
 20
-151.4119465767303
 10
134.2601941938655
 20
-151.5283908041318
 10
134.2787977094858
 20
-151.5811007650561
 10
134.30119083014
 20
-151.6469020888244
 10
134.30119083014
 20
-151.6469020888244
 10
134.1416829091729
 20
-151.7716145453904
 10
134.1416829091729
 20
-151.7716145453904
 97
        0
 97
        1
330
9F
 92
        1
 93
        1
 72
     4
 94
        3
 73
     0
 74
     0
 95
       77
 96
       73
 40
0.0
 40
0.0
 40
0.0
 40
0.0
 40
1.0
 40
1.0
 40
1.0
 40
2.0
 40
2.0
 40
2.0
 40
3.0
 40
3.0
 40
3.0
 40
4.0
 40
4.0
 40
4.0
 40
5.0
 40
5.0
 40
5.0
 40
6.0
 40
6.0
 40
6.0
 40
7.0
 40
7.0
 40
7.0
 40
8.0
 40
8.0
 40
8.0
 40
9.0
 40
9.0
 40
9.0
 40
10.0
 40
10.0
 40
10.0
 40
11.0
 40
11.0
 40
11.0
 40
12.0
 40
12.0
 40
12.0
 40
13.0
 40
13.0
 40
13.0
 40
14.0
 40
14.0
 40
14.0
 40
15.0
 40
15.0
 40
15.0
 40
16.0
 40
16.0
 40
16.0
 40
17.0
 40
17.0
 40
17.0
 40
18.0
 40
18.0
 40
18.0
 40
19.0
 40
19.0
 40
19.0
 40
20.0
 40
20.0
 40
20.0
 40
21.0
 40
21.0
 40
21.0
 40
22.0
 40
22.0
 40
22.0
 40
23.0
 40
23.0
 40
23.0
 40
24.0
 40
24.0
 40
24.0
 40
24.0
 10
134.8158880956363
 20
-151.0460774361968
 10
134.7549099055473
 20
-151.0419433216145
 10
134.6956542632011
 20
-151.0419433216145
 10
134.6363986208548
 20
-151.0419433216145
 10
134.6363986208548
 20
-151.0419433216145
 10
134.6363986208548
 20
-151.8160562771501
 10
134.6363986208548
 20
-151.8160562771501
 10
134.6363986208548
 20
-152.0806396104173
 10
134.6343315635636
 20
-152.1102674315905
 10
134.6288194107872
 20
-152.1398952527636
 10
134.5991915896141
 20
-152.2728759384943
 10
134.5103081260946
 20
-152.2814886772074
 10
134.3566568674525
 20
-152.2814886772074
 10
134.321516893503
 20
-152.2814886772074
 10
134.3067029829164
 20
-152.2814886772074
 10
134.2715630089668
 20
-152.2773545626251
 10
134.2715630089668
 20
-152.2773545626251
 10
134.1623534820844
 20
-152.0361978786576
 10
134.1623534820844
 20
-152.0361978786576
 10
134.2639837988993
 20
-152.0678927571219
 10
134.3363308040895
 20
-152.0678927571219
 10
134.3566568674525
 20
-152.0678927571219
 10
134.4176350575414
 20
-152.0678927571219
 10
134.4472628787146
 20
-152.0510117892442
 10
134.4510524837483
 20
-151.993823204189
 10
134.4510524837483
 20
-151.9810763508936
 10
134.452775031491
 20
-151.8839246582096
 10
134.452775031491
 20
-151.8267360731544
 10
134.452775031491
 20
-151.8267360731544
 10
134.452775031491
 20
-151.0395317547748
 10
134.452775031491
 20
-151.0395317547748
 10
134.452775031491
 20
-151.0395317547748
 10
134.1954263987428
 20
-151.0395317547748
 10
134.1954263987428
 20
-151.0395317547748
 10
134.06761335624
 20
-151.0395317547748
 10
133.9398003137372
 20
-151.0460774361968
 10
133.8140543285256
 20
-151.0588242894922
 10
133.8140543285256
 20
-151.0588242894922
 10
133.8140543285256
 20
-150.8514295412802
 10
133.8140543285256
 20
-150.8514295412802
 10
133.9456569760622
 20
-150.8641763945756
 10
134.1361707563965
 20
-150.8683105091579
 10
134.1954263987428
 20
-150.8683105091579
 10
134.1954263987428
 20
-150.8683105091579
 10
134.452775031491
 20
-150.8683105091579
 10
134.452775031491
 20
-150.8683105091579
 10
134.4510524837483
 20
-150.5995930613084
 10
134.4510524837483
 20
-150.5234564510844
 10
134.4434732736808
 20
-150.3753173452187
 10
134.4434732736808
 20
-150.3753173452187
 10
134.6694715375132
 20
-150.4135579051049
 10
134.6694715375132
 20
-150.4135579051049
 10
134.6825629003571
 20
-150.4156249623961
 10
134.6956542632011
 20
-150.4218261342695
 10
134.6956542632011
 20
-150.4431857262781
 10
134.6956542632011
 20
-150.4621337514469
 10
134.6897976008762
 20
-150.4642008087381
 10
134.63984371634
 20
-150.4979627444936
 10
134.6363986208548
 20
-150.5765109215572
 10
134.6363986208548
 20
-150.5913248321438
 10
134.6363986208548
 20
-150.8683105091579
 10
134.7917724272395
 20
-150.8641763945756
 10
134.8083088855687
 20
-150.8641763945756
 10
134.8379367067419
 20
-150.8596977704448
 10
134.8823784385016
 20
-150.8555636558625
 10
134.8861680435354
 20
-150.8534965985713
 10
134.9250976225187
 20
-150.8514295412802
 10
134.9250976225187
 20
-150.8514295412802
 10
134.9250976225187
 20
-151.0588242894922
 10
134.9250976225187
 20
-151.0588242894922
 10
134.8992594063793
 20
-151.0567572322011
 10
134.8510280695858
 20
-151.048144493488
 10
134.8158880956363
 20
-151.0460774361968
 97
        0
 97
        1
330
A0
 92
        1
 93
        1
 72
     4
 94
        3
 73
     0
 74
     0
 95
       53
 96
       49
 40
0.0
 40
0.0
 40
0.0
 40
0.0
 40
1.0
 40
1.0
 40
1.0
 40
2.0
 40
2.0
 40
2.0
 40
3.0
 40
3.0
 40
3.0
 40
4.0
 40
4.0
 40
4.0
 40
5.0
 40
5.0
 40
5.0
 40
6.0
 40
6.0
 40
6.0
 40
7.0
 40
7.0
 40
7.0
 40
8.0
 40
8.0
 40
8.0
 40
9.0
 40
9.0
 40
9.0
 40
10.0
 40
10.0
 40
10.0
 40
11.0
 40
11.0
 40
11.0
 40
12.0
 40
12.0
 40
12.0
 40
13.0
 40
13.0
 40
13.0
 40
14.0
 40
14.0
 40
14.0
 40
15.0
 40
15.0
 40
15.0
 40
16.0
 40
16.0
 40
16.0
 40
16.0
 10
133.8085421757492
 20
-150.5468831003841
 10
133.7492865334029
 20
-150.6991563208321
 10
133.7120795021622
 20
-150.7773599883473
 10
133.6790065855038
 20
-150.8448838598582
 10
133.715869107196
 20
-150.8662434518668
 10
133.7196587122298
 20
-150.8683105091579
 10
133.7196587122298
 20
-150.8831244197445
 10
133.7196587122298
 20
-150.8958712730399
 10
133.6900308910566
 20
-150.9296332087953
 10
133.6807291332465
 20
-150.9382459475085
 10
133.6790065855038
 20
-151.1349608997162
 10
133.6790065855038
 20
-151.1559759821763
 10
133.6790065855038
 20
-151.2893011774554
 10
133.6769395282127
 20
-151.3020480307509
 10
133.6769395282127
 20
-151.3168619413374
 10
133.6769395282127
 20
-151.331675851924
 10
133.6769395282127
 20
-151.331675851924
 10
133.6769395282127
 20
-151.8666991807833
 10
133.6769395282127
 20
-151.8666991807833
 10
133.6769395282127
 20
-151.938701676425
 10
133.6807291332465
 20
-152.1736571885191
 10
133.688308343314
 20
-152.2835557344985
 10
133.688308343314
 20
-152.2835557344985
 10
133.4750569327771
 20
-152.2835557344985
 10
133.4750569327771
 20
-152.2835557344985
 10
133.49538299614
 20
-152.1250813421771
 10
133.501239658465
 20
-151.8839246582096
 10
133.501239658465
 20
-151.862565066201
 10
133.501239658465
 20
-151.862565066201
 10
133.501239658465
 20
-151.145296186172
 10
133.501239658465
 20
-151.145296186172
 10
133.4216579527557
 20
-151.2596733562823
 10
133.3679144631858
 20
-151.3189289986286
 10
133.3307074319451
 20
-151.3613036730972
 10
133.3307074319451
 20
-151.3613036730972
 10
133.163964810459
 20
-151.2238443632357
 10
133.163964810459
 20
-151.2238443632357
 10
133.4102891376544
 20
-151.0078368763105
 10
133.5787543068831
 20
-150.6991563208321
 10
133.6769395282127
 20
-150.3625704919232
 10
133.6769395282127
 20
-150.3625704919232
 10
133.8695203658382
 20
-150.4769476620335
 10
133.8695203658382
 20
-150.4769476620335
 10
133.880544671391
 20
-150.483148833907
 10
133.8881238814585
 20
-150.4876274580378
 10
133.8881238814585
 20
-150.5024413686244
 10
133.8881238814585
 20
-150.5275905656667
 10
133.8733099708719
 20
-150.5320691897975
 10
133.8085421757492
 20
-150.5468831003841
 97
        0
 97
        1
330
A1
 75
     2
 76
     1
 98
        1
 10
0.0
 20
0.0
450
        0
451
        0
460
0.0
461
0.0
452
        0
462
0.0
453
        0
470

  0
ENDBLK
  5
84
330
81
100
AcDbEntity
  8
0
100
AcDbBlockEnd
  0
BLOCK
  5
A8
330
A6
100
AcDbEntity
  8
0
100
AcDbBlockBegin
  2
Block_3
 70
     0
 10
0.0
 20
0.0
 30
0.0
  3
Block_3
  1

  0
LINE
  5
AA
330
A6
100
AcDbEntity
  8
レイヤー 1
 62
   250
420
  2299925
370
    25
100
AcDbLine
 10
109.4090357634484
 20
-154.1578068778147
 30
0.0
 11
99.40930296300694
 21
-154.1578068778147
 31
0.0
  0
LINE
  5
AB
330
A6
100
AcDbEntity
  8
レイヤー 1
 62
   250
420
  2299925
370
    25
100
AcDbLine
 10
79.40828513994208
 20
-145.6577321577173
 30
0.0
 11
79.40828513994208
 21
-146.1579710464816
 31
0.0
  0
LINE
  5
AC
330
A6
100
AcDbEntity
  8
レイヤー 1
 62
   250
420
  2299925
370
    25
100
AcDbLine
 10
99.40930296300694
 20
-146.1579710464816
 30
0.0
 11
79.40828513994208
 21
-146.1579710464816
 31
0.0
  0
LINE
  5
AD
330
A6
100
AcDbEntity
  8
レイヤー 1
 62
   250
420
  2299925
370
    25
100
AcDbLine
 10
79.40828513994208
 20
-145.6577321577173
 30
0.0
 11
79.92192957128269
 21
-146.039790490955
 31
0.0
  0
LINE
  5
AE
330
A6
100
AcDbEntity
  8
レイヤー 1
 62
   250
420
  2299925
370
    25
100
AcDbLine
 10
79.92192957128269
 20
-146.039790490955
 30
0.0
 11
80.40735178112043
 21
-145.6222427132818
 31
0.0
  0
LINE
  5
AF
330
A6
100
AcDbEntity
  8
レイヤー 1
 62
   250
420
  2299925
370
    25
100
AcDbLine
 10
80.9213489902295
 20
-146.0043010465195
 30
0.0
 11
81.40677120006756
 21
-145.5864357688464
 31
0.0
  0
LINE
  5
B0
330
A6
100
AcDbEntity
  8
レイヤー 1
 62
   250
420
  2299925
370
    25
100
AcDbLine
 10
80.40735178112043
 20
-145.6222427132818
 30
0.0
 11
80.9213489902295
 21
-146.0043010465195
 31
0.0
  0
LINE
  5
B1
330
A6
100
AcDbEntity
  8
レイヤー 1
 62
   250
420
  2299925
370
    25
100
AcDbLine
 10
81.40677120006756
 20
-145.5864357688464
 30
0.0
 11
81.92076840917662
 21
-145.9684941020841
 31
0.0
  0
LINE
  5
B2
330
A6
100
AcDbEntity
  8
レイヤー 1
 62
   250
420
  2299925
370
    25
100
AcDbLine
 10
81.92076840917662
 20
-145.9684941020841
 30
0.0
 11
82.40619061901469
 21
-145.5509463244106
 31
0.0
  0
LINE
  5
B3
330
A6
100
AcDbEntity
  8
レイヤー 1
 62
   250
420
  2299925
370
    25
100
AcDbLine
 10
82.40619061901469
 20
-145.5509463244106
 30
0.0
 11
82.92022310590063
 21
-145.9326518798708
 31
0.0
  0
LINE
  5
B4
330
A6
100
AcDbEntity
  8
レイヤー 1
 62
   250
420
  2299925
370
    25
100
AcDbLine
 10
82.92022310590063
 20
-145.9326518798708
 30
0.0
 11
83.40529253796992
 21
-145.5151041021973
 31
0.0
  0
LINE
  5
B5
330
A6
100
AcDbEntity
  8
レイヤー 1
 62
   250
420
  2299925
370
    25
100
AcDbLine
 10
83.40529253796992
 20
-145.5151041021973
 30
0.0
 11
83.919289747079
 21
-145.8968096576576
 31
0.0
  0
LINE
  5
B6
330
A6
100
AcDbEntity
  8
レイヤー 1
 62
   250
420
  2299925
370
    25
100
AcDbLine
 10
83.919289747079
 20
-145.8968096576576
 30
0.0
 11
84.40502945690896
 21
-145.4792618799841
 31
0.0
  0
LINE
  5
B7
330
A6
100
AcDbEntity
  8
レイヤー 1
 62
   250
420
  2299925
370
    25
100
AcDbLine
 10
84.40502945690896
 20
-145.4792618799841
 30
0.0
 11
84.91906194379522
 21
-145.8613554909996
 31
0.0
  0
LINE
  5
B8
330
A6
100
AcDbEntity
  8
レイヤー 1
 62
   250
420
  2299925
370
    25
100
AcDbLine
 10
84.91906194379522
 20
-145.8613554909996
 30
0.0
 11
85.40413137586451
 21
-145.4438077133264
 31
0.0
  0
LINE
  5
B9
330
A6
100
AcDbEntity
  8
レイヤー 1
 62
   250
420
  2299925
370
    25
100
AcDbLine
 10
85.40413137586451
 20
-145.4438077133264
 30
0.0
 11
85.91812858497325
 21
-145.8258660465641
 31
0.0
  0
LINE
  5
BA
330
A6
100
AcDbEntity
  8
レイヤー 1
 62
   250
420
  2299925
370
    25
100
AcDbLine
 10
85.91812858497325
 20
-145.8258660465641
 30
0.0
 11
86.40355079481164
 21
-145.4079654911135
 31
0.0
  0
LINE
  5
BB
330
A6
100
AcDbEntity
  8
レイヤー 1
 62
   250
420
  2299925
370
    25
100
AcDbLine
 10
86.91754800392038
 20
-145.7900238243509
 30
0.0
 11
87.40297021375845
 21
-145.3724760466774
 31
0.0
  0
LINE
  5
BC
330
A6
100
AcDbEntity
  8
レイヤー 1
 62
   250
420
  2299925
370
    25
100
AcDbLine
 10
86.40355079481164
 20
-145.4079654911135
 30
0.0
 11
86.91754800392038
 21
-145.7900238243509
 31
0.0
  0
LINE
  5
BD
330
A6
100
AcDbEntity
  8
レイヤー 1
 62
   250
420
  2299925
370
    25
100
AcDbLine
 10
87.40297021375845
 20
-145.3724760466774
 30
0.0
 11
87.91696742286751
 21
-145.7541816021376
 31
0.0
  0
LINE
  5
BE
330
A6
100
AcDbEntity
  8
レイヤー 1
 62
   250
420
  2299925
370
    25
100
AcDbLine
 10
87.91696742286751
 20
-145.7541816021376
 30
0.0
 11
88.40238963270557
 21
-145.3366338244642
 31
0.0
  0
LINE
  5
BF
330
A6
100
AcDbEntity
  8
レイヤー 1
 62
   250
420
  2299925
370
    25
100
AcDbLine
 10
88.91606934182274
 20
-145.7183746577022
 30
0.0
 11
89.4018090516527
 21
-145.3008268800287
 31
0.0
  0
LINE
  5
C0
330
A6
100
AcDbEntity
  8
レイヤー 1
 62
   250
420
  2299925
370
    25
100
AcDbLine
 10
88.40238963270557
 20
-145.3366338244642
 30
0.0
 11
88.91606934182274
 21
-145.7183746577022
 31
0.0
  0
LINE
  5
C1
330
A6
100
AcDbEntity
  8
レイヤー 1
 62
   250
420
  2299925
370
    25
100
AcDbLine
 10
89.91580626076176
 20
-145.6828852132667
 30
0.0
 11
90.40087569283107
 21
-145.2653374355932
 31
0.0
  0
LINE
  5
C2
330
A6
100
AcDbEntity
  8
レイヤー 1
 62
   250
420
  2299925
370
    25
100
AcDbLine
 10
89.4018090516527
 20
-145.3008268800287
 30
0.0
 11
89.91580626076176
 21
-145.6828852132667
 31
0.0
  0
LINE
  5
C3
330
A6
100
AcDbEntity
  8
レイヤー 1
 62
   250
420
  2299925
370
    25
100
AcDbLine
 10
90.40087569283107
 20
-145.2653374355932
 30
0.0
 11
90.91473179083262
 21
-145.6473957688309
 31
0.0
  0
LINE
  5
C4
330
A6
100
AcDbEntity
  8
レイヤー 1
 62
   250
420
  2299925
370
    25
100
AcDbLine
 10
90.91473179083262
 20
-145.6473957688309
 30
0.0
 11
91.40047418945021
 21
-145.22949521338
 31
0.0
  0
LINE
  5
C5
330
A6
100
AcDbEntity
  8
レイヤー 1
 62
   250
420
  2299925
370
    25
100
AcDbLine
 10
91.40047418945021
 20
-145.22949521338
 30
0.0
 11
91.91415120977975
 21
-145.6115535466177
 31
0.0
  0
LINE
  5
C6
330
A6
100
AcDbEntity
  8
レイヤー 1
 62
   250
420
  2299925
370
    25
100
AcDbLine
 10
91.91415120977975
 20
-145.6115535466177
 30
0.0
 11
92.39957341961781
 21
-145.1940057689445
 31
0.0
  0
LINE
  5
C7
330
A6
100
AcDbEntity
  8
レイヤー 1
 62
   250
420
  2299925
370
    25
100
AcDbLine
 10
92.39957341961781
 20
-145.1940057689445
 30
0.0
 11
92.91357062872688
 21
-145.5757466021823
 31
0.0
  0
LINE
  5
C8
330
A6
100
AcDbEntity
  8
レイヤー 1
 62
   250
420
  2299925
370
    25
100
AcDbLine
 10
92.91357062872688
 20
-145.5757466021823
 30
0.0
 11
93.39899283856494
 21
-145.1581988245088
 31
0.0
  0
LINE
  5
C9
330
A6
100
AcDbEntity
  8
レイヤー 1
 62
   250
420
  2299925
370
    25
100
AcDbLine
 10
93.39899283856494
 20
-145.1581988245088
 30
0.0
 11
93.912990047674
 21
-145.539904379969
 31
0.0
  0
LINE
  5
CA
330
A6
100
AcDbEntity
  8
レイヤー 1
 62
   250
420
  2299925
370
    25
100
AcDbLine
 10
93.912990047674
 20
-145.539904379969
 30
0.0
 11
94.39876503528086
 21
-145.1223566022955
 31
0.0
  0
LINE
  5
CB
330
A6
100
AcDbEntity
  8
レイヤー 1
 62
   250
420
  2299925
370
    25
100
AcDbLine
 10
94.39876503528086
 20
-145.1223566022955
 30
0.0
 11
94.9127622443899
 21
-145.5044149355335
 31
0.0
  0
LINE
  5
CC
330
A6
100
AcDbEntity
  8
レイヤー 1
 62
   250
420
  2299925
370
    25
100
AcDbLine
 10
94.9127622443899
 20
-145.5044149355335
 30
0.0
 11
95.3978316764592
 21
-145.08686715786
 31
0.0
  0
LINE
  5
CD
330
A6
100
AcDbEntity
  8
レイヤー 1
 62
   250
420
  2299925
370
    25
100
AcDbLine
 10
95.3978316764592
 20
-145.08686715786
 30
0.0
 11
95.91182888556827
 21
-145.4689254910977
 31
0.0
  0
LINE
  5
CE
330
A6
100
AcDbEntity
  8
レイヤー 1
 62
   250
420
  2299925
370
    25
100
AcDbLine
 10
95.91182888556827
 20
-145.4689254910977
 30
0.0
 11
96.39760387317512
 21
-145.051060213425
 31
0.0
  0
LINE
  5
CF
330
A6
100
AcDbEntity
  8
レイヤー 1
 62
   250
420
  2299925
370
    25
100
AcDbLine
 10
96.39760387317512
 20
-145.051060213425
 30
0.0
 11
96.91160108228418
 21
-145.4331185466623
 31
0.0
  0
LINE
  5
D0
330
A6
100
AcDbEntity
  8
レイヤー 1
 62
   250
420
  2299925
370
    25
100
AcDbLine
 10
96.91160108228418
 20
-145.4331185466623
 30
0.0
 11
97.39667051435347
 21
-145.0155707689888
 31
0.0
  0
LINE
  5
D1
330
A6
100
AcDbEntity
  8
レイヤー 1
 62
   250
420
  2299925
370
    25
100
AcDbLine
 10
97.39667051435347
 20
-145.0155707689888
 30
0.0
 11
97.91066772346253
 21
-145.3972763244491
 31
0.0
  0
LINE
  5
D2
330
A6
100
AcDbEntity
  8
レイヤー 1
 62
   250
420
  2299925
370
    25
100
AcDbLine
 10
97.91066772346253
 20
-145.3972763244491
 30
0.0
 11
98.39573715553182
 21
-144.9797285467756
 31
0.0
  0
LINE
  5
D3
330
A6
100
AcDbEntity
  8
レイヤー 1
 62
   250
420
  2299925
370
    25
100
AcDbLine
 10
98.39573715553182
 20
-144.9797285467756
 30
0.0
 11
98.90976964241776
 21
-145.3614693800137
 31
0.0
  0
LINE
  5
D4
330
A6
100
AcDbEntity
  8
レイヤー 1
 62
   250
420
  2299925
370
    25
100
AcDbLine
 10
98.90976964241776
 20
-145.3614693800137
 30
0.0
 11
99.39550935224806
 21
-144.9439216023402
 31
0.0
  0
LINE
  5
D5
330
A6
100
AcDbEntity
  8
レイヤー 1
 62
   250
420
  2299925
370
    25
100
AcDbLine
 10
99.45787453465831
 20
-144.8956616023522
 30
0.0
 11
100.4097454374835
 21
-144.8956616023522
 31
0.0
  0
LINE
  5
D6
330
A6
100
AcDbEntity
  8
レイヤー 1
 62
   250
420
  2299925
370
    25
100
AcDbLine
 10
100.4097454374835
 20
-144.8956616023522
 30
0.0
 11
100.4097454374835
 21
-153.1577171558419
 31
0.0
  0
LINE
  5
D7
330
A6
100
AcDbEntity
  8
レイヤー 1
 62
   250
420
  2299925
370
    25
100
AcDbLine
 10
99.40930296300694
 20
-146.1579710464816
 30
0.0
 11
99.40930296300694
 21
-154.1578068778147
 31
0.0
  0
LINE
  5
D8
330
A6
100
AcDbEntity
  8
レイヤー 1
 62
   250
420
  2299925
370
    25
100
AcDbLine
 10
108.4092635667324
 20
-153.1577171558419
 30
0.0
 11
100.4097454374835
 21
-153.1577171558419
 31
0.0
  0
LINE
  5
D9
330
A6
100
AcDbEntity
  8
レイヤー 1
 62
   250
420
  2299925
370
    25
100
AcDbLine
 10
119.470081340103
 20
-145.3008268800287
 30
0.0
 11
118.956084130994
 21
-145.6828852132667
 31
0.0
  0
LINE
  5
DA
330
A6
100
AcDbEntity
  8
レイヤー 1
 62
   250
420
  2299925
370
    25
100
AcDbLine
 10
124.4668609348468
 20
-145.4792618799841
 30
0.0
 11
123.9528284479608
 21
-145.8613554909996
 31
0.0
  0
LINE
  5
DB
330
A6
100
AcDbEntity
  8
レイヤー 1
 62
   250
420
  2299925
370
    25
100
AcDbLine
 10
119.9551507721723
 20
-145.7183746577022
 30
0.0
 11
119.470081340103
 21
-145.3008268800287
 31
0.0
  0
LINE
  5
DC
330
A6
100
AcDbEntity
  8
レイヤー 1
 62
   250
420
  2299925
370
    25
100
AcDbLine
 10
120.9549229688882
 20
-145.7541816021376
 30
0.0
 11
120.4691479812814
 21
-145.3366338244642
 31
0.0
  0
LINE
  5
DD
330
A6
100
AcDbEntity
  8
レイヤー 1
 62
   250
420
  2299925
370
    25
100
AcDbLine
 10
118.956084130994
 20
-145.6828852132667
 30
0.0
 11
118.4703091433871
 21
-145.2653374355932
 31
0.0
  0
LINE
  5
DE
330
A6
100
AcDbEntity
  8
レイヤー 1
 62
   250
420
  2299925
370
    25
100
AcDbLine
 10
120.4691479812814
 20
-145.3366338244642
 30
0.0
 11
119.9551507721723
 21
-145.7183746577022
 31
0.0
  0
LINE
  5
DF
330
A6
100
AcDbEntity
  8
レイヤー 1
 62
   250
420
  2299925
370
    25
100
AcDbLine
 10
128.4645386106353
 20
-145.6222427132818
 30
0.0
 11
127.9505414015262
 21
-146.0043010465195
 31
0.0
  0
LINE
  5
E0
330
A6
100
AcDbEntity
  8
レイヤー 1
 62
   250
420
  2299925
370
    25
100
AcDbLine
 10
121.4689201779973
 20
-145.3724760466774
 30
0.0
 11
120.9549229688882
 21
-145.7541816021376
 31
0.0
  0
LINE
  5
E1
330
A6
100
AcDbEntity
  8
レイヤー 1
 62
   250
420
  2299925
370
    25
100
AcDbLine
 10
122.4680220969525
 20
-145.4079654911135
 30
0.0
 11
121.9539896100666
 21
-145.7900238243509
 31
0.0
  0
LINE
  5
E2
330
A6
100
AcDbEntity
  8
レイヤー 1
 62
   250
420
  2299925
370
    25
100
AcDbLine
 10
108.4623213431566
 20
-144.8956616023522
 30
0.0
 11
108.4623213431566
 21
-153.1577171558419
 31
0.0
  0
LINE
  5
E3
330
A6
100
AcDbEntity
  8
レイヤー 1
 62
   250
420
  2299925
370
    25
100
AcDbLine
 10
121.9539896100666
 20
-145.7900238243509
 30
0.0
 11
121.4689201779973
 21
-145.3724760466774
 31
0.0
  0
LINE
  5
E4
330
A6
100
AcDbEntity
  8
レイヤー 1
 62
   250
420
  2299925
370
    25
100
AcDbLine
 10
122.9537618067825
 20
-145.8258660465641
 30
0.0
 11
122.4680220969525
 21
-145.4079654911135
 31
0.0
  0
LINE
  5
E5
330
A6
100
AcDbEntity
  8
レイヤー 1
 62
   250
420
  2299925
370
    25
100
AcDbLine
 10
127.9505414015262
 20
-146.0043010465195
 30
0.0
 11
127.4647664139194
 21
-145.5864357688464
 31
0.0
  0
LINE
  5
E6
330
A6
100
AcDbEntity
  8
レイヤー 1
 62
   250
420
  2299925
370
    25
100
AcDbLine
 10
123.4670887381309
 20
-145.4438077133264
 30
0.0
 11
122.9537618067825
 21
-145.8258660465641
 31
0.0
  0
LINE
  5
E7
330
A6
100
AcDbEntity
  8
レイヤー 1
 62
   250
420
  2299925
370
    25
100
AcDbLine
 10
123.9528284479608
 20
-145.8613554909996
 30
0.0
 11
123.4670887381309
 21
-145.4438077133264
 31
0.0
  0
LINE
  5
E8
330
A6
100
AcDbEntity
  8
レイヤー 1
 62
   250
420
  2299925
370
    25
100
AcDbLine
 10
128.9496080427046
 20
-146.039790490955
 30
0.0
 11
128.4645386106353
 21
-145.6222427132818
 31
0.0
  0
LINE
  5
E9
330
A6
100
AcDbEntity
  8
レイヤー 1
 62
   250
420
  2299925
370
    25
100
AcDbLine
 10
125.4659275760251
 20
-145.5151041021973
 30
0.0
 11
124.9519303669161
 21
-145.8968096576576
 31
0.0
  0
LINE
  5
EA
330
A6
100
AcDbEntity
  8
レイヤー 1
 62
   250
420
  2299925
370
    25
100
AcDbLine
 10
126.465699772741
 20
-145.5509463244106
 30
0.0
 11
125.951702563632
 21
-145.9326518798708
 31
0.0
  0
LINE
  5
EB
330
A6
100
AcDbEntity
  8
レイヤー 1
 62
   250
420
  2299925
370
    25
100
AcDbLine
 10
125.951702563632
 20
-145.9326518798708
 30
0.0
 11
125.4659275760251
 21
-145.5151041021973
 31
0.0
  0
LINE
  5
EC
330
A6
100
AcDbEntity
  8
レイヤー 1
 62
   250
420
  2299925
370
    25
100
AcDbLine
 10
129.4636052518137
 20
-145.6577321577173
 30
0.0
 11
128.9496080427046
 21
-146.039790490955
 31
0.0
  0
LINE
  5
ED
330
A6
100
AcDbEntity
  8
レイヤー 1
 62
   250
420
  2299925
370
    25
100
AcDbLine
 10
124.9519303669161
 20
-145.8968096576576
 30
0.0
 11
124.4668609348468
 21
-145.4792618799841
 31
0.0
  0
LINE
  5
EE
330
A6
100
AcDbEntity
  8
レイヤー 1
 62
   250
420
  2299925
370
    25
100
AcDbLine
 10
127.4647664139194
 20
-145.5864357688464
 30
0.0
 11
126.9507692048103
 21
-145.9684941020841
 31
0.0
  0
LINE
  5
EF
330
A6
100
AcDbEntity
  8
レイヤー 1
 62
   250
420
  2299925
370
    25
100
AcDbLine
 10
126.9507692048103
 20
-145.9684941020841
 30
0.0
 11
126.465699772741
 21
-145.5509463244106
 31
0.0
  0
LINE
  5
F0
330
A6
100
AcDbEntity
  8
レイヤー 1
 62
   250
420
  2299925
370
    25
100
AcDbLine
 10
129.4636052518137
 20
-145.6577321577173
 30
0.0
 11
129.4636052518137
 21
-146.1579710464816
 31
0.0
  0
LINE
  5
F1
330
A6
100
AcDbEntity
  8
レイヤー 1
 62
   250
420
  2299925
370
    25
100
AcDbLine
 10
109.4620935398725
 20
-146.1579710464816
 30
0.0
 11
129.4636052518137
 21
-146.1579710464816
 31
0.0
  0
LINE
  5
F2
330
A6
100
AcDbEntity
  8
レイヤー 1
 62
   250
420
  2299925
370
    25
100
AcDbLine
 10
118.4703091433871
 20
-145.2653374355932
 30
0.0
 11
117.956311934278
 21
-145.6473957688309
 31
0.0
  0
LINE
  5
F3
330
A6
100
AcDbEntity
  8
レイヤー 1
 62
   250
420
  2299925
370
    25
100
AcDbLine
 10
117.956311934278
 20
-145.6473957688309
 30
0.0
 11
117.4712425022088
 21
-145.22949521338
 31
0.0
  0
LINE
  5
F4
330
A6
100
AcDbEntity
  8
レイヤー 1
 62
   250
420
  2299925
370
    25
100
AcDbLine
 10
117.4712425022088
 20
-145.22949521338
 30
0.0
 11
116.9572452930997
 21
-145.6115535466177
 31
0.0
  0
LINE
  5
F5
330
A6
100
AcDbEntity
  8
レイヤー 1
 62
   250
420
  2299925
370
    25
100
AcDbLine
 10
116.9572452930997
 20
-145.6115535466177
 30
0.0
 11
116.4721758610304
 21
-145.1940057689445
 31
0.0
  0
LINE
  5
F6
330
A6
100
AcDbEntity
  8
レイヤー 1
 62
   250
420
  2299925
370
    25
100
AcDbLine
 10
116.4721758610304
 20
-145.1940057689445
 30
0.0
 11
115.9581433741445
 21
-145.5757466021823
 31
0.0
  0
LINE
  5
F7
330
A6
100
AcDbEntity
  8
レイヤー 1
 62
   250
420
  2299925
370
    25
100
AcDbLine
 10
115.9581433741445
 20
-145.5757466021823
 30
0.0
 11
115.4724036643145
 21
-145.1581988245088
 31
0.0
  0
LINE
  5
F8
330
A6
100
AcDbEntity
  8
レイヤー 1
 62
   250
420
  2299925
370
    25
100
AcDbLine
 10
115.4724036643145
 20
-145.1581988245088
 30
0.0
 11
114.9584064552054
 21
-145.539904379969
 31
0.0
  0
LINE
  5
F9
330
A6
100
AcDbEntity
  8
レイヤー 1
 62
   250
420
  2299925
370
    25
100
AcDbLine
 10
114.9584064552054
 20
-145.539904379969
 30
0.0
 11
114.4733370231362
 21
-145.1223566022955
 31
0.0
  0
LINE
  5
FA
330
A6
100
AcDbEntity
  8
レイヤー 1
 62
   250
420
  2299925
370
    25
100
AcDbLine
 10
114.4733370231362
 20
-145.1223566022955
 30
0.0
 11
113.9593045362502
 21
-145.5044149355335
 31
0.0
  0
LINE
  5
FB
330
A6
100
AcDbEntity
  8
レイヤー 1
 62
   250
420
  2299925
370
    25
100
AcDbLine
 10
113.9593045362502
 20
-145.5044149355335
 30
0.0
 11
113.4735648264203
 21
-145.08686715786
 31
0.0
  0
LINE
  5
FC
330
A6
100
AcDbEntity
  8
レイヤー 1
 62
   250
420
  2299925
370
    25
100
AcDbLine
 10
113.4735648264203
 20
-145.08686715786
 30
0.0
 11
112.9595323395343
 21
-145.4689254910977
 31
0.0
  0
LINE
  5
FD
330
A6
100
AcDbEntity
  8
レイヤー 1
 62
   250
420
  2299925
370
    25
100
AcDbLine
 10
112.9595323395343
 20
-145.4689254910977
 30
0.0
 11
112.474462907465
 21
-145.051060213425
 31
0.0
  0
LINE
  5
FE
330
A6
100
AcDbEntity
  8
レイヤー 1
 62
   250
420
  2299925
370
    25
100
AcDbLine
 10
112.474462907465
 20
-145.051060213425
 30
0.0
 11
111.960465698356
 21
-145.4331185466623
 31
0.0
  0
LINE
  5
FF
330
A6
100
AcDbEntity
  8
レイヤー 1
 62
   250
420
  2299925
370
    25
100
AcDbLine
 10
111.960465698356
 20
-145.4331185466623
 30
0.0
 11
111.4753962662867
 21
-145.0155707689888
 31
0.0
  0
LINE
  5
100
330
A6
100
AcDbEntity
  8
レイヤー 1
 62
   250
420
  2299925
370
    25
100
AcDbLine
 10
111.4753962662867
 20
-145.0155707689888
 30
0.0
 11
110.9613990571776
 21
-145.3972763244491
 31
0.0
  0
LINE
  5
101
330
A6
100
AcDbEntity
  8
レイヤー 1
 62
   250
420
  2299925
370
    25
100
AcDbLine
 10
110.9613990571776
 20
-145.3972763244491
 30
0.0
 11
110.4756240695707
 21
-144.9797285467756
 31
0.0
  0
LINE
  5
102
330
A6
100
AcDbEntity
  8
レイヤー 1
 62
   250
420
  2299925
370
    25
100
AcDbLine
 10
110.4756240695707
 20
-144.9797285467756
 30
0.0
 11
109.9616268604617
 21
-145.3614693800137
 31
0.0
  0
LINE
  5
103
330
A6
100
AcDbEntity
  8
レイヤー 1
 62
   250
420
  2299925
370
    25
100
AcDbLine
 10
109.9616268604617
 20
-145.3614693800137
 30
0.0
 11
109.4765574283924
 21
-144.9439216023402
 31
0.0
  0
LINE
  5
104
330
A6
100
AcDbEntity
  8
レイヤー 1
 62
   250
420
  2299925
370
    25
100
AcDbLine
 10
109.4073102960598
 20
-144.8956616023522
 30
0.0
 11
108.4623213431566
 21
-144.8956616023522
 31
0.0
  0
LINE
  5
105
330
A6
100
AcDbEntity
  8
レイヤー 1
 62
   250
420
  2299925
370
    25
100
AcDbLine
 10
109.4620935398725
 20
-146.1579710464816
 30
0.0
 11
109.4620935398725
 21
-154.1578068778147
 31
0.0
  0
SPLINE
  5
106
330
A6
100
AcDbEntity
  8
レイヤー 1
 62
   250
420
  2299925
370
     9
100
AcDbSpline
210
0.0
220
0.0
230
1.0
 70
     9
 71
     3
 72
    17
 73
    13
 74
     0
 42
0.0000000001
 43
0.0000000001
 40
0.0
 40
0.0
 40
0.0
 40
0.0
 40
1.0
 40
1.0
 40
1.0
 40
2.0
 40
2.0
 40
2.0
 40
3.0
 40
3.0
 40
3.0
 40
4.0
 40
4.0
 40
4.0
 40
4.0
 10
79.50819180405992
 20
-140.8959377144638
 30
0.0
 10
79.50819180405992
 20
-140.8404457700332
 30
0.0
 10
79.46338902742515
 20
-140.7956782700444
 30
0.0
 10
79.40828513994208
 20
-140.7956782700444
 30
0.0
 10
79.35282847469022
 20
-140.7956782700444
 30
0.0
 10
79.30802569805547
 20
-140.8404457700332
 30
0.0
 10
79.30802569805547
 20
-140.8959377144638
 30
0.0
 10
79.30802569805547
 20
-140.9510416033383
 30
0.0
 10
79.35282847469022
 20
-140.9958443811051
 30
0.0
 10
79.40828513994208
 20
-140.9958443811051
 30
0.0
 10
79.46338902742515
 20
-140.9958443811051
 30
0.0
 10
79.50819180405992
 20
-140.9510416033383
 30
0.0
 10
79.50819180405992
 20
-140.8959377144638
 30
0.0
  0
SPLINE
  5
107
330
A6
100
AcDbEntity
  8
レイヤー 1
 62
   250
420
  2299925
370
     9
100
AcDbSpline
210
0.0
220
0.0
230
1.0
 70
     9
 71
     3
 72
    17
 73
    13
 74
     0
 42
0.0000000001
 43
0.0000000001
 40
0.0
 40
0.0
 40
0.0
 40
0.0
 40
1.0
 40
1.0
 40
1.0
 40
2.0
 40
2.0
 40
2.0
 40
3.0
 40
3.0
 40
3.0
 40
4.0
 40
4.0
 40
4.0
 40
4.0
 10
77.371875469673
 20
-145.6577321577173
 30
0.0
 10
77.371875469673
 20
-145.602628268842
 30
0.0
 10
77.32711030407966
 20
-145.5578254910756
 30
0.0
 10
77.27161602778638
 20
-145.5578254910756
 30
0.0
 10
77.2165121403033
 20
-145.5578254910756
 30
0.0
 10
77.17170936366887
 20
-145.602628268842
 30
0.0
 10
77.17170936366887
 20
-145.6577321577173
 30
0.0
 10
77.17170936366887
 20
-145.71287132437
 30
0.0
 10
77.2165121403033
 20
-145.7576388243589
 30
0.0
 10
77.27161602778638
 20
-145.7576388243589
 30
0.0
 10
77.32711030407966
 20
-145.7576388243589
 30
0.0
 10
77.371875469673
 20
-145.71287132437
 30
0.0
 10
77.371875469673
 20
-145.6577321577173
 30
0.0
  0
SPLINE
  5
108
330
A6
100
AcDbEntity
  8
レイヤー 1
 62
   250
420
  2299925
370
     9
100
AcDbSpline
210
0.0
220
0.0
230
1.0
 70
     9
 71
     3
 72
    17
 73
    13
 74
     0
 42
0.0000000001
 43
0.0000000001
 40
0.0
 40
0.0
 40
0.0
 40
0.0
 40
1.0
 40
1.0
 40
1.0
 40
2.0
 40
2.0
 40
2.0
 40
3.0
 40
3.0
 40
3.0
 40
4.0
 40
4.0
 40
4.0
 40
4.0
 10
77.371875469673
 20
-146.1579710464816
 30
0.0
 10
77.371875469673
 20
-146.1028318798282
 30
0.0
 10
77.32711030407966
 20
-146.0580643798394
 30
0.0
 10
77.27161602778638
 20
-146.0580643798394
 30
0.0
 10
77.2165121403033
 20
-146.0580643798394
 30
0.0
 10
77.17170936366887
 20
-146.1028318798282
 30
0.0
 10
77.17170936366887
 20
-146.1579710464816
 30
0.0
 10
77.17170936366887
 20
-146.2130749353562
 30
0.0
 10
77.2165121403033
 20
-146.257877713123
 30
0.0
 10
77.27161602778638
 20
-146.257877713123
 30
0.0
 10
77.32711030407966
 20
-146.257877713123
 30
0.0
 10
77.371875469673
 20
-146.2130749353562
 30
0.0
 10
77.371875469673
 20
-146.1579710464816
 30
0.0
  0
SPLINE
  5
109
330
A6
100
AcDbEntity
  8
レイヤー 1
 62
   250
420
  2299925
370
     9
100
AcDbSpline
210
0.0
220
0.0
230
1.0
 70
     9
 71
     3
 72
    17
 73
    13
 74
     0
 42
0.0000000001
 43
0.0000000001
 40
0.0
 40
0.0
 40
0.0
 40
0.0
 40
1.0
 40
1.0
 40
1.0
 40
2.0
 40
2.0
 40
2.0
 40
3.0
 40
3.0
 40
3.0
 40
4.0
 40
4.0
 40
4.0
 40
4.0
 10
77.371875469673
 20
-154.1578068778147
 30
0.0
 10
77.371875469673
 20
-154.1027029889391
 30
0.0
 10
77.32711030407966
 20
-154.0579002111724
 30
0.0
 10
77.27161602778638
 20
-154.0579002111724
 30
0.0
 10
77.2165121403033
 20
-154.0579002111724
 30
0.0
 10
77.17170936366887
 20
-154.1027029889391
 30
0.0
 10
77.17170936366887
 20
-154.1578068778147
 30
0.0
 10
77.17170936366887
 20
-154.2129460444671
 30
0.0
 10
77.2165121403033
 20
-154.2577135444563
 30
0.0
 10
77.27161602778638
 20
-154.2577135444563
 30
0.0
 10
77.32711030407966
 20
-154.2577135444563
 30
0.0
 10
77.371875469673
 20
-154.2129460444671
 30
0.0
 10
77.371875469673
 20
-154.1578068778147
 30
0.0
  0
SPLINE
  5
10A
330
A6
100
AcDbEntity
  8
レイヤー 1
 62
   250
420
  2299925
370
     9
100
AcDbSpline
210
0.0
220
0.0
230
1.0
 70
     9
 71
     3
 72
    17
 73
    13
 74
     0
 42
0.0000000001
 43
0.0000000001
 40
0.0
 40
0.0
 40
0.0
 40
0.0
 40
1.0
 40
1.0
 40
1.0
 40
2.0
 40
2.0
 40
2.0
 40
3.0
 40
3.0
 40
3.0
 40
4.0
 40
4.0
 40
4.0
 40
4.0
 10
100.5096521016013
 20
-140.8959377144638
 30
0.0
 10
100.5096521016013
 20
-140.8404457700332
 30
0.0
 10
100.4648846027431
 20
-140.7956782700444
 30
0.0
 10
100.4097454374835
 20
-140.7956782700444
 30
0.0
 10
100.3539359944629
 20
-140.7956782700444
 30
0.0
 10
100.3091714094448
 20
-140.8404457700332
 30
0.0
 10
100.3091714094448
 20
-140.8959377144638
 30
0.0
 10
100.3091714094448
 20
-140.9510416033383
 30
0.0
 10
100.3539359944629
 20
-140.9958443811051
 30
0.0
 10
100.4097454374835
 20
-140.9958443811051
 30
0.0
 10
100.4648846027431
 20
-140.9958443811051
 30
0.0
 10
100.5096521016013
 20
-140.9510416033383
 30
0.0
 10
100.5096521016013
 20
-140.8959377144638
 30
0.0
  0
SPLINE
  5
10B
330
A6
100
AcDbEntity
  8
レイヤー 1
 62
   250
420
  2299925
370
     9
100
AcDbSpline
210
0.0
220
0.0
230
1.0
 70
     9
 71
     3
 72
    17
 73
    13
 74
     0
 42
0.0000000001
 43
0.0000000001
 40
0.0
 40
0.0
 40
0.0
 40
0.0
 40
1.0
 40
1.0
 40
1.0
 40
2.0
 40
2.0
 40
2.0
 40
3.0
 40
3.0
 40
3.0
 40
4.0
 40
4.0
 40
4.0
 40
4.0
 10
129.5207905281325
 20
-140.8959377144638
 30
0.0
 10
129.5207905281325
 20
-140.8404457700332
 30
0.0
 10
129.4760230292746
 20
-140.7956782700444
 30
0.0
 10
129.4208838640147
 20
-140.7956782700444
 30
0.0
 10
129.3657799765316
 20
-140.7956782700444
 30
0.0
 10
129.3209771998969
 20
-140.8404457700332
 30
0.0
 10
129.3209771998969
 20
-140.8959377144638
 30
0.0
 10
129.3209771998969
 20
-140.9510416033383
 30
0.0
 10
129.3657799765316
 20
-140.9958443811051
 30
0.0
 10
129.4208838640147
 20
-140.9958443811051
 30
0.0
 10
129.4760230292746
 20
-140.9958443811051
 30
0.0
 10
129.5207905281325
 20
-140.9510416033383
 30
0.0
 10
129.5207905281325
 20
-140.8959377144638
 30
0.0
  0
SPLINE
  5
10C
330
A6
100
AcDbEntity
  8
レイヤー 1
 62
   250
420
  2299925
370
     9
100
AcDbSpline
210
0.0
220
0.0
230
1.0
 70
     9
 71
     3
 72
    17
 73
    13
 74
     0
 42
0.0000000001
 43
0.0000000001
 40
0.0
 40
0.0
 40
0.0
 40
0.0
 40
1.0
 40
1.0
 40
1.0
 40
2.0
 40
2.0
 40
2.0
 40
3.0
 40
3.0
 40
3.0
 40
4.0
 40
4.0
 40
4.0
 40
4.0
 10
108.4092635667324
 20
-140.8959377144638
 30
0.0
 10
108.4092635667324
 20
-140.8404457700332
 30
0.0
 10
108.3644607900977
 20
-140.7956782700444
 30
0.0
 10
108.3093569026146
 20
-140.7956782700444
 30
0.0
 10
108.2542177373547
 20
-140.7956782700444
 30
0.0
 10
108.2094502384968
 20
-140.8404457700332
 30
0.0
 10
108.2094502384968
 20
-140.8959377144638
 30
0.0
 10
108.2094502384968
 20
-140.9510416033383
 30
0.0
 10
108.2542177373547
 20
-140.9958443811051
 30
0.0
 10
108.3093569026146
 20
-140.9958443811051
 30
0.0
 10
108.3644607900977
 20
-140.9958443811051
 30
0.0
 10
108.4092635667324
 20
-140.9510416033383
 30
0.0
 10
108.4092635667324
 20
-140.8959377144638
 30
0.0
  0
LINE
  5
10D
330
A6
100
AcDbEntity
  8
レイヤー 1
 62
   250
420
  2299925
370
     9
100
AcDbLine
 10
77.27161602778638
 20
-145.6577321577173
 30
0.0
 11
77.27161602778638
 21
-140.4001791034762
 31
0.0
  0
LINE
  5
10E
330
A6
100
AcDbEntity
  8
レイヤー 1
 62
   250
420
  2299925
370
     9
100
AcDbLine
 10
77.27161602778638
 20
-145.6577321577173
 30
0.0
 11
77.27161602778638
 21
-146.1579710464816
 31
0.0
  0
LINE
  5
10F
330
A6
100
AcDbEntity
  8
レイヤー 1
 62
   250
420
  2299925
370
     9
100
AcDbLine
 10
78.73165737942651
 20
-145.6577321577173
 30
0.0
 11
76.27187910884735
 21
-145.6577321577173
 31
0.0
  0
LINE
  5
110
330
A6
100
AcDbEntity
  8
レイヤー 1
 62
   250
420
  2299925
370
     9
100
AcDbLine
 10
78.73165737942651
 20
-146.1579710464816
 30
0.0
 11
76.27187910884735
 21
-146.1579710464816
 31
0.0
  0
INSERT
  5
112
330
A6
100
AcDbEntity
  8
レイヤー 1
100
AcDbBlockReference
  2
Block_4
 10
0.0
 20
0.0
 30
0.0
  0
LINE
  5
120
330
A6
100
AcDbEntity
  8
レイヤー 1
 62
   250
420
  2299925
370
     9
100
AcDbLine
 10
79.40828513994208
 20
-140.8959377144638
 30
0.0
 11
100.4097454374835
 21
-140.8959377144638
 31
0.0
  0
LINE
  5
121
330
A6
100
AcDbEntity
  8
レイヤー 1
 62
   250
420
  2299925
370
     9
100
AcDbLine
 10
79.40828513994208
 20
-143.1180143805744
 30
0.0
 11
79.40828513994208
 21
-139.8958127147138
 31
0.0
  0
INSERT
  5
123
330
A6
100
AcDbEntity
  8
レイヤー 1
100
AcDbBlockReference
  2
Block_6
 10
0.0
 20
0.0
 30
0.0
  0
LINE
  5
12E
330
A6
100
AcDbEntity
  8
レイヤー 1
 62
   250
420
  2299925
370
     9
100
AcDbLine
 10
77.27161602778638
 20
-146.1579710464816
 30
0.0
 11
77.27161602778638
 21
-154.1578068778147
 31
0.0
  0
LINE
  5
12F
330
A6
100
AcDbEntity
  8
レイヤー 1
 62
   250
420
  2299925
370
     9
100
AcDbLine
 10
98.73338075802893
 20
-154.1578068778147
 30
0.0
 11
76.27187910884735
 21
-154.1578068778147
 31
0.0
  0
INSERT
  5
131
330
A6
100
AcDbEntity
  8
レイヤー 1
100
AcDbBlockReference
  2
Block_8
 10
0.0
 20
0.0
 30
0.0
  0
LINE
  5
138
330
A6
100
AcDbEntity
  8
レイヤー 1
 62
   250
420
  2299925
370
     9
100
AcDbLine
 10
129.4208838640147
 20
-140.8959377144638
 30
0.0
 11
108.4195999553576
 21
-140.8959377144638
 31
0.0
  0
LINE
  5
139
330
A6
100
AcDbEntity
  8
レイヤー 1
 62
   250
420
  2299925
370
     9
100
AcDbLine
 10
129.4208838640147
 20
-143.1180143805744
 30
0.0
 11
129.4208838640147
 21
-139.8958127147138
 31
0.0
  0
INSERT
  5
13B
330
A6
100
AcDbEntity
  8
レイヤー 1
100
AcDbBlockReference
  2
Block_9
 10
0.0
 20
0.0
 30
0.0
  0
LINE
  5
146
330
A6
100
AcDbEntity
  8
レイヤー 1
 62
   250
420
  2299925
370
     9
100
AcDbLine
 10
100.4097454374835
 20
-140.8959377144638
 30
0.0
 11
108.4092635667324
 21
-140.8959377144638
 31
0.0
  0
LINE
  5
147
330
A6
100
AcDbEntity
  8
レイヤー 1
 62
   250
420
  2299925
370
     9
100
AcDbLine
 10
100.4097454374835
 20
-142.3559438252093
 30
0.0
 11
100.4097454374835
 21
-139.8958127147138
 31
0.0
  0
LINE
  5
148
330
A6
100
AcDbEntity
  8
レイヤー 1
 62
   250
420
  2299925
370
     9
100
AcDbLine
 10
108.3093569026146
 20
-142.3559438252093
 30
0.0
 11
108.3093569026146
 21
-139.8958127147138
 31
0.0
  0
INSERT
  5
14A
330
A6
100
AcDbEntity
  8
レイヤー 1
100
AcDbBlockReference
  2
Block_11
 10
0.0
 20
0.0
 30
0.0
  0
LINE
  5
151
330
A6
100
AcDbEntity
  8
レイヤー 1
 62
   250
420
  2299925
370
     9
100
AcDbLine
 10
107.033289157392
 20
-150.6558877120235
 30
0.0
 11
115.0328072866406
 21
-150.6558877120235
 31
0.0
  0
INSERT
  5
153
330
A6
100
AcDbEntity
  8
レイヤー 1
100
AcDbBlockReference
  2
Block_12
 10
0.0
 20
0.0
 30
0.0
  0
SPLINE
  5
158
330
A6
100
AcDbEntity
  8
レイヤー 1
 62
   250
420
  2299925
370
     9
100
AcDbSpline
210
0.0
220
0.0
230
1.0
 70
     9
 71
     3
 72
    17
 73
    13
 74
     0
 42
0.0000000001
 43
0.0000000001
 40
0.0
 40
0.0
 40
0.0
 40
0.0
 40
1.0
 40
1.0
 40
1.0
 40
2.0
 40
2.0
 40
2.0
 40
3.0
 40
3.0
 40
3.0
 40
4.0
 40
4.0
 40
4.0
 40
4.0
 10
99.72281656611965
 20
-158.2705607656753
 30
0.0
 10
99.72281656611965
 20
-158.2154568768004
 30
0.0
 10
99.63941990158062
 20
-158.1706540990337
 30
0.0
 10
99.53676157086663
 20
-158.1706540990337
 30
0.0
 10
99.43477351791269
 20
-158.1706540990337
 30
0.0
 10
99.35211768668807
 20
-158.2154568768004
 30
0.0
 10
99.35211768668807
 20
-158.2705607656753
 30
0.0
 10
99.35211768668807
 20
-158.3256999323284
 30
0.0
 10
99.43477351791269
 20
-158.370467432317
 30
0.0
 10
99.53676157086663
 20
-158.370467432317
 30
0.0
 10
99.63941990158062
 20
-158.370467432317
 30
0.0
 10
99.72281656611965
 20
-158.3256999323284
 30
0.0
 10
99.72281656611965
 20
-158.2705607656753
 30
0.0
  0
SPLINE
  5
159
330
A6
100
AcDbEntity
  8
レイヤー 1
 62
   250
420
  2299925
370
     9
100
AcDbSpline
210
0.0
220
0.0
230
1.0
 70
     9
 71
     3
 72
    17
 73
    13
 74
     0
 42
0.0000000001
 43
0.0000000001
 40
0.0
 40
0.0
 40
0.0
 40
0.0
 40
1.0
 40
1.0
 40
1.0
 40
2.0
 40
2.0
 40
2.0
 40
3.0
 40
3.0
 40
3.0
 40
4.0
 40
4.0
 40
4.0
 40
4.0
 10
109.6812038120603
 20
-158.2705607656753
 30
0.0
 10
109.6812038120603
 20
-158.2154568768004
 30
0.0
 10
109.5985158515667
 20
-158.1706540990337
 30
0.0
 10
109.4965246501052
 20
-158.1706540990337
 30
0.0
 10
109.3931991849519
 20
-158.1706540990337
 30
0.0
 10
109.3105049326287
 20
-158.2154568768004
 30
0.0
 10
109.3105049326287
 20
-158.2705607656753
 30
0.0
 10
109.3105049326287
 20
-158.3256999323284
 30
0.0
 10
109.3931991849519
 20
-158.370467432317
 30
0.0
 10
109.4965246501052
 20
-158.370467432317
 30
0.0
 10
109.5985158515667
 20
-158.370467432317
 30
0.0
 10
109.6812038120603
 20
-158.3256999323284
 30
0.0
 10
109.6812038120603
 20
-158.2705607656753
 30
0.0
  0
LINE
  5
15A
330
A6
100
AcDbEntity
  8
レイヤー 1
 62
   250
420
  2299925
370
     9
100
AcDbLine
 10
109.5364943713077
 20
-158.2705607656753
 30
0.0
 11
99.53676157086663
 21
-158.2705607656753
 31
0.0
  0
LINE
  5
15B
330
A6
100
AcDbEntity
  8
レイヤー 1
 62
   250
420
  2299925
370
     9
100
AcDbLine
 10
109.4965246501052
 20
-156.8108721549287
 30
0.0
 11
109.4965246501052
 21
-159.2710385432028
 31
0.0
  0
LINE
  5
15C
330
A6
100
AcDbEntity
  8
レイヤー 1
 62
   250
420
  2299925
370
     9
100
AcDbLine
 10
99.53676157086663
 20
-156.8108721549287
 30
0.0
 11
99.53676157086663
 21
-159.2710385432028
 31
0.0
  0
INSERT
  5
15E
330
A6
100
AcDbEntity
  8
レイヤー 1
100
AcDbBlockReference
  2
Block_13
 10
0.0
 20
0.0
 30
0.0
  0
ENDBLK
  5
A9
330
A6
100
AcDbEntity
  8
0
100
AcDbBlockEnd
  0
BLOCK
  5
113
330
111
100
AcDbEntity
  8
0
100
AcDbBlockBegin
  2
Block_4
 70
     0
 10
0.0
 20
0.0
 30
0.0
  3
Block_4
  1

  0
INSERT
  5
116
330
111
100
AcDbEntity
  8
レイヤー 1
100
AcDbBlockReference
  2
Block_5
 10
0.0
 20
0.0
 30
0.0
  0
ENDBLK
  5
114
330
111
100
AcDbEntity
  8
0
100
AcDbBlockEnd
  0
BLOCK
  5
117
330
115
100
AcDbEntity
  8
0
100
AcDbBlockBegin
  2
Block_5
 70
     0
 10
0.0
 20
0.0
 30
0.0
  3
Block_5
  1

  0
SPLINE
  5
119
330
115
100
AcDbEntity
  8
レイヤー 1
100
AcDbSpline
210
0.0
220
0.0
230
1.0
 70
     9
 71
     3
 72
    17
 73
    13
 74
     0
 42
0.0000000001
 43
0.0000000001
 40
0.0
 40
0.0
 40
0.0
 40
0.0
 40
1.0
 40
1.0
 40
1.0
 40
2.0
 40
2.0
 40
2.0
 40
3.0
 40
3.0
 40
3.0
 40
4.0
 40
4.0
 40
4.0
 40
4.0
 10
74.42732609901471
 20
-146.8125718491475
 30
0.0
 10
74.42732609901471
 20
-147.0623412718281
 30
0.0
 10
74.7106852026765
 20
-147.108850060879
 30
0.0
 10
75.05553926075001
 20
-147.108850060879
 30
0.0
 10
75.37507186700692
 20
-147.108850060879
 30
0.0
 10
75.68392467725958
 20
-147.0726765582839
 30
0.0
 10
75.68392467725958
 20
-146.8125718491475
 30
0.0
 10
75.68392467725958
 20
-146.5648694837581
 30
0.0
 10
75.40246037611466
 20
-146.5162936374161
 30
0.0
 10
75.05553926075001
 20
-146.5162936374161
 30
0.0
 10
74.73617890926735
 20
-146.5162936374161
 30
0.0
 10
74.42732609901471
 20
-146.5545341973023
 30
0.0
 10
74.42732609901471
 20
-146.8125718491475
 30
0.0
  0
SPLINE
  5
11A
330
115
100
AcDbEntity
  8
レイヤー 1
100
AcDbSpline
210
0.0
220
0.0
230
1.0
 70
     9
 71
     3
 72
    29
 73
    25
 74
     0
 42
0.0000000001
 43
0.0000000001
 40
0.0
 40
0.0
 40
0.0
 40
0.0
 40
1.0
 40
1.0
 40
1.0
 40
2.0
 40
2.0
 40
2.0
 40
3.0
 40
3.0
 40
3.0
 40
4.0
 40
4.0
 40
4.0
 40
5.0
 40
5.0
 40
5.0
 40
6.0
 40
6.0
 40
6.0
 40
7.0
 40
7.0
 40
7.0
 40
8.0
 40
8.0
 40
8.0
 40
8.0
 10
75.64999048672986
 20
-146.4146633206012
 30
0.0
 10
75.85945229223305
 20
-146.522839318838
 30
0.0
 10
75.8785725721762
 20
-146.6961276217461
 30
0.0
 10
75.8785725721762
 20
-146.8125718491475
 30
0.0
 10
75.8785725721762
 20
-146.9734578083087
 30
0.0
 10
75.83206378312532
 20
-147.1150512327525
 30
0.0
 10
75.64999048672986
 20
-147.2101358681454
 30
0.0
 10
75.45551484658751
 20
-147.3138332422514
 30
0.0
 10
75.21849227720233
 20
-147.3331257769688
 30
0.0
 10
75.05553926075001
 20
-147.3331257769688
 30
0.0
 10
74.91170652424083
 20
-147.3331257769688
 30
0.0
 10
74.66004229904332
 20
-147.3159002995425
 30
0.0
 10
74.46108803477014
 20
-147.2101358681454
 30
0.0
 10
74.25799965591467
 20
-147.1023043794571
 30
0.0
 10
74.23474526138924
 20
-146.9414184202959
 30
0.0
 10
74.23474526138924
 20
-146.8125718491475
 30
0.0
 10
74.23474526138924
 20
-146.6537529472775
 30
0.0
 10
74.27918699314895
 20
-146.5100924655426
 30
0.0
 10
74.46108803477014
 20
-146.4146633206012
 30
0.0
 10
74.65366887239561
 20
-146.315444570626
 30
0.0
 10
74.88207870306768
 20
-146.2920179213263
 30
0.0
 10
75.05553926075001
 20
-146.2920179213263
 30
0.0
 10
75.22693276114118
 20
-146.2920179213263
 30
0.0
 10
75.45758190387866
 20
-146.3133775133348
 30
0.0
 10
75.64999048672986
 20
-146.4146633206012
 30
0.0
  0
HATCH
  5
11B
330
115
100
AcDbEntity
  8
レイヤー 1
 62
   250
420
  2299925
440
 33554687
100
AcDbHatch
 10
0.0
 20
0.0
 30
0.0
210
0.0
220
0.0
230
1.0
  2
SOLID
 70
     1
 71
     1
 91
        2
 92
        1
 93
        1
 72
     4
 94
        3
 73
     0
 74
     0
 95
       17
 96
       13
 40
0.0
 40
0.0
 40
0.0
 40
0.0
 40
1.0
 40
1.0
 40
1.0
 40
2.0
 40
2.0
 40
2.0
 40
3.0
 40
3.0
 40
3.0
 40
4.0
 40
4.0
 40
4.0
 40
4.0
 10
74.42732609901471
 20
-146.8125718491475
 10
74.42732609901471
 20
-147.0623412718281
 10
74.7106852026765
 20
-147.108850060879
 10
75.05553926075001
 20
-147.108850060879
 10
75.37507186700692
 20
-147.108850060879
 10
75.68392467725958
 20
-147.0726765582839
 10
75.68392467725958
 20
-146.8125718491475
 10
75.68392467725958
 20
-146.5648694837581
 10
75.40246037611466
 20
-146.5162936374161
 10
75.05553926075001
 20
-146.5162936374161
 10
74.73617890926735
 20
-146.5162936374161
 10
74.42732609901471
 20
-146.5545341973023
 10
74.42732609901471
 20
-146.8125718491475
 97
        0
 97
        1
330
119
 92
        1
 93
        1
 72
     4
 94
        3
 73
     0
 74
     0
 95
       29
 96
       25
 40
0.0
 40
0.0
 40
0.0
 40
0.0
 40
1.0
 40
1.0
 40
1.0
 40
2.0
 40
2.0
 40
2.0
 40
3.0
 40
3.0
 40
3.0
 40
4.0
 40
4.0
 40
4.0
 40
5.0
 40
5.0
 40
5.0
 40
6.0
 40
6.0
 40
6.0
 40
7.0
 40
7.0
 40
7.0
 40
8.0
 40
8.0
 40
8.0
 40
8.0
 10
75.64999048672986
 20
-146.4146633206012
 10
75.85945229223305
 20
-146.522839318838
 10
75.8785725721762
 20
-146.6961276217461
 10
75.8785725721762
 20
-146.8125718491475
 10
75.8785725721762
 20
-146.9734578083087
 10
75.83206378312532
 20
-147.1150512327525
 10
75.64999048672986
 20
-147.2101358681454
 10
75.45551484658751
 20
-147.3138332422514
 10
75.21849227720233
 20
-147.3331257769688
 10
75.05553926075001
 20
-147.3331257769688
 10
74.91170652424083
 20
-147.3331257769688
 10
74.66004229904332
 20
-147.3159002995425
 10
74.46108803477014
 20
-147.2101358681454
 10
74.25799965591467
 20
-147.1023043794571
 10
74.23474526138924
 20
-146.9414184202959
 10
74.23474526138924
 20
-146.8125718491475
 10
74.23474526138924
 20
-146.6537529472775
 10
74.27918699314895
 20
-146.5100924655426
 10
74.46108803477014
 20
-146.4146633206012
 10
74.65366887239561
 20
-146.315444570626
 10
74.88207870306768
 20
-146.2920179213263
 10
75.05553926075001
 20
-146.2920179213263
 10
75.22693276114118
 20
-146.2920179213263
 10
75.45758190387866
 20
-146.3133775133348
 10
75.64999048672986
 20
-146.4146633206012
 97
        0
 97
        1
330
11A
 75
     2
 76
     1
 98
        1
 10
0.0
 20
0.0
450
        0
451
        0
460
0.0
461
0.0
452
        0
462
0.0
453
        0
470

  0
SPLINE
  5
11C
330
115
100
AcDbEntity
  8
レイヤー 1
100
AcDbSpline
210
0.0
220
0.0
230
1.0
 70
    11
 71
     3
 72
    17
 73
    13
 74
     0
 42
0.0000000001
 43
0.0000000001
 40
0.0
 40
0.0
 40
0.0
 40
0.0
 40
1.0
 40
1.0
 40
1.0
 40
2.0
 40
2.0
 40
2.0
 40
3.0
 40
3.0
 40
3.0
 40
4.0
 40
4.0
 40
4.0
 40
4.0
 10
75.82775741376877
 20
-146.0756659248526
 30
0.0
 10
75.82775741376877
 20
-146.0756659248526
 30
0.0
 10
75.57609318857126
 20
-146.0756659248526
 30
0.0
 10
75.57609318857126
 20
-146.0756659248526
 30
0.0
 10
75.57609318857126
 20
-146.0756659248526
 30
0.0
 10
75.57609318857126
 20
-145.8238294448808
 30
0.0
 10
75.57609318857126
 20
-145.8238294448808
 30
0.0
 10
75.57609318857126
 20
-145.8238294448808
 30
0.0
 10
75.82775741376877
 20
-145.8238294448808
 30
0.0
 10
75.82775741376877
 20
-145.8238294448808
 30
0.0
 10
75.82775741376877
 20
-145.8238294448808
 30
0.0
 10
75.82775741376877
 20
-146.0756659248526
 30
0.0
 10
75.82775741376877
 20
-146.0756659248526
 30
0.0
  0
HATCH
  5
11D
330
115
100
AcDbEntity
  8
レイヤー 1
 62
   250
420
  2299925
440
 33554687
100
AcDbHatch
 10
0.0
 20
0.0
 30
0.0
210
0.0
220
0.0
230
1.0
  2
SOLID
 70
     1
 71
     1
 91
        1
 92
        1
 93
        1
 72
     4
 94
        3
 73
     0
 74
     0
 95
       17
 96
       13
 40
0.0
 40
0.0
 40
0.0
 40
0.0
 40
1.0
 40
1.0
 40
1.0
 40
2.0
 40
2.0
 40
2.0
 40
3.0
 40
3.0
 40
3.0
 40
4.0
 40
4.0
 40
4.0
 40
4.0
 10
75.82775741376877
 20
-146.0756659248526
 10
75.82775741376877
 20
-146.0756659248526
 10
75.57609318857126
 20
-146.0756659248526
 10
75.57609318857126
 20
-146.0756659248526
 10
75.57609318857126
 20
-146.0756659248526
 10
75.57609318857126
 20
-145.8238294448808
 10
75.57609318857126
 20
-145.8238294448808
 10
75.57609318857126
 20
-145.8238294448808
 10
75.82775741376877
 20
-145.8238294448808
 10
75.82775741376877
 20
-145.8238294448808
 10
75.82775741376877
 20
-145.8238294448808
 10
75.82775741376877
 20
-146.0756659248526
 10
75.82775741376877
 20
-146.0756659248526
 97
        0
 97
        1
330
11C
 75
     2
 76
     1
 98
        1
 10
0.0
 20
0.0
450
        0
451
        0
460
0.0
461
0.0
452
        0
462
0.0
453
        0
470

  0
SPLINE
  5
11E
330
115
100
AcDbEntity
  8
レイヤー 1
100
AcDbSpline
210
0.0
220
0.0
230
1.0
 70
     9
 71
     3
 72
    53
 73
    49
 74
     0
 42
0.0000000001
 43
0.0000000001
 40
0.0
 40
0.0
 40
0.0
 40
0.0
 40
1.0
 40
1.0
 40
1.0
 40
2.0
 40
2.0
 40
2.0
 40
3.0
 40
3.0
 40
3.0
 40
4.0
 40
4.0
 40
4.0
 40
5.0
 40
5.0
 40
5.0
 40
6.0
 40
6.0
 40
6.0
 40
7.0
 40
7.0
 40
7.0
 40
8.0
 40
8.0
 40
8.0
 40
9.0
 40
9.0
 40
9.0
 40
10.0
 40
10.0
 40
10.0
 40
11.0
 40
11.0
 40
11.0
 40
12.0
 40
12.0
 40
12.0
 40
13.0
 40
13.0
 40
13.0
 40
14.0
 40
14.0
 40
14.0
 40
15.0
 40
15.0
 40
15.0
 40
16.0
 40
16.0
 40
16.0
 40
16.0
 10
75.8785725721762
 20
-145.1065605648518
 30
0.0
 10
75.8785725721762
 20
-145.184764232367
 30
0.0
 10
75.86169160429847
 20
-145.2863945491819
 30
0.0
 10
75.79812959259561
 20
-145.3880248659967
 30
0.0
 10
75.68805879184188
 20
-145.5613131689048
 30
0.0
 10
75.55697290862813
 20
-145.5826727609133
 30
0.0
 10
75.44914141993981
 20
-145.6016207860822
 30
0.0
 10
75.44914141993981
 20
-145.6016207860822
 30
0.0
 10
75.44914141993981
 20
-145.3794121272836
 30
0.0
 10
75.44914141993981
 20
-145.3794121272836
 30
0.0
 10
75.64792342943872
 20
-145.3246351090681
 30
0.0
 10
75.67755125061187
 20
-145.1975110856624
 30
0.0
 10
75.67755125061187
 20
-145.1044935075606
 30
0.0
 10
75.67755125061187
 20
-144.964967140408
 30
0.0
 10
75.57816024586241
 20
-144.81269391996
 30
0.0
 10
75.34544404583378
 20
-144.81269391996
 30
0.0
 10
75.08947345127971
 20
-144.81269391996
 30
0.0
 10
75.0197102677034
 20
-144.99252790429
 30
0.0
 10
75.0197102677034
 20
-145.1131062462738
 30
0.0
 10
75.0197102677034
 20
-145.1448011247381
 30
0.0
 10
75.0197102677034
 20
-145.2863945491819
 30
0.0
 10
75.14872909362601
 20
-145.3752780127013
 30
0.0
 10
75.14872909362601
 20
-145.3752780127013
 30
0.0
 10
75.12960881368288
 20
-145.5509778824491
 30
0.0
 10
75.12960881368288
 20
-145.5509778824491
 30
0.0
 10
75.12960881368288
 20
-145.5509778824491
 30
0.0
 10
74.28349336250552
 20
-145.4303995404653
 30
0.0
 10
74.28349336250552
 20
-145.4303995404653
 30
0.0
 10
74.28349336250552
 20
-145.4303995404653
 30
0.0
 10
74.28349336250552
 20
-144.6518079607988
 30
0.0
 10
74.28349336250552
 20
-144.6518079607988
 30
0.0
 10
74.28349336250552
 20
-144.6518079607988
 30
0.0
 10
74.47814125742214
 20
-144.6518079607988
 30
0.0
 10
74.47814125742214
 20
-144.6518079607988
 30
0.0
 10
74.47814125742214
 20
-144.6518079607988
 30
0.0
 10
74.47814125742214
 20
-145.267446524013
 30
0.0
 10
74.47814125742214
 20
-145.267446524013
 30
0.0
 10
74.47814125742214
 20
-145.267446524013
 30
0.0
 10
74.90119898301081
 20
-145.3329033382327
 30
0.0
 10
74.90119898301081
 20
-145.3329033382327
 30
0.0
 10
74.86726479248111
 20
-145.2715806385953
 30
0.0
 10
74.82712943007794
 20
-145.1892428564978
 30
0.0
 10
74.82712943007794
 20
-145.0707315718052
 30
0.0
 10
74.82712943007794
 20
-144.8168280345423
 30
0.0
 10
75.01333684105571
 20
-144.5798054651571
 30
0.0
 10
75.32632376589065
 20
-144.5798054651571
 30
0.0
 10
75.64378931485641
 20
-144.5798054651571
 30
0.0
 10
75.8785725721762
 20
-144.8040811812469
 30
0.0
 10
75.8785725721762
 20
-145.1065605648518
 30
0.0
  0
HATCH
  5
11F
330
115
100
AcDbEntity
  8
レイヤー 1
 62
   250
420
  2299925
440
 33554687
100
AcDbHatch
 10
0.0
 20
0.0
 30
0.0
210
0.0
220
0.0
230
1.0
  2
SOLID
 70
     1
 71
     1
 91
        1
 92
        1
 93
        1
 72
     4
 94
        3
 73
     0
 74
     0
 95
       53
 96
       49
 40
0.0
 40
0.0
 40
0.0
 40
0.0
 40
1.0
 40
1.0
 40
1.0
 40
2.0
 40
2.0
 40
2.0
 40
3.0
 40
3.0
 40
3.0
 40
4.0
 40
4.0
 40
4.0
 40
5.0
 40
5.0
 40
5.0
 40
6.0
 40
6.0
 40
6.0
 40
7.0
 40
7.0
 40
7.0
 40
8.0
 40
8.0
 40
8.0
 40
9.0
 40
9.0
 40
9.0
 40
10.0
 40
10.0
 40
10.0
 40
11.0
 40
11.0
 40
11.0
 40
12.0
 40
12.0
 40
12.0
 40
13.0
 40
13.0
 40
13.0
 40
14.0
 40
14.0
 40
14.0
 40
15.0
 40
15.0
 40
15.0
 40
16.0
 40
16.0
 40
16.0
 40
16.0
 10
75.8785725721762
 20
-145.1065605648518
 10
75.8785725721762
 20
-145.184764232367
 10
75.86169160429847
 20
-145.2863945491819
 10
75.79812959259561
 20
-145.3880248659967
 10
75.68805879184188
 20
-145.5613131689048
 10
75.55697290862813
 20
-145.5826727609133
 10
75.44914141993981
 20
-145.6016207860822
 10
75.44914141993981
 20
-145.6016207860822
 10
75.44914141993981
 20
-145.3794121272836
 10
75.44914141993981
 20
-145.3794121272836
 10
75.64792342943872
 20
-145.3246351090681
 10
75.67755125061187
 20
-145.1975110856624
 10
75.67755125061187
 20
-145.1044935075606
 10
75.67755125061187
 20
-144.964967140408
 10
75.57816024586241
 20
-144.81269391996
 10
75.34544404583378
 20
-144.81269391996
 10
75.08947345127971
 20
-144.81269391996
 10
75.0197102677034
 20
-144.99252790429
 10
75.0197102677034
 20
-145.1131062462738
 10
75.0197102677034
 20
-145.1448011247381
 10
75.0197102677034
 20
-145.2863945491819
 10
75.14872909362601
 20
-145.3752780127013
 10
75.14872909362601
 20
-145.3752780127013
 10
75.12960881368288
 20
-145.5509778824491
 10
75.12960881368288
 20
-145.5509778824491
 10
75.12960881368288
 20
-145.5509778824491
 10
74.28349336250552
 20
-145.4303995404653
 10
74.28349336250552
 20
-145.4303995404653
 10
74.28349336250552
 20
-145.4303995404653
 10
74.28349336250552
 20
-144.6518079607988
 10
74.28349336250552
 20
-144.6518079607988
 10
74.28349336250552
 20
-144.6518079607988
 10
74.47814125742214
 20
-144.6518079607988
 10
74.47814125742214
 20
-144.6518079607988
 10
74.47814125742214
 20
-144.6518079607988
 10
74.47814125742214
 20
-145.267446524013
 10
74.47814125742214
 20
-145.267446524013
 10
74.47814125742214
 20
-145.267446524013
 10
74.90119898301081
 20
-145.3329033382327
 10
74.90119898301081
 20
-145.3329033382327
 10
74.86726479248111
 20
-145.2715806385953
 10
74.82712943007794
 20
-145.1892428564978
 10
74.82712943007794
 20
-145.0707315718052
 10
74.82712943007794
 20
-144.8168280345423
 10
75.01333684105571
 20
-144.5798054651571
 10
75.32632376589065
 20
-144.5798054651571
 10
75.64378931485641
 20
-144.5798054651571
 10
75.8785725721762
 20
-144.8040811812469
 10
75.8785725721762
 20
-145.1065605648518
 97
        0
 97
        1
330
11E
 75
     2
 76
     1
 98
        1
 10
0.0
 20
0.0
450
        0
451
        0
460
0.0
461
0.0
452
        0
462
0.0
453
        0
470

  0
ENDBLK
  5
118
330
115
100
AcDbEntity
  8
0
100
AcDbBlockEnd
  0
BLOCK
  5
124
330
122
100
AcDbEntity
  8
0
100
AcDbBlockBegin
  2
Block_6
 70
     0
 10
0.0
 20
0.0
 30
0.0
  3
Block_6
  1

  0
INSERT
  5
127
330
122
100
AcDbEntity
  8
レイヤー 1
100
AcDbBlockReference
  2
Block_7
 10
0.0
 20
0.0
 30
0.0
  0
ENDBLK
  5
125
330
122
100
AcDbEntity
  8
0
100
AcDbBlockEnd
  0
BLOCK
  5
128
330
126
100
AcDbEntity
  8
0
100
AcDbBlockBegin
  2
Block_7
 70
     0
 10
0.0
 20
0.0
 30
0.0
  3
Block_7
  1

  0
SPLINE
  5
12A
330
126
100
AcDbEntity
  8
レイヤー 1
100
AcDbSpline
210
0.0
220
0.0
230
1.0
 70
     9
 71
     3
 72
    44
 73
    40
 74
     0
 42
0.0000000001
 43
0.0000000001
 40
0.0
 40
0.0
 40
0.0
 40
0.0
 40
1.0
 40
1.0
 40
1.0
 40
2.0
 40
2.0
 40
2.0
 40
3.0
 40
3.0
 40
3.0
 40
4.0
 40
4.0
 40
4.0
 40
5.0
 40
5.0
 40
5.0
 40
6.0
 40
6.0
 40
6.0
 40
7.0
 40
7.0
 40
7.0
 40
8.0
 40
8.0
 40
8.0
 40
9.0
 40
9.0
 40
9.0
 40
10.0
 40
10.0
 40
10.0
 40
11.0
 40
11.0
 40
11.0
 40
12.0
 40
12.0
 40
12.0
 40
13.0
 40
13.0
 40
13.0
 40
13.0
 10
89.33718259485321
 20
-139.600264450777
 30
0.0
 10
89.11928030541115
 20
-139.7589110978728
 30
0.0
 10
89.02609047253514
 20
-139.8329806508056
 30
0.0
 10
88.97751462619313
 20
-139.9768133873148
 30
0.0
 10
88.97751462619313
 20
-139.9768133873148
 30
0.0
 10
89.75593395108532
 20
-139.9768133873148
 30
0.0
 10
89.75593395108532
 20
-139.9768133873148
 30
0.0
 10
89.75593395108532
 20
-139.9768133873148
 30
0.0
 10
89.75593395108532
 20
-140.1819688234614
 30
0.0
 10
89.75593395108532
 20
-140.1819688234614
 30
0.0
 10
89.75593395108532
 20
-140.1819688234614
 30
0.0
 10
88.72791745828676
 20
-140.1819688234614
 30
0.0
 10
88.72791745828676
 20
-140.1819688234614
 30
0.0
 10
88.75961233675107
 20
-139.8243679120925
 30
0.0
 10
88.82524140574508
 20
-139.7461642445773
 30
0.0
 10
89.21023082622175
 20
-139.4478189755547
 30
0.0
 10
89.46620142077582
 20
-139.2490369660558
 30
0.0
 10
89.53165823499556
 20
-139.1813408397706
 30
0.0
 10
89.53165823499556
 20
-139.0438815299092
 30
0.0
 10
89.53165823499556
 20
-138.9253702452166
 30
0.0
 10
89.4598279941281
 20
-138.7941121072285
 30
0.0
 10
89.26311304192033
 20
-138.7941121072285
 30
0.0
 10
89.0028360780097
 20
-138.7941121072285
 30
0.0
 10
88.99439559407085
 20
-139.024761249966
 30
0.0
 10
88.99008922471429
 20
-139.1412054773675
 30
0.0
 10
88.99008922471429
 20
-139.1412054773675
 30
0.0
 10
88.76598576339878
 20
-139.1412054773675
 30
0.0
 10
88.76598576339878
 20
-139.1412054773675
 30
0.0
 10
88.77442624733765
 20
-139.014253708736
 30
0.0
 10
88.78493378856765
 20
-138.9021158506911
 30
0.0
 10
88.86537676814823
 20
-138.7836045659985
 30
0.0
 10
88.97527531412771
 20
-138.6228908616116
 30
0.0
 10
89.16148272510547
 20
-138.5889566710819
 30
0.0
 10
89.27792695250692
 20
-138.5889566710819
 30
0.0
 10
89.55508488429526
 20
-138.5889566710819
 30
0.0
 10
89.76230737773304
 20
-138.7730970247685
 30
0.0
 10
89.76230737773304
 20
-139.0459485872003
 30
0.0
 10
89.76230737773304
 20
-139.2743584178724
 30
0.0
 10
89.64603540510585
 20
-139.3739216773961
 30
0.0
 10
89.33718259485321
 20
-139.600264450777
 30
0.0
  0
HATCH
  5
12B
330
126
100
AcDbEntity
  8
レイヤー 1
 62
   250
420
  2299925
440
 33554687
100
AcDbHatch
 10
0.0
 20
0.0
 30
0.0
210
0.0
220
0.0
230
1.0
  2
SOLID
 70
     1
 71
     1
 91
        1
 92
        1
 93
        1
 72
     4
 94
        3
 73
     0
 74
     0
 95
       44
 96
       40
 40
0.0
 40
0.0
 40
0.0
 40
0.0
 40
1.0
 40
1.0
 40
1.0
 40
2.0
 40
2.0
 40
2.0
 40
3.0
 40
3.0
 40
3.0
 40
4.0
 40
4.0
 40
4.0
 40
5.0
 40
5.0
 40
5.0
 40
6.0
 40
6.0
 40
6.0
 40
7.0
 40
7.0
 40
7.0
 40
8.0
 40
8.0
 40
8.0
 40
9.0
 40
9.0
 40
9.0
 40
10.0
 40
10.0
 40
10.0
 40
11.0
 40
11.0
 40
11.0
 40
12.0
 40
12.0
 40
12.0
 40
13.0
 40
13.0
 40
13.0
 40
13.0
 10
89.33718259485321
 20
-139.600264450777
 10
89.11928030541115
 20
-139.7589110978728
 10
89.02609047253514
 20
-139.8329806508056
 10
88.97751462619313
 20
-139.9768133873148
 10
88.97751462619313
 20
-139.9768133873148
 10
89.75593395108532
 20
-139.9768133873148
 10
89.75593395108532
 20
-139.9768133873148
 10
89.75593395108532
 20
-139.9768133873148
 10
89.75593395108532
 20
-140.1819688234614
 10
89.75593395108532
 20
-140.1819688234614
 10
89.75593395108532
 20
-140.1819688234614
 10
88.72791745828676
 20
-140.1819688234614
 10
88.72791745828676
 20
-140.1819688234614
 10
88.75961233675107
 20
-139.8243679120925
 10
88.82524140574508
 20
-139.7461642445773
 10
89.21023082622175
 20
-139.4478189755547
 10
89.46620142077582
 20
-139.2490369660558
 10
89.53165823499556
 20
-139.1813408397706
 10
89.53165823499556
 20
-139.0438815299092
 10
89.53165823499556
 20
-138.9253702452166
 10
89.4598279941281
 20
-138.7941121072285
 10
89.26311304192033
 20
-138.7941121072285
 10
89.0028360780097
 20
-138.7941121072285
 10
88.99439559407085
 20
-139.024761249966
 10
88.99008922471429
 20
-139.1412054773675
 10
88.99008922471429
 20
-139.1412054773675
 10
88.76598576339878
 20
-139.1412054773675
 10
88.76598576339878
 20
-139.1412054773675
 10
88.77442624733765
 20
-139.014253708736
 10
88.78493378856765
 20
-138.9021158506911
 10
88.86537676814823
 20
-138.7836045659985
 10
88.97527531412771
 20
-138.6228908616116
 10
89.16148272510547
 20
-138.5889566710819
 10
89.27792695250692
 20
-138.5889566710819
 10
89.55508488429526
 20
-138.5889566710819
 10
89.76230737773304
 20
-138.7730970247685
 10
89.76230737773304
 20
-139.0459485872003
 10
89.76230737773304
 20
-139.2743584178724
 10
89.64603540510585
 20
-139.3739216773961
 10
89.33718259485321
 20
-139.600264450777
 97
        0
 97
        1
330
12A
 75
     2
 76
     1
 98
        1
 10
0.0
 20
0.0
450
        0
451
        0
460
0.0
461
0.0
452
        0
462
0.0
453
        0
470

  0
SPLINE
  5
12C
330
126
100
AcDbEntity
  8
レイヤー 1
100
AcDbSpline
210
0.0
220
0.0
230
1.0
 70
    11
 71
     3
 72
    26
 73
    22
 74
     0
 42
0.0000000001
 43
0.0000000001
 40
0.0
 40
0.0
 40
0.0
 40
0.0
 40
1.0
 40
1.0
 40
1.0
 40
2.0
 40
2.0
 40
2.0
 40
3.0
 40
3.0
 40
3.0
 40
4.0
 40
4.0
 40
4.0
 40
5.0
 40
5.0
 40
5.0
 40
6.0
 40
6.0
 40
6.0
 40
7.0
 40
7.0
 40
7.0
 40
7.0
 10
90.37226153339652
 20
-140.1819688234614
 30
0.0
 10
90.37226153339652
 20
-140.1819688234614
 30
0.0
 10
90.37226153339652
 20
-139.0776434656646
 30
0.0
 10
90.37226153339652
 20
-139.0776434656646
 30
0.0
 10
90.37226153339652
 20
-139.0776434656646
 30
0.0
 10
90.04222138590959
 20
-139.0776434656646
 30
0.0
 10
90.04222138590959
 20
-139.0776434656646
 30
0.0
 10
90.04222138590959
 20
-139.0776434656646
 30
0.0
 10
90.04222138590959
 20
-138.9295043597988
 30
0.0
 10
90.04222138590959
 20
-138.9295043597988
 30
0.0
 10
90.37432859068767
 20
-138.9148627039865
 30
0.0
 10
90.42083737973854
 20
-138.7519096875342
 30
0.0
 10
90.45046520091169
 20
-138.6377047721982
 30
0.0
 10
90.45046520091169
 20
-138.6377047721982
 30
0.0
 10
90.59653724948629
 20
-138.6377047721982
 30
0.0
 10
90.59653724948629
 20
-138.6377047721982
 30
0.0
 10
90.59653724948629
 20
-138.6377047721982
 30
0.0
 10
90.59653724948629
 20
-140.1819688234614
 30
0.0
 10
90.59653724948629
 20
-140.1819688234614
 30
0.0
 10
90.59653724948629
 20
-140.1819688234614
 30
0.0
 10
90.37226153339652
 20
-140.1819688234614
 30
0.0
 10
90.37226153339652
 20
-140.1819688234614
 30
0.0
  0
HATCH
  5
12D
330
126
100
AcDbEntity
  8
レイヤー 1
 62
   250
420
  2299925
440
 33554687
100
AcDbHatch
 10
0.0
 20
0.0
 30
0.0
210
0.0
220
0.0
230
1.0
  2
SOLID
 70
     1
 71
     1
 91
        1
 92
        1
 93
        1
 72
     4
 94
        3
 73
     0
 74
     0
 95
       26
 96
       22
 40
0.0
 40
0.0
 40
0.0
 40
0.0
 40
1.0
 40
1.0
 40
1.0
 40
2.0
 40
2.0
 40
2.0
 40
3.0
 40
3.0
 40
3.0
 40
4.0
 40
4.0
 40
4.0
 40
5.0
 40
5.0
 40
5.0
 40
6.0
 40
6.0
 40
6.0
 40
7.0
 40
7.0
 40
7.0
 40
7.0
 10
90.37226153339652
 20
-140.1819688234614
 10
90.37226153339652
 20
-140.1819688234614
 10
90.37226153339652
 20
-139.0776434656646
 10
90.37226153339652
 20
-139.0776434656646
 10
90.37226153339652
 20
-139.0776434656646
 10
90.04222138590959
 20
-139.0776434656646
 10
90.04222138590959
 20
-139.0776434656646
 10
90.04222138590959
 20
-139.0776434656646
 10
90.04222138590959
 20
-138.9295043597988
 10
90.04222138590959
 20
-138.9295043597988
 10
90.37432859068767
 20
-138.9148627039865
 10
90.42083737973854
 20
-138.7519096875342
 10
90.45046520091169
 20
-138.6377047721982
 10
90.45046520091169
 20
-138.6377047721982
 10
90.59653724948629
 20
-138.6377047721982
 10
90.59653724948629
 20
-138.6377047721982
 10
90.59653724948629
 20
-138.6377047721982
 10
90.59653724948629
 20
-140.1819688234614
 10
90.59653724948629
 20
-140.1819688234614
 10
90.59653724948629
 20
-140.1819688234614
 10
90.37226153339652
 20
-140.1819688234614
 10
90.37226153339652
 20
-140.1819688234614
 97
        0
 97
        1
330
12C
 75
     2
 76
     1
 98
        1
 10
0.0
 20
0.0
450
        0
451
        0
460
0.0
461
0.0
452
        0
462
0.0
453
        0
470

  0
ENDBLK
  5
129
330
126
100
AcDbEntity
  8
0
100
AcDbBlockEnd
  0
BLOCK
  5
132
330
130
100
AcDbEntity
  8
0
100
AcDbBlockBegin
  2
Block_8
 70
     0
 10
0.0
 20
0.0
 30
0.0
  3
Block_8
  1

  0
SPLINE
  5
134
330
130
100
AcDbEntity
  8
レイヤー 1
100
AcDbSpline
210
0.0
220
0.0
230
1.0
 70
     9
 71
     3
 72
    17
 73
    13
 74
     0
 42
0.0000000001
 43
0.0000000001
 40
0.0
 40
0.0
 40
0.0
 40
0.0
 40
1.0
 40
1.0
 40
1.0
 40
2.0
 40
2.0
 40
2.0
 40
3.0
 40
3.0
 40
3.0
 40
4.0
 40
4.0
 40
4.0
 40
4.0
 10
75.81811114641006
 20
-150.1555202532597
 30
0.0
 10
75.81811114641006
 20
-150.2991807349946
 30
0.0
 10
75.90475529786409
 20
-150.4517984649912
 30
0.0
 10
76.10784367671957
 20
-150.4517984649912
 30
0.0
 10
76.31299911286619
 20
-150.4517984649912
 30
0.0
 10
76.41462942968107
 20
-150.3246744415855
 30
0.0
 10
76.41462942968107
 20
-150.1555202532597
 30
0.0
 10
76.41462942968107
 20
-149.9694850970562
 30
0.0
 10
76.29198403040617
 20
-149.8592420415282
 30
0.0
 10
76.11421710336728
 20
-149.8592420415282
 30
0.0
 10
75.89200844456867
 20
-149.8592420415282
 30
0.0
 10
75.81811114641006
 20
-150.0221950579805
 30
0.0
 10
75.81811114641006
 20
-150.1555202532597
 30
0.0
  0
SPLINE
  5
135
330
130
100
AcDbEntity
  8
レイヤー 1
100
AcDbSpline
210
0.0
220
0.0
230
1.0
 70
     9
 71
     3
 72
    17
 73
    13
 74
     0
 42
0.0000000001
 43
0.0000000001
 40
0.0
 40
0.0
 40
0.0
 40
0.0
 40
1.0
 40
1.0
 40
1.0
 40
2.0
 40
2.0
 40
2.0
 40
3.0
 40
3.0
 40
3.0
 40
4.0
 40
4.0
 40
4.0
 40
4.0
 10
75.1580308514362
 20
-150.1555202532597
 30
0.0
 10
75.1580308514362
 20
-150.3205403270032
 30
0.0
 10
75.25311548682909
 20
-150.4052896759403
 30
0.0
 10
75.3885077393994
 20
-150.4052896759403
 30
0.0
 10
75.51132539344855
 20
-150.4052896759403
 30
0.0
 10
75.62983667814116
 20
-150.3332871802986
 30
0.0
 10
75.62983667814116
 20
-150.1555202532597
 30
0.0
 10
75.62983667814116
 20
-149.9777533262208
 30
0.0
 10
75.51132539344855
 20
-149.9057508305791
 30
0.0
 10
75.3885077393994
 20
-149.9057508305791
 30
0.0
 10
75.25311548682909
 20
-149.9057508305791
 30
0.0
 10
75.1580308514362
 20
-149.9925672368074
 30
0.0
 10
75.1580308514362
 20
-150.1555202532597
 30
0.0
  0
SPLINE
  5
136
330
130
100
AcDbEntity
  8
レイヤー 1
100
AcDbSpline
210
0.0
220
0.0
230
1.0
 70
     9
 71
     3
 72
    29
 73
    25
 74
     0
 42
0.0000000001
 43
0.0000000001
 40
0.0
 40
0.0
 40
0.0
 40
0.0
 40
1.0
 40
1.0
 40
1.0
 40
2.0
 40
2.0
 40
2.0
 40
3.0
 40
3.0
 40
3.0
 40
4.0
 40
4.0
 40
4.0
 40
5.0
 40
5.0
 40
5.0
 40
6.0
 40
6.0
 40
6.0
 40
7.0
 40
7.0
 40
7.0
 40
8.0
 40
8.0
 40
8.0
 40
8.0
 10
76.60927732459768
 20
-150.1555202532597
 30
0.0
 10
76.60927732459768
 20
-150.4221706438181
 30
0.0
 10
76.47164575996196
 20
-150.676074181081
 30
0.0
 10
76.12265758730615
 20
-150.676074181081
 30
0.0
 10
75.86668699275207
 20
-150.676074181081
 30
0.0
 10
75.77143010258493
 20
-150.5341362470887
 30
0.0
 10
75.71010740294747
 20
-150.4283718156915
 30
0.0
 10
75.65085176060119
 20
-150.5530842722575
 30
0.0
 10
75.53664684526515
 20
-150.6292208824816
 30
0.0
 10
75.37593314087825
 20
-150.6292208824816
 30
0.0
 10
75.10084226638103
 20
-150.6292208824816
 30
0.0
 10
74.96545001381072
 20
-150.4304388729827
 30
0.0
 10
74.96545001381072
 20
-150.1555202532597
 30
0.0
 10
74.96545001381072
 20
-149.8719888948237
 30
0.0
 10
75.1092827503199
 20
-149.6814751144893
 30
0.0
 10
75.37593314087825
 20
-149.6814751144893
 30
0.0
 10
75.53664684526515
 20
-149.6814751144893
 30
0.0
 10
75.65085176060119
 20
-149.760023291553
 30
0.0
 10
75.71010740294747
 20
-149.8847357481191
 30
0.0
 10
75.76092256135492
 20
-149.7958522845996
 30
0.0
 10
75.85617945152207
 20
-149.6370333827296
 30
0.0
 10
76.11835121794958
 20
-149.6370333827296
 30
0.0
 10
76.49283309719624
 20
-149.6370333827296
 30
0.0
 10
76.60927732459768
 20
-149.9164306265834
 30
0.0
 10
76.60927732459768
 20
-150.1555202532597
 30
0.0
  0
HATCH
  5
137
330
130
100
AcDbEntity
  8
レイヤー 1
 62
   250
420
  2299925
440
 33554687
100
AcDbHatch
 10
0.0
 20
0.0
 30
0.0
210
0.0
220
0.0
230
1.0
  2
SOLID
 70
     1
 71
     1
 91
        3
 92
        1
 93
        1
 72
     4
 94
        3
 73
     0
 74
     0
 95
       17
 96
       13
 40
0.0
 40
0.0
 40
0.0
 40
0.0
 40
1.0
 40
1.0
 40
1.0
 40
2.0
 40
2.0
 40
2.0
 40
3.0
 40
3.0
 40
3.0
 40
4.0
 40
4.0
 40
4.0
 40
4.0
 10
75.81811114641006
 20
-150.1555202532597
 10
75.81811114641006
 20
-150.2991807349946
 10
75.90475529786409
 20
-150.4517984649912
 10
76.10784367671957
 20
-150.4517984649912
 10
76.31299911286619
 20
-150.4517984649912
 10
76.41462942968107
 20
-150.3246744415855
 10
76.41462942968107
 20
-150.1555202532597
 10
76.41462942968107
 20
-149.9694850970562
 10
76.29198403040617
 20
-149.8592420415282
 10
76.11421710336728
 20
-149.8592420415282
 10
75.89200844456867
 20
-149.8592420415282
 10
75.81811114641006
 20
-150.0221950579805
 10
75.81811114641006
 20
-150.1555202532597
 97
        0
 97
        1
330
134
 92
        1
 93
        1
 72
     4
 94
        3
 73
     0
 74
     0
 95
       17
 96
       13
 40
0.0
 40
0.0
 40
0.0
 40
0.0
 40
1.0
 40
1.0
 40
1.0
 40
2.0
 40
2.0
 40
2.0
 40
3.0
 40
3.0
 40
3.0
 40
4.0
 40
4.0
 40
4.0
 40
4.0
 10
75.1580308514362
 20
-150.1555202532597
 10
75.1580308514362
 20
-150.3205403270032
 10
75.25311548682909
 20
-150.4052896759403
 10
75.3885077393994
 20
-150.4052896759403
 10
75.51132539344855
 20
-150.4052896759403
 10
75.62983667814116
 20
-150.3332871802986
 10
75.62983667814116
 20
-150.1555202532597
 10
75.62983667814116
 20
-149.9777533262208
 10
75.51132539344855
 20
-149.9057508305791
 10
75.3885077393994
 20
-149.9057508305791
 10
75.25311548682909
 20
-149.9057508305791
 10
75.1580308514362
 20
-149.9925672368074
 10
75.1580308514362
 20
-150.1555202532597
 97
        0
 97
        1
330
135
 92
        1
 93
        1
 72
     4
 94
        3
 73
     0
 74
     0
 95
       29
 96
       25
 40
0.0
 40
0.0
 40
0.0
 40
0.0
 40
1.0
 40
1.0
 40
1.0
 40
2.0
 40
2.0
 40
2.0
 40
3.0
 40
3.0
 40
3.0
 40
4.0
 40
4.0
 40
4.0
 40
5.0
 40
5.0
 40
5.0
 40
6.0
 40
6.0
 40
6.0
 40
7.0
 40
7.0
 40
7.0
 40
8.0
 40
8.0
 40
8.0
 40
8.0
 10
76.60927732459768
 20
-150.1555202532597
 10
76.60927732459768
 20
-150.4221706438181
 10
76.47164575996196
 20
-150.676074181081
 10
76.12265758730615
 20
-150.676074181081
 10
75.86668699275207
 20
-150.676074181081
 10
75.77143010258493
 20
-150.5341362470887
 10
75.71010740294747
 20
-150.4283718156915
 10
75.65085176060119
 20
-150.5530842722575
 10
75.53664684526515
 20
-150.6292208824816
 10
75.37593314087825
 20
-150.6292208824816
 10
75.10084226638103
 20
-150.6292208824816
 10
74.96545001381072
 20
-150.4304388729827
 10
74.96545001381072
 20
-150.1555202532597
 10
74.96545001381072
 20
-149.8719888948237
 10
75.1092827503199
 20
-149.6814751144893
 10
75.37593314087825
 20
-149.6814751144893
 10
75.53664684526515
 20
-149.6814751144893
 10
75.65085176060119
 20
-149.760023291553
 10
75.71010740294747
 20
-149.8847357481191
 10
75.76092256135492
 20
-149.7958522845996
 10
75.85617945152207
 20
-149.6370333827296
 10
76.11835121794958
 20
-149.6370333827296
 10
76.49283309719624
 20
-149.6370333827296
 10
76.60927732459768
 20
-149.9164306265834
 10
76.60927732459768
 20
-150.1555202532597
 97
        0
 97
        1
330
136
 75
     2
 76
     1
 98
        1
 10
0.0
 20
0.0
450
        0
451
        0
460
0.0
461
0.0
452
        0
462
0.0
453
        0
470

  0
ENDBLK
  5
133
330
130
100
AcDbEntity
  8
0
100
AcDbBlockEnd
  0
BLOCK
  5
13C
330
13A
100
AcDbEntity
  8
0
100
AcDbBlockBegin
  2
Block_9
 70
     0
 10
0.0
 20
0.0
 30
0.0
  3
Block_9
  1

  0
INSERT
  5
13F
330
13A
100
AcDbEntity
  8
レイヤー 1
100
AcDbBlockReference
  2
Block_10
 10
0.0
 20
0.0
 30
0.0
  0
ENDBLK
  5
13D
330
13A
100
AcDbEntity
  8
0
100
AcDbBlockEnd
  0
BLOCK
  5
140
330
13E
100
AcDbEntity
  8
0
100
AcDbBlockBegin
  2
Block_10
 70
     0
 10
0.0
 20
0.0
 30
0.0
  3
Block_10
  1

  0
SPLINE
  5
142
330
13E
100
AcDbEntity
  8
レイヤー 1
100
AcDbSpline
210
0.0
220
0.0
230
1.0
 70
     9
 71
     3
 72
    44
 73
    40
 74
     0
 42
0.0000000001
 43
0.0000000001
 40
0.0
 40
0.0
 40
0.0
 40
0.0
 40
1.0
 40
1.0
 40
1.0
 40
2.0
 40
2.0
 40
2.0
 40
3.0
 40
3.0
 40
3.0
 40
4.0
 40
4.0
 40
4.0
 40
5.0
 40
5.0
 40
5.0
 40
6.0
 40
6.0
 40
6.0
 40
7.0
 40
7.0
 40
7.0
 40
8.0
 40
8.0
 40
8.0
 40
9.0
 40
9.0
 40
9.0
 40
10.0
 40
10.0
 40
10.0
 40
11.0
 40
11.0
 40
11.0
 40
12.0
 40
12.0
 40
12.0
 40
13.0
 40
13.0
 40
13.0
 40
13.0
 10
120.3382188284224
 20
-139.600264450777
 30
0.0
 10
120.1204887937546
 20
-139.7589110978728
 30
0.0
 10
120.0274712156528
 20
-139.8329806508056
 30
0.0
 10
119.9785508597623
 20
-139.9768133873148
 30
0.0
 10
119.9785508597623
 20
-139.9768133873148
 30
0.0
 10
120.7571424394288
 20
-139.9768133873148
 30
0.0
 10
120.7571424394288
 20
-139.9768133873148
 30
0.0
 10
120.7571424394288
 20
-139.9768133873148
 30
0.0
 10
120.7571424394288
 20
-140.1819688234614
 30
0.0
 10
120.7571424394288
 20
-140.1819688234614
 30
0.0
 10
120.7571424394288
 20
-140.1819688234614
 30
0.0
 10
119.7291259466302
 20
-140.1819688234614
 30
0.0
 10
119.7291259466302
 20
-140.1819688234614
 30
0.0
 10
119.7608208250945
 20
-139.8243679120925
 30
0.0
 10
119.8262776393143
 20
-139.7461642445773
 30
0.0
 10
120.2114393145652
 20
-139.4478189755547
 30
0.0
 10
120.4674099091192
 20
-139.2490369660558
 30
0.0
 10
120.532866723339
 20
-139.1813408397706
 30
0.0
 10
120.532866723339
 20
-139.0438815299092
 30
0.0
 10
120.532866723339
 20
-138.9253702452166
 30
0.0
 10
120.4608642276973
 20
-138.7941121072285
 30
0.0
 10
120.2641492754895
 20
-138.7941121072285
 30
0.0
 10
120.0040445663531
 20
-138.7941121072285
 30
0.0
 10
119.9957763371885
 20
-139.024761249966
 30
0.0
 10
119.9912977130577
 20
-139.1412054773675
 30
0.0
 10
119.9912977130577
 20
-139.1412054773675
 30
0.0
 10
119.767021996968
 20
-139.1412054773675
 30
0.0
 10
119.767021996968
 20
-139.1412054773675
 30
0.0
 10
119.7756347356811
 20
-139.014253708736
 30
0.0
 10
119.7863145316854
 20
-138.9021158506911
 30
0.0
 10
119.8665852564917
 20
-138.7836045659985
 30
0.0
 10
119.9764838024711
 20
-138.6228908616116
 30
0.0
 10
120.1628634682232
 20
-138.5889566710819
 30
0.0
 10
120.2789631860761
 20
-138.5889566710819
 30
0.0
 10
120.5562933726387
 20
-138.5889566710819
 30
0.0
 10
120.7636881208507
 20
-138.7730970247685
 30
0.0
 10
120.7636881208507
 20
-139.0459485872003
 30
0.0
 10
120.7636881208507
 20
-139.2743584178724
 30
0.0
 10
120.6472438934493
 20
-139.3739216773961
 30
0.0
 10
120.3382188284224
 20
-139.600264450777
 30
0.0
  0
HATCH
  5
143
330
13E
100
AcDbEntity
  8
レイヤー 1
 62
   250
420
  2299925
440
 33554687
100
AcDbHatch
 10
0.0
 20
0.0
 30
0.0
210
0.0
220
0.0
230
1.0
  2
SOLID
 70
     1
 71
     1
 91
        1
 92
        1
 93
        1
 72
     4
 94
        3
 73
     0
 74
     0
 95
       44
 96
       40
 40
0.0
 40
0.0
 40
0.0
 40
0.0
 40
1.0
 40
1.0
 40
1.0
 40
2.0
 40
2.0
 40
2.0
 40
3.0
 40
3.0
 40
3.0
 40
4.0
 40
4.0
 40
4.0
 40
5.0
 40
5.0
 40
5.0
 40
6.0
 40
6.0
 40
6.0
 40
7.0
 40
7.0
 40
7.0
 40
8.0
 40
8.0
 40
8.0
 40
9.0
 40
9.0
 40
9.0
 40
10.0
 40
10.0
 40
10.0
 40
11.0
 40
11.0
 40
11.0
 40
12.0
 40
12.0
 40
12.0
 40
13.0
 40
13.0
 40
13.0
 40
13.0
 10
120.3382188284224
 20
-139.600264450777
 10
120.1204887937546
 20
-139.7589110978728
 10
120.0274712156528
 20
-139.8329806508056
 10
119.9785508597623
 20
-139.9768133873148
 10
119.9785508597623
 20
-139.9768133873148
 10
120.7571424394288
 20
-139.9768133873148
 10
120.7571424394288
 20
-139.9768133873148
 10
120.7571424394288
 20
-139.9768133873148
 10
120.7571424394288
 20
-140.1819688234614
 10
120.7571424394288
 20
-140.1819688234614
 10
120.7571424394288
 20
-140.1819688234614
 10
119.7291259466302
 20
-140.1819688234614
 10
119.7291259466302
 20
-140.1819688234614
 10
119.7608208250945
 20
-139.8243679120925
 10
119.8262776393143
 20
-139.7461642445773
 10
120.2114393145652
 20
-139.4478189755547
 10
120.4674099091192
 20
-139.2490369660558
 10
120.532866723339
 20
-139.1813408397706
 10
120.532866723339
 20
-139.0438815299092
 10
120.532866723339
 20
-138.9253702452166
 10
120.4608642276973
 20
-138.7941121072285
 10
120.2641492754895
 20
-138.7941121072285
 10
120.0040445663531
 20
-138.7941121072285
 10
119.9957763371885
 20
-139.024761249966
 10
119.9912977130577
 20
-139.1412054773675
 10
119.9912977130577
 20
-139.1412054773675
 10
119.767021996968
 20
-139.1412054773675
 10
119.767021996968
 20
-139.1412054773675
 10
119.7756347356811
 20
-139.014253708736
 10
119.7863145316854
 20
-138.9021158506911
 10
119.8665852564917
 20
-138.7836045659985
 10
119.9764838024711
 20
-138.6228908616116
 10
120.1628634682232
 20
-138.5889566710819
 10
120.2789631860761
 20
-138.5889566710819
 10
120.5562933726387
 20
-138.5889566710819
 10
120.7636881208507
 20
-138.7730970247685
 10
120.7636881208507
 20
-139.0459485872003
 10
120.7636881208507
 20
-139.2743584178724
 10
120.6472438934493
 20
-139.3739216773961
 10
120.3382188284224
 20
-139.600264450777
 97
        0
 97
        1
330
142
 75
     2
 76
     1
 98
        1
 10
0.0
 20
0.0
450
        0
451
        0
460
0.0
461
0.0
452
        0
462
0.0
453
        0
470

  0
SPLINE
  5
144
330
13E
100
AcDbEntity
  8
レイヤー 1
100
AcDbSpline
210
0.0
220
0.0
230
1.0
 70
    11
 71
     3
 72
    26
 73
    22
 74
     0
 42
0.0000000001
 43
0.0000000001
 40
0.0
 40
0.0
 40
0.0
 40
0.0
 40
1.0
 40
1.0
 40
1.0
 40
2.0
 40
2.0
 40
2.0
 40
3.0
 40
3.0
 40
3.0
 40
4.0
 40
4.0
 40
4.0
 40
5.0
 40
5.0
 40
5.0
 40
6.0
 40
6.0
 40
6.0
 40
7.0
 40
7.0
 40
7.0
 40
7.0
 10
121.3734700217399
 20
-140.1819688234614
 30
0.0
 10
121.3734700217399
 20
-140.1819688234614
 30
0.0
 10
121.3734700217399
 20
-139.0776434656646
 30
0.0
 10
121.3734700217399
 20
-139.0776434656646
 30
0.0
 10
121.3734700217399
 20
-139.0776434656646
 30
0.0
 10
121.043429874253
 20
-139.0776434656646
 30
0.0
 10
121.043429874253
 20
-139.0776434656646
 30
0.0
 10
121.043429874253
 20
-139.0776434656646
 30
0.0
 10
121.043429874253
 20
-138.9295043597988
 30
0.0
 10
121.043429874253
 20
-138.9295043597988
 30
0.0
 10
121.3755370790311
 20
-138.9148627039865
 30
0.0
 10
121.422045868082
 20
-138.7519096875342
 30
0.0
 10
121.4516736892551
 20
-138.6377047721982
 30
0.0
 10
121.4516736892551
 20
-138.6377047721982
 30
0.0
 10
121.5977457378297
 20
-138.6377047721982
 30
0.0
 10
121.5977457378297
 20
-138.6377047721982
 30
0.0
 10
121.5977457378297
 20
-138.6377047721982
 30
0.0
 10
121.5977457378297
 20
-140.1819688234614
 30
0.0
 10
121.5977457378297
 20
-140.1819688234614
 30
0.0
 10
121.5977457378297
 20
-140.1819688234614
 30
0.0
 10
121.3734700217399
 20
-140.1819688234614
 30
0.0
 10
121.3734700217399
 20
-140.1819688234614
 30
0.0
  0
HATCH
  5
145
330
13E
100
AcDbEntity
  8
レイヤー 1
 62
   250
420
  2299925
440
 33554687
100
AcDbHatch
 10
0.0
 20
0.0
 30
0.0
210
0.0
220
0.0
230
1.0
  2
SOLID
 70
     1
 71
     1
 91
        1
 92
        1
 93
        1
 72
     4
 94
        3
 73
     0
 74
     0
 95
       26
 96
       22
 40
0.0
 40
0.0
 40
0.0
 40
0.0
 40
1.0
 40
1.0
 40
1.0
 40
2.0
 40
2.0
 40
2.0
 40
3.0
 40
3.0
 40
3.0
 40
4.0
 40
4.0
 40
4.0
 40
5.0
 40
5.0
 40
5.0
 40
6.0
 40
6.0
 40
6.0
 40
7.0
 40
7.0
 40
7.0
 40
7.0
 10
121.3734700217399
 20
-140.1819688234614
 10
121.3734700217399
 20
-140.1819688234614
 10
121.3734700217399
 20
-139.0776434656646
 10
121.3734700217399
 20
-139.0776434656646
 10
121.3734700217399
 20
-139.0776434656646
 10
121.043429874253
 20
-139.0776434656646
 10
121.043429874253
 20
-139.0776434656646
 10
121.043429874253
 20
-139.0776434656646
 10
121.043429874253
 20
-138.9295043597988
 10
121.043429874253
 20
-138.9295043597988
 10
121.3755370790311
 20
-138.9148627039865
 10
121.422045868082
 20
-138.7519096875342
 10
121.4516736892551
 20
-138.6377047721982
 10
121.4516736892551
 20
-138.6377047721982
 10
121.5977457378297
 20
-138.6377047721982
 10
121.5977457378297
 20
-138.6377047721982
 10
121.5977457378297
 20
-138.6377047721982
 10
121.5977457378297
 20
-140.1819688234614
 10
121.5977457378297
 20
-140.1819688234614
 10
121.5977457378297
 20
-140.1819688234614
 10
121.3734700217399
 20
-140.1819688234614
 10
121.3734700217399
 20
-140.1819688234614
 97
        0
 97
        1
330
144
 75
     2
 76
     1
 98
        1
 10
0.0
 20
0.0
450
        0
451
        0
460
0.0
461
0.0
452
        0
462
0.0
453
        0
470

  0
ENDBLK
  5
141
330
13E
100
AcDbEntity
  8
0
100
AcDbBlockEnd
  0
BLOCK
  5
14B
330
149
100
AcDbEntity
  8
0
100
AcDbBlockBegin
  2
Block_11
 70
     0
 10
0.0
 20
0.0
 30
0.0
  3
Block_11
  1

  0
SPLINE
  5
14D
330
149
100
AcDbEntity
  8
レイヤー 1
100
AcDbSpline
210
0.0
220
0.0
230
1.0
 70
     9
 71
     3
 72
    17
 73
    13
 74
     0
 42
0.0000000001
 43
0.0000000001
 40
0.0
 40
0.0
 40
0.0
 40
0.0
 40
1.0
 40
1.0
 40
1.0
 40
2.0
 40
2.0
 40
2.0
 40
3.0
 40
3.0
 40
3.0
 40
4.0
 40
4.0
 40
4.0
 40
4.0
 10
104.2823513194155
 20
-138.7815375087074
 30
0.0
 10
104.117331245672
 20
-138.7815375087074
 30
0.0
 10
104.0325818967349
 20
-138.8766221441003
 30
0.0
 10
104.0325818967349
 20
-139.0120143966706
 30
0.0
 10
104.0325818967349
 20
-139.1348320507198
 30
0.0
 10
104.1045843923766
 20
-139.2533433354123
 30
0.0
 10
104.2823513194155
 20
-139.2533433354123
 30
0.0
 10
104.4601182464544
 20
-139.2533433354123
 30
0.0
 10
104.5321207420961
 20
-139.1348320507198
 30
0.0
 10
104.5321207420961
 20
-139.0120143966706
 30
0.0
 10
104.5321207420961
 20
-138.8766221441003
 30
0.0
 10
104.4453043358678
 20
-138.7815375087074
 30
0.0
 10
104.2823513194155
 20
-138.7815375087074
 30
0.0
  0
SPLINE
  5
14E
330
149
100
AcDbEntity
  8
レイヤー 1
100
AcDbSpline
210
0.0
220
0.0
230
1.0
 70
     9
 71
     3
 72
    17
 73
    13
 74
     0
 42
0.0000000001
 43
0.0000000001
 40
0.0
 40
0.0
 40
0.0
 40
0.0
 40
1.0
 40
1.0
 40
1.0
 40
2.0
 40
2.0
 40
2.0
 40
3.0
 40
3.0
 40
3.0
 40
4.0
 40
4.0
 40
4.0
 40
4.0
 10
104.2823513194155
 20
-139.4416178036813
 30
0.0
 10
104.1386908376806
 20
-139.4416178036813
 30
0.0
 10
103.986073107684
 20
-139.5282619551353
 30
0.0
 10
103.986073107684
 20
-139.7313503339908
 30
0.0
 10
103.986073107684
 20
-139.9365057701374
 30
0.0
 10
104.1131971310897
 20
-140.0381360869523
 30
0.0
 10
104.2823513194155
 20
-140.0381360869523
 30
0.0
 10
104.468386475619
 20
-140.0381360869523
 30
0.0
 10
104.578629531147
 20
-139.9154906876774
 30
0.0
 10
104.578629531147
 20
-139.7377237606385
 30
0.0
 10
104.578629531147
 20
-139.5155151018398
 30
0.0
 10
104.4156765146947
 20
-139.4416178036813
 30
0.0
 10
104.2823513194155
 20
-139.4416178036813
 30
0.0
  0
SPLINE
  5
14F
330
149
100
AcDbEntity
  8
レイヤー 1
100
AcDbSpline
210
0.0
220
0.0
230
1.0
 70
     9
 71
     3
 72
    29
 73
    25
 74
     0
 42
0.0000000001
 43
0.0000000001
 40
0.0
 40
0.0
 40
0.0
 40
0.0
 40
1.0
 40
1.0
 40
1.0
 40
2.0
 40
2.0
 40
2.0
 40
3.0
 40
3.0
 40
3.0
 40
4.0
 40
4.0
 40
4.0
 40
5.0
 40
5.0
 40
5.0
 40
6.0
 40
6.0
 40
6.0
 40
7.0
 40
7.0
 40
7.0
 40
8.0
 40
8.0
 40
8.0
 40
8.0
 10
104.2823513194155
 20
-140.2327839818689
 30
0.0
 10
104.0157009288572
 20
-140.2327839818689
 30
0.0
 10
103.7617973915943
 20
-140.0951524172331
 30
0.0
 10
103.7617973915943
 20
-139.7461642445773
 30
0.0
 10
103.7617973915943
 20
-139.4901936500233
 30
0.0
 10
103.9037353255865
 20
-139.3949367598561
 30
0.0
 10
104.0094997569837
 20
-139.3336140602187
 30
0.0
 10
103.8847873004177
 20
-139.2743584178724
 30
0.0
 10
103.8086506901936
 20
-139.1601535025363
 30
0.0
 10
103.8086506901936
 20
-138.9994397981494
 30
0.0
 10
103.8086506901936
 20
-138.7243489236522
 30
0.0
 10
104.0074326996926
 20
-138.5889566710819
 30
0.0
 10
104.2823513194155
 20
-138.5889566710819
 30
0.0
 10
104.5658826778516
 20
-138.5889566710819
 30
0.0
 10
104.7563964581859
 20
-138.7327894075911
 30
0.0
 10
104.7563964581859
 20
-138.9994397981494
 30
0.0
 10
104.7563964581859
 20
-139.1601535025363
 30
0.0
 10
104.6778482811222
 20
-139.2743584178724
 30
0.0
 10
104.5531358245561
 20
-139.3336140602187
 30
0.0
 10
104.6420192880756
 20
-139.3844292186261
 30
0.0
 10
104.8008381899456
 20
-139.4796861087933
 30
0.0
 10
104.8008381899456
 20
-139.7418578752208
 30
0.0
 10
104.8008381899456
 20
-140.1163397544674
 30
0.0
 10
104.5214409460919
 20
-140.2327839818689
 30
0.0
 10
104.2823513194155
 20
-140.2327839818689
 30
0.0
  0
HATCH
  5
150
330
149
100
AcDbEntity
  8
レイヤー 1
 62
   250
420
  2299925
440
 33554687
100
AcDbHatch
 10
0.0
 20
0.0
 30
0.0
210
0.0
220
0.0
230
1.0
  2
SOLID
 70
     1
 71
     1
 91
        3
 92
        1
 93
        1
 72
     4
 94
        3
 73
     0
 74
     0
 95
       17
 96
       13
 40
0.0
 40
0.0
 40
0.0
 40
0.0
 40
1.0
 40
1.0
 40
1.0
 40
2.0
 40
2.0
 40
2.0
 40
3.0
 40
3.0
 40
3.0
 40
4.0
 40
4.0
 40
4.0
 40
4.0
 10
104.2823513194155
 20
-138.7815375087074
 10
104.117331245672
 20
-138.7815375087074
 10
104.0325818967349
 20
-138.8766221441003
 10
104.0325818967349
 20
-139.0120143966706
 10
104.0325818967349
 20
-139.1348320507198
 10
104.1045843923766
 20
-139.2533433354123
 10
104.2823513194155
 20
-139.2533433354123
 10
104.4601182464544
 20
-139.2533433354123
 10
104.5321207420961
 20
-139.1348320507198
 10
104.5321207420961
 20
-139.0120143966706
 10
104.5321207420961
 20
-138.8766221441003
 10
104.4453043358678
 20
-138.7815375087074
 10
104.2823513194155
 20
-138.7815375087074
 97
        0
 97
        1
330
14D
 92
        1
 93
        1
 72
     4
 94
        3
 73
     0
 74
     0
 95
       17
 96
       13
 40
0.0
 40
0.0
 40
0.0
 40
0.0
 40
1.0
 40
1.0
 40
1.0
 40
2.0
 40
2.0
 40
2.0
 40
3.0
 40
3.0
 40
3.0
 40
4.0
 40
4.0
 40
4.0
 40
4.0
 10
104.2823513194155
 20
-139.4416178036813
 10
104.1386908376806
 20
-139.4416178036813
 10
103.986073107684
 20
-139.5282619551353
 10
103.986073107684
 20
-139.7313503339908
 10
103.986073107684
 20
-139.9365057701374
 10
104.1131971310897
 20
-140.0381360869523
 10
104.2823513194155
 20
-140.0381360869523
 10
104.468386475619
 20
-140.0381360869523
 10
104.578629531147
 20
-139.9154906876774
 10
104.578629531147
 20
-139.7377237606385
 10
104.578629531147
 20
-139.5155151018398
 10
104.4156765146947
 20
-139.4416178036813
 10
104.2823513194155
 20
-139.4416178036813
 97
        0
 97
        1
330
14E
 92
        1
 93
        1
 72
     4
 94
        3
 73
     0
 74
     0
 95
       29
 96
       25
 40
0.0
 40
0.0
 40
0.0
 40
0.0
 40
1.0
 40
1.0
 40
1.0
 40
2.0
 40
2.0
 40
2.0
 40
3.0
 40
3.0
 40
3.0
 40
4.0
 40
4.0
 40
4.0
 40
5.0
 40
5.0
 40
5.0
 40
6.0
 40
6.0
 40
6.0
 40
7.0
 40
7.0
 40
7.0
 40
8.0
 40
8.0
 40
8.0
 40
8.0
 10
104.2823513194155
 20
-140.2327839818689
 10
104.0157009288572
 20
-140.2327839818689
 10
103.7617973915943
 20
-140.0951524172331
 10
103.7617973915943
 20
-139.7461642445773
 10
103.7617973915943
 20
-139.4901936500233
 10
103.9037353255865
 20
-139.3949367598561
 10
104.0094997569837
 20
-139.3336140602187
 10
103.8847873004177
 20
-139.2743584178724
 10
103.8086506901936
 20
-139.1601535025363
 10
103.8086506901936
 20
-138.9994397981494
 10
103.8086506901936
 20
-138.7243489236522
 10
104.0074326996926
 20
-138.5889566710819
 10
104.2823513194155
 20
-138.5889566710819
 10
104.5658826778516
 20
-138.5889566710819
 10
104.7563964581859
 20
-138.7327894075911
 10
104.7563964581859
 20
-138.9994397981494
 10
104.7563964581859
 20
-139.1601535025363
 10
104.6778482811222
 20
-139.2743584178724
 10
104.5531358245561
 20
-139.3336140602187
 10
104.6420192880756
 20
-139.3844292186261
 10
104.8008381899456
 20
-139.4796861087933
 10
104.8008381899456
 20
-139.7418578752208
 10
104.8008381899456
 20
-140.1163397544674
 10
104.5214409460919
 20
-140.2327839818689
 10
104.2823513194155
 20
-140.2327839818689
 97
        0
 97
        1
330
14F
 75
     2
 76
     1
 98
        1
 10
0.0
 20
0.0
450
        0
451
        0
460
0.0
461
0.0
452
        0
462
0.0
453
        0
470

  0
ENDBLK
  5
14C
330
149
100
AcDbEntity
  8
0
100
AcDbBlockEnd
  0
BLOCK
  5
154
330
152
100
AcDbEntity
  8
0
100
AcDbBlockBegin
  2
Block_12
 70
     0
 10
0.0
 20
0.0
 30
0.0
  3
Block_12
  1

  0
SPLINE
  5
156
330
152
100
AcDbEntity
  8
レイヤー 1
100
AcDbSpline
210
0.0
220
0.0
230
1.0
 70
    11
 71
     3
 72
    26
 73
    22
 74
     0
 42
0.0000000001
 43
0.0000000001
 40
0.0
 40
0.0
 40
0.0
 40
0.0
 40
1.0
 40
1.0
 40
1.0
 40
2.0
 40
2.0
 40
2.0
 40
3.0
 40
3.0
 40
3.0
 40
4.0
 40
4.0
 40
4.0
 40
5.0
 40
5.0
 40
5.0
 40
6.0
 40
6.0
 40
6.0
 40
7.0
 40
7.0
 40
7.0
 40
7.0
 10
111.9928195249532
 20
-149.8881808436043
 30
0.0
 10
111.9928195249532
 20
-149.8881808436043
 30
0.0
 10
111.9928195249532
 20
-148.7838554858075
 30
0.0
 10
111.9928195249532
 20
-148.7838554858075
 30
0.0
 10
111.9928195249532
 20
-148.7838554858075
 30
0.0
 10
111.6627793774662
 20
-148.7838554858075
 30
0.0
 10
111.6627793774662
 20
-148.7838554858075
 30
0.0
 10
111.6627793774662
 20
-148.7838554858075
 30
0.0
 10
111.6627793774662
 20
-148.6357163799418
 30
0.0
 10
111.6627793774662
 20
-148.6357163799418
 30
0.0
 10
111.9948865822443
 20
-148.6210747241294
 30
0.0
 10
112.0413953712952
 20
-148.4581217076771
 30
0.0
 10
112.0710231924683
 20
-148.3439167923411
 30
0.0
 10
112.0710231924683
 20
-148.3439167923411
 30
0.0
 10
112.2170952410429
 20
-148.3439167923411
 30
0.0
 10
112.2170952410429
 20
-148.3439167923411
 30
0.0
 10
112.2170952410429
 20
-148.3439167923411
 30
0.0
 10
112.2170952410429
 20
-149.8881808436043
 30
0.0
 10
112.2170952410429
 20
-149.8881808436043
 30
0.0
 10
112.2170952410429
 20
-149.8881808436043
 30
0.0
 10
111.9928195249532
 20
-149.8881808436043
 30
0.0
 10
111.9928195249532
 20
-149.8881808436043
 30
0.0
  0
HATCH
  5
157
330
152
100
AcDbEntity
  8
レイヤー 1
 62
   250
420
  2299925
440
 33554687
100
AcDbHatch
 10
0.0
 20
0.0
 30
0.0
210
0.0
220
0.0
230
1.0
  2
SOLID
 70
     1
 71
     1
 91
        1
 92
        1
 93
        1
 72
     4
 94
        3
 73
     0
 74
     0
 95
       26
 96
       22
 40
0.0
 40
0.0
 40
0.0
 40
0.0
 40
1.0
 40
1.0
 40
1.0
 40
2.0
 40
2.0
 40
2.0
 40
3.0
 40
3.0
 40
3.0
 40
4.0
 40
4.0
 40
4.0
 40
5.0
 40
5.0
 40
5.0
 40
6.0
 40
6.0
 40
6.0
 40
7.0
 40
7.0
 40
7.0
 40
7.0
 10
111.9928195249532
 20
-149.8881808436043
 10
111.9928195249532
 20
-149.8881808436043
 10
111.9928195249532
 20
-148.7838554858075
 10
111.9928195249532
 20
-148.7838554858075
 10
111.9928195249532
 20
-148.7838554858075
 10
111.6627793774662
 20
-148.7838554858075
 10
111.6627793774662
 20
-148.7838554858075
 10
111.6627793774662
 20
-148.7838554858075
 10
111.6627793774662
 20
-148.6357163799418
 10
111.6627793774662
 20
-148.6357163799418
 10
111.9948865822443
 20
-148.6210747241294
 10
112.0413953712952
 20
-148.4581217076771
 10
112.0710231924683
 20
-148.3439167923411
 10
112.0710231924683
 20
-148.3439167923411
 10
112.2170952410429
 20
-148.3439167923411
 10
112.2170952410429
 20
-148.3439167923411
 10
112.2170952410429
 20
-148.3439167923411
 10
112.2170952410429
 20
-149.8881808436043
 10
112.2170952410429
 20
-149.8881808436043
 10
112.2170952410429
 20
-149.8881808436043
 10
111.9928195249532
 20
-149.8881808436043
 10
111.9928195249532
 20
-149.8881808436043
 97
        0
 97
        1
330
156
 75
     2
 76
     1
 98
        1
 10
0.0
 20
0.0
450
        0
451
        0
460
0.0
461
0.0
452
        0
462
0.0
453
        0
470

  0
ENDBLK
  5
155
330
152
100
AcDbEntity
  8
0
100
AcDbBlockEnd
  0
BLOCK
  5
15F
330
15D
100
AcDbEntity
  8
0
100
AcDbBlockBegin
  2
Block_13
 70
     0
 10
0.0
 20
0.0
 30
0.0
  3
Block_13
  1

  0
INSERT
  5
162
330
15D
100
AcDbEntity
  8
レイヤー 1
100
AcDbBlockReference
  2
Block_14
 10
0.0
 20
0.0
 30
0.0
  0
ENDBLK
  5
160
330
15D
100
AcDbEntity
  8
0
100
AcDbBlockEnd
  0
BLOCK
  5
163
330
161
100
AcDbEntity
  8
0
100
AcDbBlockBegin
  2
Block_14
 70
     0
 10
0.0
 20
0.0
 30
0.0
  3
Block_14
  1

  0
SPLINE
  5
165
330
161
100
AcDbEntity
  8
レイヤー 1
100
AcDbSpline
210
0.0
220
0.0
230
1.0
 70
    11
 71
     3
 72
    26
 73
    22
 74
     0
 42
0.0000000001
 43
0.0000000001
 40
0.0
 40
0.0
 40
0.0
 40
0.0
 40
1.0
 40
1.0
 40
1.0
 40
2.0
 40
2.0
 40
2.0
 40
3.0
 40
3.0
 40
3.0
 40
4.0
 40
4.0
 40
4.0
 40
5.0
 40
5.0
 40
5.0
 40
6.0
 40
6.0
 40
6.0
 40
7.0
 40
7.0
 40
7.0
 40
7.0
 10
103.8234646007802
 20
-157.5576524128675
 30
0.0
 10
103.8234646007802
 20
-157.5576524128675
 30
0.0
 10
103.8234646007802
 20
-156.4534993098449
 30
0.0
 10
103.8234646007802
 20
-156.4534993098449
 30
0.0
 10
103.8234646007802
 20
-156.4534993098449
 30
0.0
 10
103.4934244532933
 20
-156.4534993098449
 30
0.0
 10
103.4934244532933
 20
-156.4534993098449
 30
0.0
 10
103.4934244532933
 20
-156.4534993098449
 30
0.0
 10
103.4934244532933
 20
-156.3053602039792
 30
0.0
 10
103.4934244532933
 20
-156.3053602039792
 30
0.0
 10
103.8255316580714
 20
-156.2905462933926
 30
0.0
 10
103.8720404471223
 20
-156.1275932769403
 30
0.0
 10
103.9016682682954
 20
-156.01321610683
 30
0.0
 10
103.9016682682954
 20
-156.01321610683
 30
0.0
 10
104.04774031687
 20
-156.01321610683
 30
0.0
 10
104.04774031687
 20
-156.01321610683
 30
0.0
 10
104.04774031687
 20
-156.01321610683
 30
0.0
 10
104.04774031687
 20
-157.5576524128675
 30
0.0
 10
104.04774031687
 20
-157.5576524128675
 30
0.0
 10
104.04774031687
 20
-157.5576524128675
 30
0.0
 10
103.8234646007802
 20
-157.5576524128675
 30
0.0
 10
103.8234646007802
 20
-157.5576524128675
 30
0.0
  0
HATCH
  5
166
330
161
100
AcDbEntity
  8
レイヤー 1
 62
   250
420
  2299925
440
 33554687
100
AcDbHatch
 10
0.0
 20
0.0
 30
0.0
210
0.0
220
0.0
230
1.0
  2
SOLID
 70
     1
 71
     1
 91
        1
 92
        1
 93
        1
 72
     4
 94
        3
 73
     0
 74
     0
 95
       26
 96
       22
 40
0.0
 40
0.0
 40
0.0
 40
0.0
 40
1.0
 40
1.0
 40
1.0
 40
2.0
 40
2.0
 40
2.0
 40
3.0
 40
3.0
 40
3.0
 40
4.0
 40
4.0
 40
4.0
 40
5.0
 40
5.0
 40
5.0
 40
6.0
 40
6.0
 40
6.0
 40
7.0
 40
7.0
 40
7.0
 40
7.0
 10
103.8234646007802
 20
-157.5576524128675
 10
103.8234646007802
 20
-157.5576524128675
 10
103.8234646007802
 20
-156.4534993098449
 10
103.8234646007802
 20
-156.4534993098449
 10
103.8234646007802
 20
-156.4534993098449
 10
103.4934244532933
 20
-156.4534993098449
 10
103.4934244532933
 20
-156.4534993098449
 10
103.4934244532933
 20
-156.4534993098449
 10
103.4934244532933
 20
-156.3053602039792
 10
103.4934244532933
 20
-156.3053602039792
 10
103.8255316580714
 20
-156.2905462933926
 10
103.8720404471223
 20
-156.1275932769403
 10
103.9016682682954
 20
-156.01321610683
 10
103.9016682682954
 20
-156.01321610683
 10
104.04774031687
 20
-156.01321610683
 10
104.04774031687
 20
-156.01321610683
 10
104.04774031687
 20
-156.01321610683
 10
104.04774031687
 20
-157.5576524128675
 10
104.04774031687
 20
-157.5576524128675
 10
104.04774031687
 20
-157.5576524128675
 10
103.8234646007802
 20
-157.5576524128675
 10
103.8234646007802
 20
-157.5576524128675
 97
        0
 97
        1
330
165
 75
     2
 76
     1
 98
        1
 10
0.0
 20
0.0
450
        0
451
        0
460
0.0
461
0.0
452
        0
462
0.0
453
        0
470

  0
SPLINE
  5
167
330
161
100
AcDbEntity
  8
レイヤー 1
100
AcDbSpline
210
0.0
220
0.0
230
1.0
 70
     9
 71
     3
 72
    17
 73
    13
 74
     0
 42
0.0000000001
 43
0.0000000001
 40
0.0
 40
0.0
 40
0.0
 40
0.0
 40
1.0
 40
1.0
 40
1.0
 40
2.0
 40
2.0
 40
2.0
 40
3.0
 40
3.0
 40
3.0
 40
4.0
 40
4.0
 40
4.0
 40
4.0
 10
105.0488850648836
 20
-156.1572210981134
 30
0.0
 10
104.799115642203
 20
-156.1572210981134
 30
0.0
 10
104.7526068531521
 20
-156.4407524565495
 30
0.0
 10
104.7526068531521
 20
-156.785606514623
 30
0.0
 10
104.7526068531521
 20
-157.1049668661057
 30
0.0
 10
104.7887803557472
 20
-157.4136474215841
 30
0.0
 10
105.0488850648836
 20
-157.4136474215841
 30
0.0
 10
105.2965874302731
 20
-157.4136474215841
 30
0.0
 10
105.3451632766151
 20
-157.1325276299877
 30
0.0
 10
105.3451632766151
 20
-156.785606514623
 30
0.0
 10
105.3451632766151
 20
-156.4659016535918
 30
0.0
 10
105.3069227167288
 20
-156.1572210981134
 30
0.0
 10
105.0488850648836
 20
-156.1572210981134
 30
0.0
  0
SPLINE
  5
168
330
161
100
AcDbEntity
  8
レイヤー 1
100
AcDbSpline
210
0.0
220
0.0
230
1.0
 70
     9
 71
     3
 72
    29
 73
    25
 74
     0
 42
0.0000000001
 43
0.0000000001
 40
0.0
 40
0.0
 40
0.0
 40
0.0
 40
1.0
 40
1.0
 40
1.0
 40
2.0
 40
2.0
 40
2.0
 40
3.0
 40
3.0
 40
3.0
 40
4.0
 40
4.0
 40
4.0
 40
5.0
 40
5.0
 40
5.0
 40
6.0
 40
6.0
 40
6.0
 40
7.0
 40
7.0
 40
7.0
 40
8.0
 40
8.0
 40
8.0
 40
8.0
 10
105.4467935934299
 20
-157.3798854858286
 30
0.0
 10
105.3386175951931
 20
-157.5893472913318
 30
0.0
 10
105.165329292285
 20
-157.6082953165007
 30
0.0
 10
105.0488850648836
 20
-157.6082953165007
 30
0.0
 10
104.8879991057224
 20
-157.6082953165007
 30
0.0
 10
104.7464056812787
 20
-157.5617865274498
 30
0.0
 10
104.6513210458858
 20
-157.3798854858286
 30
0.0
 10
104.5476236717797
 20
-157.185237590912
 30
0.0
 10
104.5283311370623
 20
-156.9482150215268
 30
0.0
 10
104.5283311370623
 20
-156.785606514623
 30
0.0
 10
104.5283311370623
 20
-156.6416015233396
 30
0.0
 10
104.5455566144886
 20
-156.3897650433678
 30
0.0
 10
104.6513210458858
 20
-156.1909830338689
 30
0.0
 10
104.7591525345741
 20
-155.9880669097877
 30
0.0
 10
104.9200384937353
 20
-155.964640260488
 30
0.0
 10
105.0488850648836
 20
-155.964640260488
 30
0.0
 10
105.2077039667536
 20
-155.964640260488
 30
0.0
 10
105.3513644484885
 20
-156.0090819922477
 30
0.0
 10
105.4467935934299
 20
-156.1909830338689
 30
0.0
 10
105.5460123434051
 20
-156.3835638714944
 30
0.0
 10
105.5694389927048
 20
-156.6119737021664
 30
0.0
 10
105.5694389927048
 20
-156.785606514623
 30
0.0
 10
105.5694389927048
 20
-156.95682776024
 30
0.0
 10
105.5480794006963
 20
-157.1873046482031
 30
0.0
 10
105.4467935934299
 20
-157.3798854858286
 30
0.0
  0
HATCH
  5
169
330
161
100
AcDbEntity
  8
レイヤー 1
 62
   250
420
  2299925
440
 33554687
100
AcDbHatch
 10
0.0
 20
0.0
 30
0.0
210
0.0
220
0.0
230
1.0
  2
SOLID
 70
     1
 71
     1
 91
        2
 92
        1
 93
        1
 72
     4
 94
        3
 73
     0
 74
     0
 95
       17
 96
       13
 40
0.0
 40
0.0
 40
0.0
 40
0.0
 40
1.0
 40
1.0
 40
1.0
 40
2.0
 40
2.0
 40
2.0
 40
3.0
 40
3.0
 40
3.0
 40
4.0
 40
4.0
 40
4.0
 40
4.0
 10
105.0488850648836
 20
-156.1572210981134
 10
104.799115642203
 20
-156.1572210981134
 10
104.7526068531521
 20
-156.4407524565495
 10
104.7526068531521
 20
-156.785606514623
 10
104.7526068531521
 20
-157.1049668661057
 10
104.7887803557472
 20
-157.4136474215841
 10
105.0488850648836
 20
-157.4136474215841
 10
105.2965874302731
 20
-157.4136474215841
 10
105.3451632766151
 20
-157.1325276299877
 10
105.3451632766151
 20
-156.785606514623
 10
105.3451632766151
 20
-156.4659016535918
 10
105.3069227167288
 20
-156.1572210981134
 10
105.0488850648836
 20
-156.1572210981134
 97
        0
 97
        1
330
167
 92
        1
 93
        1
 72
     4
 94
        3
 73
     0
 74
     0
 95
       29
 96
       25
 40
0.0
 40
0.0
 40
0.0
 40
0.0
 40
1.0
 40
1.0
 40
1.0
 40
2.0
 40
2.0
 40
2.0
 40
3.0
 40
3.0
 40
3.0
 40
4.0
 40
4.0
 40
4.0
 40
5.0
 40
5.0
 40
5.0
 40
6.0
 40
6.0
 40
6.0
 40
7.0
 40
7.0
 40
7.0
 40
8.0
 40
8.0
 40
8.0
 40
8.0
 10
105.4467935934299
 20
-157.3798854858286
 10
105.3386175951931
 20
-157.5893472913318
 10
105.165329292285
 20
-157.6082953165007
 10
105.0488850648836
 20
-157.6082953165007
 10
104.8879991057224
 20
-157.6082953165007
 10
104.7464056812787
 20
-157.5617865274498
 10
104.6513210458858
 20
-157.3798854858286
 10
104.5476236717797
 20
-157.185237590912
 10
104.5283311370623
 20
-156.9482150215268
 10
104.5283311370623
 20
-156.785606514623
 10
104.5283311370623
 20
-156.6416015233396
 10
104.5455566144886
 20
-156.3897650433678
 10
104.6513210458858
 20
-156.1909830338689
 10
104.7591525345741
 20
-155.9880669097877
 10
104.9200384937353
 20
-155.964640260488
 10
105.0488850648836
 20
-155.964640260488
 10
105.2077039667536
 20
-155.964640260488
 10
105.3513644484885
 20
-156.0090819922477
 10
105.4467935934299
 20
-156.1909830338689
 10
105.5460123434051
 20
-156.3835638714944
 10
105.5694389927048
 20
-156.6119737021664
 10
105.5694389927048
 20
-156.785606514623
 10
105.5694389927048
 20
-156.95682776024
 10
105.5480794006963
 20
-157.1873046482031
 10
105.4467935934299
 20
-157.3798854858286
 97
        0
 97
        1
330
168
 75
     2
 76
     1
 98
        1
 10
0.0
 20
0.0
450
        0
451
        0
460
0.0
461
0.0
452
        0
462
0.0
453
        0
470

  0
ENDBLK
  5
164
330
161
100
AcDbEntity
  8
0
100
AcDbBlockEnd
  0
ENDSEC
  0
SECTION
  2
ENTITIES
  0
INSERT
  5
7A
330
70
100
AcDbEntity
  8
レイヤー 1
100
AcDbBlockReference
  2
Block_0
 10
0.0
 20
0.0
 30
0.0
  0
ENDSEC
  0
SECTION
  2
OBJECTS
  0
DICTIONARY
  5
C
330
0
100
AcDbDictionary
281
     1
  3
ACAD_COLOR
350
63
  3
ACAD_DETAILVIEWSTYLE
350
6A
  3
ACAD_GROUP
350
D
  3
ACAD_LAYOUT
350
62
  3
ACAD_MATERIAL
350
10
  3
ACAD_MLEADERSTYLE
350
66
  3
ACAD_MLINESTYLE
350
5F
  3
ACAD_PLOTSETTINGS
350
61
  3
ACAD_PLOTSTYLENAME
350
E
  3
ACAD_SCALELIST
350
42
  3
ACAD_SECTIONVIEWSTYLE
350
68
  3
ACAD_TABLESTYLE
350
64
  3
ACAD_VISUALSTYLE
350
29
  3
ACDB_RECOMPOSE_DATA
350
172
  3
AcDbVariableDictionary
350
16A
  0
DICTIONARY
  5
63
102
{ACAD_REACTORS
330
C
102
}
330
C
100
AcDbDictionary
281
     1
  0
DICTIONARY
  5
6A
102
{ACAD_REACTORS
330
C
102
}
330
C
100
AcDbDictionary
281
     1
  3
Imperial24
350
6B
  0
DICTIONARY
  5
D
102
{ACAD_REACTORS
330
C
102
}
330
C
100
AcDbDictionary
281
     1
  0
DICTIONARY
  5
62
102
{ACAD_REACTORS
330
C
102
}
330
C
100
AcDbDictionary
281
     1
  3
Layout1
350
6F
  3
Layout2
350
77
  3
Model
350
73
  0
DICTIONARY
  5
10
102
{ACAD_REACTORS
330
C
102
}
330
C
100
AcDbDictionary
281
     1
  3
ByBlock
350
19
  3
ByLayer
350
11
  3
Global
350
21
  0
DICTIONARY
  5
66
102
{ACAD_REACTORS
330
C
102
}
330
C
100
AcDbDictionary
281
     1
  3
Standard
350
67
  0
DICTIONARY
  5
5F
102
{ACAD_REACTORS
330
C
102
}
330
C
100
AcDbDictionary
281
     1
  3
Standard
350
60
  0
DICTIONARY
  5
61
102
{ACAD_REACTORS
330
C
102
}
330
C
100
AcDbDictionary
281
     1
  0
ACDBDICTIONARYWDFLT
  5
E
102
{ACAD_REACTORS
330
C
102
}
330
C
100
AcDbDictionary
281
     1
  3
Normal
350
F
100
AcDbDictionaryWithDefault
340
F
  0
DICTIONARY
  5
42
102
{ACAD_REACTORS
330
C
102
}
330
C
100
AcDbDictionary
281
     1
  3
A0
350
43
  3
A1
350
44
  3
A2
350
45
  3
A3
350
46
  3
A4
350
47
  3
A5
350
48
  3
A6
350
49
  3
A7
350
4A
  3
A8
350
4B
  3
A9
350
4C
  3
B0
350
4D
  3
B1
350
4E
  3
B2
350
4F
  3
B3
350
50
  3
B4
350
51
  3
B5
350
52
  3
B6
350
53
  0
DICTIONARY
  5
68
102
{ACAD_REACTORS
330
C
102
}
330
C
100
AcDbDictionary
281
     1
  3
Imperial24
350
69
  0
DICTIONARY
  5
64
102
{ACAD_REACTORS
330
C
102
}
330
C
100
AcDbDictionary
281
     1
  3
Standard
350
65
  0
DICTIONARY
  5
29
102
{ACAD_REACTORS
330
C
102
}
330
C
100
AcDbDictionary
281
     1
  3
2dWireframe
350
2F
  3
Basic
350
2E
  3
Brighten
350
35
  3
ColorChange
350
39
  3
Conceptual
350
32
  3
Dim
350
34
  3
EdgeColorOff
350
41
  3
Facepattern
350
38
  3
Flat
350
2A
  3
FlatWithEdges
350
2B
  3
Gouraud
350
2C
  3
GouraudWithEdges
350
2D
  3
Hidden
350
31
  3
JitterOff
350
3F
  3
Linepattern
350
37
  3
OverhangOff
350
40
  3
Realistic
350
33
  3
Shaded
350
3E
  3
Shaded with edges
350
3D
  3
Shades of Gray
350
3A
  3
Sketchy
350
3B
  3
Thicken
350
36
  3
Wireframe
350
30
  3
X-Ray
350
3C
  0
XRECORD
  5
172
102
{ACAD_REACTORS
330
C
102
}
330
C
100
AcDbXrecord
280
     1
 90
        1
330
65
  0
DICTIONARY
  5
16A
102
{ACAD_REACTORS
330
C
102
}
330
C
100
AcDbDictionary
281
     1
  3
CANNOSCALE
350
16F
  3
CMLEADERSTYLE
350
16C
  3
CTABLESTYLE
350
16B
  3
CVIEWDETAILSTYLE
350
16D
  3
CVIEWSECTIONSTYLE
350
16E
  0
ACDBDETAILVIEWSTYLE
  5
6B
102
{ACAD_XDICTIONARY
360
1A7
102
}
102
{ACAD_REACTORS
330
6A
102
}
330
6A
100
AcDbModelDocViewStyle
 70
     0
  3
Imperial24
290
     0
100
AcDbDetailViewStyle
 70
     0
 71
     0
 90
        3
 71
     1
340
55
 62
   256
 40
0.24
340
0
 62
   256
 40
0.24
300

 40
0.36
280
     3
 71
     2
340
5D
 90
       25
 62
   256
 71
     3
340
55
 62
   256
 40
0.24
 90
        1
 40
0.75
 90
        1
300
%<\AcVar ViewType \f "%tc1">% %<\AcVar ViewDetailId>%\PSCALE %<\AcVar ViewScale \f "%sn">%
 71
     4
340
5D
 90
       25
 62
   256
340
5D
 90
       25
 62
   256
280
     0
  0
LAYOUT
  5
6F
102
{ACAD_REACTORS
330
62
102
}
330
62
100
AcDbPlotSettings
  1

  2

  4

  6

 40
0.0
 41
0.0
 42
0.0
 43
0.0
 44
0.0
 45
0.0
 46
0.0
 47
0.0
 48
0.0
 49
0.0
140
0.0
141
0.0
142
1.0
143
1.0
 70
   688
 72
     0
 73
     0
 74
     5
  7

 75
    16
147
1.0
 76
     0
 77
     2
 78
   300
148
0.0
149
0.0
100
AcDbLayout
  1
Layout1
 70
     1
 71
     1
 10
0.0
 20
0.0
 11
12.0
 21
9.0
 12
0.0
 22
0.0
 32
0.0
 14
0.0
 24
0.0
 34
0.0
 15
0.0
 25
0.0
 35
0.0
146
0.0
 13
0.0
 23
0.0
 33
0.0
 16
1.0
 26
0.0
 36
0.0
 17
0.0
 27
1.0
 37
0.0
 76
     0
330
6C
  0
LAYOUT
  5
77
102
{ACAD_REACTORS
330
62
102
}
330
62
100
AcDbPlotSettings
  1

  2

  4

  6

 40
0.0
 41
0.0
 42
0.0
 43
0.0
 44
0.0
 45
0.0
 46
0.0
 47
0.0
 48
0.0
 49
0.0
140
0.0
141
0.0
142
1.0
143
1.0
 70
   688
 72
     0
 73
     0
 74
     5
  7

 75
    16
147
1.0
 76
     0
 77
     2
 78
   300
148
0.0
149
0.0
100
AcDbLayout
  1
Layout2
 70
     1
 71
     2
 10
0.0
 20
0.0
 11
12.0
 21
9.0
 12
0.0
 22
0.0
 32
0.0
 14
0.0
 24
0.0
 34
0.0
 15
0.0
 25
0.0
 35
0.0
146
0.0
 13
0.0
 23
0.0
 33
0.0
 16
1.0
 26
0.0
 36
0.0
 17
0.0
 27
1.0
 37
0.0
 76
     0
330
74
  0
LAYOUT
  5
73
102
{ACAD_REACTORS
330
62
102
}
330
62
100
AcDbPlotSettings
  1

  2

  4

  6

 40
0.0
 41
0.0
 42
0.0
 43
0.0
 44
0.0
 45
0.0
 46
0.0
 47
0.0
 48
0.0
 49
0.0
140
0.0
141
0.0
142
1.0
143
1.0
 70
  1712
 72
     0
 73
     0
 74
     0
  7

 75
     0
147
1.0
 76
     0
 77
     2
 78
   300
148
0.0
149
0.0
100
AcDbLayout
  1
Model
 70
     1
 71
     0
 10
0.0
 20
0.0
 11
12.0
 21
9.0
 12
0.0
 22
0.0
 32
0.0
 14
0.0
 24
0.0
 34
0.0
 15
0.0
 25
0.0
 35
0.0
146
0.0
 13
0.0
 23
0.0
 33
0.0
 16
1.0
 26
0.0
 36
0.0
 17
0.0
 27
1.0
 37
0.0
 76
     0
330
70
  0
MATERIAL
  5
19
102
{ACAD_XDICTIONARY
360
1A
102
}
102
{ACAD_REACTORS
330
10
102
}
330
10
100
AcDbMaterial
  1
ByBlock
 72
     0
 43
0.0208333333333333
 43
0.0
 43
0.0
 43
0.0
 43
0.0
 43
0.0208333333333333
 43
0.0
 43
0.0
 43
0.0
 43
0.0
 43
1.0
 43
0.0
 43
0.0
 43
0.0
 43
0.0
 43
1.0
 77
     0
 47
0.0208333333333333
 47
0.0
 47
0.0
 47
0.0
 47
0.0
 47
0.0208333333333333
 47
0.0
 47
0.0
 47
0.0
 47
0.0
 47
1.0
 47
0.0
 47
0.0
 47
0.0
 47
0.0
 47
1.0
171
     0
 49
0.0208333333333333
 49
0.0
 49
0.0
 49
0.0
 49
0.0
 49
0.0208333333333333
 49
0.0
 49
0.0
 49
0.0
 49
0.0
 49
1.0
 49
0.0
 49
0.0
 49
0.0
 49
0.0
 49
1.0
175
     0
142
0.0208333333333333
142
0.0
142
0.0
142
0.0
142
0.0
142
0.0208333333333333
142
0.0
142
0.0
142
0.0
142
0.0
142
1.0
142
0.0
142
0.0
142
0.0
142
0.0
142
1.0
179
     0
144
0.0208333333333333
144
0.0
144
0.0
144
0.0
144
0.0
144
0.0208333333333333
144
0.0
144
0.0
144
0.0
144
0.0
144
1.0
144
0.0
144
0.0
144
0.0
144
0.0
144
1.0
147
0.0208333333333333
147
0.0
147
0.0
147
0.0
147
0.0
147
0.0208333333333333
147
0.0
147
0.0
147
0.0
147
0.0
147
1.0
147
0.0
147
0.0
147
0.0
147
0.0
147
1.0
  0
MATERIAL
  5
11
102
{ACAD_XDICTIONARY
360
12
102
}
102
{ACAD_REACTORS
330
10
102
}
330
10
100
AcDbMaterial
  1
ByLayer
 72
     0
 43
0.0208333333333333
 43
0.0
 43
0.0
 43
0.0
 43
0.0
 43
0.0208333333333333
 43
0.0
 43
0.0
 43
0.0
 43
0.0
 43
1.0
 43
0.0
 43
0.0
 43
0.0
 43
0.0
 43
1.0
 77
     0
 47
0.0208333333333333
 47
0.0
 47
0.0
 47
0.0
 47
0.0
 47
0.0208333333333333
 47
0.0
 47
0.0
 47
0.0
 47
0.0
 47
1.0
 47
0.0
 47
0.0
 47
0.0
 47
0.0
 47
1.0
171
     0
 49
0.0208333333333333
 49
0.0
 49
0.0
 49
0.0
 49
0.0
 49
0.0208333333333333
 49
0.0
 49
0.0
 49
0.0
 49
0.0
 49
1.0
 49
0.0
 49
0.0
 49
0.0
 49
0.0
 49
1.0
175
     0
142
0.0208333333333333
142
0.0
142
0.0
142
0.0
142
0.0
142
0.0208333333333333
142
0.0
142
0.0
142
0.0
142
0.0
142
1.0
142
0.0
142
0.0
142
0.0
142
0.0
142
1.0
179
     0
144
0.0208333333333333
144
0.0
144
0.0
144
0.0
144
0.0
144
0.0208333333333333
144
0.0
144
0.0
144
0.0
144
0.0
144
1.0
144
0.0
144
0.0
144
0.0
144
0.0
144
1.0
147
0.0208333333333333
147
0.0
147
0.0
147
0.0
147
0.0
147
0.0208333333333333
147
0.0
147
0.0
147
0.0
147
0.0
147
1.0
147
0.0
147
0.0
147
0.0
147
0.0
147
1.0
  0
MATERIAL
  5
21
102
{ACAD_XDICTIONARY
360
22
102
}
102
{ACAD_REACTORS
330
10
102
}
330
10
100
AcDbMaterial
  1
Global
 72
     0
 43
0.0208333333333333
 43
0.0
 43
0.0
 43
0.0
 43
0.0
 43
0.0208333333333333
 43
0.0
 43
0.0
 43
0.0
 43
0.0
 43
1.0
 43
0.0
 43
0.0
 43
0.0
 43
0.0
 43
1.0
 77
     0
 47
0.0208333333333333
 47
0.0
 47
0.0
 47
0.0
 47
0.0
 47
0.0208333333333333
 47
0.0
 47
0.0
 47
0.0
 47
0.0
 47
1.0
 47
0.0
 47
0.0
 47
0.0
 47
0.0
 47
1.0
171
     0
 49
0.0208333333333333
 49
0.0
 49
0.0
 49
0.0
 49
0.0
 49
0.0208333333333333
 49
0.0
 49
0.0
 49
0.0
 49
0.0
 49
1.0
 49
0.0
 49
0.0
 49
0.0
 49
0.0
 49
1.0
175
     0
142
0.0208333333333333
142
0.0
142
0.0
142
0.0
142
0.0
142
0.0208333333333333
142
0.0
142
0.0
142
0.0
142
0.0
142
1.0
142
0.0
142
0.0
142
0.0
142
0.0
142
1.0
179
     0
144
0.0208333333333333
144
0.0
144
0.0
144
0.0
144
0.0
144
0.0208333333333333
144
0.0
144
0.0
144
0.0
144
0.0
144
1.0
144
0.0
144
0.0
144
0.0
144
0.0
144
1.0
147
0.0208333333333333
147
0.0
147
0.0
147
0.0
147
0.0
147
0.0208333333333333
147
0.0
147
0.0
147
0.0
147
0.0
147
1.0
147
0.0
147
0.0
147
0.0
147
0.0
147
1.0
  0
MLEADERSTYLE
  5
67
102
{ACAD_XDICTIONARY
360
1A3
102
}
102
{ACAD_REACTORS
330
66
102
}
330
66
100
AcDbMLeaderStyle
179
     2
170
     2
171
     1
172
     0
 90
        2
 40
0.0
 41
0.0
173
     1
 91
-1056964608
340
5B
 92
       -2
290
     1
 42
0.09
291
     1
 43
0.36
  3
Standard
 44
0.18
300

342
55
174
     1
178
     6
175
     1
176
     0
 93
-1056964608
 45
0.18
292
     0
297
     0
 46
0.18
 94
-1056964608
 47
1.0
 49
1.0
140
1.0
293
     1
141
0.0
294
     1
177
     0
142
1.0
295
     0
296
     0
143
0.125
271
     0
272
     9
273
     9
  0
MLINESTYLE
  5
60
102
{ACAD_REACTORS
330
5F
102
}
330
5F
100
AcDbMlineStyle
  2
STANDARD
 70
     0
  3

 62
   256
 51
90.0
 52
90.0
 71
     2
 49
0.5
 62
   256
  6
BYLAYER
 49
-0.5
 62
   256
  6
BYLAYER
  0
ACDBPLACEHOLDER
  5
F
102
{ACAD_REACTORS
330
E
102
}
330
E
  0
SCALE
  5
43
102
{ACAD_REACTORS
330
42
102
}
330
42
100
AcDbScale
 70
     0
300
1:1
140
1.0
141
1.0
290
     1
  0
SCALE
  5
44
102
{ACAD_REACTORS
330
42
102
}
330
42
100
AcDbScale
 70
     0
300
1/128" = 1'-0"
140
0.0078125
141
12.0
290
     0
  0
SCALE
  5
45
102
{ACAD_REACTORS
330
42
102
}
330
42
100
AcDbScale
 70
     0
300
1/64" = 1'-0"
140
0.015625
141
12.0
290
     0
  0
SCALE
  5
46
102
{ACAD_REACTORS
330
42
102
}
330
42
100
AcDbScale
 70
     0
300
1/32" = 1'-0"
140
0.03125
141
12.0
290
     0
  0
SCALE
  5
47
102
{ACAD_REACTORS
330
42
102
}
330
42
100
AcDbScale
 70
     0
300
1/16" = 1'-0"
140
0.0625
141
12.0
290
     0
  0
SCALE
  5
48
102
{ACAD_REACTORS
330
42
102
}
330
42
100
AcDbScale
 70
     0
300
3/32" = 1'-0"
140
0.09375
141
12.0
290
     0
  0
SCALE
  5
49
102
{ACAD_REACTORS
330
42
102
}
330
42
100
AcDbScale
 70
     0
300
1/8" = 1'-0"
140
0.125
141
12.0
290
     0
  0
SCALE
  5
4A
102
{ACAD_REACTORS
330
42
102
}
330
42
100
AcDbScale
 70
     0
300
3/16" = 1'-0"
140
0.1875
141
12.0
290
     0
  0
SCALE
  5
4B
102
{ACAD_REACTORS
330
42
102
}
330
42
100
AcDbScale
 70
     0
300
1/4" = 1'-0"
140
0.25
141
12.0
290
     0
  0
SCALE
  5
4C
102
{ACAD_REACTORS
330
42
102
}
330
42
100
AcDbScale
 70
     0
300
3/8" = 1'-0"
140
0.375
141
12.0
290
     0
  0
SCALE
  5
4D
102
{ACAD_REACTORS
330
42
102
}
330
42
100
AcDbScale
 70
     0
300
1/2" = 1'-0"
140
0.5
141
12.0
290
     0
  0
SCALE
  5
4E
102
{ACAD_REACTORS
330
42
102
}
330
42
100
AcDbScale
 70
     0
300
3/4" = 1'-0"
140
0.75
141
12.0
290
     0
  0
SCALE
  5
4F
102
{ACAD_REACTORS
330
42
102
}
330
42
100
AcDbScale
 70
     0
300
1" = 1'-0"
140
1.0
141
12.0
290
     0
  0
SCALE
  5
50
102
{ACAD_REACTORS
330
42
102
}
330
42
100
AcDbScale
 70
     0
300
1-1/2" = 1'-0"
140
1.5
141
12.0
290
     0
  0
SCALE
  5
51
102
{ACAD_REACTORS
330
42
102
}
330
42
100
AcDbScale
 70
     0
300
3" = 1'-0"
140
3.0
141
12.0
290
     0
  0
SCALE
  5
52
102
{ACAD_REACTORS
330
42
102
}
330
42
100
AcDbScale
 70
     0
300
6" = 1'-0"
140
6.0
141
12.0
290
     0
  0
SCALE
  5
53
102
{ACAD_REACTORS
330
42
102
}
330
42
100
AcDbScale
 70
     0
300
1'-0" = 1'-0"
140
12.0
141
12.0
290
     0
  0
ACDBSECTIONVIEWSTYLE
  5
69
102
{ACAD_XDICTIONARY
360
1A5
102
}
102
{ACAD_REACTORS
330
68
102
}
330
68
100
AcDbModelDocViewStyle
 70
     0
  3
Imperial24
290
     0
100
AcDbSectionViewStyle
 70
     0
 71
     0
 90
       78
 71
     1
340
55
 62
   256
 40
0.24
340
0
340
0
 62
   256
 40
0.24
300
I, O, Q, S, X, Z
 40
0.48
 90
        3
 40
0.18
 90
        1
 71
     2
340
5D
 90
       25
 62
   256
340
5D
 90
       50
 62
   256
 40
0.24
 40
0.0
 40
0.24
 71
     3
340
55
 62
   256
 40
0.24
 90
        1
 40
0.75
 90
        1
300
%<\AcVar ViewType \f "%tc1">% %<\AcVar ViewSectionStartId>%-%<\AcVar ViewSectionEndId>%\PSCALE %<\AcVar ViewScale \f "%sn">%
 71
     4
 62
   256
 62
   257
300
ANSI31
 40
1.0
 90
        0
290
     0
290
     0
 90
        6
 40
0.0
 40
1.570796326794896
 40
0.2617993877991494
 40
1.308996938995747
 40
-0.2617993877991494
 40
1.832595714594046
  0
TABLESTYLE
  5
65
102
{ACAD_XDICTIONARY
360
170
102
}
102
{ACAD_REACTORS
330
64
102
}
330
64
100
AcDbTableStyle
280
     0
  3
Standard
 70
     0
 71
     0
 40
0.06
 41
0.06
280
     0
281
     0
  7
Standard
140
0.18
170
     2
 62
     0
 63
     7
283
     0
 90
      512
 91
        0
  1

274
    -2
284
     1
 64
     0
275
    -2
285
     1
 65
     0
276
    -2
286
     1
 66
     0
277
    -2
287
     1
 67
     0
278
    -2
288
     1
 68
     0
279
    -2
289
     1
 69
     0
  7
Standard
140
0.25
170
     5
 62
     0
 63
     7
283
     0
 90
      512
 91
        0
  1

274
    -2
284
     1
 64
     0
275
    -2
285
     1
 65
     0
276
    -2
286
     1
 66
     0
277
    -2
287
     1
 67
     0
278
    -2
288
     1
 68
     0
279
    -2
289
     1
 69
     0
  7
Standard
140
0.18
170
     5
 62
     0
 63
     7
283
     0
 90
      512
 91
        0
  1

274
    -2
284
     1
 64
     0
275
    -2
285
     1
 65
     0
276
    -2
286
     1
 66
     0
277
    -2
287
     1
 67
     0
278
    -2
288
     1
 68
     0
279
    -2
289
     1
 69
     0
  0
VISUALSTYLE
  5
2F
102
{ACAD_XDICTIONARY
360
17D
102
}
102
{ACAD_REACTORS
330
29
102
}
330
29
100
AcDbVisualStyle
  2
2dWireframe
 70
     4
177
     2
291
     0
 71
     0
176
     1
 72
     2
176
     1
 73
     0
176
     1
 90
        0
176
     1
 40
0.6
176
     1
 41
30.0
176
     1
 63
     7
421
 16777215
176
     1
 74
     1
176
     1
 91
        4
176
     1
 64
     7
176
     1
 65
   257
176
     1
 75
     1
176
     1
175
     1
176
     1
 42
1.0
176
     1
 92
        0
176
     1
 66
   257
176
     1
 43
1.0
176
     1
 76
     1
176
     1
 77
     6
176
     1
 78
     2
176
     1
 67
     7
176
     1
 79
     5
176
     1
170
     0
176
     1
171
     0
176
     1
290
     0
176
     1
 93
        1
176
     1
 44
0.0
176
     1
173
     0
176
     1
1001
ACAD
1000
AcDbSavedByObjectVersion
1070
     0
  0
VISUALSTYLE
  5
2E
102
{ACAD_XDICTIONARY
360
17B
102
}
102
{ACAD_REACTORS
330
29
102
}
330
29
100
AcDbVisualStyle
  2
Basic
 70
     7
177
     2
291
     1
 71
     1
176
     1
 72
     0
176
     1
 73
     1
176
     1
 90
        0
176
     1
 40
0.6
176
     1
 41
30.0
176
     1
 63
     7
421
 16777215
176
     1
 74
     0
176
     1
 91
        4
176
     1
 64
     7
176
     1
 65
   257
176
     1
 75
     1
176
     1
175
     1
176
     1
 42
1.0
176
     1
 92
        8
176
     1
 66
     7
176
     1
 43
1.0
176
     1
 76
     1
176
     1
 77
     6
176
     1
 78
     2
176
     1
 67
     7
176
     1
 79
     5
176
     1
170
     0
176
     1
171
     0
176
     1
290
     0
176
     1
 93
        1
176
     1
 44
0.0
176
     1
173
     0
176
     1
1001
ACAD
1000
AcDbSavedByObjectVersion
1070
     0
  0
VISUALSTYLE
  5
35
102
{ACAD_XDICTIONARY
360
189
102
}
102
{ACAD_REACTORS
330
29
102
}
330
29
100
AcDbVisualStyle
  2
Brighten
 70
    12
177
     2
291
     1
 71
     2
176
     1
 72
     2
176
     1
 73
     0
176
     1
 90
        0
176
     1
 40
0.6
176
     1
 41
30.0
176
     1
 63
     7
421
 16777215
176
     1
 74
     1
176
     1
 91
        4
176
     1
 64
     7
176
     1
 65
   257
176
     1
 75
     1
176
     1
175
     1
176
     1
 42
1.0
176
     1
 92
        8
176
     1
 66
     7
176
     1
 43
1.0
176
     1
 76
     1
176
     1
 77
     6
176
     1
 78
     2
176
     1
 67
     7
176
     1
 79
     5
176
     1
170
     0
176
     1
171
     0
176
     1
290
     0
176
     1
 93
        1
176
     1
 44
50.0
176
     1
173
     0
176
     1
1001
ACAD
1000
AcDbSavedByObjectVersion
1070
     0
  0
VISUALSTYLE
  5
39
102
{ACAD_XDICTIONARY
360
191
102
}
102
{ACAD_REACTORS
330
29
102
}
330
29
100
AcDbVisualStyle
  2
ColorChange
 70
    16
177
     2
291
     1
 71
     2
176
     1
 72
     2
176
     1
 73
     3
176
     1
 90
        0
176
     1
 40
0.6
176
     1
 41
30.0
176
     1
 63
     8
421
  8421504
176
     1
 74
     1
176
     1
 91
        4
176
     1
 64
     7
176
     1
 65
   257
176
     1
 75
     1
176
     1
175
     1
176
     1
 42
1.0
176
     1
 92
        8
176
     1
 66
     8
424
  8421504
176
     1
 43
1.0
176
     1
 76
     1
176
     1
 77
     6
176
     1
 78
     2
176
     1
 67
     7
176
     1
 79
     5
176
     1
170
     0
176
     1
171
     0
176
     1
290
     0
176
     1
 93
        1
176
     1
 44
0.0
176
     1
173
     0
176
     1
1001
ACAD
1000
AcDbSavedByObjectVersion
1070
     0
  0
VISUALSTYLE
  5
32
102
{ACAD_XDICTIONARY
360
183
102
}
102
{ACAD_REACTORS
330
29
102
}
330
29
100
AcDbVisualStyle
  2
Conceptual
 70
     9
177
     2
291
     0
 71
     3
176
     1
 72
     2
176
     1
 73
     0
176
     1
 90
        0
176
     1
 40
0.6
176
     1
 41
30.0
176
     1
 63
     7
421
 16777215
176
     1
 74
     2
176
     1
 91
        2
176
     1
 64
     7
176
     1
 65
   257
176
     1
 75
     1
176
     1
175
     1
176
     1
 42
179.0
176
     1
 92
        8
176
     1
 66
     7
176
     1
 43
1.0
176
     1
 76
     1
176
     1
 77
     6
176
     1
 78
     2
176
     1
 67
     7
176
     1
 79
     3
176
     1
170
     0
176
     1
171
     0
176
     1
290
     0
176
     1
 93
        1
176
     1
 44
0.0
176
     1
173
     0
176
     1
1001
ACAD
1000
AcDbSavedByObjectVersion
1070
     0
  0
VISUALSTYLE
  5
34
102
{ACAD_XDICTIONARY
360
187
102
}
102
{ACAD_REACTORS
330
29
102
}
330
29
100
AcDbVisualStyle
  2
Dim
 70
    11
177
     2
291
     1
 71
     2
176
     1
 72
     2
176
     1
 73
     0
176
     1
 90
        0
176
     1
 40
0.6
176
     1
 41
30.0
176
     1
 63
     7
421
 16777215
176
     1
 74
     1
176
     1
 91
        4
176
     1
 64
     7
176
     1
 65
   257
176
     1
 75
     1
176
     1
175
     1
176
     1
 42
1.0
176
     1
 92
        8
176
     1
 66
     7
176
     1
 43
1.0
176
     1
 76
     1
176
     1
 77
     6
176
     1
 78
     2
176
     1
 67
     7
176
     1
 79
     5
176
     1
170
     0
176
     1
171
     0
176
     1
290
     0
176
     1
 93
        1
176
     1
 44
-50.0
176
     1
173
     0
176
     1
1001
ACAD
1000
AcDbSavedByObjectVersion
1070
     0
  0
VISUALSTYLE
  5
41
102
{ACAD_XDICTIONARY
360
1A1
102
}
102
{ACAD_REACTORS
330
29
102
}
330
29
100
AcDbVisualStyle
  2
EdgeColorOff
 70
    22
177
     2
291
     1
 71
     2
176
     0
 72
     2
176
     0
 73
     0
176
     0
 90
        0
176
     0
 40
0.6
176
     0
 41
30.0
176
     0
 63
     7
421
 16777215
176
     0
 74
     1
176
     0
 91
        4
176
     0
 64
     7
176
     0
 65
   257
176
     0
 75
     1
176
     0
175
     1
176
     0
 42
1.0
176
     0
 92
        8
176
     2
 66
     7
176
     0
 43
1.0
176
     0
 76
     1
176
     0
 77
     6
176
     0
 78
     2
176
     0
 67
     7
176
     0
 79
     5
176
     0
170
     0
176
     0
171
     0
176
     0
290
     0
176
     0
 93
        1
176
     0
 44
0.0
176
     0
173
     0
176
     0
1001
ACAD
1000
AcDbSavedByObjectVersion
1070
     0
  0
VISUALSTYLE
  5
38
102
{ACAD_XDICTIONARY
360
18F
102
}
102
{ACAD_REACTORS
330
29
102
}
330
29
100
AcDbVisualStyle
  2
Facepattern
 70
    15
177
     2
291
     1
 71
     2
176
     1
 72
     2
176
     1
 73
     0
176
     1
 90
        0
176
     1
 40
0.6
176
     1
 41
30.0
176
     1
 63
     7
421
 16777215
176
     1
 74
     1
176
     1
 91
        4
176
     1
 64
     7
176
     1
 65
   257
176
     1
 75
     1
176
     1
175
     1
176
     1
 42
1.0
176
     1
 92
        8
176
     1
 66
     7
176
     1
 43
1.0
176
     1
 76
     1
176
     1
 77
     6
176
     1
 78
     2
176
     1
 67
     7
176
     1
 79
     5
176
     1
170
     0
176
     1
171
     0
176
     1
290
     0
176
     1
 93
        1
176
     1
 44
0.0
176
     1
173
     0
176
     1
1001
ACAD
1000
AcDbSavedByObjectVersion
1070
     0
  0
VISUALSTYLE
  5
2A
102
{ACAD_XDICTIONARY
360
173
102
}
102
{ACAD_REACTORS
330
29
102
}
330
29
100
AcDbVisualStyle
  2
Flat
 70
     0
177
     2
291
     1
 71
     2
176
     1
 72
     1
176
     1
 73
     1
176
     1
 90
        2
176
     1
 40
0.6
176
     1
 41
30.0
176
     1
 63
     7
421
 16777215
176
     1
 74
     0
176
     1
 91
        0
176
     1
 64
     7
176
     1
 65
   257
176
     1
 75
     1
176
     1
175
     1
176
     1
 42
1.0
176
     1
 92
        8
176
     1
 66
     7
176
     1
 43
1.0
176
     1
 76
     1
176
     1
 77
     6
176
     1
 78
     2
176
     1
 67
     7
176
     1
 79
     5
176
     1
170
     0
176
     1
171
     0
176
     1
290
     0
176
     1
 93
       13
176
     1
 44
0.0
176
     1
173
     0
176
     1
1001
ACAD
1000
AcDbSavedByObjectVersion
1070
     0
  0
VISUALSTYLE
  5
2B
102
{ACAD_XDICTIONARY
360
175
102
}
102
{ACAD_REACTORS
330
29
102
}
330
29
100
AcDbVisualStyle
  2
FlatWithEdges
 70
     1
177
     2
291
     1
 71
     2
176
     1
 72
     1
176
     1
 73
     1
176
     1
 90
        2
176
     1
 40
0.6
176
     1
 41
30.0
176
     1
 63
     7
421
 16777215
176
     1
 74
     1
176
     1
 91
        0
176
     1
 64
     7
176
     1
 65
   257
176
     1
 75
     1
176
     1
175
     1
176
     1
 42
1.0
176
     1
 92
        0
176
     1
 66
   257
176
     1
 43
1.0
176
     1
 76
     1
176
     1
 77
     6
176
     1
 78
     2
176
     1
 67
     7
176
     1
 79
     5
176
     1
170
     0
176
     1
171
     0
176
     1
290
     0
176
     1
 93
       13
176
     1
 44
0.0
176
     1
173
     0
176
     1
1001
ACAD
1000
AcDbSavedByObjectVersion
1070
     0
  0
VISUALSTYLE
  5
2C
102
{ACAD_XDICTIONARY
360
177
102
}
102
{ACAD_REACTORS
330
29
102
}
330
29
100
AcDbVisualStyle
  2
Gouraud
 70
     2
177
     2
291
     1
 71
     2
176
     1
 72
     2
176
     1
 73
     1
176
     1
 90
        2
176
     1
 40
0.6
176
     1
 41
30.0
176
     1
 63
     7
421
 16777215
176
     1
 74
     0
176
     1
 91
        0
176
     1
 64
     7
176
     1
 65
   257
176
     1
 75
     1
176
     1
175
     1
176
     1
 42
1.0
176
     1
 92
        0
176
     1
 66
     7
176
     1
 43
1.0
176
     1
 76
     1
176
     1
 77
     6
176
     1
 78
     2
176
     1
 67
     7
176
     1
 79
     5
176
     1
170
     0
176
     1
171
     0
176
     1
290
     0
176
     1
 93
       13
176
     1
 44
0.0
176
     1
173
     0
176
     1
1001
ACAD
1000
AcDbSavedByObjectVersion
1070
     0
  0
VISUALSTYLE
  5
2D
102
{ACAD_XDICTIONARY
360
179
102
}
102
{ACAD_REACTORS
330
29
102
}
330
29
100
AcDbVisualStyle
  2
GouraudWithEdges
 70
     3
177
     2
291
     1
 71
     2
176
     1
 72
     2
176
     1
 73
     1
176
     1
 90
        2
176
     1
 40
0.6
176
     1
 41
30.0
176
     1
 63
     7
421
 16777215
176
     1
 74
     1
176
     1
 91
        0
176
     1
 64
     7
176
     1
 65
   257
176
     1
 75
     1
176
     1
175
     1
176
     1
 42
1.0
176
     1
 92
        0
176
     1
 66
   257
176
     1
 43
1.0
176
     1
 76
     1
176
     1
 77
     6
176
     1
 78
     2
176
     1
 67
     7
176
     1
 79
     5
176
     1
170
     0
176
     1
171
     0
176
     1
290
     0
176
     1
 93
       13
176
     1
 44
0.0
176
     1
173
     0
176
     1
1001
ACAD
1000
AcDbSavedByObjectVersion
1070
     0
  0
VISUALSTYLE
  5
31
102
{ACAD_XDICTIONARY
360
181
102
}
102
{ACAD_REACTORS
330
29
102
}
330
29
100
AcDbVisualStyle
  2
Hidden
 70
     6
177
     2
291
     0
 71
     1
176
     1
 72
     2
176
     1
 73
     2
176
     1
 90
        0
176
     1
 40
0.6
176
     1
 41
30.0
176
     1
 63
     7
421
 16777215
176
     1
 74
     2
176
     1
 91
        2
176
     1
 64
     7
176
     1
 65
   257
176
     1
 75
     2
176
     1
175
     1
176
     1
 42
40.0
176
     1
 92
        0
176
     1
 66
   257
176
     1
 43
1.0
176
     1
 76
     1
176
     1
 77
     6
176
     1
 78
     2
176
     1
 67
     7
176
     1
 79
     3
176
     1
170
     0
176
     1
171
     0
176
     1
290
     0
176
     1
 93
        1
176
     1
 44
0.0
176
     1
173
     0
176
     1
1001
ACAD
1000
AcDbSavedByObjectVersion
1070
     0
  0
VISUALSTYLE
  5
3F
102
{ACAD_XDICTIONARY
360
19D
102
}
102
{ACAD_REACTORS
330
29
102
}
330
29
100
AcDbVisualStyle
  2
JitterOff
 70
    20
177
     2
291
     1
 71
     2
176
     0
 72
     2
176
     0
 73
     0
176
     0
 90
        0
176
     0
 40
0.6
176
     0
 41
30.0
176
     0
 63
     7
421
 16777215
176
     0
 74
     1
176
     0
 91
        4
176
     0
 64
     7
176
     0
 65
   257
176
     0
 75
     1
176
     0
175
     1
176
     0
 42
1.0
176
     0
 92
       10
176
     2
 66
     7
176
     0
 43
1.0
176
     0
 76
     1
176
     0
 77
     6
176
     0
 78
     2
176
     0
 67
     7
176
     0
 79
     5
176
     0
170
     0
176
     0
171
     0
176
     0
290
     0
176
     0
 93
        1
176
     0
 44
0.0
176
     0
173
     0
176
     0
1001
ACAD
1000
AcDbSavedByObjectVersion
1070
     0
  0
VISUALSTYLE
  5
37
102
{ACAD_XDICTIONARY
360
18D
102
}
102
{ACAD_REACTORS
330
29
102
}
330
29
100
AcDbVisualStyle
  2
Linepattern
 70
    14
177
     2
291
     1
 71
     2
176
     1
 72
     2
176
     1
 73
     0
176
     1
 90
        0
176
     1
 40
0.6
176
     1
 41
30.0
176
     1
 63
     7
421
 16777215
176
     1
 74
     1
176
     1
 91
        4
176
     1
 64
     7
176
     1
 65
   257
176
     1
 75
     7
176
     1
175
     7
176
     1
 42
1.0
176
     1
 92
        8
176
     1
 66
     7
176
     1
 43
1.0
176
     1
 76
     1
176
     1
 77
     6
176
     1
 78
     2
176
     1
 67
     7
176
     1
 79
     5
176
     1
170
     0
176
     1
171
     0
176
     1
290
     0
176
     1
 93
        1
176
     1
 44
0.0
176
     1
173
     0
176
     1
1001
ACAD
1000
AcDbSavedByObjectVersion
1070
     0
  0
VISUALSTYLE
  5
40
102
{ACAD_XDICTIONARY
360
19F
102
}
102
{ACAD_REACTORS
330
29
102
}
330
29
100
AcDbVisualStyle
  2
OverhangOff
 70
    21
177
     2
291
     1
 71
     2
176
     0
 72
     2
176
     0
 73
     0
176
     0
 90
        0
176
     0
 40
0.6
176
     0
 41
30.0
176
     0
 63
     7
421
 16777215
176
     0
 74
     1
176
     0
 91
        4
176
     0
 64
     7
176
     0
 65
   257
176
     0
 75
     1
176
     0
175
     1
176
     0
 42
1.0
176
     0
 92
        9
176
     2
 66
     7
176
     0
 43
1.0
176
     0
 76
     1
176
     0
 77
     6
176
     0
 78
     2
176
     0
 67
     7
176
     0
 79
     5
176
     0
170
     0
176
     0
171
     0
176
     0
290
     0
176
     0
 93
        1
176
     0
 44
0.0
176
     0
173
     0
176
     0
1001
ACAD
1000
AcDbSavedByObjectVersion
1070
     0
  0
VISUALSTYLE
  5
33
102
{ACAD_XDICTIONARY
360
185
102
}
102
{ACAD_REACTORS
330
29
102
}
330
29
100
AcDbVisualStyle
  2
Realistic
 70
     8
177
     2
291
     0
 71
     2
176
     1
 72
     3
176
     1
 73
     0
176
     1
 90
        2
176
     1
 40
0.6
176
     1
 41
30.0
176
     1
 63
     7
421
 16777215
176
     1
 74
     0
176
     1
 91
        0
176
     1
 64
     7
176
     1
 65
   257
176
     1
 75
     1
176
     1
175
     1
176
     1
 42
1.0
176
     1
 92
        8
176
     1
 66
   257
176
     1
 43
1.0
176
     1
 76
     1
176
     1
 77
     6
176
     1
 78
     2
176
     1
 67
     7
176
     1
 79
     3
176
     1
170
     0
176
     1
171
     0
176
     1
290
     0
176
     1
 93
       13
176
     1
 44
0.0
176
     1
173
     0
176
     1
1001
ACAD
1000
AcDbSavedByObjectVersion
1070
     0
  0
VISUALSTYLE
  5
3E
102
{ACAD_XDICTIONARY
360
19B
102
}
102
{ACAD_REACTORS
330
29
102
}
330
29
100
AcDbVisualStyle
  2
Shaded
 70
    27
177
     2
291
     0
 71
     2
176
     1
 72
     2
176
     1
 73
     1
176
     1
 90
        2
176
     1
 40
0.6
176
     1
 41
30.0
176
     1
 63
     7
421
 16777215
176
     1
 74
     0
176
     1
 91
        4
176
     1
 64
     7
176
     1
 65
   257
176
     1
 75
     1
176
     1
175
     1
176
     1
 42
1.0
176
     1
 92
        8
176
     1
 66
   257
176
     1
 43
1.0
176
     1
 76
     1
176
     1
 77
     6
176
     1
 78
     2
176
     1
 67
     8
425
  7895160
176
     1
 79
     3
176
     1
170
     0
176
     1
171
     0
176
     1
290
     0
176
     1
 93
        5
176
     1
 44
0.0
176
     1
173
     0
176
     1
1001
ACAD
1000
AcDbSavedByObjectVersion
1070
     0
  0
VISUALSTYLE
  5
3D
102
{ACAD_XDICTIONARY
360
199
102
}
102
{ACAD_REACTORS
330
29
102
}
330
29
100
AcDbVisualStyle
  2
Shaded with edges
 70
    26
177
     2
291
     0
 71
     2
176
     1
 72
     2
176
     1
 73
     1
176
     1
 90
        2
176
     1
 40
0.6
176
     1
 41
30.0
176
     1
 63
     7
421
 16777215
176
     1
 74
     1
176
     1
 91
        2
176
     1
 64
     7
176
     1
 65
   257
176
     1
 75
     2
176
     1
175
     1
176
     1
 42
1.0
176
     1
 92
        8
176
     1
 66
   257
176
     1
 43
1.0
176
     1
 76
     1
176
     1
 77
     6
176
     1
 78
     2
176
     1
 67
     7
176
     1
 79
     3
176
     1
170
     0
176
     1
171
     0
176
     1
290
     0
176
     1
 93
        5
176
     1
 44
0.0
176
     1
173
     0
176
     1
1001
ACAD
1000
AcDbSavedByObjectVersion
1070
     0
  0
VISUALSTYLE
  5
3A
102
{ACAD_XDICTIONARY
360
193
102
}
102
{ACAD_REACTORS
330
29
102
}
330
29
100
AcDbVisualStyle
  2
Shades of Gray
 70
    23
177
     2
291
     0
 71
     2
176
     1
 72
     2
176
     1
 73
     3
176
     1
 90
        0
176
     1
 40
0.6
176
     1
 41
30.0
176
     1
 63
     7
421
 16777215
176
     1
 74
     2
176
     1
 91
        2
176
     1
 64
     7
176
     1
 65
     7
176
     1
 75
     1
176
     1
175
     1
176
     1
 42
40.0
176
     1
 92
        8
176
     1
 66
     7
176
     1
 43
1.0
176
     1
 76
     1
176
     1
 77
     6
176
     1
 78
     2
176
     1
 67
     7
176
     1
 79
     3
176
     1
170
     0
176
     1
171
     0
176
     1
290
     0
176
     1
 93
        1
176
     1
 44
0.0
176
     1
173
     0
176
     1
1001
ACAD
1000
AcDbSavedByObjectVersion
1070
     0
  0
VISUALSTYLE
  5
3B
102
{ACAD_XDICTIONARY
360
195
102
}
102
{ACAD_REACTORS
330
29
102
}
330
29
100
AcDbVisualStyle
  2
Sketchy
 70
    24
177
     2
291
     0
 71
     1
176
     1
 72
     2
176
     1
 73
     2
176
     1
 90
        0
176
     1
 40
0.6
176
     1
 41
30.0
176
     1
 63
     7
421
 16777215
176
     1
 74
     2
176
     1
 91
        2
176
     1
 64
     7
176
     1
 65
     7
176
     1
 75
     1
176
     1
175
     1
176
     1
 42
40.0
176
     1
 92
       11
176
     1
 66
     7
176
     1
 43
1.0
176
     1
 76
     1
176
     1
 77
     6
176
     1
 78
     2
176
     1
 67
     7
176
     1
 79
     6
176
     1
170
     0
176
     1
171
     0
176
     1
290
     0
176
     1
 93
        1
176
     1
 44
0.0
176
     1
173
     0
176
     1
1001
ACAD
1000
AcDbSavedByObjectVersion
1070
     0
  0
VISUALSTYLE
  5
36
102
{ACAD_XDICTIONARY
360
18B
102
}
102
{ACAD_REACTORS
330
29
102
}
330
29
100
AcDbVisualStyle
  2
Thicken
 70
    13
177
     2
291
     1
 71
     2
176
     1
 72
     2
176
     1
 73
     0
176
     1
 90
        0
176
     1
 40
0.6
176
     1
 41
30.0
176
     1
 63
     7
421
 16777215
176
     1
 74
     1
176
     1
 91
        4
176
     1
 64
     7
176
     1
 65
   257
176
     1
 75
     1
176
     1
175
     1
176
     1
 42
1.0
176
     1
 92
       12
176
     1
 66
     7
176
     1
 43
1.0
176
     1
 76
     1
176
     1
 77
     6
176
     1
 78
     2
176
     1
 67
     7
176
     1
 79
     5
176
     1
170
     0
176
     1
171
     0
176
     1
290
     0
176
     1
 93
        1
176
     1
 44
0.0
176
     1
173
     0
176
     1
1001
ACAD
1000
AcDbSavedByObjectVersion
1070
     0
  0
VISUALSTYLE
  5
30
102
{ACAD_XDICTIONARY
360
17F
102
}
102
{ACAD_REACTORS
330
29
102
}
330
29
100
AcDbVisualStyle
  2
Wireframe
 70
     5
177
     2
291
     0
 71
     0
176
     1
 72
     2
176
     1
 73
     0
176
     1
 90
        0
176
     1
 40
0.6
176
     1
 41
30.0
176
     1
 63
     7
421
 16777215
176
     1
 74
     1
176
     1
 91
        4
176
     1
 64
     7
176
     1
 65
   257
176
     1
 75
     1
176
     1
175
     1
176
     1
 42
1.0
176
     1
 92
        0
176
     1
 66
   257
176
     1
 43
1.0
176
     1
 76
     1
176
     1
 77
     6
176
     1
 78
     2
176
     1
 67
     7
176
     1
 79
     3
176
     1
170
     0
176
     1
171
     0
176
     1
290
     0
176
     1
 93
        1
176
     1
 44
0.0
176
     1
173
     0
176
     1
1001
ACAD
1000
AcDbSavedByObjectVersion
1070
     0
  0
VISUALSTYLE
  5
3C
102
{ACAD_XDICTIONARY
360
197
102
}
102
{ACAD_REACTORS
330
29
102
}
330
29
100
AcDbVisualStyle
  2
X-Ray
 70
    25
177
     2
291
     0
 71
     2
176
     1
 72
     2
176
     1
 73
     1
176
     1
 90
        1
176
     1
 40
0.5
176
     1
 41
30.0
176
     1
 63
     7
421
 16777215
176
     1
 74
     1
176
     1
 91
        0
176
     1
 64
     7
176
     1
 65
   257
176
     1
 75
     1
176
     1
175
     1
176
     1
 42
1.0
176
     1
 92
        8
176
     1
 66
     7
176
     1
 43
1.0
176
     1
 76
     1
176
     1
 77
     6
176
     1
 78
     2
176
     1
 67
     7
176
     1
 79
     3
176
     1
170
     0
176
     1
171
     0
176
     1
290
     0
176
     1
 93
       13
176
     1
 44
0.0
176
     1
173
     0
176
     1
1001
ACAD
1000
AcDbSavedByObjectVersion
1070
     0
  0
DICTIONARYVAR
  5
16F
102
{ACAD_REACTORS
330
16A
102
}
330
16A
100
DictionaryVariables
280
     0
  1
1:1
  0
DICTIONARYVAR
  5
16C
102
{ACAD_REACTORS
330
16A
102
}
330
16A
100
DictionaryVariables
280
     0
  1
STANDARD
  0
DICTIONARYVAR
  5
16B
102
{ACAD_REACTORS
330
16A
102
}
330
16A
100
DictionaryVariables
280
     0
  1
STANDARD
  0
DICTIONARYVAR
  5
16D
102
{ACAD_REACTORS
330
16A
102
}
330
16A
100
DictionaryVariables
280
     0
  1
Imperial24
  0
DICTIONARYVAR
  5
16E
102
{ACAD_REACTORS
330
16A
102
}
330
16A
100
DictionaryVariables
280
     0
  1
Imperial24
  0
DICTIONARY
  5
1A7
330
6B
100
AcDbDictionary
280
     1
281
     1
  3
ACAD_XREC_ROUNDTRIP
360
1A8
  0
DICTIONARY
  5
1A
330
19
100
AcDbDictionary
280
     1
281
     1
  3
BUMPTILE
360
1C
  3
DIFFUSETILE
360
1B
  3
OPACITYTILE
360
1F
  3
REFLECTIONTILE
360
1E
  3
REFRACTIONTILE
360
20
  3
SPECULARTILE
360
1D
  0
DICTIONARY
  5
12
330
11
100
AcDbDictionary
280
     1
281
     1
  3
BUMPTILE
360
14
  3
DIFFUSETILE
360
13
  3
OPACITYTILE
360
17
  3
REFLECTIONTILE
360
16
  3
REFRACTIONTILE
360
18
  3
SPECULARTILE
360
15
  0
DICTIONARY
  5
22
330
21
100
AcDbDictionary
280
     1
281
     1
  3
BUMPTILE
360
24
  3
DIFFUSETILE
360
23
  3
OPACITYTILE
360
27
  3
REFLECTIONTILE
360
26
  3
REFRACTIONTILE
360
28
  3
SPECULARTILE
360
25
  0
DICTIONARY
  5
1A3
330
67
100
AcDbDictionary
280
     1
281
     1
  3
ACAD_XREC_ROUNDTRIP
360
1A4
  0
DICTIONARY
  5
1A5
330
69
100
AcDbDictionary
280
     1
281
     1
  3
ACAD_XREC_ROUNDTRIP
360
1A6
  0
DICTIONARY
  5
170
330
65
100
AcDbDictionary
280
     1
281
     1
  3
ACAD_ROUNDTRIP_2008_TABLESTYLE_CELLSTYLEMAP
360
171
  0
DICTIONARY
  5
17D
330
2F
100
AcDbDictionary
280
     1
281
     1
  3
ACAD_XREC_ROUNDTRIP
360
17E
  0
DICTIONARY
  5
17B
330
2E
100
AcDbDictionary
280
     1
281
     1
  3
ACAD_XREC_ROUNDTRIP
360
17C
  0
DICTIONARY
  5
189
330
35
100
AcDbDictionary
280
     1
281
     1
  3
ACAD_XREC_ROUNDTRIP
360
18A
  0
DICTIONARY
  5
191
330
39
100
AcDbDictionary
280
     1
281
     1
  3
ACAD_XREC_ROUNDTRIP
360
192
  0
DICTIONARY
  5
183
330
32
100
AcDbDictionary
280
     1
281
     1
  3
ACAD_XREC_ROUNDTRIP
360
184
  0
DICTIONARY
  5
187
330
34
100
AcDbDictionary
280
     1
281
     1
  3
ACAD_XREC_ROUNDTRIP
360
188
  0
DICTIONARY
  5
1A1
330
41
100
AcDbDictionary
280
     1
281
     1
  3
ACAD_XREC_ROUNDTRIP
360
1A2
  0
DICTIONARY
  5
18F
330
38
100
AcDbDictionary
280
     1
281
     1
  3
ACAD_XREC_ROUNDTRIP
360
190
  0
DICTIONARY
  5
173
330
2A
100
AcDbDictionary
280
     1
281
     1
  3
ACAD_XREC_ROUNDTRIP
360
174
  0
DICTIONARY
  5
175
330
2B
100
AcDbDictionary
280
     1
281
     1
  3
ACAD_XREC_ROUNDTRIP
360
176
  0
DICTIONARY
  5
177
330
2C
100
AcDbDictionary
280
     1
281
     1
  3
ACAD_XREC_ROUNDTRIP
360
178
  0
DICTIONARY
  5
179
330
2D
100
AcDbDictionary
280
     1
281
     1
  3
ACAD_XREC_ROUNDTRIP
360
17A
  0
DICTIONARY
  5
181
330
31
100
AcDbDictionary
280
     1
281
     1
  3
ACAD_XREC_ROUNDTRIP
360
182
  0
DICTIONARY
  5
19D
330
3F
100
AcDbDictionary
280
     1
281
     1
  3
ACAD_XREC_ROUNDTRIP
360
19E
  0
DICTIONARY
  5
18D
330
37
100
AcDbDictionary
280
     1
281
     1
  3
ACAD_XREC_ROUNDTRIP
360
18E
  0
DICTIONARY
  5
19F
330
40
100
AcDbDictionary
280
     1
281
     1
  3
ACAD_XREC_ROUNDTRIP
360
1A0
  0
DICTIONARY
  5
185
330
33
100
AcDbDictionary
280
     1
281
     1
  3
ACAD_XREC_ROUNDTRIP
360
186
  0
DICTIONARY
  5
19B
330
3E
100
AcDbDictionary
280
     1
281
     1
  3
ACAD_XREC_ROUNDTRIP
360
19C
  0
DICTIONARY
  5
199
330
3D
100
AcDbDictionary
280
     1
281
     1
  3
ACAD_XREC_ROUNDTRIP
360
19A
  0
DICTIONARY
  5
193
330
3A
100
AcDbDictionary
280
     1
281
     1
  3
ACAD_XREC_ROUNDTRIP
360
194
  0
DICTIONARY
  5
195
330
3B
100
AcDbDictionary
280
     1
281
     1
  3
ACAD_XREC_ROUNDTRIP
360
196
  0
DICTIONARY
  5
18B
330
36
100
AcDbDictionary
280
     1
281
     1
  3
ACAD_XREC_ROUNDTRIP
360
18C
  0
DICTIONARY
  5
17F
330
30
100
AcDbDictionary
280
     1
281
     1
  3
ACAD_XREC_ROUNDTRIP
360
180
  0
DICTIONARY
  5
197
330
3C
100
AcDbDictionary
280
     1
281
     1
  3
ACAD_XREC_ROUNDTRIP
360
198
  0
XRECORD
  5
1A8
102
{ACAD_REACTORS
330
1A7
102
}
330
1A7
100
AcDbXrecord
280
     1
102
DISPLAYNAME
  1
Imperial24
102
FLAGS
 90
        0
  0
XRECORD
  5
1C
102
{ACAD_REACTORS
330
1A
102
}
330
1A
100
AcDbXrecord
280
     1
270
     1
271
     1
  0
XRECORD
  5
1B
102
{ACAD_REACTORS
330
1A
102
}
330
1A
100
AcDbXrecord
280
     1
270
     1
271
     1
  0
XRECORD
  5
1F
102
{ACAD_REACTORS
330
1A
102
}
330
1A
100
AcDbXrecord
280
     1
270
     1
271
     1
  0
XRECORD
  5
1E
102
{ACAD_REACTORS
330
1A
102
}
330
1A
100
AcDbXrecord
280
     1
270
     1
271
     1
  0
XRECORD
  5
20
102
{ACAD_REACTORS
330
1A
102
}
330
1A
100
AcDbXrecord
280
     1
270
     1
271
     1
  0
XRECORD
  5
1D
102
{ACAD_REACTORS
330
1A
102
}
330
1A
100
AcDbXrecord
280
     1
270
     1
271
     1
  0
XRECORD
  5
14
102
{ACAD_REACTORS
330
12
102
}
330
12
100
AcDbXrecord
280
     1
270
     1
271
     1
  0
XRECORD
  5
13
102
{ACAD_REACTORS
330
12
102
}
330
12
100
AcDbXrecord
280
     1
270
     1
271
     1
  0
XRECORD
  5
17
102
{ACAD_REACTORS
330
12
102
}
330
12
100
AcDbXrecord
280
     1
270
     1
271
     1
  0
XRECORD
  5
16
102
{ACAD_REACTORS
330
12
102
}
330
12
100
AcDbXrecord
280
     1
270
     1
271
     1
  0
XRECORD
  5
18
102
{ACAD_REACTORS
330
12
102
}
330
12
100
AcDbXrecord
280
     1
270
     1
271
     1
  0
XRECORD
  5
15
102
{ACAD_REACTORS
330
12
102
}
330
12
100
AcDbXrecord
280
     1
270
     1
271
     1
  0
XRECORD
  5
24
102
{ACAD_REACTORS
330
22
102
}
330
22
100
AcDbXrecord
280
     1
270
     1
271
     1
  0
XRECORD
  5
23
102
{ACAD_REACTORS
330
22
102
}
330
22
100
AcDbXrecord
280
     1
270
     1
271
     1
  0
XRECORD
  5
27
102
{ACAD_REACTORS
330
22
102
}
330
22
100
AcDbXrecord
280
     1
270
     1
271
     1
  0
XRECORD
  5
26
102
{ACAD_REACTORS
330
22
102
}
330
22
100
AcDbXrecord
280
     1
270
     1
271
     1
  0
XRECORD
  5
28
102
{ACAD_REACTORS
330
22
102
}
330
22
100
AcDbXrecord
280
     1
270
     1
271
     1
  0
XRECORD
  5
25
102
{ACAD_REACTORS
330
22
102
}
330
22
100
AcDbXrecord
280
     1
270
     1
271
     1
  0
XRECORD
  5
1A4
102
{ACAD_REACTORS
330
1A3
102
}
330
1A3
100
AcDbXrecord
280
     1
102
ACAD_ROUNDTRIP_2012_MLEADER_STYLE
298
     1
  0
XRECORD
  5
1A6
102
{ACAD_REACTORS
330
1A5
102
}
330
1A5
100
AcDbXrecord
280
     1
102
DISPLAYNAME
  1
Imperial24
102
FLAGS
 90
        0
  0
CELLSTYLEMAP
  5
171
102
{ACAD_REACTORS
330
170
102
}
330
170
100
AcDbCellStyleMap
 90
        3
300
CELLSTYLE
  1
TABLEFORMAT_BEGIN
 90
        5
170
     1
 91
        0
 92
    32768
 62
   257
 93
        1
300
CONTENTFORMAT
  1
CONTENTFORMAT_BEGIN
 90
        0
 91
        0
 92
      512
 93
        0
300

 40
0.0
140
1.0
 94
        5
 62
     0
340
55
144
0.25
309
CONTENTFORMAT_END
171
     0
 94
        0
309
TABLEFORMAT_END
  1
CELLSTYLE_BEGIN
 90
        1
 91
        1
300
_TITLE
309
CELLSTYLE_END
300
CELLSTYLE
  1
TABLEFORMAT_BEGIN
 90
        5
170
     1
 91
        0
 92
        0
 62
   257
 93
        1
300
CONTENTFORMAT
  1
CONTENTFORMAT_BEGIN
 90
        0
 91
        0
 92
      512
 93
        0
300

 40
0.0
140
1.0
 94
        5
 62
     0
340
55
144
0.18
309
CONTENTFORMAT_END
171
     0
 94
        0
309
TABLEFORMAT_END
  1
CELLSTYLE_BEGIN
 90
        2
 91
        1
300
_HEADER
309
CELLSTYLE_END
300
CELLSTYLE
  1
TABLEFORMAT_BEGIN
 90
        5
170
     1
 91
        0
 92
        0
 62
   257
 93
        1
300
CONTENTFORMAT
  1
CONTENTFORMAT_BEGIN
 90
        0
 91
        0
 92
      512
 93
        0
300

 40
0.0
140
1.0
 94
        2
 62
     0
340
55
144
0.18
309
CONTENTFORMAT_END
171
     0
 94
        0
309
TABLEFORMAT_END
  1
CELLSTYLE_BEGIN
 90
        3
 91
        2
300
_DATA
309
CELLSTYLE_END
  0
XRECORD
  5
17E
102
{ACAD_REACTORS
330
17D
102
}
330
17D
100
AcDbXrecord
280
     1
102
RTVSPost2010Prop28
280
     1
102
RTVSPost2010PropOp28
 70
     1
102
RTVSPost2010Prop29
280
     1
102
RTVSPost2010PropOp29
 70
     1
102
RTVSPost2010Prop30
280
     0
102
RTVSPost2010PropOp30
 70
     1
102
RTVSPost2010Prop31
280
     0
102
RTVSPost2010PropOp31
 70
     1
102
RTVSPost2010Prop32
280
     0
102
RTVSPost2010PropOp32
 70
     1
102
RTVSPost2010Prop33
280
     0
102
RTVSPost2010PropOp33
 70
     1
102
RTVSPost2010Prop34
280
     0
102
RTVSPost2010PropOp34
 70
     1
102
RTVSPost2010Prop35
280
     0
102
RTVSPost2010PropOp35
 70
     1
102
RTVSPost2010Prop36
280
     0
102
RTVSPost2010PropOp36
 70
     1
102
RTVSPost2010Prop37
 90
       50
102
RTVSPost2010PropOp37
 70
     1
102
RTVSPost2010Prop38
140
0.0
102
RTVSPost2010PropOp38
 70
     1
102
RTVSPost2010Prop39
140
1.0
102
RTVSPost2010PropOp39
 70
     1
102
RTVSPost2010Prop40
 90
        0
102
RTVSPost2010PropOp40
 70
     1
102
RTVSPost2010Prop41ColorIndex
 90
       18
102
RTVSPost2010Prop41ColorRGB
 90
        0
102
RTVSPost2010PropOp41
 70
     1
102
RTVSPost2010Prop42
 90
       50
102
RTVSPost2010PropOp42
 70
     1
102
RTVSPost2010Prop43
 90
        3
102
RTVSPost2010PropOp43
 70
     1
102
RTVSPost2010Prop44ColorIndex
 90
        5
102
RTVSPost2010Prop44ColorRGB
 90
      255
102
RTVSPost2010PropOp44
 70
     1
102
RTVSPost2010Prop45
280
     0
102
RTVSPost2010PropOp45
 70
     1
102
RTVSPost2010Prop46
 90
       50
102
RTVSPost2010PropOp46
 70
     1
102
RTVSPost2010Prop47
 90
       50
102
RTVSPost2010PropOp47
 70
     1
102
RTVSPost2010Prop48
 90
       50
102
RTVSPost2010PropOp48
 70
     1
102
RTVSPost2010Prop49
280
     0
102
RTVSPost2010PropOp49
 70
     1
102
RTVSPost2010Prop50
 90
       50
102
RTVSPost2010PropOp50
 70
     1
102
RTVSPost2010Prop51ColorIndex
 90
      256
102
RTVSPost2010Prop51ColorRGB
 90
-16777216
102
RTVSPost2010PropOp51
 70
     0
102
RTVSPost2010Prop52
140
1.0
102
RTVSPost2010PropOp52
 70
     0
102
RTVSPost2010Prop53
 90
        2
102
RTVSPost2010PropOp53
 70
     1
102
RTVSPost2010Prop54
  1
strokes_ogs.tif
102
RTVSPost2010PropOp54
 70
     1
102
RTVSPost2010Prop55
280
     0
102
RTVSPost2010PropOp55
 70
     1
102
RTVSPost2010Prop56
140
1.0
102
RTVSPost2010PropOp56
 70
     1
102
RTVSPost2010Prop57
140
1.0
102
RTVSPost2010PropOp57
 70
     1
  0
XRECORD
  5
17C
102
{ACAD_REACTORS
330
17B
102
}
330
17B
100
AcDbXrecord
280
     1
102
RTVSPost2010Prop28
280
     0
102
RTVSPost2010PropOp28
 70
     1
102
RTVSPost2010Prop29
280
     1
102
RTVSPost2010PropOp29
 70
     1
102
RTVSPost2010Prop30
280
     1
102
RTVSPost2010PropOp30
 70
     1
102
RTVSPost2010Prop31
280
     0
102
RTVSPost2010PropOp31
 70
     1
102
RTVSPost2010Prop32
280
     0
102
RTVSPost2010PropOp32
 70
     1
102
RTVSPost2010Prop33
280
     0
102
RTVSPost2010PropOp33
 70
     1
102
RTVSPost2010Prop34
280
     0
102
RTVSPost2010PropOp34
 70
     1
102
RTVSPost2010Prop35
280
     0
102
RTVSPost2010PropOp35
 70
     1
102
RTVSPost2010Prop36
280
     0
102
RTVSPost2010PropOp36
 70
     1
102
RTVSPost2010Prop37
 90
       50
102
RTVSPost2010PropOp37
 70
     1
102
RTVSPost2010Prop38
140
0.0
102
RTVSPost2010PropOp38
 70
     1
102
RTVSPost2010Prop39
140
1.0
102
RTVSPost2010PropOp39
 70
     1
102
RTVSPost2010Prop40
 90
        0
102
RTVSPost2010PropOp40
 70
     1
102
RTVSPost2010Prop41ColorIndex
 90
       18
102
RTVSPost2010Prop41ColorRGB
 90
        0
102
RTVSPost2010PropOp41
 70
     1
102
RTVSPost2010Prop42
 90
       50
102
RTVSPost2010PropOp42
 70
     1
102
RTVSPost2010Prop43
 90
        3
102
RTVSPost2010PropOp43
 70
     1
102
RTVSPost2010Prop44ColorIndex
 90
        5
102
RTVSPost2010Prop44ColorRGB
 90
      255
102
RTVSPost2010PropOp44
 70
     1
102
RTVSPost2010Prop45
280
     0
102
RTVSPost2010PropOp45
 70
     1
102
RTVSPost2010Prop46
 90
       50
102
RTVSPost2010PropOp46
 70
     1
102
RTVSPost2010Prop47
 90
       50
102
RTVSPost2010PropOp47
 70
     1
102
RTVSPost2010Prop48
 90
       50
102
RTVSPost2010PropOp48
 70
     1
102
RTVSPost2010Prop49
280
     0
102
RTVSPost2010PropOp49
 70
     1
102
RTVSPost2010Prop50
 90
       50
102
RTVSPost2010PropOp50
 70
     1
102
RTVSPost2010Prop51ColorIndex
 90
      256
102
RTVSPost2010Prop51ColorRGB
 90
-16777216
102
RTVSPost2010PropOp51
 70
     0
102
RTVSPost2010Prop52
140
1.0
102
RTVSPost2010PropOp52
 70
     0
102
RTVSPost2010Prop53
 90
        2
102
RTVSPost2010PropOp53
 70
     1
102
RTVSPost2010Prop54
  1
strokes_ogs.tif
102
RTVSPost2010PropOp54
 70
     1
102
RTVSPost2010Prop55
280
     0
102
RTVSPost2010PropOp55
 70
     1
102
RTVSPost2010Prop56
140
1.0
102
RTVSPost2010PropOp56
 70
     1
102
RTVSPost2010Prop57
140
1.0
102
RTVSPost2010PropOp57
 70
     1
  0
XRECORD
  5
18A
102
{ACAD_REACTORS
330
189
102
}
330
189
100
AcDbXrecord
280
     1
102
RTVSPost2010Prop28
280
     0
102
RTVSPost2010PropOp28
 70
     1
102
RTVSPost2010Prop29
280
     1
102
RTVSPost2010PropOp29
 70
     1
102
RTVSPost2010Prop30
280
     1
102
RTVSPost2010PropOp30
 70
     1
102
RTVSPost2010Prop31
280
     0
102
RTVSPost2010PropOp31
 70
     1
102
RTVSPost2010Prop32
280
     0
102
RTVSPost2010PropOp32
 70
     1
102
RTVSPost2010Prop33
280
     0
102
RTVSPost2010PropOp33
 70
     1
102
RTVSPost2010Prop34
280
     0
102
RTVSPost2010PropOp34
 70
     1
102
RTVSPost2010Prop35
280
     0
102
RTVSPost2010PropOp35
 70
     1
102
RTVSPost2010Prop36
280
     0
102
RTVSPost2010PropOp36
 70
     1
102
RTVSPost2010Prop37
 90
       50
102
RTVSPost2010PropOp37
 70
     1
102
RTVSPost2010Prop38
140
0.0
102
RTVSPost2010PropOp38
 70
     1
102
RTVSPost2010Prop39
140
1.0
102
RTVSPost2010PropOp39
 70
     1
102
RTVSPost2010Prop40
 90
        0
102
RTVSPost2010PropOp40
 70
     1
102
RTVSPost2010Prop41ColorIndex
 90
       18
102
RTVSPost2010Prop41ColorRGB
 90
        0
102
RTVSPost2010PropOp41
 70
     1
102
RTVSPost2010Prop42
 90
       50
102
RTVSPost2010PropOp42
 70
     1
102
RTVSPost2010Prop43
 90
        3
102
RTVSPost2010PropOp43
 70
     1
102
RTVSPost2010Prop44ColorIndex
 90
        5
102
RTVSPost2010Prop44ColorRGB
 90
      255
102
RTVSPost2010PropOp44
 70
     1
102
RTVSPost2010Prop45
280
     0
102
RTVSPost2010PropOp45
 70
     1
102
RTVSPost2010Prop46
 90
       50
102
RTVSPost2010PropOp46
 70
     1
102
RTVSPost2010Prop47
 90
       50
102
RTVSPost2010PropOp47
 70
     1
102
RTVSPost2010Prop48
 90
       50
102
RTVSPost2010PropOp48
 70
     1
102
RTVSPost2010Prop49
280
     0
102
RTVSPost2010PropOp49
 70
     1
102
RTVSPost2010Prop50
 90
       50
102
RTVSPost2010PropOp50
 70
     1
102
RTVSPost2010Prop51ColorIndex
 90
      256
102
RTVSPost2010Prop51ColorRGB
 90
-16777216
102
RTVSPost2010PropOp51
 70
     0
102
RTVSPost2010Prop52
140
1.0
102
RTVSPost2010PropOp52
 70
     0
102
RTVSPost2010Prop53
 90
        2
102
RTVSPost2010PropOp53
 70
     1
102
RTVSPost2010Prop54
  1
strokes_ogs.tif
102
RTVSPost2010PropOp54
 70
     1
102
RTVSPost2010Prop55
280
     0
102
RTVSPost2010PropOp55
 70
     1
102
RTVSPost2010Prop56
140
1.0
102
RTVSPost2010PropOp56
 70
     1
102
RTVSPost2010Prop57
140
1.0
102
RTVSPost2010PropOp57
 70
     1
  0
XRECORD
  5
192
102
{ACAD_REACTORS
330
191
102
}
330
191
100
AcDbXrecord
280
     1
102
RTVSPost2010Prop28
280
     0
102
RTVSPost2010PropOp28
 70
     1
102
RTVSPost2010Prop29
280
     1
102
RTVSPost2010PropOp29
 70
     1
102
RTVSPost2010Prop30
280
     1
102
RTVSPost2010PropOp30
 70
     1
102
RTVSPost2010Prop31
280
     0
102
RTVSPost2010PropOp31
 70
     1
102
RTVSPost2010Prop32
280
     0
102
RTVSPost2010PropOp32
 70
     1
102
RTVSPost2010Prop33
280
     0
102
RTVSPost2010PropOp33
 70
     1
102
RTVSPost2010Prop34
280
     0
102
RTVSPost2010PropOp34
 70
     1
102
RTVSPost2010Prop35
280
     0
102
RTVSPost2010PropOp35
 70
     1
102
RTVSPost2010Prop36
280
     0
102
RTVSPost2010PropOp36
 70
     1
102
RTVSPost2010Prop37
 90
       50
102
RTVSPost2010PropOp37
 70
     1
102
RTVSPost2010Prop38
140
0.0
102
RTVSPost2010PropOp38
 70
     1
102
RTVSPost2010Prop39
140
1.0
102
RTVSPost2010PropOp39
 70
     1
102
RTVSPost2010Prop40
 90
        0
102
RTVSPost2010PropOp40
 70
     1
102
RTVSPost2010Prop41ColorIndex
 90
       18
102
RTVSPost2010Prop41ColorRGB
 90
        0
102
RTVSPost2010PropOp41
 70
     1
102
RTVSPost2010Prop42
 90
       50
102
RTVSPost2010PropOp42
 70
     1
102
RTVSPost2010Prop43
 90
        3
102
RTVSPost2010PropOp43
 70
     1
102
RTVSPost2010Prop44ColorIndex
 90
        5
102
RTVSPost2010Prop44ColorRGB
 90
      255
102
RTVSPost2010PropOp44
 70
     1
102
RTVSPost2010Prop45
280
     0
102
RTVSPost2010PropOp45
 70
     1
102
RTVSPost2010Prop46
 90
       50
102
RTVSPost2010PropOp46
 70
     1
102
RTVSPost2010Prop47
 90
       50
102
RTVSPost2010PropOp47
 70
     1
102
RTVSPost2010Prop48
 90
       50
102
RTVSPost2010PropOp48
 70
     1
102
RTVSPost2010Prop49
280
     0
102
RTVSPost2010PropOp49
 70
     1
102
RTVSPost2010Prop50
 90
       50
102
RTVSPost2010PropOp50
 70
     1
102
RTVSPost2010Prop51ColorIndex
 90
      256
102
RTVSPost2010Prop51ColorRGB
 90
-16777216
102
RTVSPost2010PropOp51
 70
     0
102
RTVSPost2010Prop52
140
1.0
102
RTVSPost2010PropOp52
 70
     0
102
RTVSPost2010Prop53
 90
        2
102
RTVSPost2010PropOp53
 70
     1
102
RTVSPost2010Prop54
  1
strokes_ogs.tif
102
RTVSPost2010PropOp54
 70
     1
102
RTVSPost2010Prop55
280
     0
102
RTVSPost2010PropOp55
 70
     1
102
RTVSPost2010Prop56
140
1.0
102
RTVSPost2010PropOp56
 70
     1
102
RTVSPost2010Prop57
140
1.0
102
RTVSPost2010PropOp57
 70
     1
  0
XRECORD
  5
184
102
{ACAD_REACTORS
330
183
102
}
330
183
100
AcDbXrecord
280
     1
102
RTVSPost2010Prop28
280
     0
102
RTVSPost2010PropOp28
 70
     1
102
RTVSPost2010Prop29
280
     1
102
RTVSPost2010PropOp29
 70
     1
102
RTVSPost2010Prop30
280
     1
102
RTVSPost2010PropOp30
 70
     1
102
RTVSPost2010Prop31
280
     0
102
RTVSPost2010PropOp31
 70
     1
102
RTVSPost2010Prop32
280
     0
102
RTVSPost2010PropOp32
 70
     1
102
RTVSPost2010Prop33
280
     0
102
RTVSPost2010PropOp33
 70
     1
102
RTVSPost2010Prop34
280
     0
102
RTVSPost2010PropOp34
 70
     1
102
RTVSPost2010Prop35
280
     0
102
RTVSPost2010PropOp35
 70
     1
102
RTVSPost2010Prop36
280
     0
102
RTVSPost2010PropOp36
 70
     1
102
RTVSPost2010Prop37
 90
       50
102
RTVSPost2010PropOp37
 70
     1
102
RTVSPost2010Prop38
140
0.0
102
RTVSPost2010PropOp38
 70
     1
102
RTVSPost2010Prop39
140
1.0
102
RTVSPost2010PropOp39
 70
     1
102
RTVSPost2010Prop40
 90
        0
102
RTVSPost2010PropOp40
 70
     1
102
RTVSPost2010Prop41ColorIndex
 90
       18
102
RTVSPost2010Prop41ColorRGB
 90
        0
102
RTVSPost2010PropOp41
 70
     1
102
RTVSPost2010Prop42
 90
       50
102
RTVSPost2010PropOp42
 70
     1
102
RTVSPost2010Prop43
 90
        3
102
RTVSPost2010PropOp43
 70
     1
102
RTVSPost2010Prop44ColorIndex
 90
        5
102
RTVSPost2010Prop44ColorRGB
 90
      255
102
RTVSPost2010PropOp44
 70
     1
102
RTVSPost2010Prop45
280
     0
102
RTVSPost2010PropOp45
 70
     1
102
RTVSPost2010Prop46
 90
       50
102
RTVSPost2010PropOp46
 70
     1
102
RTVSPost2010Prop47
 90
       50
102
RTVSPost2010PropOp47
 70
     1
102
RTVSPost2010Prop48
 90
       50
102
RTVSPost2010PropOp48
 70
     1
102
RTVSPost2010Prop49
280
     0
102
RTVSPost2010PropOp49
 70
     1
102
RTVSPost2010Prop50
 90
       50
102
RTVSPost2010PropOp50
 70
     1
102
RTVSPost2010Prop51ColorIndex
 90
      256
102
RTVSPost2010Prop51ColorRGB
 90
-16777216
102
RTVSPost2010PropOp51
 70
     0
102
RTVSPost2010Prop52
140
1.0
102
RTVSPost2010PropOp52
 70
     0
102
RTVSPost2010Prop53
 90
        2
102
RTVSPost2010PropOp53
 70
     1
102
RTVSPost2010Prop54
  1
strokes_ogs.tif
102
RTVSPost2010PropOp54
 70
     1
102
RTVSPost2010Prop55
280
     0
102
RTVSPost2010PropOp55
 70
     1
102
RTVSPost2010Prop56
140
1.0
102
RTVSPost2010PropOp56
 70
     1
102
RTVSPost2010Prop57
140
1.0
102
RTVSPost2010PropOp57
 70
     1
  0
XRECORD
  5
188
102
{ACAD_REACTORS
330
187
102
}
330
187
100
AcDbXrecord
280
     1
102
RTVSPost2010Prop28
280
     0
102
RTVSPost2010PropOp28
 70
     1
102
RTVSPost2010Prop29
280
     1
102
RTVSPost2010PropOp29
 70
     1
102
RTVSPost2010Prop30
280
     1
102
RTVSPost2010PropOp30
 70
     1
102
RTVSPost2010Prop31
280
     0
102
RTVSPost2010PropOp31
 70
     1
102
RTVSPost2010Prop32
280
     0
102
RTVSPost2010PropOp32
 70
     1
102
RTVSPost2010Prop33
280
     0
102
RTVSPost2010PropOp33
 70
     1
102
RTVSPost2010Prop34
280
     0
102
RTVSPost2010PropOp34
 70
     1
102
RTVSPost2010Prop35
280
     0
102
RTVSPost2010PropOp35
 70
     1
102
RTVSPost2010Prop36
280
     0
102
RTVSPost2010PropOp36
 70
     1
102
RTVSPost2010Prop37
 90
       50
102
RTVSPost2010PropOp37
 70
     1
102
RTVSPost2010Prop38
140
0.0
102
RTVSPost2010PropOp38
 70
     1
102
RTVSPost2010Prop39
140
1.0
102
RTVSPost2010PropOp39
 70
     1
102
RTVSPost2010Prop40
 90
        0
102
RTVSPost2010PropOp40
 70
     1
102
RTVSPost2010Prop41ColorIndex
 90
       18
102
RTVSPost2010Prop41ColorRGB
 90
        0
102
RTVSPost2010PropOp41
 70
     1
102
RTVSPost2010Prop42
 90
       50
102
RTVSPost2010PropOp42
 70
     1
102
RTVSPost2010Prop43
 90
        3
102
RTVSPost2010PropOp43
 70
     1
102
RTVSPost2010Prop44ColorIndex
 90
        5
102
RTVSPost2010Prop44ColorRGB
 90
      255
102
RTVSPost2010PropOp44
 70
     1
102
RTVSPost2010Prop45
280
     0
102
RTVSPost2010PropOp45
 70
     1
102
RTVSPost2010Prop46
 90
       50
102
RTVSPost2010PropOp46
 70
     1
102
RTVSPost2010Prop47
 90
       50
102
RTVSPost2010PropOp47
 70
     1
102
RTVSPost2010Prop48
 90
       50
102
RTVSPost2010PropOp48
 70
     1
102
RTVSPost2010Prop49
280
     0
102
RTVSPost2010PropOp49
 70
     1
102
RTVSPost2010Prop50
 90
       50
102
RTVSPost2010PropOp50
 70
     1
102
RTVSPost2010Prop51ColorIndex
 90
      256
102
RTVSPost2010Prop51ColorRGB
 90
-16777216
102
RTVSPost2010PropOp51
 70
     0
102
RTVSPost2010Prop52
140
1.0
102
RTVSPost2010PropOp52
 70
     0
102
RTVSPost2010Prop53
 90
        2
102
RTVSPost2010PropOp53
 70
     1
102
RTVSPost2010Prop54
  1
strokes_ogs.tif
102
RTVSPost2010PropOp54
 70
     1
102
RTVSPost2010Prop55
280
     0
102
RTVSPost2010PropOp55
 70
     1
102
RTVSPost2010Prop56
140
1.0
102
RTVSPost2010PropOp56
 70
     1
102
RTVSPost2010Prop57
140
1.0
102
RTVSPost2010PropOp57
 70
     1
  0
XRECORD
  5
1A2
102
{ACAD_REACTORS
330
1A1
102
}
330
1A1
100
AcDbXrecord
280
     1
102
RTVSPost2010Prop28
280
     0
102
RTVSPost2010PropOp28
 70
     0
102
RTVSPost2010Prop29
280
     1
102
RTVSPost2010PropOp29
 70
     0
102
RTVSPost2010Prop30
280
     1
102
RTVSPost2010PropOp30
 70
     0
102
RTVSPost2010Prop31
280
     0
102
RTVSPost2010PropOp31
 70
     0
102
RTVSPost2010Prop32
280
     0
102
RTVSPost2010PropOp32
 70
     0
102
RTVSPost2010Prop33
280
     0
102
RTVSPost2010PropOp33
 70
     0
102
RTVSPost2010Prop34
280
     0
102
RTVSPost2010PropOp34
 70
     0
102
RTVSPost2010Prop35
280
     0
102
RTVSPost2010PropOp35
 70
     0
102
RTVSPost2010Prop36
280
     0
102
RTVSPost2010PropOp36
 70
     0
102
RTVSPost2010Prop37
 90
       50
102
RTVSPost2010PropOp37
 70
     0
102
RTVSPost2010Prop38
140
0.0
102
RTVSPost2010PropOp38
 70
     0
102
RTVSPost2010Prop39
140
1.0
102
RTVSPost2010PropOp39
 70
     0
102
RTVSPost2010Prop40
 90
        0
102
RTVSPost2010PropOp40
 70
     0
102
RTVSPost2010Prop41ColorIndex
 90
       18
102
RTVSPost2010Prop41ColorRGB
 90
        0
102
RTVSPost2010PropOp41
 70
     0
102
RTVSPost2010Prop42
 90
       50
102
RTVSPost2010PropOp42
 70
     0
102
RTVSPost2010Prop43
 90
        3
102
RTVSPost2010PropOp43
 70
     0
102
RTVSPost2010Prop44ColorIndex
 90
        5
102
RTVSPost2010Prop44ColorRGB
 90
      255
102
RTVSPost2010PropOp44
 70
     0
102
RTVSPost2010Prop45
280
     0
102
RTVSPost2010PropOp45
 70
     0
102
RTVSPost2010Prop46
 90
       50
102
RTVSPost2010PropOp46
 70
     0
102
RTVSPost2010Prop47
 90
       50
102
RTVSPost2010PropOp47
 70
     0
102
RTVSPost2010Prop48
 90
       50
102
RTVSPost2010PropOp48
 70
     0
102
RTVSPost2010Prop49
280
     0
102
RTVSPost2010PropOp49
 70
     0
102
RTVSPost2010Prop50
 90
       50
102
RTVSPost2010PropOp50
 70
     0
102
RTVSPost2010Prop51ColorIndex
 90
      256
102
RTVSPost2010Prop51ColorRGB
 90
-16777216
102
RTVSPost2010PropOp51
 70
     0
102
RTVSPost2010Prop52
140
1.0
102
RTVSPost2010PropOp52
 70
     0
102
RTVSPost2010Prop53
 90
        2
102
RTVSPost2010PropOp53
 70
     0
102
RTVSPost2010Prop54
  1
strokes_ogs.tif
102
RTVSPost2010PropOp54
 70
     0
102
RTVSPost2010Prop55
280
     0
102
RTVSPost2010PropOp55
 70
     0
102
RTVSPost2010Prop56
140
1.0
102
RTVSPost2010PropOp56
 70
     0
102
RTVSPost2010Prop57
140
1.0
102
RTVSPost2010PropOp57
 70
     0
  0
XRECORD
  5
190
102
{ACAD_REACTORS
330
18F
102
}
330
18F
100
AcDbXrecord
280
     1
102
RTVSPost2010Prop28
280
     0
102
RTVSPost2010PropOp28
 70
     1
102
RTVSPost2010Prop29
280
     1
102
RTVSPost2010PropOp29
 70
     1
102
RTVSPost2010Prop30
280
     1
102
RTVSPost2010PropOp30
 70
     1
102
RTVSPost2010Prop31
280
     0
102
RTVSPost2010PropOp31
 70
     1
102
RTVSPost2010Prop32
280
     0
102
RTVSPost2010PropOp32
 70
     1
102
RTVSPost2010Prop33
280
     0
102
RTVSPost2010PropOp33
 70
     1
102
RTVSPost2010Prop34
280
     0
102
RTVSPost2010PropOp34
 70
     1
102
RTVSPost2010Prop35
280
     0
102
RTVSPost2010PropOp35
 70
     1
102
RTVSPost2010Prop36
280
     0
102
RTVSPost2010PropOp36
 70
     1
102
RTVSPost2010Prop37
 90
       50
102
RTVSPost2010PropOp37
 70
     1
102
RTVSPost2010Prop38
140
0.0
102
RTVSPost2010PropOp38
 70
     1
102
RTVSPost2010Prop39
140
1.0
102
RTVSPost2010PropOp39
 70
     1
102
RTVSPost2010Prop40
 90
        0
102
RTVSPost2010PropOp40
 70
     1
102
RTVSPost2010Prop41ColorIndex
 90
       18
102
RTVSPost2010Prop41ColorRGB
 90
        0
102
RTVSPost2010PropOp41
 70
     1
102
RTVSPost2010Prop42
 90
       50
102
RTVSPost2010PropOp42
 70
     1
102
RTVSPost2010Prop43
 90
        3
102
RTVSPost2010PropOp43
 70
     1
102
RTVSPost2010Prop44ColorIndex
 90
        5
102
RTVSPost2010Prop44ColorRGB
 90
      255
102
RTVSPost2010PropOp44
 70
     1
102
RTVSPost2010Prop45
280
     0
102
RTVSPost2010PropOp45
 70
     1
102
RTVSPost2010Prop46
 90
       50
102
RTVSPost2010PropOp46
 70
     1
102
RTVSPost2010Prop47
 90
       50
102
RTVSPost2010PropOp47
 70
     1
102
RTVSPost2010Prop48
 90
       50
102
RTVSPost2010PropOp48
 70
     1
102
RTVSPost2010Prop49
280
     0
102
RTVSPost2010PropOp49
 70
     1
102
RTVSPost2010Prop50
 90
       50
102
RTVSPost2010PropOp50
 70
     1
102
RTVSPost2010Prop51ColorIndex
 90
      256
102
RTVSPost2010Prop51ColorRGB
 90
-16777216
102
RTVSPost2010PropOp51
 70
     0
102
RTVSPost2010Prop52
140
1.0
102
RTVSPost2010PropOp52
 70
     0
102
RTVSPost2010Prop53
 90
        2
102
RTVSPost2010PropOp53
 70
     1
102
RTVSPost2010Prop54
  1
strokes_ogs.tif
102
RTVSPost2010PropOp54
 70
     1
102
RTVSPost2010Prop55
280
     0
102
RTVSPost2010PropOp55
 70
     1
102
RTVSPost2010Prop56
140
1.0
102
RTVSPost2010PropOp56
 70
     1
102
RTVSPost2010Prop57
140
1.0
102
RTVSPost2010PropOp57
 70
     1
  0
XRECORD
  5
174
102
{ACAD_REACTORS
330
173
102
}
330
173
100
AcDbXrecord
280
     1
102
RTVSPost2010Prop28
280
     0
102
RTVSPost2010PropOp28
 70
     1
102
RTVSPost2010Prop29
280
     1
102
RTVSPost2010PropOp29
 70
     1
102
RTVSPost2010Prop30
280
     1
102
RTVSPost2010PropOp30
 70
     1
102
RTVSPost2010Prop31
280
     0
102
RTVSPost2010PropOp31
 70
     1
102
RTVSPost2010Prop32
280
     0
102
RTVSPost2010PropOp32
 70
     1
102
RTVSPost2010Prop33
280
     0
102
RTVSPost2010PropOp33
 70
     1
102
RTVSPost2010Prop34
280
     0
102
RTVSPost2010PropOp34
 70
     1
102
RTVSPost2010Prop35
280
     0
102
RTVSPost2010PropOp35
 70
     1
102
RTVSPost2010Prop36
280
     0
102
RTVSPost2010PropOp36
 70
     1
102
RTVSPost2010Prop37
 90
       50
102
RTVSPost2010PropOp37
 70
     1
102
RTVSPost2010Prop38
140
0.0
102
RTVSPost2010PropOp38
 70
     1
102
RTVSPost2010Prop39
140
1.0
102
RTVSPost2010PropOp39
 70
     1
102
RTVSPost2010Prop40
 90
        0
102
RTVSPost2010PropOp40
 70
     1
102
RTVSPost2010Prop41ColorIndex
 90
       18
102
RTVSPost2010Prop41ColorRGB
 90
        0
102
RTVSPost2010PropOp41
 70
     1
102
RTVSPost2010Prop42
 90
       50
102
RTVSPost2010PropOp42
 70
     1
102
RTVSPost2010Prop43
 90
        3
102
RTVSPost2010PropOp43
 70
     1
102
RTVSPost2010Prop44ColorIndex
 90
        5
102
RTVSPost2010Prop44ColorRGB
 90
      255
102
RTVSPost2010PropOp44
 70
     1
102
RTVSPost2010Prop45
280
     0
102
RTVSPost2010PropOp45
 70
     1
102
RTVSPost2010Prop46
 90
       50
102
RTVSPost2010PropOp46
 70
     1
102
RTVSPost2010Prop47
 90
       50
102
RTVSPost2010PropOp47
 70
     1
102
RTVSPost2010Prop48
 90
       50
102
RTVSPost2010PropOp48
 70
     1
102
RTVSPost2010Prop49
280
     0
102
RTVSPost2010PropOp49
 70
     1
102
RTVSPost2010Prop50
 90
       50
102
RTVSPost2010PropOp50
 70
     1
102
RTVSPost2010Prop51ColorIndex
 90
      256
102
RTVSPost2010Prop51ColorRGB
 90
-16777216
102
RTVSPost2010PropOp51
 70
     0
102
RTVSPost2010Prop52
140
1.0
102
RTVSPost2010PropOp52
 70
     0
102
RTVSPost2010Prop53
 90
        2
102
RTVSPost2010PropOp53
 70
     1
102
RTVSPost2010Prop54
  1
strokes_ogs.tif
102
RTVSPost2010PropOp54
 70
     1
102
RTVSPost2010Prop55
280
     0
102
RTVSPost2010PropOp55
 70
     1
102
RTVSPost2010Prop56
140
1.0
102
RTVSPost2010PropOp56
 70
     1
102
RTVSPost2010Prop57
140
1.0
102
RTVSPost2010PropOp57
 70
     1
  0
XRECORD
  5
176
102
{ACAD_REACTORS
330
175
102
}
330
175
100
AcDbXrecord
280
     1
102
RTVSPost2010Prop28
280
     0
102
RTVSPost2010PropOp28
 70
     1
102
RTVSPost2010Prop29
280
     1
102
RTVSPost2010PropOp29
 70
     1
102
RTVSPost2010Prop30
280
     1
102
RTVSPost2010PropOp30
 70
     1
102
RTVSPost2010Prop31
280
     0
102
RTVSPost2010PropOp31
 70
     1
102
RTVSPost2010Prop32
280
     0
102
RTVSPost2010PropOp32
 70
     1
102
RTVSPost2010Prop33
280
     0
102
RTVSPost2010PropOp33
 70
     1
102
RTVSPost2010Prop34
280
     0
102
RTVSPost2010PropOp34
 70
     1
102
RTVSPost2010Prop35
280
     0
102
RTVSPost2010PropOp35
 70
     1
102
RTVSPost2010Prop36
280
     0
102
RTVSPost2010PropOp36
 70
     1
102
RTVSPost2010Prop37
 90
       50
102
RTVSPost2010PropOp37
 70
     1
102
RTVSPost2010Prop38
140
0.0
102
RTVSPost2010PropOp38
 70
     1
102
RTVSPost2010Prop39
140
1.0
102
RTVSPost2010PropOp39
 70
     1
102
RTVSPost2010Prop40
 90
        0
102
RTVSPost2010PropOp40
 70
     1
102
RTVSPost2010Prop41ColorIndex
 90
       18
102
RTVSPost2010Prop41ColorRGB
 90
        0
102
RTVSPost2010PropOp41
 70
     1
102
RTVSPost2010Prop42
 90
       50
102
RTVSPost2010PropOp42
 70
     1
102
RTVSPost2010Prop43
 90
        3
102
RTVSPost2010PropOp43
 70
     1
102
RTVSPost2010Prop44ColorIndex
 90
        5
102
RTVSPost2010Prop44ColorRGB
 90
      255
102
RTVSPost2010PropOp44
 70
     1
102
RTVSPost2010Prop45
280
     0
102
RTVSPost2010PropOp45
 70
     1
102
RTVSPost2010Prop46
 90
       50
102
RTVSPost2010PropOp46
 70
     1
102
RTVSPost2010Prop47
 90
       50
102
RTVSPost2010PropOp47
 70
     1
102
RTVSPost2010Prop48
 90
       50
102
RTVSPost2010PropOp48
 70
     1
102
RTVSPost2010Prop49
280
     0
102
RTVSPost2010PropOp49
 70
     1
102
RTVSPost2010Prop50
 90
       50
102
RTVSPost2010PropOp50
 70
     1
102
RTVSPost2010Prop51ColorIndex
 90
      256
102
RTVSPost2010Prop51ColorRGB
 90
-16777216
102
RTVSPost2010PropOp51
 70
     0
102
RTVSPost2010Prop52
140
1.0
102
RTVSPost2010PropOp52
 70
     0
102
RTVSPost2010Prop53
 90
        2
102
RTVSPost2010PropOp53
 70
     1
102
RTVSPost2010Prop54
  1
strokes_ogs.tif
102
RTVSPost2010PropOp54
 70
     1
102
RTVSPost2010Prop55
280
     0
102
RTVSPost2010PropOp55
 70
     1
102
RTVSPost2010Prop56
140
1.0
102
RTVSPost2010PropOp56
 70
     1
102
RTVSPost2010Prop57
140
1.0
102
RTVSPost2010PropOp57
 70
     1
  0
XRECORD
  5
178
102
{ACAD_REACTORS
330
177
102
}
330
177
100
AcDbXrecord
280
     1
102
RTVSPost2010Prop28
280
     0
102
RTVSPost2010PropOp28
 70
     1
102
RTVSPost2010Prop29
280
     1
102
RTVSPost2010PropOp29
 70
     1
102
RTVSPost2010Prop30
280
     1
102
RTVSPost2010PropOp30
 70
     1
102
RTVSPost2010Prop31
280
     0
102
RTVSPost2010PropOp31
 70
     1
102
RTVSPost2010Prop32
280
     0
102
RTVSPost2010PropOp32
 70
     1
102
RTVSPost2010Prop33
280
     0
102
RTVSPost2010PropOp33
 70
     1
102
RTVSPost2010Prop34
280
     0
102
RTVSPost2010PropOp34
 70
     1
102
RTVSPost2010Prop35
280
     0
102
RTVSPost2010PropOp35
 70
     1
102
RTVSPost2010Prop36
280
     0
102
RTVSPost2010PropOp36
 70
     1
102
RTVSPost2010Prop37
 90
       50
102
RTVSPost2010PropOp37
 70
     1
102
RTVSPost2010Prop38
140
0.0
102
RTVSPost2010PropOp38
 70
     1
102
RTVSPost2010Prop39
140
1.0
102
RTVSPost2010PropOp39
 70
     1
102
RTVSPost2010Prop40
 90
        0
102
RTVSPost2010PropOp40
 70
     1
102
RTVSPost2010Prop41ColorIndex
 90
       18
102
RTVSPost2010Prop41ColorRGB
 90
        0
102
RTVSPost2010PropOp41
 70
     1
102
RTVSPost2010Prop42
 90
       50
102
RTVSPost2010PropOp42
 70
     1
102
RTVSPost2010Prop43
 90
        3
102
RTVSPost2010PropOp43
 70
     1
102
RTVSPost2010Prop44ColorIndex
 90
        5
102
RTVSPost2010Prop44ColorRGB
 90
      255
102
RTVSPost2010PropOp44
 70
     1
102
RTVSPost2010Prop45
280
     0
102
RTVSPost2010PropOp45
 70
     1
102
RTVSPost2010Prop46
 90
       50
102
RTVSPost2010PropOp46
 70
     1
102
RTVSPost2010Prop47
 90
       50
102
RTVSPost2010PropOp47
 70
     1
102
RTVSPost2010Prop48
 90
       50
102
RTVSPost2010PropOp48
 70
     1
102
RTVSPost2010Prop49
280
     0
102
RTVSPost2010PropOp49
 70
     1
102
RTVSPost2010Prop50
 90
       50
102
RTVSPost2010PropOp50
 70
     1
102
RTVSPost2010Prop51ColorIndex
 90
      256
102
RTVSPost2010Prop51ColorRGB
 90
-16777216
102
RTVSPost2010PropOp51
 70
     0
102
RTVSPost2010Prop52
140
1.0
102
RTVSPost2010PropOp52
 70
     0
102
RTVSPost2010Prop53
 90
        2
102
RTVSPost2010PropOp53
 70
     1
102
RTVSPost2010Prop54
  1
strokes_ogs.tif
102
RTVSPost2010PropOp54
 70
     1
102
RTVSPost2010Prop55
280
     0
102
RTVSPost2010PropOp55
 70
     1
102
RTVSPost2010Prop56
140
1.0
102
RTVSPost2010PropOp56
 70
     1
102
RTVSPost2010Prop57
140
1.0
102
RTVSPost2010PropOp57
 70
     1
  0
XRECORD
  5
17A
102
{ACAD_REACTORS
330
179
102
}
330
179
100
AcDbXrecord
280
     1
102
RTVSPost2010Prop28
280
     0
102
RTVSPost2010PropOp28
 70
     1
102
RTVSPost2010Prop29
280
     1
102
RTVSPost2010PropOp29
 70
     1
102
RTVSPost2010Prop30
280
     1
102
RTVSPost2010PropOp30
 70
     1
102
RTVSPost2010Prop31
280
     0
102
RTVSPost2010PropOp31
 70
     1
102
RTVSPost2010Prop32
280
     0
102
RTVSPost2010PropOp32
 70
     1
102
RTVSPost2010Prop33
280
     0
102
RTVSPost2010PropOp33
 70
     1
102
RTVSPost2010Prop34
280
     0
102
RTVSPost2010PropOp34
 70
     1
102
RTVSPost2010Prop35
280
     0
102
RTVSPost2010PropOp35
 70
     1
102
RTVSPost2010Prop36
280
     0
102
RTVSPost2010PropOp36
 70
     1
102
RTVSPost2010Prop37
 90
       50
102
RTVSPost2010PropOp37
 70
     1
102
RTVSPost2010Prop38
140
0.0
102
RTVSPost2010PropOp38
 70
     1
102
RTVSPost2010Prop39
140
1.0
102
RTVSPost2010PropOp39
 70
     1
102
RTVSPost2010Prop40
 90
        0
102
RTVSPost2010PropOp40
 70
     1
102
RTVSPost2010Prop41ColorIndex
 90
       18
102
RTVSPost2010Prop41ColorRGB
 90
        0
102
RTVSPost2010PropOp41
 70
     1
102
RTVSPost2010Prop42
 90
       50
102
RTVSPost2010PropOp42
 70
     1
102
RTVSPost2010Prop43
 90
        3
102
RTVSPost2010PropOp43
 70
     1
102
RTVSPost2010Prop44ColorIndex
 90
        5
102
RTVSPost2010Prop44ColorRGB
 90
      255
102
RTVSPost2010PropOp44
 70
     1
102
RTVSPost2010Prop45
280
     0
102
RTVSPost2010PropOp45
 70
     1
102
RTVSPost2010Prop46
 90
       50
102
RTVSPost2010PropOp46
 70
     1
102
RTVSPost2010Prop47
 90
       50
102
RTVSPost2010PropOp47
 70
     1
102
RTVSPost2010Prop48
 90
       50
102
RTVSPost2010PropOp48
 70
     1
102
RTVSPost2010Prop49
280
     0
102
RTVSPost2010PropOp49
 70
     1
102
RTVSPost2010Prop50
 90
       50
102
RTVSPost2010PropOp50
 70
     1
102
RTVSPost2010Prop51ColorIndex
 90
      256
102
RTVSPost2010Prop51ColorRGB
 90
-16777216
102
RTVSPost2010PropOp51
 70
     0
102
RTVSPost2010Prop52
140
1.0
102
RTVSPost2010PropOp52
 70
     0
102
RTVSPost2010Prop53
 90
        2
102
RTVSPost2010PropOp53
 70
     1
102
RTVSPost2010Prop54
  1
strokes_ogs.tif
102
RTVSPost2010PropOp54
 70
     1
102
RTVSPost2010Prop55
280
     0
102
RTVSPost2010PropOp55
 70
     1
102
RTVSPost2010Prop56
140
1.0
102
RTVSPost2010PropOp56
 70
     1
102
RTVSPost2010Prop57
140
1.0
102
RTVSPost2010PropOp57
 70
     1
  0
XRECORD
  5
182
102
{ACAD_REACTORS
330
181
102
}
330
181
100
AcDbXrecord
280
     1
102
RTVSPost2010Prop28
280
     0
102
RTVSPost2010PropOp28
 70
     1
102
RTVSPost2010Prop29
280
     1
102
RTVSPost2010PropOp29
 70
     1
102
RTVSPost2010Prop30
280
     1
102
RTVSPost2010PropOp30
 70
     1
102
RTVSPost2010Prop31
280
     0
102
RTVSPost2010PropOp31
 70
     1
102
RTVSPost2010Prop32
280
     0
102
RTVSPost2010PropOp32
 70
     1
102
RTVSPost2010Prop33
280
     0
102
RTVSPost2010PropOp33
 70
     1
102
RTVSPost2010Prop34
280
     0
102
RTVSPost2010PropOp34
 70
     1
102
RTVSPost2010Prop35
280
     0
102
RTVSPost2010PropOp35
 70
     1
102
RTVSPost2010Prop36
280
     0
102
RTVSPost2010PropOp36
 70
     1
102
RTVSPost2010Prop37
 90
       50
102
RTVSPost2010PropOp37
 70
     1
102
RTVSPost2010Prop38
140
0.0
102
RTVSPost2010PropOp38
 70
     1
102
RTVSPost2010Prop39
140
1.0
102
RTVSPost2010PropOp39
 70
     1
102
RTVSPost2010Prop40
 90
        0
102
RTVSPost2010PropOp40
 70
     1
102
RTVSPost2010Prop41ColorIndex
 90
       18
102
RTVSPost2010Prop41ColorRGB
 90
        0
102
RTVSPost2010PropOp41
 70
     1
102
RTVSPost2010Prop42
 90
       50
102
RTVSPost2010PropOp42
 70
     1
102
RTVSPost2010Prop43
 90
        3
102
RTVSPost2010PropOp43
 70
     1
102
RTVSPost2010Prop44ColorIndex
 90
        5
102
RTVSPost2010Prop44ColorRGB
 90
      255
102
RTVSPost2010PropOp44
 70
     1
102
RTVSPost2010Prop45
280
     0
102
RTVSPost2010PropOp45
 70
     1
102
RTVSPost2010Prop46
 90
       50
102
RTVSPost2010PropOp46
 70
     1
102
RTVSPost2010Prop47
 90
       50
102
RTVSPost2010PropOp47
 70
     1
102
RTVSPost2010Prop48
 90
       50
102
RTVSPost2010PropOp48
 70
     1
102
RTVSPost2010Prop49
280
     0
102
RTVSPost2010PropOp49
 70
     1
102
RTVSPost2010Prop50
 90
       50
102
RTVSPost2010PropOp50
 70
     1
102
RTVSPost2010Prop51ColorIndex
 90
      256
102
RTVSPost2010Prop51ColorRGB
 90
-16777216
102
RTVSPost2010PropOp51
 70
     0
102
RTVSPost2010Prop52
140
1.0
102
RTVSPost2010PropOp52
 70
     0
102
RTVSPost2010Prop53
 90
        2
102
RTVSPost2010PropOp53
 70
     1
102
RTVSPost2010Prop54
  1
strokes_ogs.tif
102
RTVSPost2010PropOp54
 70
     1
102
RTVSPost2010Prop55
280
     0
102
RTVSPost2010PropOp55
 70
     1
102
RTVSPost2010Prop56
140
1.0
102
RTVSPost2010PropOp56
 70
     1
102
RTVSPost2010Prop57
140
1.0
102
RTVSPost2010PropOp57
 70
     1
  0
XRECORD
  5
19E
102
{ACAD_REACTORS
330
19D
102
}
330
19D
100
AcDbXrecord
280
     1
102
RTVSPost2010Prop28
280
     0
102
RTVSPost2010PropOp28
 70
     0
102
RTVSPost2010Prop29
280
     1
102
RTVSPost2010PropOp29
 70
     0
102
RTVSPost2010Prop30
280
     1
102
RTVSPost2010PropOp30
 70
     0
102
RTVSPost2010Prop31
280
     0
102
RTVSPost2010PropOp31
 70
     0
102
RTVSPost2010Prop32
280
     0
102
RTVSPost2010PropOp32
 70
     0
102
RTVSPost2010Prop33
280
     0
102
RTVSPost2010PropOp33
 70
     0
102
RTVSPost2010Prop34
280
     0
102
RTVSPost2010PropOp34
 70
     0
102
RTVSPost2010Prop35
280
     0
102
RTVSPost2010PropOp35
 70
     0
102
RTVSPost2010Prop36
280
     0
102
RTVSPost2010PropOp36
 70
     0
102
RTVSPost2010Prop37
 90
       50
102
RTVSPost2010PropOp37
 70
     0
102
RTVSPost2010Prop38
140
0.0
102
RTVSPost2010PropOp38
 70
     0
102
RTVSPost2010Prop39
140
1.0
102
RTVSPost2010PropOp39
 70
     0
102
RTVSPost2010Prop40
 90
        0
102
RTVSPost2010PropOp40
 70
     0
102
RTVSPost2010Prop41ColorIndex
 90
       18
102
RTVSPost2010Prop41ColorRGB
 90
        0
102
RTVSPost2010PropOp41
 70
     0
102
RTVSPost2010Prop42
 90
       50
102
RTVSPost2010PropOp42
 70
     0
102
RTVSPost2010Prop43
 90
        3
102
RTVSPost2010PropOp43
 70
     0
102
RTVSPost2010Prop44ColorIndex
 90
        5
102
RTVSPost2010Prop44ColorRGB
 90
      255
102
RTVSPost2010PropOp44
 70
     0
102
RTVSPost2010Prop45
280
     0
102
RTVSPost2010PropOp45
 70
     0
102
RTVSPost2010Prop46
 90
       50
102
RTVSPost2010PropOp46
 70
     0
102
RTVSPost2010Prop47
 90
       50
102
RTVSPost2010PropOp47
 70
     0
102
RTVSPost2010Prop48
 90
       50
102
RTVSPost2010PropOp48
 70
     0
102
RTVSPost2010Prop49
280
     0
102
RTVSPost2010PropOp49
 70
     0
102
RTVSPost2010Prop50
 90
       50
102
RTVSPost2010PropOp50
 70
     0
102
RTVSPost2010Prop51ColorIndex
 90
      256
102
RTVSPost2010Prop51ColorRGB
 90
-16777216
102
RTVSPost2010PropOp51
 70
     0
102
RTVSPost2010Prop52
140
1.0
102
RTVSPost2010PropOp52
 70
     0
102
RTVSPost2010Prop53
 90
        2
102
RTVSPost2010PropOp53
 70
     0
102
RTVSPost2010Prop54
  1
strokes_ogs.tif
102
RTVSPost2010PropOp54
 70
     0
102
RTVSPost2010Prop55
280
     0
102
RTVSPost2010PropOp55
 70
     0
102
RTVSPost2010Prop56
140
1.0
102
RTVSPost2010PropOp56
 70
     0
102
RTVSPost2010Prop57
140
1.0
102
RTVSPost2010PropOp57
 70
     0
  0
XRECORD
  5
18E
102
{ACAD_REACTORS
330
18D
102
}
330
18D
100
AcDbXrecord
280
     1
102
RTVSPost2010Prop28
280
     0
102
RTVSPost2010PropOp28
 70
     1
102
RTVSPost2010Prop29
280
     1
102
RTVSPost2010PropOp29
 70
     1
102
RTVSPost2010Prop30
280
     1
102
RTVSPost2010PropOp30
 70
     1
102
RTVSPost2010Prop31
280
     0
102
RTVSPost2010PropOp31
 70
     1
102
RTVSPost2010Prop32
280
     0
102
RTVSPost2010PropOp32
 70
     1
102
RTVSPost2010Prop33
280
     0
102
RTVSPost2010PropOp33
 70
     1
102
RTVSPost2010Prop34
280
     0
102
RTVSPost2010PropOp34
 70
     1
102
RTVSPost2010Prop35
280
     0
102
RTVSPost2010PropOp35
 70
     1
102
RTVSPost2010Prop36
280
     0
102
RTVSPost2010PropOp36
 70
     1
102
RTVSPost2010Prop37
 90
       50
102
RTVSPost2010PropOp37
 70
     1
102
RTVSPost2010Prop38
140
0.0
102
RTVSPost2010PropOp38
 70
     1
102
RTVSPost2010Prop39
140
1.0
102
RTVSPost2010PropOp39
 70
     1
102
RTVSPost2010Prop40
 90
        0
102
RTVSPost2010PropOp40
 70
     1
102
RTVSPost2010Prop41ColorIndex
 90
       18
102
RTVSPost2010Prop41ColorRGB
 90
        0
102
RTVSPost2010PropOp41
 70
     1
102
RTVSPost2010Prop42
 90
       50
102
RTVSPost2010PropOp42
 70
     1
102
RTVSPost2010Prop43
 90
        3
102
RTVSPost2010PropOp43
 70
     1
102
RTVSPost2010Prop44ColorIndex
 90
        5
102
RTVSPost2010Prop44ColorRGB
 90
      255
102
RTVSPost2010PropOp44
 70
     1
102
RTVSPost2010Prop45
280
     0
102
RTVSPost2010PropOp45
 70
     1
102
RTVSPost2010Prop46
 90
       50
102
RTVSPost2010PropOp46
 70
     1
102
RTVSPost2010Prop47
 90
       50
102
RTVSPost2010PropOp47
 70
     1
102
RTVSPost2010Prop48
 90
       50
102
RTVSPost2010PropOp48
 70
     1
102
RTVSPost2010Prop49
280
     0
102
RTVSPost2010PropOp49
 70
     1
102
RTVSPost2010Prop50
 90
       50
102
RTVSPost2010PropOp50
 70
     1
102
RTVSPost2010Prop51ColorIndex
 90
      256
102
RTVSPost2010Prop51ColorRGB
 90
-16777216
102
RTVSPost2010PropOp51
 70
     0
102
RTVSPost2010Prop52
140
1.0
102
RTVSPost2010PropOp52
 70
     0
102
RTVSPost2010Prop53
 90
        2
102
RTVSPost2010PropOp53
 70
     1
102
RTVSPost2010Prop54
  1
strokes_ogs.tif
102
RTVSPost2010PropOp54
 70
     1
102
RTVSPost2010Prop55
280
     0
102
RTVSPost2010PropOp55
 70
     1
102
RTVSPost2010Prop56
140
1.0
102
RTVSPost2010PropOp56
 70
     1
102
RTVSPost2010Prop57
140
1.0
102
RTVSPost2010PropOp57
 70
     1
  0
XRECORD
  5
1A0
102
{ACAD_REACTORS
330
19F
102
}
330
19F
100
AcDbXrecord
280
     1
102
RTVSPost2010Prop28
280
     0
102
RTVSPost2010PropOp28
 70
     0
102
RTVSPost2010Prop29
280
     1
102
RTVSPost2010PropOp29
 70
     0
102
RTVSPost2010Prop30
280
     1
102
RTVSPost2010PropOp30
 70
     0
102
RTVSPost2010Prop31
280
     0
102
RTVSPost2010PropOp31
 70
     0
102
RTVSPost2010Prop32
280
     0
102
RTVSPost2010PropOp32
 70
     0
102
RTVSPost2010Prop33
280
     0
102
RTVSPost2010PropOp33
 70
     0
102
RTVSPost2010Prop34
280
     0
102
RTVSPost2010PropOp34
 70
     0
102
RTVSPost2010Prop35
280
     0
102
RTVSPost2010PropOp35
 70
     0
102
RTVSPost2010Prop36
280
     0
102
RTVSPost2010PropOp36
 70
     0
102
RTVSPost2010Prop37
 90
       50
102
RTVSPost2010PropOp37
 70
     0
102
RTVSPost2010Prop38
140
0.0
102
RTVSPost2010PropOp38
 70
     0
102
RTVSPost2010Prop39
140
1.0
102
RTVSPost2010PropOp39
 70
     0
102
RTVSPost2010Prop40
 90
        0
102
RTVSPost2010PropOp40
 70
     0
102
RTVSPost2010Prop41ColorIndex
 90
       18
102
RTVSPost2010Prop41ColorRGB
 90
        0
102
RTVSPost2010PropOp41
 70
     0
102
RTVSPost2010Prop42
 90
       50
102
RTVSPost2010PropOp42
 70
     0
102
RTVSPost2010Prop43
 90
        3
102
RTVSPost2010PropOp43
 70
     0
102
RTVSPost2010Prop44ColorIndex
 90
        5
102
RTVSPost2010Prop44ColorRGB
 90
      255
102
RTVSPost2010PropOp44
 70
     0
102
RTVSPost2010Prop45
280
     0
102
RTVSPost2010PropOp45
 70
     0
102
RTVSPost2010Prop46
 90
       50
102
RTVSPost2010PropOp46
 70
     0
102
RTVSPost2010Prop47
 90
       50
102
RTVSPost2010PropOp47
 70
     0
102
RTVSPost2010Prop48
 90
       50
102
RTVSPost2010PropOp48
 70
     0
102
RTVSPost2010Prop49
280
     0
102
RTVSPost2010PropOp49
 70
     0
102
RTVSPost2010Prop50
 90
       50
102
RTVSPost2010PropOp50
 70
     0
102
RTVSPost2010Prop51ColorIndex
 90
      256
102
RTVSPost2010Prop51ColorRGB
 90
-16777216
102
RTVSPost2010PropOp51
 70
     0
102
RTVSPost2010Prop52
140
1.0
102
RTVSPost2010PropOp52
 70
     0
102
RTVSPost2010Prop53
 90
        2
102
RTVSPost2010PropOp53
 70
     0
102
RTVSPost2010Prop54
  1
strokes_ogs.tif
102
RTVSPost2010PropOp54
 70
     0
102
RTVSPost2010Prop55
280
     0
102
RTVSPost2010PropOp55
 70
     0
102
RTVSPost2010Prop56
140
1.0
102
RTVSPost2010PropOp56
 70
     0
102
RTVSPost2010Prop57
140
1.0
102
RTVSPost2010PropOp57
 70
     0
  0
XRECORD
  5
186
102
{ACAD_REACTORS
330
185
102
}
330
185
100
AcDbXrecord
280
     1
102
RTVSPost2010Prop28
280
     0
102
RTVSPost2010PropOp28
 70
     1
102
RTVSPost2010Prop29
280
     1
102
RTVSPost2010PropOp29
 70
     1
102
RTVSPost2010Prop30
280
     1
102
RTVSPost2010PropOp30
 70
     1
102
RTVSPost2010Prop31
280
     0
102
RTVSPost2010PropOp31
 70
     1
102
RTVSPost2010Prop32
280
     0
102
RTVSPost2010PropOp32
 70
     1
102
RTVSPost2010Prop33
280
     0
102
RTVSPost2010PropOp33
 70
     1
102
RTVSPost2010Prop34
280
     0
102
RTVSPost2010PropOp34
 70
     1
102
RTVSPost2010Prop35
280
     0
102
RTVSPost2010PropOp35
 70
     1
102
RTVSPost2010Prop36
280
     0
102
RTVSPost2010PropOp36
 70
     1
102
RTVSPost2010Prop37
 90
       50
102
RTVSPost2010PropOp37
 70
     1
102
RTVSPost2010Prop38
140
0.0
102
RTVSPost2010PropOp38
 70
     1
102
RTVSPost2010Prop39
140
1.0
102
RTVSPost2010PropOp39
 70
     1
102
RTVSPost2010Prop40
 90
        0
102
RTVSPost2010PropOp40
 70
     1
102
RTVSPost2010Prop41ColorIndex
 90
       18
102
RTVSPost2010Prop41ColorRGB
 90
        0
102
RTVSPost2010PropOp41
 70
     1
102
RTVSPost2010Prop42
 90
       50
102
RTVSPost2010PropOp42
 70
     1
102
RTVSPost2010Prop43
 90
        3
102
RTVSPost2010PropOp43
 70
     1
102
RTVSPost2010Prop44ColorIndex
 90
        5
102
RTVSPost2010Prop44ColorRGB
 90
      255
102
RTVSPost2010PropOp44
 70
     1
102
RTVSPost2010Prop45
280
     0
102
RTVSPost2010PropOp45
 70
     1
102
RTVSPost2010Prop46
 90
       50
102
RTVSPost2010PropOp46
 70
     1
102
RTVSPost2010Prop47
 90
       50
102
RTVSPost2010PropOp47
 70
     1
102
RTVSPost2010Prop48
 90
       50
102
RTVSPost2010PropOp48
 70
     1
102
RTVSPost2010Prop49
280
     0
102
RTVSPost2010PropOp49
 70
     1
102
RTVSPost2010Prop50
 90
       50
102
RTVSPost2010PropOp50
 70
     1
102
RTVSPost2010Prop51ColorIndex
 90
      256
102
RTVSPost2010Prop51ColorRGB
 90
-16777216
102
RTVSPost2010PropOp51
 70
     0
102
RTVSPost2010Prop52
140
1.0
102
RTVSPost2010PropOp52
 70
     0
102
RTVSPost2010Prop53
 90
        2
102
RTVSPost2010PropOp53
 70
     1
102
RTVSPost2010Prop54
  1
strokes_ogs.tif
102
RTVSPost2010PropOp54
 70
     1
102
RTVSPost2010Prop55
280
     0
102
RTVSPost2010PropOp55
 70
     1
102
RTVSPost2010Prop56
140
1.0
102
RTVSPost2010PropOp56
 70
     1
102
RTVSPost2010Prop57
140
1.0
102
RTVSPost2010PropOp57
 70
     1
  0
XRECORD
  5
19C
102
{ACAD_REACTORS
330
19B
102
}
330
19B
100
AcDbXrecord
280
     1
102
RTVSPost2010Prop28
280
     0
102
RTVSPost2010PropOp28
 70
     1
102
RTVSPost2010Prop29
280
     1
102
RTVSPost2010PropOp29
 70
     1
102
RTVSPost2010Prop30
280
     1
102
RTVSPost2010PropOp30
 70
     1
102
RTVSPost2010Prop31
280
     0
102
RTVSPost2010PropOp31
 70
     1
102
RTVSPost2010Prop32
280
     0
102
RTVSPost2010PropOp32
 70
     1
102
RTVSPost2010Prop33
280
     0
102
RTVSPost2010PropOp33
 70
     1
102
RTVSPost2010Prop34
280
     0
102
RTVSPost2010PropOp34
 70
     1
102
RTVSPost2010Prop35
280
     0
102
RTVSPost2010PropOp35
 70
     1
102
RTVSPost2010Prop36
280
     0
102
RTVSPost2010PropOp36
 70
     1
102
RTVSPost2010Prop37
 90
       50
102
RTVSPost2010PropOp37
 70
     1
102
RTVSPost2010Prop38
140
0.0
102
RTVSPost2010PropOp38
 70
     1
102
RTVSPost2010Prop39
140
1.0
102
RTVSPost2010PropOp39
 70
     1
102
RTVSPost2010Prop40
 90
        0
102
RTVSPost2010PropOp40
 70
     1
102
RTVSPost2010Prop41ColorIndex
 90
       18
102
RTVSPost2010Prop41ColorRGB
 90
        0
102
RTVSPost2010PropOp41
 70
     1
102
RTVSPost2010Prop42
 90
       50
102
RTVSPost2010PropOp42
 70
     1
102
RTVSPost2010Prop43
 90
        3
102
RTVSPost2010PropOp43
 70
     1
102
RTVSPost2010Prop44ColorIndex
 90
        5
102
RTVSPost2010Prop44ColorRGB
 90
      255
102
RTVSPost2010PropOp44
 70
     1
102
RTVSPost2010Prop45
280
     0
102
RTVSPost2010PropOp45
 70
     1
102
RTVSPost2010Prop46
 90
       50
102
RTVSPost2010PropOp46
 70
     1
102
RTVSPost2010Prop47
 90
       50
102
RTVSPost2010PropOp47
 70
     1
102
RTVSPost2010Prop48
 90
       50
102
RTVSPost2010PropOp48
 70
     1
102
RTVSPost2010Prop49
280
     0
102
RTVSPost2010PropOp49
 70
     1
102
RTVSPost2010Prop50
 90
       50
102
RTVSPost2010PropOp50
 70
     1
102
RTVSPost2010Prop51ColorIndex
 90
      256
102
RTVSPost2010Prop51ColorRGB
 90
-16777216
102
RTVSPost2010PropOp51
 70
     0
102
RTVSPost2010Prop52
140
1.0
102
RTVSPost2010PropOp52
 70
     0
102
RTVSPost2010Prop53
 90
        2
102
RTVSPost2010PropOp53
 70
     1
102
RTVSPost2010Prop54
  1
strokes_ogs.tif
102
RTVSPost2010PropOp54
 70
     1
102
RTVSPost2010Prop55
280
     0
102
RTVSPost2010PropOp55
 70
     1
102
RTVSPost2010Prop56
140
1.0
102
RTVSPost2010PropOp56
 70
     1
102
RTVSPost2010Prop57
140
1.0
102
RTVSPost2010PropOp57
 70
     1
  0
XRECORD
  5
19A
102
{ACAD_REACTORS
330
199
102
}
330
199
100
AcDbXrecord
280
     1
102
RTVSPost2010Prop28
280
     0
102
RTVSPost2010PropOp28
 70
     1
102
RTVSPost2010Prop29
280
     1
102
RTVSPost2010PropOp29
 70
     1
102
RTVSPost2010Prop30
280
     1
102
RTVSPost2010PropOp30
 70
     1
102
RTVSPost2010Prop31
280
     0
102
RTVSPost2010PropOp31
 70
     1
102
RTVSPost2010Prop32
280
     0
102
RTVSPost2010PropOp32
 70
     1
102
RTVSPost2010Prop33
280
     0
102
RTVSPost2010PropOp33
 70
     1
102
RTVSPost2010Prop34
280
     0
102
RTVSPost2010PropOp34
 70
     1
102
RTVSPost2010Prop35
280
     0
102
RTVSPost2010PropOp35
 70
     1
102
RTVSPost2010Prop36
280
     0
102
RTVSPost2010PropOp36
 70
     1
102
RTVSPost2010Prop37
 90
       50
102
RTVSPost2010PropOp37
 70
     1
102
RTVSPost2010Prop38
140
0.0
102
RTVSPost2010PropOp38
 70
     1
102
RTVSPost2010Prop39
140
1.0
102
RTVSPost2010PropOp39
 70
     1
102
RTVSPost2010Prop40
 90
        0
102
RTVSPost2010PropOp40
 70
     1
102
RTVSPost2010Prop41ColorIndex
 90
       18
102
RTVSPost2010Prop41ColorRGB
 90
        0
102
RTVSPost2010PropOp41
 70
     1
102
RTVSPost2010Prop42
 90
       50
102
RTVSPost2010PropOp42
 70
     1
102
RTVSPost2010Prop43
 90
        3
102
RTVSPost2010PropOp43
 70
     1
102
RTVSPost2010Prop44ColorIndex
 90
        5
102
RTVSPost2010Prop44ColorRGB
 90
      255
102
RTVSPost2010PropOp44
 70
     1
102
RTVSPost2010Prop45
280
     0
102
RTVSPost2010PropOp45
 70
     1
102
RTVSPost2010Prop46
 90
       50
102
RTVSPost2010PropOp46
 70
     1
102
RTVSPost2010Prop47
 90
       50
102
RTVSPost2010PropOp47
 70
     1
102
RTVSPost2010Prop48
 90
       50
102
RTVSPost2010PropOp48
 70
     1
102
RTVSPost2010Prop49
280
     0
102
RTVSPost2010PropOp49
 70
     1
102
RTVSPost2010Prop50
 90
       50
102
RTVSPost2010PropOp50
 70
     1
102
RTVSPost2010Prop51ColorIndex
 90
      256
102
RTVSPost2010Prop51ColorRGB
 90
-16777216
102
RTVSPost2010PropOp51
 70
     0
102
RTVSPost2010Prop52
140
1.0
102
RTVSPost2010PropOp52
 70
     0
102
RTVSPost2010Prop53
 90
        2
102
RTVSPost2010PropOp53
 70
     1
102
RTVSPost2010Prop54
  1
strokes_ogs.tif
102
RTVSPost2010PropOp54
 70
     1
102
RTVSPost2010Prop55
280
     0
102
RTVSPost2010PropOp55
 70
     1
102
RTVSPost2010Prop56
140
1.0
102
RTVSPost2010PropOp56
 70
     1
102
RTVSPost2010Prop57
140
1.0
102
RTVSPost2010PropOp57
 70
     1
  0
XRECORD
  5
194
102
{ACAD_REACTORS
330
193
102
}
330
193
100
AcDbXrecord
280
     1
102
RTVSPost2010Prop28
280
     0
102
RTVSPost2010PropOp28
 70
     1
102
RTVSPost2010Prop29
280
     1
102
RTVSPost2010PropOp29
 70
     1
102
RTVSPost2010Prop30
280
     1
102
RTVSPost2010PropOp30
 70
     1
102
RTVSPost2010Prop31
280
     0
102
RTVSPost2010PropOp31
 70
     1
102
RTVSPost2010Prop32
280
     0
102
RTVSPost2010PropOp32
 70
     1
102
RTVSPost2010Prop33
280
     0
102
RTVSPost2010PropOp33
 70
     1
102
RTVSPost2010Prop34
280
     0
102
RTVSPost2010PropOp34
 70
     1
102
RTVSPost2010Prop35
280
     0
102
RTVSPost2010PropOp35
 70
     1
102
RTVSPost2010Prop36
280
     0
102
RTVSPost2010PropOp36
 70
     1
102
RTVSPost2010Prop37
 90
       50
102
RTVSPost2010PropOp37
 70
     1
102
RTVSPost2010Prop38
140
0.0
102
RTVSPost2010PropOp38
 70
     1
102
RTVSPost2010Prop39
140
1.0
102
RTVSPost2010PropOp39
 70
     1
102
RTVSPost2010Prop40
 90
        0
102
RTVSPost2010PropOp40
 70
     1
102
RTVSPost2010Prop41ColorIndex
 90
       18
102
RTVSPost2010Prop41ColorRGB
 90
        0
102
RTVSPost2010PropOp41
 70
     1
102
RTVSPost2010Prop42
 90
       50
102
RTVSPost2010PropOp42
 70
     1
102
RTVSPost2010Prop43
 90
        3
102
RTVSPost2010PropOp43
 70
     1
102
RTVSPost2010Prop44ColorIndex
 90
        5
102
RTVSPost2010Prop44ColorRGB
 90
      255
102
RTVSPost2010PropOp44
 70
     1
102
RTVSPost2010Prop45
280
     0
102
RTVSPost2010PropOp45
 70
     1
102
RTVSPost2010Prop46
 90
       50
102
RTVSPost2010PropOp46
 70
     1
102
RTVSPost2010Prop47
 90
       50
102
RTVSPost2010PropOp47
 70
     1
102
RTVSPost2010Prop48
 90
       50
102
RTVSPost2010PropOp48
 70
     1
102
RTVSPost2010Prop49
280
     0
102
RTVSPost2010PropOp49
 70
     1
102
RTVSPost2010Prop50
 90
       50
102
RTVSPost2010PropOp50
 70
     1
102
RTVSPost2010Prop51ColorIndex
 90
      256
102
RTVSPost2010Prop51ColorRGB
 90
-16777216
102
RTVSPost2010PropOp51
 70
     0
102
RTVSPost2010Prop52
140
1.0
102
RTVSPost2010PropOp52
 70
     0
102
RTVSPost2010Prop53
 90
        2
102
RTVSPost2010PropOp53
 70
     1
102
RTVSPost2010Prop54
  1
strokes_ogs.tif
102
RTVSPost2010PropOp54
 70
     1
102
RTVSPost2010Prop55
280
     0
102
RTVSPost2010PropOp55
 70
     1
102
RTVSPost2010Prop56
140
1.0
102
RTVSPost2010PropOp56
 70
     1
102
RTVSPost2010Prop57
140
1.0
102
RTVSPost2010PropOp57
 70
     1
  0
XRECORD
  5
196
102
{ACAD_REACTORS
330
195
102
}
330
195
100
AcDbXrecord
280
     1
102
RTVSPost2010Prop28
280
     0
102
RTVSPost2010PropOp28
 70
     1
102
RTVSPost2010Prop29
280
     1
102
RTVSPost2010PropOp29
 70
     1
102
RTVSPost2010Prop30
280
     1
102
RTVSPost2010PropOp30
 70
     1
102
RTVSPost2010Prop31
280
     0
102
RTVSPost2010PropOp31
 70
     1
102
RTVSPost2010Prop32
280
     0
102
RTVSPost2010PropOp32
 70
     1
102
RTVSPost2010Prop33
280
     0
102
RTVSPost2010PropOp33
 70
     1
102
RTVSPost2010Prop34
280
     0
102
RTVSPost2010PropOp34
 70
     1
102
RTVSPost2010Prop35
280
     0
102
RTVSPost2010PropOp35
 70
     1
102
RTVSPost2010Prop36
280
     0
102
RTVSPost2010PropOp36
 70
     1
102
RTVSPost2010Prop37
 90
       50
102
RTVSPost2010PropOp37
 70
     1
102
RTVSPost2010Prop38
140
0.0
102
RTVSPost2010PropOp38
 70
     1
102
RTVSPost2010Prop39
140
1.0
102
RTVSPost2010PropOp39
 70
     1
102
RTVSPost2010Prop40
 90
        0
102
RTVSPost2010PropOp40
 70
     1
102
RTVSPost2010Prop41ColorIndex
 90
       18
102
RTVSPost2010Prop41ColorRGB
 90
        0
102
RTVSPost2010PropOp41
 70
     1
102
RTVSPost2010Prop42
 90
       50
102
RTVSPost2010PropOp42
 70
     1
102
RTVSPost2010Prop43
 90
        3
102
RTVSPost2010PropOp43
 70
     1
102
RTVSPost2010Prop44ColorIndex
 90
        5
102
RTVSPost2010Prop44ColorRGB
 90
      255
102
RTVSPost2010PropOp44
 70
     1
102
RTVSPost2010Prop45
280
     0
102
RTVSPost2010PropOp45
 70
     1
102
RTVSPost2010Prop46
 90
       50
102
RTVSPost2010PropOp46
 70
     1
102
RTVSPost2010Prop47
 90
       50
102
RTVSPost2010PropOp47
 70
     1
102
RTVSPost2010Prop48
 90
       50
102
RTVSPost2010PropOp48
 70
     1
102
RTVSPost2010Prop49
280
     0
102
RTVSPost2010PropOp49
 70
     1
102
RTVSPost2010Prop50
 90
       50
102
RTVSPost2010PropOp50
 70
     1
102
RTVSPost2010Prop51ColorIndex
 90
      256
102
RTVSPost2010Prop51ColorRGB
 90
-16777216
102
RTVSPost2010PropOp51
 70
     0
102
RTVSPost2010Prop52
140
1.0
102
RTVSPost2010PropOp52
 70
     0
102
RTVSPost2010Prop53
 90
        2
102
RTVSPost2010PropOp53
 70
     1
102
RTVSPost2010Prop54
  1
strokes_ogs.tif
102
RTVSPost2010PropOp54
 70
     1
102
RTVSPost2010Prop55
280
     0
102
RTVSPost2010PropOp55
 70
     1
102
RTVSPost2010Prop56
140
1.0
102
RTVSPost2010PropOp56
 70
     1
102
RTVSPost2010Prop57
140
1.0
102
RTVSPost2010PropOp57
 70
     1
  0
XRECORD
  5
18C
102
{ACAD_REACTORS
330
18B
102
}
330
18B
100
AcDbXrecord
280
     1
102
RTVSPost2010Prop28
280
     0
102
RTVSPost2010PropOp28
 70
     1
102
RTVSPost2010Prop29
280
     1
102
RTVSPost2010PropOp29
 70
     1
102
RTVSPost2010Prop30
280
     1
102
RTVSPost2010PropOp30
 70
     1
102
RTVSPost2010Prop31
280
     0
102
RTVSPost2010PropOp31
 70
     1
102
RTVSPost2010Prop32
280
     0
102
RTVSPost2010PropOp32
 70
     1
102
RTVSPost2010Prop33
280
     0
102
RTVSPost2010PropOp33
 70
     1
102
RTVSPost2010Prop34
280
     0
102
RTVSPost2010PropOp34
 70
     1
102
RTVSPost2010Prop35
280
     0
102
RTVSPost2010PropOp35
 70
     1
102
RTVSPost2010Prop36
280
     0
102
RTVSPost2010PropOp36
 70
     1
102
RTVSPost2010Prop37
 90
       50
102
RTVSPost2010PropOp37
 70
     1
102
RTVSPost2010Prop38
140
0.0
102
RTVSPost2010PropOp38
 70
     1
102
RTVSPost2010Prop39
140
1.0
102
RTVSPost2010PropOp39
 70
     1
102
RTVSPost2010Prop40
 90
        0
102
RTVSPost2010PropOp40
 70
     1
102
RTVSPost2010Prop41ColorIndex
 90
       18
102
RTVSPost2010Prop41ColorRGB
 90
        0
102
RTVSPost2010PropOp41
 70
     1
102
RTVSPost2010Prop42
 90
       50
102
RTVSPost2010PropOp42
 70
     1
102
RTVSPost2010Prop43
 90
        3
102
RTVSPost2010PropOp43
 70
     1
102
RTVSPost2010Prop44ColorIndex
 90
        5
102
RTVSPost2010Prop44ColorRGB
 90
      255
102
RTVSPost2010PropOp44
 70
     1
102
RTVSPost2010Prop45
280
     0
102
RTVSPost2010PropOp45
 70
     1
102
RTVSPost2010Prop46
 90
       50
102
RTVSPost2010PropOp46
 70
     1
102
RTVSPost2010Prop47
 90
       50
102
RTVSPost2010PropOp47
 70
     1
102
RTVSPost2010Prop48
 90
       50
102
RTVSPost2010PropOp48
 70
     1
102
RTVSPost2010Prop49
280
     0
102
RTVSPost2010PropOp49
 70
     1
102
RTVSPost2010Prop50
 90
       50
102
RTVSPost2010PropOp50
 70
     1
102
RTVSPost2010Prop51ColorIndex
 90
      256
102
RTVSPost2010Prop51ColorRGB
 90
-16777216
102
RTVSPost2010PropOp51
 70
     0
102
RTVSPost2010Prop52
140
1.0
102
RTVSPost2010PropOp52
 70
     0
102
RTVSPost2010Prop53
 90
        2
102
RTVSPost2010PropOp53
 70
     1
102
RTVSPost2010Prop54
  1
strokes_ogs.tif
102
RTVSPost2010PropOp54
 70
     1
102
RTVSPost2010Prop55
280
     0
102
RTVSPost2010PropOp55
 70
     1
102
RTVSPost2010Prop56
140
1.0
102
RTVSPost2010PropOp56
 70
     1
102
RTVSPost2010Prop57
140
1.0
102
RTVSPost2010PropOp57
 70
     1
  0
XRECORD
  5
180
102
{ACAD_REACTORS
330
17F
102
}
330
17F
100
AcDbXrecord
280
     1
102
RTVSPost2010Prop28
280
     0
102
RTVSPost2010PropOp28
 70
     1
102
RTVSPost2010Prop29
280
     1
102
RTVSPost2010PropOp29
 70
     1
102
RTVSPost2010Prop30
280
     1
102
RTVSPost2010PropOp30
 70
     1
102
RTVSPost2010Prop31
280
     0
102
RTVSPost2010PropOp31
 70
     1
102
RTVSPost2010Prop32
280
     0
102
RTVSPost2010PropOp32
 70
     1
102
RTVSPost2010Prop33
280
     0
102
RTVSPost2010PropOp33
 70
     1
102
RTVSPost2010Prop34
280
     0
102
RTVSPost2010PropOp34
 70
     1
102
RTVSPost2010Prop35
280
     0
102
RTVSPost2010PropOp35
 70
     1
102
RTVSPost2010Prop36
280
     0
102
RTVSPost2010PropOp36
 70
     1
102
RTVSPost2010Prop37
 90
       50
102
RTVSPost2010PropOp37
 70
     1
102
RTVSPost2010Prop38
140
0.0
102
RTVSPost2010PropOp38
 70
     1
102
RTVSPost2010Prop39
140
1.0
102
RTVSPost2010PropOp39
 70
     1
102
RTVSPost2010Prop40
 90
        0
102
RTVSPost2010PropOp40
 70
     1
102
RTVSPost2010Prop41ColorIndex
 90
       18
102
RTVSPost2010Prop41ColorRGB
 90
        0
102
RTVSPost2010PropOp41
 70
     1
102
RTVSPost2010Prop42
 90
       50
102
RTVSPost2010PropOp42
 70
     1
102
RTVSPost2010Prop43
 90
        3
102
RTVSPost2010PropOp43
 70
     1
102
RTVSPost2010Prop44ColorIndex
 90
        5
102
RTVSPost2010Prop44ColorRGB
 90
      255
102
RTVSPost2010PropOp44
 70
     1
102
RTVSPost2010Prop45
280
     0
102
RTVSPost2010PropOp45
 70
     1
102
RTVSPost2010Prop46
 90
       50
102
RTVSPost2010PropOp46
 70
     1
102
RTVSPost2010Prop47
 90
       50
102
RTVSPost2010PropOp47
 70
     1
102
RTVSPost2010Prop48
 90
       50
102
RTVSPost2010PropOp48
 70
     1
102
RTVSPost2010Prop49
280
     0
102
RTVSPost2010PropOp49
 70
     1
102
RTVSPost2010Prop50
 90
       50
102
RTVSPost2010PropOp50
 70
     1
102
RTVSPost2010Prop51ColorIndex
 90
      256
102
RTVSPost2010Prop51ColorRGB
 90
-16777216
102
RTVSPost2010PropOp51
 70
     0
102
RTVSPost2010Prop52
140
1.0
102
RTVSPost2010PropOp52
 70
     0
102
RTVSPost2010Prop53
 90
        2
102
RTVSPost2010PropOp53
 70
     1
102
RTVSPost2010Prop54
  1
strokes_ogs.tif
102
RTVSPost2010PropOp54
 70
     1
102
RTVSPost2010Prop55
280
     0
102
RTVSPost2010PropOp55
 70
     1
102
RTVSPost2010Prop56
140
1.0
102
RTVSPost2010PropOp56
 70
     1
102
RTVSPost2010Prop57
140
1.0
102
RTVSPost2010PropOp57
 70
     1
  0
XRECORD
  5
198
102
{ACAD_REACTORS
330
197
102
}
330
197
100
AcDbXrecord
280
     1
102
RTVSPost2010Prop28
280
     0
102
RTVSPost2010PropOp28
 70
     1
102
RTVSPost2010Prop29
280
     1
102
RTVSPost2010PropOp29
 70
     1
102
RTVSPost2010Prop30
280
     1
102
RTVSPost2010PropOp30
 70
     1
102
RTVSPost2010Prop31
280
     0
102
RTVSPost2010PropOp31
 70
     1
102
RTVSPost2010Prop32
280
     0
102
RTVSPost2010PropOp32
 70
     1
102
RTVSPost2010Prop33
280
     0
102
RTVSPost2010PropOp33
 70
     1
102
RTVSPost2010Prop34
280
     0
102
RTVSPost2010PropOp34
 70
     1
102
RTVSPost2010Prop35
280
     0
102
RTVSPost2010PropOp35
 70
     1
102
RTVSPost2010Prop36
280
     0
102
RTVSPost2010PropOp36
 70
     1
102
RTVSPost2010Prop37
 90
       50
102
RTVSPost2010PropOp37
 70
     1
102
RTVSPost2010Prop38
140
0.0
102
RTVSPost2010PropOp38
 70
     1
102
RTVSPost2010Prop39
140
1.0
102
RTVSPost2010PropOp39
 70
     1
102
RTVSPost2010Prop40
 90
        0
102
RTVSPost2010PropOp40
 70
     1
102
RTVSPost2010Prop41ColorIndex
 90
       18
102
RTVSPost2010Prop41ColorRGB
 90
        0
102
RTVSPost2010PropOp41
 70
     1
102
RTVSPost2010Prop42
 90
       50
102
RTVSPost2010PropOp42
 70
     1
102
RTVSPost2010Prop43
 90
        3
102
RTVSPost2010PropOp43
 70
     1
102
RTVSPost2010Prop44ColorIndex
 90
        5
102
RTVSPost2010Prop44ColorRGB
 90
      255
102
RTVSPost2010PropOp44
 70
     1
102
RTVSPost2010Prop45
280
     0
102
RTVSPost2010PropOp45
 70
     1
102
RTVSPost2010Prop46
 90
       50
102
RTVSPost2010PropOp46
 70
     1
102
RTVSPost2010Prop47
 90
       50
102
RTVSPost2010PropOp47
 70
     1
102
RTVSPost2010Prop48
 90
       50
102
RTVSPost2010PropOp48
 70
     1
102
RTVSPost2010Prop49
280
     0
102
RTVSPost2010PropOp49
 70
     1
102
RTVSPost2010Prop50
 90
       50
102
RTVSPost2010PropOp50
 70
     1
102
RTVSPost2010Prop51ColorIndex
 90
      256
102
RTVSPost2010Prop51ColorRGB
 90
-16777216
102
RTVSPost2010PropOp51
 70
     0
102
RTVSPost2010Prop52
140
1.0
102
RTVSPost2010PropOp52
 70
     0
102
RTVSPost2010Prop53
 90
        2
102
RTVSPost2010PropOp53
 70
     1
102
RTVSPost2010Prop54
  1
strokes_ogs.tif
102
RTVSPost2010PropOp54
 70
     1
102
RTVSPost2010Prop55
280
     0
102
RTVSPost2010PropOp55
 70
     1
102
RTVSPost2010Prop56
140
1.0
102
RTVSPost2010PropOp56
 70
     1
102
RTVSPost2010Prop57
140
1.0
102
RTVSPost2010PropOp57
 70
     1
  0
ENDSEC
  0
EOF
