  0
SECTION
  2
HEADER
  9
$ACADVER
  1
AC1024
  9
$ACADMAINTVER
 70
   226
  9
$DWGCODEPAGE
  3
ANSI_932
  9
$INSBASE
 10
0.0
 20
0.0
 30
0.0
  9
$EXTMIN
 10
1.000000000000000E+20
 20
1.000000000000000E+20
 30
1.000000000000000E+20
  9
$EXTMAX
 10
-1.000000000000000E+20
 20
-1.000000000000000E+20
 30
-1.000000000000000E+20
  9
$LIMMIN
 10
0.0
 20
0.0
  9
$LIMMAX
 10
12.0
 20
9.0
  9
$ORTHOMODE
 70
     0
  9
$REGENMODE
 70
     1
  9
$FILLMODE
 70
     1
  9
$QTEXTMODE
 70
     0
  9
$MIRRTEXT
 70
     0
  9
$LTSCALE
 40
1.0
  9
$ATTMODE
 70
     1
  9
$TEXTSIZE
 40
0.2
  9
$TRACEWID
 40
0.05
  9
$TEXTSTYLE
  7
Standard
  9
$CLAYER
  8
0
  9
$CELTYPE
  6
ByLayer
  9
$CECOLOR
 62
   256
  9
$CELTSCALE
 40
1.0
  9
$DISPSILH
 70
     0
  9
$DIMSCALE
 40
1.0
  9
$DIMASZ
 40
0.18
  9
$DIMEXO
 40
0.0625
  9
$DIMDLI
 40
0.38
  9
$DIMRND
 40
0.0
  9
$DIMDLE
 40
0.0
  9
$DIMEXE
 40
0.18
  9
$DIMTP
 40
0.0
  9
$DIMTM
 40
0.0
  9
$DIMTXT
 40
0.18
  9
$DIMCEN
 40
0.09
  9
$DIMTSZ
 40
0.0
  9
$DIMTOL
 70
     0
  9
$DIMLIM
 70
     0
  9
$DIMTIH
 70
     1
  9
$DIMTOH
 70
     1
  9
$DIMSE1
 70
     0
  9
$DIMSE2
 70
     0
  9
$DIMTAD
 70
     0
  9
$DIMZIN
 70
     0
  9
$DIMBLK
  1

  9
$DIMASO
 70
     1
  9
$DIMSHO
 70
     1
  9
$DIMPOST
  1

  9
$DIMAPOST
  1

  9
$DIMALT
 70
     0
  9
$DIMALTD
 70
     2
  9
$DIMALTF
 40
25.4
  9
$DIMLFAC
 40
1.0
  9
$DIMTOFL
 70
     0
  9
$DIMTVP
 40
0.0
  9
$DIMTIX
 70
     0
  9
$DIMSOXD
 70
     0
  9
$DIMSAH
 70
     0
  9
$DIMBLK1
  1

  9
$DIMBLK2
  1

  9
$DIMSTYLE
  2
Standard
  9
$DIMCLRD
 70
     0
  9
$DIMCLRE
 70
     0
  9
$DIMCLRT
 70
     0
  9
$DIMTFAC
 40
1.0
  9
$DIMGAP
 40
0.09
  9
$DIMJUST
 70
     0
  9
$DIMSD1
 70
     0
  9
$DIMSD2
 70
     0
  9
$DIMTOLJ
 70
     1
  9
$DIMTZIN
 70
     0
  9
$DIMALTZ
 70
     0
  9
$DIMALTTZ
 70
     0
  9
$DIMUPT
 70
     0
  9
$DIMDEC
 70
     4
  9
$DIMTDEC
 70
     4
  9
$DIMALTU
 70
     2
  9
$DIMALTTD
 70
     2
  9
$DIMTXSTY
  7
Standard
  9
$DIMAUNIT
 70
     0
  9
$DIMADEC
 70
     0
  9
$DIMALTRND
 40
0.0
  9
$DIMAZIN
 70
     0
  9
$DIMDSEP
 70
    46
  9
$DIMATFIT
 70
     3
  9
$DIMFRAC
 70
     0
  9
$DIMLDRBLK
  1

  9
$DIMLUNIT
 70
     2
  9
$DIMLWD
 70
    -2
  9
$DIMLWE
 70
    -2
  9
$DIMTMOVE
 70
     0
  9
$DIMFXL
 40
1.0
  9
$DIMFXLON
 70
     0
  9
$DIMJOGANG
 40
0.7853981633974483
  9
$DIMTFILL
 70
     0
  9
$DIMTFILLCLR
 70
     0
  9
$DIMARCSYM
 70
     0
  9
$DIMLTYPE
  6

  9
$DIMLTEX1
  6

  9
$DIMLTEX2
  6

  9
$DIMTXTDIRECTION
 70
     0
  9
$LUNITS
 70
     2
  9
$LUPREC
 70
     4
  9
$SKETCHINC
 40
0.1
  9
$FILLETRAD
 40
0.0
  9
$AUNITS
 70
     0
  9
$AUPREC
 70
     0
  9
$MENU
  1
.
  9
$ELEVATION
 40
0.0
  9
$PELEVATION
 40
0.0
  9
$THICKNESS
 40
0.0
  9
$LIMCHECK
 70
     0
  9
$CHAMFERA
 40
0.0
  9
$CHAMFERB
 40
0.0
  9
$CHAMFERC
 40
0.0
  9
$CHAMFERD
 40
0.0
  9
$SKPOLY
 70
     0
  9
$TDCREATE
 40
2459569.503263889
  9
$TDUCREATE
 40
2459569.128263889
  9
$TDUPDATE
 40
2459569.503263889
  9
$TDUUPDATE
 40
2459569.128263889
  9
$TDINDWG
 40
0.0000000000
  9
$TDUSRTIMER
 40
0.0000000000
  9
$USRTIMER
 70
     1
  9
$ANGBASE
 50
0.0
  9
$ANGDIR
 70
     0
  9
$PDMODE
 70
     0
  9
$PDSIZE
 40
0.0
  9
$PLINEWID
 40
0.0
  9
$SPLFRAME
 70
     0
  9
$SPLINETYPE
 70
     6
  9
$SPLINESEGS
 70
     8
  9
$HANDSEED
  5
1E0
  9
$SURFTAB1
 70
     6
  9
$SURFTAB2
 70
     6
  9
$SURFTYPE
 70
     6
  9
$SURFU
 70
     6
  9
$SURFV
 70
     6
  9
$UCSBASE
  2

  9
$UCSNAME
  2

  9
$UCSORG
 10
0.0
 20
0.0
 30
0.0
  9
$UCSXDIR
 10
1.0
 20
0.0
 30
0.0
  9
$UCSYDIR
 10
0.0
 20
1.0
 30
0.0
  9
$UCSORTHOREF
  2

  9
$UCSORTHOVIEW
 70
     0
  9
$UCSORGTOP
 10
0.0
 20
0.0
 30
0.0
  9
$UCSORGBOTTOM
 10
0.0
 20
0.0
 30
0.0
  9
$UCSORGLEFT
 10
0.0
 20
0.0
 30
0.0
  9
$UCSORGRIGHT
 10
0.0
 20
0.0
 30
0.0
  9
$UCSORGFRONT
 10
0.0
 20
0.0
 30
0.0
  9
$UCSORGBACK
 10
0.0
 20
0.0
 30
0.0
  9
$PUCSBASE
  2

  9
$PUCSNAME
  2

  9
$PUCSORG
 10
0.0
 20
0.0
 30
0.0
  9
$PUCSXDIR
 10
1.0
 20
0.0
 30
0.0
  9
$PUCSYDIR
 10
0.0
 20
1.0
 30
0.0
  9
$PUCSORTHOREF
  2

  9
$PUCSORTHOVIEW
 70
     0
  9
$PUCSORGTOP
 10
0.0
 20
0.0
 30
0.0
  9
$PUCSORGBOTTOM
 10
0.0
 20
0.0
 30
0.0
  9
$PUCSORGLEFT
 10
0.0
 20
0.0
 30
0.0
  9
$PUCSORGRIGHT
 10
0.0
 20
0.0
 30
0.0
  9
$PUCSORGFRONT
 10
0.0
 20
0.0
 30
0.0
  9
$PUCSORGBACK
 10
0.0
 20
0.0
 30
0.0
  9
$USERI1
 70
     0
  9
$USERI2
 70
     0
  9
$USERI3
 70
     0
  9
$USERI4
 70
     0
  9
$USERI5
 70
     0
  9
$USERR1
 40
0.0
  9
$USERR2
 40
0.0
  9
$USERR3
 40
0.0
  9
$USERR4
 40
0.0
  9
$USERR5
 40
0.0
  9
$WORLDVIEW
 70
     1
  9
$SHADEDGE
 70
     3
  9
$SHADEDIF
 70
    70
  9
$TILEMODE
 70
     1
  9
$MAXACTVP
 70
    64
  9
$PINSBASE
 10
0.0
 20
0.0
 30
0.0
  9
$PLIMCHECK
 70
     0
  9
$PEXTMIN
 10
1.000000000000000E+20
 20
1.000000000000000E+20
 30
1.000000000000000E+20
  9
$PEXTMAX
 10
-1.000000000000000E+20
 20
-1.000000000000000E+20
 30
-1.000000000000000E+20
  9
$PLIMMIN
 10
0.0
 20
0.0
  9
$PLIMMAX
 10
12.0
 20
9.0
  9
$UNITMODE
 70
     0
  9
$VISRETAIN
 70
     1
  9
$PLINEGEN
 70
     0
  9
$PSLTSCALE
 70
     1
  9
$TREEDEPTH
 70
  3020
  9
$CMLSTYLE
  2
Standard
  9
$CMLJUST
 70
     0
  9
$CMLSCALE
 40
1.0
  9
$PROXYGRAPHICS
 70
     1
  9
$MEASUREMENT
 70
     0
  9
$CELWEIGHT
370
    -1
  9
$ENDCAPS
280
     0
  9
$JOINSTYLE
280
     0
  9
$LWDISPLAY
290
     1
  9
$INSUNITS
 70
     4
  9
$HYPERLINKBASE
  1

  9
$STYLESHEET
  1

  9
$XEDIT
290
     1
  9
$CEPSNTYPE
380
     0
  9
$PSTYLEMODE
290
     1
  9
$FINGERPRINTGUID
  2
{48A09E4B-A060-1345-8DF7-65001EBA5CD0}
  9
$VERSIONGUID
  2
{D30EE087-8190-584E-964F-3BAA2A637C56}
  9
$EXTNAMES
290
     1
  9
$PSVPSCALE
 40
0.0
  9
$OLESTARTUP
290
     0
  9
$SORTENTS
280
   127
  9
$INDEXCTL
280
     0
  9
$HIDETEXT
280
     1
  9
$XCLIPFRAME
280
     2
  9
$HALOGAP
280
     0
  9
$OBSCOLOR
 70
   257
  9
$OBSLTYPE
280
     0
  9
$INTERSECTIONDISPLAY
280
     0
  9
$INTERSECTIONCOLOR
 70
   257
  9
$DIMASSOC
280
     2
  9
$PROJECTNAME
  1

  9
$CAMERADISPLAY
290
     0
  9
$LENSLENGTH
 40
50.0
  9
$CAMERAHEIGHT
 40
0.0
  9
$STEPSPERSEC
 40
2.0
  9
$STEPSIZE
 40
6.0
  9
$3DDWFPREC
 40
2.0
  9
$PSOLWIDTH
 40
0.25
  9
$PSOLHEIGHT
 40
4.0
  9
$LOFTANG1
 40
1.570796326794896
  9
$LOFTANG2
 40
1.570796326794896
  9
$LOFTMAG1
 40
0.0
  9
$LOFTMAG2
 40
0.0
  9
$LOFTPARAM
 70
     7
  9
$LOFTNORMALS
280
     1
  9
$LATITUDE
 40
37.795
  9
$LONGITUDE
 40
-122.394
  9
$NORTHDIRECTION
 40
0.0
  9
$TIMEZONE
 70
 -8000
  9
$LIGHTGLYPHDISPLAY
280
     1
  9
$TILEMODELIGHTSYNCH
280
     1
  9
$CMATERIAL
347
11
  9
$SOLIDHIST
280
     0
  9
$SHOWHIST
280
     1
  9
$DWFFRAME
280
     2
  9
$DGNFRAME
280
     0
  9
$REALWORLDSCALE
290
     1
  9
$INTERFERECOLOR
 62
     1
  9
$INTERFEREOBJVS
345
33
  9
$INTERFEREVPVS
346
30
  9
$CSHADOW
280
     0
  9
$SHADOWPLANELOCATION
 40
0.0
  0
ENDSEC
  0
SECTION
  2
CLASSES
  0
CLASS
  1
ACDBDICTIONARYWDFLT
  2
AcDbDictionaryWithDefault
  3
ObjectDBX Classes
 90
        0
 91
        1
280
     0
281
     0
  0
CLASS
  1
MATERIAL
  2
AcDbMaterial
  3
ObjectDBX Classes
 90
     1153
 91
        3
280
     0
281
     0
  0
CLASS
  1
VISUALSTYLE
  2
AcDbVisualStyle
  3
ObjectDBX Classes
 90
     4095
 91
       24
280
     0
281
     0
  0
CLASS
  1
SCALE
  2
AcDbScale
  3
ObjectDBX Classes
 90
     1153
 91
       17
280
     0
281
     0
  0
CLASS
  1
TABLESTYLE
  2
AcDbTableStyle
  3
ObjectDBX Classes
 90
     4095
 91
        1
280
     0
281
     0
  0
CLASS
  1
MLEADERSTYLE
  2
AcDbMLeaderStyle
  3
ACDB_MLEADERSTYLE_CLASS
 90
     4095
 91
        1
280
     0
281
     0
  0
CLASS
  1
ACDBSECTIONVIEWSTYLE
  2
AcDbSectionViewStyle
  3
ObjectDBX Classes
 90
     1025
 91
        1
280
     0
281
     0
  0
CLASS
  1
ACDBDETAILVIEWSTYLE
  2
AcDbDetailViewStyle
  3
ObjectDBX Classes
 90
     1025
 91
        1
280
     0
281
     0
  0
CLASS
  1
DICTIONARYVAR
  2
AcDbDictionaryVar
  3
ObjectDBX Classes
 90
        0
 91
        5
280
     0
281
     0
  0
CLASS
  1
CELLSTYLEMAP
  2
AcDbCellStyleMap
  3
ObjectDBX Classes
 90
     1152
 91
        1
280
     0
281
     0
  0
ENDSEC
  0
SECTION
  2
TABLES
  0
TABLE
  2
VPORT
  5
8
330
0
100
AcDbSymbolTable
 70
     1
  0
VPORT
  5
57
330
8
100
AcDbSymbolTableRecord
100
AcDbViewportTableRecord
  2
*Active
 70
     0
 10
0.0
 20
0.0
 11
1.0
 21
1.0
 12
0.0
 22
0.0
 13
0.0
 23
0.0
 14
1.0
 24
1.0
 15
0.0
 25
0.0
 16
0.0
 26
0.0
 36
1.0
 17
104.9999999737534
 27
-148.4999999628701
 37
0.0
 40
302.939999924255
 41
0.7070707070707534
 42
50.0
 43
0.0
 44
0.0
 50
0.0
 51
0.0
 71
     0
 72
   100
 73
     1
 74
     0
 75
     1
 76
     0
 77
     0
 78
     0
281
     0
 65
     1
110
0.0
120
0.0
130
0.0
111
1.0
121
0.0
131
0.0
112
0.0
122
1.0
132
0.0
 79
     0
146
0.0
 60
     3
 61
     5
292
     1
282
     1
141
0.0
142
0.0
 63
   250
421
  3355443
  0
ENDTAB
  0
TABLE
  2
LTYPE
  5
5
330
0
100
AcDbSymbolTable
 70
     3
  0
LTYPE
  5
5B
330
5
100
AcDbSymbolTableRecord
100
AcDbLinetypeTableRecord
  2
ByBlock
 70
     0
  3

 72
    65
 73
     0
 40
0.0
  0
LTYPE
  5
5C
330
5
100
AcDbSymbolTableRecord
100
AcDbLinetypeTableRecord
  2
ByLayer
 70
     0
  3

 72
    65
 73
     0
 40
0.0
  0
LTYPE
  5
5D
330
5
100
AcDbSymbolTableRecord
100
AcDbLinetypeTableRecord
  2
Continuous
 70
     0
  3
Solid line
 72
    65
 73
     0
 40
0.0
  0
LTYPE
  5
B8
330
5
100
AcDbSymbolTableRecord
100
AcDbLinetypeTableRecord
  2
AI-Linetype-0
 70
     0
  3
Adobe Illustrator Linetype No. 0
 72
    65
 73
     2
 40
1.411111110758333
 49
0.7055555553791667
 74
     0
 49
-0.7055555553791667
 74
     0
  0
LTYPE
  5
BA
330
5
100
AcDbSymbolTableRecord
100
AcDbLinetypeTableRecord
  2
AI-Linetype-1
 70
     0
  3
Adobe Illustrator Linetype No. 1
 72
    65
 73
     2
 40
1.411111110758333
 49
0.7055555553791667
 74
     0
 49
-0.7055555553791667
 74
     0
  0
ENDTAB
  0
TABLE
  2
LAYER
  5
2
330
0
100
AcDbSymbolTable
 70
     2
  0
LAYER
  5
54
330
2
100
AcDbSymbolTableRecord
100
AcDbLayerTableRecord
  2
0
 70
     0
 62
     7
  6
Continuous
370
    -3
390
F
347
21
  0
LAYER
  5
78
330
2
100
AcDbSymbolTableRecord
100
AcDbLayerTableRecord
  2
レイヤー 1
 70
     0
 62
     7
  6
Continuous
370
     0
390
F
347
21
  0
ENDTAB
  0
TABLE
  2
STYLE
  5
3
330
0
100
AcDbSymbolTable
 70
     2
  0
STYLE
  5
55
330
3
100
AcDbSymbolTableRecord
100
AcDbTextStyleTableRecord
  2
Standard
 70
     0
 40
0.0
 41
1.0
 50
0.0
 71
     0
 42
0.2
  3
txt
  4

  0
STYLE
  5
5A
330
3
100
AcDbSymbolTableRecord
100
AcDbTextStyleTableRecord
  2
Annotative
 70
     0
 40
0.0
 41
1.0
 50
0.0
 71
     0
 42
0.2
  3
txt
  4

1001
AcadAnnotative
1000
AnnotativeData
1002
{
1070
     1
1070
     1
1002
}
  0
ENDTAB
  0
TABLE
  2
VIEW
  5
6
330
0
100
AcDbSymbolTable
 70
     0
  0
ENDTAB
  0
TABLE
  2
UCS
  5
7
330
0
100
AcDbSymbolTable
 70
     0
  0
ENDTAB
  0
TABLE
  2
APPID
  5
9
330
0
100
AcDbSymbolTable
 70
     2
  0
APPID
  5
56
330
9
100
AcDbSymbolTableRecord
100
AcDbRegAppTableRecord
  2
ACAD
 70
     0
  0
APPID
  5
5E
330
9
100
AcDbSymbolTableRecord
100
AcDbRegAppTableRecord
  2
AcadAnnotative
 70
     0
  0
ENDTAB
  0
TABLE
  2
DIMSTYLE
  5
A
330
0
100
AcDbSymbolTable
 70
     2
100
AcDbDimStyleTable
 71
     0
  0
DIMSTYLE
105
58
330
A
100
AcDbSymbolTableRecord
100
AcDbDimStyleTableRecord
  2
Standard
 70
     0
340
55
  0
DIMSTYLE
105
59
330
A
100
AcDbSymbolTableRecord
100
AcDbDimStyleTableRecord
  2
Annotative
 70
     0
340
55
1001
AcadAnnotative
1000
AnnotativeData
1002
{
1070
     1
1070
     1
1002
}
  0
ENDTAB
  0
TABLE
  2
BLOCK_RECORD
  5
1
330
0
100
AcDbSymbolTable
 70
    18
  0
BLOCK_RECORD
  5
70
330
1
100
AcDbSymbolTableRecord
100
AcDbBlockTableRecord
  2
*Model_Space
340
73
 70
     0
280
     1
281
     0
  0
BLOCK_RECORD
  5
6C
330
1
100
AcDbSymbolTableRecord
100
AcDbBlockTableRecord
  2
*Paper_Space
340
6F
 70
     0
280
     1
281
     0
  0
BLOCK_RECORD
  5
74
330
1
100
AcDbSymbolTableRecord
100
AcDbBlockTableRecord
  2
*Paper_Space0
340
77
 70
     0
280
     1
281
     0
  0
BLOCK_RECORD
  5
79
330
1
100
AcDbSymbolTableRecord
100
AcDbBlockTableRecord
  2
Block_0
340
0
102
{BLKREFS
331
7A
102
}
 70
     0
280
     1
281
     0
  0
BLOCK_RECORD
  5
B3
330
1
100
AcDbSymbolTableRecord
100
AcDbBlockTableRecord
  2
Block_1
340
0
102
{BLKREFS
331
B4
102
}
 70
     0
280
     1
281
     0
  0
BLOCK_RECORD
  5
122
330
1
100
AcDbSymbolTableRecord
100
AcDbBlockTableRecord
  2
Block_2
340
0
102
{BLKREFS
331
123
102
}
 70
     0
280
     1
281
     0
  0
BLOCK_RECORD
  5
126
330
1
100
AcDbSymbolTableRecord
100
AcDbBlockTableRecord
  2
Block_3
340
0
102
{BLKREFS
331
127
102
}
 70
     0
280
     1
281
     0
  0
BLOCK_RECORD
  5
133
330
1
100
AcDbSymbolTableRecord
100
AcDbBlockTableRecord
  2
Block_4
340
0
102
{BLKREFS
331
134
102
}
 70
     0
280
     1
281
     0
  0
BLOCK_RECORD
  5
137
330
1
100
AcDbSymbolTableRecord
100
AcDbBlockTableRecord
  2
Block_5
340
0
102
{BLKREFS
331
138
102
}
 70
     0
280
     1
281
     0
  0
BLOCK_RECORD
  5
141
330
1
100
AcDbSymbolTableRecord
100
AcDbBlockTableRecord
  2
Block_6
340
0
102
{BLKREFS
331
142
102
}
 70
     0
280
     1
281
     0
  0
BLOCK_RECORD
  5
14B
330
1
100
AcDbSymbolTableRecord
100
AcDbBlockTableRecord
  2
Block_7
340
0
102
{BLKREFS
331
14C
102
}
 70
     0
280
     1
281
     0
  0
BLOCK_RECORD
  5
14F
330
1
100
AcDbSymbolTableRecord
100
AcDbBlockTableRecord
  2
Block_8
340
0
102
{BLKREFS
331
150
102
}
 70
     0
280
     1
281
     0
  0
BLOCK_RECORD
  5
15A
330
1
100
AcDbSymbolTableRecord
100
AcDbBlockTableRecord
  2
Block_9
340
0
102
{BLKREFS
331
15B
102
}
 70
     0
280
     1
281
     0
  0
BLOCK_RECORD
  5
163
330
1
100
AcDbSymbolTableRecord
100
AcDbBlockTableRecord
  2
Block_10
340
0
102
{BLKREFS
331
164
102
}
 70
     0
280
     1
281
     0
  0
BLOCK_RECORD
  5
16E
330
1
100
AcDbSymbolTableRecord
100
AcDbBlockTableRecord
  2
Block_11
340
0
102
{BLKREFS
331
16F
102
}
 70
     0
280
     1
281
     0
  0
BLOCK_RECORD
  5
172
330
1
100
AcDbSymbolTableRecord
100
AcDbBlockTableRecord
  2
Block_12
340
0
102
{BLKREFS
331
173
102
}
 70
     0
280
     1
281
     0
  0
BLOCK_RECORD
  5
17B
330
1
100
AcDbSymbolTableRecord
100
AcDbBlockTableRecord
  2
Block_13
340
0
102
{BLKREFS
331
17C
102
}
 70
     0
280
     1
281
     0
  0
BLOCK_RECORD
  5
17F
330
1
100
AcDbSymbolTableRecord
100
AcDbBlockTableRecord
  2
Block_14
340
0
102
{BLKREFS
331
180
102
}
 70
     0
280
     1
281
     0
  0
BLOCK_RECORD
  5
186
330
1
100
AcDbSymbolTableRecord
100
AcDbBlockTableRecord
  2
Block_15
340
0
102
{BLKREFS
331
187
102
}
 70
     0
280
     1
281
     0
  0
BLOCK_RECORD
  5
18A
330
1
100
AcDbSymbolTableRecord
100
AcDbBlockTableRecord
  2
Block_16
340
0
102
{BLKREFS
331
18B
102
}
 70
     0
280
     1
281
     0
  0
ENDTAB
  0
ENDSEC
  0
SECTION
  2
BLOCKS
  0
BLOCK
  5
71
330
70
100
AcDbEntity
  8
0
100
AcDbBlockBegin
  2
*Model_Space
 70
     0
 10
0.0
 20
0.0
 30
0.0
  3
*Model_Space
  1

  0
ENDBLK
  5
72
330
70
100
AcDbEntity
  8
0
100
AcDbBlockEnd
  0
BLOCK
  5
6D
330
6C
100
AcDbEntity
 67
     1
  8
0
100
AcDbBlockBegin
  2
*Paper_Space
 70
     0
 10
0.0
 20
0.0
 30
0.0
  3
*Paper_Space
  1

  0
ENDBLK
  5
6E
330
6C
100
AcDbEntity
 67
     1
  8
0
100
AcDbBlockEnd
  0
BLOCK
  5
75
330
74
100
AcDbEntity
 67
     1
  8
0
100
AcDbBlockBegin
  2
*Paper_Space0
 70
     0
 10
0.0
 20
0.0
 30
0.0
  3
*Paper_Space0
  1

  0
ENDBLK
  5
76
330
74
100
AcDbEntity
 67
     1
  8
0
100
AcDbBlockEnd
  0
BLOCK
  5
7B
330
79
100
AcDbEntity
  8
0
100
AcDbBlockBegin
  2
Block_0
 70
     0
 10
0.0
 20
0.0
 30
0.0
  3
Block_0
  1

  0
SPLINE
  5
7D
330
79
100
AcDbEntity
  8
レイヤー 1
 62
   250
420
  2299925
370
     9
100
AcDbSpline
210
0.0
220
0.0
230
1.0
 70
     8
 71
     3
 72
     8
 73
     4
 74
     0
 42
0.0000000001
 43
0.0000000001
 40
0.0
 40
0.0
 40
0.0
 40
0.0
 40
1.0
 40
1.0
 40
1.0
 40
1.0
 10
133.9199394853402
 20
-154.6038735693262
 30
0.0
 10
133.9199394853402
 20
-154.6038735693262
 30
0.0
 10
133.2164341475498
 20
-154.1287877361117
 30
0.0
 10
133.102059506206
 20
-154.5466882915629
 30
0.0
  0
SPLINE
  5
7E
330
79
100
AcDbEntity
  8
レイヤー 1
 62
   250
420
  2299925
370
     9
100
AcDbSpline
210
0.0
220
0.0
230
1.0
 70
     8
 71
     3
 72
    26
 73
    22
 74
     0
 42
0.0000000001
 43
0.0000000001
 40
0.0
 40
0.0
 40
0.0
 40
0.0
 40
1.0
 40
1.0
 40
1.0
 40
2.0
 40
2.0
 40
2.0
 40
3.0
 40
3.0
 40
3.0
 40
4.0
 40
4.0
 40
4.0
 40
5.0
 40
5.0
 40
5.0
 40
6.0
 40
6.0
 40
6.0
 40
7.0
 40
7.0
 40
7.0
 40
7.0
 10
134.4525280828638
 20
-147.58966357108
 30
0.0
 10
134.4525280828638
 20
-147.58966357108
 30
0.0
 10
125.8604844131762
 20
-150.6124046814355
 30
0.0
 10
125.8604844131762
 20
-150.6124046814355
 30
0.0
 10
125.8604844131762
 20
-150.6124046814355
 30
0.0
 10
124.4920594480876
 20
-150.8780110702578
 30
0.0
 10
125.0047161016754
 20
-151.3344702368105
 30
0.0
 10
125.0047161016754
 20
-151.3344702368105
 30
0.0
 10
125.3092730384165
 20
-151.5242999589852
 30
0.0
 10
125.8418577469847
 20
-151.7337794033775
 30
0.0
 10
125.8418577469847
 20
-151.7337794033775
 30
0.0
 10
130.878607062931
 20
-153.7677549584242
 30
0.0
 10
130.878607062931
 20
-153.7677549584242
 30
0.0
 10
130.878607062931
 20
-153.7677549584242
 30
0.0
 10
130.8406834527874
 20
-156.8273260687704
 30
0.0
 10
130.8406834527874
 20
-156.8273260687704
 30
0.0
 10
130.8406834527874
 20
-156.8273260687704
 30
0.0
 10
133.4830947742628
 20
-158.1013477351185
 30
0.0
 10
133.4830947742628
 20
-158.1013477351185
 30
0.0
 10
133.4830947742628
 20
-158.1013477351185
 30
0.0
 10
137.1893074574872
 20
-156.5234785688463
 30
0.0
 10
137.1893074574872
 20
-156.5234785688463
 30
0.0
  0
LINE
  5
7F
330
79
100
AcDbEntity
  8
レイヤー 1
 62
   250
420
  2299925
370
     9
100
AcDbLine
 10
133.1778361709395
 20
-154.4136910693738
 30
0.0
 11
142.4734245449004
 21
-150.4218694037053
 31
0.0
  0
SPLINE
  5
80
330
79
100
AcDbEntity
  8
レイヤー 1
 62
   250
420
  2299925
370
     9
100
AcDbSpline
210
0.0
220
0.0
230
1.0
 70
     8
 71
     3
 72
    26
 73
    22
 74
     0
 42
0.0000000001
 43
0.0000000001
 40
0.0
 40
0.0
 40
0.0
 40
0.0
 40
1.0
 40
1.0
 40
1.0
 40
2.0
 40
2.0
 40
2.0
 40
3.0
 40
3.0
 40
3.0
 40
4.0
 40
4.0
 40
4.0
 40
5.0
 40
5.0
 40
5.0
 40
6.0
 40
6.0
 40
6.0
 40
7.0
 40
7.0
 40
7.0
 40
7.0
 10
134.5469314137887
 20
-147.7605491265926
 30
0.0
 10
134.5469314137887
 20
-147.7605491265926
 30
0.0
 10
125.6517105296136
 20
-150.8780110702578
 30
0.0
 10
125.6517105296136
 20
-150.8780110702578
 30
0.0
 10
125.6517105296136
 20
-150.8780110702578
 30
0.0
 10
125.1762758162274
 20
-150.9541405146832
 30
0.0
 10
125.2141602629986
 20
-151.1250260701958
 30
0.0
 10
125.2141602629986
 20
-151.1250260701958
 30
0.0
 10
125.1955688745841
 20
-151.2011555146218
 30
0.0
 10
125.4994202605901
 20
-151.2962291257086
 30
0.0
 10
125.4994202605901
 20
-151.2962291257086
 30
0.0
 10
131.1824545551792
 20
-153.5390138473702
 30
0.0
 10
131.1824545551792
 20
-153.5390138473702
 30
0.0
 10
131.1824545551792
 20
-153.5390138473702
 30
0.0
 10
131.1824545551792
 20
-156.504887179962
 30
0.0
 10
131.1824545551792
 20
-156.504887179962
 30
0.0
 10
131.1824545551792
 20
-156.504887179962
 30
0.0
 10
132.988359231329
 20
-157.3599499575261
 30
0.0
 10
132.988359231329
 20
-157.3599499575261
 30
0.0
 10
132.988359231329
 20
-157.3599499575261
 30
0.0
 10
133.1213564501581
 20
-154.5466882915629
 30
0.0
 10
133.1213564501581
 20
-154.5466882915629
 30
0.0
  0
LINE
  5
81
330
79
100
AcDbEntity
  8
レイヤー 1
 62
   250
420
  2299925
370
     9
100
AcDbLine
 10
140.4973045953154
 20
-149.813468848302
 30
0.0
 11
131.1824545551792
 21
-153.5965166251338
 31
0.0
  0
SPLINE
  5
82
330
79
100
AcDbEntity
  8
レイヤー 1
 62
   250
420
  2299925
370
     9
100
AcDbSpline
210
0.0
220
0.0
230
1.0
 70
     8
 71
     3
 72
    20
 73
    16
 74
     0
 42
0.0000000001
 43
0.0000000001
 40
0.0
 40
0.0
 40
0.0
 40
0.0
 40
1.0
 40
1.0
 40
1.0
 40
2.0
 40
2.0
 40
2.0
 40
3.0
 40
3.0
 40
3.0
 40
4.0
 40
4.0
 40
4.0
 40
5.0
 40
5.0
 40
5.0
 40
5.0
 10
133.4830947742628
 20
-158.1013477351185
 30
0.0
 10
133.4830947742628
 20
-158.1013477351185
 30
0.0
 10
133.4830947742628
 20
-155.1740330136283
 30
0.0
 10
133.4830947742628
 20
-155.1740330136283
 30
0.0
 10
133.4830947742628
 20
-155.1740330136283
 30
0.0
 10
133.4830947742628
 20
-154.83229718038
 30
0.0
 10
133.7111656017775
 20
-154.9652591247915
 30
0.0
 10
133.7111656017775
 20
-154.9652591247915
 30
0.0
 10
138.9759504674617
 20
-157.2648763464393
 30
0.0
 10
138.9759504674617
 20
-157.2648763464393
 30
0.0
 10
138.9759504674617
 20
-157.2648763464393
 30
0.0
 10
139.7173482263248
 20
-157.7213355129914
 30
0.0
 10
140.4201168195068
 20
-157.5118913463773
 30
0.0
 10
140.4201168195068
 20
-157.5118913463773
 30
0.0
 10
149.9630376871578
 20
-153.4632019029444
 30
0.0
 10
149.9630376871578
 20
-153.4632019029444
 30
0.0
  0
SPLINE
  5
83
330
79
100
AcDbEntity
  8
レイヤー 1
 62
   250
420
  2299925
370
     9
100
AcDbSpline
210
0.0
220
0.0
230
1.0
 70
     8
 71
     3
 72
    20
 73
    16
 74
     0
 42
0.0000000001
 43
0.0000000001
 40
0.0
 40
0.0
 40
0.0
 40
0.0
 40
1.0
 40
1.0
 40
1.0
 40
2.0
 40
2.0
 40
2.0
 40
3.0
 40
3.0
 40
3.0
 40
4.0
 40
4.0
 40
4.0
 40
5.0
 40
5.0
 40
5.0
 40
5.0
 10
133.6539803254587
 20
-154.4705588471375
 30
0.0
 10
133.6539803254587
 20
-154.4705588471375
 30
0.0
 10
137.1707202576732
 20
-156.0863163467333
 30
0.0
 10
137.3422718980292
 20
-156.1817427355985
 30
0.0
 10
137.3422718980292
 20
-156.1817427355985
 30
0.0
 10
139.4892773988101
 20
-157.1890644020135
 30
0.0
 10
139.4892773988101
 20
-157.1890644020135
 30
0.0
 10
139.4892773988101
 20
-157.1890644020135
 30
0.0
 10
139.907495443696
 20
-157.5315057908167
 30
0.0
 10
140.819778753755
 20
-157.075046624264
 30
0.0
 10
140.819778753755
 20
-157.075046624264
 30
0.0
 10
148.1192446786413
 20
-153.9007169028351
 30
0.0
 10
148.1192446786413
 20
-153.9007169028351
 30
0.0
 10
148.1192446786413
 20
-153.9007169028351
 30
0.0
 10
149.7728904697866
 20
-153.1968899585666
 30
0.0
 10
149.7728904697866
 20
-153.1968899585666
 30
0.0
  0
LINE
  5
84
330
79
100
AcDbEntity
  8
レイヤー 1
 62
   250
420
  2299925
370
     9
100
AcDbLine
 10
131.1824545551792
 20
-156.504887179962
 30
0.0
 11
133.0269531192332
 21
-155.8389485690176
 31
0.0
  0
SPLINE
  5
85
330
79
100
AcDbEntity
  8
レイヤー 1
 62
   250
420
  2299925
370
     9
100
AcDbSpline
210
0.0
220
0.0
230
1.0
 70
     9
 71
     3
 72
    17
 73
    13
 74
     0
 42
0.0000000001
 43
0.0000000001
 40
0.0
 40
0.0
 40
0.0
 40
0.0
 40
1.0
 40
1.0
 40
1.0
 40
2.0
 40
2.0
 40
2.0
 40
3.0
 40
3.0
 40
3.0
 40
4.0
 40
4.0
 40
4.0
 40
4.0
 10
137.7770704980477
 20
-149.5947113483566
 30
0.0
 10
137.7770704980477
 20
-149.8296613482976
 30
0.0
 10
137.4483874508775
 20
-150.0205141260274
 30
0.0
 10
137.0439277389739
 20
-150.0205141260274
 30
0.0
 10
136.6374219160114
 20
-150.0205141260274
 30
0.0
 10
136.3094444243788
 20
-149.8296613482976
 30
0.0
 10
136.3094444243788
 20
-149.5947113483566
 30
0.0
 10
136.3094444243788
 20
-149.3594085706372
 30
0.0
 10
136.6374219160114
 20
-149.1695788484626
 30
0.0
 10
137.0439277389739
 20
-149.1695788484626
 30
0.0
 10
137.4483874508775
 20
-149.1695788484626
 30
0.0
 10
137.7770704980477
 20
-149.3594085706372
 30
0.0
 10
137.7770704980477
 20
-149.5947113483566
 30
0.0
  0
SPLINE
  5
86
330
79
100
AcDbEntity
  8
レイヤー 1
 62
   250
420
  2299925
370
     9
100
AcDbSpline
210
0.0
220
0.0
230
1.0
 70
     8
 71
     3
 72
    11
 73
     7
 74
     0
 42
0.0000000001
 43
0.0000000001
 40
0.0
 40
0.0
 40
0.0
 40
0.0
 40
1.0
 40
1.0
 40
1.0
 40
2.0
 40
2.0
 40
2.0
 40
2.0
 10
136.4369030322382
 20
-149.8289910705196
 30
0.0
 10
136.4369030322382
 20
-149.8289910705196
 30
0.0
 10
136.4148544216896
 20
-149.3177102373147
 30
0.0
 10
137.2451169005078
 20
-149.3611371817479
 30
0.0
 10
137.2451169005078
 20
-149.3611371817479
 30
0.0
 10
137.7336435547111
 20
-149.4245313483989
 30
0.0
 10
137.6495766124114
 20
-149.8076127371921
 30
0.0
  0
SPLINE
  5
87
330
79
100
AcDbEntity
  8
レイヤー 1
 62
   250
420
  2299925
370
     9
100
AcDbSpline
210
0.0
220
0.0
230
1.0
 70
     9
 71
     3
 72
    17
 73
    13
 74
     0
 42
0.0000000001
 43
0.0000000001
 40
0.0
 40
0.0
 40
0.0
 40
0.0
 40
1.0
 40
1.0
 40
1.0
 40
2.0
 40
2.0
 40
2.0
 40
3.0
 40
3.0
 40
3.0
 40
4.0
 40
4.0
 40
4.0
 40
4.0
 10
137.5407093929666
 20
-148.514329404182
 30
0.0
 10
137.5407093929666
 20
-148.7492794041233
 30
0.0
 10
137.2113560680358
 20
-148.9401321818531
 30
0.0
 10
136.8069316339091
 20
-148.9401321818531
 30
0.0
 10
136.4010960887072
 20
-148.9401321818531
 30
0.0
 10
136.0731185970747
 20
-148.7492794041233
 30
0.0
 10
136.0731185970747
 20
-148.514329404182
 30
0.0
 10
136.0731185970747
 20
-148.279379404241
 30
0.0
 10
136.4010960887072
 20
-148.0885266265108
 30
0.0
 10
136.8069316339091
 20
-148.0885266265108
 30
0.0
 10
137.2113560680358
 20
-148.0885266265108
 30
0.0
 10
137.5407093929666
 20
-148.279379404241
 30
0.0
 10
137.5407093929666
 20
-148.514329404182
 30
0.0
  0
SPLINE
  5
88
330
79
100
AcDbEntity
  8
レイヤー 1
 62
   250
420
  2299925
370
     9
100
AcDbSpline
210
0.0
220
0.0
230
1.0
 70
     8
 71
     3
 72
    11
 73
     7
 74
     0
 42
0.0000000001
 43
0.0000000001
 40
0.0
 40
0.0
 40
0.0
 40
0.0
 40
1.0
 40
1.0
 40
1.0
 40
2.0
 40
2.0
 40
2.0
 40
2.0
 10
136.2005813690269
 20
-148.7479035707904
 30
0.0
 10
136.2005813690269
 20
-148.7479035707904
 30
0.0
 10
136.179234149923
 20
-148.2370107931404
 30
0.0
 10
137.0087952577128
 20
-148.2804024597961
 30
0.0
 10
137.0087952577128
 20
-148.2804024597961
 30
0.0
 10
137.4979880051676
 20
-148.3434438486693
 30
0.0
 10
137.4132507851072
 20
-148.7272307930177
 30
0.0
  0
SPLINE
  5
89
330
79
100
AcDbEntity
  8
レイヤー 1
 62
   250
420
  2299925
370
     9
100
AcDbSpline
210
0.0
220
0.0
230
1.0
 70
     9
 71
     3
 72
    17
 73
    13
 74
     0
 42
0.0000000001
 43
0.0000000001
 40
0.0
 40
0.0
 40
0.0
 40
0.0
 40
1.0
 40
1.0
 40
1.0
 40
2.0
 40
2.0
 40
2.0
 40
3.0
 40
3.0
 40
3.0
 40
4.0
 40
4.0
 40
4.0
 40
4.0
 10
127.883417972678
 20
-151.1139841257545
 30
0.0
 10
127.883417972678
 20
-151.3489341256956
 30
0.0
 10
127.5547702032847
 20
-151.5394694034258
 30
0.0
 10
127.1503104913811
 20
-151.5394694034258
 30
0.0
 10
126.7444749461793
 20
-151.5394694034258
 30
0.0
 10
126.4164974545467
 20
-151.3489341256956
 30
0.0
 10
126.4164974545467
 20
-151.1139841257545
 30
0.0
 10
126.4164974545467
 20
-150.8790341258129
 30
0.0
 10
126.7444749461793
 20
-150.6881813480831
 30
0.0
 10
127.1503104913811
 20
-150.6881813480831
 30
0.0
 10
127.5547702032847
 20
-150.6881813480831
 30
0.0
 10
127.883417972678
 20
-150.8790341258129
 30
0.0
 10
127.883417972678
 20
-151.1139841257545
 30
0.0
  0
SPLINE
  5
8A
330
79
100
AcDbEntity
  8
レイヤー 1
 62
   250
420
  2299925
370
     9
100
AcDbSpline
210
0.0
220
0.0
230
1.0
 70
     8
 71
     3
 72
    11
 73
     7
 74
     0
 42
0.0000000001
 43
0.0000000001
 40
0.0
 40
0.0
 40
0.0
 40
0.0
 40
1.0
 40
1.0
 40
1.0
 40
2.0
 40
2.0
 40
2.0
 40
2.0
 10
126.5446616179436
 20
-151.3479110701404
 30
0.0
 10
126.5446616179436
 20
-151.3479110701404
 30
0.0
 10
126.522613007395
 20
-150.8370182924901
 30
0.0
 10
127.352209149016
 20
-150.880057181368
 30
0.0
 10
127.352209149016
 20
-150.880057181368
 30
0.0
 10
127.840696584879
 20
-150.9438041257968
 30
0.0
 10
127.7566649203562
 20
-151.3268855145899
 30
0.0
  0
SPLINE
  5
8B
330
79
100
AcDbEntity
  8
レイヤー 1
 62
   250
420
  2299925
370
     9
100
AcDbSpline
210
0.0
220
0.0
230
1.0
 70
     9
 71
     3
 72
    17
 73
    13
 74
     0
 42
0.0000000001
 43
0.0000000001
 40
0.0
 40
0.0
 40
0.0
 40
0.0
 40
1.0
 40
1.0
 40
1.0
 40
2.0
 40
2.0
 40
2.0
 40
3.0
 40
3.0
 40
3.0
 40
4.0
 40
4.0
 40
4.0
 40
4.0
 10
135.5818402762749
 20
-150.675093292531
 30
0.0
 10
135.5818402762749
 20
-150.910043292472
 30
0.0
 10
135.2517813958065
 20
-151.1008960702018
 30
0.0
 10
134.8480313693641
 20
-151.1008960702018
 30
0.0
 10
134.4428972497762
 20
-151.1008960702018
 30
0.0
 10
134.1149197581436
 20
-150.910043292472
 30
0.0
 10
134.1149197581436
 20
-150.675093292531
 30
0.0
 10
134.1149197581436
 20
-150.4404607925896
 30
0.0
 10
134.4428972497762
 20
-150.2499607926369
 30
0.0
 10
134.8480313693641
 20
-150.2499607926369
 30
0.0
 10
135.2517813958065
 20
-150.2499607926369
 30
0.0
 10
135.5818402762749
 20
-150.4404607925896
 30
0.0
 10
135.5818402762749
 20
-150.675093292531
 30
0.0
  0
SPLINE
  5
8C
330
79
100
AcDbEntity
  8
レイヤー 1
 62
   250
420
  2299925
370
     9
100
AcDbSpline
210
0.0
220
0.0
230
1.0
 70
     8
 71
     3
 72
    11
 73
     7
 74
     0
 42
0.0000000001
 43
0.0000000001
 40
0.0
 40
0.0
 40
0.0
 40
0.0
 40
1.0
 40
1.0
 40
1.0
 40
2.0
 40
2.0
 40
2.0
 40
2.0
 10
134.2417080882423
 20
-150.909373014694
 30
0.0
 10
134.2417080882423
 20
-150.909373014694
 30
0.0
 10
134.2210353109919
 20
-150.398092181489
 30
0.0
 10
135.0499219565119
 20
-150.4415191259222
 30
0.0
 10
135.0499219565119
 20
-150.4415191259222
 30
0.0
 10
135.5391230358589
 20
-150.5049132925733
 30
0.0
 10
135.4536761128779
 20
-150.8879946813664
 30
0.0
  0
SPLINE
  5
8D
330
79
100
AcDbEntity
  8
レイヤー 1
 62
   250
420
  2299925
370
     9
100
AcDbSpline
210
0.0
220
0.0
230
1.0
 70
     9
 71
     3
 72
    17
 73
    13
 74
     0
 42
0.0000000001
 43
0.0000000001
 40
0.0
 40
0.0
 40
0.0
 40
0.0
 40
1.0
 40
1.0
 40
1.0
 40
2.0
 40
2.0
 40
2.0
 40
3.0
 40
3.0
 40
3.0
 40
4.0
 40
4.0
 40
4.0
 40
4.0
 10
135.3448088934331
 20
-149.5947113483566
 30
0.0
 10
135.3448088934331
 20
-149.8296613482976
 30
0.0
 10
135.0161611240399
 20
-150.0205141260274
 30
0.0
 10
134.6117014121363
 20
-150.0205141260274
 30
0.0
 10
134.206571422472
 20
-150.0205141260274
 30
0.0
 10
133.8778924807178
 20
-149.8296613482976
 30
0.0
 10
133.8778924807178
 20
-149.5947113483566
 30
0.0
 10
133.8778924807178
 20
-149.3594085706372
 30
0.0
 10
134.206571422472
 20
-149.1695788484626
 30
0.0
 10
134.6117014121363
 20
-149.1695788484626
 30
0.0
 10
135.0161611240399
 20
-149.1695788484626
 30
0.0
 10
135.3448088934331
 20
-149.3594085706372
 30
0.0
 10
135.3448088934331
 20
-149.5947113483566
 30
0.0
  0
SPLINE
  5
8E
330
79
100
AcDbEntity
  8
レイヤー 1
 62
   250
420
  2299925
370
     9
100
AcDbSpline
210
0.0
220
0.0
230
1.0
 70
     8
 71
     3
 72
    11
 73
     7
 74
     0
 42
0.0000000001
 43
0.0000000001
 40
0.0
 40
0.0
 40
0.0
 40
0.0
 40
1.0
 40
1.0
 40
1.0
 40
2.0
 40
2.0
 40
2.0
 40
2.0
 10
134.0060525386988
 20
-149.8289910705196
 30
0.0
 10
134.0060525386988
 20
-149.8289910705196
 30
0.0
 10
133.9847094836877
 20
-149.3177102373147
 30
0.0
 10
134.8135961292077
 20
-149.3611371817479
 30
0.0
 10
134.8135961292077
 20
-149.3611371817479
 30
0.0
 10
135.3027930611717
 20
-149.4245313483989
 30
0.0
 10
135.2180205633344
 20
-149.8076127371921
 30
0.0
  0
SPLINE
  5
8F
330
79
100
AcDbEntity
  8
レイヤー 1
 62
   250
420
  2299925
370
     9
100
AcDbSpline
210
0.0
220
0.0
230
1.0
 70
    11
 71
     3
 72
    17
 73
    13
 74
     0
 42
0.0000000001
 43
0.0000000001
 40
0.0
 40
0.0
 40
0.0
 40
0.0
 40
1.0
 40
1.0
 40
1.0
 40
2.0
 40
2.0
 40
2.0
 40
3.0
 40
3.0
 40
3.0
 40
4.0
 40
4.0
 40
4.0
 40
4.0
 10
134.8053058516415
 20
-148.6493727374817
 30
0.0
 10
134.8053058516415
 20
-148.8843227374233
 30
0.0
 10
134.4759525267106
 20
-149.0751755151531
 30
0.0
 10
134.0721983703446
 20
-149.0751755151531
 30
0.0
 10
133.6663628251428
 20
-149.0751755151531
 30
0.0
 10
133.3377150557495
 20
-148.8843227374233
 30
0.0
 10
133.3377150557495
 20
-148.6493727374817
 30
0.0
 10
133.3377150557495
 20
-148.4144227375403
 30
0.0
 10
133.6663628251428
 20
-148.2238874598101
 30
0.0
 10
134.0721983703446
 20
-148.2238874598101
 30
0.0
 10
134.4759525267106
 20
-148.2238874598101
 30
0.0
 10
134.8053058516415
 20
-148.4144227375403
 30
0.0
 10
134.8053058516415
 20
-148.6493727374817
 30
0.0
  0
SPLINE
  5
90
330
79
100
AcDbEntity
  8
レイヤー 1
 62
   250
420
  2299925
370
     9
100
AcDbSpline
210
0.0
220
0.0
230
1.0
 70
     8
 71
     3
 72
    11
 73
     7
 74
     0
 42
0.0000000001
 43
0.0000000001
 40
0.0
 40
0.0
 40
0.0
 40
0.0
 40
1.0
 40
1.0
 40
1.0
 40
2.0
 40
2.0
 40
2.0
 40
2.0
 10
133.4658480363771
 20
-148.8836524596453
 30
0.0
 10
133.4658480363771
 20
-148.8836524596453
 30
0.0
 10
133.4445008863585
 20
-148.3723716264397
 30
0.0
 10
134.2733875318785
 20
-148.4154457930958
 30
0.0
 10
134.2733875318785
 20
-148.4154457930958
 30
0.0
 10
134.7625844638425
 20
-148.4791927375242
 30
0.0
 10
134.6778472437821
 20
-148.8622741263174
 30
0.0
  0
SPLINE
  5
91
330
79
100
AcDbEntity
  8
レイヤー 1
 62
   250
420
  2299925
370
     9
100
AcDbSpline
210
0.0
220
0.0
230
1.0
 70
     9
 71
     3
 72
    17
 73
    13
 74
     0
 42
0.0000000001
 43
0.0000000001
 40
0.0
 40
0.0
 40
0.0
 40
0.0
 40
1.0
 40
1.0
 40
1.0
 40
2.0
 40
2.0
 40
2.0
 40
3.0
 40
3.0
 40
3.0
 40
4.0
 40
4.0
 40
4.0
 40
4.0
 10
133.285327557086
 20
-151.485388570106
 30
0.0
 10
133.285327557086
 20
-151.720338570047
 30
0.0
 10
132.9559742321552
 20
-151.9111913477774
 30
0.0
 10
132.5515497980285
 20
-151.9111913477774
 30
0.0
 10
132.1463845305873
 20
-151.9111913477774
 30
0.0
 10
131.8184070389547
 20
-151.720338570047
 30
0.0
 10
131.8184070389547
 20
-151.485388570106
 30
0.0
 10
131.8184070389547
 20
-151.2504032923868
 30
0.0
 10
132.1463845305873
 20
-151.0602560702119
 30
0.0
 10
132.5515497980285
 20
-151.0602560702119
 30
0.0
 10
132.9559742321552
 20
-151.0602560702119
 30
0.0
 10
133.285327557086
 20
-151.2504032923868
 30
0.0
 10
133.285327557086
 20
-151.485388570106
 30
0.0
  0
SPLINE
  5
92
330
79
100
AcDbEntity
  8
レイヤー 1
 62
   250
420
  2299925
370
     9
100
AcDbSpline
210
0.0
220
0.0
230
1.0
 70
     8
 71
     3
 72
    11
 73
     7
 74
     0
 42
0.0000000001
 43
0.0000000001
 40
0.0
 40
0.0
 40
0.0
 40
0.0
 40
1.0
 40
1.0
 40
1.0
 40
2.0
 40
2.0
 40
2.0
 40
2.0
 10
131.945900924591
 20
-151.7192802367143
 30
0.0
 10
131.945900924591
 20
-151.7192802367143
 30
0.0
 10
131.924522591803
 20
-151.208387459064
 30
0.0
 10
132.7541147928606
 20
-151.2518144034979
 30
0.0
 10
132.7541147928606
 20
-151.2518144034979
 30
0.0
 10
133.242606169287
 20
-151.3151732923707
 30
0.0
 10
133.1578730364542
 20
-151.6982899589414
 30
0.0
  0
SPLINE
  5
93
330
79
100
AcDbEntity
  8
レイヤー 1
 62
   250
420
  2299925
370
     9
100
AcDbSpline
210
0.0
220
0.0
230
1.0
 70
     9
 71
     3
 72
    17
 73
    13
 74
     0
 42
0.0000000001
 43
0.0000000001
 40
0.0
 40
0.0
 40
0.0
 40
0.0
 40
1.0
 40
1.0
 40
1.0
 40
2.0
 40
2.0
 40
2.0
 40
3.0
 40
3.0
 40
3.0
 40
4.0
 40
4.0
 40
4.0
 40
4.0
 10
133.0490017297819
 20
-150.4050066259316
 30
0.0
 10
133.0490017297819
 20
-150.6399566258726
 30
0.0
 10
132.7203539603886
 20
-150.8304566258253
 30
0.0
 10
132.3151886929474
 20
-150.8304566258253
 30
0.0
 10
131.9107289810438
 20
-150.8304566258253
 30
0.0
 10
131.5820812116506
 20
-150.6399566258726
 30
0.0
 10
131.5820812116506
 20
-150.4050066259316
 30
0.0
 10
131.5820812116506
 20
-150.1703741259902
 30
0.0
 10
131.9107289810438
 20
-149.9791685704827
 30
0.0
 10
132.3151886929474
 20
-149.9791685704827
 30
0.0
 10
132.7203539603886
 20
-149.9791685704827
 30
0.0
 10
133.0490017297819
 20
-150.1703741259902
 30
0.0
 10
133.0490017297819
 20
-150.4050066259316
 30
0.0
  0
SPLINE
  5
94
330
79
100
AcDbEntity
  8
レイヤー 1
 62
   250
420
  2299925
370
     9
100
AcDbSpline
210
0.0
220
0.0
230
1.0
 70
     8
 71
     3
 72
    11
 73
     7
 74
     0
 42
0.0000000001
 43
0.0000000001
 40
0.0
 40
0.0
 40
0.0
 40
0.0
 40
1.0
 40
1.0
 40
1.0
 40
2.0
 40
2.0
 40
2.0
 40
2.0
 10
131.7095398195099
 20
-150.6385807925397
 30
0.0
 10
131.7095398195099
 20
-150.6385807925397
 30
0.0
 10
131.688200814599
 20
-150.1280055148896
 30
0.0
 10
132.5170834100189
 20
-150.1710796815457
 30
0.0
 10
132.5170834100189
 20
-150.1710796815457
 30
0.0
 10
133.0069858975204
 20
-150.2347913481964
 30
0.0
 10
132.9215431219225
 20
-150.617908014767
 30
0.0
  0
SPLINE
  5
95
330
79
100
AcDbEntity
  8
レイヤー 1
 62
   250
420
  2299925
370
     9
100
AcDbSpline
210
0.0
220
0.0
230
1.0
 70
     9
 71
     3
 72
    17
 73
    13
 74
     0
 42
0.0000000001
 43
0.0000000001
 40
0.0
 40
0.0
 40
0.0
 40
0.0
 40
1.0
 40
1.0
 40
1.0
 40
2.0
 40
2.0
 40
2.0
 40
3.0
 40
3.0
 40
3.0
 40
4.0
 40
4.0
 40
4.0
 40
4.0
 10
132.5094986879902
 20
-149.4596680150573
 30
0.0
 10
132.5094986879902
 20
-149.6946180149983
 30
0.0
 10
132.1801453630593
 20
-149.8848005149507
 30
0.0
 10
131.7756897034659
 20
-149.8848005149507
 30
0.0
 10
131.3705556614915
 20
-149.8848005149507
 30
0.0
 10
131.0419119258723
 20
-149.6946180149983
 30
0.0
 10
131.0419119258723
 20
-149.4596680150573
 30
0.0
 10
131.0419119258723
 20
-149.2247180151156
 30
0.0
 10
131.3705556614915
 20
-149.0345355151632
 30
0.0
 10
131.7756897034659
 20
-149.0345355151632
 30
0.0
 10
132.1801453630593
 20
-149.0345355151632
 30
0.0
 10
132.5094986879902
 20
-149.2247180151156
 30
0.0
 10
132.5094986879902
 20
-149.4596680150573
 30
0.0
  0
SPLINE
  5
96
330
79
100
AcDbEntity
  8
レイヤー 1
 62
   250
420
  2299925
370
     9
100
AcDbSpline
210
0.0
220
0.0
230
1.0
 70
     8
 71
     3
 72
    11
 73
     7
 74
     0
 42
0.0000000001
 43
0.0000000001
 40
0.0
 40
0.0
 40
0.0
 40
0.0
 40
1.0
 40
1.0
 40
1.0
 40
2.0
 40
2.0
 40
2.0
 40
2.0
 10
131.1693664999576
 20
-149.6932421816647
 30
0.0
 10
131.1693664999576
 20
-149.6932421816647
 30
0.0
 10
131.1479881671697
 20
-149.1823141262369
 30
0.0
 10
131.9768748126896
 20
-149.2260938484485
 30
0.0
 10
131.9768748126896
 20
-149.2260938484485
 30
0.0
 10
132.4661070224305
 20
-149.2891352373218
 30
0.0
 10
132.3820400801308
 20
-149.6722166261149
 30
0.0
  0
SPLINE
  5
97
330
79
100
AcDbEntity
  8
レイヤー 1
 62
   250
420
  2299925
370
     9
100
AcDbSpline
210
0.0
220
0.0
230
1.0
 70
     9
 71
     3
 72
    17
 73
    13
 74
     0
 42
0.0000000001
 43
0.0000000001
 40
0.0
 40
0.0
 40
0.0
 40
0.0
 40
1.0
 40
1.0
 40
1.0
 40
2.0
 40
2.0
 40
2.0
 40
3.0
 40
3.0
 40
3.0
 40
4.0
 40
4.0
 40
4.0
 40
4.0
 10
130.8538067857859
 20
-152.2960013476812
 30
0.0
 10
130.8538067857859
 20
-152.5306338476226
 30
0.0
 10
130.5251237386158
 20
-152.7214866253524
 30
0.0
 10
130.1206640267122
 20
-152.7214866253524
 30
0.0
 10
129.7148284815104
 20
-152.7214866253524
 30
0.0
 10
129.3868509898778
 20
-152.5306338476226
 30
0.0
 10
129.3868509898778
 20
-152.2960013476812
 30
0.0
 10
129.3868509898778
 20
-152.0610513477402
 30
0.0
 10
129.7148284815104
 20
-151.8705513477875
 30
0.0
 10
130.1206640267122
 20
-151.8705513477875
 30
0.0
 10
130.5251237386158
 20
-151.8705513477875
 30
0.0
 10
130.8538067857859
 20
-152.0610513477402
 30
0.0
 10
130.8538067857859
 20
-152.2960013476812
 30
0.0
  0
SPLINE
  5
98
330
79
100
AcDbEntity
  8
レイヤー 1
 62
   250
420
  2299925
370
     9
100
AcDbSpline
210
0.0
220
0.0
230
1.0
 70
     8
 71
     3
 72
    11
 73
     7
 74
     0
 42
0.0000000001
 43
0.0000000001
 40
0.0
 40
0.0
 40
0.0
 40
0.0
 40
1.0
 40
1.0
 40
1.0
 40
2.0
 40
2.0
 40
2.0
 40
2.0
 10
129.514344875514
 20
-152.5295755142893
 30
0.0
 10
129.514344875514
 20
-152.5295755142893
 30
0.0
 10
129.4929665427261
 20
-152.0190355144174
 30
0.0
 10
130.3232290215443
 20
-152.0620744032953
 30
0.0
 10
130.3232290215443
 20
-152.0620744032953
 30
0.0
 10
130.8117556757476
 20
-152.1251157921686
 30
0.0
 10
130.7270184556873
 20
-152.5089027365166
 30
0.0
  0
SPLINE
  5
99
330
79
100
AcDbEntity
  8
レイヤー 1
 62
   250
420
  2299925
370
     9
100
AcDbSpline
210
0.0
220
0.0
230
1.0
 70
     9
 71
     3
 72
    17
 73
    13
 74
     0
 42
0.0000000001
 43
0.0000000001
 40
0.0
 40
0.0
 40
0.0
 40
0.0
 40
1.0
 40
1.0
 40
1.0
 40
2.0
 40
2.0
 40
2.0
 40
3.0
 40
3.0
 40
3.0
 40
4.0
 40
4.0
 40
4.0
 40
4.0
 10
130.6181512362424
 20
-151.2152666257291
 30
0.0
 10
130.6181512362424
 20
-151.4502519034483
 30
0.0
 10
130.2887979113116
 20
-151.6407519034009
 30
0.0
 10
129.884338199408
 20
-151.6407519034009
 30
0.0
 10
129.4792082097437
 20
-151.6407519034009
 30
0.0
 10
129.1505251625736
 20
-151.4502519034483
 30
0.0
 10
129.1505251625736
 20
-151.2152666257291
 30
0.0
 10
129.1505251625736
 20
-150.9803166257881
 30
0.0
 10
129.4792082097437
 20
-150.7898166258354
 30
0.0
 10
129.884338199408
 20
-150.7898166258354
 30
0.0
 10
130.2887979113116
 20
-150.7898166258354
 30
0.0
 10
130.6181512362424
 20
-150.9803166257881
 30
0.0
 10
130.6181512362424
 20
-151.2152666257291
 30
0.0
  0
SPLINE
  5
9A
330
79
100
AcDbEntity
  8
レイヤー 1
 62
   250
420
  2299925
370
     9
100
AcDbSpline
210
0.0
220
0.0
230
1.0
 70
     8
 71
     3
 72
    11
 73
     7
 74
     0
 42
0.0000000001
 43
0.0000000001
 40
0.0
 40
0.0
 40
0.0
 40
0.0
 40
1.0
 40
1.0
 40
1.0
 40
2.0
 40
2.0
 40
2.0
 40
2.0
 10
129.2780230374243
 20
-151.4491935701149
 30
0.0
 10
129.2780230374243
 20
-151.4491935701149
 30
0.0
 10
129.2573462709595
 20
-150.9383007924653
 30
0.0
 10
130.0862369261103
 20
-150.981692459121
 30
0.0
 10
130.0862369261103
 20
-150.981692459121
 30
0.0
 10
130.5754298484435
 20
-151.045086625772
 30
0.0
 10
130.4899870728455
 20
-151.4282032923426
 30
0.0
  0
SPLINE
  5
9B
330
79
100
AcDbEntity
  8
レイヤー 1
 62
   250
420
  2299925
370
     9
100
AcDbSpline
210
0.0
220
0.0
230
1.0
 70
     9
 71
     3
 72
    17
 73
    13
 74
     0
 42
0.0000000001
 43
0.0000000001
 40
0.0
 40
0.0
 40
0.0
 40
0.0
 40
1.0
 40
1.0
 40
1.0
 40
2.0
 40
2.0
 40
2.0
 40
3.0
 40
3.0
 40
3.0
 40
4.0
 40
4.0
 40
4.0
 40
4.0
 10
130.0772723611525
 20
-150.2699632926316
 30
0.0
 10
130.0772723611525
 20
-150.5049132925733
 30
0.0
 10
129.7485893139824
 20
-150.6957660703037
 30
0.0
 10
129.3441648798557
 20
-150.6957660703037
 30
0.0
 10
128.9383293346539
 20
-150.6957660703037
 30
0.0
 10
128.6103518430212
 20
-150.5049132925733
 30
0.0
 10
128.6103518430212
 20
-150.2699632926316
 30
0.0
 10
128.6103518430212
 20
-150.0349780149131
 30
0.0
 10
128.9383293346539
 20
-149.8448307927382
 30
0.0
 10
129.3441648798557
 20
-149.8448307927382
 30
0.0
 10
129.7485893139824
 20
-149.8448307927382
 30
0.0
 10
130.0772723611525
 20
-150.0349780149131
 30
0.0
 10
130.0772723611525
 20
-150.2699632926316
 30
0.0
  0
SPLINE
  5
9C
330
79
100
AcDbEntity
  8
レイヤー 1
 62
   250
420
  2299925
370
     9
100
AcDbSpline
210
0.0
220
0.0
230
1.0
 70
     8
 71
     3
 72
    11
 73
     7
 74
     0
 42
0.0000000001
 43
0.0000000001
 40
0.0
 40
0.0
 40
0.0
 40
0.0
 40
1.0
 40
1.0
 40
1.0
 40
2.0
 40
2.0
 40
2.0
 40
2.0
 10
128.7385160064182
 20
-150.50385495924
 30
0.0
 10
128.7385160064182
 20
-150.50385495924
 30
0.0
 10
128.7171376736303
 20
-149.9929621815903
 30
0.0
 10
129.5460243191502
 20
-150.0360363482464
 30
0.0
 10
129.5460243191502
 20
-150.0360363482464
 30
0.0
 10
130.0352212511142
 20
-150.099748014897
 30
0.0
 10
129.9504840310538
 20
-150.4828646814677
 30
0.0
  0
SPLINE
  5
9D
330
79
100
AcDbEntity
  8
レイヤー 1
 62
   250
420
  2299925
370
     9
100
AcDbSpline
210
0.0
220
0.0
230
1.0
 70
    11
 71
     3
 72
    17
 73
    13
 74
     0
 42
0.0000000001
 43
0.0000000001
 40
0.0
 40
0.0
 40
0.0
 40
0.0
 40
1.0
 40
1.0
 40
1.0
 40
2.0
 40
2.0
 40
2.0
 40
3.0
 40
3.0
 40
3.0
 40
4.0
 40
4.0
 40
4.0
 40
4.0
 10
140.4104859864192
 20
-154.9976441247835
 30
0.0
 10
140.4104859864192
 20
-155.2325941247252
 30
0.0
 10
140.0811369236123
 20
-155.4231294024547
 30
0.0
 10
139.6766729495848
 20
-155.4231294024547
 30
0.0
 10
139.2715429599205
 20
-155.4231294024547
 30
0.0
 10
138.9435654682879
 20
-155.2325941247252
 30
0.0
 10
138.9435654682879
 20
-154.9976441247835
 30
0.0
 10
138.9435654682879
 20
-154.7626941248419
 30
0.0
 10
139.2715429599205
 20
-154.5721941248898
 30
0.0
 10
139.6766729495848
 20
-154.5721941248898
 30
0.0
 10
140.0811369236123
 20
-154.5721941248898
 30
0.0
 10
140.4104859864192
 20
-154.7626941248419
 30
0.0
 10
140.4104859864192
 20
-154.9976441247835
 30
0.0
  0
SPLINE
  5
9E
330
79
100
AcDbEntity
  8
レイヤー 1
 62
   250
420
  2299925
370
     9
100
AcDbSpline
210
0.0
220
0.0
230
1.0
 70
     8
 71
     3
 72
    11
 73
     7
 74
     0
 42
0.0000000001
 43
0.0000000001
 40
0.0
 40
0.0
 40
0.0
 40
0.0
 40
1.0
 40
1.0
 40
1.0
 40
2.0
 40
2.0
 40
2.0
 40
2.0
 10
139.0703537983866
 20
-155.2312182913916
 30
0.0
 10
139.0703537983866
 20
-155.2312182913916
 30
0.0
 10
139.0489754655987
 20
-154.7206782915191
 30
0.0
 10
139.8785676666562
 20
-154.7633996803974
 30
0.0
 10
139.8785676666562
 20
-154.7633996803974
 30
0.0
 10
140.3677645986202
 20
-154.827111347048
 30
0.0
 10
140.2830273785598
 20
-155.2098752358415
 30
0.0
  0
SPLINE
  5
9F
330
79
100
AcDbEntity
  8
レイヤー 1
 62
   250
420
  2299925
370
     9
100
AcDbSpline
210
0.0
220
0.0
230
1.0
 70
     9
 71
     3
 72
    17
 73
    13
 74
     0
 42
0.0000000001
 43
0.0000000001
 40
0.0
 40
0.0
 40
0.0
 40
0.0
 40
1.0
 40
1.0
 40
1.0
 40
2.0
 40
2.0
 40
2.0
 40
3.0
 40
3.0
 40
3.0
 40
4.0
 40
4.0
 40
4.0
 40
4.0
 10
140.4104859864192
 20
-156.3140344022321
 30
0.0
 10
140.4104859864192
 20
-156.5496546799512
 30
0.0
 10
140.0811369236123
 20
-156.7398371799036
 30
0.0
 10
139.6766729495848
 20
-156.7398371799036
 30
0.0
 10
139.2715429599205
 20
-156.7398371799036
 30
0.0
 10
138.9435654682879
 20
-156.5496546799512
 30
0.0
 10
138.9435654682879
 20
-156.3140344022321
 30
0.0
 10
138.9435654682879
 20
-156.0794019022907
 30
0.0
 10
139.2715429599205
 20
-155.8889019023381
 30
0.0
 10
139.6766729495848
 20
-155.8889019023381
 30
0.0
 10
140.0811369236123
 20
-155.8889019023381
 30
0.0
 10
140.4104859864192
 20
-156.0794019022907
 30
0.0
 10
140.4104859864192
 20
-156.3140344022321
 30
0.0
  0
SPLINE
  5
A0
330
79
100
AcDbEntity
  8
レイヤー 1
 62
   250
420
  2299925
370
     9
100
AcDbSpline
210
0.0
220
0.0
230
1.0
 70
     8
 71
     3
 72
    11
 73
     7
 74
     0
 42
0.0000000001
 43
0.0000000001
 40
0.0
 40
0.0
 40
0.0
 40
0.0
 40
1.0
 40
1.0
 40
1.0
 40
2.0
 40
2.0
 40
2.0
 40
2.0
 10
139.0703537983866
 20
-156.5482788466176
 30
0.0
 10
139.0703537983866
 20
-156.5482788466176
 30
0.0
 10
139.0489754655987
 20
-156.0370332911902
 30
0.0
 10
139.8785676666562
 20
-156.0807777356236
 30
0.0
 10
139.8785676666562
 20
-156.0807777356236
 30
0.0
 10
140.3677645986202
 20
-156.1438191244969
 30
0.0
 10
140.2830273785598
 20
-156.5269357910675
 30
0.0
  0
SPLINE
  5
A1
330
79
100
AcDbEntity
  8
レイヤー 1
 62
   250
420
  2299925
370
     9
100
AcDbSpline
210
0.0
220
0.0
230
1.0
 70
     9
 71
     3
 72
    17
 73
    13
 74
     0
 42
0.0000000001
 43
0.0000000001
 40
0.0
 40
0.0
 40
0.0
 40
0.0
 40
1.0
 40
1.0
 40
1.0
 40
2.0
 40
2.0
 40
2.0
 40
3.0
 40
3.0
 40
3.0
 40
4.0
 40
4.0
 40
4.0
 40
4.0
 10
140.4104859864192
 20
-153.781866069532
 30
0.0
 10
140.4104859864192
 20
-154.0171688472508
 30
0.0
 10
140.0811369236123
 20
-154.2073513472032
 30
0.0
 10
139.6766729495848
 20
-154.2073513472032
 30
0.0
 10
139.2715429599205
 20
-154.2073513472032
 30
0.0
 10
138.9435654682879
 20
-154.0171688472508
 30
0.0
 10
138.9435654682879
 20
-153.781866069532
 30
0.0
 10
138.9435654682879
 20
-153.5465632918126
 30
0.0
 10
139.2715429599205
 20
-153.3564160696384
 30
0.0
 10
139.6766729495848
 20
-153.3564160696384
 30
0.0
 10
140.0811369236123
 20
-153.3564160696384
 30
0.0
 10
140.4104859864192
 20
-153.5465632918126
 30
0.0
 10
140.4104859864192
 20
-153.781866069532
 30
0.0
  0
SPLINE
  5
A2
330
79
100
AcDbEntity
  8
レイヤー 1
 62
   250
420
  2299925
370
     9
100
AcDbSpline
210
0.0
220
0.0
230
1.0
 70
     8
 71
     3
 72
    11
 73
     7
 74
     0
 42
0.0000000001
 43
0.0000000001
 40
0.0
 40
0.0
 40
0.0
 40
0.0
 40
1.0
 40
1.0
 40
1.0
 40
2.0
 40
2.0
 40
2.0
 40
2.0
 10
139.0703537983866
 20
-154.0157930139179
 30
0.0
 10
139.0703537983866
 20
-154.0157930139179
 30
0.0
 10
139.0489754655987
 20
-153.5045474584898
 30
0.0
 10
139.8785676666562
 20
-153.5479391251455
 30
0.0
 10
139.8785676666562
 20
-153.5479391251455
 30
0.0
 10
140.3677645986202
 20
-153.6116860695743
 30
0.0
 10
140.2830273785598
 20
-153.9947674583674
 30
0.0
  0
SPLINE
  5
A3
330
79
100
AcDbEntity
  8
レイヤー 1
 62
   250
420
  2299925
370
     9
100
AcDbSpline
210
0.0
220
0.0
230
1.0
 70
     9
 71
     3
 72
    17
 73
    13
 74
     0
 42
0.0000000001
 43
0.0000000001
 40
0.0
 40
0.0
 40
0.0
 40
0.0
 40
1.0
 40
1.0
 40
1.0
 40
2.0
 40
2.0
 40
2.0
 40
3.0
 40
3.0
 40
3.0
 40
4.0
 40
4.0
 40
4.0
 40
4.0
 10
142.6222262077708
 20
-154.1704860694349
 30
0.0
 10
142.6222262077708
 20
-154.4050832915981
 30
0.0
 10
142.2928728828399
 20
-154.5956185693283
 30
0.0
 10
141.8877428931757
 20
-154.5956185693283
 30
0.0
 10
141.4826129035114
 20
-154.5956185693283
 30
0.0
 10
141.1546397011209
 20
-154.4050832915981
 30
0.0
 10
141.1546397011209
 20
-154.1704860694349
 30
0.0
 10
141.1546397011209
 20
-153.9351832917161
 30
0.0
 10
141.4826129035114
 20
-153.7446832917634
 30
0.0
 10
141.8877428931757
 20
-153.7446832917634
 30
0.0
 10
142.2928728828399
 20
-153.7446832917634
 30
0.0
 10
142.6222262077708
 20
-153.9351832917161
 30
0.0
 10
142.6222262077708
 20
-154.1704860694349
 30
0.0
  0
SPLINE
  5
A4
330
79
100
AcDbEntity
  8
レイヤー 1
 62
   250
420
  2299925
370
     9
100
AcDbSpline
210
0.0
220
0.0
230
1.0
 70
     8
 71
     3
 72
    11
 73
     7
 74
     0
 42
0.0000000001
 43
0.0000000001
 40
0.0
 40
0.0
 40
0.0
 40
0.0
 40
1.0
 40
1.0
 40
1.0
 40
2.0
 40
2.0
 40
2.0
 40
2.0
 10
141.2820940197382
 20
-154.404060236043
 30
0.0
 10
141.2820940197382
 20
-154.404060236043
 30
0.0
 10
141.2607509647271
 20
-153.8934849583929
 30
0.0
 10
142.0903078880078
 20
-153.936559125049
 30
0.0
 10
142.0903078880078
 20
-153.936559125049
 30
0.0
 10
142.5795091452094
 20
-153.9999532917
 30
0.0
 10
142.4947675999114
 20
-154.3833874582702
 30
0.0
  0
SPLINE
  5
A5
330
79
100
AcDbEntity
  8
レイヤー 1
 62
   250
420
  2299925
370
     9
100
AcDbSpline
210
0.0
220
0.0
230
1.0
 70
     9
 71
     3
 72
    17
 73
    13
 74
     0
 42
0.0000000001
 43
0.0000000001
 40
0.0
 40
0.0
 40
0.0
 40
0.0
 40
1.0
 40
1.0
 40
1.0
 40
2.0
 40
2.0
 40
2.0
 40
3.0
 40
3.0
 40
3.0
 40
4.0
 40
4.0
 40
4.0
 40
4.0
 10
142.6222262077708
 20
-155.4871938468831
 30
0.0
 10
142.6222262077708
 20
-155.7221438468247
 30
0.0
 10
142.2928728828399
 20
-155.9126791245543
 30
0.0
 10
141.8877428931757
 20
-155.9126791245543
 30
0.0
 10
141.4826129035114
 20
-155.9126791245543
 30
0.0
 10
141.1546397011209
 20
-155.7221438468247
 30
0.0
 10
141.1546397011209
 20
-155.4871938468831
 30
0.0
 10
141.1546397011209
 20
-155.2525966247199
 30
0.0
 10
141.4826129035114
 20
-155.0613910692123
 30
0.0
 10
141.8877428931757
 20
-155.0613910692123
 30
0.0
 10
142.2928728828399
 20
-155.0613910692123
 30
0.0
 10
142.6222262077708
 20
-155.2525966247199
 30
0.0
 10
142.6222262077708
 20
-155.4871938468831
 30
0.0
  0
SPLINE
  5
A6
330
79
100
AcDbEntity
  8
レイヤー 1
 62
   250
420
  2299925
370
     9
100
AcDbSpline
210
0.0
220
0.0
230
1.0
 70
     8
 71
     3
 72
    11
 73
     7
 74
     0
 42
0.0000000001
 43
0.0000000001
 40
0.0
 40
0.0
 40
0.0
 40
0.0
 40
1.0
 40
1.0
 40
1.0
 40
2.0
 40
2.0
 40
2.0
 40
2.0
 10
141.2820940197382
 20
-155.7211207912696
 30
0.0
 10
141.2820940197382
 20
-155.7211207912696
 30
0.0
 10
141.2607509647271
 20
-155.2098752358415
 30
0.0
 10
142.0903078880078
 20
-155.253619680275
 30
0.0
 10
142.0903078880078
 20
-155.253619680275
 30
0.0
 10
142.5795091452094
 20
-155.317013846926
 30
0.0
 10
142.4947675999114
 20
-155.7004480134969
 30
0.0
  0
SPLINE
  5
A7
330
79
100
AcDbEntity
  8
レイヤー 1
 62
   250
420
  2299925
370
     9
100
AcDbSpline
210
0.0
220
0.0
230
1.0
 70
     9
 71
     3
 72
    17
 73
    13
 74
     0
 42
0.0000000001
 43
0.0000000001
 40
0.0
 40
0.0
 40
0.0
 40
0.0
 40
1.0
 40
1.0
 40
1.0
 40
2.0
 40
2.0
 40
2.0
 40
3.0
 40
3.0
 40
3.0
 40
4.0
 40
4.0
 40
4.0
 40
4.0
 10
142.6222262077708
 20
-152.9550607919605
 30
0.0
 10
142.6222262077708
 20
-153.1893052363466
 30
0.0
 10
142.2928728828399
 20
-153.3801932918546
 30
0.0
 10
141.8877428931757
 20
-153.3801932918546
 30
0.0
 10
141.4826129035114
 20
-153.3801932918546
 30
0.0
 10
141.1546397011209
 20
-153.1893052363466
 30
0.0
 10
141.1546397011209
 20
-152.9550607919605
 30
0.0
 10
141.1546397011209
 20
-152.7204282920198
 30
0.0
 10
141.4826129035114
 20
-152.5292227365115
 30
0.0
 10
141.8877428931757
 20
-152.5292227365115
 30
0.0
 10
142.2928728828399
 20
-152.5292227365115
 30
0.0
 10
142.6222262077708
 20
-152.7204282920198
 30
0.0
 10
142.6222262077708
 20
-152.9550607919605
 30
0.0
  0
SPLINE
  5
A8
330
79
100
AcDbEntity
  8
レイヤー 1
 62
   250
420
  2299925
370
     9
100
AcDbSpline
210
0.0
220
0.0
230
1.0
 70
     8
 71
     3
 72
    11
 73
     7
 74
     0
 42
0.0000000001
 43
0.0000000001
 40
0.0
 40
0.0
 40
0.0
 40
0.0
 40
1.0
 40
1.0
 40
1.0
 40
2.0
 40
2.0
 40
2.0
 40
2.0
 10
141.2820940197382
 20
-153.1886349585693
 30
0.0
 10
141.2820940197382
 20
-153.1886349585693
 30
0.0
 10
141.2607509647271
 20
-152.6773894031412
 30
0.0
 10
142.0903078880078
 20
-152.7207810697975
 30
0.0
 10
142.0903078880078
 20
-152.7207810697975
 30
0.0
 10
142.5795091452094
 20
-152.7841752364479
 30
0.0
 10
142.4947675999114
 20
-153.1676094030188
 30
0.0
  0
SPLINE
  5
A9
330
79
100
AcDbEntity
  8
レイヤー 1
 62
   250
420
  2299925
370
     9
100
AcDbSpline
210
0.0
220
0.0
230
1.0
 70
     9
 71
     3
 72
    17
 73
    13
 74
     0
 42
0.0000000001
 43
0.0000000001
 40
0.0
 40
0.0
 40
0.0
 40
0.0
 40
1.0
 40
1.0
 40
1.0
 40
2.0
 40
2.0
 40
2.0
 40
3.0
 40
3.0
 40
3.0
 40
4.0
 40
4.0
 40
4.0
 40
4.0
 10
145.0696219786658
 20
-153.2416927363333
 30
0.0
 10
145.0696219786658
 20
-153.4769955140527
 30
0.0
 10
144.7409785891137
 20
-153.6674955140048
 30
0.0
 10
144.336514497369
 20
-153.6674955140048
 30
0.0
 10
143.9313845077047
 20
-153.6674955140048
 30
0.0
 10
143.6020311827738
 20
-153.4769955140527
 30
0.0
 10
143.6020311827738
 20
-153.2416927363333
 30
0.0
 10
143.6020311827738
 20
-153.0067427363923
 30
0.0
 10
143.9313845077047
 20
-152.8162074586621
 30
0.0
 10
144.336514497369
 20
-152.8162074586621
 30
0.0
 10
144.7409785891137
 20
-152.8162074586621
 30
0.0
 10
145.0696219786658
 20
-153.0067427363923
 30
0.0
 10
145.0696219786658
 20
-153.2416927363333
 30
0.0
  0
SPLINE
  5
AA
330
79
100
AcDbEntity
  8
レイヤー 1
 62
   250
420
  2299925
370
     9
100
AcDbSpline
210
0.0
220
0.0
230
1.0
 70
     8
 71
     3
 72
    11
 73
     7
 74
     0
 42
0.0000000001
 43
0.0000000001
 40
0.0
 40
0.0
 40
0.0
 40
0.0
 40
1.0
 40
1.0
 40
1.0
 40
2.0
 40
2.0
 40
2.0
 40
2.0
 10
143.7301953461708
 20
-153.4756196807198
 30
0.0
 10
143.7301953461708
 20
-153.4756196807198
 30
0.0
 10
143.7088170133829
 20
-152.9643388475142
 30
0.0
 10
144.5377036589029
 20
-153.0077657919481
 30
0.0
 10
144.5377036589029
 20
-153.0077657919481
 30
0.0
 10
145.0269005908669
 20
-153.0711599585984
 30
0.0
 10
144.9421633708065
 20
-153.4542413473916
 30
0.0
  0
SPLINE
  5
AB
330
79
100
AcDbEntity
  8
レイヤー 1
 62
   250
420
  2299925
370
     9
100
AcDbSpline
210
0.0
220
0.0
230
1.0
 70
     9
 71
     3
 72
    17
 73
    13
 74
     0
 42
0.0000000001
 43
0.0000000001
 40
0.0
 40
0.0
 40
0.0
 40
0.0
 40
1.0
 40
1.0
 40
1.0
 40
2.0
 40
2.0
 40
2.0
 40
3.0
 40
3.0
 40
3.0
 40
4.0
 40
4.0
 40
4.0
 40
4.0
 10
145.0696219786658
 20
-154.5587532915599
 30
0.0
 10
145.0696219786658
 20
-154.7940560692787
 30
0.0
 10
144.7409785891137
 20
-154.9842032914536
 30
0.0
 10
144.336514497369
 20
-154.9842032914536
 30
0.0
 10
143.9313845077047
 20
-154.9842032914536
 30
0.0
 10
143.6020311827738
 20
-154.7940560692787
 30
0.0
 10
143.6020311827738
 20
-154.5587532915599
 30
0.0
 10
143.6020311827738
 20
-154.3234505138405
 30
0.0
 10
143.9313845077047
 20
-154.1332680138888
 30
0.0
 10
144.336514497369
 20
-154.1332680138888
 30
0.0
 10
144.7409785891137
 20
-154.1332680138888
 30
0.0
 10
145.0696219786658
 20
-154.3234505138405
 30
0.0
 10
145.0696219786658
 20
-154.5587532915599
 30
0.0
  0
SPLINE
  5
AC
330
79
100
AcDbEntity
  8
レイヤー 1
 62
   250
420
  2299925
370
     9
100
AcDbSpline
210
0.0
220
0.0
230
1.0
 70
     8
 71
     3
 72
    11
 73
     7
 74
     0
 42
0.0000000001
 43
0.0000000001
 40
0.0
 40
0.0
 40
0.0
 40
0.0
 40
1.0
 40
1.0
 40
1.0
 40
2.0
 40
2.0
 40
2.0
 40
2.0
 10
143.7301953461708
 20
-154.7926802359458
 30
0.0
 10
143.7301953461708
 20
-154.7926802359458
 30
0.0
 10
143.7088170133829
 20
-154.2813994027402
 30
0.0
 10
144.5377036589029
 20
-154.3244735693963
 30
0.0
 10
144.5377036589029
 20
-154.3244735693963
 30
0.0
 10
145.0269005908669
 20
-154.3882205138245
 30
0.0
 10
144.9421633708065
 20
-154.7713019026182
 30
0.0
  0
SPLINE
  5
AD
330
79
100
AcDbEntity
  8
レイヤー 1
 62
   250
420
  2299925
370
     9
100
AcDbSpline
210
0.0
220
0.0
230
1.0
 70
     9
 71
     3
 72
    17
 73
    13
 74
     0
 42
0.0000000001
 43
0.0000000001
 40
0.0
 40
0.0
 40
0.0
 40
0.0
 40
1.0
 40
1.0
 40
1.0
 40
2.0
 40
2.0
 40
2.0
 40
3.0
 40
3.0
 40
3.0
 40
4.0
 40
4.0
 40
4.0
 40
4.0
 10
145.0696219786658
 20
-152.0262674588596
 30
0.0
 10
145.0696219786658
 20
-152.2608646810235
 30
0.0
 10
144.7409785891137
 20
-152.4513646809755
 30
0.0
 10
144.336514497369
 20
-152.4513646809755
 30
0.0
 10
143.9313845077047
 20
-152.4513646809755
 30
0.0
 10
143.6020311827738
 20
-152.2608646810235
 30
0.0
 10
143.6020311827738
 20
-152.0262674588596
 30
0.0
 10
143.6020311827738
 20
-151.791317458918
 30
0.0
 10
143.9313845077047
 20
-151.6007821811884
 30
0.0
 10
144.336514497369
 20
-151.6007821811884
 30
0.0
 10
144.7409785891137
 20
-151.6007821811884
 30
0.0
 10
145.0696219786658
 20
-151.791317458918
 30
0.0
 10
145.0696219786658
 20
-152.0262674588596
 30
0.0
  0
SPLINE
  5
AE
330
79
100
AcDbEntity
  8
レイヤー 1
 62
   250
420
  2299925
370
     9
100
AcDbSpline
210
0.0
220
0.0
230
1.0
 70
     8
 71
     3
 72
    11
 73
     7
 74
     0
 42
0.0000000001
 43
0.0000000001
 40
0.0
 40
0.0
 40
0.0
 40
0.0
 40
1.0
 40
1.0
 40
1.0
 40
2.0
 40
2.0
 40
2.0
 40
2.0
 10
143.7301953461708
 20
-152.2601944032455
 30
0.0
 10
143.7301953461708
 20
-152.2601944032455
 30
0.0
 10
143.7088170133829
 20
-151.7492663478176
 30
0.0
 10
144.5377036589029
 20
-151.7923405144737
 30
0.0
 10
144.5377036589029
 20
-151.7923405144737
 30
0.0
 10
145.0269005908669
 20
-151.8557346811241
 30
0.0
 10
144.9421633708065
 20
-152.2391688476956
 30
0.0
  0
SPLINE
  5
AF
330
79
100
AcDbEntity
  8
レイヤー 1
 62
   250
420
  2299925
370
     9
100
AcDbSpline
210
0.0
220
0.0
230
1.0
 70
     9
 71
     3
 72
    17
 73
    13
 74
     0
 42
0.0000000001
 43
0.0000000001
 40
0.0
 40
0.0
 40
0.0
 40
0.0
 40
1.0
 40
1.0
 40
1.0
 40
2.0
 40
2.0
 40
2.0
 40
3.0
 40
3.0
 40
3.0
 40
4.0
 40
4.0
 40
4.0
 40
4.0
 10
147.4336563627987
 20
-153.781866069532
 30
0.0
 10
147.4336563627987
 20
-154.0171688472508
 30
0.0
 10
147.1043030378679
 20
-154.2073513472032
 30
0.0
 10
146.6998433259643
 20
-154.2073513472032
 30
0.0
 10
146.2940077807625
 20
-154.2073513472032
 30
0.0
 10
145.9660302891299
 20
-154.0171688472508
 30
0.0
 10
145.9660302891299
 20
-153.781866069532
 30
0.0
 10
145.9660302891299
 20
-153.5465632918126
 30
0.0
 10
146.2940077807625
 20
-153.3564160696384
 30
0.0
 10
146.6998433259643
 20
-153.3564160696384
 30
0.0
 10
147.1043030378679
 20
-153.3564160696384
 30
0.0
 10
147.4336563627987
 20
-153.5465632918126
 30
0.0
 10
147.4336563627987
 20
-153.781866069532
 30
0.0
  0
SPLINE
  5
B0
330
79
100
AcDbEntity
  8
レイヤー 1
 62
   250
420
  2299925
370
     9
100
AcDbSpline
210
0.0
220
0.0
230
1.0
 70
     8
 71
     3
 72
    11
 73
     7
 74
     0
 42
0.0000000001
 43
0.0000000001
 40
0.0
 40
0.0
 40
0.0
 40
0.0
 40
1.0
 40
1.0
 40
1.0
 40
2.0
 40
2.0
 40
2.0
 40
2.0
 10
146.0935285887751
 20
-154.0157930139179
 30
0.0
 10
146.0935285887751
 20
-154.0157930139179
 30
0.0
 10
146.0721458419782
 20
-153.5045474584898
 30
0.0
 10
146.9017424774623
 20
-153.5479391251455
 30
0.0
 10
146.9017424774623
 20
-153.5479391251455
 30
0.0
 10
147.3909349749998
 20
-153.6116860695743
 30
0.0
 10
147.3061977549394
 20
-153.9947674583674
 30
0.0
  0
SPLINE
  5
B1
330
79
100
AcDbEntity
  8
レイヤー 1
 62
   250
420
  2299925
370
     9
100
AcDbSpline
210
0.0
220
0.0
230
1.0
 70
     9
 71
     3
 72
    17
 73
    13
 74
     0
 42
0.0000000001
 43
0.0000000001
 40
0.0
 40
0.0
 40
0.0
 40
0.0
 40
1.0
 40
1.0
 40
1.0
 40
2.0
 40
2.0
 40
2.0
 40
3.0
 40
3.0
 40
3.0
 40
4.0
 40
4.0
 40
4.0
 40
4.0
 10
147.4336563627987
 20
-152.5664407920583
 30
0.0
 10
147.4336563627987
 20
-152.8010732919991
 30
0.0
 10
147.1043030378679
 20
-152.9919260697295
 30
0.0
 10
146.6998433259643
 20
-152.9919260697295
 30
0.0
 10
146.2940077807625
 20
-152.9919260697295
 30
0.0
 10
145.9660302891299
 20
-152.8010732919991
 30
0.0
 10
145.9660302891299
 20
-152.5664407920583
 30
0.0
 10
145.9660302891299
 20
-152.3314907921167
 30
0.0
 10
146.2940077807625
 20
-152.140990792164
 30
0.0
 10
146.6998433259643
 20
-152.140990792164
 30
0.0
 10
147.1043030378679
 20
-152.140990792164
 30
0.0
 10
147.4336563627987
 20
-152.3314907921167
 30
0.0
 10
147.4336563627987
 20
-152.5664407920583
 30
0.0
  0
SPLINE
  5
B2
330
79
100
AcDbEntity
  8
レイヤー 1
 62
   250
420
  2299925
370
     9
100
AcDbSpline
210
0.0
220
0.0
230
1.0
 70
     8
 71
     3
 72
    11
 73
     7
 74
     0
 42
0.0000000001
 43
0.0000000001
 40
0.0
 40
0.0
 40
0.0
 40
0.0
 40
1.0
 40
1.0
 40
1.0
 40
2.0
 40
2.0
 40
2.0
 40
2.0
 10
146.0935285887751
 20
-152.8003677364436
 30
0.0
 10
146.0935285887751
 20
-152.8003677364436
 30
0.0
 10
146.0721458419782
 20
-152.2894749587939
 30
0.0
 10
146.9017424774623
 20
-152.3325138476718
 30
0.0
 10
146.9017424774623
 20
-152.3325138476718
 30
0.0
 10
147.3909349749998
 20
-152.3959080143228
 30
0.0
 10
147.3061977549394
 20
-152.7786719031157
 30
0.0
  0
ENDBLK
  5
7C
330
79
100
AcDbEntity
  8
0
100
AcDbBlockEnd
  0
BLOCK
  5
B5
330
B3
100
AcDbEntity
  8
0
100
AcDbBlockBegin
  2
Block_1
 70
     0
 10
0.0
 20
0.0
 30
0.0
  3
Block_1
  1

  0
LINE
  5
B7
330
B3
100
AcDbEntity
  8
レイヤー 1
  6
AI-Linetype-0
 62
   154
420
    23468
370
    25
100
AcDbLine
 10
65.80850066745219
 20
-146.8961730156979
 30
0.0
 11
75.80858624566177
 21
-146.8961730156979
 31
0.0
  0
LINE
  5
B9
330
B3
100
AcDbEntity
  8
レイヤー 1
  6
AI-Linetype-1
 62
   154
420
    23468
370
    25
100
AcDbLine
 10
105.3642018805238
 20
-146.8961730156979
 30
0.0
 11
115.8641735570922
 21
-146.8961730156979
 31
0.0
  0
LINE
  5
BB
330
B3
100
AcDbEntity
  8
レイヤー 1
 62
   250
420
  2299925
370
    25
100
AcDbLine
 10
95.80960406872662
 20
-154.1573980138827
 30
0.0
 11
85.80916571274796
 21
-154.1573980138827
 31
0.0
  0
LINE
  5
BC
330
B3
100
AcDbEntity
  8
レイヤー 1
 62
   250
420
  2299925
370
    25
100
AcDbLine
 10
65.80850066745219
 20
-145.6573232937854
 30
0.0
 11
65.80850066745219
 21
-146.1575269047712
 31
0.0
  0
LINE
  5
BD
330
B3
100
AcDbEntity
  8
レイヤー 1
 62
   250
420
  2299925
370
    25
100
AcDbLine
 10
85.80916571274796
 20
-146.1575269047712
 30
0.0
 11
65.80850066745219
 21
-146.1575269047712
 31
0.0
  0
LINE
  5
BE
330
B3
100
AcDbEntity
  8
レイヤー 1
 62
   250
420
  2299925
370
    25
100
AcDbLine
 10
65.80850066745219
 20
-145.6573232937854
 30
0.0
 11
66.32214509879216
 21
-146.039381627023
 31
0.0
  0
LINE
  5
BF
330
B3
100
AcDbEntity
  8
レイヤー 1
 62
   250
420
  2299925
370
    25
100
AcDbLine
 10
66.32214509879216
 20
-146.039381627023
 30
0.0
 11
66.80756730863023
 21
-145.6218338493495
 31
0.0
  0
LINE
  5
C0
330
B3
100
AcDbEntity
  8
レイヤー 1
 62
   250
420
  2299925
370
    25
100
AcDbLine
 10
67.32156451773929
 20
-146.0038921825875
 30
0.0
 11
67.80698672757735
 21
-145.5859916271363
 31
0.0
  0
LINE
  5
C1
330
B3
100
AcDbEntity
  8
レイヤー 1
 62
   250
420
  2299925
370
    25
100
AcDbLine
 10
66.80756730863023
 20
-145.6218338493495
 30
0.0
 11
67.32156451773929
 21
-146.0038921825875
 31
0.0
  0
LINE
  5
C2
330
B3
100
AcDbEntity
  8
レイヤー 1
 62
   250
420
  2299925
370
    25
100
AcDbLine
 10
67.80698672757735
 20
-145.5859916271363
 30
0.0
 11
68.32098393668641
 21
-145.9680499603743
 31
0.0
  0
LINE
  5
C3
330
B3
100
AcDbEntity
  8
レイヤー 1
 62
   250
420
  2299925
370
    25
100
AcDbLine
 10
68.32098393668641
 20
-145.9680499603743
 30
0.0
 11
68.80640614652449
 21
-145.5505021827008
 31
0.0
  0
LINE
  5
C4
330
B3
100
AcDbEntity
  8
レイヤー 1
 62
   250
420
  2299925
370
    25
100
AcDbLine
 10
68.80640614652449
 20
-145.5505021827008
 30
0.0
 11
69.32043863341043
 21
-145.9322430159386
 31
0.0
  0
LINE
  5
C5
330
B3
100
AcDbEntity
  8
レイヤー 1
 62
   250
420
  2299925
370
    25
100
AcDbLine
 10
69.32043863341043
 20
-145.9322430159386
 30
0.0
 11
69.80550806547971
 21
-145.5146952382654
 31
0.0
  0
LINE
  5
C6
330
B3
100
AcDbEntity
  8
レイヤー 1
 62
   250
420
  2299925
370
    25
100
AcDbLine
 10
69.80550806547971
 20
-145.5146952382654
 30
0.0
 11
70.31950527458878
 21
-145.8964007937253
 31
0.0
  0
LINE
  5
C7
330
B3
100
AcDbEntity
  8
レイヤー 1
 62
   250
420
  2299925
370
    25
100
AcDbLine
 10
70.31950527458878
 20
-145.8964007937253
 30
0.0
 11
70.80524498441874
 21
-145.4788530160521
 31
0.0
  0
LINE
  5
C8
330
B3
100
AcDbEntity
  8
レイヤー 1
 62
   250
420
  2299925
370
    25
100
AcDbLine
 10
70.80524498441874
 20
-145.4788530160521
 30
0.0
 11
71.31927747130501
 21
-145.8609113492898
 31
0.0
  0
LINE
  5
C9
330
B3
100
AcDbEntity
  8
レイヤー 1
 62
   250
420
  2299925
370
    25
100
AcDbLine
 10
71.31927747130501
 20
-145.8609113492898
 30
0.0
 11
71.80434690337398
 21
-145.4433635716163
 31
0.0
  0
LINE
  5
CA
330
B3
100
AcDbEntity
  8
レイヤー 1
 62
   250
420
  2299925
370
    25
100
AcDbLine
 10
71.80434690337398
 20
-145.4433635716163
 30
0.0
 11
72.31834411248304
 21
-145.8254219048543
 31
0.0
  0
LINE
  5
CB
330
B3
100
AcDbEntity
  8
レイヤー 1
 62
   250
420
  2299925
370
    25
100
AcDbLine
 10
72.31834411248304
 20
-145.8254219048543
 30
0.0
 11
72.80376632232144
 21
-145.4075213494031
 31
0.0
  0
LINE
  5
CC
330
B3
100
AcDbEntity
  8
レイヤー 1
 62
   250
420
  2299925
370
    25
100
AcDbLine
 10
73.31776353143017
 20
-145.7896149604189
 30
0.0
 11
73.80318574126824
 21
-145.3720671827458
 31
0.0
  0
LINE
  5
CD
330
B3
100
AcDbEntity
  8
レイヤー 1
 62
   250
420
  2299925
370
    25
100
AcDbLine
 10
72.80376632232144
 20
-145.4075213494031
 30
0.0
 11
73.31776353143017
 21
-145.7896149604189
 31
0.0
  0
LINE
  5
CE
330
B3
100
AcDbEntity
  8
レイヤー 1
 62
   250
420
  2299925
370
    25
100
AcDbLine
 10
73.80318574126824
 20
-145.3720671827458
 30
0.0
 11
74.3171829503773
 21
-145.7537727382057
 31
0.0
  0
LINE
  5
CF
330
B3
100
AcDbEntity
  8
レイヤー 1
 62
   250
420
  2299925
370
    25
100
AcDbLine
 10
74.3171829503773
 20
-145.7537727382057
 30
0.0
 11
74.80260516021537
 21
-145.3362249605325
 31
0.0
  0
LINE
  5
D0
330
B3
100
AcDbEntity
  8
レイヤー 1
 62
   250
420
  2299925
370
    25
100
AcDbLine
 10
75.31628486933254
 20
-145.7179305159924
 30
0.0
 11
75.80202457916283
 21
-145.3003827383193
 31
0.0
  0
LINE
  5
D1
330
B3
100
AcDbEntity
  8
レイヤー 1
 62
   250
420
  2299925
370
    25
100
AcDbLine
 10
74.80260516021537
 20
-145.3362249605325
 30
0.0
 11
75.31628486933254
 21
-145.7179305159924
 31
0.0
  0
LINE
  5
D2
330
B3
100
AcDbEntity
  8
レイヤー 1
 62
   250
420
  2299925
370
    25
100
AcDbLine
 10
76.31602178827157
 20
-145.6824410715566
 30
0.0
 11
76.80109122034085
 21
-145.264928571661
 31
0.0
  0
LINE
  5
D3
330
B3
100
AcDbEntity
  8
レイヤー 1
 62
   250
420
  2299925
370
    25
100
AcDbLine
 10
75.80202457916283
 20
-145.3003827383193
 30
0.0
 11
76.31602178827157
 21
-145.6824410715566
 31
0.0
  0
LINE
  5
D4
330
B3
100
AcDbEntity
  8
レイヤー 1
 62
   250
420
  2299925
370
    25
100
AcDbLine
 10
76.80109122034085
 20
-145.264928571661
 30
0.0
 11
77.3149473183424
 21
-145.646986904899
 31
0.0
  0
LINE
  5
D5
330
B3
100
AcDbEntity
  8
レイヤー 1
 62
   250
420
  2299925
370
    25
100
AcDbLine
 10
77.3149473183424
 20
-145.646986904899
 30
0.0
 11
77.80068971696
 21
-145.2290863494477
 31
0.0
  0
LINE
  5
D6
330
B3
100
AcDbEntity
  8
レイヤー 1
 62
   250
420
  2299925
370
    25
100
AcDbLine
 10
77.80068971696
 20
-145.2290863494477
 30
0.0
 11
78.31436673728953
 21
-145.6111446826857
 31
0.0
  0
LINE
  5
D7
330
B3
100
AcDbEntity
  8
レイヤー 1
 62
   250
420
  2299925
370
    25
100
AcDbLine
 10
78.31436673728953
 20
-145.6111446826857
 30
0.0
 11
78.79978894712761
 21
-145.1935969050123
 31
0.0
  0
LINE
  5
D8
330
B3
100
AcDbEntity
  8
レイヤー 1
 62
   250
420
  2299925
370
    25
100
AcDbLine
 10
78.79978894712761
 20
-145.1935969050123
 30
0.0
 11
79.31378615623668
 21
-145.5753024604725
 31
0.0
  0
LINE
  5
D9
330
B3
100
AcDbEntity
  8
レイヤー 1
 62
   250
420
  2299925
370
    25
100
AcDbLine
 10
79.31378615623668
 20
-145.5753024604725
 30
0.0
 11
79.79920836607506
 21
-145.157754682799
 31
0.0
  0
LINE
  5
DA
330
B3
100
AcDbEntity
  8
レイヤー 1
 62
   250
420
  2299925
370
    25
100
AcDbLine
 10
79.79920836607506
 20
-145.157754682799
 30
0.0
 11
80.31355835295258
 21
-145.5394955160367
 31
0.0
  0
LINE
  5
DB
330
B3
100
AcDbEntity
  8
レイヤー 1
 62
   250
420
  2299925
370
    25
100
AcDbLine
 10
80.31355835295258
 20
-145.5394955160367
 30
0.0
 11
80.79862778502187
 21
-145.1219477383636
 31
0.0
  0
LINE
  5
DC
330
B3
100
AcDbEntity
  8
レイヤー 1
 62
   250
420
  2299925
370
    25
100
AcDbLine
 10
80.79862778502187
 20
-145.1219477383636
 30
0.0
 11
81.31262499413093
 21
-145.5040060716012
 31
0.0
  0
LINE
  5
DD
330
B3
100
AcDbEntity
  8
レイヤー 1
 62
   250
420
  2299925
370
    25
100
AcDbLine
 10
81.31262499413093
 20
-145.5040060716012
 30
0.0
 11
81.79769442620022
 21
-145.0864582939281
 31
0.0
  0
LINE
  5
DE
330
B3
100
AcDbEntity
  8
レイヤー 1
 62
   250
420
  2299925
370
    25
100
AcDbLine
 10
81.79769442620022
 20
-145.0864582939281
 30
0.0
 11
82.31169163530928
 21
-145.4685166271661
 31
0.0
  0
LINE
  5
DF
330
B3
100
AcDbEntity
  8
レイヤー 1
 62
   250
420
  2299925
370
    25
100
AcDbLine
 10
82.31169163530928
 20
-145.4685166271661
 30
0.0
 11
82.79746662291612
 21
-145.0506160717148
 31
0.0
  0
LINE
  5
E0
330
B3
100
AcDbEntity
  8
レイヤー 1
 62
   250
420
  2299925
370
    25
100
AcDbLine
 10
82.79746662291612
 20
-145.0506160717148
 30
0.0
 11
83.3114638320252
 21
-145.4326744049529
 31
0.0
  0
LINE
  5
E1
330
B3
100
AcDbEntity
  8
レイヤー 1
 62
   250
420
  2299925
370
    25
100
AcDbLine
 10
83.3114638320252
 20
-145.4326744049529
 30
0.0
 11
83.79653326409449
 21
-145.015126627279
 31
0.0
  0
LINE
  5
E2
330
B3
100
AcDbEntity
  8
レイヤー 1
 62
   250
420
  2299925
370
    25
100
AcDbLine
 10
83.79653326409449
 20
-145.015126627279
 30
0.0
 11
84.31056575098043
 21
-145.3968674605171
 31
0.0
  0
LINE
  5
E3
330
B3
100
AcDbEntity
  8
レイヤー 1
 62
   250
420
  2299925
370
    25
100
AcDbLine
 10
84.31056575098043
 20
-145.3968674605171
 30
0.0
 11
84.79563518305004
 21
-144.9793196828439
 31
0.0
  0
LINE
  5
E4
330
B3
100
AcDbEntity
  8
レイヤー 1
 62
   250
420
  2299925
370
    25
100
AcDbLine
 10
84.79563518305004
 20
-144.9793196828439
 30
0.0
 11
85.30963239215877
 21
-145.3610252383039
 31
0.0
  0
LINE
  5
E5
330
B3
100
AcDbEntity
  8
レイヤー 1
 62
   250
420
  2299925
370
    25
100
AcDbLine
 10
85.30963239215877
 20
-145.3610252383039
 30
0.0
 11
85.79537210198875
 21
-144.9434774606304
 31
0.0
  0
LINE
  5
E6
330
B3
100
AcDbEntity
  8
レイヤー 1
 62
   250
420
  2299925
370
    25
100
AcDbLine
 10
85.85257790939136
 20
-144.8952527384205
 30
0.0
 11
86.80960818722454
 21
-144.8952527384205
 31
0.0
  0
LINE
  5
E7
330
B3
100
AcDbEntity
  8
レイヤー 1
 62
   250
420
  2299925
370
    25
100
AcDbLine
 10
86.80960818722454
 20
-144.8952527384205
 30
0.0
 11
86.80960818722454
 21
-153.1572730141324
 31
0.0
  0
LINE
  5
E8
330
B3
100
AcDbEntity
  8
レイヤー 1
 62
   250
420
  2299925
370
    25
100
AcDbLine
 10
85.80916571274796
 20
-146.1575269047712
 30
0.0
 11
85.80916571274796
 21
-154.1573980138827
 31
0.0
  0
LINE
  5
E9
330
B3
100
AcDbEntity
  8
レイヤー 1
 62
   250
420
  2299925
370
    25
100
AcDbLine
 10
94.80983187201072
 20
-153.1572730141324
 30
0.0
 11
86.80960818722454
 21
-153.1572730141324
 31
0.0
  0
LINE
  5
EA
330
B3
100
AcDbEntity
  8
レイヤー 1
 62
   250
420
  2299925
370
    25
100
AcDbLine
 10
105.8706496453816
 20
-145.3003827383193
 30
0.0
 11
105.3566524362722
 21
-145.6824410715566
 31
0.0
  0
LINE
  5
EB
330
B3
100
AcDbEntity
  8
レイヤー 1
 62
   250
420
  2299925
370
    25
100
AcDbLine
 10
110.8674292401254
 20
-145.4788530160521
 30
0.0
 11
110.3533967532394
 21
-145.8609113492898
 31
0.0
  0
LINE
  5
EC
330
B3
100
AcDbEntity
  8
レイヤー 1
 62
   250
420
  2299925
370
    25
100
AcDbLine
 10
106.3557190774509
 20
-145.7179305159924
 30
0.0
 11
105.8706496453816
 21
-145.3003827383193
 31
0.0
  0
LINE
  5
ED
330
B3
100
AcDbEntity
  8
レイヤー 1
 62
   250
420
  2299925
370
    25
100
AcDbLine
 10
107.3554912741668
 20
-145.7537727382057
 30
0.0
 11
106.86971628656
 21
-145.3362249605325
 31
0.0
  0
LINE
  5
EE
330
B3
100
AcDbEntity
  8
レイヤー 1
 62
   250
420
  2299925
370
    25
100
AcDbLine
 10
105.3566524362722
 20
-145.6824410715566
 30
0.0
 11
104.8708774486654
 21
-145.264928571661
 31
0.0
  0
LINE
  5
EF
330
B3
100
AcDbEntity
  8
レイヤー 1
 62
   250
420
  2299925
370
    25
100
AcDbLine
 10
106.86971628656
 20
-145.3362249605325
 30
0.0
 11
106.3557190774509
 21
-145.7179305159924
 31
0.0
  0
LINE
  5
F0
330
B3
100
AcDbEntity
  8
レイヤー 1
 62
   250
420
  2299925
370
    25
100
AcDbLine
 10
114.8651069159139
 20
-145.6218338493495
 30
0.0
 11
114.3511097068048
 21
-146.0038921825875
 31
0.0
  0
LINE
  5
F1
330
B3
100
AcDbEntity
  8
レイヤー 1
 62
   250
420
  2299925
370
    25
100
AcDbLine
 10
107.8694884832759
 20
-145.3720671827458
 30
0.0
 11
107.3554912741668
 21
-145.7537727382057
 31
0.0
  0
LINE
  5
F2
330
B3
100
AcDbEntity
  8
レイヤー 1
 62
   250
420
  2299925
370
    25
100
AcDbLine
 10
108.8685551244542
 20
-145.4075213494031
 30
0.0
 11
108.3545579153452
 21
-145.7896149604189
 31
0.0
  0
LINE
  5
F3
330
B3
100
AcDbEntity
  8
レイヤー 1
 62
   250
420
  2299925
370
    25
100
AcDbLine
 10
94.86288964843486
 20
-144.8952527384205
 30
0.0
 11
94.86288964843486
 21
-153.1572730141324
 31
0.0
  0
LINE
  5
F4
330
B3
100
AcDbEntity
  8
レイヤー 1
 62
   250
420
  2299925
370
    25
100
AcDbLine
 10
108.3545579153452
 20
-145.7896149604189
 30
0.0
 11
107.8694884832759
 21
-145.3720671827458
 31
0.0
  0
LINE
  5
F5
330
B3
100
AcDbEntity
  8
レイヤー 1
 62
   250
420
  2299925
370
    25
100
AcDbLine
 10
109.3543301120611
 20
-145.8254219048543
 30
0.0
 11
108.8685551244542
 21
-145.4075213494031
 31
0.0
  0
LINE
  5
F6
330
B3
100
AcDbEntity
  8
レイヤー 1
 62
   250
420
  2299925
370
    25
100
AcDbLine
 10
114.3511097068048
 20
-146.0038921825875
 30
0.0
 11
113.865334719198
 21
-145.5859916271363
 31
0.0
  0
LINE
  5
F7
330
B3
100
AcDbEntity
  8
レイヤー 1
 62
   250
420
  2299925
370
    25
100
AcDbLine
 10
109.8676570434094
 20
-145.4433635716163
 30
0.0
 11
109.3543301120611
 21
-145.8254219048543
 31
0.0
  0
LINE
  5
F8
330
B3
100
AcDbEntity
  8
レイヤー 1
 62
   250
420
  2299925
370
    25
100
AcDbLine
 10
110.3533967532394
 20
-145.8609113492898
 30
0.0
 11
109.8676570434094
 21
-145.4433635716163
 31
0.0
  0
LINE
  5
F9
330
B3
100
AcDbEntity
  8
レイヤー 1
 62
   250
420
  2299925
370
    25
100
AcDbLine
 10
115.3501763479832
 20
-146.039381627023
 30
0.0
 11
114.8651069159139
 21
-145.6218338493495
 31
0.0
  0
LINE
  5
FA
330
B3
100
AcDbEntity
  8
レイヤー 1
 62
   250
420
  2299925
370
    25
100
AcDbLine
 10
111.8664958813037
 20
-145.5146952382654
 30
0.0
 11
111.3524986721946
 21
-145.8964007937253
 31
0.0
  0
LINE
  5
FB
330
B3
100
AcDbEntity
  8
レイヤー 1
 62
   250
420
  2299925
370
    25
100
AcDbLine
 10
112.8662680780196
 20
-145.5505021827008
 30
0.0
 11
112.3522355911337
 21
-145.9322430159386
 31
0.0
  0
LINE
  5
FC
330
B3
100
AcDbEntity
  8
レイヤー 1
 62
   250
420
  2299925
370
    25
100
AcDbLine
 10
112.3522355911337
 20
-145.9322430159386
 30
0.0
 11
111.8664958813037
 21
-145.5146952382654
 31
0.0
  0
LINE
  5
FD
330
B3
100
AcDbEntity
  8
レイヤー 1
 62
   250
420
  2299925
370
    25
100
AcDbLine
 10
115.8641735570922
 20
-145.6573232937854
 30
0.0
 11
115.3501763479832
 21
-146.039381627023
 31
0.0
  0
LINE
  5
FE
330
B3
100
AcDbEntity
  8
レイヤー 1
 62
   250
420
  2299925
370
    25
100
AcDbLine
 10
111.3524986721946
 20
-145.8964007937253
 30
0.0
 11
110.8674292401254
 21
-145.4788530160521
 31
0.0
  0
LINE
  5
FF
330
B3
100
AcDbEntity
  8
レイヤー 1
 62
   250
420
  2299925
370
    25
100
AcDbLine
 10
113.865334719198
 20
-145.5859916271363
 30
0.0
 11
113.3513375100889
 21
-145.9680499603743
 31
0.0
  0
LINE
  5
100
330
B3
100
AcDbEntity
  8
レイヤー 1
 62
   250
420
  2299925
370
    25
100
AcDbLine
 10
113.3513375100889
 20
-145.9680499603743
 30
0.0
 11
112.8662680780196
 21
-145.5505021827008
 31
0.0
  0
LINE
  5
101
330
B3
100
AcDbEntity
  8
レイヤー 1
 62
   250
420
  2299925
370
    25
100
AcDbLine
 10
115.8641735570922
 20
-145.6573232937854
 30
0.0
 11
115.8641735570922
 21
-146.1575269047712
 31
0.0
  0
LINE
  5
102
330
B3
100
AcDbEntity
  8
レイヤー 1
 62
   250
420
  2299925
370
    25
100
AcDbLine
 10
95.86266184515078
 20
-146.1575269047712
 30
0.0
 11
115.8641735570922
 21
-146.1575269047712
 31
0.0
  0
LINE
  5
103
330
B3
100
AcDbEntity
  8
レイヤー 1
 62
   250
420
  2299925
370
    25
100
AcDbLine
 10
104.8708774486654
 20
-145.264928571661
 30
0.0
 11
104.3568802395563
 21
-145.646986904899
 31
0.0
  0
LINE
  5
104
330
B3
100
AcDbEntity
  8
レイヤー 1
 62
   250
420
  2299925
370
    25
100
AcDbLine
 10
104.3568802395563
 20
-145.646986904899
 30
0.0
 11
103.871810807487
 21
-145.2290863494477
 31
0.0
  0
LINE
  5
105
330
B3
100
AcDbEntity
  8
レイヤー 1
 62
   250
420
  2299925
370
    25
100
AcDbLine
 10
103.871810807487
 20
-145.2290863494477
 30
0.0
 11
103.3577783206011
 21
-145.6111446826857
 31
0.0
  0
LINE
  5
106
330
B3
100
AcDbEntity
  8
レイヤー 1
 62
   250
420
  2299925
370
    25
100
AcDbLine
 10
103.3577783206011
 20
-145.6111446826857
 30
0.0
 11
102.8727088885318
 21
-145.1935969050123
 31
0.0
  0
LINE
  5
107
330
B3
100
AcDbEntity
  8
レイヤー 1
 62
   250
420
  2299925
370
    25
100
AcDbLine
 10
102.8727088885318
 20
-145.1935969050123
 30
0.0
 11
102.3587116794227
 21
-145.5753024604725
 31
0.0
  0
LINE
  5
108
330
B3
100
AcDbEntity
  8
レイヤー 1
 62
   250
420
  2299925
370
    25
100
AcDbLine
 10
102.3587116794227
 20
-145.5753024604725
 30
0.0
 11
101.8729719695931
 21
-145.157754682799
 31
0.0
  0
LINE
  5
109
330
B3
100
AcDbEntity
  8
レイヤー 1
 62
   250
420
  2299925
370
    25
100
AcDbLine
 10
101.8729719695931
 20
-145.157754682799
 30
0.0
 11
101.3589394827068
 21
-145.5394955160367
 31
0.0
  0
LINE
  5
10A
330
B3
100
AcDbEntity
  8
レイヤー 1
 62
   250
420
  2299925
370
    25
100
AcDbLine
 10
101.3589394827068
 20
-145.5394955160367
 30
0.0
 11
100.8738700506375
 21
-145.1219477383636
 31
0.0
  0
LINE
  5
10B
330
B3
100
AcDbEntity
  8
レイヤー 1
 62
   250
420
  2299925
370
    25
100
AcDbLine
 10
100.8738700506375
 20
-145.1219477383636
 30
0.0
 11
100.3598728415285
 21
-145.5040060716012
 31
0.0
  0
LINE
  5
10C
330
B3
100
AcDbEntity
  8
レイヤー 1
 62
   250
420
  2299925
370
    25
100
AcDbLine
 10
100.3598728415285
 20
-145.5040060716012
 30
0.0
 11
99.87409785392165
 21
-145.0864582939281
 31
0.0
  0
LINE
  5
10D
330
B3
100
AcDbEntity
  8
レイヤー 1
 62
   250
420
  2299925
370
    25
100
AcDbLine
 10
99.87409785392165
 20
-145.0864582939281
 30
0.0
 11
99.36010064481259
 21
-145.4685166271661
 31
0.0
  0
LINE
  5
10E
330
B3
100
AcDbEntity
  8
レイヤー 1
 62
   250
420
  2299925
370
    25
100
AcDbLine
 10
99.36010064481259
 20
-145.4685166271661
 30
0.0
 11
98.87503121274328
 21
-145.0506160717148
 31
0.0
  0
LINE
  5
10F
330
B3
100
AcDbEntity
  8
レイヤー 1
 62
   250
420
  2299925
370
    25
100
AcDbLine
 10
98.87503121274328
 20
-145.0506160717148
 30
0.0
 11
98.36103400363455
 21
-145.4326744049529
 31
0.0
  0
LINE
  5
110
330
B3
100
AcDbEntity
  8
レイヤー 1
 62
   250
420
  2299925
370
    25
100
AcDbLine
 10
98.36103400363455
 20
-145.4326744049529
 30
0.0
 11
97.87596457156494
 21
-145.015126627279
 31
0.0
  0
LINE
  5
111
330
B3
100
AcDbEntity
  8
レイヤー 1
 62
   250
420
  2299925
370
    25
100
AcDbLine
 10
97.87596457156494
 20
-145.015126627279
 30
0.0
 11
97.36196736245588
 21
-145.3968674605171
 31
0.0
  0
LINE
  5
112
330
B3
100
AcDbEntity
  8
レイヤー 1
 62
   250
420
  2299925
370
    25
100
AcDbLine
 10
97.36196736245588
 20
-145.3968674605171
 30
0.0
 11
96.87619237484902
 21
-144.9793196828439
 31
0.0
  0
LINE
  5
113
330
B3
100
AcDbEntity
  8
レイヤー 1
 62
   250
420
  2299925
370
    25
100
AcDbLine
 10
96.87619237484902
 20
-144.9793196828439
 30
0.0
 11
96.36219516573996
 21
-145.3610252383039
 31
0.0
  0
LINE
  5
114
330
B3
100
AcDbEntity
  8
レイヤー 1
 62
   250
420
  2299925
370
    25
100
AcDbLine
 10
96.36219516573996
 20
-145.3610252383039
 30
0.0
 11
95.87712573367067
 21
-144.9434774606304
 31
0.0
  0
LINE
  5
115
330
B3
100
AcDbEntity
  8
レイヤー 1
 62
   250
420
  2299925
370
    25
100
AcDbLine
 10
95.80699421258824
 20
-144.8952527384205
 30
0.0
 11
94.86288964843486
 21
-144.8952527384205
 31
0.0
  0
LINE
  5
116
330
B3
100
AcDbEntity
  8
レイヤー 1
 62
   250
420
  2299925
370
    25
100
AcDbLine
 10
95.86266184515078
 20
-146.1575269047712
 30
0.0
 11
95.86266184515078
 21
-154.1573980138827
 31
0.0
  0
SPLINE
  5
117
330
B3
100
AcDbEntity
  8
レイヤー 1
 62
   250
420
  2299925
370
     9
100
AcDbSpline
210
0.0
220
0.0
230
1.0
 70
     9
 71
     3
 72
    17
 73
    13
 74
     0
 42
0.0000000001
 43
0.0000000001
 40
0.0
 40
0.0
 40
0.0
 40
0.0
 40
1.0
 40
1.0
 40
1.0
 40
2.0
 40
2.0
 40
2.0
 40
3.0
 40
3.0
 40
3.0
 40
4.0
 40
4.0
 40
4.0
 40
4.0
 10
65.9084073315697
 20
-140.8956699616422
 30
0.0
 10
65.9084073315697
 20
-140.8402132949898
 30
0.0
 10
65.86360455493495
 20
-140.7954105172228
 30
0.0
 10
65.80850066745219
 20
-140.7954105172228
 30
0.0
 10
65.75304400220002
 20
-140.7954105172228
 30
0.0
 10
65.70824122556526
 20
-140.8402132949898
 30
0.0
 10
65.70824122556526
 20
-140.8956699616422
 30
0.0
 10
65.70824122556526
 20
-140.9507738505174
 30
0.0
 10
65.75304400220002
 20
-140.9955766282838
 30
0.0
 10
65.80850066745219
 20
-140.9955766282838
 30
0.0
 10
65.86360455493495
 20
-140.9955766282838
 30
0.0
 10
65.9084073315697
 20
-140.9507738505174
 30
0.0
 10
65.9084073315697
 20
-140.8956699616422
 30
0.0
  0
SPLINE
  5
118
330
B3
100
AcDbEntity
  8
レイヤー 1
 62
   250
420
  2299925
370
     9
100
AcDbSpline
210
0.0
220
0.0
230
1.0
 70
     9
 71
     3
 72
    17
 73
    13
 74
     0
 42
0.0000000001
 43
0.0000000001
 40
0.0
 40
0.0
 40
0.0
 40
0.0
 40
1.0
 40
1.0
 40
1.0
 40
2.0
 40
2.0
 40
2.0
 40
3.0
 40
3.0
 40
3.0
 40
4.0
 40
4.0
 40
4.0
 40
4.0
 10
63.77209099718279
 20
-145.6573232937854
 30
0.0
 10
63.77209099718279
 20
-145.6021841271323
 30
0.0
 10
63.72732583158946
 20
-145.5574166271434
 30
0.0
 10
63.67183155529618
 20
-145.5574166271434
 30
0.0
 10
63.6167276678131
 20
-145.5574166271434
 30
0.0
 10
63.57192489117834
 20
-145.6021841271323
 30
0.0
 10
63.57192489117834
 20
-145.6573232937854
 30
0.0
 10
63.57192489117834
 20
-145.7124271826603
 30
0.0
 10
63.6167276678131
 20
-145.757229960427
 30
0.0
 10
63.67183155529618
 20
-145.757229960427
 30
0.0
 10
63.72732583158946
 20
-145.757229960427
 30
0.0
 10
63.77209099718279
 20
-145.7124271826603
 30
0.0
 10
63.77209099718279
 20
-145.6573232937854
 30
0.0
  0
SPLINE
  5
119
330
B3
100
AcDbEntity
  8
レイヤー 1
 62
   250
420
  2299925
370
     9
100
AcDbSpline
210
0.0
220
0.0
230
1.0
 70
     9
 71
     3
 72
    17
 73
    13
 74
     0
 42
0.0000000001
 43
0.0000000001
 40
0.0
 40
0.0
 40
0.0
 40
0.0
 40
1.0
 40
1.0
 40
1.0
 40
2.0
 40
2.0
 40
2.0
 40
3.0
 40
3.0
 40
3.0
 40
4.0
 40
4.0
 40
4.0
 40
4.0
 10
63.77209099718279
 20
-146.1575269047712
 30
0.0
 10
63.77209099718279
 20
-146.1024230158963
 30
0.0
 10
63.72732583158946
 20
-146.0576202381296
 30
0.0
 10
63.67183155529618
 20
-146.0576202381296
 30
0.0
 10
63.6167276678131
 20
-146.0576202381296
 30
0.0
 10
63.57192489117834
 20
-146.1024230158963
 30
0.0
 10
63.57192489117834
 20
-146.1575269047712
 30
0.0
 10
63.57192489117834
 20
-146.2126660714243
 30
0.0
 10
63.6167276678131
 20
-146.2574335714128
 30
0.0
 10
63.67183155529618
 20
-146.2574335714128
 30
0.0
 10
63.72732583158946
 20
-146.2574335714128
 30
0.0
 10
63.77209099718279
 20
-146.2126660714243
 30
0.0
 10
63.77209099718279
 20
-146.1575269047712
 30
0.0
  0
SPLINE
  5
11A
330
B3
100
AcDbEntity
  8
レイヤー 1
 62
   250
420
  2299925
370
     9
100
AcDbSpline
210
0.0
220
0.0
230
1.0
 70
     9
 71
     3
 72
    17
 73
    13
 74
     0
 42
0.0000000001
 43
0.0000000001
 40
0.0
 40
0.0
 40
0.0
 40
0.0
 40
1.0
 40
1.0
 40
1.0
 40
2.0
 40
2.0
 40
2.0
 40
3.0
 40
3.0
 40
3.0
 40
4.0
 40
4.0
 40
4.0
 40
4.0
 10
63.77209099718279
 20
-154.1573980138827
 30
0.0
 10
63.77209099718279
 20
-154.1022588472297
 30
0.0
 10
63.72732583158946
 20
-154.0574913472404
 30
0.0
 10
63.67183155529618
 20
-154.0574913472404
 30
0.0
 10
63.6167276678131
 20
-154.0574913472404
 30
0.0
 10
63.57192489117834
 20
-154.1022588472297
 30
0.0
 10
63.57192489117834
 20
-154.1573980138827
 30
0.0
 10
63.57192489117834
 20
-154.2125019027577
 30
0.0
 10
63.6167276678131
 20
-154.2573046805237
 30
0.0
 10
63.67183155529618
 20
-154.2573046805237
 30
0.0
 10
63.72732583158946
 20
-154.2573046805237
 30
0.0
 10
63.77209099718279
 20
-154.2125019027577
 30
0.0
 10
63.77209099718279
 20
-154.1573980138827
 30
0.0
  0
SPLINE
  5
11B
330
B3
100
AcDbEntity
  8
レイヤー 1
 62
   250
420
  2299925
370
     9
100
AcDbSpline
210
0.0
220
0.0
230
1.0
 70
     9
 71
     3
 72
    17
 73
    13
 74
     0
 42
0.0000000001
 43
0.0000000001
 40
0.0
 40
0.0
 40
0.0
 40
0.0
 40
1.0
 40
1.0
 40
1.0
 40
2.0
 40
2.0
 40
2.0
 40
3.0
 40
3.0
 40
3.0
 40
4.0
 40
4.0
 40
4.0
 40
4.0
 10
86.90951485134238
 20
-140.8956699616422
 30
0.0
 10
86.90951485134238
 20
-140.8402132949898
 30
0.0
 10
86.86474735248449
 20
-140.7954105172228
 30
0.0
 10
86.80960818722454
 20
-140.7954105172228
 30
0.0
 10
86.75379874420391
 20
-140.7954105172228
 30
0.0
 10
86.70903415917752
 20
-140.8402132949898
 30
0.0
 10
86.70903415917752
 20
-140.8956699616422
 30
0.0
 10
86.70903415917752
 20
-140.9507738505174
 30
0.0
 10
86.75379874420391
 20
-140.9955766282838
 30
0.0
 10
86.80960818722454
 20
-140.9955766282838
 30
0.0
 10
86.86474735248449
 20
-140.9955766282838
 30
0.0
 10
86.90951485134238
 20
-140.9507738505174
 30
0.0
 10
86.90951485134238
 20
-140.8956699616422
 30
0.0
  0
SPLINE
  5
11C
330
B3
100
AcDbEntity
  8
レイヤー 1
 62
   250
420
  2299925
370
     9
100
AcDbSpline
210
0.0
220
0.0
230
1.0
 70
     9
 71
     3
 72
    17
 73
    13
 74
     0
 42
0.0000000001
 43
0.0000000001
 40
0.0
 40
0.0
 40
0.0
 40
0.0
 40
1.0
 40
1.0
 40
1.0
 40
2.0
 40
2.0
 40
2.0
 40
3.0
 40
3.0
 40
3.0
 40
4.0
 40
4.0
 40
4.0
 40
4.0
 10
115.9213588334111
 20
-140.8956699616422
 30
0.0
 10
115.9213588334111
 20
-140.8402132949898
 30
0.0
 10
115.8765913345532
 20
-140.7954105172228
 30
0.0
 10
115.8214521692933
 20
-140.7954105172228
 30
0.0
 10
115.7663482818102
 20
-140.7954105172228
 30
0.0
 10
115.7215455051754
 20
-140.8402132949898
 30
0.0
 10
115.7215455051754
 20
-140.8956699616422
 30
0.0
 10
115.7215455051754
 20
-140.9507738505174
 30
0.0
 10
115.7663482818102
 20
-140.9955766282838
 30
0.0
 10
115.8214521692933
 20
-140.9955766282838
 30
0.0
 10
115.8765913345532
 20
-140.9955766282838
 30
0.0
 10
115.9213588334111
 20
-140.9507738505174
 30
0.0
 10
115.9213588334111
 20
-140.8956699616422
 30
0.0
  0
SPLINE
  5
11D
330
B3
100
AcDbEntity
  8
レイヤー 1
 62
   250
420
  2299925
370
     9
100
AcDbSpline
210
0.0
220
0.0
230
1.0
 70
     9
 71
     3
 72
    17
 73
    13
 74
     0
 42
0.0000000001
 43
0.0000000001
 40
0.0
 40
0.0
 40
0.0
 40
0.0
 40
1.0
 40
1.0
 40
1.0
 40
2.0
 40
2.0
 40
2.0
 40
3.0
 40
3.0
 40
3.0
 40
4.0
 40
4.0
 40
4.0
 40
4.0
 10
94.80983187201072
 20
-140.8956699616422
 30
0.0
 10
94.80983187201072
 20
-140.8402132949898
 30
0.0
 10
94.76502909537563
 20
-140.7954105172228
 30
0.0
 10
94.70992520789287
 20
-140.7954105172228
 30
0.0
 10
94.65478604263294
 20
-140.7954105172228
 30
0.0
 10
94.61001854377505
 20
-140.8402132949898
 30
0.0
 10
94.61001854377505
 20
-140.8956699616422
 30
0.0
 10
94.61001854377505
 20
-140.9507738505174
 30
0.0
 10
94.65478604263294
 20
-140.9955766282838
 30
0.0
 10
94.70992520789287
 20
-140.9955766282838
 30
0.0
 10
94.76502909537563
 20
-140.9955766282838
 30
0.0
 10
94.80983187201072
 20
-140.9507738505174
 30
0.0
 10
94.80983187201072
 20
-140.8956699616422
 30
0.0
  0
LINE
  5
11E
330
B3
100
AcDbEntity
  8
レイヤー 1
 62
   250
420
  2299925
370
     9
100
AcDbLine
 10
63.67183155529618
 20
-145.6573232937854
 30
0.0
 11
63.67183155529618
 21
-140.3999113506552
 31
0.0
  0
LINE
  5
11F
330
B3
100
AcDbEntity
  8
レイヤー 1
 62
   250
420
  2299925
370
     9
100
AcDbLine
 10
63.67183155529618
 20
-145.6573232937854
 30
0.0
 11
63.67183155529618
 21
-146.1575269047712
 31
0.0
  0
LINE
  5
120
330
B3
100
AcDbEntity
  8
レイヤー 1
 62
   250
420
  2299925
370
     9
100
AcDbLine
 10
65.13187290693631
 20
-145.6573232937854
 30
0.0
 11
62.67209463635714
 21
-145.6573232937854
 31
0.0
  0
LINE
  5
121
330
B3
100
AcDbEntity
  8
レイヤー 1
 62
   250
420
  2299925
370
     9
100
AcDbLine
 10
65.13187290693631
 20
-146.1575269047712
 30
0.0
 11
62.67209463635714
 21
-146.1575269047712
 31
0.0
  0
INSERT
  5
123
330
B3
100
AcDbEntity
  8
レイヤー 1
100
AcDbBlockReference
  2
Block_2
 10
0.0
 20
0.0
 30
0.0
  0
LINE
  5
131
330
B3
100
AcDbEntity
  8
レイヤー 1
 62
   250
420
  2299925
370
     9
100
AcDbLine
 10
65.80850066745219
 20
-140.8956699616422
 30
0.0
 11
86.80960818722454
 21
-140.8956699616422
 31
0.0
  0
LINE
  5
132
330
B3
100
AcDbEntity
  8
レイヤー 1
 62
   250
420
  2299925
370
     9
100
AcDbLine
 10
65.80850066745219
 20
-143.117570238865
 30
0.0
 11
65.80850066745219
 21
-139.8955449618922
 31
0.0
  0
INSERT
  5
134
330
B3
100
AcDbEntity
  8
レイヤー 1
100
AcDbBlockReference
  2
Block_4
 10
0.0
 20
0.0
 30
0.0
  0
LINE
  5
13F
330
B3
100
AcDbEntity
  8
レイヤー 1
 62
   250
420
  2299925
370
     9
100
AcDbLine
 10
63.67183155529618
 20
-146.1575269047712
 30
0.0
 11
63.67183155529618
 21
-154.1573980138827
 31
0.0
  0
LINE
  5
140
330
B3
100
AcDbEntity
  8
レイヤー 1
 62
   250
420
  2299925
370
     9
100
AcDbLine
 10
85.13324350776995
 20
-154.1573980138827
 30
0.0
 11
62.67209463635714
 21
-154.1573980138827
 31
0.0
  0
INSERT
  5
142
330
B3
100
AcDbEntity
  8
レイヤー 1
100
AcDbBlockReference
  2
Block_6
 10
0.0
 20
0.0
 30
0.0
  0
LINE
  5
149
330
B3
100
AcDbEntity
  8
レイヤー 1
 62
   250
420
  2299925
370
     9
100
AcDbLine
 10
115.8214521692933
 20
-140.8956699616422
 30
0.0
 11
94.8201682606359
 21
-140.8956699616422
 31
0.0
  0
LINE
  5
14A
330
B3
100
AcDbEntity
  8
レイヤー 1
 62
   250
420
  2299925
370
     9
100
AcDbLine
 10
115.8214521692933
 20
-143.117570238865
 30
0.0
 11
115.8214521692933
 21
-139.8955449618922
 31
0.0
  0
INSERT
  5
14C
330
B3
100
AcDbEntity
  8
レイヤー 1
100
AcDbBlockReference
  2
Block_7
 10
0.0
 20
0.0
 30
0.0
  0
LINE
  5
157
330
B3
100
AcDbEntity
  8
レイヤー 1
 62
   250
420
  2299925
370
     9
100
AcDbLine
 10
86.80960818722454
 20
-140.8956699616422
 30
0.0
 11
94.80983187201072
 21
-140.8956699616422
 31
0.0
  0
LINE
  5
158
330
B3
100
AcDbEntity
  8
レイヤー 1
 62
   250
420
  2299925
370
     9
100
AcDbLine
 10
86.80960818722454
 20
-142.3555349612777
 30
0.0
 11
86.80960818722454
 21
-139.8955449618922
 31
0.0
  0
LINE
  5
159
330
B3
100
AcDbEntity
  8
レイヤー 1
 62
   250
420
  2299925
370
     9
100
AcDbLine
 10
94.70992520789287
 20
-142.3555349612777
 30
0.0
 11
94.70992520789287
 21
-139.8955449618922
 31
0.0
  0
INSERT
  5
15B
330
B3
100
AcDbEntity
  8
レイヤー 1
100
AcDbBlockReference
  2
Block_9
 10
0.0
 20
0.0
 30
0.0
  0
LINE
  5
162
330
B3
100
AcDbEntity
  8
レイヤー 1
 62
   250
420
  2299925
370
     9
100
AcDbLine
 10
93.43315190713274
 20
-150.6554435703134
 30
0.0
 11
101.4333755919189
 21
-150.6554435703134
 31
0.0
  0
INSERT
  5
164
330
B3
100
AcDbEntity
  8
レイヤー 1
100
AcDbBlockReference
  2
Block_10
 10
0.0
 20
0.0
 30
0.0
  0
SPLINE
  5
169
330
B3
100
AcDbEntity
  8
レイヤー 1
 62
   250
420
  2299925
370
     9
100
AcDbSpline
210
0.0
220
0.0
230
1.0
 70
     9
 71
     3
 72
    17
 73
    13
 74
     0
 42
0.0000000001
 43
0.0000000001
 40
0.0
 40
0.0
 40
0.0
 40
0.0
 40
1.0
 40
1.0
 40
1.0
 40
2.0
 40
2.0
 40
2.0
 40
3.0
 40
3.0
 40
3.0
 40
4.0
 40
4.0
 40
4.0
 40
4.0
 10
86.12267931586066
 20
-158.2708221795208
 30
0.0
 10
86.12267931586066
 20
-158.2157182906458
 30
0.0
 10
86.03928265132163
 20
-158.1709155128791
 30
0.0
 10
85.93662432060732
 20
-158.1709155128791
 30
0.0
 10
85.83534182319125
 20
-158.1709155128791
 30
0.0
 10
85.7519804364291
 20
-158.2157182906458
 30
0.0
 10
85.7519804364291
 20
-158.2708221795208
 30
0.0
 10
85.7519804364291
 20
-158.3259613461738
 30
0.0
 10
85.83534182319125
 20
-158.3707288461624
 30
0.0
 10
85.93662432060732
 20
-158.3707288461624
 30
0.0
 10
86.03928265132163
 20
-158.3707288461624
 30
0.0
 10
86.12267931586066
 20
-158.3259613461738
 30
0.0
 10
86.12267931586066
 20
-158.2708221795208
 30
0.0
  0
SPLINE
  5
16A
330
B3
100
AcDbEntity
  8
レイヤー 1
 62
   250
420
  2299925
370
     9
100
AcDbSpline
210
0.0
220
0.0
230
1.0
 70
     9
 71
     3
 72
    17
 73
    13
 74
     0
 42
0.0000000001
 43
0.0000000001
 40
0.0
 40
0.0
 40
0.0
 40
0.0
 40
1.0
 40
1.0
 40
1.0
 40
2.0
 40
2.0
 40
2.0
 40
3.0
 40
3.0
 40
3.0
 40
4.0
 40
4.0
 40
4.0
 40
4.0
 10
96.08173683956172
 20
-158.2708221795208
 30
0.0
 10
96.08173683956172
 20
-158.2157182906458
 30
0.0
 10
95.99837860129911
 20
-158.1709155128791
 30
0.0
 10
95.89709295538348
 20
-158.1709155128791
 30
0.0
 10
95.79306193468429
 20
-158.1709155128791
 30
0.0
 10
95.71107323790704
 20
-158.2157182906458
 30
0.0
 10
95.71107323790704
 20
-158.2708221795208
 30
0.0
 10
95.71107323790704
 20
-158.3259613461738
 30
0.0
 10
95.79306193468429
 20
-158.3707288461624
 30
0.0
 10
95.89709295538348
 20
-158.3707288461624
 30
0.0
 10
95.99837860129911
 20
-158.3707288461624
 30
0.0
 10
96.08173683956172
 20
-158.3259613461738
 30
0.0
 10
96.08173683956172
 20
-158.2708221795208
 30
0.0
  0
LINE
  5
16B
330
B3
100
AcDbEntity
  8
レイヤー 1
 62
   250
420
  2299925
370
     9
100
AcDbLine
 10
95.937062676586
 20
-158.2708221795208
 30
0.0
 11
85.93662432060732
 21
-158.2708221795208
 31
0.0
  0
LINE
  5
16C
330
B3
100
AcDbEntity
  8
レイヤー 1
 62
   250
420
  2299925
370
     9
100
AcDbLine
 10
95.89709295538348
 20
-156.8108160687746
 30
0.0
 11
95.89709295538348
 21
-159.2709471792711
 31
0.0
  0
LINE
  5
16D
330
B3
100
AcDbEntity
  8
レイヤー 1
 62
   250
420
  2299925
370
     9
100
AcDbLine
 10
85.93662432060732
 20
-156.8108160687746
 30
0.0
 11
85.93662432060732
 21
-159.2709471792711
 31
0.0
  0
INSERT
  5
16F
330
B3
100
AcDbEntity
  8
レイヤー 1
100
AcDbBlockReference
  2
Block_11
 10
0.0
 20
0.0
 30
0.0
  0
ENDBLK
  5
B6
330
B3
100
AcDbEntity
  8
0
100
AcDbBlockEnd
  0
BLOCK
  5
124
330
122
100
AcDbEntity
  8
0
100
AcDbBlockBegin
  2
Block_2
 70
     0
 10
0.0
 20
0.0
 30
0.0
  3
Block_2
  1

  0
INSERT
  5
127
330
122
100
AcDbEntity
  8
レイヤー 1
100
AcDbBlockReference
  2
Block_3
 10
0.0
 20
0.0
 30
0.0
  0
ENDBLK
  5
125
330
122
100
AcDbEntity
  8
0
100
AcDbBlockEnd
  0
BLOCK
  5
128
330
126
100
AcDbEntity
  8
0
100
AcDbBlockBegin
  2
Block_3
 70
     0
 10
0.0
 20
0.0
 30
0.0
  3
Block_3
  1

  0
SPLINE
  5
12A
330
126
100
AcDbEntity
  8
レイヤー 1
100
AcDbSpline
210
0.0
220
0.0
230
1.0
 70
     9
 71
     3
 72
    17
 73
    13
 74
     0
 42
0.0000000001
 43
0.0000000001
 40
0.0
 40
0.0
 40
0.0
 40
0.0
 40
1.0
 40
1.0
 40
1.0
 40
2.0
 40
2.0
 40
2.0
 40
3.0
 40
3.0
 40
3.0
 40
4.0
 40
4.0
 40
4.0
 40
4.0
 10
60.82763941621671
 20
-146.8125718491475
 30
0.0
 10
60.82763941621671
 20
-147.0623412718281
 30
0.0
 10
61.1109985198785
 20
-147.108850060879
 30
0.0
 10
61.45585257795201
 20
-147.108850060879
 30
0.0
 10
61.77538518420893
 20
-147.108850060879
 30
0.0
 10
62.08423799446158
 20
-147.0726765582839
 30
0.0
 10
62.08423799446158
 20
-146.8125718491475
 30
0.0
 10
62.08423799446158
 20
-146.5648694837581
 30
0.0
 10
61.80277369331667
 20
-146.5162936374161
 30
0.0
 10
61.45585257795201
 20
-146.5162936374161
 30
0.0
 10
61.13649222646935
 20
-146.5162936374161
 30
0.0
 10
60.82763941621671
 20
-146.5545341973023
 30
0.0
 10
60.82763941621671
 20
-146.8125718491475
 30
0.0
  0
SPLINE
  5
12B
330
126
100
AcDbEntity
  8
レイヤー 1
100
AcDbSpline
210
0.0
220
0.0
230
1.0
 70
     9
 71
     3
 72
    29
 73
    25
 74
     0
 42
0.0000000001
 43
0.0000000001
 40
0.0
 40
0.0
 40
0.0
 40
0.0
 40
1.0
 40
1.0
 40
1.0
 40
2.0
 40
2.0
 40
2.0
 40
3.0
 40
3.0
 40
3.0
 40
4.0
 40
4.0
 40
4.0
 40
5.0
 40
5.0
 40
5.0
 40
6.0
 40
6.0
 40
6.0
 40
7.0
 40
7.0
 40
7.0
 40
8.0
 40
8.0
 40
8.0
 40
8.0
 10
62.05030380393186
 20
-146.4146633206012
 30
0.0
 10
62.25976560943506
 20
-146.522839318838
 30
0.0
 10
62.27888588937819
 20
-146.6961276217461
 30
0.0
 10
62.27888588937819
 20
-146.8125718491475
 30
0.0
 10
62.27888588937819
 20
-146.9734578083087
 30
0.0
 10
62.23237710032733
 20
-147.1150512327525
 30
0.0
 10
62.05030380393186
 20
-147.2101358681454
 30
0.0
 10
61.85582816378952
 20
-147.3138332422514
 30
0.0
 10
61.61880559440433
 20
-147.3331257769688
 30
0.0
 10
61.45585257795201
 20
-147.3331257769688
 30
0.0
 10
61.31201984144283
 20
-147.3331257769688
 30
0.0
 10
61.06035561624533
 20
-147.3159002995425
 30
0.0
 10
60.86140135197215
 20
-147.2101358681454
 30
0.0
 10
60.65831297311667
 20
-147.1023043794571
 30
0.0
 10
60.63505857859124
 20
-146.9414184202959
 30
0.0
 10
60.63505857859124
 20
-146.8125718491475
 30
0.0
 10
60.63505857859124
 20
-146.6537529472775
 30
0.0
 10
60.67950031035096
 20
-146.5100924655426
 30
0.0
 10
60.86140135197215
 20
-146.4146633206012
 30
0.0
 10
61.05398218959762
 20
-146.315444570626
 30
0.0
 10
61.28239202026968
 20
-146.2920179213263
 30
0.0
 10
61.45585257795201
 20
-146.2920179213263
 30
0.0
 10
61.62724607834319
 20
-146.2920179213263
 30
0.0
 10
61.85789522108066
 20
-146.3133775133348
 30
0.0
 10
62.05030380393186
 20
-146.4146633206012
 30
0.0
  0
HATCH
  5
12C
330
126
100
AcDbEntity
  8
レイヤー 1
 62
   250
420
  2299925
440
 33554687
100
AcDbHatch
 10
0.0
 20
0.0
 30
0.0
210
0.0
220
0.0
230
1.0
  2
SOLID
 70
     1
 71
     1
 91
        2
 92
        1
 93
        1
 72
     4
 94
        3
 73
     0
 74
     0
 95
       17
 96
       13
 40
0.0
 40
0.0
 40
0.0
 40
0.0
 40
1.0
 40
1.0
 40
1.0
 40
2.0
 40
2.0
 40
2.0
 40
3.0
 40
3.0
 40
3.0
 40
4.0
 40
4.0
 40
4.0
 40
4.0
 10
60.82763941621671
 20
-146.8125718491475
 10
60.82763941621671
 20
-147.0623412718281
 10
61.1109985198785
 20
-147.108850060879
 10
61.45585257795201
 20
-147.108850060879
 10
61.77538518420893
 20
-147.108850060879
 10
62.08423799446158
 20
-147.0726765582839
 10
62.08423799446158
 20
-146.8125718491475
 10
62.08423799446158
 20
-146.5648694837581
 10
61.80277369331667
 20
-146.5162936374161
 10
61.45585257795201
 20
-146.5162936374161
 10
61.13649222646935
 20
-146.5162936374161
 10
60.82763941621671
 20
-146.5545341973023
 10
60.82763941621671
 20
-146.8125718491475
 97
        0
 97
        1
330
12A
 92
        1
 93
        1
 72
     4
 94
        3
 73
     0
 74
     0
 95
       29
 96
       25
 40
0.0
 40
0.0
 40
0.0
 40
0.0
 40
1.0
 40
1.0
 40
1.0
 40
2.0
 40
2.0
 40
2.0
 40
3.0
 40
3.0
 40
3.0
 40
4.0
 40
4.0
 40
4.0
 40
5.0
 40
5.0
 40
5.0
 40
6.0
 40
6.0
 40
6.0
 40
7.0
 40
7.0
 40
7.0
 40
8.0
 40
8.0
 40
8.0
 40
8.0
 10
62.05030380393186
 20
-146.4146633206012
 10
62.25976560943506
 20
-146.522839318838
 10
62.27888588937819
 20
-146.6961276217461
 10
62.27888588937819
 20
-146.8125718491475
 10
62.27888588937819
 20
-146.9734578083087
 10
62.23237710032733
 20
-147.1150512327525
 10
62.05030380393186
 20
-147.2101358681454
 10
61.85582816378952
 20
-147.3138332422514
 10
61.61880559440433
 20
-147.3331257769688
 10
61.45585257795201
 20
-147.3331257769688
 10
61.31201984144283
 20
-147.3331257769688
 10
61.06035561624533
 20
-147.3159002995425
 10
60.86140135197215
 20
-147.2101358681454
 10
60.65831297311667
 20
-147.1023043794571
 10
60.63505857859124
 20
-146.9414184202959
 10
60.63505857859124
 20
-146.8125718491475
 10
60.63505857859124
 20
-146.6537529472775
 10
60.67950031035096
 20
-146.5100924655426
 10
60.86140135197215
 20
-146.4146633206012
 10
61.05398218959762
 20
-146.315444570626
 10
61.28239202026968
 20
-146.2920179213263
 10
61.45585257795201
 20
-146.2920179213263
 10
61.62724607834319
 20
-146.2920179213263
 10
61.85789522108066
 20
-146.3133775133348
 10
62.05030380393186
 20
-146.4146633206012
 97
        0
 97
        1
330
12B
 75
     2
 76
     1
 98
        1
 10
0.0
 20
0.0
450
        0
451
        0
460
0.0
461
0.0
452
        0
462
0.0
453
        0
470

  0
SPLINE
  5
12D
330
126
100
AcDbEntity
  8
レイヤー 1
100
AcDbSpline
210
0.0
220
0.0
230
1.0
 70
    11
 71
     3
 72
    17
 73
    13
 74
     0
 42
0.0000000001
 43
0.0000000001
 40
0.0
 40
0.0
 40
0.0
 40
0.0
 40
1.0
 40
1.0
 40
1.0
 40
2.0
 40
2.0
 40
2.0
 40
3.0
 40
3.0
 40
3.0
 40
4.0
 40
4.0
 40
4.0
 40
4.0
 10
62.22807073097076
 20
-146.0756659248526
 30
0.0
 10
62.22807073097076
 20
-146.0756659248526
 30
0.0
 10
61.97640650577326
 20
-146.0756659248526
 30
0.0
 10
61.97640650577326
 20
-146.0756659248526
 30
0.0
 10
61.97640650577326
 20
-146.0756659248526
 30
0.0
 10
61.97640650577326
 20
-145.8238294448808
 30
0.0
 10
61.97640650577326
 20
-145.8238294448808
 30
0.0
 10
61.97640650577326
 20
-145.8238294448808
 30
0.0
 10
62.22807073097076
 20
-145.8238294448808
 30
0.0
 10
62.22807073097076
 20
-145.8238294448808
 30
0.0
 10
62.22807073097076
 20
-145.8238294448808
 30
0.0
 10
62.22807073097076
 20
-146.0756659248526
 30
0.0
 10
62.22807073097076
 20
-146.0756659248526
 30
0.0
  0
HATCH
  5
12E
330
126
100
AcDbEntity
  8
レイヤー 1
 62
   250
420
  2299925
440
 33554687
100
AcDbHatch
 10
0.0
 20
0.0
 30
0.0
210
0.0
220
0.0
230
1.0
  2
SOLID
 70
     1
 71
     1
 91
        1
 92
        1
 93
        1
 72
     4
 94
        3
 73
     0
 74
     0
 95
       17
 96
       13
 40
0.0
 40
0.0
 40
0.0
 40
0.0
 40
1.0
 40
1.0
 40
1.0
 40
2.0
 40
2.0
 40
2.0
 40
3.0
 40
3.0
 40
3.0
 40
4.0
 40
4.0
 40
4.0
 40
4.0
 10
62.22807073097076
 20
-146.0756659248526
 10
62.22807073097076
 20
-146.0756659248526
 10
61.97640650577326
 20
-146.0756659248526
 10
61.97640650577326
 20
-146.0756659248526
 10
61.97640650577326
 20
-146.0756659248526
 10
61.97640650577326
 20
-145.8238294448808
 10
61.97640650577326
 20
-145.8238294448808
 10
61.97640650577326
 20
-145.8238294448808
 10
62.22807073097076
 20
-145.8238294448808
 10
62.22807073097076
 20
-145.8238294448808
 10
62.22807073097076
 20
-145.8238294448808
 10
62.22807073097076
 20
-146.0756659248526
 10
62.22807073097076
 20
-146.0756659248526
 97
        0
 97
        1
330
12D
 75
     2
 76
     1
 98
        1
 10
0.0
 20
0.0
450
        0
451
        0
460
0.0
461
0.0
452
        0
462
0.0
453
        0
470

  0
SPLINE
  5
12F
330
126
100
AcDbEntity
  8
レイヤー 1
100
AcDbSpline
210
0.0
220
0.0
230
1.0
 70
     9
 71
     3
 72
    53
 73
    49
 74
     0
 42
0.0000000001
 43
0.0000000001
 40
0.0
 40
0.0
 40
0.0
 40
0.0
 40
1.0
 40
1.0
 40
1.0
 40
2.0
 40
2.0
 40
2.0
 40
3.0
 40
3.0
 40
3.0
 40
4.0
 40
4.0
 40
4.0
 40
5.0
 40
5.0
 40
5.0
 40
6.0
 40
6.0
 40
6.0
 40
7.0
 40
7.0
 40
7.0
 40
8.0
 40
8.0
 40
8.0
 40
9.0
 40
9.0
 40
9.0
 40
10.0
 40
10.0
 40
10.0
 40
11.0
 40
11.0
 40
11.0
 40
12.0
 40
12.0
 40
12.0
 40
13.0
 40
13.0
 40
13.0
 40
14.0
 40
14.0
 40
14.0
 40
15.0
 40
15.0
 40
15.0
 40
16.0
 40
16.0
 40
16.0
 40
16.0
 10
62.27888588937819
 20
-145.1065605648518
 30
0.0
 10
62.27888588937819
 20
-145.184764232367
 30
0.0
 10
62.26200492150048
 20
-145.2863945491819
 30
0.0
 10
62.19844290979761
 20
-145.3880248659967
 30
0.0
 10
62.08837210904388
 20
-145.5613131689048
 30
0.0
 10
61.95728622583012
 20
-145.5826727609133
 30
0.0
 10
61.8494547371418
 20
-145.6016207860822
 30
0.0
 10
61.8494547371418
 20
-145.6016207860822
 30
0.0
 10
61.8494547371418
 20
-145.3794121272836
 30
0.0
 10
61.8494547371418
 20
-145.3794121272836
 30
0.0
 10
62.04823674664072
 20
-145.3246351090681
 30
0.0
 10
62.07786456781387
 20
-145.1975110856624
 30
0.0
 10
62.07786456781387
 20
-145.1044935075606
 30
0.0
 10
62.07786456781387
 20
-144.964967140408
 30
0.0
 10
61.97847356306441
 20
-144.81269391996
 30
0.0
 10
61.74575736303578
 20
-144.81269391996
 30
0.0
 10
61.48978676848172
 20
-144.81269391996
 30
0.0
 10
61.42002358490541
 20
-144.99252790429
 30
0.0
 10
61.42002358490541
 20
-145.1131062462738
 30
0.0
 10
61.42002358490541
 20
-145.1448011247381
 30
0.0
 10
61.42002358490541
 20
-145.2863945491819
 30
0.0
 10
61.54904241082802
 20
-145.3752780127013
 30
0.0
 10
61.54904241082802
 20
-145.3752780127013
 30
0.0
 10
61.52992213088488
 20
-145.5509778824491
 30
0.0
 10
61.52992213088488
 20
-145.5509778824491
 30
0.0
 10
61.52992213088488
 20
-145.5509778824491
 30
0.0
 10
60.68380667970752
 20
-145.4303995404653
 30
0.0
 10
60.68380667970752
 20
-145.4303995404653
 30
0.0
 10
60.68380667970752
 20
-145.4303995404653
 30
0.0
 10
60.68380667970752
 20
-144.6518079607988
 30
0.0
 10
60.68380667970752
 20
-144.6518079607988
 30
0.0
 10
60.68380667970752
 20
-144.6518079607988
 30
0.0
 10
60.87845457462414
 20
-144.6518079607988
 30
0.0
 10
60.87845457462414
 20
-144.6518079607988
 30
0.0
 10
60.87845457462414
 20
-144.6518079607988
 30
0.0
 10
60.87845457462414
 20
-145.267446524013
 30
0.0
 10
60.87845457462414
 20
-145.267446524013
 30
0.0
 10
60.87845457462414
 20
-145.267446524013
 30
0.0
 10
61.30151230021282
 20
-145.3329033382327
 30
0.0
 10
61.30151230021282
 20
-145.3329033382327
 30
0.0
 10
61.2675781096831
 20
-145.2715806385953
 30
0.0
 10
61.22744274727994
 20
-145.1892428564978
 30
0.0
 10
61.22744274727994
 20
-145.0707315718052
 30
0.0
 10
61.22744274727994
 20
-144.8168280345423
 30
0.0
 10
61.4136501582577
 20
-144.5798054651571
 30
0.0
 10
61.72663708309265
 20
-144.5798054651571
 30
0.0
 10
62.04410263205842
 20
-144.5798054651571
 30
0.0
 10
62.27888588937819
 20
-144.8040811812469
 30
0.0
 10
62.27888588937819
 20
-145.1065605648518
 30
0.0
  0
HATCH
  5
130
330
126
100
AcDbEntity
  8
レイヤー 1
 62
   250
420
  2299925
440
 33554687
100
AcDbHatch
 10
0.0
 20
0.0
 30
0.0
210
0.0
220
0.0
230
1.0
  2
SOLID
 70
     1
 71
     1
 91
        1
 92
        1
 93
        1
 72
     4
 94
        3
 73
     0
 74
     0
 95
       53
 96
       49
 40
0.0
 40
0.0
 40
0.0
 40
0.0
 40
1.0
 40
1.0
 40
1.0
 40
2.0
 40
2.0
 40
2.0
 40
3.0
 40
3.0
 40
3.0
 40
4.0
 40
4.0
 40
4.0
 40
5.0
 40
5.0
 40
5.0
 40
6.0
 40
6.0
 40
6.0
 40
7.0
 40
7.0
 40
7.0
 40
8.0
 40
8.0
 40
8.0
 40
9.0
 40
9.0
 40
9.0
 40
10.0
 40
10.0
 40
10.0
 40
11.0
 40
11.0
 40
11.0
 40
12.0
 40
12.0
 40
12.0
 40
13.0
 40
13.0
 40
13.0
 40
14.0
 40
14.0
 40
14.0
 40
15.0
 40
15.0
 40
15.0
 40
16.0
 40
16.0
 40
16.0
 40
16.0
 10
62.27888588937819
 20
-145.1065605648518
 10
62.27888588937819
 20
-145.184764232367
 10
62.26200492150048
 20
-145.2863945491819
 10
62.19844290979761
 20
-145.3880248659967
 10
62.08837210904388
 20
-145.5613131689048
 10
61.95728622583012
 20
-145.5826727609133
 10
61.8494547371418
 20
-145.6016207860822
 10
61.8494547371418
 20
-145.6016207860822
 10
61.8494547371418
 20
-145.3794121272836
 10
61.8494547371418
 20
-145.3794121272836
 10
62.04823674664072
 20
-145.3246351090681
 10
62.07786456781387
 20
-145.1975110856624
 10
62.07786456781387
 20
-145.1044935075606
 10
62.07786456781387
 20
-144.964967140408
 10
61.97847356306441
 20
-144.81269391996
 10
61.74575736303578
 20
-144.81269391996
 10
61.48978676848172
 20
-144.81269391996
 10
61.42002358490541
 20
-144.99252790429
 10
61.42002358490541
 20
-145.1131062462738
 10
61.42002358490541
 20
-145.1448011247381
 10
61.42002358490541
 20
-145.2863945491819
 10
61.54904241082802
 20
-145.3752780127013
 10
61.54904241082802
 20
-145.3752780127013
 10
61.52992213088488
 20
-145.5509778824491
 10
61.52992213088488
 20
-145.5509778824491
 10
61.52992213088488
 20
-145.5509778824491
 10
60.68380667970752
 20
-145.4303995404653
 10
60.68380667970752
 20
-145.4303995404653
 10
60.68380667970752
 20
-145.4303995404653
 10
60.68380667970752
 20
-144.6518079607988
 10
60.68380667970752
 20
-144.6518079607988
 10
60.68380667970752
 20
-144.6518079607988
 10
60.87845457462414
 20
-144.6518079607988
 10
60.87845457462414
 20
-144.6518079607988
 10
60.87845457462414
 20
-144.6518079607988
 10
60.87845457462414
 20
-145.267446524013
 10
60.87845457462414
 20
-145.267446524013
 10
60.87845457462414
 20
-145.267446524013
 10
61.30151230021282
 20
-145.3329033382327
 10
61.30151230021282
 20
-145.3329033382327
 10
61.2675781096831
 20
-145.2715806385953
 10
61.22744274727994
 20
-145.1892428564978
 10
61.22744274727994
 20
-145.0707315718052
 10
61.22744274727994
 20
-144.8168280345423
 10
61.4136501582577
 20
-144.5798054651571
 10
61.72663708309265
 20
-144.5798054651571
 10
62.04410263205842
 20
-144.5798054651571
 10
62.27888588937819
 20
-144.8040811812469
 10
62.27888588937819
 20
-145.1065605648518
 97
        0
 97
        1
330
12F
 75
     2
 76
     1
 98
        1
 10
0.0
 20
0.0
450
        0
451
        0
460
0.0
461
0.0
452
        0
462
0.0
453
        0
470

  0
ENDBLK
  5
129
330
126
100
AcDbEntity
  8
0
100
AcDbBlockEnd
  0
BLOCK
  5
135
330
133
100
AcDbEntity
  8
0
100
AcDbBlockBegin
  2
Block_4
 70
     0
 10
0.0
 20
0.0
 30
0.0
  3
Block_4
  1

  0
INSERT
  5
138
330
133
100
AcDbEntity
  8
レイヤー 1
100
AcDbBlockReference
  2
Block_5
 10
0.0
 20
0.0
 30
0.0
  0
ENDBLK
  5
136
330
133
100
AcDbEntity
  8
0
100
AcDbBlockEnd
  0
BLOCK
  5
139
330
137
100
AcDbEntity
  8
0
100
AcDbBlockBegin
  2
Block_5
 70
     0
 10
0.0
 20
0.0
 30
0.0
  3
Block_5
  1

  0
SPLINE
  5
13B
330
137
100
AcDbEntity
  8
レイヤー 1
100
AcDbSpline
210
0.0
220
0.0
230
1.0
 70
     9
 71
     3
 72
    44
 73
    40
 74
     0
 42
0.0000000001
 43
0.0000000001
 40
0.0
 40
0.0
 40
0.0
 40
0.0
 40
1.0
 40
1.0
 40
1.0
 40
2.0
 40
2.0
 40
2.0
 40
3.0
 40
3.0
 40
3.0
 40
4.0
 40
4.0
 40
4.0
 40
5.0
 40
5.0
 40
5.0
 40
6.0
 40
6.0
 40
6.0
 40
7.0
 40
7.0
 40
7.0
 40
8.0
 40
8.0
 40
8.0
 40
9.0
 40
9.0
 40
9.0
 40
10.0
 40
10.0
 40
10.0
 40
11.0
 40
11.0
 40
11.0
 40
12.0
 40
12.0
 40
12.0
 40
13.0
 40
13.0
 40
13.0
 40
13.0
 10
75.73749591205521
 20
-139.600264450777
 30
0.0
 10
75.51959362261316
 20
-139.7589110978728
 30
0.0
 10
75.42640378973715
 20
-139.8329806508056
 30
0.0
 10
75.37782794339513
 20
-139.9768133873148
 30
0.0
 10
75.37782794339513
 20
-139.9768133873148
 30
0.0
 10
76.15624726828733
 20
-139.9768133873148
 30
0.0
 10
76.15624726828733
 20
-139.9768133873148
 30
0.0
 10
76.15624726828733
 20
-139.9768133873148
 30
0.0
 10
76.15624726828733
 20
-140.1819688234614
 30
0.0
 10
76.15624726828733
 20
-140.1819688234614
 30
0.0
 10
76.15624726828733
 20
-140.1819688234614
 30
0.0
 10
75.12823077548877
 20
-140.1819688234614
 30
0.0
 10
75.12823077548877
 20
-140.1819688234614
 30
0.0
 10
75.15992565395308
 20
-139.8243679120925
 30
0.0
 10
75.22555472294708
 20
-139.7461642445773
 30
0.0
 10
75.61054414342375
 20
-139.4478189755547
 30
0.0
 10
75.86651473797783
 20
-139.2490369660558
 30
0.0
 10
75.93197155219757
 20
-139.1813408397706
 30
0.0
 10
75.93197155219757
 20
-139.0438815299092
 30
0.0
 10
75.93197155219757
 20
-138.9253702452166
 30
0.0
 10
75.86014131133011
 20
-138.7941121072285
 30
0.0
 10
75.66342635912234
 20
-138.7941121072285
 30
0.0
 10
75.40314939521171
 20
-138.7941121072285
 30
0.0
 10
75.39470891127286
 20
-139.024761249966
 30
0.0
 10
75.39040254191629
 20
-139.1412054773675
 30
0.0
 10
75.39040254191629
 20
-139.1412054773675
 30
0.0
 10
75.16629908060079
 20
-139.1412054773675
 30
0.0
 10
75.16629908060079
 20
-139.1412054773675
 30
0.0
 10
75.17473956453965
 20
-139.014253708736
 30
0.0
 10
75.18524710576966
 20
-138.9021158506911
 30
0.0
 10
75.26569008535024
 20
-138.7836045659985
 30
0.0
 10
75.37558863132971
 20
-138.6228908616116
 30
0.0
 10
75.56179604230748
 20
-138.5889566710819
 30
0.0
 10
75.67824026970892
 20
-138.5889566710819
 30
0.0
 10
75.95539820149726
 20
-138.5889566710819
 30
0.0
 10
76.16262069493505
 20
-138.7730970247685
 30
0.0
 10
76.16262069493505
 20
-139.0459485872003
 30
0.0
 10
76.16262069493505
 20
-139.2743584178724
 30
0.0
 10
76.04634872230786
 20
-139.3739216773961
 30
0.0
 10
75.73749591205521
 20
-139.600264450777
 30
0.0
  0
HATCH
  5
13C
330
137
100
AcDbEntity
  8
レイヤー 1
 62
   250
420
  2299925
440
 33554687
100
AcDbHatch
 10
0.0
 20
0.0
 30
0.0
210
0.0
220
0.0
230
1.0
  2
SOLID
 70
     1
 71
     1
 91
        1
 92
        1
 93
        1
 72
     4
 94
        3
 73
     0
 74
     0
 95
       44
 96
       40
 40
0.0
 40
0.0
 40
0.0
 40
0.0
 40
1.0
 40
1.0
 40
1.0
 40
2.0
 40
2.0
 40
2.0
 40
3.0
 40
3.0
 40
3.0
 40
4.0
 40
4.0
 40
4.0
 40
5.0
 40
5.0
 40
5.0
 40
6.0
 40
6.0
 40
6.0
 40
7.0
 40
7.0
 40
7.0
 40
8.0
 40
8.0
 40
8.0
 40
9.0
 40
9.0
 40
9.0
 40
10.0
 40
10.0
 40
10.0
 40
11.0
 40
11.0
 40
11.0
 40
12.0
 40
12.0
 40
12.0
 40
13.0
 40
13.0
 40
13.0
 40
13.0
 10
75.73749591205521
 20
-139.600264450777
 10
75.51959362261316
 20
-139.7589110978728
 10
75.42640378973715
 20
-139.8329806508056
 10
75.37782794339513
 20
-139.9768133873148
 10
75.37782794339513
 20
-139.9768133873148
 10
76.15624726828733
 20
-139.9768133873148
 10
76.15624726828733
 20
-139.9768133873148
 10
76.15624726828733
 20
-139.9768133873148
 10
76.15624726828733
 20
-140.1819688234614
 10
76.15624726828733
 20
-140.1819688234614
 10
76.15624726828733
 20
-140.1819688234614
 10
75.12823077548877
 20
-140.1819688234614
 10
75.12823077548877
 20
-140.1819688234614
 10
75.15992565395308
 20
-139.8243679120925
 10
75.22555472294708
 20
-139.7461642445773
 10
75.61054414342375
 20
-139.4478189755547
 10
75.86651473797783
 20
-139.2490369660558
 10
75.93197155219757
 20
-139.1813408397706
 10
75.93197155219757
 20
-139.0438815299092
 10
75.93197155219757
 20
-138.9253702452166
 10
75.86014131133011
 20
-138.7941121072285
 10
75.66342635912234
 20
-138.7941121072285
 10
75.40314939521171
 20
-138.7941121072285
 10
75.39470891127286
 20
-139.024761249966
 10
75.39040254191629
 20
-139.1412054773675
 10
75.39040254191629
 20
-139.1412054773675
 10
75.16629908060079
 20
-139.1412054773675
 10
75.16629908060079
 20
-139.1412054773675
 10
75.17473956453965
 20
-139.014253708736
 10
75.18524710576966
 20
-138.9021158506911
 10
75.26569008535024
 20
-138.7836045659985
 10
75.37558863132971
 20
-138.6228908616116
 10
75.56179604230748
 20
-138.5889566710819
 10
75.67824026970892
 20
-138.5889566710819
 10
75.95539820149726
 20
-138.5889566710819
 10
76.16262069493505
 20
-138.7730970247685
 10
76.16262069493505
 20
-139.0459485872003
 10
76.16262069493505
 20
-139.2743584178724
 10
76.04634872230786
 20
-139.3739216773961
 10
75.73749591205521
 20
-139.600264450777
 97
        0
 97
        1
330
13B
 75
     2
 76
     1
 98
        1
 10
0.0
 20
0.0
450
        0
451
        0
460
0.0
461
0.0
452
        0
462
0.0
453
        0
470

  0
SPLINE
  5
13D
330
137
100
AcDbEntity
  8
レイヤー 1
100
AcDbSpline
210
0.0
220
0.0
230
1.0
 70
    11
 71
     3
 72
    26
 73
    22
 74
     0
 42
0.0000000001
 43
0.0000000001
 40
0.0
 40
0.0
 40
0.0
 40
0.0
 40
1.0
 40
1.0
 40
1.0
 40
2.0
 40
2.0
 40
2.0
 40
3.0
 40
3.0
 40
3.0
 40
4.0
 40
4.0
 40
4.0
 40
5.0
 40
5.0
 40
5.0
 40
6.0
 40
6.0
 40
6.0
 40
7.0
 40
7.0
 40
7.0
 40
7.0
 10
76.77257485059853
 20
-140.1819688234614
 30
0.0
 10
76.77257485059853
 20
-140.1819688234614
 30
0.0
 10
76.77257485059853
 20
-139.0776434656646
 30
0.0
 10
76.77257485059853
 20
-139.0776434656646
 30
0.0
 10
76.77257485059853
 20
-139.0776434656646
 30
0.0
 10
76.44253470311159
 20
-139.0776434656646
 30
0.0
 10
76.44253470311159
 20
-139.0776434656646
 30
0.0
 10
76.44253470311159
 20
-139.0776434656646
 30
0.0
 10
76.44253470311159
 20
-138.9295043597988
 30
0.0
 10
76.44253470311159
 20
-138.9295043597988
 30
0.0
 10
76.77464190788967
 20
-138.9148627039865
 30
0.0
 10
76.82115069694055
 20
-138.7519096875342
 30
0.0
 10
76.8507785181137
 20
-138.6377047721982
 30
0.0
 10
76.8507785181137
 20
-138.6377047721982
 30
0.0
 10
76.9968505666883
 20
-138.6377047721982
 30
0.0
 10
76.9968505666883
 20
-138.6377047721982
 30
0.0
 10
76.9968505666883
 20
-138.6377047721982
 30
0.0
 10
76.9968505666883
 20
-140.1819688234614
 30
0.0
 10
76.9968505666883
 20
-140.1819688234614
 30
0.0
 10
76.9968505666883
 20
-140.1819688234614
 30
0.0
 10
76.77257485059853
 20
-140.1819688234614
 30
0.0
 10
76.77257485059853
 20
-140.1819688234614
 30
0.0
  0
HATCH
  5
13E
330
137
100
AcDbEntity
  8
レイヤー 1
 62
   250
420
  2299925
440
 33554687
100
AcDbHatch
 10
0.0
 20
0.0
 30
0.0
210
0.0
220
0.0
230
1.0
  2
SOLID
 70
     1
 71
     1
 91
        1
 92
        1
 93
        1
 72
     4
 94
        3
 73
     0
 74
     0
 95
       26
 96
       22
 40
0.0
 40
0.0
 40
0.0
 40
0.0
 40
1.0
 40
1.0
 40
1.0
 40
2.0
 40
2.0
 40
2.0
 40
3.0
 40
3.0
 40
3.0
 40
4.0
 40
4.0
 40
4.0
 40
5.0
 40
5.0
 40
5.0
 40
6.0
 40
6.0
 40
6.0
 40
7.0
 40
7.0
 40
7.0
 40
7.0
 10
76.77257485059853
 20
-140.1819688234614
 10
76.77257485059853
 20
-140.1819688234614
 10
76.77257485059853
 20
-139.0776434656646
 10
76.77257485059853
 20
-139.0776434656646
 10
76.77257485059853
 20
-139.0776434656646
 10
76.44253470311159
 20
-139.0776434656646
 10
76.44253470311159
 20
-139.0776434656646
 10
76.44253470311159
 20
-139.0776434656646
 10
76.44253470311159
 20
-138.9295043597988
 10
76.44253470311159
 20
-138.9295043597988
 10
76.77464190788967
 20
-138.9148627039865
 10
76.82115069694055
 20
-138.7519096875342
 10
76.8507785181137
 20
-138.6377047721982
 10
76.8507785181137
 20
-138.6377047721982
 10
76.9968505666883
 20
-138.6377047721982
 10
76.9968505666883
 20
-138.6377047721982
 10
76.9968505666883
 20
-138.6377047721982
 10
76.9968505666883
 20
-140.1819688234614
 10
76.9968505666883
 20
-140.1819688234614
 10
76.9968505666883
 20
-140.1819688234614
 10
76.77257485059853
 20
-140.1819688234614
 10
76.77257485059853
 20
-140.1819688234614
 97
        0
 97
        1
330
13D
 75
     2
 76
     1
 98
        1
 10
0.0
 20
0.0
450
        0
451
        0
460
0.0
461
0.0
452
        0
462
0.0
453
        0
470

  0
ENDBLK
  5
13A
330
137
100
AcDbEntity
  8
0
100
AcDbBlockEnd
  0
BLOCK
  5
143
330
141
100
AcDbEntity
  8
0
100
AcDbBlockBegin
  2
Block_6
 70
     0
 10
0.0
 20
0.0
 30
0.0
  3
Block_6
  1

  0
SPLINE
  5
145
330
141
100
AcDbEntity
  8
レイヤー 1
100
AcDbSpline
210
0.0
220
0.0
230
1.0
 70
     9
 71
     3
 72
    17
 73
    13
 74
     0
 42
0.0000000001
 43
0.0000000001
 40
0.0
 40
0.0
 40
0.0
 40
0.0
 40
1.0
 40
1.0
 40
1.0
 40
2.0
 40
2.0
 40
2.0
 40
3.0
 40
3.0
 40
3.0
 40
4.0
 40
4.0
 40
4.0
 40
4.0
 10
62.21842446361207
 20
-150.1551757437112
 30
0.0
 10
62.21842446361207
 20
-150.2988362254461
 30
0.0
 10
62.3050686150661
 20
-150.4514539554427
 30
0.0
 10
62.50815699392157
 20
-150.4514539554427
 30
0.0
 10
62.71331243006819
 20
-150.4514539554427
 30
0.0
 10
62.81494274688307
 20
-150.324329932037
 30
0.0
 10
62.81494274688307
 20
-150.1551757437112
 30
0.0
 10
62.81494274688307
 20
-149.9691405875077
 30
0.0
 10
62.69229734760817
 20
-149.8588975319797
 30
0.0
 10
62.51453042056929
 20
-149.8588975319797
 30
0.0
 10
62.29232176177067
 20
-149.8588975319797
 30
0.0
 10
62.21842446361207
 20
-150.021850548432
 30
0.0
 10
62.21842446361207
 20
-150.1551757437112
 30
0.0
  0
SPLINE
  5
146
330
141
100
AcDbEntity
  8
レイヤー 1
100
AcDbSpline
210
0.0
220
0.0
230
1.0
 70
     9
 71
     3
 72
    17
 73
    13
 74
     0
 42
0.0000000001
 43
0.0000000001
 40
0.0
 40
0.0
 40
0.0
 40
0.0
 40
1.0
 40
1.0
 40
1.0
 40
2.0
 40
2.0
 40
2.0
 40
3.0
 40
3.0
 40
3.0
 40
4.0
 40
4.0
 40
4.0
 40
4.0
 10
61.55834416863819
 20
-150.1551757437112
 30
0.0
 10
61.55834416863819
 20
-150.3201958174547
 30
0.0
 10
61.65342880403109
 20
-150.4046006568433
 30
0.0
 10
61.7888210566014
 20
-150.4046006568433
 30
0.0
 10
61.91163871065056
 20
-150.4046006568433
 30
0.0
 10
62.03014999534316
 20
-150.3329426707501
 30
0.0
 10
62.03014999534316
 20
-150.1551757437112
 30
0.0
 10
62.03014999534316
 20
-149.9774088166723
 30
0.0
 10
61.91163871065056
 20
-149.9054063210306
 30
0.0
 10
61.7888210566014
 20
-149.9054063210306
 30
0.0
 10
61.65342880403109
 20
-149.9054063210306
 30
0.0
 10
61.55834416863819
 20
-149.9922227272589
 30
0.0
 10
61.55834416863819
 20
-150.1551757437112
 30
0.0
  0
SPLINE
  5
147
330
141
100
AcDbEntity
  8
レイヤー 1
100
AcDbSpline
210
0.0
220
0.0
230
1.0
 70
     9
 71
     3
 72
    29
 73
    25
 74
     0
 42
0.0000000001
 43
0.0000000001
 40
0.0
 40
0.0
 40
0.0
 40
0.0
 40
1.0
 40
1.0
 40
1.0
 40
2.0
 40
2.0
 40
2.0
 40
3.0
 40
3.0
 40
3.0
 40
4.0
 40
4.0
 40
4.0
 40
5.0
 40
5.0
 40
5.0
 40
6.0
 40
6.0
 40
6.0
 40
7.0
 40
7.0
 40
7.0
 40
8.0
 40
8.0
 40
8.0
 40
8.0
 10
63.00959064179969
 20
-150.1551757437112
 30
0.0
 10
63.00959064179969
 20
-150.4218261342695
 30
0.0
 10
62.87195907716395
 20
-150.6753851619839
 30
0.0
 10
62.52297090450815
 20
-150.6753851619839
 30
0.0
 10
62.26700030995409
 20
-150.6753851619839
 30
0.0
 10
62.17174341978693
 20
-150.5337917375401
 30
0.0
 10
62.11042072014948
 20
-150.428027306143
 30
0.0
 10
62.05116507780318
 20
-150.552739762709
 30
0.0
 10
61.93696016246715
 20
-150.628876372933
 30
0.0
 10
61.77624645808024
 20
-150.628876372933
 30
0.0
 10
61.50115558358304
 20
-150.628876372933
 30
0.0
 10
61.36576333101273
 20
-150.4300943634341
 30
0.0
 10
61.36576333101273
 20
-150.1551757437112
 30
0.0
 10
61.36576333101273
 20
-149.8716443852751
 30
0.0
 10
61.50959606752191
 20
-149.6811306049408
 30
0.0
 10
61.77624645808024
 20
-149.6811306049408
 30
0.0
 10
61.93696016246715
 20
-149.6811306049408
 30
0.0
 10
62.05116507780318
 20
-149.7596787820045
 30
0.0
 10
62.11042072014948
 20
-149.8843912385706
 30
0.0
 10
62.16123587855691
 20
-149.7955077750511
 30
0.0
 10
62.25649276872407
 20
-149.6366888731811
 30
0.0
 10
62.51883678992585
 20
-149.6366888731811
 30
0.0
 10
62.89314641439824
 20
-149.6366888731811
 30
0.0
 10
63.00959064179969
 20
-149.9160861170348
 30
0.0
 10
63.00959064179969
 20
-150.1551757437112
 30
0.0
  0
HATCH
  5
148
330
141
100
AcDbEntity
  8
レイヤー 1
 62
   250
420
  2299925
440
 33554687
100
AcDbHatch
 10
0.0
 20
0.0
 30
0.0
210
0.0
220
0.0
230
1.0
  2
SOLID
 70
     1
 71
     1
 91
        3
 92
        1
 93
        1
 72
     4
 94
        3
 73
     0
 74
     0
 95
       17
 96
       13
 40
0.0
 40
0.0
 40
0.0
 40
0.0
 40
1.0
 40
1.0
 40
1.0
 40
2.0
 40
2.0
 40
2.0
 40
3.0
 40
3.0
 40
3.0
 40
4.0
 40
4.0
 40
4.0
 40
4.0
 10
62.21842446361207
 20
-150.1551757437112
 10
62.21842446361207
 20
-150.2988362254461
 10
62.3050686150661
 20
-150.4514539554427
 10
62.50815699392157
 20
-150.4514539554427
 10
62.71331243006819
 20
-150.4514539554427
 10
62.81494274688307
 20
-150.324329932037
 10
62.81494274688307
 20
-150.1551757437112
 10
62.81494274688307
 20
-149.9691405875077
 10
62.69229734760817
 20
-149.8588975319797
 10
62.51453042056929
 20
-149.8588975319797
 10
62.29232176177067
 20
-149.8588975319797
 10
62.21842446361207
 20
-150.021850548432
 10
62.21842446361207
 20
-150.1551757437112
 97
        0
 97
        1
330
145
 92
        1
 93
        1
 72
     4
 94
        3
 73
     0
 74
     0
 95
       17
 96
       13
 40
0.0
 40
0.0
 40
0.0
 40
0.0
 40
1.0
 40
1.0
 40
1.0
 40
2.0
 40
2.0
 40
2.0
 40
3.0
 40
3.0
 40
3.0
 40
4.0
 40
4.0
 40
4.0
 40
4.0
 10
61.55834416863819
 20
-150.1551757437112
 10
61.55834416863819
 20
-150.3201958174547
 10
61.65342880403109
 20
-150.4046006568433
 10
61.7888210566014
 20
-150.4046006568433
 10
61.91163871065056
 20
-150.4046006568433
 10
62.03014999534316
 20
-150.3329426707501
 10
62.03014999534316
 20
-150.1551757437112
 10
62.03014999534316
 20
-149.9774088166723
 10
61.91163871065056
 20
-149.9054063210306
 10
61.7888210566014
 20
-149.9054063210306
 10
61.65342880403109
 20
-149.9054063210306
 10
61.55834416863819
 20
-149.9922227272589
 10
61.55834416863819
 20
-150.1551757437112
 97
        0
 97
        1
330
146
 92
        1
 93
        1
 72
     4
 94
        3
 73
     0
 74
     0
 95
       29
 96
       25
 40
0.0
 40
0.0
 40
0.0
 40
0.0
 40
1.0
 40
1.0
 40
1.0
 40
2.0
 40
2.0
 40
2.0
 40
3.0
 40
3.0
 40
3.0
 40
4.0
 40
4.0
 40
4.0
 40
5.0
 40
5.0
 40
5.0
 40
6.0
 40
6.0
 40
6.0
 40
7.0
 40
7.0
 40
7.0
 40
8.0
 40
8.0
 40
8.0
 40
8.0
 10
63.00959064179969
 20
-150.1551757437112
 10
63.00959064179969
 20
-150.4218261342695
 10
62.87195907716395
 20
-150.6753851619839
 10
62.52297090450815
 20
-150.6753851619839
 10
62.26700030995409
 20
-150.6753851619839
 10
62.17174341978693
 20
-150.5337917375401
 10
62.11042072014948
 20
-150.428027306143
 10
62.05116507780318
 20
-150.552739762709
 10
61.93696016246715
 20
-150.628876372933
 10
61.77624645808024
 20
-150.628876372933
 10
61.50115558358304
 20
-150.628876372933
 10
61.36576333101273
 20
-150.4300943634341
 10
61.36576333101273
 20
-150.1551757437112
 10
61.36576333101273
 20
-149.8716443852751
 10
61.50959606752191
 20
-149.6811306049408
 10
61.77624645808024
 20
-149.6811306049408
 10
61.93696016246715
 20
-149.6811306049408
 10
62.05116507780318
 20
-149.7596787820045
 10
62.11042072014948
 20
-149.8843912385706
 10
62.16123587855691
 20
-149.7955077750511
 10
62.25649276872407
 20
-149.6366888731811
 10
62.51883678992585
 20
-149.6366888731811
 10
62.89314641439824
 20
-149.6366888731811
 10
63.00959064179969
 20
-149.9160861170348
 10
63.00959064179969
 20
-150.1551757437112
 97
        0
 97
        1
330
147
 75
     2
 76
     1
 98
        1
 10
0.0
 20
0.0
450
        0
451
        0
460
0.0
461
0.0
452
        0
462
0.0
453
        0
470

  0
ENDBLK
  5
144
330
141
100
AcDbEntity
  8
0
100
AcDbBlockEnd
  0
BLOCK
  5
14D
330
14B
100
AcDbEntity
  8
0
100
AcDbBlockBegin
  2
Block_7
 70
     0
 10
0.0
 20
0.0
 30
0.0
  3
Block_7
  1

  0
INSERT
  5
150
330
14B
100
AcDbEntity
  8
レイヤー 1
100
AcDbBlockReference
  2
Block_8
 10
0.0
 20
0.0
 30
0.0
  0
ENDBLK
  5
14E
330
14B
100
AcDbEntity
  8
0
100
AcDbBlockEnd
  0
BLOCK
  5
151
330
14F
100
AcDbEntity
  8
0
100
AcDbBlockBegin
  2
Block_8
 70
     0
 10
0.0
 20
0.0
 30
0.0
  3
Block_8
  1

  0
SPLINE
  5
153
330
14F
100
AcDbEntity
  8
レイヤー 1
100
AcDbSpline
210
0.0
220
0.0
230
1.0
 70
     9
 71
     3
 72
    44
 73
    40
 74
     0
 42
0.0000000001
 43
0.0000000001
 40
0.0
 40
0.0
 40
0.0
 40
0.0
 40
1.0
 40
1.0
 40
1.0
 40
2.0
 40
2.0
 40
2.0
 40
3.0
 40
3.0
 40
3.0
 40
4.0
 40
4.0
 40
4.0
 40
5.0
 40
5.0
 40
5.0
 40
6.0
 40
6.0
 40
6.0
 40
7.0
 40
7.0
 40
7.0
 40
8.0
 40
8.0
 40
8.0
 40
9.0
 40
9.0
 40
9.0
 40
10.0
 40
10.0
 40
10.0
 40
11.0
 40
11.0
 40
11.0
 40
12.0
 40
12.0
 40
12.0
 40
13.0
 40
13.0
 40
13.0
 40
13.0
 10
106.7383598908501
 20
-139.600264450777
 30
0.0
 10
106.5206298561823
 20
-139.7589110978728
 30
0.0
 10
106.4276122780806
 20
-139.8329806508056
 30
0.0
 10
106.37869192219
 20
-139.9768133873148
 30
0.0
 10
106.37869192219
 20
-139.9768133873148
 30
0.0
 10
107.1572835018565
 20
-139.9768133873148
 30
0.0
 10
107.1572835018565
 20
-139.9768133873148
 30
0.0
 10
107.1572835018565
 20
-139.9768133873148
 30
0.0
 10
107.1572835018565
 20
-140.1819688234614
 30
0.0
 10
107.1572835018565
 20
-140.1819688234614
 30
0.0
 10
107.1572835018565
 20
-140.1819688234614
 30
0.0
 10
106.129267009058
 20
-140.1819688234614
 30
0.0
 10
106.129267009058
 20
-140.1819688234614
 30
0.0
 10
106.1609618875222
 20
-139.8243679120925
 30
0.0
 10
106.226418701742
 20
-139.7461642445773
 30
0.0
 10
106.6115803769929
 20
-139.4478189755547
 30
0.0
 10
106.867550971547
 20
-139.2490369660558
 30
0.0
 10
106.9330077857667
 20
-139.1813408397706
 30
0.0
 10
106.9330077857667
 20
-139.0438815299092
 30
0.0
 10
106.9330077857667
 20
-138.9253702452166
 30
0.0
 10
106.861005290125
 20
-138.7941121072285
 30
0.0
 10
106.6642903379172
 20
-138.7941121072285
 30
0.0
 10
106.4041856287809
 20
-138.7941121072285
 30
0.0
 10
106.3959173996163
 20
-139.024761249966
 30
0.0
 10
106.3914387754855
 20
-139.1412054773675
 30
0.0
 10
106.3914387754855
 20
-139.1412054773675
 30
0.0
 10
106.1671630593957
 20
-139.1412054773675
 30
0.0
 10
106.1671630593957
 20
-139.1412054773675
 30
0.0
 10
106.1757757981088
 20
-139.014253708736
 30
0.0
 10
106.1864555941131
 20
-138.9021158506911
 30
0.0
 10
106.2667263189194
 20
-138.7836045659985
 30
0.0
 10
106.3766248648989
 20
-138.6228908616116
 30
0.0
 10
106.5630045306509
 20
-138.5889566710819
 30
0.0
 10
106.6791042485038
 20
-138.5889566710819
 30
0.0
 10
106.9564344350664
 20
-138.5889566710819
 30
0.0
 10
107.1638291832785
 20
-138.7730970247685
 30
0.0
 10
107.1638291832785
 20
-139.0459485872003
 30
0.0
 10
107.1638291832785
 20
-139.2743584178724
 30
0.0
 10
107.047384955877
 20
-139.3739216773961
 30
0.0
 10
106.7383598908501
 20
-139.600264450777
 30
0.0
  0
HATCH
  5
154
330
14F
100
AcDbEntity
  8
レイヤー 1
 62
   250
420
  2299925
440
 33554687
100
AcDbHatch
 10
0.0
 20
0.0
 30
0.0
210
0.0
220
0.0
230
1.0
  2
SOLID
 70
     1
 71
     1
 91
        1
 92
        1
 93
        1
 72
     4
 94
        3
 73
     0
 74
     0
 95
       44
 96
       40
 40
0.0
 40
0.0
 40
0.0
 40
0.0
 40
1.0
 40
1.0
 40
1.0
 40
2.0
 40
2.0
 40
2.0
 40
3.0
 40
3.0
 40
3.0
 40
4.0
 40
4.0
 40
4.0
 40
5.0
 40
5.0
 40
5.0
 40
6.0
 40
6.0
 40
6.0
 40
7.0
 40
7.0
 40
7.0
 40
8.0
 40
8.0
 40
8.0
 40
9.0
 40
9.0
 40
9.0
 40
10.0
 40
10.0
 40
10.0
 40
11.0
 40
11.0
 40
11.0
 40
12.0
 40
12.0
 40
12.0
 40
13.0
 40
13.0
 40
13.0
 40
13.0
 10
106.7383598908501
 20
-139.600264450777
 10
106.5206298561823
 20
-139.7589110978728
 10
106.4276122780806
 20
-139.8329806508056
 10
106.37869192219
 20
-139.9768133873148
 10
106.37869192219
 20
-139.9768133873148
 10
107.1572835018565
 20
-139.9768133873148
 10
107.1572835018565
 20
-139.9768133873148
 10
107.1572835018565
 20
-139.9768133873148
 10
107.1572835018565
 20
-140.1819688234614
 10
107.1572835018565
 20
-140.1819688234614
 10
107.1572835018565
 20
-140.1819688234614
 10
106.129267009058
 20
-140.1819688234614
 10
106.129267009058
 20
-140.1819688234614
 10
106.1609618875222
 20
-139.8243679120925
 10
106.226418701742
 20
-139.7461642445773
 10
106.6115803769929
 20
-139.4478189755547
 10
106.867550971547
 20
-139.2490369660558
 10
106.9330077857667
 20
-139.1813408397706
 10
106.9330077857667
 20
-139.0438815299092
 10
106.9330077857667
 20
-138.9253702452166
 10
106.861005290125
 20
-138.7941121072285
 10
106.6642903379172
 20
-138.7941121072285
 10
106.4041856287809
 20
-138.7941121072285
 10
106.3959173996163
 20
-139.024761249966
 10
106.3914387754855
 20
-139.1412054773675
 10
106.3914387754855
 20
-139.1412054773675
 10
106.1671630593957
 20
-139.1412054773675
 10
106.1671630593957
 20
-139.1412054773675
 10
106.1757757981088
 20
-139.014253708736
 10
106.1864555941131
 20
-138.9021158506911
 10
106.2667263189194
 20
-138.7836045659985
 10
106.3766248648989
 20
-138.6228908616116
 10
106.5630045306509
 20
-138.5889566710819
 10
106.6791042485038
 20
-138.5889566710819
 10
106.9564344350664
 20
-138.5889566710819
 10
107.1638291832785
 20
-138.7730970247685
 10
107.1638291832785
 20
-139.0459485872003
 10
107.1638291832785
 20
-139.2743584178724
 10
107.047384955877
 20
-139.3739216773961
 10
106.7383598908501
 20
-139.600264450777
 97
        0
 97
        1
330
153
 75
     2
 76
     1
 98
        1
 10
0.0
 20
0.0
450
        0
451
        0
460
0.0
461
0.0
452
        0
462
0.0
453
        0
470

  0
SPLINE
  5
155
330
14F
100
AcDbEntity
  8
レイヤー 1
100
AcDbSpline
210
0.0
220
0.0
230
1.0
 70
    11
 71
     3
 72
    26
 73
    22
 74
     0
 42
0.0000000001
 43
0.0000000001
 40
0.0
 40
0.0
 40
0.0
 40
0.0
 40
1.0
 40
1.0
 40
1.0
 40
2.0
 40
2.0
 40
2.0
 40
3.0
 40
3.0
 40
3.0
 40
4.0
 40
4.0
 40
4.0
 40
5.0
 40
5.0
 40
5.0
 40
6.0
 40
6.0
 40
6.0
 40
7.0
 40
7.0
 40
7.0
 40
7.0
 10
107.7736110841677
 20
-140.1819688234614
 30
0.0
 10
107.7736110841677
 20
-140.1819688234614
 30
0.0
 10
107.7736110841677
 20
-139.0776434656646
 30
0.0
 10
107.7736110841677
 20
-139.0776434656646
 30
0.0
 10
107.7736110841677
 20
-139.0776434656646
 30
0.0
 10
107.4435709366808
 20
-139.0776434656646
 30
0.0
 10
107.4435709366808
 20
-139.0776434656646
 30
0.0
 10
107.4435709366808
 20
-139.0776434656646
 30
0.0
 10
107.4435709366808
 20
-138.9295043597988
 30
0.0
 10
107.4435709366808
 20
-138.9295043597988
 30
0.0
 10
107.7756781414588
 20
-138.9148627039865
 30
0.0
 10
107.8221869305097
 20
-138.7519096875342
 30
0.0
 10
107.8518147516829
 20
-138.6377047721982
 30
0.0
 10
107.8518147516829
 20
-138.6377047721982
 30
0.0
 10
107.9978868002575
 20
-138.6377047721982
 30
0.0
 10
107.9978868002575
 20
-138.6377047721982
 30
0.0
 10
107.9978868002575
 20
-138.6377047721982
 30
0.0
 10
107.9978868002575
 20
-140.1819688234614
 30
0.0
 10
107.9978868002575
 20
-140.1819688234614
 30
0.0
 10
107.9978868002575
 20
-140.1819688234614
 30
0.0
 10
107.7736110841677
 20
-140.1819688234614
 30
0.0
 10
107.7736110841677
 20
-140.1819688234614
 30
0.0
  0
HATCH
  5
156
330
14F
100
AcDbEntity
  8
レイヤー 1
 62
   250
420
  2299925
440
 33554687
100
AcDbHatch
 10
0.0
 20
0.0
 30
0.0
210
0.0
220
0.0
230
1.0
  2
SOLID
 70
     1
 71
     1
 91
        1
 92
        1
 93
        1
 72
     4
 94
        3
 73
     0
 74
     0
 95
       26
 96
       22
 40
0.0
 40
0.0
 40
0.0
 40
0.0
 40
1.0
 40
1.0
 40
1.0
 40
2.0
 40
2.0
 40
2.0
 40
3.0
 40
3.0
 40
3.0
 40
4.0
 40
4.0
 40
4.0
 40
5.0
 40
5.0
 40
5.0
 40
6.0
 40
6.0
 40
6.0
 40
7.0
 40
7.0
 40
7.0
 40
7.0
 10
107.7736110841677
 20
-140.1819688234614
 10
107.7736110841677
 20
-140.1819688234614
 10
107.7736110841677
 20
-139.0776434656646
 10
107.7736110841677
 20
-139.0776434656646
 10
107.7736110841677
 20
-139.0776434656646
 10
107.4435709366808
 20
-139.0776434656646
 10
107.4435709366808
 20
-139.0776434656646
 10
107.4435709366808
 20
-139.0776434656646
 10
107.4435709366808
 20
-138.9295043597988
 10
107.4435709366808
 20
-138.9295043597988
 10
107.7756781414588
 20
-138.9148627039865
 10
107.8221869305097
 20
-138.7519096875342
 10
107.8518147516829
 20
-138.6377047721982
 10
107.8518147516829
 20
-138.6377047721982
 10
107.9978868002575
 20
-138.6377047721982
 10
107.9978868002575
 20
-138.6377047721982
 10
107.9978868002575
 20
-138.6377047721982
 10
107.9978868002575
 20
-140.1819688234614
 10
107.9978868002575
 20
-140.1819688234614
 10
107.9978868002575
 20
-140.1819688234614
 10
107.7736110841677
 20
-140.1819688234614
 10
107.7736110841677
 20
-140.1819688234614
 97
        0
 97
        1
330
155
 75
     2
 76
     1
 98
        1
 10
0.0
 20
0.0
450
        0
451
        0
460
0.0
461
0.0
452
        0
462
0.0
453
        0
470

  0
ENDBLK
  5
152
330
14F
100
AcDbEntity
  8
0
100
AcDbBlockEnd
  0
BLOCK
  5
15C
330
15A
100
AcDbEntity
  8
0
100
AcDbBlockBegin
  2
Block_9
 70
     0
 10
0.0
 20
0.0
 30
0.0
  3
Block_9
  1

  0
SPLINE
  5
15E
330
15A
100
AcDbEntity
  8
レイヤー 1
100
AcDbSpline
210
0.0
220
0.0
230
1.0
 70
     9
 71
     3
 72
    17
 73
    13
 74
     0
 42
0.0000000001
 43
0.0000000001
 40
0.0
 40
0.0
 40
0.0
 40
0.0
 40
1.0
 40
1.0
 40
1.0
 40
2.0
 40
2.0
 40
2.0
 40
3.0
 40
3.0
 40
3.0
 40
4.0
 40
4.0
 40
4.0
 40
4.0
 10
90.68266463661753
 20
-138.7815375087074
 30
0.0
 10
90.51764456287406
 20
-138.7815375087074
 30
0.0
 10
90.43289521393692
 20
-138.8766221441003
 30
0.0
 10
90.43289521393692
 20
-139.0120143966706
 30
0.0
 10
90.43289521393692
 20
-139.1348320507198
 30
0.0
 10
90.50489770957865
 20
-139.2533433354123
 30
0.0
 10
90.68266463661753
 20
-139.2533433354123
 30
0.0
 10
90.86043156365642
 20
-139.2533433354123
 30
0.0
 10
90.93243405929815
 20
-139.1348320507198
 30
0.0
 10
90.93243405929815
 20
-139.0120143966706
 30
0.0
 10
90.93243405929815
 20
-138.8766221441003
 30
0.0
 10
90.84561765306984
 20
-138.7815375087074
 30
0.0
 10
90.68266463661753
 20
-138.7815375087074
 30
0.0
  0
SPLINE
  5
15F
330
15A
100
AcDbEntity
  8
レイヤー 1
100
AcDbSpline
210
0.0
220
0.0
230
1.0
 70
     9
 71
     3
 72
    17
 73
    13
 74
     0
 42
0.0000000001
 43
0.0000000001
 40
0.0
 40
0.0
 40
0.0
 40
0.0
 40
1.0
 40
1.0
 40
1.0
 40
2.0
 40
2.0
 40
2.0
 40
3.0
 40
3.0
 40
3.0
 40
4.0
 40
4.0
 40
4.0
 40
4.0
 10
90.68266463661753
 20
-139.4416178036813
 30
0.0
 10
90.53900415488262
 20
-139.4416178036813
 30
0.0
 10
90.38638642488605
 20
-139.5282619551353
 30
0.0
 10
90.38638642488605
 20
-139.7313503339908
 30
0.0
 10
90.38638642488605
 20
-139.9365057701374
 30
0.0
 10
90.51351044829177
 20
-140.0381360869523
 30
0.0
 10
90.68266463661753
 20
-140.0381360869523
 30
0.0
 10
90.86869979282102
 20
-140.0381360869523
 30
0.0
 10
90.97894284834902
 20
-139.9154906876774
 30
0.0
 10
90.97894284834902
 20
-139.7377237606385
 30
0.0
 10
90.97894284834902
 20
-139.5155151018398
 30
0.0
 10
90.81598983189669
 20
-139.4416178036813
 30
0.0
 10
90.68266463661753
 20
-139.4416178036813
 30
0.0
  0
SPLINE
  5
160
330
15A
100
AcDbEntity
  8
レイヤー 1
100
AcDbSpline
210
0.0
220
0.0
230
1.0
 70
     9
 71
     3
 72
    29
 73
    25
 74
     0
 42
0.0000000001
 43
0.0000000001
 40
0.0
 40
0.0
 40
0.0
 40
0.0
 40
1.0
 40
1.0
 40
1.0
 40
2.0
 40
2.0
 40
2.0
 40
3.0
 40
3.0
 40
3.0
 40
4.0
 40
4.0
 40
4.0
 40
5.0
 40
5.0
 40
5.0
 40
6.0
 40
6.0
 40
6.0
 40
7.0
 40
7.0
 40
7.0
 40
8.0
 40
8.0
 40
8.0
 40
8.0
 10
90.68266463661753
 20
-140.2327839818689
 30
0.0
 10
90.4160142460592
 20
-140.2327839818689
 30
0.0
 10
90.16211070879627
 20
-140.0951524172331
 30
0.0
 10
90.16211070879627
 20
-139.7461642445773
 30
0.0
 10
90.16211070879627
 20
-139.4901936500233
 30
0.0
 10
90.30404864278857
 20
-139.3949367598561
 30
0.0
 10
90.40981307418574
 20
-139.3336140602187
 30
0.0
 10
90.2851006176197
 20
-139.2743584178724
 30
0.0
 10
90.20896400739568
 20
-139.1601535025363
 30
0.0
 10
90.20896400739568
 20
-138.9994397981494
 30
0.0
 10
90.20896400739568
 20
-138.7243489236522
 30
0.0
 10
90.40774601689459
 20
-138.5889566710819
 30
0.0
 10
90.68266463661753
 20
-138.5889566710819
 30
0.0
 10
90.96619599505359
 20
-138.5889566710819
 30
0.0
 10
91.1567097753879
 20
-138.7327894075911
 30
0.0
 10
91.1567097753879
 20
-138.9994397981494
 30
0.0
 10
91.1567097753879
 20
-139.1601535025363
 30
0.0
 10
91.07816159832422
 20
-139.2743584178724
 30
0.0
 10
90.95344914175816
 20
-139.3336140602187
 30
0.0
 10
91.04233260527761
 20
-139.3844292186261
 30
0.0
 10
91.20115150714763
 20
-139.4796861087933
 30
0.0
 10
91.20115150714763
 20
-139.7418578752208
 30
0.0
 10
91.20115150714763
 20
-140.1163397544674
 30
0.0
 10
90.92175426329388
 20
-140.2327839818689
 30
0.0
 10
90.68266463661753
 20
-140.2327839818689
 30
0.0
  0
HATCH
  5
161
330
15A
100
AcDbEntity
  8
レイヤー 1
 62
   250
420
  2299925
440
 33554687
100
AcDbHatch
 10
0.0
 20
0.0
 30
0.0
210
0.0
220
0.0
230
1.0
  2
SOLID
 70
     1
 71
     1
 91
        3
 92
        1
 93
        1
 72
     4
 94
        3
 73
     0
 74
     0
 95
       17
 96
       13
 40
0.0
 40
0.0
 40
0.0
 40
0.0
 40
1.0
 40
1.0
 40
1.0
 40
2.0
 40
2.0
 40
2.0
 40
3.0
 40
3.0
 40
3.0
 40
4.0
 40
4.0
 40
4.0
 40
4.0
 10
90.68266463661753
 20
-138.7815375087074
 10
90.51764456287406
 20
-138.7815375087074
 10
90.43289521393692
 20
-138.8766221441003
 10
90.43289521393692
 20
-139.0120143966706
 10
90.43289521393692
 20
-139.1348320507198
 10
90.50489770957865
 20
-139.2533433354123
 10
90.68266463661753
 20
-139.2533433354123
 10
90.86043156365642
 20
-139.2533433354123
 10
90.93243405929815
 20
-139.1348320507198
 10
90.93243405929815
 20
-139.0120143966706
 10
90.93243405929815
 20
-138.8766221441003
 10
90.84561765306984
 20
-138.7815375087074
 10
90.68266463661753
 20
-138.7815375087074
 97
        0
 97
        1
330
15E
 92
        1
 93
        1
 72
     4
 94
        3
 73
     0
 74
     0
 95
       17
 96
       13
 40
0.0
 40
0.0
 40
0.0
 40
0.0
 40
1.0
 40
1.0
 40
1.0
 40
2.0
 40
2.0
 40
2.0
 40
3.0
 40
3.0
 40
3.0
 40
4.0
 40
4.0
 40
4.0
 40
4.0
 10
90.68266463661753
 20
-139.4416178036813
 10
90.53900415488262
 20
-139.4416178036813
 10
90.38638642488605
 20
-139.5282619551353
 10
90.38638642488605
 20
-139.7313503339908
 10
90.38638642488605
 20
-139.9365057701374
 10
90.51351044829177
 20
-140.0381360869523
 10
90.68266463661753
 20
-140.0381360869523
 10
90.86869979282102
 20
-140.0381360869523
 10
90.97894284834902
 20
-139.9154906876774
 10
90.97894284834902
 20
-139.7377237606385
 10
90.97894284834902
 20
-139.5155151018398
 10
90.81598983189669
 20
-139.4416178036813
 10
90.68266463661753
 20
-139.4416178036813
 97
        0
 97
        1
330
15F
 92
        1
 93
        1
 72
     4
 94
        3
 73
     0
 74
     0
 95
       29
 96
       25
 40
0.0
 40
0.0
 40
0.0
 40
0.0
 40
1.0
 40
1.0
 40
1.0
 40
2.0
 40
2.0
 40
2.0
 40
3.0
 40
3.0
 40
3.0
 40
4.0
 40
4.0
 40
4.0
 40
5.0
 40
5.0
 40
5.0
 40
6.0
 40
6.0
 40
6.0
 40
7.0
 40
7.0
 40
7.0
 40
8.0
 40
8.0
 40
8.0
 40
8.0
 10
90.68266463661753
 20
-140.2327839818689
 10
90.4160142460592
 20
-140.2327839818689
 10
90.16211070879627
 20
-140.0951524172331
 10
90.16211070879627
 20
-139.7461642445773
 10
90.16211070879627
 20
-139.4901936500233
 10
90.30404864278857
 20
-139.3949367598561
 10
90.40981307418574
 20
-139.3336140602187
 10
90.2851006176197
 20
-139.2743584178724
 10
90.20896400739568
 20
-139.1601535025363
 10
90.20896400739568
 20
-138.9994397981494
 10
90.20896400739568
 20
-138.7243489236522
 10
90.40774601689459
 20
-138.5889566710819
 10
90.68266463661753
 20
-138.5889566710819
 10
90.96619599505359
 20
-138.5889566710819
 10
91.1567097753879
 20
-138.7327894075911
 10
91.1567097753879
 20
-138.9994397981494
 10
91.1567097753879
 20
-139.1601535025363
 10
91.07816159832422
 20
-139.2743584178724
 10
90.95344914175816
 20
-139.3336140602187
 10
91.04233260527761
 20
-139.3844292186261
 10
91.20115150714763
 20
-139.4796861087933
 10
91.20115150714763
 20
-139.7418578752208
 10
91.20115150714763
 20
-140.1163397544674
 10
90.92175426329388
 20
-140.2327839818689
 10
90.68266463661753
 20
-140.2327839818689
 97
        0
 97
        1
330
160
 75
     2
 76
     1
 98
        1
 10
0.0
 20
0.0
450
        0
451
        0
460
0.0
461
0.0
452
        0
462
0.0
453
        0
470

  0
ENDBLK
  5
15D
330
15A
100
AcDbEntity
  8
0
100
AcDbBlockEnd
  0
BLOCK
  5
165
330
163
100
AcDbEntity
  8
0
100
AcDbBlockBegin
  2
Block_10
 70
     0
 10
0.0
 20
0.0
 30
0.0
  3
Block_10
  1

  0
SPLINE
  5
167
330
163
100
AcDbEntity
  8
レイヤー 1
100
AcDbSpline
210
0.0
220
0.0
230
1.0
 70
    11
 71
     3
 72
    26
 73
    22
 74
     0
 42
0.0000000001
 43
0.0000000001
 40
0.0
 40
0.0
 40
0.0
 40
0.0
 40
1.0
 40
1.0
 40
1.0
 40
2.0
 40
2.0
 40
2.0
 40
3.0
 40
3.0
 40
3.0
 40
4.0
 40
4.0
 40
4.0
 40
5.0
 40
5.0
 40
5.0
 40
6.0
 40
6.0
 40
6.0
 40
7.0
 40
7.0
 40
7.0
 40
7.0
 10
98.39313284215521
 20
-149.8874918245073
 30
0.0
 10
98.39313284215521
 20
-149.8874918245073
 30
0.0
 10
98.39313284215521
 20
-148.7831664667105
 30
0.0
 10
98.39313284215521
 20
-148.7831664667105
 30
0.0
 10
98.39313284215521
 20
-148.7831664667105
 30
0.0
 10
98.06309269466826
 20
-148.7831664667105
 30
0.0
 10
98.06309269466826
 20
-148.7831664667105
 30
0.0
 10
98.06309269466826
 20
-148.7831664667105
 30
0.0
 10
98.06309269466826
 20
-148.6350273608447
 30
0.0
 10
98.06309269466826
 20
-148.6350273608447
 30
0.0
 10
98.39519989944633
 20
-148.6203857050324
 30
0.0
 10
98.44170868849722
 20
-148.4574326885801
 30
0.0
 10
98.47133650967037
 20
-148.343227773244
 30
0.0
 10
98.47133650967037
 20
-148.343227773244
 30
0.0
 10
98.61740855824496
 20
-148.343227773244
 30
0.0
 10
98.61740855824496
 20
-148.343227773244
 30
0.0
 10
98.61740855824496
 20
-148.343227773244
 30
0.0
 10
98.61740855824496
 20
-149.8874918245073
 30
0.0
 10
98.61740855824496
 20
-149.8874918245073
 30
0.0
 10
98.61740855824496
 20
-149.8874918245073
 30
0.0
 10
98.39313284215521
 20
-149.8874918245073
 30
0.0
 10
98.39313284215521
 20
-149.8874918245073
 30
0.0
  0
HATCH
  5
168
330
163
100
AcDbEntity
  8
レイヤー 1
 62
   250
420
  2299925
440
 33554687
100
AcDbHatch
 10
0.0
 20
0.0
 30
0.0
210
0.0
220
0.0
230
1.0
  2
SOLID
 70
     1
 71
     1
 91
        1
 92
        1
 93
        1
 72
     4
 94
        3
 73
     0
 74
     0
 95
       26
 96
       22
 40
0.0
 40
0.0
 40
0.0
 40
0.0
 40
1.0
 40
1.0
 40
1.0
 40
2.0
 40
2.0
 40
2.0
 40
3.0
 40
3.0
 40
3.0
 40
4.0
 40
4.0
 40
4.0
 40
5.0
 40
5.0
 40
5.0
 40
6.0
 40
6.0
 40
6.0
 40
7.0
 40
7.0
 40
7.0
 40
7.0
 10
98.39313284215521
 20
-149.8874918245073
 10
98.39313284215521
 20
-149.8874918245073
 10
98.39313284215521
 20
-148.7831664667105
 10
98.39313284215521
 20
-148.7831664667105
 10
98.39313284215521
 20
-148.7831664667105
 10
98.06309269466826
 20
-148.7831664667105
 10
98.06309269466826
 20
-148.7831664667105
 10
98.06309269466826
 20
-148.7831664667105
 10
98.06309269466826
 20
-148.6350273608447
 10
98.06309269466826
 20
-148.6350273608447
 10
98.39519989944633
 20
-148.6203857050324
 10
98.44170868849722
 20
-148.4574326885801
 10
98.47133650967037
 20
-148.343227773244
 10
98.47133650967037
 20
-148.343227773244
 10
98.61740855824496
 20
-148.343227773244
 10
98.61740855824496
 20
-148.343227773244
 10
98.61740855824496
 20
-148.343227773244
 10
98.61740855824496
 20
-149.8874918245073
 10
98.61740855824496
 20
-149.8874918245073
 10
98.61740855824496
 20
-149.8874918245073
 10
98.39313284215521
 20
-149.8874918245073
 10
98.39313284215521
 20
-149.8874918245073
 97
        0
 97
        1
330
167
 75
     2
 76
     1
 98
        1
 10
0.0
 20
0.0
450
        0
451
        0
460
0.0
461
0.0
452
        0
462
0.0
453
        0
470

  0
ENDBLK
  5
166
330
163
100
AcDbEntity
  8
0
100
AcDbBlockEnd
  0
BLOCK
  5
170
330
16E
100
AcDbEntity
  8
0
100
AcDbBlockBegin
  2
Block_11
 70
     0
 10
0.0
 20
0.0
 30
0.0
  3
Block_11
  1

  0
INSERT
  5
173
330
16E
100
AcDbEntity
  8
レイヤー 1
100
AcDbBlockReference
  2
Block_12
 10
0.0
 20
0.0
 30
0.0
  0
ENDBLK
  5
171
330
16E
100
AcDbEntity
  8
0
100
AcDbBlockEnd
  0
BLOCK
  5
174
330
172
100
AcDbEntity
  8
0
100
AcDbBlockBegin
  2
Block_12
 70
     0
 10
0.0
 20
0.0
 30
0.0
  3
Block_12
  1

  0
SPLINE
  5
176
330
172
100
AcDbEntity
  8
レイヤー 1
100
AcDbSpline
210
0.0
220
0.0
230
1.0
 70
    11
 71
     3
 72
    26
 73
    22
 74
     0
 42
0.0000000001
 43
0.0000000001
 40
0.0
 40
0.0
 40
0.0
 40
0.0
 40
1.0
 40
1.0
 40
1.0
 40
2.0
 40
2.0
 40
2.0
 40
3.0
 40
3.0
 40
3.0
 40
4.0
 40
4.0
 40
4.0
 40
5.0
 40
5.0
 40
5.0
 40
6.0
 40
6.0
 40
6.0
 40
7.0
 40
7.0
 40
7.0
 40
7.0
 10
90.22377791798225
 20
-157.557307903319
 30
0.0
 10
90.22377791798225
 20
-157.557307903319
 30
0.0
 10
90.22377791798225
 20
-156.4531548002964
 30
0.0
 10
90.22377791798225
 20
-156.4531548002964
 30
0.0
 10
90.22377791798225
 20
-156.4531548002964
 30
0.0
 10
89.89373777049532
 20
-156.4531548002964
 30
0.0
 10
89.89373777049532
 20
-156.4531548002964
 30
0.0
 10
89.89373777049532
 20
-156.4531548002964
 30
0.0
 10
89.89373777049532
 20
-156.3050156944307
 30
0.0
 10
89.89373777049532
 20
-156.3050156944307
 30
0.0
 10
90.2258449752734
 20
-156.2902017838441
 30
0.0
 10
90.27235376432427
 20
-156.1272487673918
 30
0.0
 10
90.30198158549742
 20
-156.0128715972815
 30
0.0
 10
90.30198158549742
 20
-156.0128715972815
 30
0.0
 10
90.44805363407203
 20
-156.0128715972815
 30
0.0
 10
90.44805363407203
 20
-156.0128715972815
 30
0.0
 10
90.44805363407203
 20
-156.0128715972815
 30
0.0
 10
90.44805363407203
 20
-157.557307903319
 30
0.0
 10
90.44805363407203
 20
-157.557307903319
 30
0.0
 10
90.44805363407203
 20
-157.557307903319
 30
0.0
 10
90.22377791798225
 20
-157.557307903319
 30
0.0
 10
90.22377791798225
 20
-157.557307903319
 30
0.0
  0
HATCH
  5
177
330
172
100
AcDbEntity
  8
レイヤー 1
 62
   250
420
  2299925
440
 33554687
100
AcDbHatch
 10
0.0
 20
0.0
 30
0.0
210
0.0
220
0.0
230
1.0
  2
SOLID
 70
     1
 71
     1
 91
        1
 92
        1
 93
        1
 72
     4
 94
        3
 73
     0
 74
     0
 95
       26
 96
       22
 40
0.0
 40
0.0
 40
0.0
 40
0.0
 40
1.0
 40
1.0
 40
1.0
 40
2.0
 40
2.0
 40
2.0
 40
3.0
 40
3.0
 40
3.0
 40
4.0
 40
4.0
 40
4.0
 40
5.0
 40
5.0
 40
5.0
 40
6.0
 40
6.0
 40
6.0
 40
7.0
 40
7.0
 40
7.0
 40
7.0
 10
90.22377791798225
 20
-157.557307903319
 10
90.22377791798225
 20
-157.557307903319
 10
90.22377791798225
 20
-156.4531548002964
 10
90.22377791798225
 20
-156.4531548002964
 10
90.22377791798225
 20
-156.4531548002964
 10
89.89373777049532
 20
-156.4531548002964
 10
89.89373777049532
 20
-156.4531548002964
 10
89.89373777049532
 20
-156.4531548002964
 10
89.89373777049532
 20
-156.3050156944307
 10
89.89373777049532
 20
-156.3050156944307
 10
90.2258449752734
 20
-156.2902017838441
 10
90.27235376432427
 20
-156.1272487673918
 10
90.30198158549742
 20
-156.0128715972815
 10
90.30198158549742
 20
-156.0128715972815
 10
90.44805363407203
 20
-156.0128715972815
 10
90.44805363407203
 20
-156.0128715972815
 10
90.44805363407203
 20
-156.0128715972815
 10
90.44805363407203
 20
-157.557307903319
 10
90.44805363407203
 20
-157.557307903319
 10
90.44805363407203
 20
-157.557307903319
 10
90.22377791798225
 20
-157.557307903319
 10
90.22377791798225
 20
-157.557307903319
 97
        0
 97
        1
330
176
 75
     2
 76
     1
 98
        1
 10
0.0
 20
0.0
450
        0
451
        0
460
0.0
461
0.0
452
        0
462
0.0
453
        0
470

  0
SPLINE
  5
178
330
172
100
AcDbEntity
  8
レイヤー 1
100
AcDbSpline
210
0.0
220
0.0
230
1.0
 70
     9
 71
     3
 72
    17
 73
    13
 74
     0
 42
0.0000000001
 43
0.0000000001
 40
0.0
 40
0.0
 40
0.0
 40
0.0
 40
1.0
 40
1.0
 40
1.0
 40
2.0
 40
2.0
 40
2.0
 40
3.0
 40
3.0
 40
3.0
 40
4.0
 40
4.0
 40
4.0
 40
4.0
 10
91.44919838208563
 20
-156.1568765885649
 30
0.0
 10
91.19942895940502
 20
-156.1568765885649
 30
0.0
 10
91.15292017035413
 20
-156.440407947001
 30
0.0
 10
91.15292017035413
 20
-156.7852620050745
 30
0.0
 10
91.15292017035413
 20
-157.1046223565572
 30
0.0
 10
91.18909367294925
 20
-157.4133029120355
 30
0.0
 10
91.44919838208563
 20
-157.4133029120355
 30
0.0
 10
91.69690074747508
 20
-157.4133029120355
 30
0.0
 10
91.7454765938171
 20
-157.1321831204391
 30
0.0
 10
91.7454765938171
 20
-156.7852620050745
 30
0.0
 10
91.7454765938171
 20
-156.4655571440433
 30
0.0
 10
91.70723603393083
 20
-156.1568765885649
 30
0.0
 10
91.44919838208563
 20
-156.1568765885649
 30
0.0
  0
SPLINE
  5
179
330
172
100
AcDbEntity
  8
レイヤー 1
100
AcDbSpline
210
0.0
220
0.0
230
1.0
 70
     9
 71
     3
 72
    29
 73
    25
 74
     0
 42
0.0000000001
 43
0.0000000001
 40
0.0
 40
0.0
 40
0.0
 40
0.0
 40
1.0
 40
1.0
 40
1.0
 40
2.0
 40
2.0
 40
2.0
 40
3.0
 40
3.0
 40
3.0
 40
4.0
 40
4.0
 40
4.0
 40
5.0
 40
5.0
 40
5.0
 40
6.0
 40
6.0
 40
6.0
 40
7.0
 40
7.0
 40
7.0
 40
8.0
 40
8.0
 40
8.0
 40
8.0
 10
91.84710691063198
 20
-157.3795409762801
 30
0.0
 10
91.73893091239513
 20
-157.5890027817833
 30
0.0
 10
91.56564260948707
 20
-157.6079508069522
 30
0.0
 10
91.44919838208563
 20
-157.6079508069522
 30
0.0
 10
91.28831242292445
 20
-157.6079508069522
 30
0.0
 10
91.14671899848067
 20
-157.5614420179013
 30
0.0
 10
91.05163436308778
 20
-157.3795409762801
 30
0.0
 10
90.94793698898177
 20
-157.1848930813635
 30
0.0
 10
90.92864445426437
 20
-156.9478705119783
 30
0.0
 10
90.92864445426437
 20
-156.7852620050745
 30
0.0
 10
90.92864445426437
 20
-156.6412570137911
 30
0.0
 10
90.94586993169063
 20
-156.3894205338193
 30
0.0
 10
91.05163436308778
 20
-156.1906385243204
 30
0.0
 10
91.1594658517761
 20
-155.9877224002392
 30
0.0
 10
91.32035181093728
 20
-155.9642957509395
 30
0.0
 10
91.44919838208563
 20
-155.9642957509395
 30
0.0
 10
91.60801728395563
 20
-155.9642957509395
 30
0.0
 10
91.75167776569056
 20
-156.0087374826992
 30
0.0
 10
91.84710691063198
 20
-156.1906385243204
 30
0.0
 10
91.94632566060716
 20
-156.3832193619458
 30
0.0
 10
91.96975230990686
 20
-156.6116291926179
 30
0.0
 10
91.96975230990686
 20
-156.7852620050745
 30
0.0
 10
91.96975230990686
 20
-156.9564832506914
 30
0.0
 10
91.94839271789833
 20
-157.1869601386546
 30
0.0
 10
91.84710691063198
 20
-157.3795409762801
 30
0.0
  0
HATCH
  5
17A
330
172
100
AcDbEntity
  8
レイヤー 1
 62
   250
420
  2299925
440
 33554687
100
AcDbHatch
 10
0.0
 20
0.0
 30
0.0
210
0.0
220
0.0
230
1.0
  2
SOLID
 70
     1
 71
     1
 91
        2
 92
        1
 93
        1
 72
     4
 94
        3
 73
     0
 74
     0
 95
       17
 96
       13
 40
0.0
 40
0.0
 40
0.0
 40
0.0
 40
1.0
 40
1.0
 40
1.0
 40
2.0
 40
2.0
 40
2.0
 40
3.0
 40
3.0
 40
3.0
 40
4.0
 40
4.0
 40
4.0
 40
4.0
 10
91.44919838208563
 20
-156.1568765885649
 10
91.19942895940502
 20
-156.1568765885649
 10
91.15292017035413
 20
-156.440407947001
 10
91.15292017035413
 20
-156.7852620050745
 10
91.15292017035413
 20
-157.1046223565572
 10
91.18909367294925
 20
-157.4133029120355
 10
91.44919838208563
 20
-157.4133029120355
 10
91.69690074747508
 20
-157.4133029120355
 10
91.7454765938171
 20
-157.1321831204391
 10
91.7454765938171
 20
-156.7852620050745
 10
91.7454765938171
 20
-156.4655571440433
 10
91.70723603393083
 20
-156.1568765885649
 10
91.44919838208563
 20
-156.1568765885649
 97
        0
 97
        1
330
178
 92
        1
 93
        1
 72
     4
 94
        3
 73
     0
 74
     0
 95
       29
 96
       25
 40
0.0
 40
0.0
 40
0.0
 40
0.0
 40
1.0
 40
1.0
 40
1.0
 40
2.0
 40
2.0
 40
2.0
 40
3.0
 40
3.0
 40
3.0
 40
4.0
 40
4.0
 40
4.0
 40
5.0
 40
5.0
 40
5.0
 40
6.0
 40
6.0
 40
6.0
 40
7.0
 40
7.0
 40
7.0
 40
8.0
 40
8.0
 40
8.0
 40
8.0
 10
91.84710691063198
 20
-157.3795409762801
 10
91.73893091239513
 20
-157.5890027817833
 10
91.56564260948707
 20
-157.6079508069522
 10
91.44919838208563
 20
-157.6079508069522
 10
91.28831242292445
 20
-157.6079508069522
 10
91.14671899848067
 20
-157.5614420179013
 10
91.05163436308778
 20
-157.3795409762801
 10
90.94793698898177
 20
-157.1848930813635
 10
90.92864445426437
 20
-156.9478705119783
 10
90.92864445426437
 20
-156.7852620050745
 10
90.92864445426437
 20
-156.6412570137911
 10
90.94586993169063
 20
-156.3894205338193
 10
91.05163436308778
 20
-156.1906385243204
 10
91.1594658517761
 20
-155.9877224002392
 10
91.32035181093728
 20
-155.9642957509395
 10
91.44919838208563
 20
-155.9642957509395
 10
91.60801728395563
 20
-155.9642957509395
 10
91.75167776569056
 20
-156.0087374826992
 10
91.84710691063198
 20
-156.1906385243204
 10
91.94632566060716
 20
-156.3832193619458
 10
91.96975230990686
 20
-156.6116291926179
 10
91.96975230990686
 20
-156.7852620050745
 10
91.96975230990686
 20
-156.9564832506914
 10
91.94839271789833
 20
-157.1869601386546
 10
91.84710691063198
 20
-157.3795409762801
 97
        0
 97
        1
330
179
 75
     2
 76
     1
 98
        1
 10
0.0
 20
0.0
450
        0
451
        0
460
0.0
461
0.0
452
        0
462
0.0
453
        0
470

  0
ENDBLK
  5
175
330
172
100
AcDbEntity
  8
0
100
AcDbBlockEnd
  0
BLOCK
  5
17D
330
17B
100
AcDbEntity
  8
0
100
AcDbBlockBegin
  2
Block_13
 70
     0
 10
0.0
 20
0.0
 30
0.0
  3
Block_13
  1

  0
INSERT
  5
180
330
17B
100
AcDbEntity
  8
レイヤー 1
100
AcDbBlockReference
  2
Block_14
 10
0.0
 20
0.0
 30
0.0
  0
INSERT
  5
187
330
17B
100
AcDbEntity
  8
レイヤー 1
100
AcDbBlockReference
  2
Block_15
 10
0.0
 20
0.0
 30
0.0
  0
ENDBLK
  5
17E
330
17B
100
AcDbEntity
  8
0
100
AcDbBlockEnd
  0
BLOCK
  5
181
330
17F
100
AcDbEntity
  8
0
100
AcDbBlockBegin
  2
Block_14
 70
     0
 10
0.0
 20
0.0
 30
0.0
  3
Block_14
  1

  0
LINE
  5
183
330
17F
100
AcDbEntity
  8
レイヤー 1
 62
    18
420
        0
370
     9
100
AcDbLine
 10
107.2162851666071
 20
-147.3784907933553
 30
0.0
 11
108.027603479242
 21
-147.963114126542
 31
0.0
  0
LINE
  5
184
330
17F
100
AcDbEntity
  8
レイヤー 1
 62
    18
420
        0
370
     9
100
AcDbLine
 10
107.2162851666071
 20
-147.3784907933553
 30
0.0
 11
109.7939264897349
 21
-150.5355696814546
 31
0.0
  0
LINE
  5
185
330
17F
100
AcDbEntity
  8
レイヤー 1
 62
    18
420
        0
370
     9
100
AcDbLine
 10
107.2162851666071
 20
-147.3784907933553
 30
0.0
 11
107.6266009894724
 21
-148.2907388486828
 31
0.0
  0
ENDBLK
  5
182
330
17F
100
AcDbEntity
  8
0
100
AcDbBlockEnd
  0
BLOCK
  5
188
330
186
100
AcDbEntity
  8
0
100
AcDbBlockBegin
  2
Block_15
 70
     0
 10
0.0
 20
0.0
 30
0.0
  3
Block_15
  1

  0
INSERT
  5
18B
330
186
100
AcDbEntity
  8
レイヤー 1
100
AcDbBlockReference
  2
Block_16
 10
0.0
 20
0.0
 30
0.0
  0
ENDBLK
  5
189
330
186
100
AcDbEntity
  8
0
100
AcDbBlockEnd
  0
BLOCK
  5
18C
330
18A
100
AcDbEntity
  8
0
100
AcDbBlockBegin
  2
Block_16
 70
     0
 10
0.0
 20
0.0
 30
0.0
  3
Block_16
  1

  0
SPLINE
  5
18E
330
18A
100
AcDbEntity
  8
レイヤー 1
100
AcDbSpline
210
0.0
220
0.0
230
1.0
 70
     9
 71
     3
 72
    17
 73
    13
 74
     0
 42
0.0000000001
 43
0.0000000001
 40
0.0
 40
0.0
 40
0.0
 40
0.0
 40
1.0
 40
1.0
 40
1.0
 40
2.0
 40
2.0
 40
2.0
 40
3.0
 40
3.0
 40
3.0
 40
4.0
 40
4.0
 40
4.0
 40
4.0
 10
111.4602077629335
 20
-150.9830321888167
 30
0.0
 10
111.4433267950558
 20
-151.0126600099899
 30
0.0
 10
111.3926838914226
 20
-151.1056775880916
 30
0.0
 10
111.3820040954184
 20
-151.1246256132605
 30
0.0
 10
111.5725178757527
 20
-151.1838812556068
 30
0.0
 10
111.5935329582127
 20
-151.1904269370288
 30
0.0
 10
111.6655354538544
 20
-151.2176431913623
 30
0.0
 10
111.7203124720699
 20
-151.1311712946825
 30
0.0
 10
111.7437391213696
 20
-151.0571017417496
 30
0.0
 10
111.7585530319562
 20
-150.9830321888167
 30
0.0
 10
111.7585530319562
 20
-150.9830321888167
 30
0.0
 10
111.4602077629335
 20
-150.9830321888167
 30
0.0
 10
111.4602077629335
 20
-150.9830321888167
 30
0.0
  0
SPLINE
  5
18F
330
18A
100
AcDbEntity
  8
レイヤー 1
100
AcDbSpline
210
0.0
220
0.0
230
1.0
 70
    11
 71
     3
 72
    20
 73
    16
 74
     0
 42
0.0000000001
 43
0.0000000001
 40
0.0
 40
0.0
 40
0.0
 40
0.0
 40
1.0
 40
1.0
 40
1.0
 40
2.0
 40
2.0
 40
2.0
 40
3.0
 40
3.0
 40
3.0
 40
4.0
 40
4.0
 40
4.0
 40
5.0
 40
5.0
 40
5.0
 40
5.0
 10
111.3968180060049
 20
-150.1324381135085
 30
0.0
 10
111.3968180060049
 20
-150.1324381135085
 30
0.0
 10
111.3651231275406
 20
-150.1324381135085
 30
0.0
 10
111.3651231275406
 20
-150.1324381135085
 30
0.0
 10
111.4116319165915
 20
-150.2320013730323
 30
0.0
 10
111.4433267950558
 20
-150.3122720978386
 30
0.0
 10
111.4770887308113
 20
-150.4393961212443
 30
0.0
 10
111.4770887308113
 20
-150.4393961212443
 30
0.0
 10
111.6844834790233
 20
-150.4393961212443
 30
0.0
 10
111.6844834790233
 20
-150.4393961212443
 30
0.0
 10
111.7161783574876
 20
-150.3463785431426
 30
0.0
 10
111.7396050067873
 20
-150.2616291942054
 30
0.0
 10
111.7626871465385
 20
-150.1324381135085
 30
0.0
 10
111.7626871465385
 20
-150.1324381135085
 30
0.0
 10
111.3968180060049
 20
-150.1324381135085
 30
0.0
 10
111.3968180060049
 20
-150.1324381135085
 30
0.0
  0
SPLINE
  5
190
330
18A
100
AcDbEntity
  8
レイヤー 1
100
AcDbSpline
210
0.0
220
0.0
230
1.0
 70
     9
 71
     3
 72
   242
 73
   238
 74
     0
 42
0.0000000001
 43
0.0000000001
 40
0.0
 40
0.0
 40
0.0
 40
0.0
 40
1.0
 40
1.0
 40
1.0
 40
2.0
 40
2.0
 40
2.0
 40
3.0
 40
3.0
 40
3.0
 40
4.0
 40
4.0
 40
4.0
 40
5.0
 40
5.0
 40
5.0
 40
6.0
 40
6.0
 40
6.0
 40
7.0
 40
7.0
 40
7.0
 40
8.0
 40
8.0
 40
8.0
 40
9.0
 40
9.0
 40
9.0
 40
10.0
 40
10.0
 40
10.0
 40
11.0
 40
11.0
 40
11.0
 40
12.0
 40
12.0
 40
12.0
 40
13.0
 40
13.0
 40
13.0
 40
14.0
 40
14.0
 40
14.0
 40
15.0
 40
15.0
 40
15.0
 40
16.0
 40
16.0
 40
16.0
 40
17.0
 40
17.0
 40
17.0
 40
18.0
 40
18.0
 40
18.0
 40
19.0
 40
19.0
 40
19.0
 40
20.0
 40
20.0
 40
20.0
 40
21.0
 40
21.0
 40
21.0
 40
22.0
 40
22.0
 40
22.0
 40
23.0
 40
23.0
 40
23.0
 40
24.0
 40
24.0
 40
24.0
 40
25.0
 40
25.0
 40
25.0
 40
26.0
 40
26.0
 40
26.0
 40
27.0
 40
27.0
 40
27.0
 40
28.0
 40
28.0
 40
28.0
 40
29.0
 40
29.0
 40
29.0
 40
30.0
 40
30.0
 40
30.0
 40
31.0
 40
31.0
 40
31.0
 40
32.0
 40
32.0
 40
32.0
 40
33.0
 40
33.0
 40
33.0
 40
34.0
 40
34.0
 40
34.0
 40
35.0
 40
35.0
 40
35.0
 40
36.0
 40
36.0
 40
36.0
 40
37.0
 40
37.0
 40
37.0
 40
38.0
 40
38.0
 40
38.0
 40
39.0
 40
39.0
 40
39.0
 40
40.0
 40
40.0
 40
40.0
 40
41.0
 40
41.0
 40
41.0
 40
42.0
 40
42.0
 40
42.0
 40
43.0
 40
43.0
 40
43.0
 40
44.0
 40
44.0
 40
44.0
 40
45.0
 40
45.0
 40
45.0
 40
46.0
 40
46.0
 40
46.0
 40
47.0
 40
47.0
 40
47.0
 40
48.0
 40
48.0
 40
48.0
 40
49.0
 40
49.0
 40
49.0
 40
50.0
 40
50.0
 40
50.0
 40
51.0
 40
51.0
 40
51.0
 40
52.0
 40
52.0
 40
52.0
 40
53.0
 40
53.0
 40
53.0
 40
54.0
 40
54.0
 40
54.0
 40
55.0
 40
55.0
 40
55.0
 40
56.0
 40
56.0
 40
56.0
 40
57.0
 40
57.0
 40
57.0
 40
58.0
 40
58.0
 40
58.0
 40
59.0
 40
59.0
 40
59.0
 40
60.0
 40
60.0
 40
60.0
 40
61.0
 40
61.0
 40
61.0
 40
62.0
 40
62.0
 40
62.0
 40
63.0
 40
63.0
 40
63.0
 40
64.0
 40
64.0
 40
64.0
 40
65.0
 40
65.0
 40
65.0
 40
66.0
 40
66.0
 40
66.0
 40
67.0
 40
67.0
 40
67.0
 40
68.0
 40
68.0
 40
68.0
 40
69.0
 40
69.0
 40
69.0
 40
70.0
 40
70.0
 40
70.0
 40
71.0
 40
71.0
 40
71.0
 40
72.0
 40
72.0
 40
72.0
 40
73.0
 40
73.0
 40
73.0
 40
74.0
 40
74.0
 40
74.0
 40
75.0
 40
75.0
 40
75.0
 40
76.0
 40
76.0
 40
76.0
 40
77.0
 40
77.0
 40
77.0
 40
78.0
 40
78.0
 40
78.0
 40
79.0
 40
79.0
 40
79.0
 40
79.0
 10
112.0252034225145
 20
-150.5978705135658
 30
0.0
 10
112.0252034225145
 20
-150.5978705135658
 30
0.0
 10
111.7712998852516
 20
-150.5978705135658
 30
0.0
 10
111.7712998852516
 20
-150.5978705135658
 30
0.0
 10
111.7712998852516
 20
-150.5978705135658
 30
0.0
 10
111.493969698689
 20
-150.5978705135658
 30
0.0
 10
111.493969698689
 20
-150.5978705135658
 30
0.0
 10
111.493969698689
 20
-150.5978705135658
 30
0.0
 10
111.6210937220947
 20
-150.6402451880344
 30
0.0
 10
111.6210937220947
 20
-150.6402451880344
 30
0.0
 10
111.631773518099
 20
-150.6443793026167
 30
0.0
 10
111.6441758618459
 20
-150.6509249840386
 30
0.0
 10
111.6441758618459
 20
-150.6636718373341
 30
0.0
 10
111.6441758618459
 20
-150.6846869197941
 30
0.0
 10
111.6124809833816
 20
-150.6908880916675
 30
0.0
 10
111.5914659009215
 20
-150.6953667157984
 30
0.0
 10
111.5807861049173
 20
-150.7184488555495
 30
0.0
 10
111.5511582837441
 20
-150.7842501793178
 30
0.0
 10
111.5322102585753
 20
-150.8286919110775
 30
0.0
 10
111.5322102585753
 20
-150.8286919110775
 30
0.0
 10
111.8029947637159
 20
-150.8286919110775
 30
0.0
 10
111.8029947637159
 20
-150.8286919110775
 30
0.0
 10
111.8939452845265
 20
-150.8286919110775
 30
0.0
 10
112.0906602367343
 20
-150.8242132869467
 30
0.0
 10
112.232253661178
 20
-150.8159450577821
 30
0.0
 10
112.232253661178
 20
-150.8159450577821
 30
0.0
 10
112.232253661178
 20
-150.993711984821
 30
0.0
 10
112.232253661178
 20
-150.993711984821
 30
0.0
 10
112.1499158790806
 20
-150.9892333606902
 30
0.0
 10
112.1289007966205
 20
-150.9892333606902
 30
0.0
 10
111.9490668122905
 20
-150.9850992461079
 30
0.0
 10
111.9173719338262
 20
-151.1394395238471
 30
0.0
 10
111.8729302020665
 20
-151.2200547582019
 30
0.0
 10
111.8284884703067
 20
-151.289645687004
 30
0.0
 10
111.9490668122905
 20
-151.3489013293503
 30
0.0
 10
112.0548312436877
 20
-151.4167697104097
 30
0.0
 10
112.1585286177937
 20
-151.4991074925071
 30
0.0
 10
112.1585286177937
 20
-151.4991074925071
 30
0.0
 10
112.0400173331011
 20
-151.6661946235418
 30
0.0
 10
112.0400173331011
 20
-151.6661946235418
 30
0.0
 10
112.0165906838014
 20
-151.6472465983729
 30
0.0
 10
112.003843830506
 20
-151.6386338596598
 30
0.0
 10
111.8918782272353
 20
-151.5542290202712
 30
0.0
 10
111.8433023808933
 20
-151.5159884603849
 30
0.0
 10
111.784046738547
 20
-151.4801594673383
 30
0.0
 10
111.7034315041922
 20
-151.4357177355786
 30
0.0
 10
111.4919026413978
 20
-151.621752891782
 30
0.0
 10
111.2869194600255
 20
-151.6451795410818
 30
0.0
 10
110.9968424201674
 20
-151.6748073622549
 30
0.0
 10
110.9968424201674
 20
-151.6748073622549
 30
0.0
 10
110.8931450460614
 20
-151.4949733779249
 30
0.0
 10
110.8931450460614
 20
-151.4949733779249
 30
0.0
 10
111.2107828498015
 20
-151.4908392633425
 30
0.0
 10
111.3861382100007
 20
-151.4653455567517
 30
0.0
 10
111.5384114304487
 20
-151.3554470107722
 30
0.0
 10
111.4199001457561
 20
-151.3044595975905
 30
0.0
 10
111.3313611917852
 20
-151.2768988337086
 30
0.0
 10
111.2951876891901
 20
-151.2644964899616
 30
0.0
 10
111.2762396640212
 20
-151.2917127442951
 30
0.0
 10
111.2614257534346
 20
-151.3110052790125
 30
0.0
 10
111.2338649895526
 20
-151.344767214768
 30
0.0
 10
111.2338649895526
 20
-151.344767214768
 30
0.0
 10
111.0371500373449
 20
-151.262084923122
 30
0.0
 10
111.0371500373449
 20
-151.262084923122
 30
0.0
 10
111.1194878194423
 20
-151.1818141983156
 30
0.0
 10
111.1811550286283
 20
-151.0867295629227
 30
0.0
 10
111.2379991041349
 20
-150.9850992461079
 30
0.0
 10
111.0478298333491
 20
-150.9892333606902
 30
0.0
 10
111.0264702413406
 20
-150.9892333606902
 30
0.0
 10
110.9441324592431
 20
-150.993711984821
 30
0.0
 10
110.9441324592431
 20
-150.993711984821
 30
0.0
 10
110.9441324592431
 20
-150.8159450577821
 30
0.0
 10
110.9441324592431
 20
-150.8159450577821
 30
0.0
 10
111.0836588263957
 20
-150.8221462296555
 30
0.0
 10
111.2931206318989
 20
-150.8262803442379
 30
0.0
 10
111.3186143384898
 20
-150.8262803442379
 30
0.0
 10
111.3354953063675
 20
-150.7925184084824
 30
0.0
 10
111.390272324583
 20
-150.6719400664987
 30
0.0
 10
111.4095648593004
 20
-150.5978705135658
 30
0.0
 10
111.390272324583
 20
-150.5978705135658
 30
0.0
 10
111.2128499070926
 20
-150.6044161949878
 30
0.0
 10
111.018202012176
 20
-150.6171630482832
 30
0.0
 10
111.018202012176
 20
-150.6171630482832
 30
0.0
 10
111.018202012176
 20
-150.7501437340138
 30
0.0
 10
111.018202012176
 20
-150.7501437340138
 30
0.0
 10
110.969626165834
 20
-150.7756374406047
 30
0.0
 10
110.9103705234877
 20
-150.807332319069
 30
0.0
 10
110.7770453282085
 20
-150.8731336428373
 30
0.0
 10
110.7770453282085
 20
-150.8731336428373
 30
0.0
 10
110.7770453282085
 20
-151.0188611818633
 30
0.0
 10
110.7770453282085
 20
-151.0188611818633
 30
0.0
 10
110.7770453282085
 20
-151.0188611818633
 30
0.0
 10
110.7770453282085
 20
-151.4863606392117
 30
0.0
 10
110.7770453282085
 20
-151.4863606392117
 30
0.0
 10
110.7770453282085
 20
-151.6134846626175
 30
0.0
 10
110.7408718256134
 20
-151.6727403049637
 30
0.0
 10
110.4573404671773
 20
-151.6641275662506
 30
0.0
 10
110.4573404671773
 20
-151.6641275662506
 30
0.0
 10
110.3539876026198
 20
-151.4567328180386
 30
0.0
 10
110.3539876026198
 20
-151.4567328180386
 30
0.0
 10
110.4173773595484
 20
-151.469479671334
 30
0.0
 10
110.4659532058904
 20
-151.4739582954648
 30
0.0
 10
110.5062608230679
 20
-151.4739582954648
 30
0.0
 10
110.5823974332919
 20
-151.4739582954648
 30
0.0
 10
110.5927327197476
 20
-151.4505316461651
 30
0.0
 10
110.5927327197476
 20
-151.3850748319454
 30
0.0
 10
110.5927327197476
 20
-151.3850748319454
 30
0.0
 10
110.5927327197476
 20
-150.9554714249347
 30
0.0
 10
110.5927327197476
 20
-150.9554714249347
 30
0.0
 10
110.4955810270636
 20
-150.9957790421121
 30
0.0
 10
110.4787000591858
 20
-151.0019802139856
 30
0.0
 10
110.432191270135
 20
-151.0209282391545
 30
0.0
 10
110.4280571555527
 20
-151.042287831163
 30
0.0
 10
110.4235785314219
 20
-151.0719156523362
 30
0.0
 10
110.404630506253
 20
-151.0719156523362
 30
0.0
 10
110.3960177675399
 20
-151.0719156523362
 30
0.0
 10
110.3856824810841
 20
-151.0674370282053
 30
0.0
 10
110.3791367996621
 20
-151.0443548884542
 30
0.0
 10
110.3791367996621
 20
-151.0443548884542
 30
0.0
 10
110.3264268387378
 20
-150.8517740508287
 30
0.0
 10
110.3264268387378
 20
-150.8517740508287
 30
0.0
 10
110.4721543777639
 20
-150.8052652617778
 30
0.0
 10
110.5379557015321
 20
-150.7821831220267
 30
0.0
 10
110.5927327197476
 20
-150.7608235300181
 30
0.0
 10
110.5927327197476
 20
-150.7608235300181
 30
0.0
 10
110.5927327197476
 20
-150.3484456004337
 30
0.0
 10
110.5927327197476
 20
-150.3484456004337
 30
0.0
 10
110.5927327197476
 20
-150.3484456004337
 30
0.0
 10
110.5400227588233
 20
-150.3484456004337
 30
0.0
 10
110.5400227588233
 20
-150.3484456004337
 30
0.0
 10
110.5400227588233
 20
-150.3484456004337
 30
0.0
 10
110.4618190913081
 20
-150.3484456004337
 30
0.0
 10
110.4618190913081
 20
-150.3484456004337
 30
0.0
 10
110.3939507102487
 20
-150.3484456004337
 30
0.0
 10
110.3856824810841
 20
-150.3484456004337
 30
0.0
 10
110.349508978489
 20
-150.3546467723072
 30
0.0
 10
110.349508978489
 20
-150.3546467723072
 30
0.0
 10
110.349508978489
 20
-150.1599988773905
 30
0.0
 10
110.349508978489
 20
-150.1599988773905
 30
0.0
 10
110.377069742371
 20
-150.1665445588125
 30
0.0
 10
110.3856824810841
 20
-150.1665445588125
 30
0.0
 10
110.4552734098862
 20
-150.1665445588125
 30
0.0
 10
110.4552734098862
 20
-150.1665445588125
 30
0.0
 10
110.5885986051653
 20
-150.1665445588125
 30
0.0
 10
110.5885986051653
 20
-150.1665445588125
 30
0.0
 10
110.5885986051653
 20
-150.096609120462
 30
0.0
 10
110.5885986051653
 20
-150.013926828816
 30
0.0
 10
110.5865315478742
 20
-150.0097927142336
 30
0.0
 10
110.5779188091611
 20
-149.8299587299036
 30
0.0
 10
110.5779188091611
 20
-149.8110107047347
 30
0.0
 10
110.5758517518699
 20
-149.7645019156839
 30
0.0
 10
110.5758517518699
 20
-149.7645019156839
 30
0.0
 10
110.7918592387951
 20
-149.7727701448485
 30
0.0
 10
110.7918592387951
 20
-149.7727701448485
 30
0.0
 10
110.8021945252508
 20
-149.7727701448485
 30
0.0
 10
110.8235541172594
 20
-149.7751817116881
 30
0.0
 10
110.8235541172594
 20
-149.7920626795659
 30
0.0
 10
110.8235541172594
 20
-149.8110107047347
 30
0.0
 10
110.8087402066728
 20
-149.821690500739
 30
0.0
 10
110.7832465000819
 20
-149.8406385259079
 30
0.0
 10
110.7832465000819
 20
-149.891281429541
 30
0.0
 10
110.7770453282085
 20
-150.1200357697616
 30
0.0
 10
110.7791123854996
 20
-150.1665445588125
 30
0.0
 10
110.907958956648
 20
-150.1665445588125
 30
0.0
 10
110.9207058099434
 20
-150.1665445588125
 30
0.0
 10
111.018202012176
 20
-150.1579318200994
 30
0.0
 10
111.018202012176
 20
-150.1579318200994
 30
0.0
 10
111.018202012176
 20
-150.352579715016
 30
0.0
 10
111.018202012176
 20
-150.352579715016
 30
0.0
 10
110.9799614522897
 20
-150.3505126577249
 30
0.0
 10
110.9124375807788
 20
-150.3463785431426
 30
0.0
 10
110.7770453282085
 20
-150.3484456004337
 30
0.0
 10
110.7770453282085
 20
-150.3484456004337
 30
0.0
 10
110.7770453282085
 20
-150.6867539770852
 30
0.0
 10
110.7770453282085
 20
-150.6867539770852
 30
0.0
 10
110.831822346424
 20
-150.6636718373341
 30
0.0
 10
110.8976236701922
 20
-150.6361110734521
 30
0.0
 10
110.9461995165343
 20
-150.6126844241524
 30
0.0
 10
110.9461995165343
 20
-150.6126844241524
 30
0.0
 10
110.9461995165343
 20
-150.4349174971135
 30
0.0
 10
110.9461995165343
 20
-150.4349174971135
 30
0.0
 10
111.0605766866445
 20
-150.4476643504089
 30
0.0
 10
111.1787434617886
 20
-150.4476643504089
 30
0.0
 10
111.2951876891901
 20
-150.4476643504089
 30
0.0
 10
111.2721055494389
 20
-150.352579715016
 30
0.0
 10
111.2445447855569
 20
-150.26989742337
 30
0.0
 10
111.1811550286283
 20
-150.1369167376394
 30
0.0
 10
111.1367132968686
 20
-150.1389837949305
 30
0.0
 10
111.0540310052226
 20
-150.1431179095128
 30
0.0
 10
111.0161349548848
 20
-150.145184966804
 30
0.0
 10
111.0161349548848
 20
-150.145184966804
 30
0.0
 10
111.0161349548848
 20
-149.9653509824739
 30
0.0
 10
111.0161349548848
 20
-149.9653509824739
 30
0.0
 10
111.1408474114509
 20
-149.973963721187
 30
0.0
 10
111.3141357143589
 20
-149.9780978357694
 30
0.0
 10
111.3968180060049
 20
-149.9780978357694
 30
0.0
 10
111.3968180060049
 20
-149.9780978357694
 30
0.0
 10
111.4791557881024
 20
-149.9780978357694
 30
0.0
 10
111.4791557881024
 20
-149.9780978357694
 30
0.0
 10
111.4791557881024
 20
-149.815144819317
 30
0.0
 10
111.4791557881024
 20
-149.8048095328613
 30
0.0
 10
111.4770887308113
 20
-149.7496880050973
 30
0.0
 10
111.4770887308113
 20
-149.7496880050973
 30
0.0
 10
111.701364446901
 20
-149.7751817116881
 30
0.0
 10
111.701364446901
 20
-149.7751817116881
 30
0.0
 10
111.7054985614833
 20
-149.7751817116881
 30
0.0
 10
111.7268581534919
 20
-149.7772487689793
 30
0.0
 10
111.7268581534919
 20
-149.794129736857
 30
0.0
 10
111.7268581534919
 20
-149.8089436474436
 30
0.0
 10
111.7161783574876
 20
-149.8172118766082
 30
0.0
 10
111.6886175936056
 20
-149.8320257871947
 30
0.0
 10
111.6824164217322
 20
-149.897827110963
 30
0.0
 10
111.680349364441
 20
-149.9188421934231
 30
0.0
 10
111.680349364441
 20
-149.9780978357694
 30
0.0
 10
111.680349364441
 20
-149.9780978357694
 30
0.0
 10
111.7754339998339
 20
-149.9780978357694
 30
0.0
 10
111.7754339998339
 20
-149.9780978357694
 30
0.0
 10
111.8581162914799
 20
-149.9780978357694
 30
0.0
 10
112.031404594388
 20
-149.973963721187
 30
0.0
 10
112.156117050954
 20
-149.9653509824739
 30
0.0
 10
112.156117050954
 20
-149.9653509824739
 30
0.0
 10
112.156117050954
 20
-150.145184966804
 30
0.0
 10
112.156117050954
 20
-150.145184966804
 30
0.0
 10
112.1264892297809
 20
-150.1431179095128
 30
0.0
 10
112.0083224546368
 20
-150.1389837949305
 30
0.0
 10
111.9680148374594
 20
-150.1369167376394
 30
0.0
 10
111.9532009268728
 20
-150.1875596412725
 30
0.0
 10
111.9194389911174
 20
-150.2995252445432
 30
0.0
 10
111.8536376673491
 20
-150.4393961212443
 30
0.0
 10
111.8960123418176
 20
-150.4393961212443
 30
0.0
 10
112.1733425283802
 20
-150.4201035865269
 30
0.0
 10
112.2346652280177
 20
-150.4180365292357
 30
0.0
 10
112.2346652280177
 20
-150.4180365292357
 30
0.0
 10
112.2346652280177
 20
-150.6023491376966
 30
0.0
 10
112.2346652280177
 20
-150.6023491376966
 30
0.0
 10
112.2050374068445
 20
-150.6023491376966
 30
0.0
 10
112.1881564389668
 20
-150.5978705135658
 30
0.0
 10
112.0252034225145
 20
-150.5978705135658
 30
0.0
  0
HATCH
  5
191
330
18A
100
AcDbEntity
  8
レイヤー 1
 62
    18
420
        0
440
 33554687
100
AcDbHatch
 10
0.0
 20
0.0
 30
0.0
210
0.0
220
0.0
230
1.0
  2
SOLID
 70
     1
 71
     1
 91
        3
 92
        1
 93
        1
 72
     4
 94
        3
 73
     0
 74
     0
 95
       17
 96
       13
 40
0.0
 40
0.0
 40
0.0
 40
0.0
 40
1.0
 40
1.0
 40
1.0
 40
2.0
 40
2.0
 40
2.0
 40
3.0
 40
3.0
 40
3.0
 40
4.0
 40
4.0
 40
4.0
 40
4.0
 10
111.4602077629335
 20
-150.9830321888167
 10
111.4433267950558
 20
-151.0126600099899
 10
111.3926838914226
 20
-151.1056775880916
 10
111.3820040954184
 20
-151.1246256132605
 10
111.5725178757527
 20
-151.1838812556068
 10
111.5935329582127
 20
-151.1904269370288
 10
111.6655354538544
 20
-151.2176431913623
 10
111.7203124720699
 20
-151.1311712946825
 10
111.7437391213696
 20
-151.0571017417496
 10
111.7585530319562
 20
-150.9830321888167
 10
111.7585530319562
 20
-150.9830321888167
 10
111.4602077629335
 20
-150.9830321888167
 10
111.4602077629335
 20
-150.9830321888167
 97
        0
 97
        1
330
18E
 92
        1
 93
        1
 72
     4
 94
        3
 73
     0
 74
     0
 95
       20
 96
       16
 40
0.0
 40
0.0
 40
0.0
 40
0.0
 40
1.0
 40
1.0
 40
1.0
 40
2.0
 40
2.0
 40
2.0
 40
3.0
 40
3.0
 40
3.0
 40
4.0
 40
4.0
 40
4.0
 40
5.0
 40
5.0
 40
5.0
 40
5.0
 10
111.3968180060049
 20
-150.1324381135085
 10
111.3968180060049
 20
-150.1324381135085
 10
111.3651231275406
 20
-150.1324381135085
 10
111.3651231275406
 20
-150.1324381135085
 10
111.4116319165915
 20
-150.2320013730323
 10
111.4433267950558
 20
-150.3122720978386
 10
111.4770887308113
 20
-150.4393961212443
 10
111.4770887308113
 20
-150.4393961212443
 10
111.6844834790233
 20
-150.4393961212443
 10
111.6844834790233
 20
-150.4393961212443
 10
111.7161783574876
 20
-150.3463785431426
 10
111.7396050067873
 20
-150.2616291942054
 10
111.7626871465385
 20
-150.1324381135085
 10
111.7626871465385
 20
-150.1324381135085
 10
111.3968180060049
 20
-150.1324381135085
 10
111.3968180060049
 20
-150.1324381135085
 97
        0
 97
        1
330
18F
 92
        1
 93
        1
 72
     4
 94
        3
 73
     0
 74
     0
 95
      242
 96
      238
 40
0.0
 40
0.0
 40
0.0
 40
0.0
 40
1.0
 40
1.0
 40
1.0
 40
2.0
 40
2.0
 40
2.0
 40
3.0
 40
3.0
 40
3.0
 40
4.0
 40
4.0
 40
4.0
 40
5.0
 40
5.0
 40
5.0
 40
6.0
 40
6.0
 40
6.0
 40
7.0
 40
7.0
 40
7.0
 40
8.0
 40
8.0
 40
8.0
 40
9.0
 40
9.0
 40
9.0
 40
10.0
 40
10.0
 40
10.0
 40
11.0
 40
11.0
 40
11.0
 40
12.0
 40
12.0
 40
12.0
 40
13.0
 40
13.0
 40
13.0
 40
14.0
 40
14.0
 40
14.0
 40
15.0
 40
15.0
 40
15.0
 40
16.0
 40
16.0
 40
16.0
 40
17.0
 40
17.0
 40
17.0
 40
18.0
 40
18.0
 40
18.0
 40
19.0
 40
19.0
 40
19.0
 40
20.0
 40
20.0
 40
20.0
 40
21.0
 40
21.0
 40
21.0
 40
22.0
 40
22.0
 40
22.0
 40
23.0
 40
23.0
 40
23.0
 40
24.0
 40
24.0
 40
24.0
 40
25.0
 40
25.0
 40
25.0
 40
26.0
 40
26.0
 40
26.0
 40
27.0
 40
27.0
 40
27.0
 40
28.0
 40
28.0
 40
28.0
 40
29.0
 40
29.0
 40
29.0
 40
30.0
 40
30.0
 40
30.0
 40
31.0
 40
31.0
 40
31.0
 40
32.0
 40
32.0
 40
32.0
 40
33.0
 40
33.0
 40
33.0
 40
34.0
 40
34.0
 40
34.0
 40
35.0
 40
35.0
 40
35.0
 40
36.0
 40
36.0
 40
36.0
 40
37.0
 40
37.0
 40
37.0
 40
38.0
 40
38.0
 40
38.0
 40
39.0
 40
39.0
 40
39.0
 40
40.0
 40
40.0
 40
40.0
 40
41.0
 40
41.0
 40
41.0
 40
42.0
 40
42.0
 40
42.0
 40
43.0
 40
43.0
 40
43.0
 40
44.0
 40
44.0
 40
44.0
 40
45.0
 40
45.0
 40
45.0
 40
46.0
 40
46.0
 40
46.0
 40
47.0
 40
47.0
 40
47.0
 40
48.0
 40
48.0
 40
48.0
 40
49.0
 40
49.0
 40
49.0
 40
50.0
 40
50.0
 40
50.0
 40
51.0
 40
51.0
 40
51.0
 40
52.0
 40
52.0
 40
52.0
 40
53.0
 40
53.0
 40
53.0
 40
54.0
 40
54.0
 40
54.0
 40
55.0
 40
55.0
 40
55.0
 40
56.0
 40
56.0
 40
56.0
 40
57.0
 40
57.0
 40
57.0
 40
58.0
 40
58.0
 40
58.0
 40
59.0
 40
59.0
 40
59.0
 40
60.0
 40
60.0
 40
60.0
 40
61.0
 40
61.0
 40
61.0
 40
62.0
 40
62.0
 40
62.0
 40
63.0
 40
63.0
 40
63.0
 40
64.0
 40
64.0
 40
64.0
 40
65.0
 40
65.0
 40
65.0
 40
66.0
 40
66.0
 40
66.0
 40
67.0
 40
67.0
 40
67.0
 40
68.0
 40
68.0
 40
68.0
 40
69.0
 40
69.0
 40
69.0
 40
70.0
 40
70.0
 40
70.0
 40
71.0
 40
71.0
 40
71.0
 40
72.0
 40
72.0
 40
72.0
 40
73.0
 40
73.0
 40
73.0
 40
74.0
 40
74.0
 40
74.0
 40
75.0
 40
75.0
 40
75.0
 40
76.0
 40
76.0
 40
76.0
 40
77.0
 40
77.0
 40
77.0
 40
78.0
 40
78.0
 40
78.0
 40
79.0
 40
79.0
 40
79.0
 40
79.0
 10
112.0252034225145
 20
-150.5978705135658
 10
112.0252034225145
 20
-150.5978705135658
 10
111.7712998852516
 20
-150.5978705135658
 10
111.7712998852516
 20
-150.5978705135658
 10
111.7712998852516
 20
-150.5978705135658
 10
111.493969698689
 20
-150.5978705135658
 10
111.493969698689
 20
-150.5978705135658
 10
111.493969698689
 20
-150.5978705135658
 10
111.6210937220947
 20
-150.6402451880344
 10
111.6210937220947
 20
-150.6402451880344
 10
111.631773518099
 20
-150.6443793026167
 10
111.6441758618459
 20
-150.6509249840386
 10
111.6441758618459
 20
-150.6636718373341
 10
111.6441758618459
 20
-150.6846869197941
 10
111.6124809833816
 20
-150.6908880916675
 10
111.5914659009215
 20
-150.6953667157984
 10
111.5807861049173
 20
-150.7184488555495
 10
111.5511582837441
 20
-150.7842501793178
 10
111.5322102585753
 20
-150.8286919110775
 10
111.5322102585753
 20
-150.8286919110775
 10
111.8029947637159
 20
-150.8286919110775
 10
111.8029947637159
 20
-150.8286919110775
 10
111.8939452845265
 20
-150.8286919110775
 10
112.0906602367343
 20
-150.8242132869467
 10
112.232253661178
 20
-150.8159450577821
 10
112.232253661178
 20
-150.8159450577821
 10
112.232253661178
 20
-150.993711984821
 10
112.232253661178
 20
-150.993711984821
 10
112.1499158790806
 20
-150.9892333606902
 10
112.1289007966205
 20
-150.9892333606902
 10
111.9490668122905
 20
-150.9850992461079
 10
111.9173719338262
 20
-151.1394395238471
 10
111.8729302020665
 20
-151.2200547582019
 10
111.8284884703067
 20
-151.289645687004
 10
111.9490668122905
 20
-151.3489013293503
 10
112.0548312436877
 20
-151.4167697104097
 10
112.1585286177937
 20
-151.4991074925071
 10
112.1585286177937
 20
-151.4991074925071
 10
112.0400173331011
 20
-151.6661946235418
 10
112.0400173331011
 20
-151.6661946235418
 10
112.0165906838014
 20
-151.6472465983729
 10
112.003843830506
 20
-151.6386338596598
 10
111.8918782272353
 20
-151.5542290202712
 10
111.8433023808933
 20
-151.5159884603849
 10
111.784046738547
 20
-151.4801594673383
 10
111.7034315041922
 20
-151.4357177355786
 10
111.4919026413978
 20
-151.621752891782
 10
111.2869194600255
 20
-151.6451795410818
 10
110.9968424201674
 20
-151.6748073622549
 10
110.9968424201674
 20
-151.6748073622549
 10
110.8931450460614
 20
-151.4949733779249
 10
110.8931450460614
 20
-151.4949733779249
 10
111.2107828498015
 20
-151.4908392633425
 10
111.3861382100007
 20
-151.4653455567517
 10
111.5384114304487
 20
-151.3554470107722
 10
111.4199001457561
 20
-151.3044595975905
 10
111.3313611917852
 20
-151.2768988337086
 10
111.2951876891901
 20
-151.2644964899616
 10
111.2762396640212
 20
-151.2917127442951
 10
111.2614257534346
 20
-151.3110052790125
 10
111.2338649895526
 20
-151.344767214768
 10
111.2338649895526
 20
-151.344767214768
 10
111.0371500373449
 20
-151.262084923122
 10
111.0371500373449
 20
-151.262084923122
 10
111.1194878194423
 20
-151.1818141983156
 10
111.1811550286283
 20
-151.0867295629227
 10
111.2379991041349
 20
-150.9850992461079
 10
111.0478298333491
 20
-150.9892333606902
 10
111.0264702413406
 20
-150.9892333606902
 10
110.9441324592431
 20
-150.993711984821
 10
110.9441324592431
 20
-150.993711984821
 10
110.9441324592431
 20
-150.8159450577821
 10
110.9441324592431
 20
-150.8159450577821
 10
111.0836588263957
 20
-150.8221462296555
 10
111.2931206318989
 20
-150.8262803442379
 10
111.3186143384898
 20
-150.8262803442379
 10
111.3354953063675
 20
-150.7925184084824
 10
111.390272324583
 20
-150.6719400664987
 10
111.4095648593004
 20
-150.5978705135658
 10
111.390272324583
 20
-150.5978705135658
 10
111.2128499070926
 20
-150.6044161949878
 10
111.018202012176
 20
-150.6171630482832
 10
111.018202012176
 20
-150.6171630482832
 10
111.018202012176
 20
-150.7501437340138
 10
111.018202012176
 20
-150.7501437340138
 10
110.969626165834
 20
-150.7756374406047
 10
110.9103705234877
 20
-150.807332319069
 10
110.7770453282085
 20
-150.8731336428373
 10
110.7770453282085
 20
-150.8731336428373
 10
110.7770453282085
 20
-151.0188611818633
 10
110.7770453282085
 20
-151.0188611818633
 10
110.7770453282085
 20
-151.0188611818633
 10
110.7770453282085
 20
-151.4863606392117
 10
110.7770453282085
 20
-151.4863606392117
 10
110.7770453282085
 20
-151.6134846626175
 10
110.7408718256134
 20
-151.6727403049637
 10
110.4573404671773
 20
-151.6641275662506
 10
110.4573404671773
 20
-151.6641275662506
 10
110.3539876026198
 20
-151.4567328180386
 10
110.3539876026198
 20
-151.4567328180386
 10
110.4173773595484
 20
-151.469479671334
 10
110.4659532058904
 20
-151.4739582954648
 10
110.5062608230679
 20
-151.4739582954648
 10
110.5823974332919
 20
-151.4739582954648
 10
110.5927327197476
 20
-151.4505316461651
 10
110.5927327197476
 20
-151.3850748319454
 10
110.5927327197476
 20
-151.3850748319454
 10
110.5927327197476
 20
-150.9554714249347
 10
110.5927327197476
 20
-150.9554714249347
 10
110.4955810270636
 20
-150.9957790421121
 10
110.4787000591858
 20
-151.0019802139856
 10
110.432191270135
 20
-151.0209282391545
 10
110.4280571555527
 20
-151.042287831163
 10
110.4235785314219
 20
-151.0719156523362
 10
110.404630506253
 20
-151.0719156523362
 10
110.3960177675399
 20
-151.0719156523362
 10
110.3856824810841
 20
-151.0674370282053
 10
110.3791367996621
 20
-151.0443548884542
 10
110.3791367996621
 20
-151.0443548884542
 10
110.3264268387378
 20
-150.8517740508287
 10
110.3264268387378
 20
-150.8517740508287
 10
110.4721543777639
 20
-150.8052652617778
 10
110.5379557015321
 20
-150.7821831220267
 10
110.5927327197476
 20
-150.7608235300181
 10
110.5927327197476
 20
-150.7608235300181
 10
110.5927327197476
 20
-150.3484456004337
 10
110.5927327197476
 20
-150.3484456004337
 10
110.5927327197476
 20
-150.3484456004337
 10
110.5400227588233
 20
-150.3484456004337
 10
110.5400227588233
 20
-150.3484456004337
 10
110.5400227588233
 20
-150.3484456004337
 10
110.4618190913081
 20
-150.3484456004337
 10
110.4618190913081
 20
-150.3484456004337
 10
110.3939507102487
 20
-150.3484456004337
 10
110.3856824810841
 20
-150.3484456004337
 10
110.349508978489
 20
-150.3546467723072
 10
110.349508978489
 20
-150.3546467723072
 10
110.349508978489
 20
-150.1599988773905
 10
110.349508978489
 20
-150.1599988773905
 10
110.377069742371
 20
-150.1665445588125
 10
110.3856824810841
 20
-150.1665445588125
 10
110.4552734098862
 20
-150.1665445588125
 10
110.4552734098862
 20
-150.1665445588125
 10
110.5885986051653
 20
-150.1665445588125
 10
110.5885986051653
 20
-150.1665445588125
 10
110.5885986051653
 20
-150.096609120462
 10
110.5885986051653
 20
-150.013926828816
 10
110.5865315478742
 20
-150.0097927142336
 10
110.5779188091611
 20
-149.8299587299036
 10
110.5779188091611
 20
-149.8110107047347
 10
110.5758517518699
 20
-149.7645019156839
 10
110.5758517518699
 20
-149.7645019156839
 10
110.7918592387951
 20
-149.7727701448485
 10
110.7918592387951
 20
-149.7727701448485
 10
110.8021945252508
 20
-149.7727701448485
 10
110.8235541172594
 20
-149.7751817116881
 10
110.8235541172594
 20
-149.7920626795659
 10
110.8235541172594
 20
-149.8110107047347
 10
110.8087402066728
 20
-149.821690500739
 10
110.7832465000819
 20
-149.8406385259079
 10
110.7832465000819
 20
-149.891281429541
 10
110.7770453282085
 20
-150.1200357697616
 10
110.7791123854996
 20
-150.1665445588125
 10
110.907958956648
 20
-150.1665445588125
 10
110.9207058099434
 20
-150.1665445588125
 10
111.018202012176
 20
-150.1579318200994
 10
111.018202012176
 20
-150.1579318200994
 10
111.018202012176
 20
-150.352579715016
 10
111.018202012176
 20
-150.352579715016
 10
110.9799614522897
 20
-150.3505126577249
 10
110.9124375807788
 20
-150.3463785431426
 10
110.7770453282085
 20
-150.3484456004337
 10
110.7770453282085
 20
-150.3484456004337
 10
110.7770453282085
 20
-150.6867539770852
 10
110.7770453282085
 20
-150.6867539770852
 10
110.831822346424
 20
-150.6636718373341
 10
110.8976236701922
 20
-150.6361110734521
 10
110.9461995165343
 20
-150.6126844241524
 10
110.9461995165343
 20
-150.6126844241524
 10
110.9461995165343
 20
-150.4349174971135
 10
110.9461995165343
 20
-150.4349174971135
 10
111.0605766866445
 20
-150.4476643504089
 10
111.1787434617886
 20
-150.4476643504089
 10
111.2951876891901
 20
-150.4476643504089
 10
111.2721055494389
 20
-150.352579715016
 10
111.2445447855569
 20
-150.26989742337
 10
111.1811550286283
 20
-150.1369167376394
 10
111.1367132968686
 20
-150.1389837949305
 10
111.0540310052226
 20
-150.1431179095128
 10
111.0161349548848
 20
-150.145184966804
 10
111.0161349548848
 20
-150.145184966804
 10
111.0161349548848
 20
-149.9653509824739
 10
111.0161349548848
 20
-149.9653509824739
 10
111.1408474114509
 20
-149.973963721187
 10
111.3141357143589
 20
-149.9780978357694
 10
111.3968180060049
 20
-149.9780978357694
 10
111.3968180060049
 20
-149.9780978357694
 10
111.4791557881024
 20
-149.9780978357694
 10
111.4791557881024
 20
-149.9780978357694
 10
111.4791557881024
 20
-149.815144819317
 10
111.4791557881024
 20
-149.8048095328613
 10
111.4770887308113
 20
-149.7496880050973
 10
111.4770887308113
 20
-149.7496880050973
 10
111.701364446901
 20
-149.7751817116881
 10
111.701364446901
 20
-149.7751817116881
 10
111.7054985614833
 20
-149.7751817116881
 10
111.7268581534919
 20
-149.7772487689793
 10
111.7268581534919
 20
-149.794129736857
 10
111.7268581534919
 20
-149.8089436474436
 10
111.7161783574876
 20
-149.8172118766082
 10
111.6886175936056
 20
-149.8320257871947
 10
111.6824164217322
 20
-149.897827110963
 10
111.680349364441
 20
-149.9188421934231
 10
111.680349364441
 20
-149.9780978357694
 10
111.680349364441
 20
-149.9780978357694
 10
111.7754339998339
 20
-149.9780978357694
 10
111.7754339998339
 20
-149.9780978357694
 10
111.8581162914799
 20
-149.9780978357694
 10
112.031404594388
 20
-149.973963721187
 10
112.156117050954
 20
-149.9653509824739
 10
112.156117050954
 20
-149.9653509824739
 10
112.156117050954
 20
-150.145184966804
 10
112.156117050954
 20
-150.145184966804
 10
112.1264892297809
 20
-150.1431179095128
 10
112.0083224546368
 20
-150.1389837949305
 10
111.9680148374594
 20
-150.1369167376394
 10
111.9532009268728
 20
-150.1875596412725
 10
111.9194389911174
 20
-150.2995252445432
 10
111.8536376673491
 20
-150.4393961212443
 10
111.8960123418176
 20
-150.4393961212443
 10
112.1733425283802
 20
-150.4201035865269
 10
112.2346652280177
 20
-150.4180365292357
 10
112.2346652280177
 20
-150.4180365292357
 10
112.2346652280177
 20
-150.6023491376966
 10
112.2346652280177
 20
-150.6023491376966
 10
112.2050374068445
 20
-150.6023491376966
 10
112.1881564389668
 20
-150.5978705135658
 10
112.0252034225145
 20
-150.5978705135658
 97
        0
 97
        1
330
190
 75
     2
 76
     1
 98
        1
 10
0.0
 20
0.0
450
        0
451
        0
460
0.0
461
0.0
452
        0
462
0.0
453
        0
470

  0
SPLINE
  5
192
330
18A
100
AcDbEntity
  8
レイヤー 1
100
AcDbSpline
210
0.0
220
0.0
230
1.0
 70
    11
 71
     3
 72
    17
 73
    13
 74
     0
 42
0.0000000001
 43
0.0000000001
 40
0.0
 40
0.0
 40
0.0
 40
0.0
 40
1.0
 40
1.0
 40
1.0
 40
2.0
 40
2.0
 40
2.0
 40
3.0
 40
3.0
 40
3.0
 40
4.0
 40
4.0
 40
4.0
 40
4.0
 10
113.8814208699671
 20
-151.3974771756923
 30
0.0
 10
113.8814208699671
 20
-151.3974771756923
 30
0.0
 10
113.1748317859424
 20
-151.3974771756923
 30
0.0
 10
113.1748317859424
 20
-151.3974771756923
 30
0.0
 10
113.1748317859424
 20
-151.3974771756923
 30
0.0
 10
113.1748317859424
 20
-151.5118543458026
 30
0.0
 10
113.1748317859424
 20
-151.5118543458026
 30
0.0
 10
113.1748317859424
 20
-151.5118543458026
 30
0.0
 10
113.8814208699671
 20
-151.5118543458026
 30
0.0
 10
113.8814208699671
 20
-151.5118543458026
 30
0.0
 10
113.8814208699671
 20
-151.5118543458026
 30
0.0
 10
113.8814208699671
 20
-151.3974771756923
 30
0.0
 10
113.8814208699671
 20
-151.3974771756923
 30
0.0
  0
SPLINE
  5
193
330
18A
100
AcDbEntity
  8
レイヤー 1
100
AcDbSpline
210
0.0
220
0.0
230
1.0
 70
    11
 71
     3
 72
    17
 73
    13
 74
     0
 42
0.0000000001
 43
0.0000000001
 40
0.0
 40
0.0
 40
0.0
 40
0.0
 40
1.0
 40
1.0
 40
1.0
 40
2.0
 40
2.0
 40
2.0
 40
3.0
 40
3.0
 40
3.0
 40
4.0
 40
4.0
 40
4.0
 40
4.0
 10
113.8814208699671
 20
-151.1542534344336
 30
0.0
 10
113.8814208699671
 20
-151.1542534344336
 30
0.0
 10
113.1748317859424
 20
-151.1542534344336
 30
0.0
 10
113.1748317859424
 20
-151.1542534344336
 30
0.0
 10
113.1748317859424
 20
-151.1542534344336
 30
0.0
 10
113.1748317859424
 20
-151.268630604544
 30
0.0
 10
113.1748317859424
 20
-151.268630604544
 30
0.0
 10
113.1748317859424
 20
-151.268630604544
 30
0.0
 10
113.8814208699671
 20
-151.268630604544
 30
0.0
 10
113.8814208699671
 20
-151.268630604544
 30
0.0
 10
113.8814208699671
 20
-151.268630604544
 30
0.0
 10
113.8814208699671
 20
-151.1542534344336
 30
0.0
 10
113.8814208699671
 20
-151.1542534344336
 30
0.0
  0
SPLINE
  5
194
330
18A
100
AcDbEntity
  8
レイヤー 1
100
AcDbSpline
210
0.0
220
0.0
230
1.0
 70
    11
 71
     3
 72
    17
 73
    13
 74
     0
 42
0.0000000001
 43
0.0000000001
 40
0.0
 40
0.0
 40
0.0
 40
0.0
 40
1.0
 40
1.0
 40
1.0
 40
2.0
 40
2.0
 40
2.0
 40
3.0
 40
3.0
 40
3.0
 40
4.0
 40
4.0
 40
4.0
 40
4.0
 10
113.8814208699671
 20
-150.9217094891793
 30
0.0
 10
113.8814208699671
 20
-150.9217094891793
 30
0.0
 10
113.1748317859424
 20
-150.9217094891793
 30
0.0
 10
113.1748317859424
 20
-150.9217094891793
 30
0.0
 10
113.1748317859424
 20
-150.9217094891793
 30
0.0
 10
113.1748317859424
 20
-151.0295409778676
 30
0.0
 10
113.1748317859424
 20
-151.0295409778676
 30
0.0
 10
113.1748317859424
 20
-151.0295409778676
 30
0.0
 10
113.8814208699671
 20
-151.0295409778676
 30
0.0
 10
113.8814208699671
 20
-151.0295409778676
 30
0.0
 10
113.8814208699671
 20
-151.0295409778676
 30
0.0
 10
113.8814208699671
 20
-150.9217094891793
 30
0.0
 10
113.8814208699671
 20
-150.9217094891793
 30
0.0
  0
SPLINE
  5
195
330
18A
100
AcDbEntity
  8
レイヤー 1
100
AcDbSpline
210
0.0
220
0.0
230
1.0
 70
     9
 71
     3
 72
   203
 73
   199
 74
     0
 42
0.0000000001
 43
0.0000000001
 40
0.0
 40
0.0
 40
0.0
 40
0.0
 40
1.0
 40
1.0
 40
1.0
 40
2.0
 40
2.0
 40
2.0
 40
3.0
 40
3.0
 40
3.0
 40
4.0
 40
4.0
 40
4.0
 40
5.0
 40
5.0
 40
5.0
 40
6.0
 40
6.0
 40
6.0
 40
7.0
 40
7.0
 40
7.0
 40
8.0
 40
8.0
 40
8.0
 40
9.0
 40
9.0
 40
9.0
 40
10.0
 40
10.0
 40
10.0
 40
11.0
 40
11.0
 40
11.0
 40
12.0
 40
12.0
 40
12.0
 40
13.0
 40
13.0
 40
13.0
 40
14.0
 40
14.0
 40
14.0
 40
15.0
 40
15.0
 40
15.0
 40
16.0
 40
16.0
 40
16.0
 40
17.0
 40
17.0
 40
17.0
 40
18.0
 40
18.0
 40
18.0
 40
19.0
 40
19.0
 40
19.0
 40
20.0
 40
20.0
 40
20.0
 40
21.0
 40
21.0
 40
21.0
 40
22.0
 40
22.0
 40
22.0
 40
23.0
 40
23.0
 40
23.0
 40
24.0
 40
24.0
 40
24.0
 40
25.0
 40
25.0
 40
25.0
 40
26.0
 40
26.0
 40
26.0
 40
27.0
 40
27.0
 40
27.0
 40
28.0
 40
28.0
 40
28.0
 40
29.0
 40
29.0
 40
29.0
 40
30.0
 40
30.0
 40
30.0
 40
31.0
 40
31.0
 40
31.0
 40
32.0
 40
32.0
 40
32.0
 40
33.0
 40
33.0
 40
33.0
 40
34.0
 40
34.0
 40
34.0
 40
35.0
 40
35.0
 40
35.0
 40
36.0
 40
36.0
 40
36.0
 40
37.0
 40
37.0
 40
37.0
 40
38.0
 40
38.0
 40
38.0
 40
39.0
 40
39.0
 40
39.0
 40
40.0
 40
40.0
 40
40.0
 40
41.0
 40
41.0
 40
41.0
 40
42.0
 40
42.0
 40
42.0
 40
43.0
 40
43.0
 40
43.0
 40
44.0
 40
44.0
 40
44.0
 40
45.0
 40
45.0
 40
45.0
 40
46.0
 40
46.0
 40
46.0
 40
47.0
 40
47.0
 40
47.0
 40
48.0
 40
48.0
 40
48.0
 40
49.0
 40
49.0
 40
49.0
 40
50.0
 40
50.0
 40
50.0
 40
51.0
 40
51.0
 40
51.0
 40
52.0
 40
52.0
 40
52.0
 40
53.0
 40
53.0
 40
53.0
 40
54.0
 40
54.0
 40
54.0
 40
55.0
 40
55.0
 40
55.0
 40
56.0
 40
56.0
 40
56.0
 40
57.0
 40
57.0
 40
57.0
 40
58.0
 40
58.0
 40
58.0
 40
59.0
 40
59.0
 40
59.0
 40
60.0
 40
60.0
 40
60.0
 40
61.0
 40
61.0
 40
61.0
 40
62.0
 40
62.0
 40
62.0
 40
63.0
 40
63.0
 40
63.0
 40
64.0
 40
64.0
 40
64.0
 40
65.0
 40
65.0
 40
65.0
 40
66.0
 40
66.0
 40
66.0
 40
66.0
 10
113.7164007962237
 20
-150.6657388946252
 30
0.0
 10
113.7164007962237
 20
-150.6657388946252
 30
0.0
 10
113.1579508180647
 20
-150.6657388946252
 30
0.0
 10
113.1579508180647
 20
-150.6657388946252
 30
0.0
 10
113.1476155316089
 20
-150.7101806263849
 30
0.0
 10
113.1390027928958
 20
-150.7418755048492
 30
0.0
 10
113.1262559396004
 20
-150.779771555187
 30
0.0
 10
113.1517496461912
 20
-150.779771555187
 30
0.0
 10
113.1665635567778
 20
-150.7821831220267
 30
0.0
 10
113.1727647286512
 20
-150.7821831220267
 30
0.0
 10
113.1727647286512
 20
-150.7821831220267
 30
0.0
 10
113.3612114516944
 20
-150.7821831220267
 30
0.0
 10
113.3612114516944
 20
-150.7821831220267
 30
0.0
 10
113.3612114516944
 20
-150.7821831220267
 30
0.0
 10
113.735693330941
 20
-150.7821831220267
 30
0.0
 10
113.735693330941
 20
-150.7821831220267
 30
0.0
 10
113.7863362345742
 20
-150.7821831220267
 30
0.0
 10
114.0698675930103
 20
-150.7694362687312
 30
0.0
 10
114.1015624714746
 20
-150.7694362687312
 30
0.0
 10
114.0994954141834
 20
-150.7966525230647
 30
0.0
 10
114.0974283568923
 20
-150.8159450577821
 30
0.0
 10
114.0974283568923
 20
-150.8455728789552
 30
0.0
 10
114.0953612996011
 20
-150.8772677574196
 30
0.0
 10
114.0953612996011
 20
-151.0126600099899
 30
0.0
 10
114.0953612996011
 20
-151.0402207738719
 30
0.0
 10
114.0953612996011
 20
-151.0402207738719
 30
0.0
 10
114.0953612996011
 20
-151.2855115724217
 30
0.0
 10
114.0953612996011
 20
-151.2855115724217
 30
0.0
 10
114.0953612996011
 20
-151.3299533041814
 30
0.0
 10
114.0994954141834
 20
-151.5266682563892
 30
0.0
 10
114.1036295287657
 20
-151.6789414768372
 30
0.0
 10
114.1036295287657
 20
-151.6789414768372
 30
0.0
 10
113.8772867553848
 20
-151.6789414768372
 30
0.0
 10
113.8772867553848
 20
-151.6789414768372
 30
0.0
 10
113.8772867553848
 20
-151.6789414768372
 30
0.0
 10
113.879353812676
 20
-151.6451795410818
 30
0.0
 10
113.879353812676
 20
-151.6451795410818
 30
0.0
 10
113.879353812676
 20
-151.6451795410818
 30
0.0
 10
113.1772433527821
 20
-151.6451795410818
 30
0.0
 10
113.1772433527821
 20
-151.6451795410818
 30
0.0
 10
113.1772433527821
 20
-151.6451795410818
 30
0.0
 10
113.1793104100732
 20
-151.6789414768372
 30
0.0
 10
113.1793104100732
 20
-151.6789414768372
 30
0.0
 10
113.1793104100732
 20
-151.6789414768372
 30
0.0
 10
112.9612358658569
 20
-151.6789414768372
 30
0.0
 10
112.9612358658569
 20
-151.6789414768372
 30
0.0
 10
112.9653699804392
 20
-151.6238199490732
 30
0.0
 10
112.9653699804392
 20
-151.6114176053263
 30
0.0
 10
112.9719156618612
 20
-151.497040435216
 30
0.0
 10
112.9739827191523
 20
-151.469479671334
 30
0.0
 10
112.9760497764435
 20
-151.3361544760548
 30
0.0
 10
112.9760497764435
 20
-151.3172064508859
 30
0.0
 10
112.9760497764435
 20
-151.3172064508859
 30
0.0
 10
112.9760497764435
 20
-151.1142903268047
 30
0.0
 10
112.9760497764435
 20
-151.1142903268047
 30
0.0
 10
112.8365234092909
 20
-151.3637152399368
 30
0.0
 10
112.6673692209651
 20
-151.4949733779249
 30
0.0
 10
112.5616047895679
 20
-151.5604301921446
 30
0.0
 10
112.5616047895679
 20
-151.5604301921446
 30
0.0
 10
112.3879719771113
 20
-151.420903824992
 30
0.0
 10
112.3879719771113
 20
-151.420903824992
 30
0.0
 10
112.4768554406308
 20
-151.3702609213588
 30
0.0
 10
112.6208604319142
 20
-151.2834445151305
 30
0.0
 10
112.7583197417757
 20
-151.0887966202139
 30
0.0
 10
112.8492702625863
 20
-150.9616725968082
 30
0.0
 10
112.914727076806
 20
-150.8180121150733
 30
0.0
 10
112.9484890125615
 20
-150.6657388946252
 30
0.0
 10
112.7200791818894
 20
-150.6678059519164
 30
0.0
 10
112.5402451975594
 20
-150.6740071237898
 30
0.0
 10
112.4451605621665
 20
-150.676074181081
 30
0.0
 10
112.4451605621665
 20
-150.676074181081
 30
0.0
 10
112.4451605621665
 20
-150.4986517635906
 30
0.0
 10
112.4451605621665
 20
-150.4986517635906
 30
0.0
 10
112.6418755143742
 20
-150.504852935464
 30
0.0
 10
112.9254068728103
 20
-150.5089870500463
 30
0.0
 10
113.0756130359672
 20
-150.5089870500463
 30
0.0
 10
113.0756130359672
 20
-150.5089870500463
 30
0.0
 10
113.2892089560527
 20
-150.5089870500463
 30
0.0
 10
113.2892089560527
 20
-150.5089870500463
 30
0.0
 10
113.2892089560527
 20
-150.5089870500463
 30
0.0
 10
113.2892089560527
 20
-150.401155561358
 30
0.0
 10
113.2892089560527
 20
-150.401155561358
 30
0.0
 10
113.2892089560527
 20
-150.401155561358
 30
0.0
 10
113.1431369074781
 20
-150.401155561358
 30
0.0
 10
113.1431369074781
 20
-150.401155561358
 30
0.0
 10
112.9739827191523
 20
-150.401155561358
 30
0.0
 10
112.8048285308265
 20
-150.4052896759403
 30
0.0
 10
112.6377413997919
 20
-150.4118353573623
 30
0.0
 10
112.6377413997919
 20
-150.4118353573623
 30
0.0
 10
112.6377413997919
 20
-150.2406141117454
 30
0.0
 10
112.6377413997919
 20
-150.2406141117454
 30
0.0
 10
112.7920816775311
 20
-150.2509493982011
 30
0.0
 10
112.9781168337346
 20
-150.2509493982011
 30
0.0
 10
113.1431369074781
 20
-150.2509493982011
 30
0.0
 10
113.1431369074781
 20
-150.2509493982011
 30
0.0
 10
113.2892089560527
 20
-150.2509493982011
 30
0.0
 10
113.2892089560527
 20
-150.2509493982011
 30
0.0
 10
113.2892089560527
 20
-150.2509493982011
 30
0.0
 10
113.2892089560527
 20
-150.1324381135085
 30
0.0
 10
113.2892089560527
 20
-150.1324381135085
 30
0.0
 10
113.2892089560527
 20
-150.1324381135085
 30
0.0
 10
113.1579508180647
 20
-150.1324381135085
 30
0.0
 10
113.1579508180647
 20
-150.1324381135085
 30
0.0
 10
113.1114420290138
 20
-150.1324381135085
 30
0.0
 10
112.9085259049326
 20
-150.1410508522217
 30
0.0
 10
112.866151230464
 20
-150.1410508522217
 30
0.0
 10
112.6628905968343
 20
-150.145184966804
 30
0.0
 10
112.5867539866102
 20
-150.1472520240951
 30
0.0
 10
112.5085503190951
 20
-150.1493190813863
 30
0.0
 10
112.5085503190951
 20
-150.1493190813863
 30
0.0
 10
112.5085503190951
 20
-149.9653509824739
 30
0.0
 10
112.5085503190951
 20
-149.9653509824739
 30
0.0
 10
112.6229274892054
 20
-149.973963721187
 30
0.0
 10
112.6673692209651
 20
-149.973963721187
 30
0.0
 10
113.0501193293763
 20
-149.9822319503516
 30
0.0
 10
112.9867295724477
 20
-149.8871473149588
 30
0.0
 10
112.9591688085657
 20
-149.8595865510768
 30
0.0
 10
112.9233398155191
 20
-149.8237575580301
 30
0.0
 10
112.9233398155191
 20
-149.8237575580301
 30
0.0
 10
113.0986951757184
 20
-149.7410752663842
 30
0.0
 10
113.0986951757184
 20
-149.7410752663842
 30
0.0
 10
113.1390027928958
 20
-149.7772487689793
 30
0.0
 10
113.1834445246555
 20
-149.8196234434479
 30
0.0
 10
113.2575140775884
 20
-149.9295219894273
 30
0.0
 10
113.2575140775884
 20
-149.9295219894273
 30
0.0
 10
113.1431369074781
 20
-149.9842990076428
 30
0.0
 10
113.1431369074781
 20
-149.9842990076428
 30
0.0
 10
113.1431369074781
 20
-149.9842990076428
 30
0.0
 10
113.1538167034824
 20
-149.9842990076428
 30
0.0
 10
113.1538167034824
 20
-149.9842990076428
 30
0.0
 10
113.1538167034824
 20
-149.9842990076428
 30
0.0
 10
113.6764376885948
 20
-149.9842990076428
 30
0.0
 10
113.6764376885948
 20
-149.9842990076428
 30
0.0
 10
113.6764376885948
 20
-149.9842990076428
 30
0.0
 10
113.5810085436533
 20
-149.9402017854316
 30
0.0
 10
113.5810085436533
 20
-149.9402017854316
 30
0.0
 10
113.6085693075353
 20
-149.9019612255453
 30
0.0
 10
113.6657578925905
 20
-149.821690500739
 30
0.0
 10
113.6805718031771
 20
-149.7476209478061
 30
0.0
 10
113.6805718031771
 20
-149.7476209478061
 30
0.0
 10
113.8941677232625
 20
-149.8110107047347
 30
0.0
 10
113.8941677232625
 20
-149.8110107047347
 30
0.0
 10
113.9027804619757
 20
-149.8130777620259
 30
0.0
 10
113.9237955444357
 20
-149.8237575580301
 30
0.0
 10
113.9237955444357
 20
-149.8447726404902
 30
0.0
 10
113.9237955444357
 20
-149.8830132003764
 30
0.0
 10
113.858338730216
 20
-149.8830132003764
 30
0.0
 10
113.8393907050471
 20
-149.8830132003764
 30
0.0
 10
113.8287109090428
 20
-149.9019612255453
 30
0.0
 10
113.8052842597431
 20
-149.9422688427227
 30
0.0
 10
113.77565643857
 20
-149.9822319503516
 30
0.0
 10
114.1756320244075
 20
-149.9760307784782
 30
0.0
 10
114.2052598455806
 20
-149.973963721187
 30
0.0
 10
114.2813964558046
 20
-149.9674180397651
 30
0.0
 10
114.2813964558046
 20
-149.9674180397651
 30
0.0
 10
114.2813964558046
 20
-150.1493190813863
 30
0.0
 10
114.2813964558046
 20
-150.1493190813863
 30
0.0
 10
114.2624484306358
 20
-150.1493190813863
 30
0.0
 10
114.2369547240449
 20
-150.1472520240951
 30
0.0
 10
114.0168131225374
 20
-150.1389837949305
 30
0.0
 10
113.9661702189043
 20
-150.1369167376394
 30
0.0
 10
113.7460286173968
 20
-150.1324381135085
 30
0.0
 10
113.7015868856371
 20
-150.1324381135085
 30
0.0
 10
113.7015868856371
 20
-150.1324381135085
 30
0.0
 10
113.4859239082604
 20
-150.1324381135085
 30
0.0
 10
113.4859239082604
 20
-150.1324381135085
 30
0.0
 10
113.4859239082604
 20
-150.1324381135085
 30
0.0
 10
113.4859239082604
 20
-150.2509493982011
 30
0.0
 10
113.4859239082604
 20
-150.2509493982011
 30
0.0
 10
113.4859239082604
 20
-150.2509493982011
 30
0.0
 10
113.659556720717
 20
-150.2509493982011
 30
0.0
 10
113.659556720717
 20
-150.2509493982011
 30
0.0
 10
113.8221652276208
 20
-150.2509493982011
 30
0.0
 10
114.0126790079551
 20
-150.2509493982011
 30
0.0
 10
114.169430852534
 20
-150.2406141117454
 30
0.0
 10
114.169430852534
 20
-150.2406141117454
 30
0.0
 10
114.169430852534
 20
-150.4118353573623
 30
0.0
 10
114.169430852534
 20
-150.4118353573623
 30
0.0
 10
113.9599690470308
 20
-150.4032226186492
 30
0.0
 10
113.7632540948231
 20
-150.401155561358
 30
0.0
 10
113.659556720717
 20
-150.401155561358
 30
0.0
 10
113.659556720717
 20
-150.401155561358
 30
0.0
 10
113.4859239082604
 20
-150.401155561358
 30
0.0
 10
113.4859239082604
 20
-150.401155561358
 30
0.0
 10
113.4859239082604
 20
-150.401155561358
 30
0.0
 10
113.4859239082604
 20
-150.5089870500463
 30
0.0
 10
113.4859239082604
 20
-150.5089870500463
 30
0.0
 10
113.4859239082604
 20
-150.5089870500463
 30
0.0
 10
113.7164007962237
 20
-150.5089870500463
 30
0.0
 10
113.7164007962237
 20
-150.5089870500463
 30
0.0
 10
113.8497259915028
 20
-150.5089870500463
 30
0.0
 10
114.1373914645212
 20
-150.504852935464
 30
0.0
 10
114.3468532700244
 20
-150.4986517635906
 30
0.0
 10
114.3468532700244
 20
-150.4986517635906
 30
0.0
 10
114.3468532700244
 20
-150.676074181081
 30
0.0
 10
114.3468532700244
 20
-150.676074181081
 30
0.0
 10
114.1546169419474
 20
-150.6698730092075
 30
0.0
 10
113.8414577623382
 20
-150.6657388946252
 30
0.0
 10
113.7164007962237
 20
-150.6657388946252
 30
0.0
  0
HATCH
  5
196
330
18A
100
AcDbEntity
  8
レイヤー 1
 62
    18
420
        0
440
 33554687
100
AcDbHatch
 10
0.0
 20
0.0
 30
0.0
210
0.0
220
0.0
230
1.0
  2
SOLID
 70
     1
 71
     1
 91
        4
 92
        1
 93
        1
 72
     4
 94
        3
 73
     0
 74
     0
 95
       17
 96
       13
 40
0.0
 40
0.0
 40
0.0
 40
0.0
 40
1.0
 40
1.0
 40
1.0
 40
2.0
 40
2.0
 40
2.0
 40
3.0
 40
3.0
 40
3.0
 40
4.0
 40
4.0
 40
4.0
 40
4.0
 10
113.8814208699671
 20
-151.3974771756923
 10
113.8814208699671
 20
-151.3974771756923
 10
113.1748317859424
 20
-151.3974771756923
 10
113.1748317859424
 20
-151.3974771756923
 10
113.1748317859424
 20
-151.3974771756923
 10
113.1748317859424
 20
-151.5118543458026
 10
113.1748317859424
 20
-151.5118543458026
 10
113.1748317859424
 20
-151.5118543458026
 10
113.8814208699671
 20
-151.5118543458026
 10
113.8814208699671
 20
-151.5118543458026
 10
113.8814208699671
 20
-151.5118543458026
 10
113.8814208699671
 20
-151.3974771756923
 10
113.8814208699671
 20
-151.3974771756923
 97
        0
 97
        1
330
192
 92
        1
 93
        1
 72
     4
 94
        3
 73
     0
 74
     0
 95
       17
 96
       13
 40
0.0
 40
0.0
 40
0.0
 40
0.0
 40
1.0
 40
1.0
 40
1.0
 40
2.0
 40
2.0
 40
2.0
 40
3.0
 40
3.0
 40
3.0
 40
4.0
 40
4.0
 40
4.0
 40
4.0
 10
113.8814208699671
 20
-151.1542534344336
 10
113.8814208699671
 20
-151.1542534344336
 10
113.1748317859424
 20
-151.1542534344336
 10
113.1748317859424
 20
-151.1542534344336
 10
113.1748317859424
 20
-151.1542534344336
 10
113.1748317859424
 20
-151.268630604544
 10
113.1748317859424
 20
-151.268630604544
 10
113.1748317859424
 20
-151.268630604544
 10
113.8814208699671
 20
-151.268630604544
 10
113.8814208699671
 20
-151.268630604544
 10
113.8814208699671
 20
-151.268630604544
 10
113.8814208699671
 20
-151.1542534344336
 10
113.8814208699671
 20
-151.1542534344336
 97
        0
 97
        1
330
193
 92
        1
 93
        1
 72
     4
 94
        3
 73
     0
 74
     0
 95
       17
 96
       13
 40
0.0
 40
0.0
 40
0.0
 40
0.0
 40
1.0
 40
1.0
 40
1.0
 40
2.0
 40
2.0
 40
2.0
 40
3.0
 40
3.0
 40
3.0
 40
4.0
 40
4.0
 40
4.0
 40
4.0
 10
113.8814208699671
 20
-150.9217094891793
 10
113.8814208699671
 20
-150.9217094891793
 10
113.1748317859424
 20
-150.9217094891793
 10
113.1748317859424
 20
-150.9217094891793
 10
113.1748317859424
 20
-150.9217094891793
 10
113.1748317859424
 20
-151.0295409778676
 10
113.1748317859424
 20
-151.0295409778676
 10
113.1748317859424
 20
-151.0295409778676
 10
113.8814208699671
 20
-151.0295409778676
 10
113.8814208699671
 20
-151.0295409778676
 10
113.8814208699671
 20
-151.0295409778676
 10
113.8814208699671
 20
-150.9217094891793
 10
113.8814208699671
 20
-150.9217094891793
 97
        0
 97
        1
330
194
 92
        1
 93
        1
 72
     4
 94
        3
 73
     0
 74
     0
 95
      203
 96
      199
 40
0.0
 40
0.0
 40
0.0
 40
0.0
 40
1.0
 40
1.0
 40
1.0
 40
2.0
 40
2.0
 40
2.0
 40
3.0
 40
3.0
 40
3.0
 40
4.0
 40
4.0
 40
4.0
 40
5.0
 40
5.0
 40
5.0
 40
6.0
 40
6.0
 40
6.0
 40
7.0
 40
7.0
 40
7.0
 40
8.0
 40
8.0
 40
8.0
 40
9.0
 40
9.0
 40
9.0
 40
10.0
 40
10.0
 40
10.0
 40
11.0
 40
11.0
 40
11.0
 40
12.0
 40
12.0
 40
12.0
 40
13.0
 40
13.0
 40
13.0
 40
14.0
 40
14.0
 40
14.0
 40
15.0
 40
15.0
 40
15.0
 40
16.0
 40
16.0
 40
16.0
 40
17.0
 40
17.0
 40
17.0
 40
18.0
 40
18.0
 40
18.0
 40
19.0
 40
19.0
 40
19.0
 40
20.0
 40
20.0
 40
20.0
 40
21.0
 40
21.0
 40
21.0
 40
22.0
 40
22.0
 40
22.0
 40
23.0
 40
23.0
 40
23.0
 40
24.0
 40
24.0
 40
24.0
 40
25.0
 40
25.0
 40
25.0
 40
26.0
 40
26.0
 40
26.0
 40
27.0
 40
27.0
 40
27.0
 40
28.0
 40
28.0
 40
28.0
 40
29.0
 40
29.0
 40
29.0
 40
30.0
 40
30.0
 40
30.0
 40
31.0
 40
31.0
 40
31.0
 40
32.0
 40
32.0
 40
32.0
 40
33.0
 40
33.0
 40
33.0
 40
34.0
 40
34.0
 40
34.0
 40
35.0
 40
35.0
 40
35.0
 40
36.0
 40
36.0
 40
36.0
 40
37.0
 40
37.0
 40
37.0
 40
38.0
 40
38.0
 40
38.0
 40
39.0
 40
39.0
 40
39.0
 40
40.0
 40
40.0
 40
40.0
 40
41.0
 40
41.0
 40
41.0
 40
42.0
 40
42.0
 40
42.0
 40
43.0
 40
43.0
 40
43.0
 40
44.0
 40
44.0
 40
44.0
 40
45.0
 40
45.0
 40
45.0
 40
46.0
 40
46.0
 40
46.0
 40
47.0
 40
47.0
 40
47.0
 40
48.0
 40
48.0
 40
48.0
 40
49.0
 40
49.0
 40
49.0
 40
50.0
 40
50.0
 40
50.0
 40
51.0
 40
51.0
 40
51.0
 40
52.0
 40
52.0
 40
52.0
 40
53.0
 40
53.0
 40
53.0
 40
54.0
 40
54.0
 40
54.0
 40
55.0
 40
55.0
 40
55.0
 40
56.0
 40
56.0
 40
56.0
 40
57.0
 40
57.0
 40
57.0
 40
58.0
 40
58.0
 40
58.0
 40
59.0
 40
59.0
 40
59.0
 40
60.0
 40
60.0
 40
60.0
 40
61.0
 40
61.0
 40
61.0
 40
62.0
 40
62.0
 40
62.0
 40
63.0
 40
63.0
 40
63.0
 40
64.0
 40
64.0
 40
64.0
 40
65.0
 40
65.0
 40
65.0
 40
66.0
 40
66.0
 40
66.0
 40
66.0
 10
113.7164007962237
 20
-150.6657388946252
 10
113.7164007962237
 20
-150.6657388946252
 10
113.1579508180647
 20
-150.6657388946252
 10
113.1579508180647
 20
-150.6657388946252
 10
113.1476155316089
 20
-150.7101806263849
 10
113.1390027928958
 20
-150.7418755048492
 10
113.1262559396004
 20
-150.779771555187
 10
113.1517496461912
 20
-150.779771555187
 10
113.1665635567778
 20
-150.7821831220267
 10
113.1727647286512
 20
-150.7821831220267
 10
113.1727647286512
 20
-150.7821831220267
 10
113.3612114516944
 20
-150.7821831220267
 10
113.3612114516944
 20
-150.7821831220267
 10
113.3612114516944
 20
-150.7821831220267
 10
113.735693330941
 20
-150.7821831220267
 10
113.735693330941
 20
-150.7821831220267
 10
113.7863362345742
 20
-150.7821831220267
 10
114.0698675930103
 20
-150.7694362687312
 10
114.1015624714746
 20
-150.7694362687312
 10
114.0994954141834
 20
-150.7966525230647
 10
114.0974283568923
 20
-150.8159450577821
 10
114.0974283568923
 20
-150.8455728789552
 10
114.0953612996011
 20
-150.8772677574196
 10
114.0953612996011
 20
-151.0126600099899
 10
114.0953612996011
 20
-151.0402207738719
 10
114.0953612996011
 20
-151.0402207738719
 10
114.0953612996011
 20
-151.2855115724217
 10
114.0953612996011
 20
-151.2855115724217
 10
114.0953612996011
 20
-151.3299533041814
 10
114.0994954141834
 20
-151.5266682563892
 10
114.1036295287657
 20
-151.6789414768372
 10
114.1036295287657
 20
-151.6789414768372
 10
113.8772867553848
 20
-151.6789414768372
 10
113.8772867553848
 20
-151.6789414768372
 10
113.8772867553848
 20
-151.6789414768372
 10
113.879353812676
 20
-151.6451795410818
 10
113.879353812676
 20
-151.6451795410818
 10
113.879353812676
 20
-151.6451795410818
 10
113.1772433527821
 20
-151.6451795410818
 10
113.1772433527821
 20
-151.6451795410818
 10
113.1772433527821
 20
-151.6451795410818
 10
113.1793104100732
 20
-151.6789414768372
 10
113.1793104100732
 20
-151.6789414768372
 10
113.1793104100732
 20
-151.6789414768372
 10
112.9612358658569
 20
-151.6789414768372
 10
112.9612358658569
 20
-151.6789414768372
 10
112.9653699804392
 20
-151.6238199490732
 10
112.9653699804392
 20
-151.6114176053263
 10
112.9719156618612
 20
-151.497040435216
 10
112.9739827191523
 20
-151.469479671334
 10
112.9760497764435
 20
-151.3361544760548
 10
112.9760497764435
 20
-151.3172064508859
 10
112.9760497764435
 20
-151.3172064508859
 10
112.9760497764435
 20
-151.1142903268047
 10
112.9760497764435
 20
-151.1142903268047
 10
112.8365234092909
 20
-151.3637152399368
 10
112.6673692209651
 20
-151.4949733779249
 10
112.5616047895679
 20
-151.5604301921446
 10
112.5616047895679
 20
-151.5604301921446
 10
112.3879719771113
 20
-151.420903824992
 10
112.3879719771113
 20
-151.420903824992
 10
112.4768554406308
 20
-151.3702609213588
 10
112.6208604319142
 20
-151.2834445151305
 10
112.7583197417757
 20
-151.0887966202139
 10
112.8492702625863
 20
-150.9616725968082
 10
112.914727076806
 20
-150.8180121150733
 10
112.9484890125615
 20
-150.6657388946252
 10
112.7200791818894
 20
-150.6678059519164
 10
112.5402451975594
 20
-150.6740071237898
 10
112.4451605621665
 20
-150.676074181081
 10
112.4451605621665
 20
-150.676074181081
 10
112.4451605621665
 20
-150.4986517635906
 10
112.4451605621665
 20
-150.4986517635906
 10
112.6418755143742
 20
-150.504852935464
 10
112.9254068728103
 20
-150.5089870500463
 10
113.0756130359672
 20
-150.5089870500463
 10
113.0756130359672
 20
-150.5089870500463
 10
113.2892089560527
 20
-150.5089870500463
 10
113.2892089560527
 20
-150.5089870500463
 10
113.2892089560527
 20
-150.5089870500463
 10
113.2892089560527
 20
-150.401155561358
 10
113.2892089560527
 20
-150.401155561358
 10
113.2892089560527
 20
-150.401155561358
 10
113.1431369074781
 20
-150.401155561358
 10
113.1431369074781
 20
-150.401155561358
 10
112.9739827191523
 20
-150.401155561358
 10
112.8048285308265
 20
-150.4052896759403
 10
112.6377413997919
 20
-150.4118353573623
 10
112.6377413997919
 20
-150.4118353573623
 10
112.6377413997919
 20
-150.2406141117454
 10
112.6377413997919
 20
-150.2406141117454
 10
112.7920816775311
 20
-150.2509493982011
 10
112.9781168337346
 20
-150.2509493982011
 10
113.1431369074781
 20
-150.2509493982011
 10
113.1431369074781
 20
-150.2509493982011
 10
113.2892089560527
 20
-150.2509493982011
 10
113.2892089560527
 20
-150.2509493982011
 10
113.2892089560527
 20
-150.2509493982011
 10
113.2892089560527
 20
-150.1324381135085
 10
113.2892089560527
 20
-150.1324381135085
 10
113.2892089560527
 20
-150.1324381135085
 10
113.1579508180647
 20
-150.1324381135085
 10
113.1579508180647
 20
-150.1324381135085
 10
113.1114420290138
 20
-150.1324381135085
 10
112.9085259049326
 20
-150.1410508522217
 10
112.866151230464
 20
-150.1410508522217
 10
112.6628905968343
 20
-150.145184966804
 10
112.5867539866102
 20
-150.1472520240951
 10
112.5085503190951
 20
-150.1493190813863
 10
112.5085503190951
 20
-150.1493190813863
 10
112.5085503190951
 20
-149.9653509824739
 10
112.5085503190951
 20
-149.9653509824739
 10
112.6229274892054
 20
-149.973963721187
 10
112.6673692209651
 20
-149.973963721187
 10
113.0501193293763
 20
-149.9822319503516
 10
112.9867295724477
 20
-149.8871473149588
 10
112.9591688085657
 20
-149.8595865510768
 10
112.9233398155191
 20
-149.8237575580301
 10
112.9233398155191
 20
-149.8237575580301
 10
113.0986951757184
 20
-149.7410752663842
 10
113.0986951757184
 20
-149.7410752663842
 10
113.1390027928958
 20
-149.7772487689793
 10
113.1834445246555
 20
-149.8196234434479
 10
113.2575140775884
 20
-149.9295219894273
 10
113.2575140775884
 20
-149.9295219894273
 10
113.1431369074781
 20
-149.9842990076428
 10
113.1431369074781
 20
-149.9842990076428
 10
113.1431369074781
 20
-149.9842990076428
 10
113.1538167034824
 20
-149.9842990076428
 10
113.1538167034824
 20
-149.9842990076428
 10
113.1538167034824
 20
-149.9842990076428
 10
113.6764376885948
 20
-149.9842990076428
 10
113.6764376885948
 20
-149.9842990076428
 10
113.6764376885948
 20
-149.9842990076428
 10
113.5810085436533
 20
-149.9402017854316
 10
113.5810085436533
 20
-149.9402017854316
 10
113.6085693075353
 20
-149.9019612255453
 10
113.6657578925905
 20
-149.821690500739
 10
113.6805718031771
 20
-149.7476209478061
 10
113.6805718031771
 20
-149.7476209478061
 10
113.8941677232625
 20
-149.8110107047347
 10
113.8941677232625
 20
-149.8110107047347
 10
113.9027804619757
 20
-149.8130777620259
 10
113.9237955444357
 20
-149.8237575580301
 10
113.9237955444357
 20
-149.8447726404902
 10
113.9237955444357
 20
-149.8830132003764
 10
113.858338730216
 20
-149.8830132003764
 10
113.8393907050471
 20
-149.8830132003764
 10
113.8287109090428
 20
-149.9019612255453
 10
113.8052842597431
 20
-149.9422688427227
 10
113.77565643857
 20
-149.9822319503516
 10
114.1756320244075
 20
-149.9760307784782
 10
114.2052598455806
 20
-149.973963721187
 10
114.2813964558046
 20
-149.9674180397651
 10
114.2813964558046
 20
-149.9674180397651
 10
114.2813964558046
 20
-150.1493190813863
 10
114.2813964558046
 20
-150.1493190813863
 10
114.2624484306358
 20
-150.1493190813863
 10
114.2369547240449
 20
-150.1472520240951
 10
114.0168131225374
 20
-150.1389837949305
 10
113.9661702189043
 20
-150.1369167376394
 10
113.7460286173968
 20
-150.1324381135085
 10
113.7015868856371
 20
-150.1324381135085
 10
113.7015868856371
 20
-150.1324381135085
 10
113.4859239082604
 20
-150.1324381135085
 10
113.4859239082604
 20
-150.1324381135085
 10
113.4859239082604
 20
-150.1324381135085
 10
113.4859239082604
 20
-150.2509493982011
 10
113.4859239082604
 20
-150.2509493982011
 10
113.4859239082604
 20
-150.2509493982011
 10
113.659556720717
 20
-150.2509493982011
 10
113.659556720717
 20
-150.2509493982011
 10
113.8221652276208
 20
-150.2509493982011
 10
114.0126790079551
 20
-150.2509493982011
 10
114.169430852534
 20
-150.2406141117454
 10
114.169430852534
 20
-150.2406141117454
 10
114.169430852534
 20
-150.4118353573623
 10
114.169430852534
 20
-150.4118353573623
 10
113.9599690470308
 20
-150.4032226186492
 10
113.7632540948231
 20
-150.401155561358
 10
113.659556720717
 20
-150.401155561358
 10
113.659556720717
 20
-150.401155561358
 10
113.4859239082604
 20
-150.401155561358
 10
113.4859239082604
 20
-150.401155561358
 10
113.4859239082604
 20
-150.401155561358
 10
113.4859239082604
 20
-150.5089870500463
 10
113.4859239082604
 20
-150.5089870500463
 10
113.4859239082604
 20
-150.5089870500463
 10
113.7164007962237
 20
-150.5089870500463
 10
113.7164007962237
 20
-150.5089870500463
 10
113.8497259915028
 20
-150.5089870500463
 10
114.1373914645212
 20
-150.504852935464
 10
114.3468532700244
 20
-150.4986517635906
 10
114.3468532700244
 20
-150.4986517635906
 10
114.3468532700244
 20
-150.676074181081
 10
114.3468532700244
 20
-150.676074181081
 10
114.1546169419474
 20
-150.6698730092075
 10
113.8414577623382
 20
-150.6657388946252
 10
113.7164007962237
 20
-150.6657388946252
 97
        0
 97
        1
330
195
 75
     2
 76
     1
 98
        1
 10
0.0
 20
0.0
450
        0
451
        0
460
0.0
461
0.0
452
        0
462
0.0
453
        0
470

  0
SPLINE
  5
197
330
18A
100
AcDbEntity
  8
レイヤー 1
100
AcDbSpline
210
0.0
220
0.0
230
1.0
 70
     9
 71
     3
 72
    29
 73
    25
 74
     0
 42
0.0000000001
 43
0.0000000001
 40
0.0
 40
0.0
 40
0.0
 40
0.0
 40
1.0
 40
1.0
 40
1.0
 40
2.0
 40
2.0
 40
2.0
 40
3.0
 40
3.0
 40
3.0
 40
4.0
 40
4.0
 40
4.0
 40
5.0
 40
5.0
 40
5.0
 40
6.0
 40
6.0
 40
6.0
 40
7.0
 40
7.0
 40
7.0
 40
8.0
 40
8.0
 40
8.0
 40
8.0
 10
115.5919107783937
 20
-150.1134900883397
 30
0.0
 10
115.5919107783937
 20
-150.1134900883397
 30
0.0
 10
115.2387884911556
 20
-150.1134900883397
 30
0.0
 10
115.2387884911556
 20
-150.1134900883397
 30
0.0
 10
115.1264783783364
 20
-150.1134900883397
 30
0.0
 10
114.9869520111838
 20
-150.1200357697616
 30
0.0
 10
114.8791205224955
 20
-150.1324381135085
 30
0.0
 10
114.8791205224955
 20
-150.1324381135085
 30
0.0
 10
114.8791205224955
 20
-149.897827110963
 30
0.0
 10
114.8791205224955
 20
-149.897827110963
 30
0.0
 10
114.9976318071881
 20
-149.9126410215496
 30
0.0
 10
115.1815999061004
 20
-149.9167751361319
 30
0.0
 10
115.2387884911556
 20
-149.9167751361319
 30
0.0
 10
115.2387884911556
 20
-149.9167751361319
 30
0.0
 10
115.5919107783937
 20
-149.9167751361319
 30
0.0
 10
115.5919107783937
 20
-149.9167751361319
 30
0.0
 10
115.6112033131111
 20
-149.9167751361319
 30
0.0
 10
115.8141194371923
 20
-149.9167751361319
 30
0.0
 10
115.9557128616361
 20
-149.897827110963
 30
0.0
 10
115.9557128616361
 20
-149.897827110963
 30
0.0
 10
115.9557128616361
 20
-150.1324381135085
 30
0.0
 10
115.9557128616361
 20
-150.1324381135085
 30
0.0
 10
115.7993055266057
 20
-150.1134900883397
 30
0.0
 10
115.6087917462714
 20
-150.1134900883397
 30
0.0
 10
115.5919107783937
 20
-150.1134900883397
 30
0.0
  0
SPLINE
  5
198
330
18A
100
AcDbEntity
  8
レイヤー 1
100
AcDbSpline
210
0.0
220
0.0
230
1.0
 70
     9
 71
     3
 72
    47
 73
    43
 74
     0
 42
0.0000000001
 43
0.0000000001
 40
0.0
 40
0.0
 40
0.0
 40
0.0
 40
1.0
 40
1.0
 40
1.0
 40
2.0
 40
2.0
 40
2.0
 40
3.0
 40
3.0
 40
3.0
 40
4.0
 40
4.0
 40
4.0
 40
5.0
 40
5.0
 40
5.0
 40
6.0
 40
6.0
 40
6.0
 40
7.0
 40
7.0
 40
7.0
 40
8.0
 40
8.0
 40
8.0
 40
9.0
 40
9.0
 40
9.0
 40
10.0
 40
10.0
 40
10.0
 40
11.0
 40
11.0
 40
11.0
 40
12.0
 40
12.0
 40
12.0
 40
13.0
 40
13.0
 40
13.0
 40
14.0
 40
14.0
 40
14.0
 40
14.0
 10
115.6935410952085
 20
-150.6423122453255
 30
0.0
 10
115.6935410952085
 20
-150.6423122453255
 30
0.0
 10
115.5919107783937
 20
-150.6423122453255
 30
0.0
 10
115.5919107783937
 20
-150.6423122453255
 30
0.0
 10
115.5919107783937
 20
-150.7291286515538
 30
0.0
 10
115.5708956959337
 20
-151.1184244413871
 30
0.0
 10
115.3741807437259
 20
-151.338221533346
 30
0.0
 10
115.2219075232778
 20
-151.5077202312203
 30
0.0
 10
115.0145127750658
 20
-151.5773111600223
 30
0.0
 10
114.9297634261287
 20
-151.6048719239043
 30
0.0
 10
114.9297634261287
 20
-151.6048719239043
 30
0.0
 10
114.735115531212
 20
-151.4377847928697
 30
0.0
 10
114.735115531212
 20
-151.4377847928697
 30
0.0
 10
114.8326117334446
 20
-151.4250379395743
 30
0.0
 10
115.0079670936438
 20
-151.4019557998231
 30
0.0
 10
115.196413816687
 20
-151.2135090767799
 30
0.0
 10
115.2704833696199
 20
-151.1415065811382
 30
0.0
 10
115.3741807437259
 20
-151.0019802139856
 30
0.0
 10
115.3741807437259
 20
-150.6423122453255
 30
0.0
 10
115.3741807437259
 20
-150.6423122453255
 30
0.0
 10
115.1433593462142
 20
-150.6423122453255
 30
0.0
 10
115.1433593462142
 20
-150.6423122453255
 30
0.0
 10
114.9573241900107
 20
-150.6423122453255
 30
0.0
 10
114.7712890338072
 20
-150.6467908694563
 30
0.0
 10
114.5849093680551
 20
-150.6616047800429
 30
0.0
 10
114.5849093680551
 20
-150.6616047800429
 30
0.0
 10
114.5849093680551
 20
-150.4414631785355
 30
0.0
 10
114.5849093680551
 20
-150.4414631785355
 30
0.0
 10
114.7733560910983
 20
-150.456277089122
 30
0.0
 10
115.0589545068255
 20
-150.4604112037043
 30
0.0
 10
115.1433593462142
 20
-150.4604112037043
 30
0.0
 10
115.1433593462142
 20
-150.4604112037043
 30
0.0
 10
115.6935410952085
 20
-150.4604112037043
 30
0.0
 10
115.6935410952085
 20
-150.4604112037043
 30
0.0
 10
115.7124891203774
 20
-150.4604112037043
 30
0.0
 10
116.0297824145689
 20
-150.4604112037043
 30
0.0
 10
116.2585367547895
 20
-150.4414631785355
 30
0.0
 10
116.2585367547895
 20
-150.4414631785355
 30
0.0
 10
116.2585367547895
 20
-150.6616047800429
 30
0.0
 10
116.2585367547895
 20
-150.6616047800429
 30
0.0
 10
116.0700900317463
 20
-150.6467908694563
 30
0.0
 10
115.8819878182517
 20
-150.6423122453255
 30
0.0
 10
115.6935410952085
 20
-150.6423122453255
 30
0.0
  0
HATCH
  5
199
330
18A
100
AcDbEntity
  8
レイヤー 1
 62
    18
420
        0
440
 33554687
100
AcDbHatch
 10
0.0
 20
0.0
 30
0.0
210
0.0
220
0.0
230
1.0
  2
SOLID
 70
     1
 71
     1
 91
        2
 92
        1
 93
        1
 72
     4
 94
        3
 73
     0
 74
     0
 95
       29
 96
       25
 40
0.0
 40
0.0
 40
0.0
 40
0.0
 40
1.0
 40
1.0
 40
1.0
 40
2.0
 40
2.0
 40
2.0
 40
3.0
 40
3.0
 40
3.0
 40
4.0
 40
4.0
 40
4.0
 40
5.0
 40
5.0
 40
5.0
 40
6.0
 40
6.0
 40
6.0
 40
7.0
 40
7.0
 40
7.0
 40
8.0
 40
8.0
 40
8.0
 40
8.0
 10
115.5919107783937
 20
-150.1134900883397
 10
115.5919107783937
 20
-150.1134900883397
 10
115.2387884911556
 20
-150.1134900883397
 10
115.2387884911556
 20
-150.1134900883397
 10
115.1264783783364
 20
-150.1134900883397
 10
114.9869520111838
 20
-150.1200357697616
 10
114.8791205224955
 20
-150.1324381135085
 10
114.8791205224955
 20
-150.1324381135085
 10
114.8791205224955
 20
-149.897827110963
 10
114.8791205224955
 20
-149.897827110963
 10
114.9976318071881
 20
-149.9126410215496
 10
115.1815999061004
 20
-149.9167751361319
 10
115.2387884911556
 20
-149.9167751361319
 10
115.2387884911556
 20
-149.9167751361319
 10
115.5919107783937
 20
-149.9167751361319
 10
115.5919107783937
 20
-149.9167751361319
 10
115.6112033131111
 20
-149.9167751361319
 10
115.8141194371923
 20
-149.9167751361319
 10
115.9557128616361
 20
-149.897827110963
 10
115.9557128616361
 20
-149.897827110963
 10
115.9557128616361
 20
-150.1324381135085
 10
115.9557128616361
 20
-150.1324381135085
 10
115.7993055266057
 20
-150.1134900883397
 10
115.6087917462714
 20
-150.1134900883397
 10
115.5919107783937
 20
-150.1134900883397
 97
        0
 97
        1
330
197
 92
        1
 93
        1
 72
     4
 94
        3
 73
     0
 74
     0
 95
       47
 96
       43
 40
0.0
 40
0.0
 40
0.0
 40
0.0
 40
1.0
 40
1.0
 40
1.0
 40
2.0
 40
2.0
 40
2.0
 40
3.0
 40
3.0
 40
3.0
 40
4.0
 40
4.0
 40
4.0
 40
5.0
 40
5.0
 40
5.0
 40
6.0
 40
6.0
 40
6.0
 40
7.0
 40
7.0
 40
7.0
 40
8.0
 40
8.0
 40
8.0
 40
9.0
 40
9.0
 40
9.0
 40
10.0
 40
10.0
 40
10.0
 40
11.0
 40
11.0
 40
11.0
 40
12.0
 40
12.0
 40
12.0
 40
13.0
 40
13.0
 40
13.0
 40
14.0
 40
14.0
 40
14.0
 40
14.0
 10
115.6935410952085
 20
-150.6423122453255
 10
115.6935410952085
 20
-150.6423122453255
 10
115.5919107783937
 20
-150.6423122453255
 10
115.5919107783937
 20
-150.6423122453255
 10
115.5919107783937
 20
-150.7291286515538
 10
115.5708956959337
 20
-151.1184244413871
 10
115.3741807437259
 20
-151.338221533346
 10
115.2219075232778
 20
-151.5077202312203
 10
115.0145127750658
 20
-151.5773111600223
 10
114.9297634261287
 20
-151.6048719239043
 10
114.9297634261287
 20
-151.6048719239043
 10
114.735115531212
 20
-151.4377847928697
 10
114.735115531212
 20
-151.4377847928697
 10
114.8326117334446
 20
-151.4250379395743
 10
115.0079670936438
 20
-151.4019557998231
 10
115.196413816687
 20
-151.2135090767799
 10
115.2704833696199
 20
-151.1415065811382
 10
115.3741807437259
 20
-151.0019802139856
 10
115.3741807437259
 20
-150.6423122453255
 10
115.3741807437259
 20
-150.6423122453255
 10
115.1433593462142
 20
-150.6423122453255
 10
115.1433593462142
 20
-150.6423122453255
 10
114.9573241900107
 20
-150.6423122453255
 10
114.7712890338072
 20
-150.6467908694563
 10
114.5849093680551
 20
-150.6616047800429
 10
114.5849093680551
 20
-150.6616047800429
 10
114.5849093680551
 20
-150.4414631785355
 10
114.5849093680551
 20
-150.4414631785355
 10
114.7733560910983
 20
-150.456277089122
 10
115.0589545068255
 20
-150.4604112037043
 10
115.1433593462142
 20
-150.4604112037043
 10
115.1433593462142
 20
-150.4604112037043
 10
115.6935410952085
 20
-150.4604112037043
 10
115.6935410952085
 20
-150.4604112037043
 10
115.7124891203774
 20
-150.4604112037043
 10
116.0297824145689
 20
-150.4604112037043
 10
116.2585367547895
 20
-150.4414631785355
 10
116.2585367547895
 20
-150.4414631785355
 10
116.2585367547895
 20
-150.6616047800429
 10
116.2585367547895
 20
-150.6616047800429
 10
116.0700900317463
 20
-150.6467908694563
 10
115.8819878182517
 20
-150.6423122453255
 10
115.6935410952085
 20
-150.6423122453255
 97
        0
 97
        1
330
198
 75
     2
 76
     1
 98
        1
 10
0.0
 20
0.0
450
        0
451
        0
460
0.0
461
0.0
452
        0
462
0.0
453
        0
470

  0
SPLINE
  5
19A
330
18A
100
AcDbEntity
  8
レイヤー 1
100
AcDbSpline
210
0.0
220
0.0
230
1.0
 70
     9
 71
     3
 72
    29
 73
    25
 74
     0
 42
0.0000000001
 43
0.0000000001
 40
0.0
 40
0.0
 40
0.0
 40
0.0
 40
1.0
 40
1.0
 40
1.0
 40
2.0
 40
2.0
 40
2.0
 40
3.0
 40
3.0
 40
3.0
 40
4.0
 40
4.0
 40
4.0
 40
5.0
 40
5.0
 40
5.0
 40
6.0
 40
6.0
 40
6.0
 40
7.0
 40
7.0
 40
7.0
 40
8.0
 40
8.0
 40
8.0
 40
8.0
 10
117.5394232562054
 20
-150.8052652617778
 30
0.0
 10
117.5394232562054
 20
-150.8052652617778
 30
0.0
 10
117.0550428309793
 20
-150.8052652617778
 30
0.0
 10
117.0550428309793
 20
-150.8052652617778
 30
0.0
 10
117.0274820670973
 20
-150.8052652617778
 30
0.0
 10
116.7101887729058
 20
-150.8052652617778
 30
0.0
 10
116.4986599101114
 20
-150.8307589683687
 30
0.0
 10
116.4986599101114
 20
-150.8307589683687
 30
0.0
 10
116.4986599101114
 20
-150.599937570857
 30
0.0
 10
116.4986599101114
 20
-150.599937570857
 30
0.0
 10
116.6571343024329
 20
-150.6233642201566
 30
0.0
 10
116.8476480827672
 20
-150.6254312774478
 30
0.0
 10
117.0550428309793
 20
-150.6254312774478
 30
0.0
 10
117.0550428309793
 20
-150.6254312774478
 30
0.0
 10
117.5394232562054
 20
-150.6254312774478
 30
0.0
 10
117.5394232562054
 20
-150.6254312774478
 30
0.0
 10
117.7254584124089
 20
-150.6254312774478
 30
0.0
 10
117.9114935686124
 20
-150.6233642201566
 30
0.0
 10
118.0958061770732
 20
-150.599937570857
 30
0.0
 10
118.0958061770732
 20
-150.599937570857
 30
0.0
 10
118.0958061770732
 20
-150.8307589683687
 30
0.0
 10
118.0958061770732
 20
-150.8307589683687
 30
0.0
 10
117.9114935686124
 20
-150.807332319069
 30
0.0
 10
117.6641357127715
 20
-150.8052652617778
 30
0.0
 10
117.5394232562054
 20
-150.8052652617778
 30
0.0
  0
HATCH
  5
19B
330
18A
100
AcDbEntity
  8
レイヤー 1
 62
    18
420
        0
440
 33554687
100
AcDbHatch
 10
0.0
 20
0.0
 30
0.0
210
0.0
220
0.0
230
1.0
  2
SOLID
 70
     1
 71
     1
 91
        1
 92
        1
 93
        1
 72
     4
 94
        3
 73
     0
 74
     0
 95
       29
 96
       25
 40
0.0
 40
0.0
 40
0.0
 40
0.0
 40
1.0
 40
1.0
 40
1.0
 40
2.0
 40
2.0
 40
2.0
 40
3.0
 40
3.0
 40
3.0
 40
4.0
 40
4.0
 40
4.0
 40
5.0
 40
5.0
 40
5.0
 40
6.0
 40
6.0
 40
6.0
 40
7.0
 40
7.0
 40
7.0
 40
8.0
 40
8.0
 40
8.0
 40
8.0
 10
117.5394232562054
 20
-150.8052652617778
 10
117.5394232562054
 20
-150.8052652617778
 10
117.0550428309793
 20
-150.8052652617778
 10
117.0550428309793
 20
-150.8052652617778
 10
117.0274820670973
 20
-150.8052652617778
 10
116.7101887729058
 20
-150.8052652617778
 10
116.4986599101114
 20
-150.8307589683687
 10
116.4986599101114
 20
-150.8307589683687
 10
116.4986599101114
 20
-150.599937570857
 10
116.4986599101114
 20
-150.599937570857
 10
116.6571343024329
 20
-150.6233642201566
 10
116.8476480827672
 20
-150.6254312774478
 10
117.0550428309793
 20
-150.6254312774478
 10
117.0550428309793
 20
-150.6254312774478
 10
117.5394232562054
 20
-150.6254312774478
 10
117.5394232562054
 20
-150.6254312774478
 10
117.7254584124089
 20
-150.6254312774478
 10
117.9114935686124
 20
-150.6233642201566
 10
118.0958061770732
 20
-150.599937570857
 10
118.0958061770732
 20
-150.599937570857
 10
118.0958061770732
 20
-150.8307589683687
 10
118.0958061770732
 20
-150.8307589683687
 10
117.9114935686124
 20
-150.807332319069
 10
117.6641357127715
 20
-150.8052652617778
 10
117.5394232562054
 20
-150.8052652617778
 97
        0
 97
        1
330
19A
 75
     2
 76
     1
 98
        1
 10
0.0
 20
0.0
450
        0
451
        0
460
0.0
461
0.0
452
        0
462
0.0
453
        0
470

  0
SPLINE
  5
19C
330
18A
100
AcDbEntity
  8
レイヤー 1
100
AcDbSpline
210
0.0
220
0.0
230
1.0
 70
     9
 71
     3
 72
    47
 73
    43
 74
     0
 42
0.0000000001
 43
0.0000000001
 40
0.0
 40
0.0
 40
0.0
 40
0.0
 40
1.0
 40
1.0
 40
1.0
 40
2.0
 40
2.0
 40
2.0
 40
3.0
 40
3.0
 40
3.0
 40
4.0
 40
4.0
 40
4.0
 40
5.0
 40
5.0
 40
5.0
 40
6.0
 40
6.0
 40
6.0
 40
7.0
 40
7.0
 40
7.0
 40
8.0
 40
8.0
 40
8.0
 40
9.0
 40
9.0
 40
9.0
 40
10.0
 40
10.0
 40
10.0
 40
11.0
 40
11.0
 40
11.0
 40
12.0
 40
12.0
 40
12.0
 40
13.0
 40
13.0
 40
13.0
 40
14.0
 40
14.0
 40
14.0
 40
14.0
 10
119.7594427869004
 20
-150.2109862905722
 30
0.0
 10
119.6895073485498
 20
-150.4900390248775
 30
0.0
 10
119.6133707383258
 20
-150.7945854657736
 30
0.0
 10
119.3005560682651
 20
-151.1266926705516
 30
0.0
 10
119.0635334988799
 20
-151.3764620932323
 30
0.0
 10
118.8182427003301
 20
-151.476025352756
 30
0.0
 10
118.712478268933
 20
-151.518055517676
 30
0.0
 10
118.712478268933
 20
-151.518055517676
 30
0.0
 10
118.5178303740164
 20
-151.3361544760548
 30
0.0
 10
118.5178303740164
 20
-151.3361544760548
 30
0.0
 10
118.7038655302198
 20
-151.289645687004
 30
0.0
 10
119.0656005561711
 20
-151.1966281089022
 30
0.0
 10
119.3618787679026
 20
-150.7015678876718
 30
0.0
 10
119.5224202175152
 20
-150.4349174971135
 30
0.0
 10
119.5351670708106
 20
-150.2616291942054
 30
0.0
 10
119.5437798095237
 20
-150.1706786733948
 30
0.0
 10
119.5437798095237
 20
-150.1706786733948
 30
0.0
 10
119.0380397922891
 20
-150.1706786733948
 30
0.0
 10
119.0380397922891
 20
-150.1706786733948
 30
0.0
 10
118.9195285075965
 20
-150.1706786733948
 30
0.0
 10
118.498537839299
 20
-150.1896266985637
 30
0.0
 10
118.3462646188509
 20
-150.200306494568
 30
0.0
 10
118.3462646188509
 20
-150.200306494568
 30
0.0
 10
118.3462646188509
 20
-149.9908446890648
 30
0.0
 10
118.3462646188509
 20
-149.9908446890648
 30
0.0
 10
118.4882025528432
 20
-150.0035915423602
 30
0.0
 10
118.7651882298573
 20
-150.0077256569425
 30
0.0
 10
118.8816324572587
 20
-150.0077256569425
 30
0.0
 10
118.8816324572587
 20
-150.0077256569425
 30
0.0
 10
119.236821801788
 20
-150.0077256569425
 30
0.0
 10
119.236821801788
 20
-150.0077256569425
 30
0.0
 10
119.26438256567
 20
-150.0077256569425
 30
0.0
 10
119.4252685248311
 20
-150.0056585996514
 30
0.0
 10
119.5351670708106
 20
-149.9908446890648
 30
0.0
 10
119.5923556558658
 20
-149.9842990076428
 30
0.0
 10
119.6092366237435
 20
-149.9653509824739
 30
0.0
 10
119.6326632730432
 20
-149.9422688427227
 30
0.0
 10
119.6326632730432
 20
-149.9422688427227
 30
0.0
 10
119.8207654865378
 20
-150.0924750058796
 30
0.0
 10
119.8207654865378
 20
-150.0924750058796
 30
0.0
 10
119.8059515759513
 20
-150.1221028270528
 30
0.0
 10
119.7956162894955
 20
-150.1410508522217
 30
0.0
 10
119.7594427869004
 20
-150.2109862905722
 30
0.0
  0
HATCH
  5
19D
330
18A
100
AcDbEntity
  8
レイヤー 1
 62
    18
420
        0
440
 33554687
100
AcDbHatch
 10
0.0
 20
0.0
 30
0.0
210
0.0
220
0.0
230
1.0
  2
SOLID
 70
     1
 71
     1
 91
        1
 92
        1
 93
        1
 72
     4
 94
        3
 73
     0
 74
     0
 95
       47
 96
       43
 40
0.0
 40
0.0
 40
0.0
 40
0.0
 40
1.0
 40
1.0
 40
1.0
 40
2.0
 40
2.0
 40
2.0
 40
3.0
 40
3.0
 40
3.0
 40
4.0
 40
4.0
 40
4.0
 40
5.0
 40
5.0
 40
5.0
 40
6.0
 40
6.0
 40
6.0
 40
7.0
 40
7.0
 40
7.0
 40
8.0
 40
8.0
 40
8.0
 40
9.0
 40
9.0
 40
9.0
 40
10.0
 40
10.0
 40
10.0
 40
11.0
 40
11.0
 40
11.0
 40
12.0
 40
12.0
 40
12.0
 40
13.0
 40
13.0
 40
13.0
 40
14.0
 40
14.0
 40
14.0
 40
14.0
 10
119.7594427869004
 20
-150.2109862905722
 10
119.6895073485498
 20
-150.4900390248775
 10
119.6133707383258
 20
-150.7945854657736
 10
119.3005560682651
 20
-151.1266926705516
 10
119.0635334988799
 20
-151.3764620932323
 10
118.8182427003301
 20
-151.476025352756
 10
118.712478268933
 20
-151.518055517676
 10
118.712478268933
 20
-151.518055517676
 10
118.5178303740164
 20
-151.3361544760548
 10
118.5178303740164
 20
-151.3361544760548
 10
118.7038655302198
 20
-151.289645687004
 10
119.0656005561711
 20
-151.1966281089022
 10
119.3618787679026
 20
-150.7015678876718
 10
119.5224202175152
 20
-150.4349174971135
 10
119.5351670708106
 20
-150.2616291942054
 10
119.5437798095237
 20
-150.1706786733948
 10
119.5437798095237
 20
-150.1706786733948
 10
119.0380397922891
 20
-150.1706786733948
 10
119.0380397922891
 20
-150.1706786733948
 10
118.9195285075965
 20
-150.1706786733948
 10
118.498537839299
 20
-150.1896266985637
 10
118.3462646188509
 20
-150.200306494568
 10
118.3462646188509
 20
-150.200306494568
 10
118.3462646188509
 20
-149.9908446890648
 10
118.3462646188509
 20
-149.9908446890648
 10
118.4882025528432
 20
-150.0035915423602
 10
118.7651882298573
 20
-150.0077256569425
 10
118.8816324572587
 20
-150.0077256569425
 10
118.8816324572587
 20
-150.0077256569425
 10
119.236821801788
 20
-150.0077256569425
 10
119.236821801788
 20
-150.0077256569425
 10
119.26438256567
 20
-150.0077256569425
 10
119.4252685248311
 20
-150.0056585996514
 10
119.5351670708106
 20
-149.9908446890648
 10
119.5923556558658
 20
-149.9842990076428
 10
119.6092366237435
 20
-149.9653509824739
 10
119.6326632730432
 20
-149.9422688427227
 10
119.6326632730432
 20
-149.9422688427227
 10
119.8207654865378
 20
-150.0924750058796
 10
119.8207654865378
 20
-150.0924750058796
 10
119.8059515759513
 20
-150.1221028270528
 10
119.7956162894955
 20
-150.1410508522217
 10
119.7594427869004
 20
-150.2109862905722
 97
        0
 97
        1
330
19C
 75
     2
 76
     1
 98
        1
 10
0.0
 20
0.0
450
        0
451
        0
460
0.0
461
0.0
452
        0
462
0.0
453
        0
470

  0
SPLINE
  5
19E
330
18A
100
AcDbEntity
  8
レイヤー 1
100
AcDbSpline
210
0.0
220
0.0
230
1.0
 70
    11
 71
     3
 72
    17
 73
    13
 74
     0
 42
0.0000000001
 43
0.0000000001
 40
0.0
 40
0.0
 40
0.0
 40
0.0
 40
1.0
 40
1.0
 40
1.0
 40
2.0
 40
2.0
 40
2.0
 40
3.0
 40
3.0
 40
3.0
 40
4.0
 40
4.0
 40
4.0
 40
4.0
 10
120.1497721053792
 20
-149.9929117463559
 30
0.0
 10
120.1497721053792
 20
-150.0521673887022
 30
0.0
 10
120.1962808944301
 20
-150.0986761777531
 30
0.0
 10
120.2555365367764
 20
-150.0986761777531
 30
0.0
 10
120.3147921791227
 20
-150.0986761777531
 30
0.0
 10
120.3633680254647
 20
-150.0521673887022
 30
0.0
 10
120.3633680254647
 20
-149.9929117463559
 30
0.0
 10
120.3633680254647
 20
-149.9336561040096
 30
0.0
 10
120.3147921791227
 20
-149.8850802576676
 30
0.0
 10
120.2555365367764
 20
-149.8850802576676
 30
0.0
 10
120.1962808944301
 20
-149.8850802576676
 30
0.0
 10
120.1497721053792
 20
-149.9336561040096
 30
0.0
 10
120.1497721053792
 20
-149.9929117463559
 30
0.0
  0
SPLINE
  5
19F
330
18A
100
AcDbEntity
  8
レイヤー 1
100
AcDbSpline
210
0.0
220
0.0
230
1.0
 70
     9
 71
     3
 72
    17
 73
    13
 74
     0
 42
0.0000000001
 43
0.0000000001
 40
0.0
 40
0.0
 40
0.0
 40
0.0
 40
1.0
 40
1.0
 40
1.0
 40
2.0
 40
2.0
 40
2.0
 40
3.0
 40
3.0
 40
3.0
 40
4.0
 40
4.0
 40
4.0
 40
4.0
 10
120.4649983422796
 20
-149.9929117463559
 30
0.0
 10
120.4649983422796
 20
-150.1072889164662
 30
0.0
 10
120.3719807641778
 20
-150.2023735518591
 30
0.0
 10
120.2555365367764
 20
-150.2023735518591
 30
0.0
 10
120.1411593666661
 20
-150.2023735518591
 30
0.0
 10
120.0460747312732
 20
-150.1072889164662
 30
0.0
 10
120.0460747312732
 20
-149.9929117463559
 30
0.0
 10
120.0460747312732
 20
-149.8764675189545
 30
0.0
 10
120.1411593666661
 20
-149.7834499408527
 30
0.0
 10
120.2555365367764
 20
-149.7834499408527
 30
0.0
 10
120.3699137068867
 20
-149.7834499408527
 30
0.0
 10
120.4649983422796
 20
-149.8764675189545
 30
0.0
 10
120.4649983422796
 20
-149.9929117463559
 30
0.0
  0
HATCH
  5
1A0
330
18A
100
AcDbEntity
  8
レイヤー 1
 62
    18
420
        0
440
 33554687
100
AcDbHatch
 10
0.0
 20
0.0
 30
0.0
210
0.0
220
0.0
230
1.0
  2
SOLID
 70
     1
 71
     1
 91
        2
 92
        1
 93
        1
 72
     4
 94
        3
 73
     0
 74
     0
 95
       17
 96
       13
 40
0.0
 40
0.0
 40
0.0
 40
0.0
 40
1.0
 40
1.0
 40
1.0
 40
2.0
 40
2.0
 40
2.0
 40
3.0
 40
3.0
 40
3.0
 40
4.0
 40
4.0
 40
4.0
 40
4.0
 10
120.1497721053792
 20
-149.9929117463559
 10
120.1497721053792
 20
-150.0521673887022
 10
120.1962808944301
 20
-150.0986761777531
 10
120.2555365367764
 20
-150.0986761777531
 10
120.3147921791227
 20
-150.0986761777531
 10
120.3633680254647
 20
-150.0521673887022
 10
120.3633680254647
 20
-149.9929117463559
 10
120.3633680254647
 20
-149.9336561040096
 10
120.3147921791227
 20
-149.8850802576676
 10
120.2555365367764
 20
-149.8850802576676
 10
120.1962808944301
 20
-149.8850802576676
 10
120.1497721053792
 20
-149.9336561040096
 10
120.1497721053792
 20
-149.9929117463559
 97
        0
 97
        1
330
19E
 92
        1
 93
        1
 72
     4
 94
        3
 73
     0
 74
     0
 95
       17
 96
       13
 40
0.0
 40
0.0
 40
0.0
 40
0.0
 40
1.0
 40
1.0
 40
1.0
 40
2.0
 40
2.0
 40
2.0
 40
3.0
 40
3.0
 40
3.0
 40
4.0
 40
4.0
 40
4.0
 40
4.0
 10
120.4649983422796
 20
-149.9929117463559
 10
120.4649983422796
 20
-150.1072889164662
 10
120.3719807641778
 20
-150.2023735518591
 10
120.2555365367764
 20
-150.2023735518591
 10
120.1411593666661
 20
-150.2023735518591
 10
120.0460747312732
 20
-150.1072889164662
 10
120.0460747312732
 20
-149.9929117463559
 10
120.0460747312732
 20
-149.8764675189545
 10
120.1411593666661
 20
-149.7834499408527
 10
120.2555365367764
 20
-149.7834499408527
 10
120.3699137068867
 20
-149.7834499408527
 10
120.4649983422796
 20
-149.8764675189545
 10
120.4649983422796
 20
-149.9929117463559
 97
        0
 97
        1
330
19F
 75
     2
 76
     1
 98
        1
 10
0.0
 20
0.0
450
        0
451
        0
460
0.0
461
0.0
452
        0
462
0.0
453
        0
470

  0
ENDBLK
  5
18D
330
18A
100
AcDbEntity
  8
0
100
AcDbBlockEnd
  0
ENDSEC
  0
SECTION
  2
ENTITIES
  0
INSERT
  5
7A
330
70
100
AcDbEntity
  8
レイヤー 1
100
AcDbBlockReference
  2
Block_0
 10
0.0
 20
0.0
 30
0.0
  0
INSERT
  5
B4
330
70
100
AcDbEntity
  8
レイヤー 1
100
AcDbBlockReference
  2
Block_1
 10
0.0
 20
0.0
 30
0.0
  0
INSERT
  5
17C
330
70
100
AcDbEntity
  8
レイヤー 1
100
AcDbBlockReference
  2
Block_13
 10
0.0
 20
0.0
 30
0.0
  0
ENDSEC
  0
SECTION
  2
OBJECTS
  0
DICTIONARY
  5
C
330
0
100
AcDbDictionary
281
     1
  3
ACAD_COLOR
350
63
  3
ACAD_DETAILVIEWSTYLE
350
6A
  3
ACAD_GROUP
350
D
  3
ACAD_LAYOUT
350
62
  3
ACAD_MATERIAL
350
10
  3
ACAD_MLEADERSTYLE
350
66
  3
ACAD_MLINESTYLE
350
5F
  3
ACAD_PLOTSETTINGS
350
61
  3
ACAD_PLOTSTYLENAME
350
E
  3
ACAD_SCALELIST
350
42
  3
ACAD_SECTIONVIEWSTYLE
350
68
  3
ACAD_TABLESTYLE
350
64
  3
ACAD_VISUALSTYLE
350
29
  3
ACDB_RECOMPOSE_DATA
350
1A9
  3
AcDbVariableDictionary
350
1A1
  0
DICTIONARY
  5
63
102
{ACAD_REACTORS
330
C
102
}
330
C
100
AcDbDictionary
281
     1
  0
DICTIONARY
  5
6A
102
{ACAD_REACTORS
330
C
102
}
330
C
100
AcDbDictionary
281
     1
  3
Imperial24
350
6B
  0
DICTIONARY
  5
D
102
{ACAD_REACTORS
330
C
102
}
330
C
100
AcDbDictionary
281
     1
  0
DICTIONARY
  5
62
102
{ACAD_REACTORS
330
C
102
}
330
C
100
AcDbDictionary
281
     1
  3
Layout1
350
6F
  3
Layout2
350
77
  3
Model
350
73
  0
DICTIONARY
  5
10
102
{ACAD_REACTORS
330
C
102
}
330
C
100
AcDbDictionary
281
     1
  3
ByBlock
350
19
  3
ByLayer
350
11
  3
Global
350
21
  0
DICTIONARY
  5
66
102
{ACAD_REACTORS
330
C
102
}
330
C
100
AcDbDictionary
281
     1
  3
Standard
350
67
  0
DICTIONARY
  5
5F
102
{ACAD_REACTORS
330
C
102
}
330
C
100
AcDbDictionary
281
     1
  3
Standard
350
60
  0
DICTIONARY
  5
61
102
{ACAD_REACTORS
330
C
102
}
330
C
100
AcDbDictionary
281
     1
  0
ACDBDICTIONARYWDFLT
  5
E
102
{ACAD_REACTORS
330
C
102
}
330
C
100
AcDbDictionary
281
     1
  3
Normal
350
F
100
AcDbDictionaryWithDefault
340
F
  0
DICTIONARY
  5
42
102
{ACAD_REACTORS
330
C
102
}
330
C
100
AcDbDictionary
281
     1
  3
A0
350
43
  3
A1
350
44
  3
A2
350
45
  3
A3
350
46
  3
A4
350
47
  3
A5
350
48
  3
A6
350
49
  3
A7
350
4A
  3
A8
350
4B
  3
A9
350
4C
  3
B0
350
4D
  3
B1
350
4E
  3
B2
350
4F
  3
B3
350
50
  3
B4
350
51
  3
B5
350
52
  3
B6
350
53
  0
DICTIONARY
  5
68
102
{ACAD_REACTORS
330
C
102
}
330
C
100
AcDbDictionary
281
     1
  3
Imperial24
350
69
  0
DICTIONARY
  5
64
102
{ACAD_REACTORS
330
C
102
}
330
C
100
AcDbDictionary
281
     1
  3
Standard
350
65
  0
DICTIONARY
  5
29
102
{ACAD_REACTORS
330
C
102
}
330
C
100
AcDbDictionary
281
     1
  3
2dWireframe
350
2F
  3
Basic
350
2E
  3
Brighten
350
35
  3
ColorChange
350
39
  3
Conceptual
350
32
  3
Dim
350
34
  3
EdgeColorOff
350
41
  3
Facepattern
350
38
  3
Flat
350
2A
  3
FlatWithEdges
350
2B
  3
Gouraud
350
2C
  3
GouraudWithEdges
350
2D
  3
Hidden
350
31
  3
JitterOff
350
3F
  3
Linepattern
350
37
  3
OverhangOff
350
40
  3
Realistic
350
33
  3
Shaded
350
3E
  3
Shaded with edges
350
3D
  3
Shades of Gray
350
3A
  3
Sketchy
350
3B
  3
Thicken
350
36
  3
Wireframe
350
30
  3
X-Ray
350
3C
  0
XRECORD
  5
1A9
102
{ACAD_REACTORS
330
C
102
}
330
C
100
AcDbXrecord
280
     1
 90
        1
330
65
  0
DICTIONARY
  5
1A1
102
{ACAD_REACTORS
330
C
102
}
330
C
100
AcDbDictionary
281
     1
  3
CANNOSCALE
350
1A6
  3
CMLEADERSTYLE
350
1A3
  3
CTABLESTYLE
350
1A2
  3
CVIEWDETAILSTYLE
350
1A4
  3
CVIEWSECTIONSTYLE
350
1A5
  0
ACDBDETAILVIEWSTYLE
  5
6B
102
{ACAD_XDICTIONARY
360
1DE
102
}
102
{ACAD_REACTORS
330
6A
102
}
330
6A
100
AcDbModelDocViewStyle
 70
     0
  3
Imperial24
290
     0
100
AcDbDetailViewStyle
 70
     0
 71
     0
 90
        3
 71
     1
340
55
 62
   256
 40
0.24
340
0
 62
   256
 40
0.24
300

 40
0.36
280
     3
 71
     2
340
5D
 90
       25
 62
   256
 71
     3
340
55
 62
   256
 40
0.24
 90
        1
 40
0.75
 90
        1
300
%<\AcVar ViewType \f "%tc1">% %<\AcVar ViewDetailId>%\PSCALE %<\AcVar ViewScale \f "%sn">%
 71
     4
340
5D
 90
       25
 62
   256
340
5D
 90
       25
 62
   256
280
     0
  0
LAYOUT
  5
6F
102
{ACAD_REACTORS
330
62
102
}
330
62
100
AcDbPlotSettings
  1

  2

  4

  6

 40
0.0
 41
0.0
 42
0.0
 43
0.0
 44
0.0
 45
0.0
 46
0.0
 47
0.0
 48
0.0
 49
0.0
140
0.0
141
0.0
142
1.0
143
1.0
 70
   688
 72
     0
 73
     0
 74
     5
  7

 75
    16
147
1.0
 76
     0
 77
     2
 78
   300
148
0.0
149
0.0
100
AcDbLayout
  1
Layout1
 70
     1
 71
     1
 10
0.0
 20
0.0
 11
12.0
 21
9.0
 12
0.0
 22
0.0
 32
0.0
 14
0.0
 24
0.0
 34
0.0
 15
0.0
 25
0.0
 35
0.0
146
0.0
 13
0.0
 23
0.0
 33
0.0
 16
1.0
 26
0.0
 36
0.0
 17
0.0
 27
1.0
 37
0.0
 76
     0
330
6C
  0
LAYOUT
  5
77
102
{ACAD_REACTORS
330
62
102
}
330
62
100
AcDbPlotSettings
  1

  2

  4

  6

 40
0.0
 41
0.0
 42
0.0
 43
0.0
 44
0.0
 45
0.0
 46
0.0
 47
0.0
 48
0.0
 49
0.0
140
0.0
141
0.0
142
1.0
143
1.0
 70
   688
 72
     0
 73
     0
 74
     5
  7

 75
    16
147
1.0
 76
     0
 77
     2
 78
   300
148
0.0
149
0.0
100
AcDbLayout
  1
Layout2
 70
     1
 71
     2
 10
0.0
 20
0.0
 11
12.0
 21
9.0
 12
0.0
 22
0.0
 32
0.0
 14
0.0
 24
0.0
 34
0.0
 15
0.0
 25
0.0
 35
0.0
146
0.0
 13
0.0
 23
0.0
 33
0.0
 16
1.0
 26
0.0
 36
0.0
 17
0.0
 27
1.0
 37
0.0
 76
     0
330
74
  0
LAYOUT
  5
73
102
{ACAD_REACTORS
330
62
102
}
330
62
100
AcDbPlotSettings
  1

  2

  4

  6

 40
0.0
 41
0.0
 42
0.0
 43
0.0
 44
0.0
 45
0.0
 46
0.0
 47
0.0
 48
0.0
 49
0.0
140
0.0
141
0.0
142
1.0
143
1.0
 70
  1712
 72
     0
 73
     0
 74
     0
  7

 75
     0
147
1.0
 76
     0
 77
     2
 78
   300
148
0.0
149
0.0
100
AcDbLayout
  1
Model
 70
     1
 71
     0
 10
0.0
 20
0.0
 11
12.0
 21
9.0
 12
0.0
 22
0.0
 32
0.0
 14
0.0
 24
0.0
 34
0.0
 15
0.0
 25
0.0
 35
0.0
146
0.0
 13
0.0
 23
0.0
 33
0.0
 16
1.0
 26
0.0
 36
0.0
 17
0.0
 27
1.0
 37
0.0
 76
     0
330
70
  0
MATERIAL
  5
19
102
{ACAD_XDICTIONARY
360
1A
102
}
102
{ACAD_REACTORS
330
10
102
}
330
10
100
AcDbMaterial
  1
ByBlock
 72
     0
 43
0.0208333333333333
 43
0.0
 43
0.0
 43
0.0
 43
0.0
 43
0.0208333333333333
 43
0.0
 43
0.0
 43
0.0
 43
0.0
 43
1.0
 43
0.0
 43
0.0
 43
0.0
 43
0.0
 43
1.0
 77
     0
 47
0.0208333333333333
 47
0.0
 47
0.0
 47
0.0
 47
0.0
 47
0.0208333333333333
 47
0.0
 47
0.0
 47
0.0
 47
0.0
 47
1.0
 47
0.0
 47
0.0
 47
0.0
 47
0.0
 47
1.0
171
     0
 49
0.0208333333333333
 49
0.0
 49
0.0
 49
0.0
 49
0.0
 49
0.0208333333333333
 49
0.0
 49
0.0
 49
0.0
 49
0.0
 49
1.0
 49
0.0
 49
0.0
 49
0.0
 49
0.0
 49
1.0
175
     0
142
0.0208333333333333
142
0.0
142
0.0
142
0.0
142
0.0
142
0.0208333333333333
142
0.0
142
0.0
142
0.0
142
0.0
142
1.0
142
0.0
142
0.0
142
0.0
142
0.0
142
1.0
179
     0
144
0.0208333333333333
144
0.0
144
0.0
144
0.0
144
0.0
144
0.0208333333333333
144
0.0
144
0.0
144
0.0
144
0.0
144
1.0
144
0.0
144
0.0
144
0.0
144
0.0
144
1.0
147
0.0208333333333333
147
0.0
147
0.0
147
0.0
147
0.0
147
0.0208333333333333
147
0.0
147
0.0
147
0.0
147
0.0
147
1.0
147
0.0
147
0.0
147
0.0
147
0.0
147
1.0
  0
MATERIAL
  5
11
102
{ACAD_XDICTIONARY
360
12
102
}
102
{ACAD_REACTORS
330
10
102
}
330
10
100
AcDbMaterial
  1
ByLayer
 72
     0
 43
0.0208333333333333
 43
0.0
 43
0.0
 43
0.0
 43
0.0
 43
0.0208333333333333
 43
0.0
 43
0.0
 43
0.0
 43
0.0
 43
1.0
 43
0.0
 43
0.0
 43
0.0
 43
0.0
 43
1.0
 77
     0
 47
0.0208333333333333
 47
0.0
 47
0.0
 47
0.0
 47
0.0
 47
0.0208333333333333
 47
0.0
 47
0.0
 47
0.0
 47
0.0
 47
1.0
 47
0.0
 47
0.0
 47
0.0
 47
0.0
 47
1.0
171
     0
 49
0.0208333333333333
 49
0.0
 49
0.0
 49
0.0
 49
0.0
 49
0.0208333333333333
 49
0.0
 49
0.0
 49
0.0
 49
0.0
 49
1.0
 49
0.0
 49
0.0
 49
0.0
 49
0.0
 49
1.0
175
     0
142
0.0208333333333333
142
0.0
142
0.0
142
0.0
142
0.0
142
0.0208333333333333
142
0.0
142
0.0
142
0.0
142
0.0
142
1.0
142
0.0
142
0.0
142
0.0
142
0.0
142
1.0
179
     0
144
0.0208333333333333
144
0.0
144
0.0
144
0.0
144
0.0
144
0.0208333333333333
144
0.0
144
0.0
144
0.0
144
0.0
144
1.0
144
0.0
144
0.0
144
0.0
144
0.0
144
1.0
147
0.0208333333333333
147
0.0
147
0.0
147
0.0
147
0.0
147
0.0208333333333333
147
0.0
147
0.0
147
0.0
147
0.0
147
1.0
147
0.0
147
0.0
147
0.0
147
0.0
147
1.0
  0
MATERIAL
  5
21
102
{ACAD_XDICTIONARY
360
22
102
}
102
{ACAD_REACTORS
330
10
102
}
330
10
100
AcDbMaterial
  1
Global
 72
     0
 43
0.0208333333333333
 43
0.0
 43
0.0
 43
0.0
 43
0.0
 43
0.0208333333333333
 43
0.0
 43
0.0
 43
0.0
 43
0.0
 43
1.0
 43
0.0
 43
0.0
 43
0.0
 43
0.0
 43
1.0
 77
     0
 47
0.0208333333333333
 47
0.0
 47
0.0
 47
0.0
 47
0.0
 47
0.0208333333333333
 47
0.0
 47
0.0
 47
0.0
 47
0.0
 47
1.0
 47
0.0
 47
0.0
 47
0.0
 47
0.0
 47
1.0
171
     0
 49
0.0208333333333333
 49
0.0
 49
0.0
 49
0.0
 49
0.0
 49
0.0208333333333333
 49
0.0
 49
0.0
 49
0.0
 49
0.0
 49
1.0
 49
0.0
 49
0.0
 49
0.0
 49
0.0
 49
1.0
175
     0
142
0.0208333333333333
142
0.0
142
0.0
142
0.0
142
0.0
142
0.0208333333333333
142
0.0
142
0.0
142
0.0
142
0.0
142
1.0
142
0.0
142
0.0
142
0.0
142
0.0
142
1.0
179
     0
144
0.0208333333333333
144
0.0
144
0.0
144
0.0
144
0.0
144
0.0208333333333333
144
0.0
144
0.0
144
0.0
144
0.0
144
1.0
144
0.0
144
0.0
144
0.0
144
0.0
144
1.0
147
0.0208333333333333
147
0.0
147
0.0
147
0.0
147
0.0
147
0.0208333333333333
147
0.0
147
0.0
147
0.0
147
0.0
147
1.0
147
0.0
147
0.0
147
0.0
147
0.0
147
1.0
  0
MLEADERSTYLE
  5
67
102
{ACAD_XDICTIONARY
360
1DA
102
}
102
{ACAD_REACTORS
330
66
102
}
330
66
100
AcDbMLeaderStyle
179
     2
170
     2
171
     1
172
     0
 90
        2
 40
0.0
 41
0.0
173
     1
 91
-1056964608
340
5B
 92
       -2
290
     1
 42
0.09
291
     1
 43
0.36
  3
Standard
 44
0.18
300

342
55
174
     1
178
     6
175
     1
176
     0
 93
-1056964608
 45
0.18
292
     0
297
     0
 46
0.18
 94
-1056964608
 47
1.0
 49
1.0
140
1.0
293
     1
141
0.0
294
     1
177
     0
142
1.0
295
     0
296
     0
143
0.125
271
     0
272
     9
273
     9
  0
MLINESTYLE
  5
60
102
{ACAD_REACTORS
330
5F
102
}
330
5F
100
AcDbMlineStyle
  2
STANDARD
 70
     0
  3

 62
   256
 51
90.0
 52
90.0
 71
     2
 49
0.5
 62
   256
  6
BYLAYER
 49
-0.5
 62
   256
  6
BYLAYER
  0
ACDBPLACEHOLDER
  5
F
102
{ACAD_REACTORS
330
E
102
}
330
E
  0
SCALE
  5
43
102
{ACAD_REACTORS
330
42
102
}
330
42
100
AcDbScale
 70
     0
300
1:1
140
1.0
141
1.0
290
     1
  0
SCALE
  5
44
102
{ACAD_REACTORS
330
42
102
}
330
42
100
AcDbScale
 70
     0
300
1/128" = 1'-0"
140
0.0078125
141
12.0
290
     0
  0
SCALE
  5
45
102
{ACAD_REACTORS
330
42
102
}
330
42
100
AcDbScale
 70
     0
300
1/64" = 1'-0"
140
0.015625
141
12.0
290
     0
  0
SCALE
  5
46
102
{ACAD_REACTORS
330
42
102
}
330
42
100
AcDbScale
 70
     0
300
1/32" = 1'-0"
140
0.03125
141
12.0
290
     0
  0
SCALE
  5
47
102
{ACAD_REACTORS
330
42
102
}
330
42
100
AcDbScale
 70
     0
300
1/16" = 1'-0"
140
0.0625
141
12.0
290
     0
  0
SCALE
  5
48
102
{ACAD_REACTORS
330
42
102
}
330
42
100
AcDbScale
 70
     0
300
3/32" = 1'-0"
140
0.09375
141
12.0
290
     0
  0
SCALE
  5
49
102
{ACAD_REACTORS
330
42
102
}
330
42
100
AcDbScale
 70
     0
300
1/8" = 1'-0"
140
0.125
141
12.0
290
     0
  0
SCALE
  5
4A
102
{ACAD_REACTORS
330
42
102
}
330
42
100
AcDbScale
 70
     0
300
3/16" = 1'-0"
140
0.1875
141
12.0
290
     0
  0
SCALE
  5
4B
102
{ACAD_REACTORS
330
42
102
}
330
42
100
AcDbScale
 70
     0
300
1/4" = 1'-0"
140
0.25
141
12.0
290
     0
  0
SCALE
  5
4C
102
{ACAD_REACTORS
330
42
102
}
330
42
100
AcDbScale
 70
     0
300
3/8" = 1'-0"
140
0.375
141
12.0
290
     0
  0
SCALE
  5
4D
102
{ACAD_REACTORS
330
42
102
}
330
42
100
AcDbScale
 70
     0
300
1/2" = 1'-0"
140
0.5
141
12.0
290
     0
  0
SCALE
  5
4E
102
{ACAD_REACTORS
330
42
102
}
330
42
100
AcDbScale
 70
     0
300
3/4" = 1'-0"
140
0.75
141
12.0
290
     0
  0
SCALE
  5
4F
102
{ACAD_REACTORS
330
42
102
}
330
42
100
AcDbScale
 70
     0
300
1" = 1'-0"
140
1.0
141
12.0
290
     0
  0
SCALE
  5
50
102
{ACAD_REACTORS
330
42
102
}
330
42
100
AcDbScale
 70
     0
300
1-1/2" = 1'-0"
140
1.5
141
12.0
290
     0
  0
SCALE
  5
51
102
{ACAD_REACTORS
330
42
102
}
330
42
100
AcDbScale
 70
     0
300
3" = 1'-0"
140
3.0
141
12.0
290
     0
  0
SCALE
  5
52
102
{ACAD_REACTORS
330
42
102
}
330
42
100
AcDbScale
 70
     0
300
6" = 1'-0"
140
6.0
141
12.0
290
     0
  0
SCALE
  5
53
102
{ACAD_REACTORS
330
42
102
}
330
42
100
AcDbScale
 70
     0
300
1'-0" = 1'-0"
140
12.0
141
12.0
290
     0
  0
ACDBSECTIONVIEWSTYLE
  5
69
102
{ACAD_XDICTIONARY
360
1DC
102
}
102
{ACAD_REACTORS
330
68
102
}
330
68
100
AcDbModelDocViewStyle
 70
     0
  3
Imperial24
290
     0
100
AcDbSectionViewStyle
 70
     0
 71
     0
 90
       78
 71
     1
340
55
 62
   256
 40
0.24
340
0
340
0
 62
   256
 40
0.24
300
I, O, Q, S, X, Z
 40
0.48
 90
        3
 40
0.18
 90
        1
 71
     2
340
5D
 90
       25
 62
   256
340
5D
 90
       50
 62
   256
 40
0.24
 40
0.0
 40
0.24
 71
     3
340
55
 62
   256
 40
0.24
 90
        1
 40
0.75
 90
        1
300
%<\AcVar ViewType \f "%tc1">% %<\AcVar ViewSectionStartId>%-%<\AcVar ViewSectionEndId>%\PSCALE %<\AcVar ViewScale \f "%sn">%
 71
     4
 62
   256
 62
   257
300
ANSI31
 40
1.0
 90
        0
290
     0
290
     0
 90
        6
 40
0.0
 40
1.570796326794896
 40
0.2617993877991494
 40
1.308996938995747
 40
-0.2617993877991494
 40
1.832595714594046
  0
TABLESTYLE
  5
65
102
{ACAD_XDICTIONARY
360
1A7
102
}
102
{ACAD_REACTORS
330
64
102
}
330
64
100
AcDbTableStyle
280
     0
  3
Standard
 70
     0
 71
     0
 40
0.06
 41
0.06
280
     0
281
     0
  7
Standard
140
0.18
170
     2
 62
     0
 63
     7
283
     0
 90
      512
 91
        0
  1

274
    -2
284
     1
 64
     0
275
    -2
285
     1
 65
     0
276
    -2
286
     1
 66
     0
277
    -2
287
     1
 67
     0
278
    -2
288
     1
 68
     0
279
    -2
289
     1
 69
     0
  7
Standard
140
0.25
170
     5
 62
     0
 63
     7
283
     0
 90
      512
 91
        0
  1

274
    -2
284
     1
 64
     0
275
    -2
285
     1
 65
     0
276
    -2
286
     1
 66
     0
277
    -2
287
     1
 67
     0
278
    -2
288
     1
 68
     0
279
    -2
289
     1
 69
     0
  7
Standard
140
0.18
170
     5
 62
     0
 63
     7
283
     0
 90
      512
 91
        0
  1

274
    -2
284
     1
 64
     0
275
    -2
285
     1
 65
     0
276
    -2
286
     1
 66
     0
277
    -2
287
     1
 67
     0
278
    -2
288
     1
 68
     0
279
    -2
289
     1
 69
     0
  0
VISUALSTYLE
  5
2F
102
{ACAD_XDICTIONARY
360
1B4
102
}
102
{ACAD_REACTORS
330
29
102
}
330
29
100
AcDbVisualStyle
  2
2dWireframe
 70
     4
177
     2
291
     0
 71
     0
176
     1
 72
     2
176
     1
 73
     0
176
     1
 90
        0
176
     1
 40
0.6
176
     1
 41
30.0
176
     1
 63
     7
421
 16777215
176
     1
 74
     1
176
     1
 91
        4
176
     1
 64
     7
176
     1
 65
   257
176
     1
 75
     1
176
     1
175
     1
176
     1
 42
1.0
176
     1
 92
        0
176
     1
 66
   257
176
     1
 43
1.0
176
     1
 76
     1
176
     1
 77
     6
176
     1
 78
     2
176
     1
 67
     7
176
     1
 79
     5
176
     1
170
     0
176
     1
171
     0
176
     1
290
     0
176
     1
 93
        1
176
     1
 44
0.0
176
     1
173
     0
176
     1
1001
ACAD
1000
AcDbSavedByObjectVersion
1070
     0
  0
VISUALSTYLE
  5
2E
102
{ACAD_XDICTIONARY
360
1B2
102
}
102
{ACAD_REACTORS
330
29
102
}
330
29
100
AcDbVisualStyle
  2
Basic
 70
     7
177
     2
291
     1
 71
     1
176
     1
 72
     0
176
     1
 73
     1
176
     1
 90
        0
176
     1
 40
0.6
176
     1
 41
30.0
176
     1
 63
     7
421
 16777215
176
     1
 74
     0
176
     1
 91
        4
176
     1
 64
     7
176
     1
 65
   257
176
     1
 75
     1
176
     1
175
     1
176
     1
 42
1.0
176
     1
 92
        8
176
     1
 66
     7
176
     1
 43
1.0
176
     1
 76
     1
176
     1
 77
     6
176
     1
 78
     2
176
     1
 67
     7
176
     1
 79
     5
176
     1
170
     0
176
     1
171
     0
176
     1
290
     0
176
     1
 93
        1
176
     1
 44
0.0
176
     1
173
     0
176
     1
1001
ACAD
1000
AcDbSavedByObjectVersion
1070
     0
  0
VISUALSTYLE
  5
35
102
{ACAD_XDICTIONARY
360
1C0
102
}
102
{ACAD_REACTORS
330
29
102
}
330
29
100
AcDbVisualStyle
  2
Brighten
 70
    12
177
     2
291
     1
 71
     2
176
     1
 72
     2
176
     1
 73
     0
176
     1
 90
        0
176
     1
 40
0.6
176
     1
 41
30.0
176
     1
 63
     7
421
 16777215
176
     1
 74
     1
176
     1
 91
        4
176
     1
 64
     7
176
     1
 65
   257
176
     1
 75
     1
176
     1
175
     1
176
     1
 42
1.0
176
     1
 92
        8
176
     1
 66
     7
176
     1
 43
1.0
176
     1
 76
     1
176
     1
 77
     6
176
     1
 78
     2
176
     1
 67
     7
176
     1
 79
     5
176
     1
170
     0
176
     1
171
     0
176
     1
290
     0
176
     1
 93
        1
176
     1
 44
50.0
176
     1
173
     0
176
     1
1001
ACAD
1000
AcDbSavedByObjectVersion
1070
     0
  0
VISUALSTYLE
  5
39
102
{ACAD_XDICTIONARY
360
1C8
102
}
102
{ACAD_REACTORS
330
29
102
}
330
29
100
AcDbVisualStyle
  2
ColorChange
 70
    16
177
     2
291
     1
 71
     2
176
     1
 72
     2
176
     1
 73
     3
176
     1
 90
        0
176
     1
 40
0.6
176
     1
 41
30.0
176
     1
 63
     8
421
  8421504
176
     1
 74
     1
176
     1
 91
        4
176
     1
 64
     7
176
     1
 65
   257
176
     1
 75
     1
176
     1
175
     1
176
     1
 42
1.0
176
     1
 92
        8
176
     1
 66
     8
424
  8421504
176
     1
 43
1.0
176
     1
 76
     1
176
     1
 77
     6
176
     1
 78
     2
176
     1
 67
     7
176
     1
 79
     5
176
     1
170
     0
176
     1
171
     0
176
     1
290
     0
176
     1
 93
        1
176
     1
 44
0.0
176
     1
173
     0
176
     1
1001
ACAD
1000
AcDbSavedByObjectVersion
1070
     0
  0
VISUALSTYLE
  5
32
102
{ACAD_XDICTIONARY
360
1BA
102
}
102
{ACAD_REACTORS
330
29
102
}
330
29
100
AcDbVisualStyle
  2
Conceptual
 70
     9
177
     2
291
     0
 71
     3
176
     1
 72
     2
176
     1
 73
     0
176
     1
 90
        0
176
     1
 40
0.6
176
     1
 41
30.0
176
     1
 63
     7
421
 16777215
176
     1
 74
     2
176
     1
 91
        2
176
     1
 64
     7
176
     1
 65
   257
176
     1
 75
     1
176
     1
175
     1
176
     1
 42
179.0
176
     1
 92
        8
176
     1
 66
     7
176
     1
 43
1.0
176
     1
 76
     1
176
     1
 77
     6
176
     1
 78
     2
176
     1
 67
     7
176
     1
 79
     3
176
     1
170
     0
176
     1
171
     0
176
     1
290
     0
176
     1
 93
        1
176
     1
 44
0.0
176
     1
173
     0
176
     1
1001
ACAD
1000
AcDbSavedByObjectVersion
1070
     0
  0
VISUALSTYLE
  5
34
102
{ACAD_XDICTIONARY
360
1BE
102
}
102
{ACAD_REACTORS
330
29
102
}
330
29
100
AcDbVisualStyle
  2
Dim
 70
    11
177
     2
291
     1
 71
     2
176
     1
 72
     2
176
     1
 73
     0
176
     1
 90
        0
176
     1
 40
0.6
176
     1
 41
30.0
176
     1
 63
     7
421
 16777215
176
     1
 74
     1
176
     1
 91
        4
176
     1
 64
     7
176
     1
 65
   257
176
     1
 75
     1
176
     1
175
     1
176
     1
 42
1.0
176
     1
 92
        8
176
     1
 66
     7
176
     1
 43
1.0
176
     1
 76
     1
176
     1
 77
     6
176
     1
 78
     2
176
     1
 67
     7
176
     1
 79
     5
176
     1
170
     0
176
     1
171
     0
176
     1
290
     0
176
     1
 93
        1
176
     1
 44
-50.0
176
     1
173
     0
176
     1
1001
ACAD
1000
AcDbSavedByObjectVersion
1070
     0
  0
VISUALSTYLE
  5
41
102
{ACAD_XDICTIONARY
360
1D8
102
}
102
{ACAD_REACTORS
330
29
102
}
330
29
100
AcDbVisualStyle
  2
EdgeColorOff
 70
    22
177
     2
291
     1
 71
     2
176
     0
 72
     2
176
     0
 73
     0
176
     0
 90
        0
176
     0
 40
0.6
176
     0
 41
30.0
176
     0
 63
     7
421
 16777215
176
     0
 74
     1
176
     0
 91
        4
176
     0
 64
     7
176
     0
 65
   257
176
     0
 75
     1
176
     0
175
     1
176
     0
 42
1.0
176
     0
 92
        8
176
     2
 66
     7
176
     0
 43
1.0
176
     0
 76
     1
176
     0
 77
     6
176
     0
 78
     2
176
     0
 67
     7
176
     0
 79
     5
176
     0
170
     0
176
     0
171
     0
176
     0
290
     0
176
     0
 93
        1
176
     0
 44
0.0
176
     0
173
     0
176
     0
1001
ACAD
1000
AcDbSavedByObjectVersion
1070
     0
  0
VISUALSTYLE
  5
38
102
{ACAD_XDICTIONARY
360
1C6
102
}
102
{ACAD_REACTORS
330
29
102
}
330
29
100
AcDbVisualStyle
  2
Facepattern
 70
    15
177
     2
291
     1
 71
     2
176
     1
 72
     2
176
     1
 73
     0
176
     1
 90
        0
176
     1
 40
0.6
176
     1
 41
30.0
176
     1
 63
     7
421
 16777215
176
     1
 74
     1
176
     1
 91
        4
176
     1
 64
     7
176
     1
 65
   257
176
     1
 75
     1
176
     1
175
     1
176
     1
 42
1.0
176
     1
 92
        8
176
     1
 66
     7
176
     1
 43
1.0
176
     1
 76
     1
176
     1
 77
     6
176
     1
 78
     2
176
     1
 67
     7
176
     1
 79
     5
176
     1
170
     0
176
     1
171
     0
176
     1
290
     0
176
     1
 93
        1
176
     1
 44
0.0
176
     1
173
     0
176
     1
1001
ACAD
1000
AcDbSavedByObjectVersion
1070
     0
  0
VISUALSTYLE
  5
2A
102
{ACAD_XDICTIONARY
360
1AA
102
}
102
{ACAD_REACTORS
330
29
102
}
330
29
100
AcDbVisualStyle
  2
Flat
 70
     0
177
     2
291
     1
 71
     2
176
     1
 72
     1
176
     1
 73
     1
176
     1
 90
        2
176
     1
 40
0.6
176
     1
 41
30.0
176
     1
 63
     7
421
 16777215
176
     1
 74
     0
176
     1
 91
        0
176
     1
 64
     7
176
     1
 65
   257
176
     1
 75
     1
176
     1
175
     1
176
     1
 42
1.0
176
     1
 92
        8
176
     1
 66
     7
176
     1
 43
1.0
176
     1
 76
     1
176
     1
 77
     6
176
     1
 78
     2
176
     1
 67
     7
176
     1
 79
     5
176
     1
170
     0
176
     1
171
     0
176
     1
290
     0
176
     1
 93
       13
176
     1
 44
0.0
176
     1
173
     0
176
     1
1001
ACAD
1000
AcDbSavedByObjectVersion
1070
     0
  0
VISUALSTYLE
  5
2B
102
{ACAD_XDICTIONARY
360
1AC
102
}
102
{ACAD_REACTORS
330
29
102
}
330
29
100
AcDbVisualStyle
  2
FlatWithEdges
 70
     1
177
     2
291
     1
 71
     2
176
     1
 72
     1
176
     1
 73
     1
176
     1
 90
        2
176
     1
 40
0.6
176
     1
 41
30.0
176
     1
 63
     7
421
 16777215
176
     1
 74
     1
176
     1
 91
        0
176
     1
 64
     7
176
     1
 65
   257
176
     1
 75
     1
176
     1
175
     1
176
     1
 42
1.0
176
     1
 92
        0
176
     1
 66
   257
176
     1
 43
1.0
176
     1
 76
     1
176
     1
 77
     6
176
     1
 78
     2
176
     1
 67
     7
176
     1
 79
     5
176
     1
170
     0
176
     1
171
     0
176
     1
290
     0
176
     1
 93
       13
176
     1
 44
0.0
176
     1
173
     0
176
     1
1001
ACAD
1000
AcDbSavedByObjectVersion
1070
     0
  0
VISUALSTYLE
  5
2C
102
{ACAD_XDICTIONARY
360
1AE
102
}
102
{ACAD_REACTORS
330
29
102
}
330
29
100
AcDbVisualStyle
  2
Gouraud
 70
     2
177
     2
291
     1
 71
     2
176
     1
 72
     2
176
     1
 73
     1
176
     1
 90
        2
176
     1
 40
0.6
176
     1
 41
30.0
176
     1
 63
     7
421
 16777215
176
     1
 74
     0
176
     1
 91
        0
176
     1
 64
     7
176
     1
 65
   257
176
     1
 75
     1
176
     1
175
     1
176
     1
 42
1.0
176
     1
 92
        0
176
     1
 66
     7
176
     1
 43
1.0
176
     1
 76
     1
176
     1
 77
     6
176
     1
 78
     2
176
     1
 67
     7
176
     1
 79
     5
176
     1
170
     0
176
     1
171
     0
176
     1
290
     0
176
     1
 93
       13
176
     1
 44
0.0
176
     1
173
     0
176
     1
1001
ACAD
1000
AcDbSavedByObjectVersion
1070
     0
  0
VISUALSTYLE
  5
2D
102
{ACAD_XDICTIONARY
360
1B0
102
}
102
{ACAD_REACTORS
330
29
102
}
330
29
100
AcDbVisualStyle
  2
GouraudWithEdges
 70
     3
177
     2
291
     1
 71
     2
176
     1
 72
     2
176
     1
 73
     1
176
     1
 90
        2
176
     1
 40
0.6
176
     1
 41
30.0
176
     1
 63
     7
421
 16777215
176
     1
 74
     1
176
     1
 91
        0
176
     1
 64
     7
176
     1
 65
   257
176
     1
 75
     1
176
     1
175
     1
176
     1
 42
1.0
176
     1
 92
        0
176
     1
 66
   257
176
     1
 43
1.0
176
     1
 76
     1
176
     1
 77
     6
176
     1
 78
     2
176
     1
 67
     7
176
     1
 79
     5
176
     1
170
     0
176
     1
171
     0
176
     1
290
     0
176
     1
 93
       13
176
     1
 44
0.0
176
     1
173
     0
176
     1
1001
ACAD
1000
AcDbSavedByObjectVersion
1070
     0
  0
VISUALSTYLE
  5
31
102
{ACAD_XDICTIONARY
360
1B8
102
}
102
{ACAD_REACTORS
330
29
102
}
330
29
100
AcDbVisualStyle
  2
Hidden
 70
     6
177
     2
291
     0
 71
     1
176
     1
 72
     2
176
     1
 73
     2
176
     1
 90
        0
176
     1
 40
0.6
176
     1
 41
30.0
176
     1
 63
     7
421
 16777215
176
     1
 74
     2
176
     1
 91
        2
176
     1
 64
     7
176
     1
 65
   257
176
     1
 75
     2
176
     1
175
     1
176
     1
 42
40.0
176
     1
 92
        0
176
     1
 66
   257
176
     1
 43
1.0
176
     1
 76
     1
176
     1
 77
     6
176
     1
 78
     2
176
     1
 67
     7
176
     1
 79
     3
176
     1
170
     0
176
     1
171
     0
176
     1
290
     0
176
     1
 93
        1
176
     1
 44
0.0
176
     1
173
     0
176
     1
1001
ACAD
1000
AcDbSavedByObjectVersion
1070
     0
  0
VISUALSTYLE
  5
3F
102
{ACAD_XDICTIONARY
360
1D4
102
}
102
{ACAD_REACTORS
330
29
102
}
330
29
100
AcDbVisualStyle
  2
JitterOff
 70
    20
177
     2
291
     1
 71
     2
176
     0
 72
     2
176
     0
 73
     0
176
     0
 90
        0
176
     0
 40
0.6
176
     0
 41
30.0
176
     0
 63
     7
421
 16777215
176
     0
 74
     1
176
     0
 91
        4
176
     0
 64
     7
176
     0
 65
   257
176
     0
 75
     1
176
     0
175
     1
176
     0
 42
1.0
176
     0
 92
       10
176
     2
 66
     7
176
     0
 43
1.0
176
     0
 76
     1
176
     0
 77
     6
176
     0
 78
     2
176
     0
 67
     7
176
     0
 79
     5
176
     0
170
     0
176
     0
171
     0
176
     0
290
     0
176
     0
 93
        1
176
     0
 44
0.0
176
     0
173
     0
176
     0
1001
ACAD
1000
AcDbSavedByObjectVersion
1070
     0
  0
VISUALSTYLE
  5
37
102
{ACAD_XDICTIONARY
360
1C4
102
}
102
{ACAD_REACTORS
330
29
102
}
330
29
100
AcDbVisualStyle
  2
Linepattern
 70
    14
177
     2
291
     1
 71
     2
176
     1
 72
     2
176
     1
 73
     0
176
     1
 90
        0
176
     1
 40
0.6
176
     1
 41
30.0
176
     1
 63
     7
421
 16777215
176
     1
 74
     1
176
     1
 91
        4
176
     1
 64
     7
176
     1
 65
   257
176
     1
 75
     7
176
     1
175
     7
176
     1
 42
1.0
176
     1
 92
        8
176
     1
 66
     7
176
     1
 43
1.0
176
     1
 76
     1
176
     1
 77
     6
176
     1
 78
     2
176
     1
 67
     7
176
     1
 79
     5
176
     1
170
     0
176
     1
171
     0
176
     1
290
     0
176
     1
 93
        1
176
     1
 44
0.0
176
     1
173
     0
176
     1
1001
ACAD
1000
AcDbSavedByObjectVersion
1070
     0
  0
VISUALSTYLE
  5
40
102
{ACAD_XDICTIONARY
360
1D6
102
}
102
{ACAD_REACTORS
330
29
102
}
330
29
100
AcDbVisualStyle
  2
OverhangOff
 70
    21
177
     2
291
     1
 71
     2
176
     0
 72
     2
176
     0
 73
     0
176
     0
 90
        0
176
     0
 40
0.6
176
     0
 41
30.0
176
     0
 63
     7
421
 16777215
176
     0
 74
     1
176
     0
 91
        4
176
     0
 64
     7
176
     0
 65
   257
176
     0
 75
     1
176
     0
175
     1
176
     0
 42
1.0
176
     0
 92
        9
176
     2
 66
     7
176
     0
 43
1.0
176
     0
 76
     1
176
     0
 77
     6
176
     0
 78
     2
176
     0
 67
     7
176
     0
 79
     5
176
     0
170
     0
176
     0
171
     0
176
     0
290
     0
176
     0
 93
        1
176
     0
 44
0.0
176
     0
173
     0
176
     0
1001
ACAD
1000
AcDbSavedByObjectVersion
1070
     0
  0
VISUALSTYLE
  5
33
102
{ACAD_XDICTIONARY
360
1BC
102
}
102
{ACAD_REACTORS
330
29
102
}
330
29
100
AcDbVisualStyle
  2
Realistic
 70
     8
177
     2
291
     0
 71
     2
176
     1
 72
     3
176
     1
 73
     0
176
     1
 90
        2
176
     1
 40
0.6
176
     1
 41
30.0
176
     1
 63
     7
421
 16777215
176
     1
 74
     0
176
     1
 91
        0
176
     1
 64
     7
176
     1
 65
   257
176
     1
 75
     1
176
     1
175
     1
176
     1
 42
1.0
176
     1
 92
        8
176
     1
 66
   257
176
     1
 43
1.0
176
     1
 76
     1
176
     1
 77
     6
176
     1
 78
     2
176
     1
 67
     7
176
     1
 79
     3
176
     1
170
     0
176
     1
171
     0
176
     1
290
     0
176
     1
 93
       13
176
     1
 44
0.0
176
     1
173
     0
176
     1
1001
ACAD
1000
AcDbSavedByObjectVersion
1070
     0
  0
VISUALSTYLE
  5
3E
102
{ACAD_XDICTIONARY
360
1D2
102
}
102
{ACAD_REACTORS
330
29
102
}
330
29
100
AcDbVisualStyle
  2
Shaded
 70
    27
177
     2
291
     0
 71
     2
176
     1
 72
     2
176
     1
 73
     1
176
     1
 90
        2
176
     1
 40
0.6
176
     1
 41
30.0
176
     1
 63
     7
421
 16777215
176
     1
 74
     0
176
     1
 91
        4
176
     1
 64
     7
176
     1
 65
   257
176
     1
 75
     1
176
     1
175
     1
176
     1
 42
1.0
176
     1
 92
        8
176
     1
 66
   257
176
     1
 43
1.0
176
     1
 76
     1
176
     1
 77
     6
176
     1
 78
     2
176
     1
 67
     8
425
  7895160
176
     1
 79
     3
176
     1
170
     0
176
     1
171
     0
176
     1
290
     0
176
     1
 93
        5
176
     1
 44
0.0
176
     1
173
     0
176
     1
1001
ACAD
1000
AcDbSavedByObjectVersion
1070
     0
  0
VISUALSTYLE
  5
3D
102
{ACAD_XDICTIONARY
360
1D0
102
}
102
{ACAD_REACTORS
330
29
102
}
330
29
100
AcDbVisualStyle
  2
Shaded with edges
 70
    26
177
     2
291
     0
 71
     2
176
     1
 72
     2
176
     1
 73
     1
176
     1
 90
        2
176
     1
 40
0.6
176
     1
 41
30.0
176
     1
 63
     7
421
 16777215
176
     1
 74
     1
176
     1
 91
        2
176
     1
 64
     7
176
     1
 65
   257
176
     1
 75
     2
176
     1
175
     1
176
     1
 42
1.0
176
     1
 92
        8
176
     1
 66
   257
176
     1
 43
1.0
176
     1
 76
     1
176
     1
 77
     6
176
     1
 78
     2
176
     1
 67
     7
176
     1
 79
     3
176
     1
170
     0
176
     1
171
     0
176
     1
290
     0
176
     1
 93
        5
176
     1
 44
0.0
176
     1
173
     0
176
     1
1001
ACAD
1000
AcDbSavedByObjectVersion
1070
     0
  0
VISUALSTYLE
  5
3A
102
{ACAD_XDICTIONARY
360
1CA
102
}
102
{ACAD_REACTORS
330
29
102
}
330
29
100
AcDbVisualStyle
  2
Shades of Gray
 70
    23
177
     2
291
     0
 71
     2
176
     1
 72
     2
176
     1
 73
     3
176
     1
 90
        0
176
     1
 40
0.6
176
     1
 41
30.0
176
     1
 63
     7
421
 16777215
176
     1
 74
     2
176
     1
 91
        2
176
     1
 64
     7
176
     1
 65
     7
176
     1
 75
     1
176
     1
175
     1
176
     1
 42
40.0
176
     1
 92
        8
176
     1
 66
     7
176
     1
 43
1.0
176
     1
 76
     1
176
     1
 77
     6
176
     1
 78
     2
176
     1
 67
     7
176
     1
 79
     3
176
     1
170
     0
176
     1
171
     0
176
     1
290
     0
176
     1
 93
        1
176
     1
 44
0.0
176
     1
173
     0
176
     1
1001
ACAD
1000
AcDbSavedByObjectVersion
1070
     0
  0
VISUALSTYLE
  5
3B
102
{ACAD_XDICTIONARY
360
1CC
102
}
102
{ACAD_REACTORS
330
29
102
}
330
29
100
AcDbVisualStyle
  2
Sketchy
 70
    24
177
     2
291
     0
 71
     1
176
     1
 72
     2
176
     1
 73
     2
176
     1
 90
        0
176
     1
 40
0.6
176
     1
 41
30.0
176
     1
 63
     7
421
 16777215
176
     1
 74
     2
176
     1
 91
        2
176
     1
 64
     7
176
     1
 65
     7
176
     1
 75
     1
176
     1
175
     1
176
     1
 42
40.0
176
     1
 92
       11
176
     1
 66
     7
176
     1
 43
1.0
176
     1
 76
     1
176
     1
 77
     6
176
     1
 78
     2
176
     1
 67
     7
176
     1
 79
     6
176
     1
170
     0
176
     1
171
     0
176
     1
290
     0
176
     1
 93
        1
176
     1
 44
0.0
176
     1
173
     0
176
     1
1001
ACAD
1000
AcDbSavedByObjectVersion
1070
     0
  0
VISUALSTYLE
  5
36
102
{ACAD_XDICTIONARY
360
1C2
102
}
102
{ACAD_REACTORS
330
29
102
}
330
29
100
AcDbVisualStyle
  2
Thicken
 70
    13
177
     2
291
     1
 71
     2
176
     1
 72
     2
176
     1
 73
     0
176
     1
 90
        0
176
     1
 40
0.6
176
     1
 41
30.0
176
     1
 63
     7
421
 16777215
176
     1
 74
     1
176
     1
 91
        4
176
     1
 64
     7
176
     1
 65
   257
176
     1
 75
     1
176
     1
175
     1
176
     1
 42
1.0
176
     1
 92
       12
176
     1
 66
     7
176
     1
 43
1.0
176
     1
 76
     1
176
     1
 77
     6
176
     1
 78
     2
176
     1
 67
     7
176
     1
 79
     5
176
     1
170
     0
176
     1
171
     0
176
     1
290
     0
176
     1
 93
        1
176
     1
 44
0.0
176
     1
173
     0
176
     1
1001
ACAD
1000
AcDbSavedByObjectVersion
1070
     0
  0
VISUALSTYLE
  5
30
102
{ACAD_XDICTIONARY
360
1B6
102
}
102
{ACAD_REACTORS
330
29
102
}
330
29
100
AcDbVisualStyle
  2
Wireframe
 70
     5
177
     2
291
     0
 71
     0
176
     1
 72
     2
176
     1
 73
     0
176
     1
 90
        0
176
     1
 40
0.6
176
     1
 41
30.0
176
     1
 63
     7
421
 16777215
176
     1
 74
     1
176
     1
 91
        4
176
     1
 64
     7
176
     1
 65
   257
176
     1
 75
     1
176
     1
175
     1
176
     1
 42
1.0
176
     1
 92
        0
176
     1
 66
   257
176
     1
 43
1.0
176
     1
 76
     1
176
     1
 77
     6
176
     1
 78
     2
176
     1
 67
     7
176
     1
 79
     3
176
     1
170
     0
176
     1
171
     0
176
     1
290
     0
176
     1
 93
        1
176
     1
 44
0.0
176
     1
173
     0
176
     1
1001
ACAD
1000
AcDbSavedByObjectVersion
1070
     0
  0
VISUALSTYLE
  5
3C
102
{ACAD_XDICTIONARY
360
1CE
102
}
102
{ACAD_REACTORS
330
29
102
}
330
29
100
AcDbVisualStyle
  2
X-Ray
 70
    25
177
     2
291
     0
 71
     2
176
     1
 72
     2
176
     1
 73
     1
176
     1
 90
        1
176
     1
 40
0.5
176
     1
 41
30.0
176
     1
 63
     7
421
 16777215
176
     1
 74
     1
176
     1
 91
        0
176
     1
 64
     7
176
     1
 65
   257
176
     1
 75
     1
176
     1
175
     1
176
     1
 42
1.0
176
     1
 92
        8
176
     1
 66
     7
176
     1
 43
1.0
176
     1
 76
     1
176
     1
 77
     6
176
     1
 78
     2
176
     1
 67
     7
176
     1
 79
     3
176
     1
170
     0
176
     1
171
     0
176
     1
290
     0
176
     1
 93
       13
176
     1
 44
0.0
176
     1
173
     0
176
     1
1001
ACAD
1000
AcDbSavedByObjectVersion
1070
     0
  0
DICTIONARYVAR
  5
1A6
102
{ACAD_REACTORS
330
1A1
102
}
330
1A1
100
DictionaryVariables
280
     0
  1
1:1
  0
DICTIONARYVAR
  5
1A3
102
{ACAD_REACTORS
330
1A1
102
}
330
1A1
100
DictionaryVariables
280
     0
  1
STANDARD
  0
DICTIONARYVAR
  5
1A2
102
{ACAD_REACTORS
330
1A1
102
}
330
1A1
100
DictionaryVariables
280
     0
  1
STANDARD
  0
DICTIONARYVAR
  5
1A4
102
{ACAD_REACTORS
330
1A1
102
}
330
1A1
100
DictionaryVariables
280
     0
  1
Imperial24
  0
DICTIONARYVAR
  5
1A5
102
{ACAD_REACTORS
330
1A1
102
}
330
1A1
100
DictionaryVariables
280
     0
  1
Imperial24
  0
DICTIONARY
  5
1DE
330
6B
100
AcDbDictionary
280
     1
281
     1
  3
ACAD_XREC_ROUNDTRIP
360
1DF
  0
DICTIONARY
  5
1A
330
19
100
AcDbDictionary
280
     1
281
     1
  3
BUMPTILE
360
1C
  3
DIFFUSETILE
360
1B
  3
OPACITYTILE
360
1F
  3
REFLECTIONTILE
360
1E
  3
REFRACTIONTILE
360
20
  3
SPECULARTILE
360
1D
  0
DICTIONARY
  5
12
330
11
100
AcDbDictionary
280
     1
281
     1
  3
BUMPTILE
360
14
  3
DIFFUSETILE
360
13
  3
OPACITYTILE
360
17
  3
REFLECTIONTILE
360
16
  3
REFRACTIONTILE
360
18
  3
SPECULARTILE
360
15
  0
DICTIONARY
  5
22
330
21
100
AcDbDictionary
280
     1
281
     1
  3
BUMPTILE
360
24
  3
DIFFUSETILE
360
23
  3
OPACITYTILE
360
27
  3
REFLECTIONTILE
360
26
  3
REFRACTIONTILE
360
28
  3
SPECULARTILE
360
25
  0
DICTIONARY
  5
1DA
330
67
100
AcDbDictionary
280
     1
281
     1
  3
ACAD_XREC_ROUNDTRIP
360
1DB
  0
DICTIONARY
  5
1DC
330
69
100
AcDbDictionary
280
     1
281
     1
  3
ACAD_XREC_ROUNDTRIP
360
1DD
  0
DICTIONARY
  5
1A7
330
65
100
AcDbDictionary
280
     1
281
     1
  3
ACAD_ROUNDTRIP_2008_TABLESTYLE_CELLSTYLEMAP
360
1A8
  0
DICTIONARY
  5
1B4
330
2F
100
AcDbDictionary
280
     1
281
     1
  3
ACAD_XREC_ROUNDTRIP
360
1B5
  0
DICTIONARY
  5
1B2
330
2E
100
AcDbDictionary
280
     1
281
     1
  3
ACAD_XREC_ROUNDTRIP
360
1B3
  0
DICTIONARY
  5
1C0
330
35
100
AcDbDictionary
280
     1
281
     1
  3
ACAD_XREC_ROUNDTRIP
360
1C1
  0
DICTIONARY
  5
1C8
330
39
100
AcDbDictionary
280
     1
281
     1
  3
ACAD_XREC_ROUNDTRIP
360
1C9
  0
DICTIONARY
  5
1BA
330
32
100
AcDbDictionary
280
     1
281
     1
  3
ACAD_XREC_ROUNDTRIP
360
1BB
  0
DICTIONARY
  5
1BE
330
34
100
AcDbDictionary
280
     1
281
     1
  3
ACAD_XREC_ROUNDTRIP
360
1BF
  0
DICTIONARY
  5
1D8
330
41
100
AcDbDictionary
280
     1
281
     1
  3
ACAD_XREC_ROUNDTRIP
360
1D9
  0
DICTIONARY
  5
1C6
330
38
100
AcDbDictionary
280
     1
281
     1
  3
ACAD_XREC_ROUNDTRIP
360
1C7
  0
DICTIONARY
  5
1AA
330
2A
100
AcDbDictionary
280
     1
281
     1
  3
ACAD_XREC_ROUNDTRIP
360
1AB
  0
DICTIONARY
  5
1AC
330
2B
100
AcDbDictionary
280
     1
281
     1
  3
ACAD_XREC_ROUNDTRIP
360
1AD
  0
DICTIONARY
  5
1AE
330
2C
100
AcDbDictionary
280
     1
281
     1
  3
ACAD_XREC_ROUNDTRIP
360
1AF
  0
DICTIONARY
  5
1B0
330
2D
100
AcDbDictionary
280
     1
281
     1
  3
ACAD_XREC_ROUNDTRIP
360
1B1
  0
DICTIONARY
  5
1B8
330
31
100
AcDbDictionary
280
     1
281
     1
  3
ACAD_XREC_ROUNDTRIP
360
1B9
  0
DICTIONARY
  5
1D4
330
3F
100
AcDbDictionary
280
     1
281
     1
  3
ACAD_XREC_ROUNDTRIP
360
1D5
  0
DICTIONARY
  5
1C4
330
37
100
AcDbDictionary
280
     1
281
     1
  3
ACAD_XREC_ROUNDTRIP
360
1C5
  0
DICTIONARY
  5
1D6
330
40
100
AcDbDictionary
280
     1
281
     1
  3
ACAD_XREC_ROUNDTRIP
360
1D7
  0
DICTIONARY
  5
1BC
330
33
100
AcDbDictionary
280
     1
281
     1
  3
ACAD_XREC_ROUNDTRIP
360
1BD
  0
DICTIONARY
  5
1D2
330
3E
100
AcDbDictionary
280
     1
281
     1
  3
ACAD_XREC_ROUNDTRIP
360
1D3
  0
DICTIONARY
  5
1D0
330
3D
100
AcDbDictionary
280
     1
281
     1
  3
ACAD_XREC_ROUNDTRIP
360
1D1
  0
DICTIONARY
  5
1CA
330
3A
100
AcDbDictionary
280
     1
281
     1
  3
ACAD_XREC_ROUNDTRIP
360
1CB
  0
DICTIONARY
  5
1CC
330
3B
100
AcDbDictionary
280
     1
281
     1
  3
ACAD_XREC_ROUNDTRIP
360
1CD
  0
DICTIONARY
  5
1C2
330
36
100
AcDbDictionary
280
     1
281
     1
  3
ACAD_XREC_ROUNDTRIP
360
1C3
  0
DICTIONARY
  5
1B6
330
30
100
AcDbDictionary
280
     1
281
     1
  3
ACAD_XREC_ROUNDTRIP
360
1B7
  0
DICTIONARY
  5
1CE
330
3C
100
AcDbDictionary
280
     1
281
     1
  3
ACAD_XREC_ROUNDTRIP
360
1CF
  0
XRECORD
  5
1DF
102
{ACAD_REACTORS
330
1DE
102
}
330
1DE
100
AcDbXrecord
280
     1
102
DISPLAYNAME
  1
Imperial24
102
FLAGS
 90
        0
  0
XRECORD
  5
1C
102
{ACAD_REACTORS
330
1A
102
}
330
1A
100
AcDbXrecord
280
     1
270
     1
271
     1
  0
XRECORD
  5
1B
102
{ACAD_REACTORS
330
1A
102
}
330
1A
100
AcDbXrecord
280
     1
270
     1
271
     1
  0
XRECORD
  5
1F
102
{ACAD_REACTORS
330
1A
102
}
330
1A
100
AcDbXrecord
280
     1
270
     1
271
     1
  0
XRECORD
  5
1E
102
{ACAD_REACTORS
330
1A
102
}
330
1A
100
AcDbXrecord
280
     1
270
     1
271
     1
  0
XRECORD
  5
20
102
{ACAD_REACTORS
330
1A
102
}
330
1A
100
AcDbXrecord
280
     1
270
     1
271
     1
  0
XRECORD
  5
1D
102
{ACAD_REACTORS
330
1A
102
}
330
1A
100
AcDbXrecord
280
     1
270
     1
271
     1
  0
XRECORD
  5
14
102
{ACAD_REACTORS
330
12
102
}
330
12
100
AcDbXrecord
280
     1
270
     1
271
     1
  0
XRECORD
  5
13
102
{ACAD_REACTORS
330
12
102
}
330
12
100
AcDbXrecord
280
     1
270
     1
271
     1
  0
XRECORD
  5
17
102
{ACAD_REACTORS
330
12
102
}
330
12
100
AcDbXrecord
280
     1
270
     1
271
     1
  0
XRECORD
  5
16
102
{ACAD_REACTORS
330
12
102
}
330
12
100
AcDbXrecord
280
     1
270
     1
271
     1
  0
XRECORD
  5
18
102
{ACAD_REACTORS
330
12
102
}
330
12
100
AcDbXrecord
280
     1
270
     1
271
     1
  0
XRECORD
  5
15
102
{ACAD_REACTORS
330
12
102
}
330
12
100
AcDbXrecord
280
     1
270
     1
271
     1
  0
XRECORD
  5
24
102
{ACAD_REACTORS
330
22
102
}
330
22
100
AcDbXrecord
280
     1
270
     1
271
     1
  0
XRECORD
  5
23
102
{ACAD_REACTORS
330
22
102
}
330
22
100
AcDbXrecord
280
     1
270
     1
271
     1
  0
XRECORD
  5
27
102
{ACAD_REACTORS
330
22
102
}
330
22
100
AcDbXrecord
280
     1
270
     1
271
     1
  0
XRECORD
  5
26
102
{ACAD_REACTORS
330
22
102
}
330
22
100
AcDbXrecord
280
     1
270
     1
271
     1
  0
XRECORD
  5
28
102
{ACAD_REACTORS
330
22
102
}
330
22
100
AcDbXrecord
280
     1
270
     1
271
     1
  0
XRECORD
  5
25
102
{ACAD_REACTORS
330
22
102
}
330
22
100
AcDbXrecord
280
     1
270
     1
271
     1
  0
XRECORD
  5
1DB
102
{ACAD_REACTORS
330
1DA
102
}
330
1DA
100
AcDbXrecord
280
     1
102
ACAD_ROUNDTRIP_2012_MLEADER_STYLE
298
     1
  0
XRECORD
  5
1DD
102
{ACAD_REACTORS
330
1DC
102
}
330
1DC
100
AcDbXrecord
280
     1
102
DISPLAYNAME
  1
Imperial24
102
FLAGS
 90
        0
  0
CELLSTYLEMAP
  5
1A8
102
{ACAD_REACTORS
330
1A7
102
}
330
1A7
100
AcDbCellStyleMap
 90
        3
300
CELLSTYLE
  1
TABLEFORMAT_BEGIN
 90
        5
170
     1
 91
        0
 92
    32768
 62
   257
 93
        1
300
CONTENTFORMAT
  1
CONTENTFORMAT_BEGIN
 90
        0
 91
        0
 92
      512
 93
        0
300

 40
0.0
140
1.0
 94
        5
 62
     0
340
55
144
0.25
309
CONTENTFORMAT_END
171
     0
 94
        0
309
TABLEFORMAT_END
  1
CELLSTYLE_BEGIN
 90
        1
 91
        1
300
_TITLE
309
CELLSTYLE_END
300
CELLSTYLE
  1
TABLEFORMAT_BEGIN
 90
        5
170
     1
 91
        0
 92
        0
 62
   257
 93
        1
300
CONTENTFORMAT
  1
CONTENTFORMAT_BEGIN
 90
        0
 91
        0
 92
      512
 93
        0
300

 40
0.0
140
1.0
 94
        5
 62
     0
340
55
144
0.18
309
CONTENTFORMAT_END
171
     0
 94
        0
309
TABLEFORMAT_END
  1
CELLSTYLE_BEGIN
 90
        2
 91
        1
300
_HEADER
309
CELLSTYLE_END
300
CELLSTYLE
  1
TABLEFORMAT_BEGIN
 90
        5
170
     1
 91
        0
 92
        0
 62
   257
 93
        1
300
CONTENTFORMAT
  1
CONTENTFORMAT_BEGIN
 90
        0
 91
        0
 92
      512
 93
        0
300

 40
0.0
140
1.0
 94
        2
 62
     0
340
55
144
0.18
309
CONTENTFORMAT_END
171
     0
 94
        0
309
TABLEFORMAT_END
  1
CELLSTYLE_BEGIN
 90
        3
 91
        2
300
_DATA
309
CELLSTYLE_END
  0
XRECORD
  5
1B5
102
{ACAD_REACTORS
330
1B4
102
}
330
1B4
100
AcDbXrecord
280
     1
102
RTVSPost2010Prop28
280
     1
102
RTVSPost2010PropOp28
 70
     1
102
RTVSPost2010Prop29
280
     1
102
RTVSPost2010PropOp29
 70
     1
102
RTVSPost2010Prop30
280
     0
102
RTVSPost2010PropOp30
 70
     1
102
RTVSPost2010Prop31
280
     0
102
RTVSPost2010PropOp31
 70
     1
102
RTVSPost2010Prop32
280
     0
102
RTVSPost2010PropOp32
 70
     1
102
RTVSPost2010Prop33
280
     0
102
RTVSPost2010PropOp33
 70
     1
102
RTVSPost2010Prop34
280
     0
102
RTVSPost2010PropOp34
 70
     1
102
RTVSPost2010Prop35
280
     0
102
RTVSPost2010PropOp35
 70
     1
102
RTVSPost2010Prop36
280
     0
102
RTVSPost2010PropOp36
 70
     1
102
RTVSPost2010Prop37
 90
       50
102
RTVSPost2010PropOp37
 70
     1
102
RTVSPost2010Prop38
140
0.0
102
RTVSPost2010PropOp38
 70
     1
102
RTVSPost2010Prop39
140
1.0
102
RTVSPost2010PropOp39
 70
     1
102
RTVSPost2010Prop40
 90
        0
102
RTVSPost2010PropOp40
 70
     1
102
RTVSPost2010Prop41ColorIndex
 90
       18
102
RTVSPost2010Prop41ColorRGB
 90
        0
102
RTVSPost2010PropOp41
 70
     1
102
RTVSPost2010Prop42
 90
       50
102
RTVSPost2010PropOp42
 70
     1
102
RTVSPost2010Prop43
 90
        3
102
RTVSPost2010PropOp43
 70
     1
102
RTVSPost2010Prop44ColorIndex
 90
        5
102
RTVSPost2010Prop44ColorRGB
 90
      255
102
RTVSPost2010PropOp44
 70
     1
102
RTVSPost2010Prop45
280
     0
102
RTVSPost2010PropOp45
 70
     1
102
RTVSPost2010Prop46
 90
       50
102
RTVSPost2010PropOp46
 70
     1
102
RTVSPost2010Prop47
 90
       50
102
RTVSPost2010PropOp47
 70
     1
102
RTVSPost2010Prop48
 90
       50
102
RTVSPost2010PropOp48
 70
     1
102
RTVSPost2010Prop49
280
     0
102
RTVSPost2010PropOp49
 70
     1
102
RTVSPost2010Prop50
 90
       50
102
RTVSPost2010PropOp50
 70
     1
102
RTVSPost2010Prop51ColorIndex
 90
      256
102
RTVSPost2010Prop51ColorRGB
 90
-16777216
102
RTVSPost2010PropOp51
 70
     0
102
RTVSPost2010Prop52
140
1.0
102
RTVSPost2010PropOp52
 70
     0
102
RTVSPost2010Prop53
 90
        2
102
RTVSPost2010PropOp53
 70
     1
102
RTVSPost2010Prop54
  1
strokes_ogs.tif
102
RTVSPost2010PropOp54
 70
     1
102
RTVSPost2010Prop55
280
     0
102
RTVSPost2010PropOp55
 70
     1
102
RTVSPost2010Prop56
140
1.0
102
RTVSPost2010PropOp56
 70
     1
102
RTVSPost2010Prop57
140
1.0
102
RTVSPost2010PropOp57
 70
     1
  0
XRECORD
  5
1B3
102
{ACAD_REACTORS
330
1B2
102
}
330
1B2
100
AcDbXrecord
280
     1
102
RTVSPost2010Prop28
280
     0
102
RTVSPost2010PropOp28
 70
     1
102
RTVSPost2010Prop29
280
     1
102
RTVSPost2010PropOp29
 70
     1
102
RTVSPost2010Prop30
280
     1
102
RTVSPost2010PropOp30
 70
     1
102
RTVSPost2010Prop31
280
     0
102
RTVSPost2010PropOp31
 70
     1
102
RTVSPost2010Prop32
280
     0
102
RTVSPost2010PropOp32
 70
     1
102
RTVSPost2010Prop33
280
     0
102
RTVSPost2010PropOp33
 70
     1
102
RTVSPost2010Prop34
280
     0
102
RTVSPost2010PropOp34
 70
     1
102
RTVSPost2010Prop35
280
     0
102
RTVSPost2010PropOp35
 70
     1
102
RTVSPost2010Prop36
280
     0
102
RTVSPost2010PropOp36
 70
     1
102
RTVSPost2010Prop37
 90
       50
102
RTVSPost2010PropOp37
 70
     1
102
RTVSPost2010Prop38
140
0.0
102
RTVSPost2010PropOp38
 70
     1
102
RTVSPost2010Prop39
140
1.0
102
RTVSPost2010PropOp39
 70
     1
102
RTVSPost2010Prop40
 90
        0
102
RTVSPost2010PropOp40
 70
     1
102
RTVSPost2010Prop41ColorIndex
 90
       18
102
RTVSPost2010Prop41ColorRGB
 90
        0
102
RTVSPost2010PropOp41
 70
     1
102
RTVSPost2010Prop42
 90
       50
102
RTVSPost2010PropOp42
 70
     1
102
RTVSPost2010Prop43
 90
        3
102
RTVSPost2010PropOp43
 70
     1
102
RTVSPost2010Prop44ColorIndex
 90
        5
102
RTVSPost2010Prop44ColorRGB
 90
      255
102
RTVSPost2010PropOp44
 70
     1
102
RTVSPost2010Prop45
280
     0
102
RTVSPost2010PropOp45
 70
     1
102
RTVSPost2010Prop46
 90
       50
102
RTVSPost2010PropOp46
 70
     1
102
RTVSPost2010Prop47
 90
       50
102
RTVSPost2010PropOp47
 70
     1
102
RTVSPost2010Prop48
 90
       50
102
RTVSPost2010PropOp48
 70
     1
102
RTVSPost2010Prop49
280
     0
102
RTVSPost2010PropOp49
 70
     1
102
RTVSPost2010Prop50
 90
       50
102
RTVSPost2010PropOp50
 70
     1
102
RTVSPost2010Prop51ColorIndex
 90
      256
102
RTVSPost2010Prop51ColorRGB
 90
-16777216
102
RTVSPost2010PropOp51
 70
     0
102
RTVSPost2010Prop52
140
1.0
102
RTVSPost2010PropOp52
 70
     0
102
RTVSPost2010Prop53
 90
        2
102
RTVSPost2010PropOp53
 70
     1
102
RTVSPost2010Prop54
  1
strokes_ogs.tif
102
RTVSPost2010PropOp54
 70
     1
102
RTVSPost2010Prop55
280
     0
102
RTVSPost2010PropOp55
 70
     1
102
RTVSPost2010Prop56
140
1.0
102
RTVSPost2010PropOp56
 70
     1
102
RTVSPost2010Prop57
140
1.0
102
RTVSPost2010PropOp57
 70
     1
  0
XRECORD
  5
1C1
102
{ACAD_REACTORS
330
1C0
102
}
330
1C0
100
AcDbXrecord
280
     1
102
RTVSPost2010Prop28
280
     0
102
RTVSPost2010PropOp28
 70
     1
102
RTVSPost2010Prop29
280
     1
102
RTVSPost2010PropOp29
 70
     1
102
RTVSPost2010Prop30
280
     1
102
RTVSPost2010PropOp30
 70
     1
102
RTVSPost2010Prop31
280
     0
102
RTVSPost2010PropOp31
 70
     1
102
RTVSPost2010Prop32
280
     0
102
RTVSPost2010PropOp32
 70
     1
102
RTVSPost2010Prop33
280
     0
102
RTVSPost2010PropOp33
 70
     1
102
RTVSPost2010Prop34
280
     0
102
RTVSPost2010PropOp34
 70
     1
102
RTVSPost2010Prop35
280
     0
102
RTVSPost2010PropOp35
 70
     1
102
RTVSPost2010Prop36
280
     0
102
RTVSPost2010PropOp36
 70
     1
102
RTVSPost2010Prop37
 90
       50
102
RTVSPost2010PropOp37
 70
     1
102
RTVSPost2010Prop38
140
0.0
102
RTVSPost2010PropOp38
 70
     1
102
RTVSPost2010Prop39
140
1.0
102
RTVSPost2010PropOp39
 70
     1
102
RTVSPost2010Prop40
 90
        0
102
RTVSPost2010PropOp40
 70
     1
102
RTVSPost2010Prop41ColorIndex
 90
       18
102
RTVSPost2010Prop41ColorRGB
 90
        0
102
RTVSPost2010PropOp41
 70
     1
102
RTVSPost2010Prop42
 90
       50
102
RTVSPost2010PropOp42
 70
     1
102
RTVSPost2010Prop43
 90
        3
102
RTVSPost2010PropOp43
 70
     1
102
RTVSPost2010Prop44ColorIndex
 90
        5
102
RTVSPost2010Prop44ColorRGB
 90
      255
102
RTVSPost2010PropOp44
 70
     1
102
RTVSPost2010Prop45
280
     0
102
RTVSPost2010PropOp45
 70
     1
102
RTVSPost2010Prop46
 90
       50
102
RTVSPost2010PropOp46
 70
     1
102
RTVSPost2010Prop47
 90
       50
102
RTVSPost2010PropOp47
 70
     1
102
RTVSPost2010Prop48
 90
       50
102
RTVSPost2010PropOp48
 70
     1
102
RTVSPost2010Prop49
280
     0
102
RTVSPost2010PropOp49
 70
     1
102
RTVSPost2010Prop50
 90
       50
102
RTVSPost2010PropOp50
 70
     1
102
RTVSPost2010Prop51ColorIndex
 90
      256
102
RTVSPost2010Prop51ColorRGB
 90
-16777216
102
RTVSPost2010PropOp51
 70
     0
102
RTVSPost2010Prop52
140
1.0
102
RTVSPost2010PropOp52
 70
     0
102
RTVSPost2010Prop53
 90
        2
102
RTVSPost2010PropOp53
 70
     1
102
RTVSPost2010Prop54
  1
strokes_ogs.tif
102
RTVSPost2010PropOp54
 70
     1
102
RTVSPost2010Prop55
280
     0
102
RTVSPost2010PropOp55
 70
     1
102
RTVSPost2010Prop56
140
1.0
102
RTVSPost2010PropOp56
 70
     1
102
RTVSPost2010Prop57
140
1.0
102
RTVSPost2010PropOp57
 70
     1
  0
XRECORD
  5
1C9
102
{ACAD_REACTORS
330
1C8
102
}
330
1C8
100
AcDbXrecord
280
     1
102
RTVSPost2010Prop28
280
     0
102
RTVSPost2010PropOp28
 70
     1
102
RTVSPost2010Prop29
280
     1
102
RTVSPost2010PropOp29
 70
     1
102
RTVSPost2010Prop30
280
     1
102
RTVSPost2010PropOp30
 70
     1
102
RTVSPost2010Prop31
280
     0
102
RTVSPost2010PropOp31
 70
     1
102
RTVSPost2010Prop32
280
     0
102
RTVSPost2010PropOp32
 70
     1
102
RTVSPost2010Prop33
280
     0
102
RTVSPost2010PropOp33
 70
     1
102
RTVSPost2010Prop34
280
     0
102
RTVSPost2010PropOp34
 70
     1
102
RTVSPost2010Prop35
280
     0
102
RTVSPost2010PropOp35
 70
     1
102
RTVSPost2010Prop36
280
     0
102
RTVSPost2010PropOp36
 70
     1
102
RTVSPost2010Prop37
 90
       50
102
RTVSPost2010PropOp37
 70
     1
102
RTVSPost2010Prop38
140
0.0
102
RTVSPost2010PropOp38
 70
     1
102
RTVSPost2010Prop39
140
1.0
102
RTVSPost2010PropOp39
 70
     1
102
RTVSPost2010Prop40
 90
        0
102
RTVSPost2010PropOp40
 70
     1
102
RTVSPost2010Prop41ColorIndex
 90
       18
102
RTVSPost2010Prop41ColorRGB
 90
        0
102
RTVSPost2010PropOp41
 70
     1
102
RTVSPost2010Prop42
 90
       50
102
RTVSPost2010PropOp42
 70
     1
102
RTVSPost2010Prop43
 90
        3
102
RTVSPost2010PropOp43
 70
     1
102
RTVSPost2010Prop44ColorIndex
 90
        5
102
RTVSPost2010Prop44ColorRGB
 90
      255
102
RTVSPost2010PropOp44
 70
     1
102
RTVSPost2010Prop45
280
     0
102
RTVSPost2010PropOp45
 70
     1
102
RTVSPost2010Prop46
 90
       50
102
RTVSPost2010PropOp46
 70
     1
102
RTVSPost2010Prop47
 90
       50
102
RTVSPost2010PropOp47
 70
     1
102
RTVSPost2010Prop48
 90
       50
102
RTVSPost2010PropOp48
 70
     1
102
RTVSPost2010Prop49
280
     0
102
RTVSPost2010PropOp49
 70
     1
102
RTVSPost2010Prop50
 90
       50
102
RTVSPost2010PropOp50
 70
     1
102
RTVSPost2010Prop51ColorIndex
 90
      256
102
RTVSPost2010Prop51ColorRGB
 90
-16777216
102
RTVSPost2010PropOp51
 70
     0
102
RTVSPost2010Prop52
140
1.0
102
RTVSPost2010PropOp52
 70
     0
102
RTVSPost2010Prop53
 90
        2
102
RTVSPost2010PropOp53
 70
     1
102
RTVSPost2010Prop54
  1
strokes_ogs.tif
102
RTVSPost2010PropOp54
 70
     1
102
RTVSPost2010Prop55
280
     0
102
RTVSPost2010PropOp55
 70
     1
102
RTVSPost2010Prop56
140
1.0
102
RTVSPost2010PropOp56
 70
     1
102
RTVSPost2010Prop57
140
1.0
102
RTVSPost2010PropOp57
 70
     1
  0
XRECORD
  5
1BB
102
{ACAD_REACTORS
330
1BA
102
}
330
1BA
100
AcDbXrecord
280
     1
102
RTVSPost2010Prop28
280
     0
102
RTVSPost2010PropOp28
 70
     1
102
RTVSPost2010Prop29
280
     1
102
RTVSPost2010PropOp29
 70
     1
102
RTVSPost2010Prop30
280
     1
102
RTVSPost2010PropOp30
 70
     1
102
RTVSPost2010Prop31
280
     0
102
RTVSPost2010PropOp31
 70
     1
102
RTVSPost2010Prop32
280
     0
102
RTVSPost2010PropOp32
 70
     1
102
RTVSPost2010Prop33
280
     0
102
RTVSPost2010PropOp33
 70
     1
102
RTVSPost2010Prop34
280
     0
102
RTVSPost2010PropOp34
 70
     1
102
RTVSPost2010Prop35
280
     0
102
RTVSPost2010PropOp35
 70
     1
102
RTVSPost2010Prop36
280
     0
102
RTVSPost2010PropOp36
 70
     1
102
RTVSPost2010Prop37
 90
       50
102
RTVSPost2010PropOp37
 70
     1
102
RTVSPost2010Prop38
140
0.0
102
RTVSPost2010PropOp38
 70
     1
102
RTVSPost2010Prop39
140
1.0
102
RTVSPost2010PropOp39
 70
     1
102
RTVSPost2010Prop40
 90
        0
102
RTVSPost2010PropOp40
 70
     1
102
RTVSPost2010Prop41ColorIndex
 90
       18
102
RTVSPost2010Prop41ColorRGB
 90
        0
102
RTVSPost2010PropOp41
 70
     1
102
RTVSPost2010Prop42
 90
       50
102
RTVSPost2010PropOp42
 70
     1
102
RTVSPost2010Prop43
 90
        3
102
RTVSPost2010PropOp43
 70
     1
102
RTVSPost2010Prop44ColorIndex
 90
        5
102
RTVSPost2010Prop44ColorRGB
 90
      255
102
RTVSPost2010PropOp44
 70
     1
102
RTVSPost2010Prop45
280
     0
102
RTVSPost2010PropOp45
 70
     1
102
RTVSPost2010Prop46
 90
       50
102
RTVSPost2010PropOp46
 70
     1
102
RTVSPost2010Prop47
 90
       50
102
RTVSPost2010PropOp47
 70
     1
102
RTVSPost2010Prop48
 90
       50
102
RTVSPost2010PropOp48
 70
     1
102
RTVSPost2010Prop49
280
     0
102
RTVSPost2010PropOp49
 70
     1
102
RTVSPost2010Prop50
 90
       50
102
RTVSPost2010PropOp50
 70
     1
102
RTVSPost2010Prop51ColorIndex
 90
      256
102
RTVSPost2010Prop51ColorRGB
 90
-16777216
102
RTVSPost2010PropOp51
 70
     0
102
RTVSPost2010Prop52
140
1.0
102
RTVSPost2010PropOp52
 70
     0
102
RTVSPost2010Prop53
 90
        2
102
RTVSPost2010PropOp53
 70
     1
102
RTVSPost2010Prop54
  1
strokes_ogs.tif
102
RTVSPost2010PropOp54
 70
     1
102
RTVSPost2010Prop55
280
     0
102
RTVSPost2010PropOp55
 70
     1
102
RTVSPost2010Prop56
140
1.0
102
RTVSPost2010PropOp56
 70
     1
102
RTVSPost2010Prop57
140
1.0
102
RTVSPost2010PropOp57
 70
     1
  0
XRECORD
  5
1BF
102
{ACAD_REACTORS
330
1BE
102
}
330
1BE
100
AcDbXrecord
280
     1
102
RTVSPost2010Prop28
280
     0
102
RTVSPost2010PropOp28
 70
     1
102
RTVSPost2010Prop29
280
     1
102
RTVSPost2010PropOp29
 70
     1
102
RTVSPost2010Prop30
280
     1
102
RTVSPost2010PropOp30
 70
     1
102
RTVSPost2010Prop31
280
     0
102
RTVSPost2010PropOp31
 70
     1
102
RTVSPost2010Prop32
280
     0
102
RTVSPost2010PropOp32
 70
     1
102
RTVSPost2010Prop33
280
     0
102
RTVSPost2010PropOp33
 70
     1
102
RTVSPost2010Prop34
280
     0
102
RTVSPost2010PropOp34
 70
     1
102
RTVSPost2010Prop35
280
     0
102
RTVSPost2010PropOp35
 70
     1
102
RTVSPost2010Prop36
280
     0
102
RTVSPost2010PropOp36
 70
     1
102
RTVSPost2010Prop37
 90
       50
102
RTVSPost2010PropOp37
 70
     1
102
RTVSPost2010Prop38
140
0.0
102
RTVSPost2010PropOp38
 70
     1
102
RTVSPost2010Prop39
140
1.0
102
RTVSPost2010PropOp39
 70
     1
102
RTVSPost2010Prop40
 90
        0
102
RTVSPost2010PropOp40
 70
     1
102
RTVSPost2010Prop41ColorIndex
 90
       18
102
RTVSPost2010Prop41ColorRGB
 90
        0
102
RTVSPost2010PropOp41
 70
     1
102
RTVSPost2010Prop42
 90
       50
102
RTVSPost2010PropOp42
 70
     1
102
RTVSPost2010Prop43
 90
        3
102
RTVSPost2010PropOp43
 70
     1
102
RTVSPost2010Prop44ColorIndex
 90
        5
102
RTVSPost2010Prop44ColorRGB
 90
      255
102
RTVSPost2010PropOp44
 70
     1
102
RTVSPost2010Prop45
280
     0
102
RTVSPost2010PropOp45
 70
     1
102
RTVSPost2010Prop46
 90
       50
102
RTVSPost2010PropOp46
 70
     1
102
RTVSPost2010Prop47
 90
       50
102
RTVSPost2010PropOp47
 70
     1
102
RTVSPost2010Prop48
 90
       50
102
RTVSPost2010PropOp48
 70
     1
102
RTVSPost2010Prop49
280
     0
102
RTVSPost2010PropOp49
 70
     1
102
RTVSPost2010Prop50
 90
       50
102
RTVSPost2010PropOp50
 70
     1
102
RTVSPost2010Prop51ColorIndex
 90
      256
102
RTVSPost2010Prop51ColorRGB
 90
-16777216
102
RTVSPost2010PropOp51
 70
     0
102
RTVSPost2010Prop52
140
1.0
102
RTVSPost2010PropOp52
 70
     0
102
RTVSPost2010Prop53
 90
        2
102
RTVSPost2010PropOp53
 70
     1
102
RTVSPost2010Prop54
  1
strokes_ogs.tif
102
RTVSPost2010PropOp54
 70
     1
102
RTVSPost2010Prop55
280
     0
102
RTVSPost2010PropOp55
 70
     1
102
RTVSPost2010Prop56
140
1.0
102
RTVSPost2010PropOp56
 70
     1
102
RTVSPost2010Prop57
140
1.0
102
RTVSPost2010PropOp57
 70
     1
  0
XRECORD
  5
1D9
102
{ACAD_REACTORS
330
1D8
102
}
330
1D8
100
AcDbXrecord
280
     1
102
RTVSPost2010Prop28
280
     0
102
RTVSPost2010PropOp28
 70
     0
102
RTVSPost2010Prop29
280
     1
102
RTVSPost2010PropOp29
 70
     0
102
RTVSPost2010Prop30
280
     1
102
RTVSPost2010PropOp30
 70
     0
102
RTVSPost2010Prop31
280
     0
102
RTVSPost2010PropOp31
 70
     0
102
RTVSPost2010Prop32
280
     0
102
RTVSPost2010PropOp32
 70
     0
102
RTVSPost2010Prop33
280
     0
102
RTVSPost2010PropOp33
 70
     0
102
RTVSPost2010Prop34
280
     0
102
RTVSPost2010PropOp34
 70
     0
102
RTVSPost2010Prop35
280
     0
102
RTVSPost2010PropOp35
 70
     0
102
RTVSPost2010Prop36
280
     0
102
RTVSPost2010PropOp36
 70
     0
102
RTVSPost2010Prop37
 90
       50
102
RTVSPost2010PropOp37
 70
     0
102
RTVSPost2010Prop38
140
0.0
102
RTVSPost2010PropOp38
 70
     0
102
RTVSPost2010Prop39
140
1.0
102
RTVSPost2010PropOp39
 70
     0
102
RTVSPost2010Prop40
 90
        0
102
RTVSPost2010PropOp40
 70
     0
102
RTVSPost2010Prop41ColorIndex
 90
       18
102
RTVSPost2010Prop41ColorRGB
 90
        0
102
RTVSPost2010PropOp41
 70
     0
102
RTVSPost2010Prop42
 90
       50
102
RTVSPost2010PropOp42
 70
     0
102
RTVSPost2010Prop43
 90
        3
102
RTVSPost2010PropOp43
 70
     0
102
RTVSPost2010Prop44ColorIndex
 90
        5
102
RTVSPost2010Prop44ColorRGB
 90
      255
102
RTVSPost2010PropOp44
 70
     0
102
RTVSPost2010Prop45
280
     0
102
RTVSPost2010PropOp45
 70
     0
102
RTVSPost2010Prop46
 90
       50
102
RTVSPost2010PropOp46
 70
     0
102
RTVSPost2010Prop47
 90
       50
102
RTVSPost2010PropOp47
 70
     0
102
RTVSPost2010Prop48
 90
       50
102
RTVSPost2010PropOp48
 70
     0
102
RTVSPost2010Prop49
280
     0
102
RTVSPost2010PropOp49
 70
     0
102
RTVSPost2010Prop50
 90
       50
102
RTVSPost2010PropOp50
 70
     0
102
RTVSPost2010Prop51ColorIndex
 90
      256
102
RTVSPost2010Prop51ColorRGB
 90
-16777216
102
RTVSPost2010PropOp51
 70
     0
102
RTVSPost2010Prop52
140
1.0
102
RTVSPost2010PropOp52
 70
     0
102
RTVSPost2010Prop53
 90
        2
102
RTVSPost2010PropOp53
 70
     0
102
RTVSPost2010Prop54
  1
strokes_ogs.tif
102
RTVSPost2010PropOp54
 70
     0
102
RTVSPost2010Prop55
280
     0
102
RTVSPost2010PropOp55
 70
     0
102
RTVSPost2010Prop56
140
1.0
102
RTVSPost2010PropOp56
 70
     0
102
RTVSPost2010Prop57
140
1.0
102
RTVSPost2010PropOp57
 70
     0
  0
XRECORD
  5
1C7
102
{ACAD_REACTORS
330
1C6
102
}
330
1C6
100
AcDbXrecord
280
     1
102
RTVSPost2010Prop28
280
     0
102
RTVSPost2010PropOp28
 70
     1
102
RTVSPost2010Prop29
280
     1
102
RTVSPost2010PropOp29
 70
     1
102
RTVSPost2010Prop30
280
     1
102
RTVSPost2010PropOp30
 70
     1
102
RTVSPost2010Prop31
280
     0
102
RTVSPost2010PropOp31
 70
     1
102
RTVSPost2010Prop32
280
     0
102
RTVSPost2010PropOp32
 70
     1
102
RTVSPost2010Prop33
280
     0
102
RTVSPost2010PropOp33
 70
     1
102
RTVSPost2010Prop34
280
     0
102
RTVSPost2010PropOp34
 70
     1
102
RTVSPost2010Prop35
280
     0
102
RTVSPost2010PropOp35
 70
     1
102
RTVSPost2010Prop36
280
     0
102
RTVSPost2010PropOp36
 70
     1
102
RTVSPost2010Prop37
 90
       50
102
RTVSPost2010PropOp37
 70
     1
102
RTVSPost2010Prop38
140
0.0
102
RTVSPost2010PropOp38
 70
     1
102
RTVSPost2010Prop39
140
1.0
102
RTVSPost2010PropOp39
 70
     1
102
RTVSPost2010Prop40
 90
        0
102
RTVSPost2010PropOp40
 70
     1
102
RTVSPost2010Prop41ColorIndex
 90
       18
102
RTVSPost2010Prop41ColorRGB
 90
        0
102
RTVSPost2010PropOp41
 70
     1
102
RTVSPost2010Prop42
 90
       50
102
RTVSPost2010PropOp42
 70
     1
102
RTVSPost2010Prop43
 90
        3
102
RTVSPost2010PropOp43
 70
     1
102
RTVSPost2010Prop44ColorIndex
 90
        5
102
RTVSPost2010Prop44ColorRGB
 90
      255
102
RTVSPost2010PropOp44
 70
     1
102
RTVSPost2010Prop45
280
     0
102
RTVSPost2010PropOp45
 70
     1
102
RTVSPost2010Prop46
 90
       50
102
RTVSPost2010PropOp46
 70
     1
102
RTVSPost2010Prop47
 90
       50
102
RTVSPost2010PropOp47
 70
     1
102
RTVSPost2010Prop48
 90
       50
102
RTVSPost2010PropOp48
 70
     1
102
RTVSPost2010Prop49
280
     0
102
RTVSPost2010PropOp49
 70
     1
102
RTVSPost2010Prop50
 90
       50
102
RTVSPost2010PropOp50
 70
     1
102
RTVSPost2010Prop51ColorIndex
 90
      256
102
RTVSPost2010Prop51ColorRGB
 90
-16777216
102
RTVSPost2010PropOp51
 70
     0
102
RTVSPost2010Prop52
140
1.0
102
RTVSPost2010PropOp52
 70
     0
102
RTVSPost2010Prop53
 90
        2
102
RTVSPost2010PropOp53
 70
     1
102
RTVSPost2010Prop54
  1
strokes_ogs.tif
102
RTVSPost2010PropOp54
 70
     1
102
RTVSPost2010Prop55
280
     0
102
RTVSPost2010PropOp55
 70
     1
102
RTVSPost2010Prop56
140
1.0
102
RTVSPost2010PropOp56
 70
     1
102
RTVSPost2010Prop57
140
1.0
102
RTVSPost2010PropOp57
 70
     1
  0
XRECORD
  5
1AB
102
{ACAD_REACTORS
330
1AA
102
}
330
1AA
100
AcDbXrecord
280
     1
102
RTVSPost2010Prop28
280
     0
102
RTVSPost2010PropOp28
 70
     1
102
RTVSPost2010Prop29
280
     1
102
RTVSPost2010PropOp29
 70
     1
102
RTVSPost2010Prop30
280
     1
102
RTVSPost2010PropOp30
 70
     1
102
RTVSPost2010Prop31
280
     0
102
RTVSPost2010PropOp31
 70
     1
102
RTVSPost2010Prop32
280
     0
102
RTVSPost2010PropOp32
 70
     1
102
RTVSPost2010Prop33
280
     0
102
RTVSPost2010PropOp33
 70
     1
102
RTVSPost2010Prop34
280
     0
102
RTVSPost2010PropOp34
 70
     1
102
RTVSPost2010Prop35
280
     0
102
RTVSPost2010PropOp35
 70
     1
102
RTVSPost2010Prop36
280
     0
102
RTVSPost2010PropOp36
 70
     1
102
RTVSPost2010Prop37
 90
       50
102
RTVSPost2010PropOp37
 70
     1
102
RTVSPost2010Prop38
140
0.0
102
RTVSPost2010PropOp38
 70
     1
102
RTVSPost2010Prop39
140
1.0
102
RTVSPost2010PropOp39
 70
     1
102
RTVSPost2010Prop40
 90
        0
102
RTVSPost2010PropOp40
 70
     1
102
RTVSPost2010Prop41ColorIndex
 90
       18
102
RTVSPost2010Prop41ColorRGB
 90
        0
102
RTVSPost2010PropOp41
 70
     1
102
RTVSPost2010Prop42
 90
       50
102
RTVSPost2010PropOp42
 70
     1
102
RTVSPost2010Prop43
 90
        3
102
RTVSPost2010PropOp43
 70
     1
102
RTVSPost2010Prop44ColorIndex
 90
        5
102
RTVSPost2010Prop44ColorRGB
 90
      255
102
RTVSPost2010PropOp44
 70
     1
102
RTVSPost2010Prop45
280
     0
102
RTVSPost2010PropOp45
 70
     1
102
RTVSPost2010Prop46
 90
       50
102
RTVSPost2010PropOp46
 70
     1
102
RTVSPost2010Prop47
 90
       50
102
RTVSPost2010PropOp47
 70
     1
102
RTVSPost2010Prop48
 90
       50
102
RTVSPost2010PropOp48
 70
     1
102
RTVSPost2010Prop49
280
     0
102
RTVSPost2010PropOp49
 70
     1
102
RTVSPost2010Prop50
 90
       50
102
RTVSPost2010PropOp50
 70
     1
102
RTVSPost2010Prop51ColorIndex
 90
      256
102
RTVSPost2010Prop51ColorRGB
 90
-16777216
102
RTVSPost2010PropOp51
 70
     0
102
RTVSPost2010Prop52
140
1.0
102
RTVSPost2010PropOp52
 70
     0
102
RTVSPost2010Prop53
 90
        2
102
RTVSPost2010PropOp53
 70
     1
102
RTVSPost2010Prop54
  1
strokes_ogs.tif
102
RTVSPost2010PropOp54
 70
     1
102
RTVSPost2010Prop55
280
     0
102
RTVSPost2010PropOp55
 70
     1
102
RTVSPost2010Prop56
140
1.0
102
RTVSPost2010PropOp56
 70
     1
102
RTVSPost2010Prop57
140
1.0
102
RTVSPost2010PropOp57
 70
     1
  0
XRECORD
  5
1AD
102
{ACAD_REACTORS
330
1AC
102
}
330
1AC
100
AcDbXrecord
280
     1
102
RTVSPost2010Prop28
280
     0
102
RTVSPost2010PropOp28
 70
     1
102
RTVSPost2010Prop29
280
     1
102
RTVSPost2010PropOp29
 70
     1
102
RTVSPost2010Prop30
280
     1
102
RTVSPost2010PropOp30
 70
     1
102
RTVSPost2010Prop31
280
     0
102
RTVSPost2010PropOp31
 70
     1
102
RTVSPost2010Prop32
280
     0
102
RTVSPost2010PropOp32
 70
     1
102
RTVSPost2010Prop33
280
     0
102
RTVSPost2010PropOp33
 70
     1
102
RTVSPost2010Prop34
280
     0
102
RTVSPost2010PropOp34
 70
     1
102
RTVSPost2010Prop35
280
     0
102
RTVSPost2010PropOp35
 70
     1
102
RTVSPost2010Prop36
280
     0
102
RTVSPost2010PropOp36
 70
     1
102
RTVSPost2010Prop37
 90
       50
102
RTVSPost2010PropOp37
 70
     1
102
RTVSPost2010Prop38
140
0.0
102
RTVSPost2010PropOp38
 70
     1
102
RTVSPost2010Prop39
140
1.0
102
RTVSPost2010PropOp39
 70
     1
102
RTVSPost2010Prop40
 90
        0
102
RTVSPost2010PropOp40
 70
     1
102
RTVSPost2010Prop41ColorIndex
 90
       18
102
RTVSPost2010Prop41ColorRGB
 90
        0
102
RTVSPost2010PropOp41
 70
     1
102
RTVSPost2010Prop42
 90
       50
102
RTVSPost2010PropOp42
 70
     1
102
RTVSPost2010Prop43
 90
        3
102
RTVSPost2010PropOp43
 70
     1
102
RTVSPost2010Prop44ColorIndex
 90
        5
102
RTVSPost2010Prop44ColorRGB
 90
      255
102
RTVSPost2010PropOp44
 70
     1
102
RTVSPost2010Prop45
280
     0
102
RTVSPost2010PropOp45
 70
     1
102
RTVSPost2010Prop46
 90
       50
102
RTVSPost2010PropOp46
 70
     1
102
RTVSPost2010Prop47
 90
       50
102
RTVSPost2010PropOp47
 70
     1
102
RTVSPost2010Prop48
 90
       50
102
RTVSPost2010PropOp48
 70
     1
102
RTVSPost2010Prop49
280
     0
102
RTVSPost2010PropOp49
 70
     1
102
RTVSPost2010Prop50
 90
       50
102
RTVSPost2010PropOp50
 70
     1
102
RTVSPost2010Prop51ColorIndex
 90
      256
102
RTVSPost2010Prop51ColorRGB
 90
-16777216
102
RTVSPost2010PropOp51
 70
     0
102
RTVSPost2010Prop52
140
1.0
102
RTVSPost2010PropOp52
 70
     0
102
RTVSPost2010Prop53
 90
        2
102
RTVSPost2010PropOp53
 70
     1
102
RTVSPost2010Prop54
  1
strokes_ogs.tif
102
RTVSPost2010PropOp54
 70
     1
102
RTVSPost2010Prop55
280
     0
102
RTVSPost2010PropOp55
 70
     1
102
RTVSPost2010Prop56
140
1.0
102
RTVSPost2010PropOp56
 70
     1
102
RTVSPost2010Prop57
140
1.0
102
RTVSPost2010PropOp57
 70
     1
  0
XRECORD
  5
1AF
102
{ACAD_REACTORS
330
1AE
102
}
330
1AE
100
AcDbXrecord
280
     1
102
RTVSPost2010Prop28
280
     0
102
RTVSPost2010PropOp28
 70
     1
102
RTVSPost2010Prop29
280
     1
102
RTVSPost2010PropOp29
 70
     1
102
RTVSPost2010Prop30
280
     1
102
RTVSPost2010PropOp30
 70
     1
102
RTVSPost2010Prop31
280
     0
102
RTVSPost2010PropOp31
 70
     1
102
RTVSPost2010Prop32
280
     0
102
RTVSPost2010PropOp32
 70
     1
102
RTVSPost2010Prop33
280
     0
102
RTVSPost2010PropOp33
 70
     1
102
RTVSPost2010Prop34
280
     0
102
RTVSPost2010PropOp34
 70
     1
102
RTVSPost2010Prop35
280
     0
102
RTVSPost2010PropOp35
 70
     1
102
RTVSPost2010Prop36
280
     0
102
RTVSPost2010PropOp36
 70
     1
102
RTVSPost2010Prop37
 90
       50
102
RTVSPost2010PropOp37
 70
     1
102
RTVSPost2010Prop38
140
0.0
102
RTVSPost2010PropOp38
 70
     1
102
RTVSPost2010Prop39
140
1.0
102
RTVSPost2010PropOp39
 70
     1
102
RTVSPost2010Prop40
 90
        0
102
RTVSPost2010PropOp40
 70
     1
102
RTVSPost2010Prop41ColorIndex
 90
       18
102
RTVSPost2010Prop41ColorRGB
 90
        0
102
RTVSPost2010PropOp41
 70
     1
102
RTVSPost2010Prop42
 90
       50
102
RTVSPost2010PropOp42
 70
     1
102
RTVSPost2010Prop43
 90
        3
102
RTVSPost2010PropOp43
 70
     1
102
RTVSPost2010Prop44ColorIndex
 90
        5
102
RTVSPost2010Prop44ColorRGB
 90
      255
102
RTVSPost2010PropOp44
 70
     1
102
RTVSPost2010Prop45
280
     0
102
RTVSPost2010PropOp45
 70
     1
102
RTVSPost2010Prop46
 90
       50
102
RTVSPost2010PropOp46
 70
     1
102
RTVSPost2010Prop47
 90
       50
102
RTVSPost2010PropOp47
 70
     1
102
RTVSPost2010Prop48
 90
       50
102
RTVSPost2010PropOp48
 70
     1
102
RTVSPost2010Prop49
280
     0
102
RTVSPost2010PropOp49
 70
     1
102
RTVSPost2010Prop50
 90
       50
102
RTVSPost2010PropOp50
 70
     1
102
RTVSPost2010Prop51ColorIndex
 90
      256
102
RTVSPost2010Prop51ColorRGB
 90
-16777216
102
RTVSPost2010PropOp51
 70
     0
102
RTVSPost2010Prop52
140
1.0
102
RTVSPost2010PropOp52
 70
     0
102
RTVSPost2010Prop53
 90
        2
102
RTVSPost2010PropOp53
 70
     1
102
RTVSPost2010Prop54
  1
strokes_ogs.tif
102
RTVSPost2010PropOp54
 70
     1
102
RTVSPost2010Prop55
280
     0
102
RTVSPost2010PropOp55
 70
     1
102
RTVSPost2010Prop56
140
1.0
102
RTVSPost2010PropOp56
 70
     1
102
RTVSPost2010Prop57
140
1.0
102
RTVSPost2010PropOp57
 70
     1
  0
XRECORD
  5
1B1
102
{ACAD_REACTORS
330
1B0
102
}
330
1B0
100
AcDbXrecord
280
     1
102
RTVSPost2010Prop28
280
     0
102
RTVSPost2010PropOp28
 70
     1
102
RTVSPost2010Prop29
280
     1
102
RTVSPost2010PropOp29
 70
     1
102
RTVSPost2010Prop30
280
     1
102
RTVSPost2010PropOp30
 70
     1
102
RTVSPost2010Prop31
280
     0
102
RTVSPost2010PropOp31
 70
     1
102
RTVSPost2010Prop32
280
     0
102
RTVSPost2010PropOp32
 70
     1
102
RTVSPost2010Prop33
280
     0
102
RTVSPost2010PropOp33
 70
     1
102
RTVSPost2010Prop34
280
     0
102
RTVSPost2010PropOp34
 70
     1
102
RTVSPost2010Prop35
280
     0
102
RTVSPost2010PropOp35
 70
     1
102
RTVSPost2010Prop36
280
     0
102
RTVSPost2010PropOp36
 70
     1
102
RTVSPost2010Prop37
 90
       50
102
RTVSPost2010PropOp37
 70
     1
102
RTVSPost2010Prop38
140
0.0
102
RTVSPost2010PropOp38
 70
     1
102
RTVSPost2010Prop39
140
1.0
102
RTVSPost2010PropOp39
 70
     1
102
RTVSPost2010Prop40
 90
        0
102
RTVSPost2010PropOp40
 70
     1
102
RTVSPost2010Prop41ColorIndex
 90
       18
102
RTVSPost2010Prop41ColorRGB
 90
        0
102
RTVSPost2010PropOp41
 70
     1
102
RTVSPost2010Prop42
 90
       50
102
RTVSPost2010PropOp42
 70
     1
102
RTVSPost2010Prop43
 90
        3
102
RTVSPost2010PropOp43
 70
     1
102
RTVSPost2010Prop44ColorIndex
 90
        5
102
RTVSPost2010Prop44ColorRGB
 90
      255
102
RTVSPost2010PropOp44
 70
     1
102
RTVSPost2010Prop45
280
     0
102
RTVSPost2010PropOp45
 70
     1
102
RTVSPost2010Prop46
 90
       50
102
RTVSPost2010PropOp46
 70
     1
102
RTVSPost2010Prop47
 90
       50
102
RTVSPost2010PropOp47
 70
     1
102
RTVSPost2010Prop48
 90
       50
102
RTVSPost2010PropOp48
 70
     1
102
RTVSPost2010Prop49
280
     0
102
RTVSPost2010PropOp49
 70
     1
102
RTVSPost2010Prop50
 90
       50
102
RTVSPost2010PropOp50
 70
     1
102
RTVSPost2010Prop51ColorIndex
 90
      256
102
RTVSPost2010Prop51ColorRGB
 90
-16777216
102
RTVSPost2010PropOp51
 70
     0
102
RTVSPost2010Prop52
140
1.0
102
RTVSPost2010PropOp52
 70
     0
102
RTVSPost2010Prop53
 90
        2
102
RTVSPost2010PropOp53
 70
     1
102
RTVSPost2010Prop54
  1
strokes_ogs.tif
102
RTVSPost2010PropOp54
 70
     1
102
RTVSPost2010Prop55
280
     0
102
RTVSPost2010PropOp55
 70
     1
102
RTVSPost2010Prop56
140
1.0
102
RTVSPost2010PropOp56
 70
     1
102
RTVSPost2010Prop57
140
1.0
102
RTVSPost2010PropOp57
 70
     1
  0
XRECORD
  5
1B9
102
{ACAD_REACTORS
330
1B8
102
}
330
1B8
100
AcDbXrecord
280
     1
102
RTVSPost2010Prop28
280
     0
102
RTVSPost2010PropOp28
 70
     1
102
RTVSPost2010Prop29
280
     1
102
RTVSPost2010PropOp29
 70
     1
102
RTVSPost2010Prop30
280
     1
102
RTVSPost2010PropOp30
 70
     1
102
RTVSPost2010Prop31
280
     0
102
RTVSPost2010PropOp31
 70
     1
102
RTVSPost2010Prop32
280
     0
102
RTVSPost2010PropOp32
 70
     1
102
RTVSPost2010Prop33
280
     0
102
RTVSPost2010PropOp33
 70
     1
102
RTVSPost2010Prop34
280
     0
102
RTVSPost2010PropOp34
 70
     1
102
RTVSPost2010Prop35
280
     0
102
RTVSPost2010PropOp35
 70
     1
102
RTVSPost2010Prop36
280
     0
102
RTVSPost2010PropOp36
 70
     1
102
RTVSPost2010Prop37
 90
       50
102
RTVSPost2010PropOp37
 70
     1
102
RTVSPost2010Prop38
140
0.0
102
RTVSPost2010PropOp38
 70
     1
102
RTVSPost2010Prop39
140
1.0
102
RTVSPost2010PropOp39
 70
     1
102
RTVSPost2010Prop40
 90
        0
102
RTVSPost2010PropOp40
 70
     1
102
RTVSPost2010Prop41ColorIndex
 90
       18
102
RTVSPost2010Prop41ColorRGB
 90
        0
102
RTVSPost2010PropOp41
 70
     1
102
RTVSPost2010Prop42
 90
       50
102
RTVSPost2010PropOp42
 70
     1
102
RTVSPost2010Prop43
 90
        3
102
RTVSPost2010PropOp43
 70
     1
102
RTVSPost2010Prop44ColorIndex
 90
        5
102
RTVSPost2010Prop44ColorRGB
 90
      255
102
RTVSPost2010PropOp44
 70
     1
102
RTVSPost2010Prop45
280
     0
102
RTVSPost2010PropOp45
 70
     1
102
RTVSPost2010Prop46
 90
       50
102
RTVSPost2010PropOp46
 70
     1
102
RTVSPost2010Prop47
 90
       50
102
RTVSPost2010PropOp47
 70
     1
102
RTVSPost2010Prop48
 90
       50
102
RTVSPost2010PropOp48
 70
     1
102
RTVSPost2010Prop49
280
     0
102
RTVSPost2010PropOp49
 70
     1
102
RTVSPost2010Prop50
 90
       50
102
RTVSPost2010PropOp50
 70
     1
102
RTVSPost2010Prop51ColorIndex
 90
      256
102
RTVSPost2010Prop51ColorRGB
 90
-16777216
102
RTVSPost2010PropOp51
 70
     0
102
RTVSPost2010Prop52
140
1.0
102
RTVSPost2010PropOp52
 70
     0
102
RTVSPost2010Prop53
 90
        2
102
RTVSPost2010PropOp53
 70
     1
102
RTVSPost2010Prop54
  1
strokes_ogs.tif
102
RTVSPost2010PropOp54
 70
     1
102
RTVSPost2010Prop55
280
     0
102
RTVSPost2010PropOp55
 70
     1
102
RTVSPost2010Prop56
140
1.0
102
RTVSPost2010PropOp56
 70
     1
102
RTVSPost2010Prop57
140
1.0
102
RTVSPost2010PropOp57
 70
     1
  0
XRECORD
  5
1D5
102
{ACAD_REACTORS
330
1D4
102
}
330
1D4
100
AcDbXrecord
280
     1
102
RTVSPost2010Prop28
280
     0
102
RTVSPost2010PropOp28
 70
     0
102
RTVSPost2010Prop29
280
     1
102
RTVSPost2010PropOp29
 70
     0
102
RTVSPost2010Prop30
280
     1
102
RTVSPost2010PropOp30
 70
     0
102
RTVSPost2010Prop31
280
     0
102
RTVSPost2010PropOp31
 70
     0
102
RTVSPost2010Prop32
280
     0
102
RTVSPost2010PropOp32
 70
     0
102
RTVSPost2010Prop33
280
     0
102
RTVSPost2010PropOp33
 70
     0
102
RTVSPost2010Prop34
280
     0
102
RTVSPost2010PropOp34
 70
     0
102
RTVSPost2010Prop35
280
     0
102
RTVSPost2010PropOp35
 70
     0
102
RTVSPost2010Prop36
280
     0
102
RTVSPost2010PropOp36
 70
     0
102
RTVSPost2010Prop37
 90
       50
102
RTVSPost2010PropOp37
 70
     0
102
RTVSPost2010Prop38
140
0.0
102
RTVSPost2010PropOp38
 70
     0
102
RTVSPost2010Prop39
140
1.0
102
RTVSPost2010PropOp39
 70
     0
102
RTVSPost2010Prop40
 90
        0
102
RTVSPost2010PropOp40
 70
     0
102
RTVSPost2010Prop41ColorIndex
 90
       18
102
RTVSPost2010Prop41ColorRGB
 90
        0
102
RTVSPost2010PropOp41
 70
     0
102
RTVSPost2010Prop42
 90
       50
102
RTVSPost2010PropOp42
 70
     0
102
RTVSPost2010Prop43
 90
        3
102
RTVSPost2010PropOp43
 70
     0
102
RTVSPost2010Prop44ColorIndex
 90
        5
102
RTVSPost2010Prop44ColorRGB
 90
      255
102
RTVSPost2010PropOp44
 70
     0
102
RTVSPost2010Prop45
280
     0
102
RTVSPost2010PropOp45
 70
     0
102
RTVSPost2010Prop46
 90
       50
102
RTVSPost2010PropOp46
 70
     0
102
RTVSPost2010Prop47
 90
       50
102
RTVSPost2010PropOp47
 70
     0
102
RTVSPost2010Prop48
 90
       50
102
RTVSPost2010PropOp48
 70
     0
102
RTVSPost2010Prop49
280
     0
102
RTVSPost2010PropOp49
 70
     0
102
RTVSPost2010Prop50
 90
       50
102
RTVSPost2010PropOp50
 70
     0
102
RTVSPost2010Prop51ColorIndex
 90
      256
102
RTVSPost2010Prop51ColorRGB
 90
-16777216
102
RTVSPost2010PropOp51
 70
     0
102
RTVSPost2010Prop52
140
1.0
102
RTVSPost2010PropOp52
 70
     0
102
RTVSPost2010Prop53
 90
        2
102
RTVSPost2010PropOp53
 70
     0
102
RTVSPost2010Prop54
  1
strokes_ogs.tif
102
RTVSPost2010PropOp54
 70
     0
102
RTVSPost2010Prop55
280
     0
102
RTVSPost2010PropOp55
 70
     0
102
RTVSPost2010Prop56
140
1.0
102
RTVSPost2010PropOp56
 70
     0
102
RTVSPost2010Prop57
140
1.0
102
RTVSPost2010PropOp57
 70
     0
  0
XRECORD
  5
1C5
102
{ACAD_REACTORS
330
1C4
102
}
330
1C4
100
AcDbXrecord
280
     1
102
RTVSPost2010Prop28
280
     0
102
RTVSPost2010PropOp28
 70
     1
102
RTVSPost2010Prop29
280
     1
102
RTVSPost2010PropOp29
 70
     1
102
RTVSPost2010Prop30
280
     1
102
RTVSPost2010PropOp30
 70
     1
102
RTVSPost2010Prop31
280
     0
102
RTVSPost2010PropOp31
 70
     1
102
RTVSPost2010Prop32
280
     0
102
RTVSPost2010PropOp32
 70
     1
102
RTVSPost2010Prop33
280
     0
102
RTVSPost2010PropOp33
 70
     1
102
RTVSPost2010Prop34
280
     0
102
RTVSPost2010PropOp34
 70
     1
102
RTVSPost2010Prop35
280
     0
102
RTVSPost2010PropOp35
 70
     1
102
RTVSPost2010Prop36
280
     0
102
RTVSPost2010PropOp36
 70
     1
102
RTVSPost2010Prop37
 90
       50
102
RTVSPost2010PropOp37
 70
     1
102
RTVSPost2010Prop38
140
0.0
102
RTVSPost2010PropOp38
 70
     1
102
RTVSPost2010Prop39
140
1.0
102
RTVSPost2010PropOp39
 70
     1
102
RTVSPost2010Prop40
 90
        0
102
RTVSPost2010PropOp40
 70
     1
102
RTVSPost2010Prop41ColorIndex
 90
       18
102
RTVSPost2010Prop41ColorRGB
 90
        0
102
RTVSPost2010PropOp41
 70
     1
102
RTVSPost2010Prop42
 90
       50
102
RTVSPost2010PropOp42
 70
     1
102
RTVSPost2010Prop43
 90
        3
102
RTVSPost2010PropOp43
 70
     1
102
RTVSPost2010Prop44ColorIndex
 90
        5
102
RTVSPost2010Prop44ColorRGB
 90
      255
102
RTVSPost2010PropOp44
 70
     1
102
RTVSPost2010Prop45
280
     0
102
RTVSPost2010PropOp45
 70
     1
102
RTVSPost2010Prop46
 90
       50
102
RTVSPost2010PropOp46
 70
     1
102
RTVSPost2010Prop47
 90
       50
102
RTVSPost2010PropOp47
 70
     1
102
RTVSPost2010Prop48
 90
       50
102
RTVSPost2010PropOp48
 70
     1
102
RTVSPost2010Prop49
280
     0
102
RTVSPost2010PropOp49
 70
     1
102
RTVSPost2010Prop50
 90
       50
102
RTVSPost2010PropOp50
 70
     1
102
RTVSPost2010Prop51ColorIndex
 90
      256
102
RTVSPost2010Prop51ColorRGB
 90
-16777216
102
RTVSPost2010PropOp51
 70
     0
102
RTVSPost2010Prop52
140
1.0
102
RTVSPost2010PropOp52
 70
     0
102
RTVSPost2010Prop53
 90
        2
102
RTVSPost2010PropOp53
 70
     1
102
RTVSPost2010Prop54
  1
strokes_ogs.tif
102
RTVSPost2010PropOp54
 70
     1
102
RTVSPost2010Prop55
280
     0
102
RTVSPost2010PropOp55
 70
     1
102
RTVSPost2010Prop56
140
1.0
102
RTVSPost2010PropOp56
 70
     1
102
RTVSPost2010Prop57
140
1.0
102
RTVSPost2010PropOp57
 70
     1
  0
XRECORD
  5
1D7
102
{ACAD_REACTORS
330
1D6
102
}
330
1D6
100
AcDbXrecord
280
     1
102
RTVSPost2010Prop28
280
     0
102
RTVSPost2010PropOp28
 70
     0
102
RTVSPost2010Prop29
280
     1
102
RTVSPost2010PropOp29
 70
     0
102
RTVSPost2010Prop30
280
     1
102
RTVSPost2010PropOp30
 70
     0
102
RTVSPost2010Prop31
280
     0
102
RTVSPost2010PropOp31
 70
     0
102
RTVSPost2010Prop32
280
     0
102
RTVSPost2010PropOp32
 70
     0
102
RTVSPost2010Prop33
280
     0
102
RTVSPost2010PropOp33
 70
     0
102
RTVSPost2010Prop34
280
     0
102
RTVSPost2010PropOp34
 70
     0
102
RTVSPost2010Prop35
280
     0
102
RTVSPost2010PropOp35
 70
     0
102
RTVSPost2010Prop36
280
     0
102
RTVSPost2010PropOp36
 70
     0
102
RTVSPost2010Prop37
 90
       50
102
RTVSPost2010PropOp37
 70
     0
102
RTVSPost2010Prop38
140
0.0
102
RTVSPost2010PropOp38
 70
     0
102
RTVSPost2010Prop39
140
1.0
102
RTVSPost2010PropOp39
 70
     0
102
RTVSPost2010Prop40
 90
        0
102
RTVSPost2010PropOp40
 70
     0
102
RTVSPost2010Prop41ColorIndex
 90
       18
102
RTVSPost2010Prop41ColorRGB
 90
        0
102
RTVSPost2010PropOp41
 70
     0
102
RTVSPost2010Prop42
 90
       50
102
RTVSPost2010PropOp42
 70
     0
102
RTVSPost2010Prop43
 90
        3
102
RTVSPost2010PropOp43
 70
     0
102
RTVSPost2010Prop44ColorIndex
 90
        5
102
RTVSPost2010Prop44ColorRGB
 90
      255
102
RTVSPost2010PropOp44
 70
     0
102
RTVSPost2010Prop45
280
     0
102
RTVSPost2010PropOp45
 70
     0
102
RTVSPost2010Prop46
 90
       50
102
RTVSPost2010PropOp46
 70
     0
102
RTVSPost2010Prop47
 90
       50
102
RTVSPost2010PropOp47
 70
     0
102
RTVSPost2010Prop48
 90
       50
102
RTVSPost2010PropOp48
 70
     0
102
RTVSPost2010Prop49
280
     0
102
RTVSPost2010PropOp49
 70
     0
102
RTVSPost2010Prop50
 90
       50
102
RTVSPost2010PropOp50
 70
     0
102
RTVSPost2010Prop51ColorIndex
 90
      256
102
RTVSPost2010Prop51ColorRGB
 90
-16777216
102
RTVSPost2010PropOp51
 70
     0
102
RTVSPost2010Prop52
140
1.0
102
RTVSPost2010PropOp52
 70
     0
102
RTVSPost2010Prop53
 90
        2
102
RTVSPost2010PropOp53
 70
     0
102
RTVSPost2010Prop54
  1
strokes_ogs.tif
102
RTVSPost2010PropOp54
 70
     0
102
RTVSPost2010Prop55
280
     0
102
RTVSPost2010PropOp55
 70
     0
102
RTVSPost2010Prop56
140
1.0
102
RTVSPost2010PropOp56
 70
     0
102
RTVSPost2010Prop57
140
1.0
102
RTVSPost2010PropOp57
 70
     0
  0
XRECORD
  5
1BD
102
{ACAD_REACTORS
330
1BC
102
}
330
1BC
100
AcDbXrecord
280
     1
102
RTVSPost2010Prop28
280
     0
102
RTVSPost2010PropOp28
 70
     1
102
RTVSPost2010Prop29
280
     1
102
RTVSPost2010PropOp29
 70
     1
102
RTVSPost2010Prop30
280
     1
102
RTVSPost2010PropOp30
 70
     1
102
RTVSPost2010Prop31
280
     0
102
RTVSPost2010PropOp31
 70
     1
102
RTVSPost2010Prop32
280
     0
102
RTVSPost2010PropOp32
 70
     1
102
RTVSPost2010Prop33
280
     0
102
RTVSPost2010PropOp33
 70
     1
102
RTVSPost2010Prop34
280
     0
102
RTVSPost2010PropOp34
 70
     1
102
RTVSPost2010Prop35
280
     0
102
RTVSPost2010PropOp35
 70
     1
102
RTVSPost2010Prop36
280
     0
102
RTVSPost2010PropOp36
 70
     1
102
RTVSPost2010Prop37
 90
       50
102
RTVSPost2010PropOp37
 70
     1
102
RTVSPost2010Prop38
140
0.0
102
RTVSPost2010PropOp38
 70
     1
102
RTVSPost2010Prop39
140
1.0
102
RTVSPost2010PropOp39
 70
     1
102
RTVSPost2010Prop40
 90
        0
102
RTVSPost2010PropOp40
 70
     1
102
RTVSPost2010Prop41ColorIndex
 90
       18
102
RTVSPost2010Prop41ColorRGB
 90
        0
102
RTVSPost2010PropOp41
 70
     1
102
RTVSPost2010Prop42
 90
       50
102
RTVSPost2010PropOp42
 70
     1
102
RTVSPost2010Prop43
 90
        3
102
RTVSPost2010PropOp43
 70
     1
102
RTVSPost2010Prop44ColorIndex
 90
        5
102
RTVSPost2010Prop44ColorRGB
 90
      255
102
RTVSPost2010PropOp44
 70
     1
102
RTVSPost2010Prop45
280
     0
102
RTVSPost2010PropOp45
 70
     1
102
RTVSPost2010Prop46
 90
       50
102
RTVSPost2010PropOp46
 70
     1
102
RTVSPost2010Prop47
 90
       50
102
RTVSPost2010PropOp47
 70
     1
102
RTVSPost2010Prop48
 90
       50
102
RTVSPost2010PropOp48
 70
     1
102
RTVSPost2010Prop49
280
     0
102
RTVSPost2010PropOp49
 70
     1
102
RTVSPost2010Prop50
 90
       50
102
RTVSPost2010PropOp50
 70
     1
102
RTVSPost2010Prop51ColorIndex
 90
      256
102
RTVSPost2010Prop51ColorRGB
 90
-16777216
102
RTVSPost2010PropOp51
 70
     0
102
RTVSPost2010Prop52
140
1.0
102
RTVSPost2010PropOp52
 70
     0
102
RTVSPost2010Prop53
 90
        2
102
RTVSPost2010PropOp53
 70
     1
102
RTVSPost2010Prop54
  1
strokes_ogs.tif
102
RTVSPost2010PropOp54
 70
     1
102
RTVSPost2010Prop55
280
     0
102
RTVSPost2010PropOp55
 70
     1
102
RTVSPost2010Prop56
140
1.0
102
RTVSPost2010PropOp56
 70
     1
102
RTVSPost2010Prop57
140
1.0
102
RTVSPost2010PropOp57
 70
     1
  0
XRECORD
  5
1D3
102
{ACAD_REACTORS
330
1D2
102
}
330
1D2
100
AcDbXrecord
280
     1
102
RTVSPost2010Prop28
280
     0
102
RTVSPost2010PropOp28
 70
     1
102
RTVSPost2010Prop29
280
     1
102
RTVSPost2010PropOp29
 70
     1
102
RTVSPost2010Prop30
280
     1
102
RTVSPost2010PropOp30
 70
     1
102
RTVSPost2010Prop31
280
     0
102
RTVSPost2010PropOp31
 70
     1
102
RTVSPost2010Prop32
280
     0
102
RTVSPost2010PropOp32
 70
     1
102
RTVSPost2010Prop33
280
     0
102
RTVSPost2010PropOp33
 70
     1
102
RTVSPost2010Prop34
280
     0
102
RTVSPost2010PropOp34
 70
     1
102
RTVSPost2010Prop35
280
     0
102
RTVSPost2010PropOp35
 70
     1
102
RTVSPost2010Prop36
280
     0
102
RTVSPost2010PropOp36
 70
     1
102
RTVSPost2010Prop37
 90
       50
102
RTVSPost2010PropOp37
 70
     1
102
RTVSPost2010Prop38
140
0.0
102
RTVSPost2010PropOp38
 70
     1
102
RTVSPost2010Prop39
140
1.0
102
RTVSPost2010PropOp39
 70
     1
102
RTVSPost2010Prop40
 90
        0
102
RTVSPost2010PropOp40
 70
     1
102
RTVSPost2010Prop41ColorIndex
 90
       18
102
RTVSPost2010Prop41ColorRGB
 90
        0
102
RTVSPost2010PropOp41
 70
     1
102
RTVSPost2010Prop42
 90
       50
102
RTVSPost2010PropOp42
 70
     1
102
RTVSPost2010Prop43
 90
        3
102
RTVSPost2010PropOp43
 70
     1
102
RTVSPost2010Prop44ColorIndex
 90
        5
102
RTVSPost2010Prop44ColorRGB
 90
      255
102
RTVSPost2010PropOp44
 70
     1
102
RTVSPost2010Prop45
280
     0
102
RTVSPost2010PropOp45
 70
     1
102
RTVSPost2010Prop46
 90
       50
102
RTVSPost2010PropOp46
 70
     1
102
RTVSPost2010Prop47
 90
       50
102
RTVSPost2010PropOp47
 70
     1
102
RTVSPost2010Prop48
 90
       50
102
RTVSPost2010PropOp48
 70
     1
102
RTVSPost2010Prop49
280
     0
102
RTVSPost2010PropOp49
 70
     1
102
RTVSPost2010Prop50
 90
       50
102
RTVSPost2010PropOp50
 70
     1
102
RTVSPost2010Prop51ColorIndex
 90
      256
102
RTVSPost2010Prop51ColorRGB
 90
-16777216
102
RTVSPost2010PropOp51
 70
     0
102
RTVSPost2010Prop52
140
1.0
102
RTVSPost2010PropOp52
 70
     0
102
RTVSPost2010Prop53
 90
        2
102
RTVSPost2010PropOp53
 70
     1
102
RTVSPost2010Prop54
  1
strokes_ogs.tif
102
RTVSPost2010PropOp54
 70
     1
102
RTVSPost2010Prop55
280
     0
102
RTVSPost2010PropOp55
 70
     1
102
RTVSPost2010Prop56
140
1.0
102
RTVSPost2010PropOp56
 70
     1
102
RTVSPost2010Prop57
140
1.0
102
RTVSPost2010PropOp57
 70
     1
  0
XRECORD
  5
1D1
102
{ACAD_REACTORS
330
1D0
102
}
330
1D0
100
AcDbXrecord
280
     1
102
RTVSPost2010Prop28
280
     0
102
RTVSPost2010PropOp28
 70
     1
102
RTVSPost2010Prop29
280
     1
102
RTVSPost2010PropOp29
 70
     1
102
RTVSPost2010Prop30
280
     1
102
RTVSPost2010PropOp30
 70
     1
102
RTVSPost2010Prop31
280
     0
102
RTVSPost2010PropOp31
 70
     1
102
RTVSPost2010Prop32
280
     0
102
RTVSPost2010PropOp32
 70
     1
102
RTVSPost2010Prop33
280
     0
102
RTVSPost2010PropOp33
 70
     1
102
RTVSPost2010Prop34
280
     0
102
RTVSPost2010PropOp34
 70
     1
102
RTVSPost2010Prop35
280
     0
102
RTVSPost2010PropOp35
 70
     1
102
RTVSPost2010Prop36
280
     0
102
RTVSPost2010PropOp36
 70
     1
102
RTVSPost2010Prop37
 90
       50
102
RTVSPost2010PropOp37
 70
     1
102
RTVSPost2010Prop38
140
0.0
102
RTVSPost2010PropOp38
 70
     1
102
RTVSPost2010Prop39
140
1.0
102
RTVSPost2010PropOp39
 70
     1
102
RTVSPost2010Prop40
 90
        0
102
RTVSPost2010PropOp40
 70
     1
102
RTVSPost2010Prop41ColorIndex
 90
       18
102
RTVSPost2010Prop41ColorRGB
 90
        0
102
RTVSPost2010PropOp41
 70
     1
102
RTVSPost2010Prop42
 90
       50
102
RTVSPost2010PropOp42
 70
     1
102
RTVSPost2010Prop43
 90
        3
102
RTVSPost2010PropOp43
 70
     1
102
RTVSPost2010Prop44ColorIndex
 90
        5
102
RTVSPost2010Prop44ColorRGB
 90
      255
102
RTVSPost2010PropOp44
 70
     1
102
RTVSPost2010Prop45
280
     0
102
RTVSPost2010PropOp45
 70
     1
102
RTVSPost2010Prop46
 90
       50
102
RTVSPost2010PropOp46
 70
     1
102
RTVSPost2010Prop47
 90
       50
102
RTVSPost2010PropOp47
 70
     1
102
RTVSPost2010Prop48
 90
       50
102
RTVSPost2010PropOp48
 70
     1
102
RTVSPost2010Prop49
280
     0
102
RTVSPost2010PropOp49
 70
     1
102
RTVSPost2010Prop50
 90
       50
102
RTVSPost2010PropOp50
 70
     1
102
RTVSPost2010Prop51ColorIndex
 90
      256
102
RTVSPost2010Prop51ColorRGB
 90
-16777216
102
RTVSPost2010PropOp51
 70
     0
102
RTVSPost2010Prop52
140
1.0
102
RTVSPost2010PropOp52
 70
     0
102
RTVSPost2010Prop53
 90
        2
102
RTVSPost2010PropOp53
 70
     1
102
RTVSPost2010Prop54
  1
strokes_ogs.tif
102
RTVSPost2010PropOp54
 70
     1
102
RTVSPost2010Prop55
280
     0
102
RTVSPost2010PropOp55
 70
     1
102
RTVSPost2010Prop56
140
1.0
102
RTVSPost2010PropOp56
 70
     1
102
RTVSPost2010Prop57
140
1.0
102
RTVSPost2010PropOp57
 70
     1
  0
XRECORD
  5
1CB
102
{ACAD_REACTORS
330
1CA
102
}
330
1CA
100
AcDbXrecord
280
     1
102
RTVSPost2010Prop28
280
     0
102
RTVSPost2010PropOp28
 70
     1
102
RTVSPost2010Prop29
280
     1
102
RTVSPost2010PropOp29
 70
     1
102
RTVSPost2010Prop30
280
     1
102
RTVSPost2010PropOp30
 70
     1
102
RTVSPost2010Prop31
280
     0
102
RTVSPost2010PropOp31
 70
     1
102
RTVSPost2010Prop32
280
     0
102
RTVSPost2010PropOp32
 70
     1
102
RTVSPost2010Prop33
280
     0
102
RTVSPost2010PropOp33
 70
     1
102
RTVSPost2010Prop34
280
     0
102
RTVSPost2010PropOp34
 70
     1
102
RTVSPost2010Prop35
280
     0
102
RTVSPost2010PropOp35
 70
     1
102
RTVSPost2010Prop36
280
     0
102
RTVSPost2010PropOp36
 70
     1
102
RTVSPost2010Prop37
 90
       50
102
RTVSPost2010PropOp37
 70
     1
102
RTVSPost2010Prop38
140
0.0
102
RTVSPost2010PropOp38
 70
     1
102
RTVSPost2010Prop39
140
1.0
102
RTVSPost2010PropOp39
 70
     1
102
RTVSPost2010Prop40
 90
        0
102
RTVSPost2010PropOp40
 70
     1
102
RTVSPost2010Prop41ColorIndex
 90
       18
102
RTVSPost2010Prop41ColorRGB
 90
        0
102
RTVSPost2010PropOp41
 70
     1
102
RTVSPost2010Prop42
 90
       50
102
RTVSPost2010PropOp42
 70
     1
102
RTVSPost2010Prop43
 90
        3
102
RTVSPost2010PropOp43
 70
     1
102
RTVSPost2010Prop44ColorIndex
 90
        5
102
RTVSPost2010Prop44ColorRGB
 90
      255
102
RTVSPost2010PropOp44
 70
     1
102
RTVSPost2010Prop45
280
     0
102
RTVSPost2010PropOp45
 70
     1
102
RTVSPost2010Prop46
 90
       50
102
RTVSPost2010PropOp46
 70
     1
102
RTVSPost2010Prop47
 90
       50
102
RTVSPost2010PropOp47
 70
     1
102
RTVSPost2010Prop48
 90
       50
102
RTVSPost2010PropOp48
 70
     1
102
RTVSPost2010Prop49
280
     0
102
RTVSPost2010PropOp49
 70
     1
102
RTVSPost2010Prop50
 90
       50
102
RTVSPost2010PropOp50
 70
     1
102
RTVSPost2010Prop51ColorIndex
 90
      256
102
RTVSPost2010Prop51ColorRGB
 90
-16777216
102
RTVSPost2010PropOp51
 70
     0
102
RTVSPost2010Prop52
140
1.0
102
RTVSPost2010PropOp52
 70
     0
102
RTVSPost2010Prop53
 90
        2
102
RTVSPost2010PropOp53
 70
     1
102
RTVSPost2010Prop54
  1
strokes_ogs.tif
102
RTVSPost2010PropOp54
 70
     1
102
RTVSPost2010Prop55
280
     0
102
RTVSPost2010PropOp55
 70
     1
102
RTVSPost2010Prop56
140
1.0
102
RTVSPost2010PropOp56
 70
     1
102
RTVSPost2010Prop57
140
1.0
102
RTVSPost2010PropOp57
 70
     1
  0
XRECORD
  5
1CD
102
{ACAD_REACTORS
330
1CC
102
}
330
1CC
100
AcDbXrecord
280
     1
102
RTVSPost2010Prop28
280
     0
102
RTVSPost2010PropOp28
 70
     1
102
RTVSPost2010Prop29
280
     1
102
RTVSPost2010PropOp29
 70
     1
102
RTVSPost2010Prop30
280
     1
102
RTVSPost2010PropOp30
 70
     1
102
RTVSPost2010Prop31
280
     0
102
RTVSPost2010PropOp31
 70
     1
102
RTVSPost2010Prop32
280
     0
102
RTVSPost2010PropOp32
 70
     1
102
RTVSPost2010Prop33
280
     0
102
RTVSPost2010PropOp33
 70
     1
102
RTVSPost2010Prop34
280
     0
102
RTVSPost2010PropOp34
 70
     1
102
RTVSPost2010Prop35
280
     0
102
RTVSPost2010PropOp35
 70
     1
102
RTVSPost2010Prop36
280
     0
102
RTVSPost2010PropOp36
 70
     1
102
RTVSPost2010Prop37
 90
       50
102
RTVSPost2010PropOp37
 70
     1
102
RTVSPost2010Prop38
140
0.0
102
RTVSPost2010PropOp38
 70
     1
102
RTVSPost2010Prop39
140
1.0
102
RTVSPost2010PropOp39
 70
     1
102
RTVSPost2010Prop40
 90
        0
102
RTVSPost2010PropOp40
 70
     1
102
RTVSPost2010Prop41ColorIndex
 90
       18
102
RTVSPost2010Prop41ColorRGB
 90
        0
102
RTVSPost2010PropOp41
 70
     1
102
RTVSPost2010Prop42
 90
       50
102
RTVSPost2010PropOp42
 70
     1
102
RTVSPost2010Prop43
 90
        3
102
RTVSPost2010PropOp43
 70
     1
102
RTVSPost2010Prop44ColorIndex
 90
        5
102
RTVSPost2010Prop44ColorRGB
 90
      255
102
RTVSPost2010PropOp44
 70
     1
102
RTVSPost2010Prop45
280
     0
102
RTVSPost2010PropOp45
 70
     1
102
RTVSPost2010Prop46
 90
       50
102
RTVSPost2010PropOp46
 70
     1
102
RTVSPost2010Prop47
 90
       50
102
RTVSPost2010PropOp47
 70
     1
102
RTVSPost2010Prop48
 90
       50
102
RTVSPost2010PropOp48
 70
     1
102
RTVSPost2010Prop49
280
     0
102
RTVSPost2010PropOp49
 70
     1
102
RTVSPost2010Prop50
 90
       50
102
RTVSPost2010PropOp50
 70
     1
102
RTVSPost2010Prop51ColorIndex
 90
      256
102
RTVSPost2010Prop51ColorRGB
 90
-16777216
102
RTVSPost2010PropOp51
 70
     0
102
RTVSPost2010Prop52
140
1.0
102
RTVSPost2010PropOp52
 70
     0
102
RTVSPost2010Prop53
 90
        2
102
RTVSPost2010PropOp53
 70
     1
102
RTVSPost2010Prop54
  1
strokes_ogs.tif
102
RTVSPost2010PropOp54
 70
     1
102
RTVSPost2010Prop55
280
     0
102
RTVSPost2010PropOp55
 70
     1
102
RTVSPost2010Prop56
140
1.0
102
RTVSPost2010PropOp56
 70
     1
102
RTVSPost2010Prop57
140
1.0
102
RTVSPost2010PropOp57
 70
     1
  0
XRECORD
  5
1C3
102
{ACAD_REACTORS
330
1C2
102
}
330
1C2
100
AcDbXrecord
280
     1
102
RTVSPost2010Prop28
280
     0
102
RTVSPost2010PropOp28
 70
     1
102
RTVSPost2010Prop29
280
     1
102
RTVSPost2010PropOp29
 70
     1
102
RTVSPost2010Prop30
280
     1
102
RTVSPost2010PropOp30
 70
     1
102
RTVSPost2010Prop31
280
     0
102
RTVSPost2010PropOp31
 70
     1
102
RTVSPost2010Prop32
280
     0
102
RTVSPost2010PropOp32
 70
     1
102
RTVSPost2010Prop33
280
     0
102
RTVSPost2010PropOp33
 70
     1
102
RTVSPost2010Prop34
280
     0
102
RTVSPost2010PropOp34
 70
     1
102
RTVSPost2010Prop35
280
     0
102
RTVSPost2010PropOp35
 70
     1
102
RTVSPost2010Prop36
280
     0
102
RTVSPost2010PropOp36
 70
     1
102
RTVSPost2010Prop37
 90
       50
102
RTVSPost2010PropOp37
 70
     1
102
RTVSPost2010Prop38
140
0.0
102
RTVSPost2010PropOp38
 70
     1
102
RTVSPost2010Prop39
140
1.0
102
RTVSPost2010PropOp39
 70
     1
102
RTVSPost2010Prop40
 90
        0
102
RTVSPost2010PropOp40
 70
     1
102
RTVSPost2010Prop41ColorIndex
 90
       18
102
RTVSPost2010Prop41ColorRGB
 90
        0
102
RTVSPost2010PropOp41
 70
     1
102
RTVSPost2010Prop42
 90
       50
102
RTVSPost2010PropOp42
 70
     1
102
RTVSPost2010Prop43
 90
        3
102
RTVSPost2010PropOp43
 70
     1
102
RTVSPost2010Prop44ColorIndex
 90
        5
102
RTVSPost2010Prop44ColorRGB
 90
      255
102
RTVSPost2010PropOp44
 70
     1
102
RTVSPost2010Prop45
280
     0
102
RTVSPost2010PropOp45
 70
     1
102
RTVSPost2010Prop46
 90
       50
102
RTVSPost2010PropOp46
 70
     1
102
RTVSPost2010Prop47
 90
       50
102
RTVSPost2010PropOp47
 70
     1
102
RTVSPost2010Prop48
 90
       50
102
RTVSPost2010PropOp48
 70
     1
102
RTVSPost2010Prop49
280
     0
102
RTVSPost2010PropOp49
 70
     1
102
RTVSPost2010Prop50
 90
       50
102
RTVSPost2010PropOp50
 70
     1
102
RTVSPost2010Prop51ColorIndex
 90
      256
102
RTVSPost2010Prop51ColorRGB
 90
-16777216
102
RTVSPost2010PropOp51
 70
     0
102
RTVSPost2010Prop52
140
1.0
102
RTVSPost2010PropOp52
 70
     0
102
RTVSPost2010Prop53
 90
        2
102
RTVSPost2010PropOp53
 70
     1
102
RTVSPost2010Prop54
  1
strokes_ogs.tif
102
RTVSPost2010PropOp54
 70
     1
102
RTVSPost2010Prop55
280
     0
102
RTVSPost2010PropOp55
 70
     1
102
RTVSPost2010Prop56
140
1.0
102
RTVSPost2010PropOp56
 70
     1
102
RTVSPost2010Prop57
140
1.0
102
RTVSPost2010PropOp57
 70
     1
  0
XRECORD
  5
1B7
102
{ACAD_REACTORS
330
1B6
102
}
330
1B6
100
AcDbXrecord
280
     1
102
RTVSPost2010Prop28
280
     0
102
RTVSPost2010PropOp28
 70
     1
102
RTVSPost2010Prop29
280
     1
102
RTVSPost2010PropOp29
 70
     1
102
RTVSPost2010Prop30
280
     1
102
RTVSPost2010PropOp30
 70
     1
102
RTVSPost2010Prop31
280
     0
102
RTVSPost2010PropOp31
 70
     1
102
RTVSPost2010Prop32
280
     0
102
RTVSPost2010PropOp32
 70
     1
102
RTVSPost2010Prop33
280
     0
102
RTVSPost2010PropOp33
 70
     1
102
RTVSPost2010Prop34
280
     0
102
RTVSPost2010PropOp34
 70
     1
102
RTVSPost2010Prop35
280
     0
102
RTVSPost2010PropOp35
 70
     1
102
RTVSPost2010Prop36
280
     0
102
RTVSPost2010PropOp36
 70
     1
102
RTVSPost2010Prop37
 90
       50
102
RTVSPost2010PropOp37
 70
     1
102
RTVSPost2010Prop38
140
0.0
102
RTVSPost2010PropOp38
 70
     1
102
RTVSPost2010Prop39
140
1.0
102
RTVSPost2010PropOp39
 70
     1
102
RTVSPost2010Prop40
 90
        0
102
RTVSPost2010PropOp40
 70
     1
102
RTVSPost2010Prop41ColorIndex
 90
       18
102
RTVSPost2010Prop41ColorRGB
 90
        0
102
RTVSPost2010PropOp41
 70
     1
102
RTVSPost2010Prop42
 90
       50
102
RTVSPost2010PropOp42
 70
     1
102
RTVSPost2010Prop43
 90
        3
102
RTVSPost2010PropOp43
 70
     1
102
RTVSPost2010Prop44ColorIndex
 90
        5
102
RTVSPost2010Prop44ColorRGB
 90
      255
102
RTVSPost2010PropOp44
 70
     1
102
RTVSPost2010Prop45
280
     0
102
RTVSPost2010PropOp45
 70
     1
102
RTVSPost2010Prop46
 90
       50
102
RTVSPost2010PropOp46
 70
     1
102
RTVSPost2010Prop47
 90
       50
102
RTVSPost2010PropOp47
 70
     1
102
RTVSPost2010Prop48
 90
       50
102
RTVSPost2010PropOp48
 70
     1
102
RTVSPost2010Prop49
280
     0
102
RTVSPost2010PropOp49
 70
     1
102
RTVSPost2010Prop50
 90
       50
102
RTVSPost2010PropOp50
 70
     1
102
RTVSPost2010Prop51ColorIndex
 90
      256
102
RTVSPost2010Prop51ColorRGB
 90
-16777216
102
RTVSPost2010PropOp51
 70
     0
102
RTVSPost2010Prop52
140
1.0
102
RTVSPost2010PropOp52
 70
     0
102
RTVSPost2010Prop53
 90
        2
102
RTVSPost2010PropOp53
 70
     1
102
RTVSPost2010Prop54
  1
strokes_ogs.tif
102
RTVSPost2010PropOp54
 70
     1
102
RTVSPost2010Prop55
280
     0
102
RTVSPost2010PropOp55
 70
     1
102
RTVSPost2010Prop56
140
1.0
102
RTVSPost2010PropOp56
 70
     1
102
RTVSPost2010Prop57
140
1.0
102
RTVSPost2010PropOp57
 70
     1
  0
XRECORD
  5
1CF
102
{ACAD_REACTORS
330
1CE
102
}
330
1CE
100
AcDbXrecord
280
     1
102
RTVSPost2010Prop28
280
     0
102
RTVSPost2010PropOp28
 70
     1
102
RTVSPost2010Prop29
280
     1
102
RTVSPost2010PropOp29
 70
     1
102
RTVSPost2010Prop30
280
     1
102
RTVSPost2010PropOp30
 70
     1
102
RTVSPost2010Prop31
280
     0
102
RTVSPost2010PropOp31
 70
     1
102
RTVSPost2010Prop32
280
     0
102
RTVSPost2010PropOp32
 70
     1
102
RTVSPost2010Prop33
280
     0
102
RTVSPost2010PropOp33
 70
     1
102
RTVSPost2010Prop34
280
     0
102
RTVSPost2010PropOp34
 70
     1
102
RTVSPost2010Prop35
280
     0
102
RTVSPost2010PropOp35
 70
     1
102
RTVSPost2010Prop36
280
     0
102
RTVSPost2010PropOp36
 70
     1
102
RTVSPost2010Prop37
 90
       50
102
RTVSPost2010PropOp37
 70
     1
102
RTVSPost2010Prop38
140
0.0
102
RTVSPost2010PropOp38
 70
     1
102
RTVSPost2010Prop39
140
1.0
102
RTVSPost2010PropOp39
 70
     1
102
RTVSPost2010Prop40
 90
        0
102
RTVSPost2010PropOp40
 70
     1
102
RTVSPost2010Prop41ColorIndex
 90
       18
102
RTVSPost2010Prop41ColorRGB
 90
        0
102
RTVSPost2010PropOp41
 70
     1
102
RTVSPost2010Prop42
 90
       50
102
RTVSPost2010PropOp42
 70
     1
102
RTVSPost2010Prop43
 90
        3
102
RTVSPost2010PropOp43
 70
     1
102
RTVSPost2010Prop44ColorIndex
 90
        5
102
RTVSPost2010Prop44ColorRGB
 90
      255
102
RTVSPost2010PropOp44
 70
     1
102
RTVSPost2010Prop45
280
     0
102
RTVSPost2010PropOp45
 70
     1
102
RTVSPost2010Prop46
 90
       50
102
RTVSPost2010PropOp46
 70
     1
102
RTVSPost2010Prop47
 90
       50
102
RTVSPost2010PropOp47
 70
     1
102
RTVSPost2010Prop48
 90
       50
102
RTVSPost2010PropOp48
 70
     1
102
RTVSPost2010Prop49
280
     0
102
RTVSPost2010PropOp49
 70
     1
102
RTVSPost2010Prop50
 90
       50
102
RTVSPost2010PropOp50
 70
     1
102
RTVSPost2010Prop51ColorIndex
 90
      256
102
RTVSPost2010Prop51ColorRGB
 90
-16777216
102
RTVSPost2010PropOp51
 70
     0
102
RTVSPost2010Prop52
140
1.0
102
RTVSPost2010PropOp52
 70
     0
102
RTVSPost2010Prop53
 90
        2
102
RTVSPost2010PropOp53
 70
     1
102
RTVSPost2010Prop54
  1
strokes_ogs.tif
102
RTVSPost2010PropOp54
 70
     1
102
RTVSPost2010Prop55
280
     0
102
RTVSPost2010PropOp55
 70
     1
102
RTVSPost2010Prop56
140
1.0
102
RTVSPost2010PropOp56
 70
     1
102
RTVSPost2010Prop57
140
1.0
102
RTVSPost2010PropOp57
 70
     1
  0
ENDSEC
  0
EOF
