  0
SECTION
  2
HEADER
  9
$ACADVER
  1
AC1024
  9
$ACADMAINTVER
 70
   226
  9
$DWGCODEPAGE
  3
ANSI_932
  9
$INSBASE
 10
0.0
 20
0.0
 30
0.0
  9
$EXTMIN
 10
1.000000000000000E+20
 20
1.000000000000000E+20
 30
1.000000000000000E+20
  9
$EXTMAX
 10
-1.000000000000000E+20
 20
-1.000000000000000E+20
 30
-1.000000000000000E+20
  9
$LIMMIN
 10
0.0
 20
0.0
  9
$LIMMAX
 10
12.0
 20
9.0
  9
$ORTHOMODE
 70
     0
  9
$REGENMODE
 70
     1
  9
$FILLMODE
 70
     1
  9
$QTEXTMODE
 70
     0
  9
$MIRRTEXT
 70
     0
  9
$LTSCALE
 40
1.0
  9
$ATTMODE
 70
     1
  9
$TEXTSIZE
 40
0.2
  9
$TRACEWID
 40
0.05
  9
$TEXTSTYLE
  7
Standard
  9
$CLAYER
  8
0
  9
$CELTYPE
  6
ByLayer
  9
$CECOLOR
 62
   256
  9
$CELTSCALE
 40
1.0
  9
$DISPSILH
 70
     0
  9
$DIMSCALE
 40
1.0
  9
$DIMASZ
 40
0.18
  9
$DIMEXO
 40
0.0625
  9
$DIMDLI
 40
0.38
  9
$DIMRND
 40
0.0
  9
$DIMDLE
 40
0.0
  9
$DIMEXE
 40
0.18
  9
$DIMTP
 40
0.0
  9
$DIMTM
 40
0.0
  9
$DIMTXT
 40
0.18
  9
$DIMCEN
 40
0.09
  9
$DIMTSZ
 40
0.0
  9
$DIMTOL
 70
     0
  9
$DIMLIM
 70
     0
  9
$DIMTIH
 70
     1
  9
$DIMTOH
 70
     1
  9
$DIMSE1
 70
     0
  9
$DIMSE2
 70
     0
  9
$DIMTAD
 70
     0
  9
$DIMZIN
 70
     0
  9
$DIMBLK
  1

  9
$DIMASO
 70
     1
  9
$DIMSHO
 70
     1
  9
$DIMPOST
  1

  9
$DIMAPOST
  1

  9
$DIMALT
 70
     0
  9
$DIMALTD
 70
     2
  9
$DIMALTF
 40
25.4
  9
$DIMLFAC
 40
1.0
  9
$DIMTOFL
 70
     0
  9
$DIMTVP
 40
0.0
  9
$DIMTIX
 70
     0
  9
$DIMSOXD
 70
     0
  9
$DIMSAH
 70
     0
  9
$DIMBLK1
  1

  9
$DIMBLK2
  1

  9
$DIMSTYLE
  2
Standard
  9
$DIMCLRD
 70
     0
  9
$DIMCLRE
 70
     0
  9
$DIMCLRT
 70
     0
  9
$DIMTFAC
 40
1.0
  9
$DIMGAP
 40
0.09
  9
$DIMJUST
 70
     0
  9
$DIMSD1
 70
     0
  9
$DIMSD2
 70
     0
  9
$DIMTOLJ
 70
     1
  9
$DIMTZIN
 70
     0
  9
$DIMALTZ
 70
     0
  9
$DIMALTTZ
 70
     0
  9
$DIMUPT
 70
     0
  9
$DIMDEC
 70
     4
  9
$DIMTDEC
 70
     4
  9
$DIMALTU
 70
     2
  9
$DIMALTTD
 70
     2
  9
$DIMTXSTY
  7
Standard
  9
$DIMAUNIT
 70
     0
  9
$DIMADEC
 70
     0
  9
$DIMALTRND
 40
0.0
  9
$DIMAZIN
 70
     0
  9
$DIMDSEP
 70
    46
  9
$DIMATFIT
 70
     3
  9
$DIMFRAC
 70
     0
  9
$DIMLDRBLK
  1

  9
$DIMLUNIT
 70
     2
  9
$DIMLWD
 70
    -2
  9
$DIMLWE
 70
    -2
  9
$DIMTMOVE
 70
     0
  9
$DIMFXL
 40
1.0
  9
$DIMFXLON
 70
     0
  9
$DIMJOGANG
 40
0.7853981633974483
  9
$DIMTFILL
 70
     0
  9
$DIMTFILLCLR
 70
     0
  9
$DIMARCSYM
 70
     0
  9
$DIMLTYPE
  6

  9
$DIMLTEX1
  6

  9
$DIMLTEX2
  6

  9
$DIMTXTDIRECTION
 70
     0
  9
$LUNITS
 70
     2
  9
$LUPREC
 70
     4
  9
$SKETCHINC
 40
0.1
  9
$FILLETRAD
 40
0.0
  9
$AUNITS
 70
     0
  9
$AUPREC
 70
     0
  9
$MENU
  1
.
  9
$ELEVATION
 40
0.0
  9
$PELEVATION
 40
0.0
  9
$THICKNESS
 40
0.0
  9
$LIMCHECK
 70
     0
  9
$CHAMFERA
 40
0.0
  9
$CHAMFERB
 40
0.0
  9
$CHAMFERC
 40
0.0
  9
$CHAMFERD
 40
0.0
  9
$SKPOLY
 70
     0
  9
$TDCREATE
 40
2459569.503252315
  9
$TDUCREATE
 40
2459569.128252315
  9
$TDUPDATE
 40
2459569.503252315
  9
$TDUUPDATE
 40
2459569.128252315
  9
$TDINDWG
 40
0.0000000000
  9
$TDUSRTIMER
 40
0.0000000000
  9
$USRTIMER
 70
     1
  9
$ANGBASE
 50
0.0
  9
$ANGDIR
 70
     0
  9
$PDMODE
 70
     0
  9
$PDSIZE
 40
0.0
  9
$PLINEWID
 40
0.0
  9
$SPLFRAME
 70
     0
  9
$SPLINETYPE
 70
     6
  9
$SPLINESEGS
 70
     8
  9
$HANDSEED
  5
1A6
  9
$SURFTAB1
 70
     6
  9
$SURFTAB2
 70
     6
  9
$SURFTYPE
 70
     6
  9
$SURFU
 70
     6
  9
$SURFV
 70
     6
  9
$UCSBASE
  2

  9
$UCSNAME
  2

  9
$UCSORG
 10
0.0
 20
0.0
 30
0.0
  9
$UCSXDIR
 10
1.0
 20
0.0
 30
0.0
  9
$UCSYDIR
 10
0.0
 20
1.0
 30
0.0
  9
$UCSORTHOREF
  2

  9
$UCSORTHOVIEW
 70
     0
  9
$UCSORGTOP
 10
0.0
 20
0.0
 30
0.0
  9
$UCSORGBOTTOM
 10
0.0
 20
0.0
 30
0.0
  9
$UCSORGLEFT
 10
0.0
 20
0.0
 30
0.0
  9
$UCSORGRIGHT
 10
0.0
 20
0.0
 30
0.0
  9
$UCSORGFRONT
 10
0.0
 20
0.0
 30
0.0
  9
$UCSORGBACK
 10
0.0
 20
0.0
 30
0.0
  9
$PUCSBASE
  2

  9
$PUCSNAME
  2

  9
$PUCSORG
 10
0.0
 20
0.0
 30
0.0
  9
$PUCSXDIR
 10
1.0
 20
0.0
 30
0.0
  9
$PUCSYDIR
 10
0.0
 20
1.0
 30
0.0
  9
$PUCSORTHOREF
  2

  9
$PUCSORTHOVIEW
 70
     0
  9
$PUCSORGTOP
 10
0.0
 20
0.0
 30
0.0
  9
$PUCSORGBOTTOM
 10
0.0
 20
0.0
 30
0.0
  9
$PUCSORGLEFT
 10
0.0
 20
0.0
 30
0.0
  9
$PUCSORGRIGHT
 10
0.0
 20
0.0
 30
0.0
  9
$PUCSORGFRONT
 10
0.0
 20
0.0
 30
0.0
  9
$PUCSORGBACK
 10
0.0
 20
0.0
 30
0.0
  9
$USERI1
 70
     0
  9
$USERI2
 70
     0
  9
$USERI3
 70
     0
  9
$USERI4
 70
     0
  9
$USERI5
 70
     0
  9
$USERR1
 40
0.0
  9
$USERR2
 40
0.0
  9
$USERR3
 40
0.0
  9
$USERR4
 40
0.0
  9
$USERR5
 40
0.0
  9
$WORLDVIEW
 70
     1
  9
$SHADEDGE
 70
     3
  9
$SHADEDIF
 70
    70
  9
$TILEMODE
 70
     1
  9
$MAXACTVP
 70
    64
  9
$PINSBASE
 10
0.0
 20
0.0
 30
0.0
  9
$PLIMCHECK
 70
     0
  9
$PEXTMIN
 10
1.000000000000000E+20
 20
1.000000000000000E+20
 30
1.000000000000000E+20
  9
$PEXTMAX
 10
-1.000000000000000E+20
 20
-1.000000000000000E+20
 30
-1.000000000000000E+20
  9
$PLIMMIN
 10
0.0
 20
0.0
  9
$PLIMMAX
 10
12.0
 20
9.0
  9
$UNITMODE
 70
     0
  9
$VISRETAIN
 70
     1
  9
$PLINEGEN
 70
     0
  9
$PSLTSCALE
 70
     1
  9
$TREEDEPTH
 70
  3020
  9
$CMLSTYLE
  2
Standard
  9
$CMLJUST
 70
     0
  9
$CMLSCALE
 40
1.0
  9
$PROXYGRAPHICS
 70
     1
  9
$MEASUREMENT
 70
     0
  9
$CELWEIGHT
370
    -1
  9
$ENDCAPS
280
     0
  9
$JOINSTYLE
280
     0
  9
$LWDISPLAY
290
     1
  9
$INSUNITS
 70
     4
  9
$HYPERLINKBASE
  1

  9
$STYLESHEET
  1

  9
$XEDIT
290
     1
  9
$CEPSNTYPE
380
     0
  9
$PSTYLEMODE
290
     1
  9
$FINGERPRINTGUID
  2
{B133DD68-8320-6D45-B573-20B2605670F4}
  9
$VERSIONGUID
  2
{7B1E3C8A-24A9-9643-AFA4-F941BB66432F}
  9
$EXTNAMES
290
     1
  9
$PSVPSCALE
 40
0.0
  9
$OLESTARTUP
290
     0
  9
$SORTENTS
280
   127
  9
$INDEXCTL
280
     0
  9
$HIDETEXT
280
     1
  9
$XCLIPFRAME
280
     2
  9
$HALOGAP
280
     0
  9
$OBSCOLOR
 70
   257
  9
$OBSLTYPE
280
     0
  9
$INTERSECTIONDISPLAY
280
     0
  9
$INTERSECTIONCOLOR
 70
   257
  9
$DIMASSOC
280
     2
  9
$PROJECTNAME
  1

  9
$CAMERADISPLAY
290
     0
  9
$LENSLENGTH
 40
50.0
  9
$CAMERAHEIGHT
 40
0.0
  9
$STEPSPERSEC
 40
2.0
  9
$STEPSIZE
 40
6.0
  9
$3DDWFPREC
 40
2.0
  9
$PSOLWIDTH
 40
0.25
  9
$PSOLHEIGHT
 40
4.0
  9
$LOFTANG1
 40
1.570796326794896
  9
$LOFTANG2
 40
1.570796326794896
  9
$LOFTMAG1
 40
0.0
  9
$LOFTMAG2
 40
0.0
  9
$LOFTPARAM
 70
     7
  9
$LOFTNORMALS
280
     1
  9
$LATITUDE
 40
37.795
  9
$LONGITUDE
 40
-122.394
  9
$NORTHDIRECTION
 40
0.0
  9
$TIMEZONE
 70
 -8000
  9
$LIGHTGLYPHDISPLAY
280
     1
  9
$TILEMODELIGHTSYNCH
280
     1
  9
$CMATERIAL
347
11
  9
$SOLIDHIST
280
     0
  9
$SHOWHIST
280
     1
  9
$DWFFRAME
280
     2
  9
$DGNFRAME
280
     0
  9
$REALWORLDSCALE
290
     1
  9
$INTERFERECOLOR
 62
     1
  9
$INTERFEREOBJVS
345
33
  9
$INTERFEREVPVS
346
30
  9
$CSHADOW
280
     0
  9
$SHADOWPLANELOCATION
 40
0.0
  0
ENDSEC
  0
SECTION
  2
CLASSES
  0
CLASS
  1
ACDBDICTIONARYWDFLT
  2
AcDbDictionaryWithDefault
  3
ObjectDBX Classes
 90
        0
 91
        1
280
     0
281
     0
  0
CLASS
  1
MATERIAL
  2
AcDbMaterial
  3
ObjectDBX Classes
 90
     1153
 91
        3
280
     0
281
     0
  0
CLASS
  1
VISUALSTYLE
  2
AcDbVisualStyle
  3
ObjectDBX Classes
 90
     4095
 91
       24
280
     0
281
     0
  0
CLASS
  1
SCALE
  2
AcDbScale
  3
ObjectDBX Classes
 90
     1153
 91
       17
280
     0
281
     0
  0
CLASS
  1
TABLESTYLE
  2
AcDbTableStyle
  3
ObjectDBX Classes
 90
     4095
 91
        1
280
     0
281
     0
  0
CLASS
  1
MLEADERSTYLE
  2
AcDbMLeaderStyle
  3
ACDB_MLEADERSTYLE_CLASS
 90
     4095
 91
        1
280
     0
281
     0
  0
CLASS
  1
ACDBSECTIONVIEWSTYLE
  2
AcDbSectionViewStyle
  3
ObjectDBX Classes
 90
     1025
 91
        1
280
     0
281
     0
  0
CLASS
  1
ACDBDETAILVIEWSTYLE
  2
AcDbDetailViewStyle
  3
ObjectDBX Classes
 90
     1025
 91
        1
280
     0
281
     0
  0
CLASS
  1
DICTIONARYVAR
  2
AcDbDictionaryVar
  3
ObjectDBX Classes
 90
        0
 91
        5
280
     0
281
     0
  0
CLASS
  1
CELLSTYLEMAP
  2
AcDbCellStyleMap
  3
ObjectDBX Classes
 90
     1152
 91
        1
280
     0
281
     0
  0
ENDSEC
  0
SECTION
  2
TABLES
  0
TABLE
  2
VPORT
  5
8
330
0
100
AcDbSymbolTable
 70
     1
  0
VPORT
  5
57
330
8
100
AcDbSymbolTableRecord
100
AcDbViewportTableRecord
  2
*Active
 70
     0
 10
0.0
 20
0.0
 11
1.0
 21
1.0
 12
0.0
 22
0.0
 13
0.0
 23
0.0
 14
1.0
 24
1.0
 15
0.0
 25
0.0
 16
0.0
 26
0.0
 36
1.0
 17
104.9999999737534
 27
-148.4999999628701
 37
0.0
 40
302.939999924255
 41
0.7070707070707534
 42
50.0
 43
0.0
 44
0.0
 50
0.0
 51
0.0
 71
     0
 72
   100
 73
     1
 74
     0
 75
     1
 76
     0
 77
     0
 78
     0
281
     0
 65
     1
110
0.0
120
0.0
130
0.0
111
1.0
121
0.0
131
0.0
112
0.0
122
1.0
132
0.0
 79
     0
146
0.0
 60
     3
 61
     5
292
     1
282
     1
141
0.0
142
0.0
 63
   250
421
  3355443
  0
ENDTAB
  0
TABLE
  2
LTYPE
  5
5
330
0
100
AcDbSymbolTable
 70
     3
  0
LTYPE
  5
5B
330
5
100
AcDbSymbolTableRecord
100
AcDbLinetypeTableRecord
  2
ByBlock
 70
     0
  3

 72
    65
 73
     0
 40
0.0
  0
LTYPE
  5
5C
330
5
100
AcDbSymbolTableRecord
100
AcDbLinetypeTableRecord
  2
ByLayer
 70
     0
  3

 72
    65
 73
     0
 40
0.0
  0
LTYPE
  5
5D
330
5
100
AcDbSymbolTableRecord
100
AcDbLinetypeTableRecord
  2
Continuous
 70
     0
  3
Solid line
 72
    65
 73
     0
 40
0.0
  0
LTYPE
  5
13E
330
5
100
AcDbSymbolTableRecord
100
AcDbLinetypeTableRecord
  2
AI-Linetype-0
 70
     0
  3
Adobe Illustrator Linetype No. 0
 72
    65
 73
     2
 40
1.411111110758333
 49
0.7055555553791667
 74
     0
 49
-0.7055555553791667
 74
     0
  0
LTYPE
  5
140
330
5
100
AcDbSymbolTableRecord
100
AcDbLinetypeTableRecord
  2
AI-Linetype-1
 70
     0
  3
Adobe Illustrator Linetype No. 1
 72
    65
 73
     2
 40
1.411111110758333
 49
0.7055555553791667
 74
     0
 49
-0.7055555553791667
 74
     0
  0
ENDTAB
  0
TABLE
  2
LAYER
  5
2
330
0
100
AcDbSymbolTable
 70
     2
  0
LAYER
  5
54
330
2
100
AcDbSymbolTableRecord
100
AcDbLayerTableRecord
  2
0
 70
     0
 62
     7
  6
Continuous
370
    -3
390
F
347
21
  0
LAYER
  5
78
330
2
100
AcDbSymbolTableRecord
100
AcDbLayerTableRecord
  2
レイヤー 1
 70
     0
 62
     7
  6
Continuous
370
     0
390
F
347
21
  0
ENDTAB
  0
TABLE
  2
STYLE
  5
3
330
0
100
AcDbSymbolTable
 70
     2
  0
STYLE
  5
55
330
3
100
AcDbSymbolTableRecord
100
AcDbTextStyleTableRecord
  2
Standard
 70
     0
 40
0.0
 41
1.0
 50
0.0
 71
     0
 42
0.2
  3
txt
  4

  0
STYLE
  5
5A
330
3
100
AcDbSymbolTableRecord
100
AcDbTextStyleTableRecord
  2
Annotative
 70
     0
 40
0.0
 41
1.0
 50
0.0
 71
     0
 42
0.2
  3
txt
  4

1001
AcadAnnotative
1000
AnnotativeData
1002
{
1070
     1
1070
     1
1002
}
  0
ENDTAB
  0
TABLE
  2
VIEW
  5
6
330
0
100
AcDbSymbolTable
 70
     0
  0
ENDTAB
  0
TABLE
  2
UCS
  5
7
330
0
100
AcDbSymbolTable
 70
     0
  0
ENDTAB
  0
TABLE
  2
APPID
  5
9
330
0
100
AcDbSymbolTable
 70
     2
  0
APPID
  5
56
330
9
100
AcDbSymbolTableRecord
100
AcDbRegAppTableRecord
  2
ACAD
 70
     0
  0
APPID
  5
5E
330
9
100
AcDbSymbolTableRecord
100
AcDbRegAppTableRecord
  2
AcadAnnotative
 70
     0
  0
ENDTAB
  0
TABLE
  2
DIMSTYLE
  5
A
330
0
100
AcDbSymbolTable
 70
     2
100
AcDbDimStyleTable
 71
     0
  0
DIMSTYLE
105
58
330
A
100
AcDbSymbolTableRecord
100
AcDbDimStyleTableRecord
  2
Standard
 70
     0
340
55
  0
DIMSTYLE
105
59
330
A
100
AcDbSymbolTableRecord
100
AcDbDimStyleTableRecord
  2
Annotative
 70
     0
340
55
1001
AcadAnnotative
1000
AnnotativeData
1002
{
1070
     1
1070
     1
1002
}
  0
ENDTAB
  0
TABLE
  2
BLOCK_RECORD
  5
1
330
0
100
AcDbSymbolTable
 70
    17
  0
BLOCK_RECORD
  5
70
330
1
100
AcDbSymbolTableRecord
100
AcDbBlockTableRecord
  2
*Model_Space
340
73
 70
     0
280
     1
281
     0
  0
BLOCK_RECORD
  5
6C
330
1
100
AcDbSymbolTableRecord
100
AcDbBlockTableRecord
  2
*Paper_Space
340
6F
 70
     0
280
     1
281
     0
  0
BLOCK_RECORD
  5
74
330
1
100
AcDbSymbolTableRecord
100
AcDbBlockTableRecord
  2
*Paper_Space0
340
77
 70
     0
280
     1
281
     0
  0
BLOCK_RECORD
  5
79
330
1
100
AcDbSymbolTableRecord
100
AcDbBlockTableRecord
  2
Block_0
340
0
102
{BLKREFS
331
7A
102
}
 70
     0
280
     1
281
     0
  0
BLOCK_RECORD
  5
E4
330
1
100
AcDbSymbolTableRecord
100
AcDbBlockTableRecord
  2
Block_1
340
0
102
{BLKREFS
331
E5
102
}
 70
     0
280
     1
281
     0
  0
BLOCK_RECORD
  5
E8
330
1
100
AcDbSymbolTableRecord
100
AcDbBlockTableRecord
  2
Block_2
340
0
102
{BLKREFS
331
E9
102
}
 70
     0
280
     1
281
     0
  0
BLOCK_RECORD
  5
F5
330
1
100
AcDbSymbolTableRecord
100
AcDbBlockTableRecord
  2
Block_3
340
0
102
{BLKREFS
331
F6
102
}
 70
     0
280
     1
281
     0
  0
BLOCK_RECORD
  5
F9
330
1
100
AcDbSymbolTableRecord
100
AcDbBlockTableRecord
  2
Block_4
340
0
102
{BLKREFS
331
FA
102
}
 70
     0
280
     1
281
     0
  0
BLOCK_RECORD
  5
103
330
1
100
AcDbSymbolTableRecord
100
AcDbBlockTableRecord
  2
Block_5
340
0
102
{BLKREFS
331
104
102
}
 70
     0
280
     1
281
     0
  0
BLOCK_RECORD
  5
10D
330
1
100
AcDbSymbolTableRecord
100
AcDbBlockTableRecord
  2
Block_6
340
0
102
{BLKREFS
331
10E
102
}
 70
     0
280
     1
281
     0
  0
BLOCK_RECORD
  5
111
330
1
100
AcDbSymbolTableRecord
100
AcDbBlockTableRecord
  2
Block_7
340
0
102
{BLKREFS
331
112
102
}
 70
     0
280
     1
281
     0
  0
BLOCK_RECORD
  5
11C
330
1
100
AcDbSymbolTableRecord
100
AcDbBlockTableRecord
  2
Block_8
340
0
102
{BLKREFS
331
11D
102
}
 70
     0
280
     1
281
     0
  0
BLOCK_RECORD
  5
125
330
1
100
AcDbSymbolTableRecord
100
AcDbBlockTableRecord
  2
Block_9
340
0
102
{BLKREFS
331
126
102
}
 70
     0
280
     1
281
     0
  0
BLOCK_RECORD
  5
130
330
1
100
AcDbSymbolTableRecord
100
AcDbBlockTableRecord
  2
Block_10
340
0
102
{BLKREFS
331
131
102
}
 70
     0
280
     1
281
     0
  0
BLOCK_RECORD
  5
134
330
1
100
AcDbSymbolTableRecord
100
AcDbBlockTableRecord
  2
Block_11
340
0
102
{BLKREFS
331
135
102
}
 70
     0
280
     1
281
     0
  0
BLOCK_RECORD
  5
141
330
1
100
AcDbSymbolTableRecord
100
AcDbBlockTableRecord
  2
Block_12
340
0
102
{BLKREFS
331
142
102
}
 70
     0
280
     1
281
     0
  0
BLOCK_RECORD
  5
145
330
1
100
AcDbSymbolTableRecord
100
AcDbBlockTableRecord
  2
Block_13
340
0
102
{BLKREFS
331
146
102
}
 70
     0
280
     1
281
     0
  0
BLOCK_RECORD
  5
14C
330
1
100
AcDbSymbolTableRecord
100
AcDbBlockTableRecord
  2
Block_14
340
0
102
{BLKREFS
331
14D
102
}
 70
     0
280
     1
281
     0
  0
BLOCK_RECORD
  5
150
330
1
100
AcDbSymbolTableRecord
100
AcDbBlockTableRecord
  2
Block_15
340
0
102
{BLKREFS
331
151
102
}
 70
     0
280
     1
281
     0
  0
ENDTAB
  0
ENDSEC
  0
SECTION
  2
BLOCKS
  0
BLOCK
  5
71
330
70
100
AcDbEntity
  8
0
100
AcDbBlockBegin
  2
*Model_Space
 70
     0
 10
0.0
 20
0.0
 30
0.0
  3
*Model_Space
  1

  0
ENDBLK
  5
72
330
70
100
AcDbEntity
  8
0
100
AcDbBlockEnd
  0
BLOCK
  5
6D
330
6C
100
AcDbEntity
 67
     1
  8
0
100
AcDbBlockBegin
  2
*Paper_Space
 70
     0
 10
0.0
 20
0.0
 30
0.0
  3
*Paper_Space
  1

  0
ENDBLK
  5
6E
330
6C
100
AcDbEntity
 67
     1
  8
0
100
AcDbBlockEnd
  0
BLOCK
  5
75
330
74
100
AcDbEntity
 67
     1
  8
0
100
AcDbBlockBegin
  2
*Paper_Space0
 70
     0
 10
0.0
 20
0.0
 30
0.0
  3
*Paper_Space0
  1

  0
ENDBLK
  5
76
330
74
100
AcDbEntity
 67
     1
  8
0
100
AcDbBlockEnd
  0
BLOCK
  5
7B
330
79
100
AcDbEntity
  8
0
100
AcDbBlockBegin
  2
Block_0
 70
     0
 10
0.0
 20
0.0
 30
0.0
  3
Block_0
  1

  0
LINE
  5
7D
330
79
100
AcDbEntity
  8
レイヤー 1
 62
   250
420
  2299925
370
    25
100
AcDbLine
 10
108.239260710138
 20
-154.1574830388386
 30
0.0
 11
98.23882235415906
 21
-154.1574830388386
 31
0.0
  0
LINE
  5
7E
330
79
100
AcDbEntity
  8
レイヤー 1
 62
   250
420
  2299925
370
    25
100
AcDbLine
 10
78.23815730886298
 20
-145.6574083187419
 30
0.0
 11
78.23815730886298
 21
-146.157611929728
 31
0.0
  0
LINE
  5
7F
330
79
100
AcDbEntity
  8
レイヤー 1
 62
   250
420
  2299925
370
    25
100
AcDbLine
 10
98.23882235415906
 20
-146.157611929728
 30
0.0
 11
78.23815730886298
 21
-146.157611929728
 31
0.0
  0
LINE
  5
80
330
79
100
AcDbEntity
  8
レイヤー 1
 62
   250
420
  2299925
370
    25
100
AcDbLine
 10
78.23815730886298
 20
-145.6574083187419
 30
0.0
 11
78.75180174020326
 21
-146.0394666519795
 31
0.0
  0
LINE
  5
81
330
79
100
AcDbEntity
  8
レイヤー 1
 62
   250
420
  2299925
370
    25
100
AcDbLine
 10
78.75180174020326
 20
-146.0394666519795
 30
0.0
 11
79.23722395004134
 21
-145.6219188743064
 31
0.0
  0
LINE
  5
82
330
79
100
AcDbEntity
  8
レイヤー 1
 62
   250
420
  2299925
370
    25
100
AcDbLine
 10
79.75122115915039
 20
-146.0039772075444
 30
0.0
 11
80.23664336898846
 21
-145.5860766520931
 31
0.0
  0
LINE
  5
83
330
79
100
AcDbEntity
  8
レイヤー 1
 62
   250
420
  2299925
370
    25
100
AcDbLine
 10
79.23722395004134
 20
-145.6219188743064
 30
0.0
 11
79.75122115915039
 21
-146.0039772075444
 31
0.0
  0
LINE
  5
84
330
79
100
AcDbEntity
  8
レイヤー 1
 62
   250
420
  2299925
370
    25
100
AcDbLine
 10
80.23664336898846
 20
-145.5860766520931
 30
0.0
 11
80.7506758558744
 21
-145.9681349853308
 31
0.0
  0
LINE
  5
85
330
79
100
AcDbEntity
  8
レイヤー 1
 62
   250
420
  2299925
370
    25
100
AcDbLine
 10
80.7506758558744
 20
-145.9681349853308
 30
0.0
 11
81.23606278793559
 21
-145.5505872076573
 31
0.0
  0
LINE
  5
86
330
79
100
AcDbEntity
  8
レイヤー 1
 62
   250
420
  2299925
370
    25
100
AcDbLine
 10
81.23606278793559
 20
-145.5505872076573
 30
0.0
 11
81.75009527482153
 21
-145.9323280408954
 31
0.0
  0
LINE
  5
87
330
79
100
AcDbEntity
  8
レイヤー 1
 62
   250
420
  2299925
370
    25
100
AcDbLine
 10
81.75009527482153
 20
-145.9323280408954
 30
0.0
 11
82.23516470689082
 21
-145.5147802632222
 31
0.0
  0
LINE
  5
88
330
79
100
AcDbEntity
  8
レイヤー 1
 62
   250
420
  2299925
370
    25
100
AcDbLine
 10
82.23516470689082
 20
-145.5147802632222
 30
0.0
 11
82.7491619160002
 21
-145.8964858186821
 31
0.0
  0
LINE
  5
89
330
79
100
AcDbEntity
  8
レイヤー 1
 62
   250
420
  2299925
370
    25
100
AcDbLine
 10
82.7491619160002
 20
-145.8964858186821
 30
0.0
 11
83.23490162583018
 21
-145.478938041009
 31
0.0
  0
LINE
  5
8A
330
79
100
AcDbEntity
  8
レイヤー 1
 62
   250
420
  2299925
370
    25
100
AcDbLine
 10
83.23490162583018
 20
-145.478938041009
 30
0.0
 11
83.7489341127158
 21
-145.8609963742464
 31
0.0
  0
LINE
  5
8B
330
79
100
AcDbEntity
  8
レイヤー 1
 62
   250
420
  2299925
370
    25
100
AcDbLine
 10
83.7489341127158
 20
-145.8609963742464
 30
0.0
 11
84.23400354478507
 21
-145.4434485965732
 31
0.0
  0
LINE
  5
8C
330
79
100
AcDbEntity
  8
レイヤー 1
 62
   250
420
  2299925
370
    25
100
AcDbLine
 10
84.23400354478507
 20
-145.4434485965732
 30
0.0
 11
84.74800075389415
 21
-145.8255069298109
 31
0.0
  0
LINE
  5
8D
330
79
100
AcDbEntity
  8
レイヤー 1
 62
   250
420
  2299925
370
    25
100
AcDbLine
 10
84.74800075389415
 20
-145.8255069298109
 30
0.0
 11
85.23342296373222
 21
-145.4076416521377
 31
0.0
  0
LINE
  5
8E
330
79
100
AcDbEntity
  8
レイヤー 1
 62
   250
420
  2299925
370
    25
100
AcDbLine
 10
85.74742017284128
 20
-145.7896999853755
 30
0.0
 11
86.23284238267968
 21
-145.372152207702
 31
0.0
  0
LINE
  5
8F
330
79
100
AcDbEntity
  8
レイヤー 1
 62
   250
420
  2299925
370
    25
100
AcDbLine
 10
85.23342296373222
 20
-145.4076416521377
 30
0.0
 11
85.74742017284128
 21
-145.7896999853755
 31
0.0
  0
LINE
  5
90
330
79
100
AcDbEntity
  8
レイヤー 1
 62
   250
420
  2299925
370
    25
100
AcDbLine
 10
86.23284238267968
 20
-145.372152207702
 30
0.0
 11
86.74683959178841
 21
-145.7538577631622
 31
0.0
  0
LINE
  5
91
330
79
100
AcDbEntity
  8
レイヤー 1
 62
   250
420
  2299925
370
    25
100
AcDbLine
 10
86.74683959178841
 20
-145.7538577631622
 30
0.0
 11
87.23226180162647
 21
-145.3363099854887
 31
0.0
  0
LINE
  5
92
330
79
100
AcDbEntity
  8
レイヤー 1
 62
   250
420
  2299925
370
    25
100
AcDbLine
 10
87.74576512185925
 20
-145.718015540949
 30
0.0
 11
88.23150483168921
 21
-145.3004677632755
 31
0.0
  0
LINE
  5
93
330
79
100
AcDbEntity
  8
レイヤー 1
 62
   250
420
  2299925
370
    25
100
AcDbLine
 10
87.23226180162647
 20
-145.3363099854887
 30
0.0
 11
87.74576512185925
 21
-145.718015540949
 31
0.0
  0
LINE
  5
94
330
79
100
AcDbEntity
  8
レイヤー 1
 62
   250
420
  2299925
370
    25
100
AcDbLine
 10
88.74553731857485
 20
-145.682561374291
 30
0.0
 11
89.23060675064446
 21
-145.2650135966178
 31
0.0
  0
LINE
  5
95
330
79
100
AcDbEntity
  8
レイヤー 1
 62
   250
420
  2299925
370
    25
100
AcDbLine
 10
88.23150483168921
 20
-145.3004677632755
 30
0.0
 11
88.74553731857485
 21
-145.682561374291
 31
0.0
  0
LINE
  5
96
330
79
100
AcDbEntity
  8
レイヤー 1
 62
   250
420
  2299925
370
    25
100
AcDbLine
 10
89.23060675064446
 20
-145.2650135966178
 30
0.0
 11
89.74460395975352
 21
-145.6470719298558
 31
0.0
  0
LINE
  5
97
330
79
100
AcDbEntity
  8
レイヤー 1
 62
   250
420
  2299925
370
    25
100
AcDbLine
 10
89.74460395975352
 20
-145.6470719298558
 30
0.0
 11
90.23034366958349
 21
-145.2291713744046
 31
0.0
  0
LINE
  5
98
330
79
100
AcDbEntity
  8
レイヤー 1
 62
   250
420
  2299925
370
    25
100
AcDbLine
 10
90.23034366958349
 20
-145.2291713744046
 30
0.0
 11
90.74437615646942
 21
-145.6112297076426
 31
0.0
  0
LINE
  5
99
330
79
100
AcDbEntity
  8
レイヤー 1
 62
   250
420
  2299925
370
    25
100
AcDbLine
 10
90.74437615646942
 20
-145.6112297076426
 30
0.0
 11
91.22944558853872
 21
-145.1936819299688
 31
0.0
  0
LINE
  5
9A
330
79
100
AcDbEntity
  8
レイヤー 1
 62
   250
420
  2299925
370
    25
100
AcDbLine
 10
91.22944558853872
 20
-145.1936819299688
 30
0.0
 11
91.74344279764778
 21
-145.5753874854293
 31
0.0
  0
LINE
  5
9B
330
79
100
AcDbEntity
  8
レイヤー 1
 62
   250
420
  2299925
370
    25
100
AcDbLine
 10
91.74344279764778
 20
-145.5753874854293
 30
0.0
 11
92.22921778525462
 21
-145.1578397077555
 31
0.0
  0
LINE
  5
9C
330
79
100
AcDbEntity
  8
レイヤー 1
 62
   250
420
  2299925
370
    25
100
AcDbLine
 10
92.22921778525462
 20
-145.1578397077555
 30
0.0
 11
92.74321499436368
 21
-145.5395805409936
 31
0.0
  0
LINE
  5
9D
330
79
100
AcDbEntity
  8
レイヤー 1
 62
   250
420
  2299925
370
    25
100
AcDbLine
 10
92.74321499436368
 20
-145.5395805409936
 30
0.0
 11
93.22828442643297
 21
-145.1220327633204
 31
0.0
  0
LINE
  5
9E
330
79
100
AcDbEntity
  8
レイヤー 1
 62
   250
420
  2299925
370
    25
100
AcDbLine
 10
93.22828442643297
 20
-145.1220327633204
 30
0.0
 11
93.74228163554205
 21
-145.5040910965581
 31
0.0
  0
LINE
  5
9F
330
79
100
AcDbEntity
  8
レイヤー 1
 62
   250
420
  2299925
370
    25
100
AcDbLine
 10
93.74228163554205
 20
-145.5040910965581
 30
0.0
 11
94.22735106761134
 21
-145.0865433188846
 31
0.0
  0
LINE
  5
A0
330
79
100
AcDbEntity
  8
レイヤー 1
 62
   250
420
  2299925
370
    25
100
AcDbLine
 10
94.22735106761134
 20
-145.0865433188846
 30
0.0
 11
94.74134827672038
 21
-145.4686016521223
 31
0.0
  0
LINE
  5
A1
330
79
100
AcDbEntity
  8
レイヤー 1
 62
   250
420
  2299925
370
    25
100
AcDbLine
 10
94.74134827672038
 20
-145.4686016521223
 30
0.0
 11
95.22712326432692
 21
-145.0507010966714
 31
0.0
  0
LINE
  5
A2
330
79
100
AcDbEntity
  8
レイヤー 1
 62
   250
420
  2299925
370
    25
100
AcDbLine
 10
95.22712326432692
 20
-145.0507010966714
 30
0.0
 11
95.74112047343662
 21
-145.432759429909
 31
0.0
  0
LINE
  5
A3
330
79
100
AcDbEntity
  8
レイヤー 1
 62
   250
420
  2299925
370
    25
100
AcDbLine
 10
95.74112047343662
 20
-145.432759429909
 30
0.0
 11
96.22618990550559
 21
-145.0152116522359
 31
0.0
  0
LINE
  5
A4
330
79
100
AcDbEntity
  8
レイヤー 1
 62
   250
420
  2299925
370
    25
100
AcDbLine
 10
96.22618990550559
 20
-145.0152116522359
 30
0.0
 11
96.74022239239153
 21
-145.3969524854736
 31
0.0
  0
LINE
  5
A5
330
79
100
AcDbEntity
  8
レイヤー 1
 62
   250
420
  2299925
370
    25
100
AcDbLine
 10
96.74022239239153
 20
-145.3969524854736
 30
0.0
 11
97.22529182446082
 21
-144.9794047078001
 31
0.0
  0
LINE
  5
A6
330
79
100
AcDbEntity
  8
レイヤー 1
 62
   250
420
  2299925
370
    25
100
AcDbLine
 10
97.22529182446082
 20
-144.9794047078001
 30
0.0
 11
97.73928903356988
 21
-145.3611102632604
 31
0.0
  0
LINE
  5
A7
330
79
100
AcDbEntity
  8
レイヤー 1
 62
   250
420
  2299925
370
    25
100
AcDbLine
 10
97.73928903356988
 20
-145.3611102632604
 30
0.0
 11
98.22502874339987
 21
-144.9435624855869
 31
0.0
  0
LINE
  5
A8
330
79
100
AcDbEntity
  8
レイヤー 1
 62
   250
420
  2299925
370
    25
100
AcDbLine
 10
98.29167438161242
 20
-144.8953377633767
 30
0.0
 11
99.23926482863564
 21
-144.8953377633767
 31
0.0
  0
LINE
  5
A9
330
79
100
AcDbEntity
  8
レイヤー 1
 62
   250
420
  2299925
370
    25
100
AcDbLine
 10
99.23926482863564
 20
-144.8953377633767
 30
0.0
 11
99.23926482863564
 21
-153.157358039089
 31
0.0
  0
LINE
  5
AA
330
79
100
AcDbEntity
  8
レイヤー 1
 62
   250
420
  2299925
370
    25
100
AcDbLine
 10
98.23882235415906
 20
-146.157611929728
 30
0.0
 11
98.23882235415906
 21
-154.1574830388386
 31
0.0
  0
LINE
  5
AB
330
79
100
AcDbEntity
  8
レイヤー 1
 62
   250
420
  2299925
370
    25
100
AcDbLine
 10
107.2394885134221
 20
-153.157358039089
 30
0.0
 11
99.23926482863564
 21
-153.157358039089
 31
0.0
  0
LINE
  5
AC
330
79
100
AcDbEntity
  8
レイヤー 1
 62
   250
420
  2299925
370
    25
100
AcDbLine
 10
118.3003062867927
 20
-145.3004677632755
 30
0.0
 11
117.7863090776837
 21
-145.682561374291
 31
0.0
  0
LINE
  5
AD
330
79
100
AcDbEntity
  8
レイヤー 1
 62
   250
420
  2299925
370
    25
100
AcDbLine
 10
123.2970858815365
 20
-145.478938041009
 30
0.0
 11
122.7830533946505
 21
-145.8609963742464
 31
0.0
  0
LINE
  5
AE
330
79
100
AcDbEntity
  8
レイヤー 1
 62
   250
420
  2299925
370
    25
100
AcDbLine
 10
118.785375718862
 20
-145.718015540949
 30
0.0
 11
118.3003062867927
 21
-145.3004677632755
 31
0.0
  0
LINE
  5
AF
330
79
100
AcDbEntity
  8
レイヤー 1
 62
   250
420
  2299925
370
    25
100
AcDbLine
 10
119.7851479155779
 20
-145.7538577631622
 30
0.0
 11
119.2993729279711
 21
-145.3363099854887
 31
0.0
  0
LINE
  5
B0
330
79
100
AcDbEntity
  8
レイヤー 1
 62
   250
420
  2299925
370
    25
100
AcDbLine
 10
117.7863090776837
 20
-145.682561374291
 30
0.0
 11
117.3005340900768
 21
-145.2650135966178
 31
0.0
  0
LINE
  5
B1
330
79
100
AcDbEntity
  8
レイヤー 1
 62
   250
420
  2299925
370
    25
100
AcDbLine
 10
119.2993729279711
 20
-145.3363099854887
 30
0.0
 11
118.785375718862
 21
-145.718015540949
 31
0.0
  0
LINE
  5
B2
330
79
100
AcDbEntity
  8
レイヤー 1
 62
   250
420
  2299925
370
    25
100
AcDbLine
 10
127.294763557325
 20
-145.6219188743064
 30
0.0
 11
126.7807663482159
 21
-146.0039772075444
 31
0.0
  0
LINE
  5
B3
330
79
100
AcDbEntity
  8
レイヤー 1
 62
   250
420
  2299925
370
    25
100
AcDbLine
 10
120.299145124687
 20
-145.372152207702
 30
0.0
 11
119.7851479155779
 21
-145.7538577631622
 31
0.0
  0
LINE
  5
B4
330
79
100
AcDbEntity
  8
レイヤー 1
 62
   250
420
  2299925
370
    25
100
AcDbLine
 10
121.2982117658653
 20
-145.4076416521377
 30
0.0
 11
120.7842145567562
 21
-145.7896999853755
 31
0.0
  0
LINE
  5
B5
330
79
100
AcDbEntity
  8
レイヤー 1
 62
   250
420
  2299925
370
    25
100
AcDbLine
 10
107.2925462898463
 20
-144.8953377633767
 30
0.0
 11
107.2925462898463
 21
-153.157358039089
 31
0.0
  0
LINE
  5
B6
330
79
100
AcDbEntity
  8
レイヤー 1
 62
   250
420
  2299925
370
    25
100
AcDbLine
 10
120.7842145567562
 20
-145.7896999853755
 30
0.0
 11
120.299145124687
 21
-145.372152207702
 31
0.0
  0
LINE
  5
B7
330
79
100
AcDbEntity
  8
レイヤー 1
 62
   250
420
  2299925
370
    25
100
AcDbLine
 10
121.7839867534722
 20
-145.8255069298109
 30
0.0
 11
121.2982117658653
 21
-145.4076416521377
 31
0.0
  0
LINE
  5
B8
330
79
100
AcDbEntity
  8
レイヤー 1
 62
   250
420
  2299925
370
    25
100
AcDbLine
 10
126.7807663482159
 20
-146.0039772075444
 30
0.0
 11
126.2949913606091
 21
-145.5860766520931
 31
0.0
  0
LINE
  5
B9
330
79
100
AcDbEntity
  8
レイヤー 1
 62
   250
420
  2299925
370
    25
100
AcDbLine
 10
122.2973136848205
 20
-145.4434485965732
 30
0.0
 11
121.7839867534722
 21
-145.8255069298109
 31
0.0
  0
LINE
  5
BA
330
79
100
AcDbEntity
  8
レイヤー 1
 62
   250
420
  2299925
370
    25
100
AcDbLine
 10
122.7830533946505
 20
-145.8609963742464
 30
0.0
 11
122.2973136848205
 21
-145.4434485965732
 31
0.0
  0
LINE
  5
BB
330
79
100
AcDbEntity
  8
レイヤー 1
 62
   250
420
  2299925
370
    25
100
AcDbLine
 10
127.7798329893943
 20
-146.0394666519795
 30
0.0
 11
127.294763557325
 21
-145.6219188743064
 31
0.0
  0
LINE
  5
BC
330
79
100
AcDbEntity
  8
レイヤー 1
 62
   250
420
  2299925
370
    25
100
AcDbLine
 10
124.2961525227148
 20
-145.5147802632222
 30
0.0
 11
123.7821553136058
 21
-145.8964858186821
 31
0.0
  0
LINE
  5
BD
330
79
100
AcDbEntity
  8
レイヤー 1
 62
   250
420
  2299925
370
    25
100
AcDbLine
 10
125.2959247194307
 20
-145.5505872076573
 30
0.0
 11
124.7818922325448
 21
-145.9323280408954
 31
0.0
  0
LINE
  5
BE
330
79
100
AcDbEntity
  8
レイヤー 1
 62
   250
420
  2299925
370
    25
100
AcDbLine
 10
124.7818922325448
 20
-145.9323280408954
 30
0.0
 11
124.2961525227148
 21
-145.5147802632222
 31
0.0
  0
LINE
  5
BF
330
79
100
AcDbEntity
  8
レイヤー 1
 62
   250
420
  2299925
370
    25
100
AcDbLine
 10
128.2938301985034
 20
-145.6574083187419
 30
0.0
 11
127.7798329893943
 21
-146.0394666519795
 31
0.0
  0
LINE
  5
C0
330
79
100
AcDbEntity
  8
レイヤー 1
 62
   250
420
  2299925
370
    25
100
AcDbLine
 10
123.7821553136058
 20
-145.8964858186821
 30
0.0
 11
123.2970858815365
 21
-145.478938041009
 31
0.0
  0
LINE
  5
C1
330
79
100
AcDbEntity
  8
レイヤー 1
 62
   250
420
  2299925
370
    25
100
AcDbLine
 10
126.2949913606091
 20
-145.5860766520931
 30
0.0
 11
125.7809941515
 21
-145.9681349853308
 31
0.0
  0
LINE
  5
C2
330
79
100
AcDbEntity
  8
レイヤー 1
 62
   250
420
  2299925
370
    25
100
AcDbLine
 10
125.7809941515
 20
-145.9681349853308
 30
0.0
 11
125.2959247194307
 21
-145.5505872076573
 31
0.0
  0
LINE
  5
C3
330
79
100
AcDbEntity
  8
レイヤー 1
 62
   250
420
  2299925
370
    25
100
AcDbLine
 10
128.2938301985034
 20
-145.6574083187419
 30
0.0
 11
128.2938301985034
 21
-146.157611929728
 31
0.0
  0
LINE
  5
C4
330
79
100
AcDbEntity
  8
レイヤー 1
 62
   250
420
  2299925
370
    25
100
AcDbLine
 10
108.2923184865622
 20
-146.157611929728
 30
0.0
 11
128.2938301985034
 21
-146.157611929728
 31
0.0
  0
LINE
  5
C5
330
79
100
AcDbEntity
  8
レイヤー 1
 62
   250
420
  2299925
370
    25
100
AcDbLine
 10
117.3005340900768
 20
-145.2650135966178
 30
0.0
 11
116.7865368809677
 21
-145.6470719298558
 31
0.0
  0
LINE
  5
C6
330
79
100
AcDbEntity
  8
レイヤー 1
 62
   250
420
  2299925
370
    25
100
AcDbLine
 10
116.7865368809677
 20
-145.6470719298558
 30
0.0
 11
116.3014674488984
 21
-145.2291713744046
 31
0.0
  0
LINE
  5
C7
330
79
100
AcDbEntity
  8
レイヤー 1
 62
   250
420
  2299925
370
    25
100
AcDbLine
 10
116.3014674488984
 20
-145.2291713744046
 30
0.0
 11
115.7874349620125
 21
-145.6112297076426
 31
0.0
  0
LINE
  5
C8
330
79
100
AcDbEntity
  8
レイヤー 1
 62
   250
420
  2299925
370
    25
100
AcDbLine
 10
115.7874349620125
 20
-145.6112297076426
 30
0.0
 11
115.3023655299432
 21
-145.1936819299688
 31
0.0
  0
LINE
  5
C9
330
79
100
AcDbEntity
  8
レイヤー 1
 62
   250
420
  2299925
370
    25
100
AcDbLine
 10
115.3023655299432
 20
-145.1936819299688
 30
0.0
 11
114.7883683208342
 21
-145.5753874854293
 31
0.0
  0
LINE
  5
CA
330
79
100
AcDbEntity
  8
レイヤー 1
 62
   250
420
  2299925
370
    25
100
AcDbLine
 10
114.7883683208342
 20
-145.5753874854293
 30
0.0
 11
114.3026286110042
 21
-145.1578397077555
 31
0.0
  0
LINE
  5
CB
330
79
100
AcDbEntity
  8
レイヤー 1
 62
   250
420
  2299925
370
    25
100
AcDbLine
 10
114.3026286110042
 20
-145.1578397077555
 30
0.0
 11
113.7885961241182
 21
-145.5395805409936
 31
0.0
  0
LINE
  5
CC
330
79
100
AcDbEntity
  8
レイヤー 1
 62
   250
420
  2299925
370
    25
100
AcDbLine
 10
113.7885961241182
 20
-145.5395805409936
 30
0.0
 11
113.3035266920489
 21
-145.1220327633204
 31
0.0
  0
LINE
  5
CD
330
79
100
AcDbEntity
  8
レイヤー 1
 62
   250
420
  2299925
370
    25
100
AcDbLine
 10
113.3035266920489
 20
-145.1220327633204
 30
0.0
 11
112.7895294829399
 21
-145.5040910965581
 31
0.0
  0
LINE
  5
CE
330
79
100
AcDbEntity
  8
レイヤー 1
 62
   250
420
  2299925
370
    25
100
AcDbLine
 10
112.7895294829399
 20
-145.5040910965581
 30
0.0
 11
112.303754495333
 21
-145.0865433188846
 31
0.0
  0
LINE
  5
CF
330
79
100
AcDbEntity
  8
レイヤー 1
 62
   250
420
  2299925
370
    25
100
AcDbLine
 10
112.303754495333
 20
-145.0865433188846
 30
0.0
 11
111.789757286224
 21
-145.4686016521223
 31
0.0
  0
LINE
  5
D0
330
79
100
AcDbEntity
  8
レイヤー 1
 62
   250
420
  2299925
370
    25
100
AcDbLine
 10
111.789757286224
 20
-145.4686016521223
 30
0.0
 11
111.3046878541547
 21
-145.0507010966714
 31
0.0
  0
LINE
  5
D1
330
79
100
AcDbEntity
  8
レイヤー 1
 62
   250
420
  2299925
370
    25
100
AcDbLine
 10
111.3046878541547
 20
-145.0507010966714
 30
0.0
 11
110.7906906450456
 21
-145.432759429909
 31
0.0
  0
LINE
  5
D2
330
79
100
AcDbEntity
  8
レイヤー 1
 62
   250
420
  2299925
370
    25
100
AcDbLine
 10
110.7906906450456
 20
-145.432759429909
 30
0.0
 11
110.3056212129763
 21
-145.0152116522359
 31
0.0
  0
LINE
  5
D3
330
79
100
AcDbEntity
  8
レイヤー 1
 62
   250
420
  2299925
370
    25
100
AcDbLine
 10
110.3056212129763
 20
-145.0152116522359
 30
0.0
 11
109.7916240038673
 21
-145.3969524854736
 31
0.0
  0
LINE
  5
D4
330
79
100
AcDbEntity
  8
レイヤー 1
 62
   250
420
  2299925
370
    25
100
AcDbLine
 10
109.7916240038673
 20
-145.3969524854736
 30
0.0
 11
109.3058490162604
 21
-144.9794047078001
 31
0.0
  0
LINE
  5
D5
330
79
100
AcDbEntity
  8
レイヤー 1
 62
   250
420
  2299925
370
    25
100
AcDbLine
 10
109.3058490162604
 20
-144.9794047078001
 30
0.0
 11
108.7918518071514
 21
-145.3611102632604
 31
0.0
  0
LINE
  5
D6
330
79
100
AcDbEntity
  8
レイヤー 1
 62
   250
420
  2299925
370
    25
100
AcDbLine
 10
108.7918518071514
 20
-145.3611102632604
 30
0.0
 11
108.3067823750821
 21
-144.9435624855869
 31
0.0
  0
LINE
  5
D7
330
79
100
AcDbEntity
  8
レイヤー 1
 62
   250
420
  2299925
370
    25
100
AcDbLine
 10
108.237782134825
 20
-144.8953377633767
 30
0.0
 11
107.2925462898463
 21
-144.8953377633767
 31
0.0
  0
LINE
  5
D8
330
79
100
AcDbEntity
  8
レイヤー 1
 62
   250
420
  2299925
370
    25
100
AcDbLine
 10
108.2923184865622
 20
-146.157611929728
 30
0.0
 11
108.2923184865622
 21
-154.1574830388386
 31
0.0
  0
SPLINE
  5
D9
330
79
100
AcDbEntity
  8
レイヤー 1
 62
   250
420
  2299925
370
     9
100
AcDbSpline
210
0.0
220
0.0
230
1.0
 70
     9
 71
     3
 72
    17
 73
    13
 74
     0
 42
0.0000000001
 43
0.0000000001
 40
0.0
 40
0.0
 40
0.0
 40
0.0
 40
1.0
 40
1.0
 40
1.0
 40
2.0
 40
2.0
 40
2.0
 40
3.0
 40
3.0
 40
3.0
 40
4.0
 40
4.0
 40
4.0
 40
4.0
 10
78.33806397298082
 20
-140.8955785977102
 30
0.0
 10
78.33806397298082
 20
-140.8401219310572
 30
0.0
 10
78.29326119634605
 20
-140.7953191532908
 30
0.0
 10
78.23815730886298
 20
-140.7953191532908
 30
0.0
 10
78.18270064361145
 20
-140.7953191532908
 30
0.0
 10
78.13789786697637
 20
-140.8401219310572
 30
0.0
 10
78.13789786697637
 20
-140.8955785977102
 30
0.0
 10
78.13789786697637
 20
-140.9507177643632
 30
0.0
 10
78.18270064361145
 20
-140.9954852643518
 30
0.0
 10
78.23815730886298
 20
-140.9954852643518
 30
0.0
 10
78.29326119634605
 20
-140.9954852643518
 30
0.0
 10
78.33806397298082
 20
-140.9507177643632
 30
0.0
 10
78.33806397298082
 20
-140.8955785977102
 30
0.0
  0
SPLINE
  5
DA
330
79
100
AcDbEntity
  8
レイヤー 1
 62
   250
420
  2299925
370
     9
100
AcDbSpline
210
0.0
220
0.0
230
1.0
 70
     9
 71
     3
 72
    17
 73
    13
 74
     0
 42
0.0000000001
 43
0.0000000001
 40
0.0
 40
0.0
 40
0.0
 40
0.0
 40
1.0
 40
1.0
 40
1.0
 40
2.0
 40
2.0
 40
2.0
 40
3.0
 40
3.0
 40
3.0
 40
4.0
 40
4.0
 40
4.0
 40
4.0
 10
74.33795213058772
 20
-145.6574083187419
 30
0.0
 10
74.33795213058772
 20
-145.6022691520891
 30
0.0
 10
74.29318696499439
 20
-145.5575016521002
 30
0.0
 10
74.23769268870112
 20
-145.5575016521002
 30
0.0
 10
74.18258880121804
 20
-145.5575016521002
 30
0.0
 10
74.13778602458361
 20
-145.6022691520891
 30
0.0
 10
74.13778602458361
 20
-145.6574083187419
 30
0.0
 10
74.13778602458361
 20
-145.7125122076171
 30
0.0
 10
74.18258880121804
 20
-145.7573149853838
 30
0.0
 10
74.23769268870112
 20
-145.7573149853838
 30
0.0
 10
74.29318696499439
 20
-145.7573149853838
 30
0.0
 10
74.33795213058772
 20
-145.7125122076171
 30
0.0
 10
74.33795213058772
 20
-145.6574083187419
 30
0.0
  0
SPLINE
  5
DB
330
79
100
AcDbEntity
  8
レイヤー 1
 62
   250
420
  2299925
370
     9
100
AcDbSpline
210
0.0
220
0.0
230
1.0
 70
     9
 71
     3
 72
    17
 73
    13
 74
     0
 42
0.0000000001
 43
0.0000000001
 40
0.0
 40
0.0
 40
0.0
 40
0.0
 40
1.0
 40
1.0
 40
1.0
 40
2.0
 40
2.0
 40
2.0
 40
3.0
 40
3.0
 40
3.0
 40
4.0
 40
4.0
 40
4.0
 40
4.0
 10
74.33795213058772
 20
-146.157611929728
 30
0.0
 10
74.33795213058772
 20
-146.1025080408528
 30
0.0
 10
74.29318696499439
 20
-146.0577052630861
 30
0.0
 10
74.23769268870112
 20
-146.0577052630861
 30
0.0
 10
74.18258880121804
 20
-146.0577052630861
 30
0.0
 10
74.13778602458361
 20
-146.1025080408528
 30
0.0
 10
74.13778602458361
 20
-146.157611929728
 30
0.0
 10
74.13778602458361
 20
-146.2127510963808
 30
0.0
 10
74.18258880121804
 20
-146.2575185963697
 30
0.0
 10
74.23769268870112
 20
-146.2575185963697
 30
0.0
 10
74.29318696499439
 20
-146.2575185963697
 30
0.0
 10
74.33795213058772
 20
-146.2127510963808
 30
0.0
 10
74.33795213058772
 20
-146.157611929728
 30
0.0
  0
SPLINE
  5
DC
330
79
100
AcDbEntity
  8
レイヤー 1
 62
   250
420
  2299925
370
     9
100
AcDbSpline
210
0.0
220
0.0
230
1.0
 70
     9
 71
     3
 72
    17
 73
    13
 74
     0
 42
0.0000000001
 43
0.0000000001
 40
0.0
 40
0.0
 40
0.0
 40
0.0
 40
1.0
 40
1.0
 40
1.0
 40
2.0
 40
2.0
 40
2.0
 40
3.0
 40
3.0
 40
3.0
 40
4.0
 40
4.0
 40
4.0
 40
4.0
 10
74.33795213058772
 20
-154.1574830388386
 30
0.0
 10
74.33795213058772
 20
-154.1023438721862
 30
0.0
 10
74.29318696499439
 20
-154.0575763721976
 30
0.0
 10
74.23769268870112
 20
-154.0575763721976
 30
0.0
 10
74.18258880121804
 20
-154.0575763721976
 30
0.0
 10
74.13778602458361
 20
-154.1023438721862
 30
0.0
 10
74.13778602458361
 20
-154.1574830388386
 30
0.0
 10
74.13778602458361
 20
-154.2125869277142
 30
0.0
 10
74.18258880121804
 20
-154.2573897054809
 30
0.0
 10
74.23769268870112
 20
-154.2573897054809
 30
0.0
 10
74.29318696499439
 20
-154.2573897054809
 30
0.0
 10
74.33795213058772
 20
-154.2125869277142
 30
0.0
 10
74.33795213058772
 20
-154.1574830388386
 30
0.0
  0
SPLINE
  5
DD
330
79
100
AcDbEntity
  8
レイヤー 1
 62
   250
420
  2299925
370
     9
100
AcDbSpline
210
0.0
220
0.0
230
1.0
 70
     9
 71
     3
 72
    17
 73
    13
 74
     0
 42
0.0000000001
 43
0.0000000001
 40
0.0
 40
0.0
 40
0.0
 40
0.0
 40
1.0
 40
1.0
 40
1.0
 40
2.0
 40
2.0
 40
2.0
 40
3.0
 40
3.0
 40
3.0
 40
4.0
 40
4.0
 40
4.0
 40
4.0
 10
99.33917149275348
 20
-140.8955785977102
 30
0.0
 10
99.33917149275348
 20
-140.8401219310572
 30
0.0
 10
99.29440399389561
 20
-140.7953191532908
 30
0.0
 10
99.23926482863564
 20
-140.7953191532908
 30
0.0
 10
99.18345538561503
 20
-140.7953191532908
 30
0.0
 10
99.13868788675745
 20
-140.8401219310572
 30
0.0
 10
99.13868788675745
 20
-140.8955785977102
 30
0.0
 10
99.13868788675745
 20
-140.9507177643632
 30
0.0
 10
99.18345538561503
 20
-140.9954852643518
 30
0.0
 10
99.23926482863564
 20
-140.9954852643518
 30
0.0
 10
99.29440399389561
 20
-140.9954852643518
 30
0.0
 10
99.33917149275348
 20
-140.9507177643632
 30
0.0
 10
99.33917149275348
 20
-140.8955785977102
 30
0.0
  0
SPLINE
  5
DE
330
79
100
AcDbEntity
  8
レイヤー 1
 62
   250
420
  2299925
370
     9
100
AcDbSpline
210
0.0
220
0.0
230
1.0
 70
     9
 71
     3
 72
    17
 73
    13
 74
     0
 42
0.0000000001
 43
0.0000000001
 40
0.0
 40
0.0
 40
0.0
 40
0.0
 40
1.0
 40
1.0
 40
1.0
 40
2.0
 40
2.0
 40
2.0
 40
3.0
 40
3.0
 40
3.0
 40
4.0
 40
4.0
 40
4.0
 40
4.0
 10
128.3510154748222
 20
-140.8955785977102
 30
0.0
 10
128.3510154748222
 20
-140.8401219310572
 30
0.0
 10
128.3062479759643
 20
-140.7953191532908
 30
0.0
 10
128.2511088107044
 20
-140.7953191532908
 30
0.0
 10
128.1960049232213
 20
-140.7953191532908
 30
0.0
 10
128.1512021465865
 20
-140.8401219310572
 30
0.0
 10
128.1512021465865
 20
-140.8955785977102
 30
0.0
 10
128.1512021465865
 20
-140.9507177643632
 30
0.0
 10
128.1960049232213
 20
-140.9954852643518
 30
0.0
 10
128.2511088107044
 20
-140.9954852643518
 30
0.0
 10
128.3062479759643
 20
-140.9954852643518
 30
0.0
 10
128.3510154748222
 20
-140.9507177643632
 30
0.0
 10
128.3510154748222
 20
-140.8955785977102
 30
0.0
  0
SPLINE
  5
DF
330
79
100
AcDbEntity
  8
レイヤー 1
 62
   250
420
  2299925
370
     9
100
AcDbSpline
210
0.0
220
0.0
230
1.0
 70
     9
 71
     3
 72
    17
 73
    13
 74
     0
 42
0.0000000001
 43
0.0000000001
 40
0.0
 40
0.0
 40
0.0
 40
0.0
 40
1.0
 40
1.0
 40
1.0
 40
2.0
 40
2.0
 40
2.0
 40
3.0
 40
3.0
 40
3.0
 40
4.0
 40
4.0
 40
4.0
 40
4.0
 10
107.2394885134221
 20
-140.8955785977102
 30
0.0
 10
107.2394885134221
 20
-140.8401219310572
 30
0.0
 10
107.1946857367874
 20
-140.7953191532908
 30
0.0
 10
107.1395818493043
 20
-140.7953191532908
 30
0.0
 10
107.0844426840443
 20
-140.7953191532908
 30
0.0
 10
107.0396751851865
 20
-140.8401219310572
 30
0.0
 10
107.0396751851865
 20
-140.8955785977102
 30
0.0
 10
107.0396751851865
 20
-140.9507177643632
 30
0.0
 10
107.0844426840443
 20
-140.9954852643518
 30
0.0
 10
107.1395818493043
 20
-140.9954852643518
 30
0.0
 10
107.1946857367874
 20
-140.9954852643518
 30
0.0
 10
107.2394885134221
 20
-140.9507177643632
 30
0.0
 10
107.2394885134221
 20
-140.8955785977102
 30
0.0
  0
LINE
  5
E0
330
79
100
AcDbEntity
  8
レイヤー 1
 62
   250
420
  2299925
370
     9
100
AcDbLine
 10
74.23769268870112
 20
-145.6574083187419
 30
0.0
 11
74.23769268870112
 21
-140.3998199867232
 31
0.0
  0
LINE
  5
E1
330
79
100
AcDbEntity
  8
レイヤー 1
 62
   250
420
  2299925
370
     9
100
AcDbLine
 10
74.23769268870112
 20
-145.6574083187419
 30
0.0
 11
74.23769268870112
 21
-146.157611929728
 31
0.0
  0
LINE
  5
E2
330
79
100
AcDbEntity
  8
レイヤー 1
 62
   250
420
  2299925
370
     9
100
AcDbLine
 10
75.69773404034124
 20
-145.6574083187419
 30
0.0
 11
73.23795576976208
 21
-145.6574083187419
 31
0.0
  0
LINE
  5
E3
330
79
100
AcDbEntity
  8
レイヤー 1
 62
   250
420
  2299925
370
     9
100
AcDbLine
 10
75.69773404034124
 20
-146.157611929728
 30
0.0
 11
73.23795576976208
 21
-146.157611929728
 31
0.0
  0
INSERT
  5
E5
330
79
100
AcDbEntity
  8
レイヤー 1
100
AcDbBlockReference
  2
Block_1
 10
0.0
 20
0.0
 30
0.0
  0
LINE
  5
F3
330
79
100
AcDbEntity
  8
レイヤー 1
 62
   250
420
  2299925
370
     9
100
AcDbLine
 10
78.23815730886298
 20
-140.8955785977102
 30
0.0
 11
99.23926482863564
 21
-140.8955785977102
 31
0.0
  0
LINE
  5
F4
330
79
100
AcDbEntity
  8
レイヤー 1
 62
   250
420
  2299925
370
     9
100
AcDbLine
 10
78.23815730886298
 20
-143.1176552638212
 30
0.0
 11
78.23815730886298
 21
-139.895488875738
 31
0.0
  0
INSERT
  5
F6
330
79
100
AcDbEntity
  8
レイヤー 1
100
AcDbBlockReference
  2
Block_3
 10
0.0
 20
0.0
 30
0.0
  0
LINE
  5
101
330
79
100
AcDbEntity
  8
レイヤー 1
 62
   250
420
  2299925
370
     9
100
AcDbLine
 10
74.23769268870112
 20
-146.157611929728
 30
0.0
 11
74.23769268870112
 21
-154.1574830388386
 31
0.0
  0
LINE
  5
102
330
79
100
AcDbEntity
  8
レイヤー 1
 62
   250
420
  2299925
370
     9
100
AcDbLine
 10
95.69910464117489
 20
-154.1574830388386
 30
0.0
 11
73.23795576976208
 21
-154.1574830388386
 31
0.0
  0
INSERT
  5
104
330
79
100
AcDbEntity
  8
レイヤー 1
100
AcDbBlockReference
  2
Block_5
 10
0.0
 20
0.0
 30
0.0
  0
LINE
  5
10B
330
79
100
AcDbEntity
  8
レイヤー 1
 62
   250
420
  2299925
370
     9
100
AcDbLine
 10
128.2511088107044
 20
-140.8955785977102
 30
0.0
 11
107.2498249020473
 21
-140.8955785977102
 31
0.0
  0
LINE
  5
10C
330
79
100
AcDbEntity
  8
レイヤー 1
 62
   250
420
  2299925
370
     9
100
AcDbLine
 10
128.2511088107044
 20
-143.1176552638212
 30
0.0
 11
128.2511088107044
 21
-139.895488875738
 31
0.0
  0
INSERT
  5
10E
330
79
100
AcDbEntity
  8
レイヤー 1
100
AcDbBlockReference
  2
Block_6
 10
0.0
 20
0.0
 30
0.0
  0
LINE
  5
119
330
79
100
AcDbEntity
  8
レイヤー 1
 62
   250
420
  2299925
370
     9
100
AcDbLine
 10
99.23926482863564
 20
-140.8955785977102
 30
0.0
 11
107.2394885134221
 21
-140.8955785977102
 31
0.0
  0
LINE
  5
11A
330
79
100
AcDbEntity
  8
レイヤー 1
 62
   250
420
  2299925
370
     9
100
AcDbLine
 10
99.23926482863564
 20
-142.3556199862339
 30
0.0
 11
99.23926482863564
 21
-139.895488875738
 31
0.0
  0
LINE
  5
11B
330
79
100
AcDbEntity
  8
レイヤー 1
 62
   250
420
  2299925
370
     9
100
AcDbLine
 10
107.1395818493043
 20
-142.3556199862339
 30
0.0
 11
107.1395818493043
 21
-139.895488875738
 31
0.0
  0
INSERT
  5
11D
330
79
100
AcDbEntity
  8
レイヤー 1
100
AcDbBlockReference
  2
Block_8
 10
0.0
 20
0.0
 30
0.0
  0
LINE
  5
124
330
79
100
AcDbEntity
  8
レイヤー 1
 62
   250
420
  2299925
370
     9
100
AcDbLine
 10
105.8628085485441
 20
-150.6555285952706
 30
0.0
 11
113.8630322333303
 21
-150.6555285952706
 31
0.0
  0
INSERT
  5
126
330
79
100
AcDbEntity
  8
レイヤー 1
100
AcDbBlockReference
  2
Block_9
 10
0.0
 20
0.0
 30
0.0
  0
SPLINE
  5
12B
330
79
100
AcDbEntity
  8
レイヤー 1
 62
   250
420
  2299925
370
     9
100
AcDbSpline
210
0.0
220
0.0
230
1.0
 70
     9
 71
     3
 72
    17
 73
    13
 74
     0
 42
0.0000000001
 43
0.0000000001
 40
0.0
 40
0.0
 40
0.0
 40
0.0
 40
1.0
 40
1.0
 40
1.0
 40
2.0
 40
2.0
 40
2.0
 40
3.0
 40
3.0
 40
3.0
 40
4.0
 40
4.0
 40
4.0
 40
4.0
 10
98.55233595727177
 20
-158.2709072044773
 30
0.0
 10
98.55233595727177
 20
-158.2158033156024
 30
0.0
 10
98.46897457050962
 20
-158.1710005378356
 30
0.0
 10
98.36628096201843
 20
-158.1710005378356
 30
0.0
 10
98.26499846460237
 20
-158.1710005378356
 30
0.0
 10
98.18163707784021
 20
-158.2158033156024
 30
0.0
 10
98.18163707784021
 20
-158.2709072044773
 30
0.0
 10
98.18163707784021
 20
-158.3260463711303
 30
0.0
 10
98.26499846460237
 20
-158.3708138711189
 30
0.0
 10
98.36628096201843
 20
-158.3708138711189
 30
0.0
 10
98.46897457050962
 20
-158.3708138711189
 30
0.0
 10
98.55233595727177
 20
-158.3260463711303
 30
0.0
 10
98.55233595727177
 20
-158.2709072044773
 30
0.0
  0
SPLINE
  5
12C
330
79
100
AcDbEntity
  8
レイヤー 1
 62
   250
420
  2299925
370
     9
100
AcDbSpline
210
0.0
220
0.0
230
1.0
 70
     9
 71
     3
 72
    17
 73
    13
 74
     0
 42
0.0000000001
 43
0.0000000001
 40
0.0
 40
0.0
 40
0.0
 40
0.0
 40
1.0
 40
1.0
 40
1.0
 40
2.0
 40
2.0
 40
2.0
 40
3.0
 40
3.0
 40
3.0
 40
4.0
 40
4.0
 40
4.0
 40
4.0
 10
108.5113934809731
 20
-158.2709072044773
 30
0.0
 10
108.5113934809731
 20
-158.2158033156024
 30
0.0
 10
108.428032094211
 20
-158.1710005378356
 30
0.0
 10
108.3267495967949
 20
-158.1710005378356
 30
0.0
 10
108.2227154327824
 20
-158.1710005378356
 30
0.0
 10
108.1407298793184
 20
-158.2158033156024
 30
0.0
 10
108.1407298793184
 20
-158.2709072044773
 30
0.0
 10
108.1407298793184
 20
-158.3260463711303
 30
0.0
 10
108.2227154327824
 20
-158.3708138711189
 30
0.0
 10
108.3267495967949
 20
-158.3708138711189
 30
0.0
 10
108.428032094211
 20
-158.3708138711189
 30
0.0
 10
108.5113934809731
 20
-158.3260463711303
 30
0.0
 10
108.5113934809731
 20
-158.2709072044773
 30
0.0
  0
LINE
  5
12D
330
79
100
AcDbEntity
  8
レイヤー 1
 62
   250
420
  2299925
370
     9
100
AcDbLine
 10
108.3667193179974
 20
-158.2709072044773
 30
0.0
 11
98.36628096201843
 21
-158.2709072044773
 31
0.0
  0
LINE
  5
12E
330
79
100
AcDbEntity
  8
レイヤー 1
 62
   250
420
  2299925
370
     9
100
AcDbLine
 10
108.3267495967949
 20
-156.8109010937317
 30
0.0
 11
108.3267495967949
 21
-159.271032204227
 31
0.0
  0
LINE
  5
12F
330
79
100
AcDbEntity
  8
レイヤー 1
 62
   250
420
  2299925
370
     9
100
AcDbLine
 10
98.36628096201843
 20
-156.8109010937317
 30
0.0
 11
98.36628096201843
 21
-159.271032204227
 31
0.0
  0
INSERT
  5
131
330
79
100
AcDbEntity
  8
レイヤー 1
100
AcDbBlockReference
  2
Block_10
 10
0.0
 20
0.0
 30
0.0
  0
LINE
  5
13D
330
79
100
AcDbEntity
  8
レイヤー 1
  6
AI-Linetype-0
 62
   154
420
    23468
370
    25
100
AcDbLine
 10
78.15200897772747
 20
-146.7643191517985
 30
0.0
 11
88.15191816705299
 21
-146.7643191517985
 31
0.0
  0
LINE
  5
13F
330
79
100
AcDbEntity
  8
レイヤー 1
  6
AI-Linetype-1
 62
   154
420
    23468
370
    25
100
AcDbLine
 10
117.794214731897
 20
-146.7643191517985
 30
0.0
 11
128.2941829762721
 21
-146.7643191517985
 31
0.0
  0
ENDBLK
  5
7C
330
79
100
AcDbEntity
  8
0
100
AcDbBlockEnd
  0
BLOCK
  5
E6
330
E4
100
AcDbEntity
  8
0
100
AcDbBlockBegin
  2
Block_1
 70
     0
 10
0.0
 20
0.0
 30
0.0
  3
Block_1
  1

  0
INSERT
  5
E9
330
E4
100
AcDbEntity
  8
レイヤー 1
100
AcDbBlockReference
  2
Block_2
 10
0.0
 20
0.0
 30
0.0
  0
ENDBLK
  5
E7
330
E4
100
AcDbEntity
  8
0
100
AcDbBlockEnd
  0
BLOCK
  5
EA
330
E8
100
AcDbEntity
  8
0
100
AcDbBlockBegin
  2
Block_2
 70
     0
 10
0.0
 20
0.0
 30
0.0
  3
Block_2
  1

  0
SPLINE
  5
EC
330
E8
100
AcDbEntity
  8
レイヤー 1
100
AcDbSpline
210
0.0
220
0.0
230
1.0
 70
     9
 71
     3
 72
    17
 73
    13
 74
     0
 42
0.0000000001
 43
0.0000000001
 40
0.0
 40
0.0
 40
0.0
 40
0.0
 40
1.0
 40
1.0
 40
1.0
 40
2.0
 40
2.0
 40
2.0
 40
3.0
 40
3.0
 40
3.0
 40
4.0
 40
4.0
 40
4.0
 40
4.0
 10
71.39340275992942
 20
-146.8125718491475
 30
0.0
 10
71.39340275992942
 20
-147.0623412718281
 30
0.0
 10
71.67676186359122
 20
-147.108850060879
 30
0.0
 10
72.02161592166473
 20
-147.108850060879
 30
0.0
 10
72.34114852792166
 20
-147.108850060879
 30
0.0
 10
72.6500013381743
 20
-147.0726765582839
 30
0.0
 10
72.6500013381743
 20
-146.8125718491475
 30
0.0
 10
72.6500013381743
 20
-146.5648694837581
 30
0.0
 10
72.3685370370294
 20
-146.5162936374161
 30
0.0
 10
72.02161592166473
 20
-146.5162936374161
 30
0.0
 10
71.70225557018207
 20
-146.5162936374161
 30
0.0
 10
71.39340275992942
 20
-146.5545341973023
 30
0.0
 10
71.39340275992942
 20
-146.8125718491475
 30
0.0
  0
SPLINE
  5
ED
330
E8
100
AcDbEntity
  8
レイヤー 1
100
AcDbSpline
210
0.0
220
0.0
230
1.0
 70
     9
 71
     3
 72
    29
 73
    25
 74
     0
 42
0.0000000001
 43
0.0000000001
 40
0.0
 40
0.0
 40
0.0
 40
0.0
 40
1.0
 40
1.0
 40
1.0
 40
2.0
 40
2.0
 40
2.0
 40
3.0
 40
3.0
 40
3.0
 40
4.0
 40
4.0
 40
4.0
 40
5.0
 40
5.0
 40
5.0
 40
6.0
 40
6.0
 40
6.0
 40
7.0
 40
7.0
 40
7.0
 40
8.0
 40
8.0
 40
8.0
 40
8.0
 10
72.6160671476446
 20
-146.4146633206012
 30
0.0
 10
72.82552895314778
 20
-146.522839318838
 30
0.0
 10
72.84464923309092
 20
-146.6961276217461
 30
0.0
 10
72.84464923309092
 20
-146.8125718491475
 30
0.0
 10
72.84464923309092
 20
-146.9734578083087
 30
0.0
 10
72.79814044404005
 20
-147.1150512327525
 30
0.0
 10
72.6160671476446
 20
-147.2101358681454
 30
0.0
 10
72.42159150750224
 20
-147.3138332422514
 30
0.0
 10
72.18456893811705
 20
-147.3331257769688
 30
0.0
 10
72.02161592166473
 20
-147.3331257769688
 30
0.0
 10
71.87778318515555
 20
-147.3331257769688
 30
0.0
 10
71.62611895995806
 20
-147.3159002995425
 30
0.0
 10
71.42716469568488
 20
-147.2101358681454
 30
0.0
 10
71.22407631682939
 20
-147.1023043794571
 30
0.0
 10
71.20082192230396
 20
-146.9414184202959
 30
0.0
 10
71.20082192230396
 20
-146.8125718491475
 30
0.0
 10
71.20082192230396
 20
-146.6537529472775
 30
0.0
 10
71.24526365406369
 20
-146.5100924655426
 30
0.0
 10
71.42716469568488
 20
-146.4146633206012
 30
0.0
 10
71.61974553331035
 20
-146.315444570626
 30
0.0
 10
71.84815536398241
 20
-146.2920179213263
 30
0.0
 10
72.02161592166473
 20
-146.2920179213263
 30
0.0
 10
72.19300942205592
 20
-146.2920179213263
 30
0.0
 10
72.4236585647934
 20
-146.3133775133348
 30
0.0
 10
72.6160671476446
 20
-146.4146633206012
 30
0.0
  0
HATCH
  5
EE
330
E8
100
AcDbEntity
  8
レイヤー 1
 62
   250
420
  2299925
440
 33554687
100
AcDbHatch
 10
0.0
 20
0.0
 30
0.0
210
0.0
220
0.0
230
1.0
  2
SOLID
 70
     1
 71
     1
 91
        2
 92
        1
 93
        1
 72
     4
 94
        3
 73
     0
 74
     0
 95
       17
 96
       13
 40
0.0
 40
0.0
 40
0.0
 40
0.0
 40
1.0
 40
1.0
 40
1.0
 40
2.0
 40
2.0
 40
2.0
 40
3.0
 40
3.0
 40
3.0
 40
4.0
 40
4.0
 40
4.0
 40
4.0
 10
71.39340275992942
 20
-146.8125718491475
 10
71.39340275992942
 20
-147.0623412718281
 10
71.67676186359122
 20
-147.108850060879
 10
72.02161592166473
 20
-147.108850060879
 10
72.34114852792166
 20
-147.108850060879
 10
72.6500013381743
 20
-147.0726765582839
 10
72.6500013381743
 20
-146.8125718491475
 10
72.6500013381743
 20
-146.5648694837581
 10
72.3685370370294
 20
-146.5162936374161
 10
72.02161592166473
 20
-146.5162936374161
 10
71.70225557018207
 20
-146.5162936374161
 10
71.39340275992942
 20
-146.5545341973023
 10
71.39340275992942
 20
-146.8125718491475
 97
        0
 97
        1
330
EC
 92
        1
 93
        1
 72
     4
 94
        3
 73
     0
 74
     0
 95
       29
 96
       25
 40
0.0
 40
0.0
 40
0.0
 40
0.0
 40
1.0
 40
1.0
 40
1.0
 40
2.0
 40
2.0
 40
2.0
 40
3.0
 40
3.0
 40
3.0
 40
4.0
 40
4.0
 40
4.0
 40
5.0
 40
5.0
 40
5.0
 40
6.0
 40
6.0
 40
6.0
 40
7.0
 40
7.0
 40
7.0
 40
8.0
 40
8.0
 40
8.0
 40
8.0
 10
72.6160671476446
 20
-146.4146633206012
 10
72.82552895314778
 20
-146.522839318838
 10
72.84464923309092
 20
-146.6961276217461
 10
72.84464923309092
 20
-146.8125718491475
 10
72.84464923309092
 20
-146.9734578083087
 10
72.79814044404005
 20
-147.1150512327525
 10
72.6160671476446
 20
-147.2101358681454
 10
72.42159150750224
 20
-147.3138332422514
 10
72.18456893811705
 20
-147.3331257769688
 10
72.02161592166473
 20
-147.3331257769688
 10
71.87778318515555
 20
-147.3331257769688
 10
71.62611895995806
 20
-147.3159002995425
 10
71.42716469568488
 20
-147.2101358681454
 10
71.22407631682939
 20
-147.1023043794571
 10
71.20082192230396
 20
-146.9414184202959
 10
71.20082192230396
 20
-146.8125718491475
 10
71.20082192230396
 20
-146.6537529472775
 10
71.24526365406369
 20
-146.5100924655426
 10
71.42716469568488
 20
-146.4146633206012
 10
71.61974553331035
 20
-146.315444570626
 10
71.84815536398241
 20
-146.2920179213263
 10
72.02161592166473
 20
-146.2920179213263
 10
72.19300942205592
 20
-146.2920179213263
 10
72.4236585647934
 20
-146.3133775133348
 10
72.6160671476446
 20
-146.4146633206012
 97
        0
 97
        1
330
ED
 75
     2
 76
     1
 98
        1
 10
0.0
 20
0.0
450
        0
451
        0
460
0.0
461
0.0
452
        0
462
0.0
453
        0
470

  0
SPLINE
  5
EF
330
E8
100
AcDbEntity
  8
レイヤー 1
100
AcDbSpline
210
0.0
220
0.0
230
1.0
 70
    11
 71
     3
 72
    17
 73
    13
 74
     0
 42
0.0000000001
 43
0.0000000001
 40
0.0
 40
0.0
 40
0.0
 40
0.0
 40
1.0
 40
1.0
 40
1.0
 40
2.0
 40
2.0
 40
2.0
 40
3.0
 40
3.0
 40
3.0
 40
4.0
 40
4.0
 40
4.0
 40
4.0
 10
72.79383407468348
 20
-146.0756659248526
 30
0.0
 10
72.79383407468348
 20
-146.0756659248526
 30
0.0
 10
72.54216984948598
 20
-146.0756659248526
 30
0.0
 10
72.54216984948598
 20
-146.0756659248526
 30
0.0
 10
72.54216984948598
 20
-146.0756659248526
 30
0.0
 10
72.54216984948598
 20
-145.8238294448808
 30
0.0
 10
72.54216984948598
 20
-145.8238294448808
 30
0.0
 10
72.54216984948598
 20
-145.8238294448808
 30
0.0
 10
72.79383407468348
 20
-145.8238294448808
 30
0.0
 10
72.79383407468348
 20
-145.8238294448808
 30
0.0
 10
72.79383407468348
 20
-145.8238294448808
 30
0.0
 10
72.79383407468348
 20
-146.0756659248526
 30
0.0
 10
72.79383407468348
 20
-146.0756659248526
 30
0.0
  0
HATCH
  5
F0
330
E8
100
AcDbEntity
  8
レイヤー 1
 62
   250
420
  2299925
440
 33554687
100
AcDbHatch
 10
0.0
 20
0.0
 30
0.0
210
0.0
220
0.0
230
1.0
  2
SOLID
 70
     1
 71
     1
 91
        1
 92
        1
 93
        1
 72
     4
 94
        3
 73
     0
 74
     0
 95
       17
 96
       13
 40
0.0
 40
0.0
 40
0.0
 40
0.0
 40
1.0
 40
1.0
 40
1.0
 40
2.0
 40
2.0
 40
2.0
 40
3.0
 40
3.0
 40
3.0
 40
4.0
 40
4.0
 40
4.0
 40
4.0
 10
72.79383407468348
 20
-146.0756659248526
 10
72.79383407468348
 20
-146.0756659248526
 10
72.54216984948598
 20
-146.0756659248526
 10
72.54216984948598
 20
-146.0756659248526
 10
72.54216984948598
 20
-146.0756659248526
 10
72.54216984948598
 20
-145.8238294448808
 10
72.54216984948598
 20
-145.8238294448808
 10
72.54216984948598
 20
-145.8238294448808
 10
72.79383407468348
 20
-145.8238294448808
 10
72.79383407468348
 20
-145.8238294448808
 10
72.79383407468348
 20
-145.8238294448808
 10
72.79383407468348
 20
-146.0756659248526
 10
72.79383407468348
 20
-146.0756659248526
 97
        0
 97
        1
330
EF
 75
     2
 76
     1
 98
        1
 10
0.0
 20
0.0
450
        0
451
        0
460
0.0
461
0.0
452
        0
462
0.0
453
        0
470

  0
SPLINE
  5
F1
330
E8
100
AcDbEntity
  8
レイヤー 1
100
AcDbSpline
210
0.0
220
0.0
230
1.0
 70
     9
 71
     3
 72
    53
 73
    49
 74
     0
 42
0.0000000001
 43
0.0000000001
 40
0.0
 40
0.0
 40
0.0
 40
0.0
 40
1.0
 40
1.0
 40
1.0
 40
2.0
 40
2.0
 40
2.0
 40
3.0
 40
3.0
 40
3.0
 40
4.0
 40
4.0
 40
4.0
 40
5.0
 40
5.0
 40
5.0
 40
6.0
 40
6.0
 40
6.0
 40
7.0
 40
7.0
 40
7.0
 40
8.0
 40
8.0
 40
8.0
 40
9.0
 40
9.0
 40
9.0
 40
10.0
 40
10.0
 40
10.0
 40
11.0
 40
11.0
 40
11.0
 40
12.0
 40
12.0
 40
12.0
 40
13.0
 40
13.0
 40
13.0
 40
14.0
 40
14.0
 40
14.0
 40
15.0
 40
15.0
 40
15.0
 40
16.0
 40
16.0
 40
16.0
 40
16.0
 10
72.84464923309092
 20
-145.1065605648518
 30
0.0
 10
72.84464923309092
 20
-145.184764232367
 30
0.0
 10
72.82776826521319
 20
-145.2863945491819
 30
0.0
 10
72.76420625351033
 20
-145.3880248659967
 30
0.0
 10
72.6541354527566
 20
-145.5613131689048
 30
0.0
 10
72.52304956954285
 20
-145.5826727609133
 30
0.0
 10
72.41521808085453
 20
-145.6016207860822
 30
0.0
 10
72.41521808085453
 20
-145.6016207860822
 30
0.0
 10
72.41521808085453
 20
-145.3794121272836
 30
0.0
 10
72.41521808085453
 20
-145.3794121272836
 30
0.0
 10
72.61400009035344
 20
-145.3246351090681
 30
0.0
 10
72.6436279115266
 20
-145.1975110856624
 30
0.0
 10
72.6436279115266
 20
-145.1044935075606
 30
0.0
 10
72.6436279115266
 20
-144.964967140408
 30
0.0
 10
72.54423690677715
 20
-144.81269391996
 30
0.0
 10
72.31152070674851
 20
-144.81269391996
 30
0.0
 10
72.05555011219445
 20
-144.81269391996
 30
0.0
 10
71.98578692861814
 20
-144.99252790429
 30
0.0
 10
71.98578692861814
 20
-145.1131062462738
 30
0.0
 10
71.98578692861814
 20
-145.1448011247381
 30
0.0
 10
71.98578692861814
 20
-145.2863945491819
 30
0.0
 10
72.11480575454074
 20
-145.3752780127013
 30
0.0
 10
72.11480575454074
 20
-145.3752780127013
 30
0.0
 10
72.09568547459761
 20
-145.5509778824491
 30
0.0
 10
72.09568547459761
 20
-145.5509778824491
 30
0.0
 10
72.09568547459761
 20
-145.5509778824491
 30
0.0
 10
71.24957002342025
 20
-145.4303995404653
 30
0.0
 10
71.24957002342025
 20
-145.4303995404653
 30
0.0
 10
71.24957002342025
 20
-145.4303995404653
 30
0.0
 10
71.24957002342025
 20
-144.6518079607988
 30
0.0
 10
71.24957002342025
 20
-144.6518079607988
 30
0.0
 10
71.24957002342025
 20
-144.6518079607988
 30
0.0
 10
71.44421791833686
 20
-144.6518079607988
 30
0.0
 10
71.44421791833686
 20
-144.6518079607988
 30
0.0
 10
71.44421791833686
 20
-144.6518079607988
 30
0.0
 10
71.44421791833686
 20
-145.267446524013
 30
0.0
 10
71.44421791833686
 20
-145.267446524013
 30
0.0
 10
71.44421791833686
 20
-145.267446524013
 30
0.0
 10
71.86727564392555
 20
-145.3329033382327
 30
0.0
 10
71.86727564392555
 20
-145.3329033382327
 30
0.0
 10
71.83334145339583
 20
-145.2715806385953
 30
0.0
 10
71.79320609099267
 20
-145.1892428564978
 30
0.0
 10
71.79320609099267
 20
-145.0707315718052
 30
0.0
 10
71.79320609099267
 20
-144.8168280345423
 30
0.0
 10
71.97941350197043
 20
-144.5798054651571
 30
0.0
 10
72.29240042680537
 20
-144.5798054651571
 30
0.0
 10
72.60986597577114
 20
-144.5798054651571
 30
0.0
 10
72.84464923309092
 20
-144.8040811812469
 30
0.0
 10
72.84464923309092
 20
-145.1065605648518
 30
0.0
  0
HATCH
  5
F2
330
E8
100
AcDbEntity
  8
レイヤー 1
 62
   250
420
  2299925
440
 33554687
100
AcDbHatch
 10
0.0
 20
0.0
 30
0.0
210
0.0
220
0.0
230
1.0
  2
SOLID
 70
     1
 71
     1
 91
        1
 92
        1
 93
        1
 72
     4
 94
        3
 73
     0
 74
     0
 95
       53
 96
       49
 40
0.0
 40
0.0
 40
0.0
 40
0.0
 40
1.0
 40
1.0
 40
1.0
 40
2.0
 40
2.0
 40
2.0
 40
3.0
 40
3.0
 40
3.0
 40
4.0
 40
4.0
 40
4.0
 40
5.0
 40
5.0
 40
5.0
 40
6.0
 40
6.0
 40
6.0
 40
7.0
 40
7.0
 40
7.0
 40
8.0
 40
8.0
 40
8.0
 40
9.0
 40
9.0
 40
9.0
 40
10.0
 40
10.0
 40
10.0
 40
11.0
 40
11.0
 40
11.0
 40
12.0
 40
12.0
 40
12.0
 40
13.0
 40
13.0
 40
13.0
 40
14.0
 40
14.0
 40
14.0
 40
15.0
 40
15.0
 40
15.0
 40
16.0
 40
16.0
 40
16.0
 40
16.0
 10
72.84464923309092
 20
-145.1065605648518
 10
72.84464923309092
 20
-145.184764232367
 10
72.82776826521319
 20
-145.2863945491819
 10
72.76420625351033
 20
-145.3880248659967
 10
72.6541354527566
 20
-145.5613131689048
 10
72.52304956954285
 20
-145.5826727609133
 10
72.41521808085453
 20
-145.6016207860822
 10
72.41521808085453
 20
-145.6016207860822
 10
72.41521808085453
 20
-145.3794121272836
 10
72.41521808085453
 20
-145.3794121272836
 10
72.61400009035344
 20
-145.3246351090681
 10
72.6436279115266
 20
-145.1975110856624
 10
72.6436279115266
 20
-145.1044935075606
 10
72.6436279115266
 20
-144.964967140408
 10
72.54423690677715
 20
-144.81269391996
 10
72.31152070674851
 20
-144.81269391996
 10
72.05555011219445
 20
-144.81269391996
 10
71.98578692861814
 20
-144.99252790429
 10
71.98578692861814
 20
-145.1131062462738
 10
71.98578692861814
 20
-145.1448011247381
 10
71.98578692861814
 20
-145.2863945491819
 10
72.11480575454074
 20
-145.3752780127013
 10
72.11480575454074
 20
-145.3752780127013
 10
72.09568547459761
 20
-145.5509778824491
 10
72.09568547459761
 20
-145.5509778824491
 10
72.09568547459761
 20
-145.5509778824491
 10
71.24957002342025
 20
-145.4303995404653
 10
71.24957002342025
 20
-145.4303995404653
 10
71.24957002342025
 20
-145.4303995404653
 10
71.24957002342025
 20
-144.6518079607988
 10
71.24957002342025
 20
-144.6518079607988
 10
71.24957002342025
 20
-144.6518079607988
 10
71.44421791833686
 20
-144.6518079607988
 10
71.44421791833686
 20
-144.6518079607988
 10
71.44421791833686
 20
-144.6518079607988
 10
71.44421791833686
 20
-145.267446524013
 10
71.44421791833686
 20
-145.267446524013
 10
71.44421791833686
 20
-145.267446524013
 10
71.86727564392555
 20
-145.3329033382327
 10
71.86727564392555
 20
-145.3329033382327
 10
71.83334145339583
 20
-145.2715806385953
 10
71.79320609099267
 20
-145.1892428564978
 10
71.79320609099267
 20
-145.0707315718052
 10
71.79320609099267
 20
-144.8168280345423
 10
71.97941350197043
 20
-144.5798054651571
 10
72.29240042680537
 20
-144.5798054651571
 10
72.60986597577114
 20
-144.5798054651571
 10
72.84464923309092
 20
-144.8040811812469
 10
72.84464923309092
 20
-145.1065605648518
 97
        0
 97
        1
330
F1
 75
     2
 76
     1
 98
        1
 10
0.0
 20
0.0
450
        0
451
        0
460
0.0
461
0.0
452
        0
462
0.0
453
        0
470

  0
ENDBLK
  5
EB
330
E8
100
AcDbEntity
  8
0
100
AcDbBlockEnd
  0
BLOCK
  5
F7
330
F5
100
AcDbEntity
  8
0
100
AcDbBlockBegin
  2
Block_3
 70
     0
 10
0.0
 20
0.0
 30
0.0
  3
Block_3
  1

  0
INSERT
  5
FA
330
F5
100
AcDbEntity
  8
レイヤー 1
100
AcDbBlockReference
  2
Block_4
 10
0.0
 20
0.0
 30
0.0
  0
ENDBLK
  5
F8
330
F5
100
AcDbEntity
  8
0
100
AcDbBlockEnd
  0
BLOCK
  5
FB
330
F9
100
AcDbEntity
  8
0
100
AcDbBlockBegin
  2
Block_4
 70
     0
 10
0.0
 20
0.0
 30
0.0
  3
Block_4
  1

  0
SPLINE
  5
FD
330
F9
100
AcDbEntity
  8
レイヤー 1
100
AcDbSpline
210
0.0
220
0.0
230
1.0
 70
     9
 71
     3
 72
    44
 73
    40
 74
     0
 42
0.0000000001
 43
0.0000000001
 40
0.0
 40
0.0
 40
0.0
 40
0.0
 40
1.0
 40
1.0
 40
1.0
 40
2.0
 40
2.0
 40
2.0
 40
3.0
 40
3.0
 40
3.0
 40
4.0
 40
4.0
 40
4.0
 40
5.0
 40
5.0
 40
5.0
 40
6.0
 40
6.0
 40
6.0
 40
7.0
 40
7.0
 40
7.0
 40
8.0
 40
8.0
 40
8.0
 40
9.0
 40
9.0
 40
9.0
 40
10.0
 40
10.0
 40
10.0
 40
11.0
 40
11.0
 40
11.0
 40
12.0
 40
12.0
 40
12.0
 40
13.0
 40
13.0
 40
13.0
 40
13.0
 10
88.1670559132881
 20
-139.600264450777
 30
0.0
 10
87.94915362384605
 20
-139.7589110978728
 30
0.0
 10
87.85596379097004
 20
-139.8329806508056
 30
0.0
 10
87.80738794462802
 20
-139.9768133873148
 30
0.0
 10
87.80738794462802
 20
-139.9768133873148
 30
0.0
 10
88.58580726952022
 20
-139.9768133873148
 30
0.0
 10
88.58580726952022
 20
-139.9768133873148
 30
0.0
 10
88.58580726952022
 20
-139.9768133873148
 30
0.0
 10
88.58580726952022
 20
-140.1819688234614
 30
0.0
 10
88.58580726952022
 20
-140.1819688234614
 30
0.0
 10
88.58580726952022
 20
-140.1819688234614
 30
0.0
 10
87.55779077672167
 20
-140.1819688234614
 30
0.0
 10
87.55779077672167
 20
-140.1819688234614
 30
0.0
 10
87.58948565518597
 20
-139.8243679120925
 30
0.0
 10
87.65511472417998
 20
-139.7461642445773
 30
0.0
 10
88.04010414465663
 20
-139.4478189755547
 30
0.0
 10
88.2960747392107
 20
-139.2490369660558
 30
0.0
 10
88.36153155343046
 20
-139.1813408397706
 30
0.0
 10
88.36153155343046
 20
-139.0438815299092
 30
0.0
 10
88.36153155343046
 20
-138.9253702452166
 30
0.0
 10
88.289701312563
 20
-138.7941121072285
 30
0.0
 10
88.09298636035522
 20
-138.7941121072285
 30
0.0
 10
87.83270939644459
 20
-138.7941121072285
 30
0.0
 10
87.82426891250574
 20
-139.024761249966
 30
0.0
 10
87.81996254314917
 20
-139.1412054773675
 30
0.0
 10
87.81996254314917
 20
-139.1412054773675
 30
0.0
 10
87.59585908183368
 20
-139.1412054773675
 30
0.0
 10
87.59585908183368
 20
-139.1412054773675
 30
0.0
 10
87.60429956577253
 20
-139.014253708736
 30
0.0
 10
87.61480710700254
 20
-138.9021158506911
 30
0.0
 10
87.69525008658312
 20
-138.7836045659985
 30
0.0
 10
87.80514863256261
 20
-138.6228908616116
 30
0.0
 10
87.99135604354036
 20
-138.5889566710819
 30
0.0
 10
88.1078002709418
 20
-138.5889566710819
 30
0.0
 10
88.38495820273015
 20
-138.5889566710819
 30
0.0
 10
88.59218069616792
 20
-138.7730970247685
 30
0.0
 10
88.59218069616792
 20
-139.0459485872003
 30
0.0
 10
88.59218069616792
 20
-139.2743584178724
 30
0.0
 10
88.47590872354075
 20
-139.3739216773961
 30
0.0
 10
88.1670559132881
 20
-139.600264450777
 30
0.0
  0
HATCH
  5
FE
330
F9
100
AcDbEntity
  8
レイヤー 1
 62
   250
420
  2299925
440
 33554687
100
AcDbHatch
 10
0.0
 20
0.0
 30
0.0
210
0.0
220
0.0
230
1.0
  2
SOLID
 70
     1
 71
     1
 91
        1
 92
        1
 93
        1
 72
     4
 94
        3
 73
     0
 74
     0
 95
       44
 96
       40
 40
0.0
 40
0.0
 40
0.0
 40
0.0
 40
1.0
 40
1.0
 40
1.0
 40
2.0
 40
2.0
 40
2.0
 40
3.0
 40
3.0
 40
3.0
 40
4.0
 40
4.0
 40
4.0
 40
5.0
 40
5.0
 40
5.0
 40
6.0
 40
6.0
 40
6.0
 40
7.0
 40
7.0
 40
7.0
 40
8.0
 40
8.0
 40
8.0
 40
9.0
 40
9.0
 40
9.0
 40
10.0
 40
10.0
 40
10.0
 40
11.0
 40
11.0
 40
11.0
 40
12.0
 40
12.0
 40
12.0
 40
13.0
 40
13.0
 40
13.0
 40
13.0
 10
88.1670559132881
 20
-139.600264450777
 10
87.94915362384605
 20
-139.7589110978728
 10
87.85596379097004
 20
-139.8329806508056
 10
87.80738794462802
 20
-139.9768133873148
 10
87.80738794462802
 20
-139.9768133873148
 10
88.58580726952022
 20
-139.9768133873148
 10
88.58580726952022
 20
-139.9768133873148
 10
88.58580726952022
 20
-139.9768133873148
 10
88.58580726952022
 20
-140.1819688234614
 10
88.58580726952022
 20
-140.1819688234614
 10
88.58580726952022
 20
-140.1819688234614
 10
87.55779077672167
 20
-140.1819688234614
 10
87.55779077672167
 20
-140.1819688234614
 10
87.58948565518597
 20
-139.8243679120925
 10
87.65511472417998
 20
-139.7461642445773
 10
88.04010414465663
 20
-139.4478189755547
 10
88.2960747392107
 20
-139.2490369660558
 10
88.36153155343046
 20
-139.1813408397706
 10
88.36153155343046
 20
-139.0438815299092
 10
88.36153155343046
 20
-138.9253702452166
 10
88.289701312563
 20
-138.7941121072285
 10
88.09298636035522
 20
-138.7941121072285
 10
87.83270939644459
 20
-138.7941121072285
 10
87.82426891250574
 20
-139.024761249966
 10
87.81996254314917
 20
-139.1412054773675
 10
87.81996254314917
 20
-139.1412054773675
 10
87.59585908183368
 20
-139.1412054773675
 10
87.59585908183368
 20
-139.1412054773675
 10
87.60429956577253
 20
-139.014253708736
 10
87.61480710700254
 20
-138.9021158506911
 10
87.69525008658312
 20
-138.7836045659985
 10
87.80514863256261
 20
-138.6228908616116
 10
87.99135604354036
 20
-138.5889566710819
 10
88.1078002709418
 20
-138.5889566710819
 10
88.38495820273015
 20
-138.5889566710819
 10
88.59218069616792
 20
-138.7730970247685
 10
88.59218069616792
 20
-139.0459485872003
 10
88.59218069616792
 20
-139.2743584178724
 10
88.47590872354075
 20
-139.3739216773961
 10
88.1670559132881
 20
-139.600264450777
 97
        0
 97
        1
330
FD
 75
     2
 76
     1
 98
        1
 10
0.0
 20
0.0
450
        0
451
        0
460
0.0
461
0.0
452
        0
462
0.0
453
        0
470

  0
SPLINE
  5
FF
330
F9
100
AcDbEntity
  8
レイヤー 1
100
AcDbSpline
210
0.0
220
0.0
230
1.0
 70
    11
 71
     3
 72
    26
 73
    22
 74
     0
 42
0.0000000001
 43
0.0000000001
 40
0.0
 40
0.0
 40
0.0
 40
0.0
 40
1.0
 40
1.0
 40
1.0
 40
2.0
 40
2.0
 40
2.0
 40
3.0
 40
3.0
 40
3.0
 40
4.0
 40
4.0
 40
4.0
 40
5.0
 40
5.0
 40
5.0
 40
6.0
 40
6.0
 40
6.0
 40
7.0
 40
7.0
 40
7.0
 40
7.0
 10
89.20213485183142
 20
-140.1819688234614
 30
0.0
 10
89.20213485183142
 20
-140.1819688234614
 30
0.0
 10
89.20213485183142
 20
-139.0776434656646
 30
0.0
 10
89.20213485183142
 20
-139.0776434656646
 30
0.0
 10
89.20213485183142
 20
-139.0776434656646
 30
0.0
 10
88.87209470434447
 20
-139.0776434656646
 30
0.0
 10
88.87209470434447
 20
-139.0776434656646
 30
0.0
 10
88.87209470434447
 20
-139.0776434656646
 30
0.0
 10
88.87209470434447
 20
-138.9295043597988
 30
0.0
 10
88.87209470434447
 20
-138.9295043597988
 30
0.0
 10
89.20420190912256
 20
-138.9148627039865
 30
0.0
 10
89.25071069817343
 20
-138.7519096875342
 30
0.0
 10
89.28033851934658
 20
-138.6377047721982
 30
0.0
 10
89.28033851934658
 20
-138.6377047721982
 30
0.0
 10
89.42641056792117
 20
-138.6377047721982
 30
0.0
 10
89.42641056792117
 20
-138.6377047721982
 30
0.0
 10
89.42641056792117
 20
-138.6377047721982
 30
0.0
 10
89.42641056792117
 20
-140.1819688234614
 30
0.0
 10
89.42641056792117
 20
-140.1819688234614
 30
0.0
 10
89.42641056792117
 20
-140.1819688234614
 30
0.0
 10
89.20213485183142
 20
-140.1819688234614
 30
0.0
 10
89.20213485183142
 20
-140.1819688234614
 30
0.0
  0
HATCH
  5
100
330
F9
100
AcDbEntity
  8
レイヤー 1
 62
   250
420
  2299925
440
 33554687
100
AcDbHatch
 10
0.0
 20
0.0
 30
0.0
210
0.0
220
0.0
230
1.0
  2
SOLID
 70
     1
 71
     1
 91
        1
 92
        1
 93
        1
 72
     4
 94
        3
 73
     0
 74
     0
 95
       26
 96
       22
 40
0.0
 40
0.0
 40
0.0
 40
0.0
 40
1.0
 40
1.0
 40
1.0
 40
2.0
 40
2.0
 40
2.0
 40
3.0
 40
3.0
 40
3.0
 40
4.0
 40
4.0
 40
4.0
 40
5.0
 40
5.0
 40
5.0
 40
6.0
 40
6.0
 40
6.0
 40
7.0
 40
7.0
 40
7.0
 40
7.0
 10
89.20213485183142
 20
-140.1819688234614
 10
89.20213485183142
 20
-140.1819688234614
 10
89.20213485183142
 20
-139.0776434656646
 10
89.20213485183142
 20
-139.0776434656646
 10
89.20213485183142
 20
-139.0776434656646
 10
88.87209470434447
 20
-139.0776434656646
 10
88.87209470434447
 20
-139.0776434656646
 10
88.87209470434447
 20
-139.0776434656646
 10
88.87209470434447
 20
-138.9295043597988
 10
88.87209470434447
 20
-138.9295043597988
 10
89.20420190912256
 20
-138.9148627039865
 10
89.25071069817343
 20
-138.7519096875342
 10
89.28033851934658
 20
-138.6377047721982
 10
89.28033851934658
 20
-138.6377047721982
 10
89.42641056792117
 20
-138.6377047721982
 10
89.42641056792117
 20
-138.6377047721982
 10
89.42641056792117
 20
-138.6377047721982
 10
89.42641056792117
 20
-140.1819688234614
 10
89.42641056792117
 20
-140.1819688234614
 10
89.42641056792117
 20
-140.1819688234614
 10
89.20213485183142
 20
-140.1819688234614
 10
89.20213485183142
 20
-140.1819688234614
 97
        0
 97
        1
330
FF
 75
     2
 76
     1
 98
        1
 10
0.0
 20
0.0
450
        0
451
        0
460
0.0
461
0.0
452
        0
462
0.0
453
        0
470

  0
ENDBLK
  5
FC
330
F9
100
AcDbEntity
  8
0
100
AcDbBlockEnd
  0
BLOCK
  5
105
330
103
100
AcDbEntity
  8
0
100
AcDbBlockBegin
  2
Block_5
 70
     0
 10
0.0
 20
0.0
 30
0.0
  3
Block_5
  1

  0
SPLINE
  5
107
330
103
100
AcDbEntity
  8
レイヤー 1
100
AcDbSpline
210
0.0
220
0.0
230
1.0
 70
     9
 71
     3
 72
    17
 73
    13
 74
     0
 42
0.0000000001
 43
0.0000000001
 40
0.0
 40
0.0
 40
0.0
 40
0.0
 40
1.0
 40
1.0
 40
1.0
 40
2.0
 40
2.0
 40
2.0
 40
3.0
 40
3.0
 40
3.0
 40
4.0
 40
4.0
 40
4.0
 40
4.0
 10
72.78418780732478
 20
-150.1551757437112
 30
0.0
 10
72.78418780732478
 20
-150.2988362254461
 30
0.0
 10
72.87083195877882
 20
-150.4514539554427
 30
0.0
 10
73.07392033763431
 20
-150.4514539554427
 30
0.0
 10
73.27907577378093
 20
-150.4514539554427
 30
0.0
 10
73.38070609059579
 20
-150.324329932037
 30
0.0
 10
73.38070609059579
 20
-150.1551757437112
 30
0.0
 10
73.38070609059579
 20
-149.9691405875077
 30
0.0
 10
73.25806069132091
 20
-149.8588975319797
 30
0.0
 10
73.08029376428201
 20
-149.8588975319797
 30
0.0
 10
72.85808510548339
 20
-149.8588975319797
 30
0.0
 10
72.78418780732478
 20
-150.021850548432
 30
0.0
 10
72.78418780732478
 20
-150.1551757437112
 30
0.0
  0
SPLINE
  5
108
330
103
100
AcDbEntity
  8
レイヤー 1
100
AcDbSpline
210
0.0
220
0.0
230
1.0
 70
     9
 71
     3
 72
    17
 73
    13
 74
     0
 42
0.0000000001
 43
0.0000000001
 40
0.0
 40
0.0
 40
0.0
 40
0.0
 40
1.0
 40
1.0
 40
1.0
 40
2.0
 40
2.0
 40
2.0
 40
3.0
 40
3.0
 40
3.0
 40
4.0
 40
4.0
 40
4.0
 40
4.0
 10
72.12410751235092
 20
-150.1551757437112
 30
0.0
 10
72.12410751235092
 20
-150.3201958174547
 30
0.0
 10
72.21919214774381
 20
-150.4046006568433
 30
0.0
 10
72.35458440031414
 20
-150.4046006568433
 30
0.0
 10
72.47740205436329
 20
-150.4046006568433
 30
0.0
 10
72.59591333905588
 20
-150.3329426707501
 30
0.0
 10
72.59591333905588
 20
-150.1551757437112
 30
0.0
 10
72.59591333905588
 20
-149.9774088166723
 30
0.0
 10
72.47740205436329
 20
-149.9054063210306
 30
0.0
 10
72.35458440031414
 20
-149.9054063210306
 30
0.0
 10
72.21919214774381
 20
-149.9054063210306
 30
0.0
 10
72.12410751235092
 20
-149.9922227272589
 30
0.0
 10
72.12410751235092
 20
-150.1551757437112
 30
0.0
  0
SPLINE
  5
109
330
103
100
AcDbEntity
  8
レイヤー 1
100
AcDbSpline
210
0.0
220
0.0
230
1.0
 70
     9
 71
     3
 72
    29
 73
    25
 74
     0
 42
0.0000000001
 43
0.0000000001
 40
0.0
 40
0.0
 40
0.0
 40
0.0
 40
1.0
 40
1.0
 40
1.0
 40
2.0
 40
2.0
 40
2.0
 40
3.0
 40
3.0
 40
3.0
 40
4.0
 40
4.0
 40
4.0
 40
5.0
 40
5.0
 40
5.0
 40
6.0
 40
6.0
 40
6.0
 40
7.0
 40
7.0
 40
7.0
 40
8.0
 40
8.0
 40
8.0
 40
8.0
 10
73.57535398551242
 20
-150.1551757437112
 30
0.0
 10
73.57535398551242
 20
-150.4218261342695
 30
0.0
 10
73.43772242087668
 20
-150.6753851619839
 30
0.0
 10
73.08873424822087
 20
-150.6753851619839
 30
0.0
 10
72.83276365366681
 20
-150.6753851619839
 30
0.0
 10
72.73750676349965
 20
-150.5337917375401
 30
0.0
 10
72.67618406386221
 20
-150.428027306143
 30
0.0
 10
72.61692842151591
 20
-150.552739762709
 30
0.0
 10
72.50272350617987
 20
-150.628876372933
 30
0.0
 10
72.34200980179297
 20
-150.628876372933
 30
0.0
 10
72.06691892729577
 20
-150.628876372933
 30
0.0
 10
71.93152667472546
 20
-150.4300943634341
 30
0.0
 10
71.93152667472546
 20
-150.1551757437112
 30
0.0
 10
71.93152667472546
 20
-149.8716443852751
 30
0.0
 10
72.07535941123463
 20
-149.6811306049408
 30
0.0
 10
72.34200980179297
 20
-149.6811306049408
 30
0.0
 10
72.50272350617987
 20
-149.6811306049408
 30
0.0
 10
72.61692842151591
 20
-149.7596787820045
 30
0.0
 10
72.67618406386221
 20
-149.8843912385706
 30
0.0
 10
72.72699922226964
 20
-149.7955077750511
 30
0.0
 10
72.8222561124368
 20
-149.6366888731811
 30
0.0
 10
73.08460013363857
 20
-149.6366888731811
 30
0.0
 10
73.45890975811098
 20
-149.6366888731811
 30
0.0
 10
73.57535398551242
 20
-149.9160861170348
 30
0.0
 10
73.57535398551242
 20
-150.1551757437112
 30
0.0
  0
HATCH
  5
10A
330
103
100
AcDbEntity
  8
レイヤー 1
 62
   250
420
  2299925
440
 33554687
100
AcDbHatch
 10
0.0
 20
0.0
 30
0.0
210
0.0
220
0.0
230
1.0
  2
SOLID
 70
     1
 71
     1
 91
        3
 92
        1
 93
        1
 72
     4
 94
        3
 73
     0
 74
     0
 95
       17
 96
       13
 40
0.0
 40
0.0
 40
0.0
 40
0.0
 40
1.0
 40
1.0
 40
1.0
 40
2.0
 40
2.0
 40
2.0
 40
3.0
 40
3.0
 40
3.0
 40
4.0
 40
4.0
 40
4.0
 40
4.0
 10
72.78418780732478
 20
-150.1551757437112
 10
72.78418780732478
 20
-150.2988362254461
 10
72.87083195877882
 20
-150.4514539554427
 10
73.07392033763431
 20
-150.4514539554427
 10
73.27907577378093
 20
-150.4514539554427
 10
73.38070609059579
 20
-150.324329932037
 10
73.38070609059579
 20
-150.1551757437112
 10
73.38070609059579
 20
-149.9691405875077
 10
73.25806069132091
 20
-149.8588975319797
 10
73.08029376428201
 20
-149.8588975319797
 10
72.85808510548339
 20
-149.8588975319797
 10
72.78418780732478
 20
-150.021850548432
 10
72.78418780732478
 20
-150.1551757437112
 97
        0
 97
        1
330
107
 92
        1
 93
        1
 72
     4
 94
        3
 73
     0
 74
     0
 95
       17
 96
       13
 40
0.0
 40
0.0
 40
0.0
 40
0.0
 40
1.0
 40
1.0
 40
1.0
 40
2.0
 40
2.0
 40
2.0
 40
3.0
 40
3.0
 40
3.0
 40
4.0
 40
4.0
 40
4.0
 40
4.0
 10
72.12410751235092
 20
-150.1551757437112
 10
72.12410751235092
 20
-150.3201958174547
 10
72.21919214774381
 20
-150.4046006568433
 10
72.35458440031414
 20
-150.4046006568433
 10
72.47740205436329
 20
-150.4046006568433
 10
72.59591333905588
 20
-150.3329426707501
 10
72.59591333905588
 20
-150.1551757437112
 10
72.59591333905588
 20
-149.9774088166723
 10
72.47740205436329
 20
-149.9054063210306
 10
72.35458440031414
 20
-149.9054063210306
 10
72.21919214774381
 20
-149.9054063210306
 10
72.12410751235092
 20
-149.9922227272589
 10
72.12410751235092
 20
-150.1551757437112
 97
        0
 97
        1
330
108
 92
        1
 93
        1
 72
     4
 94
        3
 73
     0
 74
     0
 95
       29
 96
       25
 40
0.0
 40
0.0
 40
0.0
 40
0.0
 40
1.0
 40
1.0
 40
1.0
 40
2.0
 40
2.0
 40
2.0
 40
3.0
 40
3.0
 40
3.0
 40
4.0
 40
4.0
 40
4.0
 40
5.0
 40
5.0
 40
5.0
 40
6.0
 40
6.0
 40
6.0
 40
7.0
 40
7.0
 40
7.0
 40
8.0
 40
8.0
 40
8.0
 40
8.0
 10
73.57535398551242
 20
-150.1551757437112
 10
73.57535398551242
 20
-150.4218261342695
 10
73.43772242087668
 20
-150.6753851619839
 10
73.08873424822087
 20
-150.6753851619839
 10
72.83276365366681
 20
-150.6753851619839
 10
72.73750676349965
 20
-150.5337917375401
 10
72.67618406386221
 20
-150.428027306143
 10
72.61692842151591
 20
-150.552739762709
 10
72.50272350617987
 20
-150.628876372933
 10
72.34200980179297
 20
-150.628876372933
 10
72.06691892729577
 20
-150.628876372933
 10
71.93152667472546
 20
-150.4300943634341
 10
71.93152667472546
 20
-150.1551757437112
 10
71.93152667472546
 20
-149.8716443852751
 10
72.07535941123463
 20
-149.6811306049408
 10
72.34200980179297
 20
-149.6811306049408
 10
72.50272350617987
 20
-149.6811306049408
 10
72.61692842151591
 20
-149.7596787820045
 10
72.67618406386221
 20
-149.8843912385706
 10
72.72699922226964
 20
-149.7955077750511
 10
72.8222561124368
 20
-149.6366888731811
 10
73.08460013363857
 20
-149.6366888731811
 10
73.45890975811098
 20
-149.6366888731811
 10
73.57535398551242
 20
-149.9160861170348
 10
73.57535398551242
 20
-150.1551757437112
 97
        0
 97
        1
330
109
 75
     2
 76
     1
 98
        1
 10
0.0
 20
0.0
450
        0
451
        0
460
0.0
461
0.0
452
        0
462
0.0
453
        0
470

  0
ENDBLK
  5
106
330
103
100
AcDbEntity
  8
0
100
AcDbBlockEnd
  0
BLOCK
  5
10F
330
10D
100
AcDbEntity
  8
0
100
AcDbBlockBegin
  2
Block_6
 70
     0
 10
0.0
 20
0.0
 30
0.0
  3
Block_6
  1

  0
INSERT
  5
112
330
10D
100
AcDbEntity
  8
レイヤー 1
100
AcDbBlockReference
  2
Block_7
 10
0.0
 20
0.0
 30
0.0
  0
ENDBLK
  5
110
330
10D
100
AcDbEntity
  8
0
100
AcDbBlockEnd
  0
BLOCK
  5
113
330
111
100
AcDbEntity
  8
0
100
AcDbBlockBegin
  2
Block_7
 70
     0
 10
0.0
 20
0.0
 30
0.0
  3
Block_7
  1

  0
SPLINE
  5
115
330
111
100
AcDbEntity
  8
レイヤー 1
100
AcDbSpline
210
0.0
220
0.0
230
1.0
 70
     9
 71
     3
 72
    44
 73
    40
 74
     0
 42
0.0000000001
 43
0.0000000001
 40
0.0
 40
0.0
 40
0.0
 40
0.0
 40
1.0
 40
1.0
 40
1.0
 40
2.0
 40
2.0
 40
2.0
 40
3.0
 40
3.0
 40
3.0
 40
4.0
 40
4.0
 40
4.0
 40
5.0
 40
5.0
 40
5.0
 40
6.0
 40
6.0
 40
6.0
 40
7.0
 40
7.0
 40
7.0
 40
8.0
 40
8.0
 40
8.0
 40
9.0
 40
9.0
 40
9.0
 40
10.0
 40
10.0
 40
10.0
 40
11.0
 40
11.0
 40
11.0
 40
12.0
 40
12.0
 40
12.0
 40
13.0
 40
13.0
 40
13.0
 40
13.0
 10
119.1682644016315
 20
-139.600264450777
 30
0.0
 10
118.9505343669637
 20
-139.7589110978728
 30
0.0
 10
118.857516788862
 20
-139.8329806508056
 30
0.0
 10
118.8085964329715
 20
-139.9768133873148
 30
0.0
 10
118.8085964329715
 20
-139.9768133873148
 30
0.0
 10
119.5871880126379
 20
-139.9768133873148
 30
0.0
 10
119.5871880126379
 20
-139.9768133873148
 30
0.0
 10
119.5871880126379
 20
-139.9768133873148
 30
0.0
 10
119.5871880126379
 20
-140.1819688234614
 30
0.0
 10
119.5871880126379
 20
-140.1819688234614
 30
0.0
 10
119.5871880126379
 20
-140.1819688234614
 30
0.0
 10
118.5591715198394
 20
-140.1819688234614
 30
0.0
 10
118.5591715198394
 20
-140.1819688234614
 30
0.0
 10
118.5908663983036
 20
-139.8243679120925
 30
0.0
 10
118.6563232125234
 20
-139.7461642445773
 30
0.0
 10
119.0414848877743
 20
-139.4478189755547
 30
0.0
 10
119.2974554823284
 20
-139.2490369660558
 30
0.0
 10
119.3629122965481
 20
-139.1813408397706
 30
0.0
 10
119.3629122965481
 20
-139.0438815299092
 30
0.0
 10
119.3629122965481
 20
-138.9253702452166
 30
0.0
 10
119.2909098009064
 20
-138.7941121072285
 30
0.0
 10
119.0941948486986
 20
-138.7941121072285
 30
0.0
 10
118.8340901395623
 20
-138.7941121072285
 30
0.0
 10
118.8258219103977
 20
-139.024761249966
 30
0.0
 10
118.8213432862669
 20
-139.1412054773675
 30
0.0
 10
118.8213432862669
 20
-139.1412054773675
 30
0.0
 10
118.5970675701771
 20
-139.1412054773675
 30
0.0
 10
118.5970675701771
 20
-139.1412054773675
 30
0.0
 10
118.6056803088902
 20
-139.014253708736
 30
0.0
 10
118.6163601048945
 20
-138.9021158506911
 30
0.0
 10
118.6966308297008
 20
-138.7836045659985
 30
0.0
 10
118.8065293756803
 20
-138.6228908616116
 30
0.0
 10
118.9929090414323
 20
-138.5889566710819
 30
0.0
 10
119.1090087592852
 20
-138.5889566710819
 30
0.0
 10
119.3863389458478
 20
-138.5889566710819
 30
0.0
 10
119.5937336940599
 20
-138.7730970247685
 30
0.0
 10
119.5937336940599
 20
-139.0459485872003
 30
0.0
 10
119.5937336940599
 20
-139.2743584178724
 30
0.0
 10
119.4772894666584
 20
-139.3739216773961
 30
0.0
 10
119.1682644016315
 20
-139.600264450777
 30
0.0
  0
HATCH
  5
116
330
111
100
AcDbEntity
  8
レイヤー 1
 62
   250
420
  2299925
440
 33554687
100
AcDbHatch
 10
0.0
 20
0.0
 30
0.0
210
0.0
220
0.0
230
1.0
  2
SOLID
 70
     1
 71
     1
 91
        1
 92
        1
 93
        1
 72
     4
 94
        3
 73
     0
 74
     0
 95
       44
 96
       40
 40
0.0
 40
0.0
 40
0.0
 40
0.0
 40
1.0
 40
1.0
 40
1.0
 40
2.0
 40
2.0
 40
2.0
 40
3.0
 40
3.0
 40
3.0
 40
4.0
 40
4.0
 40
4.0
 40
5.0
 40
5.0
 40
5.0
 40
6.0
 40
6.0
 40
6.0
 40
7.0
 40
7.0
 40
7.0
 40
8.0
 40
8.0
 40
8.0
 40
9.0
 40
9.0
 40
9.0
 40
10.0
 40
10.0
 40
10.0
 40
11.0
 40
11.0
 40
11.0
 40
12.0
 40
12.0
 40
12.0
 40
13.0
 40
13.0
 40
13.0
 40
13.0
 10
119.1682644016315
 20
-139.600264450777
 10
118.9505343669637
 20
-139.7589110978728
 10
118.857516788862
 20
-139.8329806508056
 10
118.8085964329715
 20
-139.9768133873148
 10
118.8085964329715
 20
-139.9768133873148
 10
119.5871880126379
 20
-139.9768133873148
 10
119.5871880126379
 20
-139.9768133873148
 10
119.5871880126379
 20
-139.9768133873148
 10
119.5871880126379
 20
-140.1819688234614
 10
119.5871880126379
 20
-140.1819688234614
 10
119.5871880126379
 20
-140.1819688234614
 10
118.5591715198394
 20
-140.1819688234614
 10
118.5591715198394
 20
-140.1819688234614
 10
118.5908663983036
 20
-139.8243679120925
 10
118.6563232125234
 20
-139.7461642445773
 10
119.0414848877743
 20
-139.4478189755547
 10
119.2974554823284
 20
-139.2490369660558
 10
119.3629122965481
 20
-139.1813408397706
 10
119.3629122965481
 20
-139.0438815299092
 10
119.3629122965481
 20
-138.9253702452166
 10
119.2909098009064
 20
-138.7941121072285
 10
119.0941948486986
 20
-138.7941121072285
 10
118.8340901395623
 20
-138.7941121072285
 10
118.8258219103977
 20
-139.024761249966
 10
118.8213432862669
 20
-139.1412054773675
 10
118.8213432862669
 20
-139.1412054773675
 10
118.5970675701771
 20
-139.1412054773675
 10
118.5970675701771
 20
-139.1412054773675
 10
118.6056803088902
 20
-139.014253708736
 10
118.6163601048945
 20
-138.9021158506911
 10
118.6966308297008
 20
-138.7836045659985
 10
118.8065293756803
 20
-138.6228908616116
 10
118.9929090414323
 20
-138.5889566710819
 10
119.1090087592852
 20
-138.5889566710819
 10
119.3863389458478
 20
-138.5889566710819
 10
119.5937336940599
 20
-138.7730970247685
 10
119.5937336940599
 20
-139.0459485872003
 10
119.5937336940599
 20
-139.2743584178724
 10
119.4772894666584
 20
-139.3739216773961
 10
119.1682644016315
 20
-139.600264450777
 97
        0
 97
        1
330
115
 75
     2
 76
     1
 98
        1
 10
0.0
 20
0.0
450
        0
451
        0
460
0.0
461
0.0
452
        0
462
0.0
453
        0
470

  0
SPLINE
  5
117
330
111
100
AcDbEntity
  8
レイヤー 1
100
AcDbSpline
210
0.0
220
0.0
230
1.0
 70
    11
 71
     3
 72
    26
 73
    22
 74
     0
 42
0.0000000001
 43
0.0000000001
 40
0.0
 40
0.0
 40
0.0
 40
0.0
 40
1.0
 40
1.0
 40
1.0
 40
2.0
 40
2.0
 40
2.0
 40
3.0
 40
3.0
 40
3.0
 40
4.0
 40
4.0
 40
4.0
 40
5.0
 40
5.0
 40
5.0
 40
6.0
 40
6.0
 40
6.0
 40
7.0
 40
7.0
 40
7.0
 40
7.0
 10
120.2035155949491
 20
-140.1819688234614
 30
0.0
 10
120.2035155949491
 20
-140.1819688234614
 30
0.0
 10
120.2035155949491
 20
-139.0776434656646
 30
0.0
 10
120.2035155949491
 20
-139.0776434656646
 30
0.0
 10
120.2035155949491
 20
-139.0776434656646
 30
0.0
 10
119.8734754474622
 20
-139.0776434656646
 30
0.0
 10
119.8734754474622
 20
-139.0776434656646
 30
0.0
 10
119.8734754474622
 20
-139.0776434656646
 30
0.0
 10
119.8734754474622
 20
-138.9295043597988
 30
0.0
 10
119.8734754474622
 20
-138.9295043597988
 30
0.0
 10
120.2055826522403
 20
-138.9148627039865
 30
0.0
 10
120.2520914412911
 20
-138.7519096875342
 30
0.0
 10
120.2817192624643
 20
-138.6377047721982
 30
0.0
 10
120.2817192624643
 20
-138.6377047721982
 30
0.0
 10
120.4277913110389
 20
-138.6377047721982
 30
0.0
 10
120.4277913110389
 20
-138.6377047721982
 30
0.0
 10
120.4277913110389
 20
-138.6377047721982
 30
0.0
 10
120.4277913110389
 20
-140.1819688234614
 30
0.0
 10
120.4277913110389
 20
-140.1819688234614
 30
0.0
 10
120.4277913110389
 20
-140.1819688234614
 30
0.0
 10
120.2035155949491
 20
-140.1819688234614
 30
0.0
 10
120.2035155949491
 20
-140.1819688234614
 30
0.0
  0
HATCH
  5
118
330
111
100
AcDbEntity
  8
レイヤー 1
 62
   250
420
  2299925
440
 33554687
100
AcDbHatch
 10
0.0
 20
0.0
 30
0.0
210
0.0
220
0.0
230
1.0
  2
SOLID
 70
     1
 71
     1
 91
        1
 92
        1
 93
        1
 72
     4
 94
        3
 73
     0
 74
     0
 95
       26
 96
       22
 40
0.0
 40
0.0
 40
0.0
 40
0.0
 40
1.0
 40
1.0
 40
1.0
 40
2.0
 40
2.0
 40
2.0
 40
3.0
 40
3.0
 40
3.0
 40
4.0
 40
4.0
 40
4.0
 40
5.0
 40
5.0
 40
5.0
 40
6.0
 40
6.0
 40
6.0
 40
7.0
 40
7.0
 40
7.0
 40
7.0
 10
120.2035155949491
 20
-140.1819688234614
 10
120.2035155949491
 20
-140.1819688234614
 10
120.2035155949491
 20
-139.0776434656646
 10
120.2035155949491
 20
-139.0776434656646
 10
120.2035155949491
 20
-139.0776434656646
 10
119.8734754474622
 20
-139.0776434656646
 10
119.8734754474622
 20
-139.0776434656646
 10
119.8734754474622
 20
-139.0776434656646
 10
119.8734754474622
 20
-138.9295043597988
 10
119.8734754474622
 20
-138.9295043597988
 10
120.2055826522403
 20
-138.9148627039865
 10
120.2520914412911
 20
-138.7519096875342
 10
120.2817192624643
 20
-138.6377047721982
 10
120.2817192624643
 20
-138.6377047721982
 10
120.4277913110389
 20
-138.6377047721982
 10
120.4277913110389
 20
-138.6377047721982
 10
120.4277913110389
 20
-138.6377047721982
 10
120.4277913110389
 20
-140.1819688234614
 10
120.4277913110389
 20
-140.1819688234614
 10
120.4277913110389
 20
-140.1819688234614
 10
120.2035155949491
 20
-140.1819688234614
 10
120.2035155949491
 20
-140.1819688234614
 97
        0
 97
        1
330
117
 75
     2
 76
     1
 98
        1
 10
0.0
 20
0.0
450
        0
451
        0
460
0.0
461
0.0
452
        0
462
0.0
453
        0
470

  0
ENDBLK
  5
114
330
111
100
AcDbEntity
  8
0
100
AcDbBlockEnd
  0
BLOCK
  5
11E
330
11C
100
AcDbEntity
  8
0
100
AcDbBlockBegin
  2
Block_8
 70
     0
 10
0.0
 20
0.0
 30
0.0
  3
Block_8
  1

  0
SPLINE
  5
120
330
11C
100
AcDbEntity
  8
レイヤー 1
100
AcDbSpline
210
0.0
220
0.0
230
1.0
 70
     9
 71
     3
 72
    17
 73
    13
 74
     0
 42
0.0000000001
 43
0.0000000001
 40
0.0
 40
0.0
 40
0.0
 40
0.0
 40
1.0
 40
1.0
 40
1.0
 40
2.0
 40
2.0
 40
2.0
 40
3.0
 40
3.0
 40
3.0
 40
4.0
 40
4.0
 40
4.0
 40
4.0
 10
103.1122246378504
 20
-138.7815375087074
 30
0.0
 10
102.9472045641069
 20
-138.7815375087074
 30
0.0
 10
102.8624552151698
 20
-138.8766221441003
 30
0.0
 10
102.8624552151698
 20
-139.0120143966706
 30
0.0
 10
102.8624552151698
 20
-139.1348320507198
 30
0.0
 10
102.9344577108115
 20
-139.2533433354123
 30
0.0
 10
103.1122246378504
 20
-139.2533433354123
 30
0.0
 10
103.2899915648893
 20
-139.2533433354123
 30
0.0
 10
103.361994060531
 20
-139.1348320507198
 30
0.0
 10
103.361994060531
 20
-139.0120143966706
 30
0.0
 10
103.361994060531
 20
-138.8766221441003
 30
0.0
 10
103.2751776543027
 20
-138.7815375087074
 30
0.0
 10
103.1122246378504
 20
-138.7815375087074
 30
0.0
  0
SPLINE
  5
121
330
11C
100
AcDbEntity
  8
レイヤー 1
100
AcDbSpline
210
0.0
220
0.0
230
1.0
 70
     9
 71
     3
 72
    17
 73
    13
 74
     0
 42
0.0000000001
 43
0.0000000001
 40
0.0
 40
0.0
 40
0.0
 40
0.0
 40
1.0
 40
1.0
 40
1.0
 40
2.0
 40
2.0
 40
2.0
 40
3.0
 40
3.0
 40
3.0
 40
4.0
 40
4.0
 40
4.0
 40
4.0
 10
103.1122246378504
 20
-139.4416178036813
 30
0.0
 10
102.9685641561155
 20
-139.4416178036813
 30
0.0
 10
102.8159464261189
 20
-139.5282619551353
 30
0.0
 10
102.8159464261189
 20
-139.7313503339908
 30
0.0
 10
102.8159464261189
 20
-139.9365057701374
 30
0.0
 10
102.9430704495246
 20
-140.0381360869523
 30
0.0
 10
103.1122246378504
 20
-140.0381360869523
 30
0.0
 10
103.2982597940539
 20
-140.0381360869523
 30
0.0
 10
103.4085028495819
 20
-139.9154906876774
 30
0.0
 10
103.4085028495819
 20
-139.7377237606385
 30
0.0
 10
103.4085028495819
 20
-139.5155151018398
 30
0.0
 10
103.2455498331296
 20
-139.4416178036813
 30
0.0
 10
103.1122246378504
 20
-139.4416178036813
 30
0.0
  0
SPLINE
  5
122
330
11C
100
AcDbEntity
  8
レイヤー 1
100
AcDbSpline
210
0.0
220
0.0
230
1.0
 70
     9
 71
     3
 72
    29
 73
    25
 74
     0
 42
0.0000000001
 43
0.0000000001
 40
0.0
 40
0.0
 40
0.0
 40
0.0
 40
1.0
 40
1.0
 40
1.0
 40
2.0
 40
2.0
 40
2.0
 40
3.0
 40
3.0
 40
3.0
 40
4.0
 40
4.0
 40
4.0
 40
5.0
 40
5.0
 40
5.0
 40
6.0
 40
6.0
 40
6.0
 40
7.0
 40
7.0
 40
7.0
 40
8.0
 40
8.0
 40
8.0
 40
8.0
 10
103.1122246378504
 20
-140.2327839818689
 30
0.0
 10
102.8455742472921
 20
-140.2327839818689
 30
0.0
 10
102.5916707100291
 20
-140.0951524172331
 30
0.0
 10
102.5916707100291
 20
-139.7461642445773
 30
0.0
 10
102.5916707100291
 20
-139.4901936500233
 30
0.0
 10
102.7336086440214
 20
-139.3949367598561
 30
0.0
 10
102.8393730754186
 20
-139.3336140602187
 30
0.0
 10
102.7146606188526
 20
-139.2743584178724
 30
0.0
 10
102.6385240086285
 20
-139.1601535025363
 30
0.0
 10
102.6385240086285
 20
-138.9994397981494
 30
0.0
 10
102.6385240086285
 20
-138.7243489236522
 30
0.0
 10
102.8373060181275
 20
-138.5889566710819
 30
0.0
 10
103.1122246378504
 20
-138.5889566710819
 30
0.0
 10
103.3957559962864
 20
-138.5889566710819
 30
0.0
 10
103.5862697766208
 20
-138.7327894075911
 30
0.0
 10
103.5862697766208
 20
-138.9994397981494
 30
0.0
 10
103.5862697766208
 20
-139.1601535025363
 30
0.0
 10
103.5077215995571
 20
-139.2743584178724
 30
0.0
 10
103.383009142991
 20
-139.3336140602187
 30
0.0
 10
103.4718926065105
 20
-139.3844292186261
 30
0.0
 10
103.6307115083805
 20
-139.4796861087933
 30
0.0
 10
103.6307115083805
 20
-139.7418578752208
 30
0.0
 10
103.6307115083805
 20
-140.1163397544674
 30
0.0
 10
103.3513142645267
 20
-140.2327839818689
 30
0.0
 10
103.1122246378504
 20
-140.2327839818689
 30
0.0
  0
HATCH
  5
123
330
11C
100
AcDbEntity
  8
レイヤー 1
 62
   250
420
  2299925
440
 33554687
100
AcDbHatch
 10
0.0
 20
0.0
 30
0.0
210
0.0
220
0.0
230
1.0
  2
SOLID
 70
     1
 71
     1
 91
        3
 92
        1
 93
        1
 72
     4
 94
        3
 73
     0
 74
     0
 95
       17
 96
       13
 40
0.0
 40
0.0
 40
0.0
 40
0.0
 40
1.0
 40
1.0
 40
1.0
 40
2.0
 40
2.0
 40
2.0
 40
3.0
 40
3.0
 40
3.0
 40
4.0
 40
4.0
 40
4.0
 40
4.0
 10
103.1122246378504
 20
-138.7815375087074
 10
102.9472045641069
 20
-138.7815375087074
 10
102.8624552151698
 20
-138.8766221441003
 10
102.8624552151698
 20
-139.0120143966706
 10
102.8624552151698
 20
-139.1348320507198
 10
102.9344577108115
 20
-139.2533433354123
 10
103.1122246378504
 20
-139.2533433354123
 10
103.2899915648893
 20
-139.2533433354123
 10
103.361994060531
 20
-139.1348320507198
 10
103.361994060531
 20
-139.0120143966706
 10
103.361994060531
 20
-138.8766221441003
 10
103.2751776543027
 20
-138.7815375087074
 10
103.1122246378504
 20
-138.7815375087074
 97
        0
 97
        1
330
120
 92
        1
 93
        1
 72
     4
 94
        3
 73
     0
 74
     0
 95
       17
 96
       13
 40
0.0
 40
0.0
 40
0.0
 40
0.0
 40
1.0
 40
1.0
 40
1.0
 40
2.0
 40
2.0
 40
2.0
 40
3.0
 40
3.0
 40
3.0
 40
4.0
 40
4.0
 40
4.0
 40
4.0
 10
103.1122246378504
 20
-139.4416178036813
 10
102.9685641561155
 20
-139.4416178036813
 10
102.8159464261189
 20
-139.5282619551353
 10
102.8159464261189
 20
-139.7313503339908
 10
102.8159464261189
 20
-139.9365057701374
 10
102.9430704495246
 20
-140.0381360869523
 10
103.1122246378504
 20
-140.0381360869523
 10
103.2982597940539
 20
-140.0381360869523
 10
103.4085028495819
 20
-139.9154906876774
 10
103.4085028495819
 20
-139.7377237606385
 10
103.4085028495819
 20
-139.5155151018398
 10
103.2455498331296
 20
-139.4416178036813
 10
103.1122246378504
 20
-139.4416178036813
 97
        0
 97
        1
330
121
 92
        1
 93
        1
 72
     4
 94
        3
 73
     0
 74
     0
 95
       29
 96
       25
 40
0.0
 40
0.0
 40
0.0
 40
0.0
 40
1.0
 40
1.0
 40
1.0
 40
2.0
 40
2.0
 40
2.0
 40
3.0
 40
3.0
 40
3.0
 40
4.0
 40
4.0
 40
4.0
 40
5.0
 40
5.0
 40
5.0
 40
6.0
 40
6.0
 40
6.0
 40
7.0
 40
7.0
 40
7.0
 40
8.0
 40
8.0
 40
8.0
 40
8.0
 10
103.1122246378504
 20
-140.2327839818689
 10
102.8455742472921
 20
-140.2327839818689
 10
102.5916707100291
 20
-140.0951524172331
 10
102.5916707100291
 20
-139.7461642445773
 10
102.5916707100291
 20
-139.4901936500233
 10
102.7336086440214
 20
-139.3949367598561
 10
102.8393730754186
 20
-139.3336140602187
 10
102.7146606188526
 20
-139.2743584178724
 10
102.6385240086285
 20
-139.1601535025363
 10
102.6385240086285
 20
-138.9994397981494
 10
102.6385240086285
 20
-138.7243489236522
 10
102.8373060181275
 20
-138.5889566710819
 10
103.1122246378504
 20
-138.5889566710819
 10
103.3957559962864
 20
-138.5889566710819
 10
103.5862697766208
 20
-138.7327894075911
 10
103.5862697766208
 20
-138.9994397981494
 10
103.5862697766208
 20
-139.1601535025363
 10
103.5077215995571
 20
-139.2743584178724
 10
103.383009142991
 20
-139.3336140602187
 10
103.4718926065105
 20
-139.3844292186261
 10
103.6307115083805
 20
-139.4796861087933
 10
103.6307115083805
 20
-139.7418578752208
 10
103.6307115083805
 20
-140.1163397544674
 10
103.3513142645267
 20
-140.2327839818689
 10
103.1122246378504
 20
-140.2327839818689
 97
        0
 97
        1
330
122
 75
     2
 76
     1
 98
        1
 10
0.0
 20
0.0
450
        0
451
        0
460
0.0
461
0.0
452
        0
462
0.0
453
        0
470

  0
ENDBLK
  5
11F
330
11C
100
AcDbEntity
  8
0
100
AcDbBlockEnd
  0
BLOCK
  5
127
330
125
100
AcDbEntity
  8
0
100
AcDbBlockBegin
  2
Block_9
 70
     0
 10
0.0
 20
0.0
 30
0.0
  3
Block_9
  1

  0
SPLINE
  5
129
330
125
100
AcDbEntity
  8
レイヤー 1
100
AcDbSpline
210
0.0
220
0.0
230
1.0
 70
    11
 71
     3
 72
    26
 73
    22
 74
     0
 42
0.0000000001
 43
0.0000000001
 40
0.0
 40
0.0
 40
0.0
 40
0.0
 40
1.0
 40
1.0
 40
1.0
 40
2.0
 40
2.0
 40
2.0
 40
3.0
 40
3.0
 40
3.0
 40
4.0
 40
4.0
 40
4.0
 40
5.0
 40
5.0
 40
5.0
 40
6.0
 40
6.0
 40
6.0
 40
7.0
 40
7.0
 40
7.0
 40
7.0
 10
110.8228650981623
 20
-149.8874918245073
 30
0.0
 10
110.8228650981623
 20
-149.8874918245073
 30
0.0
 10
110.8228650981623
 20
-148.7831664667105
 30
0.0
 10
110.8228650981623
 20
-148.7831664667105
 30
0.0
 10
110.8228650981623
 20
-148.7831664667105
 30
0.0
 10
110.4928249506754
 20
-148.7831664667105
 30
0.0
 10
110.4928249506754
 20
-148.7831664667105
 30
0.0
 10
110.4928249506754
 20
-148.7831664667105
 30
0.0
 10
110.4928249506754
 20
-148.6350273608447
 30
0.0
 10
110.4928249506754
 20
-148.6350273608447
 30
0.0
 10
110.8249321554535
 20
-148.6203857050324
 30
0.0
 10
110.8714409445044
 20
-148.4574326885801
 30
0.0
 10
110.9010687656775
 20
-148.343227773244
 30
0.0
 10
110.9010687656775
 20
-148.343227773244
 30
0.0
 10
111.0471408142521
 20
-148.343227773244
 30
0.0
 10
111.0471408142521
 20
-148.343227773244
 30
0.0
 10
111.0471408142521
 20
-148.343227773244
 30
0.0
 10
111.0471408142521
 20
-149.8874918245073
 30
0.0
 10
111.0471408142521
 20
-149.8874918245073
 30
0.0
 10
111.0471408142521
 20
-149.8874918245073
 30
0.0
 10
110.8228650981623
 20
-149.8874918245073
 30
0.0
 10
110.8228650981623
 20
-149.8874918245073
 30
0.0
  0
HATCH
  5
12A
330
125
100
AcDbEntity
  8
レイヤー 1
 62
   250
420
  2299925
440
 33554687
100
AcDbHatch
 10
0.0
 20
0.0
 30
0.0
210
0.0
220
0.0
230
1.0
  2
SOLID
 70
     1
 71
     1
 91
        1
 92
        1
 93
        1
 72
     4
 94
        3
 73
     0
 74
     0
 95
       26
 96
       22
 40
0.0
 40
0.0
 40
0.0
 40
0.0
 40
1.0
 40
1.0
 40
1.0
 40
2.0
 40
2.0
 40
2.0
 40
3.0
 40
3.0
 40
3.0
 40
4.0
 40
4.0
 40
4.0
 40
5.0
 40
5.0
 40
5.0
 40
6.0
 40
6.0
 40
6.0
 40
7.0
 40
7.0
 40
7.0
 40
7.0
 10
110.8228650981623
 20
-149.8874918245073
 10
110.8228650981623
 20
-149.8874918245073
 10
110.8228650981623
 20
-148.7831664667105
 10
110.8228650981623
 20
-148.7831664667105
 10
110.8228650981623
 20
-148.7831664667105
 10
110.4928249506754
 20
-148.7831664667105
 10
110.4928249506754
 20
-148.7831664667105
 10
110.4928249506754
 20
-148.7831664667105
 10
110.4928249506754
 20
-148.6350273608447
 10
110.4928249506754
 20
-148.6350273608447
 10
110.8249321554535
 20
-148.6203857050324
 10
110.8714409445044
 20
-148.4574326885801
 10
110.9010687656775
 20
-148.343227773244
 10
110.9010687656775
 20
-148.343227773244
 10
111.0471408142521
 20
-148.343227773244
 10
111.0471408142521
 20
-148.343227773244
 10
111.0471408142521
 20
-148.343227773244
 10
111.0471408142521
 20
-149.8874918245073
 10
111.0471408142521
 20
-149.8874918245073
 10
111.0471408142521
 20
-149.8874918245073
 10
110.8228650981623
 20
-149.8874918245073
 10
110.8228650981623
 20
-149.8874918245073
 97
        0
 97
        1
330
129
 75
     2
 76
     1
 98
        1
 10
0.0
 20
0.0
450
        0
451
        0
460
0.0
461
0.0
452
        0
462
0.0
453
        0
470

  0
ENDBLK
  5
128
330
125
100
AcDbEntity
  8
0
100
AcDbBlockEnd
  0
BLOCK
  5
132
330
130
100
AcDbEntity
  8
0
100
AcDbBlockBegin
  2
Block_10
 70
     0
 10
0.0
 20
0.0
 30
0.0
  3
Block_10
  1

  0
INSERT
  5
135
330
130
100
AcDbEntity
  8
レイヤー 1
100
AcDbBlockReference
  2
Block_11
 10
0.0
 20
0.0
 30
0.0
  0
ENDBLK
  5
133
330
130
100
AcDbEntity
  8
0
100
AcDbBlockEnd
  0
BLOCK
  5
136
330
134
100
AcDbEntity
  8
0
100
AcDbBlockBegin
  2
Block_11
 70
     0
 10
0.0
 20
0.0
 30
0.0
  3
Block_11
  1

  0
SPLINE
  5
138
330
134
100
AcDbEntity
  8
レイヤー 1
100
AcDbSpline
210
0.0
220
0.0
230
1.0
 70
    11
 71
     3
 72
    26
 73
    22
 74
     0
 42
0.0000000001
 43
0.0000000001
 40
0.0
 40
0.0
 40
0.0
 40
0.0
 40
1.0
 40
1.0
 40
1.0
 40
2.0
 40
2.0
 40
2.0
 40
3.0
 40
3.0
 40
3.0
 40
4.0
 40
4.0
 40
4.0
 40
5.0
 40
5.0
 40
5.0
 40
6.0
 40
6.0
 40
6.0
 40
7.0
 40
7.0
 40
7.0
 40
7.0
 10
102.6533379192151
 20
-157.5569633937705
 30
0.0
 10
102.6533379192151
 20
-157.5569633937705
 30
0.0
 10
102.6533379192151
 20
-156.4528102907479
 30
0.0
 10
102.6533379192151
 20
-156.4528102907479
 30
0.0
 10
102.6533379192151
 20
-156.4528102907479
 30
0.0
 10
102.3232977717282
 20
-156.4528102907479
 30
0.0
 10
102.3232977717282
 20
-156.4528102907479
 30
0.0
 10
102.3232977717282
 20
-156.4528102907479
 30
0.0
 10
102.3232977717282
 20
-156.3046711848822
 30
0.0
 10
102.3232977717282
 20
-156.3046711848822
 30
0.0
 10
102.6554049765063
 20
-156.2898572742956
 30
0.0
 10
102.7019137655571
 20
-156.1269042578433
 30
0.0
 10
102.7315415867303
 20
-156.012527087733
 30
0.0
 10
102.7315415867303
 20
-156.012527087733
 30
0.0
 10
102.8776136353049
 20
-156.012527087733
 30
0.0
 10
102.8776136353049
 20
-156.012527087733
 30
0.0
 10
102.8776136353049
 20
-156.012527087733
 30
0.0
 10
102.8776136353049
 20
-157.5569633937705
 30
0.0
 10
102.8776136353049
 20
-157.5569633937705
 30
0.0
 10
102.8776136353049
 20
-157.5569633937705
 30
0.0
 10
102.6533379192151
 20
-157.5569633937705
 30
0.0
 10
102.6533379192151
 20
-157.5569633937705
 30
0.0
  0
HATCH
  5
139
330
134
100
AcDbEntity
  8
レイヤー 1
 62
   250
420
  2299925
440
 33554687
100
AcDbHatch
 10
0.0
 20
0.0
 30
0.0
210
0.0
220
0.0
230
1.0
  2
SOLID
 70
     1
 71
     1
 91
        1
 92
        1
 93
        1
 72
     4
 94
        3
 73
     0
 74
     0
 95
       26
 96
       22
 40
0.0
 40
0.0
 40
0.0
 40
0.0
 40
1.0
 40
1.0
 40
1.0
 40
2.0
 40
2.0
 40
2.0
 40
3.0
 40
3.0
 40
3.0
 40
4.0
 40
4.0
 40
4.0
 40
5.0
 40
5.0
 40
5.0
 40
6.0
 40
6.0
 40
6.0
 40
7.0
 40
7.0
 40
7.0
 40
7.0
 10
102.6533379192151
 20
-157.5569633937705
 10
102.6533379192151
 20
-157.5569633937705
 10
102.6533379192151
 20
-156.4528102907479
 10
102.6533379192151
 20
-156.4528102907479
 10
102.6533379192151
 20
-156.4528102907479
 10
102.3232977717282
 20
-156.4528102907479
 10
102.3232977717282
 20
-156.4528102907479
 10
102.3232977717282
 20
-156.4528102907479
 10
102.3232977717282
 20
-156.3046711848822
 10
102.3232977717282
 20
-156.3046711848822
 10
102.6554049765063
 20
-156.2898572742956
 10
102.7019137655571
 20
-156.1269042578433
 10
102.7315415867303
 20
-156.012527087733
 10
102.7315415867303
 20
-156.012527087733
 10
102.8776136353049
 20
-156.012527087733
 10
102.8776136353049
 20
-156.012527087733
 10
102.8776136353049
 20
-156.012527087733
 10
102.8776136353049
 20
-157.5569633937705
 10
102.8776136353049
 20
-157.5569633937705
 10
102.8776136353049
 20
-157.5569633937705
 10
102.6533379192151
 20
-157.5569633937705
 10
102.6533379192151
 20
-157.5569633937705
 97
        0
 97
        1
330
138
 75
     2
 76
     1
 98
        1
 10
0.0
 20
0.0
450
        0
451
        0
460
0.0
461
0.0
452
        0
462
0.0
453
        0
470

  0
SPLINE
  5
13A
330
134
100
AcDbEntity
  8
レイヤー 1
100
AcDbSpline
210
0.0
220
0.0
230
1.0
 70
     9
 71
     3
 72
    17
 73
    13
 74
     0
 42
0.0000000001
 43
0.0000000001
 40
0.0
 40
0.0
 40
0.0
 40
0.0
 40
1.0
 40
1.0
 40
1.0
 40
2.0
 40
2.0
 40
2.0
 40
3.0
 40
3.0
 40
3.0
 40
4.0
 40
4.0
 40
4.0
 40
4.0
 10
103.8787583833185
 20
-156.1565320790164
 30
0.0
 10
103.6289889606379
 20
-156.1565320790164
 30
0.0
 10
103.582480171587
 20
-156.4400634374525
 30
0.0
 10
103.582480171587
 20
-156.784917495526
 30
0.0
 10
103.582480171587
 20
-157.1042778470086
 30
0.0
 10
103.6186536741821
 20
-157.412958402487
 30
0.0
 10
103.8787583833185
 20
-157.412958402487
 30
0.0
 10
104.1264607487079
 20
-157.412958402487
 30
0.0
 10
104.17503659505
 20
-157.1318386108906
 30
0.0
 10
104.17503659505
 20
-156.784917495526
 30
0.0
 10
104.17503659505
 20
-156.4652126344948
 30
0.0
 10
104.1367960351637
 20
-156.1565320790164
 30
0.0
 10
103.8787583833185
 20
-156.1565320790164
 30
0.0
  0
SPLINE
  5
13B
330
134
100
AcDbEntity
  8
レイヤー 1
100
AcDbSpline
210
0.0
220
0.0
230
1.0
 70
     9
 71
     3
 72
    29
 73
    25
 74
     0
 42
0.0000000001
 43
0.0000000001
 40
0.0
 40
0.0
 40
0.0
 40
0.0
 40
1.0
 40
1.0
 40
1.0
 40
2.0
 40
2.0
 40
2.0
 40
3.0
 40
3.0
 40
3.0
 40
4.0
 40
4.0
 40
4.0
 40
5.0
 40
5.0
 40
5.0
 40
6.0
 40
6.0
 40
6.0
 40
7.0
 40
7.0
 40
7.0
 40
8.0
 40
8.0
 40
8.0
 40
8.0
 10
104.2766669118648
 20
-157.3791964667316
 30
0.0
 10
104.168490913628
 20
-157.5886582722348
 30
0.0
 10
103.9952026107199
 20
-157.6076062974036
 30
0.0
 10
103.8787583833185
 20
-157.6076062974036
 30
0.0
 10
103.7178724241573
 20
-157.6076062974036
 30
0.0
 10
103.5762789997136
 20
-157.5610975083528
 30
0.0
 10
103.4811943643207
 20
-157.3791964667316
 30
0.0
 10
103.3774969902146
 20
-157.184548571815
 30
0.0
 10
103.3582044554972
 20
-156.9475260024298
 30
0.0
 10
103.3582044554972
 20
-156.784917495526
 30
0.0
 10
103.3582044554972
 20
-156.6409125042425
 30
0.0
 10
103.3754299329235
 20
-156.3890760242708
 30
0.0
 10
103.4811943643207
 20
-156.1902940147718
 30
0.0
 10
103.589025853009
 20
-155.9873778906906
 30
0.0
 10
103.7499118121701
 20
-155.9639512413909
 30
0.0
 10
103.8787583833185
 20
-155.9639512413909
 30
0.0
 10
104.0375772851885
 20
-155.9639512413909
 30
0.0
 10
104.1812377669234
 20
-156.0083929731507
 30
0.0
 10
104.2766669118648
 20
-156.1902940147718
 30
0.0
 10
104.37588566184
 20
-156.3828748523973
 30
0.0
 10
104.3993123111397
 20
-156.6112846830694
 30
0.0
 10
104.3993123111397
 20
-156.784917495526
 30
0.0
 10
104.3993123111397
 20
-156.9561387411429
 30
0.0
 10
104.3779527191312
 20
-157.1866156291061
 30
0.0
 10
104.2766669118648
 20
-157.3791964667316
 30
0.0
  0
HATCH
  5
13C
330
134
100
AcDbEntity
  8
レイヤー 1
 62
   250
420
  2299925
440
 33554687
100
AcDbHatch
 10
0.0
 20
0.0
 30
0.0
210
0.0
220
0.0
230
1.0
  2
SOLID
 70
     1
 71
     1
 91
        2
 92
        1
 93
        1
 72
     4
 94
        3
 73
     0
 74
     0
 95
       17
 96
       13
 40
0.0
 40
0.0
 40
0.0
 40
0.0
 40
1.0
 40
1.0
 40
1.0
 40
2.0
 40
2.0
 40
2.0
 40
3.0
 40
3.0
 40
3.0
 40
4.0
 40
4.0
 40
4.0
 40
4.0
 10
103.8787583833185
 20
-156.1565320790164
 10
103.6289889606379
 20
-156.1565320790164
 10
103.582480171587
 20
-156.4400634374525
 10
103.582480171587
 20
-156.784917495526
 10
103.582480171587
 20
-157.1042778470086
 10
103.6186536741821
 20
-157.412958402487
 10
103.8787583833185
 20
-157.412958402487
 10
104.1264607487079
 20
-157.412958402487
 10
104.17503659505
 20
-157.1318386108906
 10
104.17503659505
 20
-156.784917495526
 10
104.17503659505
 20
-156.4652126344948
 10
104.1367960351637
 20
-156.1565320790164
 10
103.8787583833185
 20
-156.1565320790164
 97
        0
 97
        1
330
13A
 92
        1
 93
        1
 72
     4
 94
        3
 73
     0
 74
     0
 95
       29
 96
       25
 40
0.0
 40
0.0
 40
0.0
 40
0.0
 40
1.0
 40
1.0
 40
1.0
 40
2.0
 40
2.0
 40
2.0
 40
3.0
 40
3.0
 40
3.0
 40
4.0
 40
4.0
 40
4.0
 40
5.0
 40
5.0
 40
5.0
 40
6.0
 40
6.0
 40
6.0
 40
7.0
 40
7.0
 40
7.0
 40
8.0
 40
8.0
 40
8.0
 40
8.0
 10
104.2766669118648
 20
-157.3791964667316
 10
104.168490913628
 20
-157.5886582722348
 10
103.9952026107199
 20
-157.6076062974036
 10
103.8787583833185
 20
-157.6076062974036
 10
103.7178724241573
 20
-157.6076062974036
 10
103.5762789997136
 20
-157.5610975083528
 10
103.4811943643207
 20
-157.3791964667316
 10
103.3774969902146
 20
-157.184548571815
 10
103.3582044554972
 20
-156.9475260024298
 10
103.3582044554972
 20
-156.784917495526
 10
103.3582044554972
 20
-156.6409125042425
 10
103.3754299329235
 20
-156.3890760242708
 10
103.4811943643207
 20
-156.1902940147718
 10
103.589025853009
 20
-155.9873778906906
 10
103.7499118121701
 20
-155.9639512413909
 10
103.8787583833185
 20
-155.9639512413909
 10
104.0375772851885
 20
-155.9639512413909
 10
104.1812377669234
 20
-156.0083929731507
 10
104.2766669118648
 20
-156.1902940147718
 10
104.37588566184
 20
-156.3828748523973
 10
104.3993123111397
 20
-156.6112846830694
 10
104.3993123111397
 20
-156.784917495526
 10
104.3993123111397
 20
-156.9561387411429
 10
104.3779527191312
 20
-157.1866156291061
 10
104.2766669118648
 20
-157.3791964667316
 97
        0
 97
        1
330
13B
 75
     2
 76
     1
 98
        1
 10
0.0
 20
0.0
450
        0
451
        0
460
0.0
461
0.0
452
        0
462
0.0
453
        0
470

  0
ENDBLK
  5
137
330
134
100
AcDbEntity
  8
0
100
AcDbBlockEnd
  0
BLOCK
  5
143
330
141
100
AcDbEntity
  8
0
100
AcDbBlockBegin
  2
Block_12
 70
     0
 10
0.0
 20
0.0
 30
0.0
  3
Block_12
  1

  0
INSERT
  5
146
330
141
100
AcDbEntity
  8
レイヤー 1
100
AcDbBlockReference
  2
Block_13
 10
0.0
 20
0.0
 30
0.0
  0
INSERT
  5
14D
330
141
100
AcDbEntity
  8
レイヤー 1
100
AcDbBlockReference
  2
Block_14
 10
0.0
 20
0.0
 30
0.0
  0
ENDBLK
  5
144
330
141
100
AcDbEntity
  8
0
100
AcDbBlockEnd
  0
BLOCK
  5
147
330
145
100
AcDbEntity
  8
0
100
AcDbBlockBegin
  2
Block_13
 70
     0
 10
0.0
 20
0.0
 30
0.0
  3
Block_13
  1

  0
LINE
  5
149
330
145
100
AcDbEntity
  8
レイヤー 1
 62
    18
420
        0
370
     9
100
AcDbLine
 10
122.7830533946505
 20
-147.1659919294757
 30
0.0
 11
123.5943717072854
 21
-147.7506505404409
 31
0.0
  0
LINE
  5
14A
330
145
100
AcDbEntity
  8
レイヤー 1
 62
    18
420
        0
370
     9
100
AcDbLine
 10
122.7830533946505
 20
-147.1659919294757
 30
0.0
 11
125.3606947177783
 21
-150.3230708175753
 31
0.0
  0
LINE
  5
14B
330
145
100
AcDbEntity
  8
レイヤー 1
 62
    18
420
        0
370
     9
100
AcDbLine
 10
122.7830533946505
 20
-147.1659919294757
 30
0.0
 11
123.1933692175158
 21
-148.0780988736921
 31
0.0
  0
ENDBLK
  5
148
330
145
100
AcDbEntity
  8
0
100
AcDbBlockEnd
  0
BLOCK
  5
14E
330
14C
100
AcDbEntity
  8
0
100
AcDbBlockBegin
  2
Block_14
 70
     0
 10
0.0
 20
0.0
 30
0.0
  3
Block_14
  1

  0
INSERT
  5
151
330
14C
100
AcDbEntity
  8
レイヤー 1
100
AcDbBlockReference
  2
Block_15
 10
0.0
 20
0.0
 30
0.0
  0
ENDBLK
  5
14F
330
14C
100
AcDbEntity
  8
0
100
AcDbBlockEnd
  0
BLOCK
  5
152
330
150
100
AcDbEntity
  8
0
100
AcDbBlockBegin
  2
Block_15
 70
     0
 10
0.0
 20
0.0
 30
0.0
  3
Block_15
  1

  0
SPLINE
  5
154
330
150
100
AcDbEntity
  8
レイヤー 1
100
AcDbSpline
210
0.0
220
0.0
230
1.0
 70
     9
 71
     3
 72
    17
 73
    13
 74
     0
 42
0.0000000001
 43
0.0000000001
 40
0.0
 40
0.0
 40
0.0
 40
0.0
 40
1.0
 40
1.0
 40
1.0
 40
2.0
 40
2.0
 40
2.0
 40
3.0
 40
3.0
 40
3.0
 40
4.0
 40
4.0
 40
4.0
 40
4.0
 10
127.0272162225835
 20
-150.7704697973768
 30
0.0
 10
127.0103352547057
 20
-150.8000976185499
 30
0.0
 10
126.9596923510726
 20
-150.8931151966517
 30
0.0
 10
126.9490125550683
 20
-150.9120632218206
 30
0.0
 10
127.1395263354026
 20
-150.9713188641669
 30
0.0
 10
127.1605414178626
 20
-150.9778645455889
 30
0.0
 10
127.2325439135044
 20
-151.0050807999223
 30
0.0
 10
127.2873209317198
 20
-150.9186089032426
 30
0.0
 10
127.3107475810195
 20
-150.8445393503097
 30
0.0
 10
127.3255614916061
 20
-150.7704697973768
 30
0.0
 10
127.3255614916061
 20
-150.7704697973768
 30
0.0
 10
127.0272162225835
 20
-150.7704697973768
 30
0.0
 10
127.0272162225835
 20
-150.7704697973768
 30
0.0
  0
SPLINE
  5
155
330
150
100
AcDbEntity
  8
レイヤー 1
100
AcDbSpline
210
0.0
220
0.0
230
1.0
 70
    11
 71
     3
 72
    20
 73
    16
 74
     0
 42
0.0000000001
 43
0.0000000001
 40
0.0
 40
0.0
 40
0.0
 40
0.0
 40
1.0
 40
1.0
 40
1.0
 40
2.0
 40
2.0
 40
2.0
 40
3.0
 40
3.0
 40
3.0
 40
4.0
 40
4.0
 40
4.0
 40
5.0
 40
5.0
 40
5.0
 40
5.0
 10
126.9638264656548
 20
-149.9198757220686
 30
0.0
 10
126.9638264656548
 20
-149.9198757220686
 30
0.0
 10
126.9321315871906
 20
-149.9198757220686
 30
0.0
 10
126.9321315871906
 20
-149.9198757220686
 30
0.0
 10
126.9786403762414
 20
-150.0194389815924
 30
0.0
 10
127.0103352547057
 20
-150.0997097063987
 30
0.0
 10
127.0440971904612
 20
-150.2268337298044
 30
0.0
 10
127.0440971904612
 20
-150.2268337298044
 30
0.0
 10
127.2514919386732
 20
-150.2268337298044
 30
0.0
 10
127.2514919386732
 20
-150.2268337298044
 30
0.0
 10
127.2831868171375
 20
-150.1338161517026
 30
0.0
 10
127.3066134664372
 20
-150.0490668027655
 30
0.0
 10
127.3296956061884
 20
-149.9198757220686
 30
0.0
 10
127.3296956061884
 20
-149.9198757220686
 30
0.0
 10
126.9638264656548
 20
-149.9198757220686
 30
0.0
 10
126.9638264656548
 20
-149.9198757220686
 30
0.0
  0
SPLINE
  5
156
330
150
100
AcDbEntity
  8
レイヤー 1
100
AcDbSpline
210
0.0
220
0.0
230
1.0
 70
     9
 71
     3
 72
   242
 73
   238
 74
     0
 42
0.0000000001
 43
0.0000000001
 40
0.0
 40
0.0
 40
0.0
 40
0.0
 40
1.0
 40
1.0
 40
1.0
 40
2.0
 40
2.0
 40
2.0
 40
3.0
 40
3.0
 40
3.0
 40
4.0
 40
4.0
 40
4.0
 40
5.0
 40
5.0
 40
5.0
 40
6.0
 40
6.0
 40
6.0
 40
7.0
 40
7.0
 40
7.0
 40
8.0
 40
8.0
 40
8.0
 40
9.0
 40
9.0
 40
9.0
 40
10.0
 40
10.0
 40
10.0
 40
11.0
 40
11.0
 40
11.0
 40
12.0
 40
12.0
 40
12.0
 40
13.0
 40
13.0
 40
13.0
 40
14.0
 40
14.0
 40
14.0
 40
15.0
 40
15.0
 40
15.0
 40
16.0
 40
16.0
 40
16.0
 40
17.0
 40
17.0
 40
17.0
 40
18.0
 40
18.0
 40
18.0
 40
19.0
 40
19.0
 40
19.0
 40
20.0
 40
20.0
 40
20.0
 40
21.0
 40
21.0
 40
21.0
 40
22.0
 40
22.0
 40
22.0
 40
23.0
 40
23.0
 40
23.0
 40
24.0
 40
24.0
 40
24.0
 40
25.0
 40
25.0
 40
25.0
 40
26.0
 40
26.0
 40
26.0
 40
27.0
 40
27.0
 40
27.0
 40
28.0
 40
28.0
 40
28.0
 40
29.0
 40
29.0
 40
29.0
 40
30.0
 40
30.0
 40
30.0
 40
31.0
 40
31.0
 40
31.0
 40
32.0
 40
32.0
 40
32.0
 40
33.0
 40
33.0
 40
33.0
 40
34.0
 40
34.0
 40
34.0
 40
35.0
 40
35.0
 40
35.0
 40
36.0
 40
36.0
 40
36.0
 40
37.0
 40
37.0
 40
37.0
 40
38.0
 40
38.0
 40
38.0
 40
39.0
 40
39.0
 40
39.0
 40
40.0
 40
40.0
 40
40.0
 40
41.0
 40
41.0
 40
41.0
 40
42.0
 40
42.0
 40
42.0
 40
43.0
 40
43.0
 40
43.0
 40
44.0
 40
44.0
 40
44.0
 40
45.0
 40
45.0
 40
45.0
 40
46.0
 40
46.0
 40
46.0
 40
47.0
 40
47.0
 40
47.0
 40
48.0
 40
48.0
 40
48.0
 40
49.0
 40
49.0
 40
49.0
 40
50.0
 40
50.0
 40
50.0
 40
51.0
 40
51.0
 40
51.0
 40
52.0
 40
52.0
 40
52.0
 40
53.0
 40
53.0
 40
53.0
 40
54.0
 40
54.0
 40
54.0
 40
55.0
 40
55.0
 40
55.0
 40
56.0
 40
56.0
 40
56.0
 40
57.0
 40
57.0
 40
57.0
 40
58.0
 40
58.0
 40
58.0
 40
59.0
 40
59.0
 40
59.0
 40
60.0
 40
60.0
 40
60.0
 40
61.0
 40
61.0
 40
61.0
 40
62.0
 40
62.0
 40
62.0
 40
63.0
 40
63.0
 40
63.0
 40
64.0
 40
64.0
 40
64.0
 40
65.0
 40
65.0
 40
65.0
 40
66.0
 40
66.0
 40
66.0
 40
67.0
 40
67.0
 40
67.0
 40
68.0
 40
68.0
 40
68.0
 40
69.0
 40
69.0
 40
69.0
 40
70.0
 40
70.0
 40
70.0
 40
71.0
 40
71.0
 40
71.0
 40
72.0
 40
72.0
 40
72.0
 40
73.0
 40
73.0
 40
73.0
 40
74.0
 40
74.0
 40
74.0
 40
75.0
 40
75.0
 40
75.0
 40
76.0
 40
76.0
 40
76.0
 40
77.0
 40
77.0
 40
77.0
 40
78.0
 40
78.0
 40
78.0
 40
79.0
 40
79.0
 40
79.0
 40
79.0
 10
127.5922118821644
 20
-150.3853081221259
 30
0.0
 10
127.5922118821644
 20
-150.3853081221259
 30
0.0
 10
127.3383083449015
 20
-150.3853081221259
 30
0.0
 10
127.3383083449015
 20
-150.3853081221259
 30
0.0
 10
127.3383083449015
 20
-150.3853081221259
 30
0.0
 10
127.0609781583389
 20
-150.3853081221259
 30
0.0
 10
127.0609781583389
 20
-150.3853081221259
 30
0.0
 10
127.0609781583389
 20
-150.3853081221259
 30
0.0
 10
127.1881021817446
 20
-150.4276827965944
 30
0.0
 10
127.1881021817446
 20
-150.4276827965944
 30
0.0
 10
127.1987819777489
 20
-150.4318169111767
 30
0.0
 10
127.2111843214958
 20
-150.4383625925987
 30
0.0
 10
127.2111843214958
 20
-150.4511094458941
 30
0.0
 10
127.2111843214958
 20
-150.4721245283542
 30
0.0
 10
127.1794894430315
 20
-150.4783257002276
 30
0.0
 10
127.1584743605715
 20
-150.4828043243584
 30
0.0
 10
127.1477945645672
 20
-150.5058864641096
 30
0.0
 10
127.118166743394
 20
-150.5716877878779
 30
0.0
 10
127.0992187182252
 20
-150.6161295196376
 30
0.0
 10
127.0992187182252
 20
-150.6161295196376
 30
0.0
 10
127.3700032233658
 20
-150.6161295196376
 30
0.0
 10
127.3700032233658
 20
-150.6161295196376
 30
0.0
 10
127.4609537441764
 20
-150.6161295196376
 30
0.0
 10
127.6576686963842
 20
-150.6116508955068
 30
0.0
 10
127.7992621208279
 20
-150.6033826663422
 30
0.0
 10
127.7992621208279
 20
-150.6033826663422
 30
0.0
 10
127.7992621208279
 20
-150.7811495933811
 30
0.0
 10
127.7992621208279
 20
-150.7811495933811
 30
0.0
 10
127.7169243387305
 20
-150.7766709692503
 30
0.0
 10
127.6959092562705
 20
-150.7766709692503
 30
0.0
 10
127.5160752719404
 20
-150.772536854668
 30
0.0
 10
127.4843803934761
 20
-150.9268771324071
 30
0.0
 10
127.4399386617164
 20
-151.007492366762
 30
0.0
 10
127.3954969299567
 20
-151.0770832955641
 30
0.0
 10
127.5160752719404
 20
-151.1363389379104
 30
0.0
 10
127.6218397033376
 20
-151.2042073189698
 30
0.0
 10
127.7255370774436
 20
-151.2865451010672
 30
0.0
 10
127.7255370774436
 20
-151.2865451010672
 30
0.0
 10
127.607025792751
 20
-151.4536322321019
 30
0.0
 10
127.607025792751
 20
-151.4536322321019
 30
0.0
 10
127.5835991434513
 20
-151.434684206933
 30
0.0
 10
127.5708522901559
 20
-151.4260714682198
 30
0.0
 10
127.4588866868852
 20
-151.3416666288312
 30
0.0
 10
127.4103108405432
 20
-151.3034260689449
 30
0.0
 10
127.3510551981969
 20
-151.2675970758984
 30
0.0
 10
127.2704399638421
 20
-151.2231553441386
 30
0.0
 10
127.0589111010478
 20
-151.4091905003421
 30
0.0
 10
126.8539279196754
 20
-151.4326171496418
 30
0.0
 10
126.5638508798174
 20
-151.462244970815
 30
0.0
 10
126.5638508798174
 20
-151.462244970815
 30
0.0
 10
126.4601535057113
 20
-151.2824109864849
 30
0.0
 10
126.4601535057113
 20
-151.2824109864849
 30
0.0
 10
126.7777913094514
 20
-151.2782768719026
 30
0.0
 10
126.9531466696506
 20
-151.2527831653118
 30
0.0
 10
127.1054198900986
 20
-151.1428846193323
 30
0.0
 10
126.986908605406
 20
-151.0918972061506
 30
0.0
 10
126.8983696514351
 20
-151.0643364422686
 30
0.0
 10
126.86219614884
 20
-151.0519340985217
 30
0.0
 10
126.8432481236711
 20
-151.0791503528552
 30
0.0
 10
126.8284342130845
 20
-151.0984428875726
 30
0.0
 10
126.8008734492025
 20
-151.1322048233281
 30
0.0
 10
126.8008734492025
 20
-151.1322048233281
 30
0.0
 10
126.6041584969948
 20
-151.049522531682
 30
0.0
 10
126.6041584969948
 20
-151.049522531682
 30
0.0
 10
126.6864962790922
 20
-150.9692518068757
 30
0.0
 10
126.7481634882782
 20
-150.8741671714829
 30
0.0
 10
126.8050075637848
 20
-150.772536854668
 30
0.0
 10
126.614838292999
 20
-150.7766709692503
 30
0.0
 10
126.5934787009905
 20
-150.7766709692503
 30
0.0
 10
126.511140918893
 20
-150.7811495933811
 30
0.0
 10
126.511140918893
 20
-150.7811495933811
 30
0.0
 10
126.511140918893
 20
-150.6033826663422
 30
0.0
 10
126.511140918893
 20
-150.6033826663422
 30
0.0
 10
126.6506672860457
 20
-150.6095838382156
 30
0.0
 10
126.8601290915488
 20
-150.6137179527979
 30
0.0
 10
126.8856227981397
 20
-150.6137179527979
 30
0.0
 10
126.9025037660174
 20
-150.5799560170425
 30
0.0
 10
126.9572807842329
 20
-150.4593776750587
 30
0.0
 10
126.9765733189503
 20
-150.3853081221259
 30
0.0
 10
126.9572807842329
 20
-150.3853081221259
 30
0.0
 10
126.7798583667425
 20
-150.3918538035479
 30
0.0
 10
126.5852104718259
 20
-150.4046006568433
 30
0.0
 10
126.5852104718259
 20
-150.4046006568433
 30
0.0
 10
126.5852104718259
 20
-150.5375813425739
 30
0.0
 10
126.5852104718259
 20
-150.5375813425739
 30
0.0
 10
126.5366346254839
 20
-150.5630750491647
 30
0.0
 10
126.4773789831376
 20
-150.5947699276291
 30
0.0
 10
126.3440537878584
 20
-150.6605712513973
 30
0.0
 10
126.3440537878584
 20
-150.6605712513973
 30
0.0
 10
126.3440537878584
 20
-150.8062987904234
 30
0.0
 10
126.3440537878584
 20
-150.8062987904234
 30
0.0
 10
126.3440537878584
 20
-150.8062987904234
 30
0.0
 10
126.3440537878584
 20
-151.2737982477718
 30
0.0
 10
126.3440537878584
 20
-151.2737982477718
 30
0.0
 10
126.3440537878584
 20
-151.4009222711775
 30
0.0
 10
126.3078802852633
 20
-151.4601779135238
 30
0.0
 10
126.0243489268272
 20
-151.4515651748107
 30
0.0
 10
126.0243489268272
 20
-151.4515651748107
 30
0.0
 10
125.9209960622697
 20
-151.2441704265986
 30
0.0
 10
125.9209960622697
 20
-151.2441704265986
 30
0.0
 10
125.9843858191983
 20
-151.2569172798941
 30
0.0
 10
126.0329616655403
 20
-151.2610513944764
 30
0.0
 10
126.0732692827178
 20
-151.2610513944764
 30
0.0
 10
126.1494058929418
 20
-151.2610513944764
 30
0.0
 10
126.1597411793975
 20
-151.2379692547252
 30
0.0
 10
126.1597411793975
 20
-151.1725124405055
 30
0.0
 10
126.1597411793975
 20
-151.1725124405055
 30
0.0
 10
126.1597411793975
 20
-150.7429090334948
 30
0.0
 10
126.1597411793975
 20
-150.7429090334948
 30
0.0
 10
126.0625894867135
 20
-150.7832166506722
 30
0.0
 10
126.0457085188358
 20
-150.7894178225457
 30
0.0
 10
125.9991997297849
 20
-150.8083658477145
 30
0.0
 10
125.9950656152026
 20
-150.8297254397231
 30
0.0
 10
125.9905869910718
 20
-150.8593532608963
 30
0.0
 10
125.9716389659029
 20
-150.8593532608963
 30
0.0
 10
125.9630262271898
 20
-150.8593532608963
 30
0.0
 10
125.952690940734
 20
-150.8552191463139
 30
0.0
 10
125.946145259312
 20
-150.8317924970143
 30
0.0
 10
125.946145259312
 20
-150.8317924970143
 30
0.0
 10
125.8934352983877
 20
-150.6392116593888
 30
0.0
 10
125.8934352983877
 20
-150.6392116593888
 30
0.0
 10
126.0391628374138
 20
-150.5927028703379
 30
0.0
 10
126.1049641611821
 20
-150.5696207305867
 30
0.0
 10
126.1597411793975
 20
-150.5482611385782
 30
0.0
 10
126.1597411793975
 20
-150.5482611385782
 30
0.0
 10
126.1597411793975
 20
-150.1358832089938
 30
0.0
 10
126.1597411793975
 20
-150.1358832089938
 30
0.0
 10
126.1597411793975
 20
-150.1358832089938
 30
0.0
 10
126.1070312184732
 20
-150.1358832089938
 30
0.0
 10
126.1070312184732
 20
-150.1358832089938
 30
0.0
 10
126.1070312184732
 20
-150.1358832089938
 30
0.0
 10
126.0288275509581
 20
-150.1358832089938
 30
0.0
 10
126.0288275509581
 20
-150.1358832089938
 30
0.0
 10
125.9609591698986
 20
-150.1358832089938
 30
0.0
 10
125.952690940734
 20
-150.1358832089938
 30
0.0
 10
125.9165174381389
 20
-150.1420843808672
 30
0.0
 10
125.9165174381389
 20
-150.1420843808672
 30
0.0
 10
125.9165174381389
 20
-149.9474364859506
 30
0.0
 10
125.9165174381389
 20
-149.9474364859506
 30
0.0
 10
125.9440782020209
 20
-149.9539821673726
 30
0.0
 10
125.952690940734
 20
-149.9539821673726
 30
0.0
 10
126.0222818695361
 20
-149.9539821673726
 30
0.0
 10
126.0222818695361
 20
-149.9539821673726
 30
0.0
 10
126.1556070648153
 20
-149.9539821673726
 30
0.0
 10
126.1556070648153
 20
-149.9539821673726
 30
0.0
 10
126.1556070648153
 20
-149.884046729022
 30
0.0
 10
126.1556070648153
 20
-149.801364437376
 30
0.0
 10
126.1535400075241
 20
-149.7972303227937
 30
0.0
 10
126.144927268811
 20
-149.6173963384637
 30
0.0
 10
126.144927268811
 20
-149.5984483132948
 30
0.0
 10
126.1428602115198
 20
-149.5519395242439
 30
0.0
 10
126.1428602115198
 20
-149.5519395242439
 30
0.0
 10
126.358867698445
 20
-149.5602077534085
 30
0.0
 10
126.358867698445
 20
-149.5602077534085
 30
0.0
 10
126.3692029849007
 20
-149.5602077534085
 30
0.0
 10
126.3905625769093
 20
-149.5626193202482
 30
0.0
 10
126.3905625769093
 20
-149.5795002881259
 30
0.0
 10
126.3905625769093
 20
-149.5984483132948
 30
0.0
 10
126.3757486663227
 20
-149.6091281092991
 30
0.0
 10
126.3502549597319
 20
-149.628076134468
 30
0.0
 10
126.3502549597319
 20
-149.6787190381011
 30
0.0
 10
126.3440537878584
 20
-149.9071288687732
 30
0.0
 10
126.3461208451496
 20
-149.9539821673726
 30
0.0
 10
126.4749674162979
 20
-149.9539821673726
 30
0.0
 10
126.4877142695933
 20
-149.9539821673726
 30
0.0
 10
126.5852104718259
 20
-149.9453694286595
 30
0.0
 10
126.5852104718259
 20
-149.9453694286595
 30
0.0
 10
126.5852104718259
 20
-150.1400173235761
 30
0.0
 10
126.5852104718259
 20
-150.1400173235761
 30
0.0
 10
126.5469699119396
 20
-150.137950266285
 30
0.0
 10
126.4794460404287
 20
-150.1338161517026
 30
0.0
 10
126.3440537878584
 20
-150.1358832089938
 30
0.0
 10
126.3440537878584
 20
-150.1358832089938
 30
0.0
 10
126.3440537878584
 20
-150.4741915856453
 30
0.0
 10
126.3440537878584
 20
-150.4741915856453
 30
0.0
 10
126.3988308060739
 20
-150.4511094458941
 30
0.0
 10
126.4646321298422
 20
-150.4235486820121
 30
0.0
 10
126.5132079761842
 20
-150.4001220327125
 30
0.0
 10
126.5132079761842
 20
-150.4001220327125
 30
0.0
 10
126.5132079761842
 20
-150.2223551056736
 30
0.0
 10
126.5132079761842
 20
-150.2223551056736
 30
0.0
 10
126.6275851462945
 20
-150.235101958969
 30
0.0
 10
126.7457519214385
 20
-150.235101958969
 30
0.0
 10
126.86219614884
 20
-150.235101958969
 30
0.0
 10
126.8391140090888
 20
-150.1400173235761
 30
0.0
 10
126.8115532452068
 20
-150.0573350319301
 30
0.0
 10
126.7481634882782
 20
-149.9243543461994
 30
0.0
 10
126.7037217565185
 20
-149.9264214034906
 30
0.0
 10
126.6210394648725
 20
-149.9305555180729
 30
0.0
 10
126.5831434145348
 20
-149.932622575364
 30
0.0
 10
126.5831434145348
 20
-149.932622575364
 30
0.0
 10
126.5831434145348
 20
-149.752788591034
 30
0.0
 10
126.5831434145348
 20
-149.752788591034
 30
0.0
 10
126.7078558711008
 20
-149.7614013297471
 30
0.0
 10
126.8811441740089
 20
-149.7655354443294
 30
0.0
 10
126.9638264656548
 20
-149.7655354443294
 30
0.0
 10
126.9638264656548
 20
-149.7655354443294
 30
0.0
 10
127.0461642477523
 20
-149.7655354443294
 30
0.0
 10
127.0461642477523
 20
-149.7655354443294
 30
0.0
 10
127.0461642477523
 20
-149.6025824278771
 30
0.0
 10
127.0461642477523
 20
-149.5922471414214
 30
0.0
 10
127.0440971904612
 20
-149.5371256136574
 30
0.0
 10
127.0440971904612
 20
-149.5371256136574
 30
0.0
 10
127.2683729065509
 20
-149.5626193202482
 30
0.0
 10
127.2683729065509
 20
-149.5626193202482
 30
0.0
 10
127.2725070211332
 20
-149.5626193202482
 30
0.0
 10
127.2938666131418
 20
-149.5646863775394
 30
0.0
 10
127.2938666131418
 20
-149.5815673454171
 30
0.0
 10
127.2938666131418
 20
-149.5963812560037
 30
0.0
 10
127.2831868171375
 20
-149.6046494851683
 30
0.0
 10
127.2556260532555
 20
-149.6194633957548
 30
0.0
 10
127.2494248813821
 20
-149.6852647195231
 30
0.0
 10
127.2473578240909
 20
-149.7062798019831
 30
0.0
 10
127.2473578240909
 20
-149.7655354443294
 30
0.0
 10
127.2473578240909
 20
-149.7655354443294
 30
0.0
 10
127.3424424594838
 20
-149.7655354443294
 30
0.0
 10
127.3424424594838
 20
-149.7655354443294
 30
0.0
 10
127.4251247511298
 20
-149.7655354443294
 30
0.0
 10
127.5984130540379
 20
-149.7614013297471
 30
0.0
 10
127.7231255106039
 20
-149.752788591034
 30
0.0
 10
127.7231255106039
 20
-149.752788591034
 30
0.0
 10
127.7231255106039
 20
-149.932622575364
 30
0.0
 10
127.7231255106039
 20
-149.932622575364
 30
0.0
 10
127.6934976894308
 20
-149.9305555180729
 30
0.0
 10
127.5753309142867
 20
-149.9264214034906
 30
0.0
 10
127.5350232971093
 20
-149.9243543461994
 30
0.0
 10
127.5202093865227
 20
-149.9749972498326
 30
0.0
 10
127.4864474507673
 20
-150.0869628531033
 30
0.0
 10
127.420646126999
 20
-150.2268337298044
 30
0.0
 10
127.4630208014676
 20
-150.2268337298044
 30
0.0
 10
127.7403509880302
 20
-150.207541195087
 30
0.0
 10
127.8016736876676
 20
-150.2054741377958
 30
0.0
 10
127.8016736876676
 20
-150.2054741377958
 30
0.0
 10
127.8016736876676
 20
-150.3897867462567
 30
0.0
 10
127.8016736876676
 20
-150.3897867462567
 30
0.0
 10
127.7720458664945
 20
-150.3897867462567
 30
0.0
 10
127.7551648986168
 20
-150.3853081221259
 30
0.0
 10
127.5922118821644
 20
-150.3853081221259
 30
0.0
  0
HATCH
  5
157
330
150
100
AcDbEntity
  8
レイヤー 1
 62
    18
420
        0
440
 33554687
100
AcDbHatch
 10
0.0
 20
0.0
 30
0.0
210
0.0
220
0.0
230
1.0
  2
SOLID
 70
     1
 71
     1
 91
        3
 92
        1
 93
        1
 72
     4
 94
        3
 73
     0
 74
     0
 95
       17
 96
       13
 40
0.0
 40
0.0
 40
0.0
 40
0.0
 40
1.0
 40
1.0
 40
1.0
 40
2.0
 40
2.0
 40
2.0
 40
3.0
 40
3.0
 40
3.0
 40
4.0
 40
4.0
 40
4.0
 40
4.0
 10
127.0272162225835
 20
-150.7704697973768
 10
127.0103352547057
 20
-150.8000976185499
 10
126.9596923510726
 20
-150.8931151966517
 10
126.9490125550683
 20
-150.9120632218206
 10
127.1395263354026
 20
-150.9713188641669
 10
127.1605414178626
 20
-150.9778645455889
 10
127.2325439135044
 20
-151.0050807999223
 10
127.2873209317198
 20
-150.9186089032426
 10
127.3107475810195
 20
-150.8445393503097
 10
127.3255614916061
 20
-150.7704697973768
 10
127.3255614916061
 20
-150.7704697973768
 10
127.0272162225835
 20
-150.7704697973768
 10
127.0272162225835
 20
-150.7704697973768
 97
        0
 97
        1
330
154
 92
        1
 93
        1
 72
     4
 94
        3
 73
     0
 74
     0
 95
       20
 96
       16
 40
0.0
 40
0.0
 40
0.0
 40
0.0
 40
1.0
 40
1.0
 40
1.0
 40
2.0
 40
2.0
 40
2.0
 40
3.0
 40
3.0
 40
3.0
 40
4.0
 40
4.0
 40
4.0
 40
5.0
 40
5.0
 40
5.0
 40
5.0
 10
126.9638264656548
 20
-149.9198757220686
 10
126.9638264656548
 20
-149.9198757220686
 10
126.9321315871906
 20
-149.9198757220686
 10
126.9321315871906
 20
-149.9198757220686
 10
126.9786403762414
 20
-150.0194389815924
 10
127.0103352547057
 20
-150.0997097063987
 10
127.0440971904612
 20
-150.2268337298044
 10
127.0440971904612
 20
-150.2268337298044
 10
127.2514919386732
 20
-150.2268337298044
 10
127.2514919386732
 20
-150.2268337298044
 10
127.2831868171375
 20
-150.1338161517026
 10
127.3066134664372
 20
-150.0490668027655
 10
127.3296956061884
 20
-149.9198757220686
 10
127.3296956061884
 20
-149.9198757220686
 10
126.9638264656548
 20
-149.9198757220686
 10
126.9638264656548
 20
-149.9198757220686
 97
        0
 97
        1
330
155
 92
        1
 93
        1
 72
     4
 94
        3
 73
     0
 74
     0
 95
      242
 96
      238
 40
0.0
 40
0.0
 40
0.0
 40
0.0
 40
1.0
 40
1.0
 40
1.0
 40
2.0
 40
2.0
 40
2.0
 40
3.0
 40
3.0
 40
3.0
 40
4.0
 40
4.0
 40
4.0
 40
5.0
 40
5.0
 40
5.0
 40
6.0
 40
6.0
 40
6.0
 40
7.0
 40
7.0
 40
7.0
 40
8.0
 40
8.0
 40
8.0
 40
9.0
 40
9.0
 40
9.0
 40
10.0
 40
10.0
 40
10.0
 40
11.0
 40
11.0
 40
11.0
 40
12.0
 40
12.0
 40
12.0
 40
13.0
 40
13.0
 40
13.0
 40
14.0
 40
14.0
 40
14.0
 40
15.0
 40
15.0
 40
15.0
 40
16.0
 40
16.0
 40
16.0
 40
17.0
 40
17.0
 40
17.0
 40
18.0
 40
18.0
 40
18.0
 40
19.0
 40
19.0
 40
19.0
 40
20.0
 40
20.0
 40
20.0
 40
21.0
 40
21.0
 40
21.0
 40
22.0
 40
22.0
 40
22.0
 40
23.0
 40
23.0
 40
23.0
 40
24.0
 40
24.0
 40
24.0
 40
25.0
 40
25.0
 40
25.0
 40
26.0
 40
26.0
 40
26.0
 40
27.0
 40
27.0
 40
27.0
 40
28.0
 40
28.0
 40
28.0
 40
29.0
 40
29.0
 40
29.0
 40
30.0
 40
30.0
 40
30.0
 40
31.0
 40
31.0
 40
31.0
 40
32.0
 40
32.0
 40
32.0
 40
33.0
 40
33.0
 40
33.0
 40
34.0
 40
34.0
 40
34.0
 40
35.0
 40
35.0
 40
35.0
 40
36.0
 40
36.0
 40
36.0
 40
37.0
 40
37.0
 40
37.0
 40
38.0
 40
38.0
 40
38.0
 40
39.0
 40
39.0
 40
39.0
 40
40.0
 40
40.0
 40
40.0
 40
41.0
 40
41.0
 40
41.0
 40
42.0
 40
42.0
 40
42.0
 40
43.0
 40
43.0
 40
43.0
 40
44.0
 40
44.0
 40
44.0
 40
45.0
 40
45.0
 40
45.0
 40
46.0
 40
46.0
 40
46.0
 40
47.0
 40
47.0
 40
47.0
 40
48.0
 40
48.0
 40
48.0
 40
49.0
 40
49.0
 40
49.0
 40
50.0
 40
50.0
 40
50.0
 40
51.0
 40
51.0
 40
51.0
 40
52.0
 40
52.0
 40
52.0
 40
53.0
 40
53.0
 40
53.0
 40
54.0
 40
54.0
 40
54.0
 40
55.0
 40
55.0
 40
55.0
 40
56.0
 40
56.0
 40
56.0
 40
57.0
 40
57.0
 40
57.0
 40
58.0
 40
58.0
 40
58.0
 40
59.0
 40
59.0
 40
59.0
 40
60.0
 40
60.0
 40
60.0
 40
61.0
 40
61.0
 40
61.0
 40
62.0
 40
62.0
 40
62.0
 40
63.0
 40
63.0
 40
63.0
 40
64.0
 40
64.0
 40
64.0
 40
65.0
 40
65.0
 40
65.0
 40
66.0
 40
66.0
 40
66.0
 40
67.0
 40
67.0
 40
67.0
 40
68.0
 40
68.0
 40
68.0
 40
69.0
 40
69.0
 40
69.0
 40
70.0
 40
70.0
 40
70.0
 40
71.0
 40
71.0
 40
71.0
 40
72.0
 40
72.0
 40
72.0
 40
73.0
 40
73.0
 40
73.0
 40
74.0
 40
74.0
 40
74.0
 40
75.0
 40
75.0
 40
75.0
 40
76.0
 40
76.0
 40
76.0
 40
77.0
 40
77.0
 40
77.0
 40
78.0
 40
78.0
 40
78.0
 40
79.0
 40
79.0
 40
79.0
 40
79.0
 10
127.5922118821644
 20
-150.3853081221259
 10
127.5922118821644
 20
-150.3853081221259
 10
127.3383083449015
 20
-150.3853081221259
 10
127.3383083449015
 20
-150.3853081221259
 10
127.3383083449015
 20
-150.3853081221259
 10
127.0609781583389
 20
-150.3853081221259
 10
127.0609781583389
 20
-150.3853081221259
 10
127.0609781583389
 20
-150.3853081221259
 10
127.1881021817446
 20
-150.4276827965944
 10
127.1881021817446
 20
-150.4276827965944
 10
127.1987819777489
 20
-150.4318169111767
 10
127.2111843214958
 20
-150.4383625925987
 10
127.2111843214958
 20
-150.4511094458941
 10
127.2111843214958
 20
-150.4721245283542
 10
127.1794894430315
 20
-150.4783257002276
 10
127.1584743605715
 20
-150.4828043243584
 10
127.1477945645672
 20
-150.5058864641096
 10
127.118166743394
 20
-150.5716877878779
 10
127.0992187182252
 20
-150.6161295196376
 10
127.0992187182252
 20
-150.6161295196376
 10
127.3700032233658
 20
-150.6161295196376
 10
127.3700032233658
 20
-150.6161295196376
 10
127.4609537441764
 20
-150.6161295196376
 10
127.6576686963842
 20
-150.6116508955068
 10
127.7992621208279
 20
-150.6033826663422
 10
127.7992621208279
 20
-150.6033826663422
 10
127.7992621208279
 20
-150.7811495933811
 10
127.7992621208279
 20
-150.7811495933811
 10
127.7169243387305
 20
-150.7766709692503
 10
127.6959092562705
 20
-150.7766709692503
 10
127.5160752719404
 20
-150.772536854668
 10
127.4843803934761
 20
-150.9268771324071
 10
127.4399386617164
 20
-151.007492366762
 10
127.3954969299567
 20
-151.0770832955641
 10
127.5160752719404
 20
-151.1363389379104
 10
127.6218397033376
 20
-151.2042073189698
 10
127.7255370774436
 20
-151.2865451010672
 10
127.7255370774436
 20
-151.2865451010672
 10
127.607025792751
 20
-151.4536322321019
 10
127.607025792751
 20
-151.4536322321019
 10
127.5835991434513
 20
-151.434684206933
 10
127.5708522901559
 20
-151.4260714682198
 10
127.4588866868852
 20
-151.3416666288312
 10
127.4103108405432
 20
-151.3034260689449
 10
127.3510551981969
 20
-151.2675970758984
 10
127.2704399638421
 20
-151.2231553441386
 10
127.0589111010478
 20
-151.4091905003421
 10
126.8539279196754
 20
-151.4326171496418
 10
126.5638508798174
 20
-151.462244970815
 10
126.5638508798174
 20
-151.462244970815
 10
126.4601535057113
 20
-151.2824109864849
 10
126.4601535057113
 20
-151.2824109864849
 10
126.7777913094514
 20
-151.2782768719026
 10
126.9531466696506
 20
-151.2527831653118
 10
127.1054198900986
 20
-151.1428846193323
 10
126.986908605406
 20
-151.0918972061506
 10
126.8983696514351
 20
-151.0643364422686
 10
126.86219614884
 20
-151.0519340985217
 10
126.8432481236711
 20
-151.0791503528552
 10
126.8284342130845
 20
-151.0984428875726
 10
126.8008734492025
 20
-151.1322048233281
 10
126.8008734492025
 20
-151.1322048233281
 10
126.6041584969948
 20
-151.049522531682
 10
126.6041584969948
 20
-151.049522531682
 10
126.6864962790922
 20
-150.9692518068757
 10
126.7481634882782
 20
-150.8741671714829
 10
126.8050075637848
 20
-150.772536854668
 10
126.614838292999
 20
-150.7766709692503
 10
126.5934787009905
 20
-150.7766709692503
 10
126.511140918893
 20
-150.7811495933811
 10
126.511140918893
 20
-150.7811495933811
 10
126.511140918893
 20
-150.6033826663422
 10
126.511140918893
 20
-150.6033826663422
 10
126.6506672860457
 20
-150.6095838382156
 10
126.8601290915488
 20
-150.6137179527979
 10
126.8856227981397
 20
-150.6137179527979
 10
126.9025037660174
 20
-150.5799560170425
 10
126.9572807842329
 20
-150.4593776750587
 10
126.9765733189503
 20
-150.3853081221259
 10
126.9572807842329
 20
-150.3853081221259
 10
126.7798583667425
 20
-150.3918538035479
 10
126.5852104718259
 20
-150.4046006568433
 10
126.5852104718259
 20
-150.4046006568433
 10
126.5852104718259
 20
-150.5375813425739
 10
126.5852104718259
 20
-150.5375813425739
 10
126.5366346254839
 20
-150.5630750491647
 10
126.4773789831376
 20
-150.5947699276291
 10
126.3440537878584
 20
-150.6605712513973
 10
126.3440537878584
 20
-150.6605712513973
 10
126.3440537878584
 20
-150.8062987904234
 10
126.3440537878584
 20
-150.8062987904234
 10
126.3440537878584
 20
-150.8062987904234
 10
126.3440537878584
 20
-151.2737982477718
 10
126.3440537878584
 20
-151.2737982477718
 10
126.3440537878584
 20
-151.4009222711775
 10
126.3078802852633
 20
-151.4601779135238
 10
126.0243489268272
 20
-151.4515651748107
 10
126.0243489268272
 20
-151.4515651748107
 10
125.9209960622697
 20
-151.2441704265986
 10
125.9209960622697
 20
-151.2441704265986
 10
125.9843858191983
 20
-151.2569172798941
 10
126.0329616655403
 20
-151.2610513944764
 10
126.0732692827178
 20
-151.2610513944764
 10
126.1494058929418
 20
-151.2610513944764
 10
126.1597411793975
 20
-151.2379692547252
 10
126.1597411793975
 20
-151.1725124405055
 10
126.1597411793975
 20
-151.1725124405055
 10
126.1597411793975
 20
-150.7429090334948
 10
126.1597411793975
 20
-150.7429090334948
 10
126.0625894867135
 20
-150.7832166506722
 10
126.0457085188358
 20
-150.7894178225457
 10
125.9991997297849
 20
-150.8083658477145
 10
125.9950656152026
 20
-150.8297254397231
 10
125.9905869910718
 20
-150.8593532608963
 10
125.9716389659029
 20
-150.8593532608963
 10
125.9630262271898
 20
-150.8593532608963
 10
125.952690940734
 20
-150.8552191463139
 10
125.946145259312
 20
-150.8317924970143
 10
125.946145259312
 20
-150.8317924970143
 10
125.8934352983877
 20
-150.6392116593888
 10
125.8934352983877
 20
-150.6392116593888
 10
126.0391628374138
 20
-150.5927028703379
 10
126.1049641611821
 20
-150.5696207305867
 10
126.1597411793975
 20
-150.5482611385782
 10
126.1597411793975
 20
-150.5482611385782
 10
126.1597411793975
 20
-150.1358832089938
 10
126.1597411793975
 20
-150.1358832089938
 10
126.1597411793975
 20
-150.1358832089938
 10
126.1070312184732
 20
-150.1358832089938
 10
126.1070312184732
 20
-150.1358832089938
 10
126.1070312184732
 20
-150.1358832089938
 10
126.0288275509581
 20
-150.1358832089938
 10
126.0288275509581
 20
-150.1358832089938
 10
125.9609591698986
 20
-150.1358832089938
 10
125.952690940734
 20
-150.1358832089938
 10
125.9165174381389
 20
-150.1420843808672
 10
125.9165174381389
 20
-150.1420843808672
 10
125.9165174381389
 20
-149.9474364859506
 10
125.9165174381389
 20
-149.9474364859506
 10
125.9440782020209
 20
-149.9539821673726
 10
125.952690940734
 20
-149.9539821673726
 10
126.0222818695361
 20
-149.9539821673726
 10
126.0222818695361
 20
-149.9539821673726
 10
126.1556070648153
 20
-149.9539821673726
 10
126.1556070648153
 20
-149.9539821673726
 10
126.1556070648153
 20
-149.884046729022
 10
126.1556070648153
 20
-149.801364437376
 10
126.1535400075241
 20
-149.7972303227937
 10
126.144927268811
 20
-149.6173963384637
 10
126.144927268811
 20
-149.5984483132948
 10
126.1428602115198
 20
-149.5519395242439
 10
126.1428602115198
 20
-149.5519395242439
 10
126.358867698445
 20
-149.5602077534085
 10
126.358867698445
 20
-149.5602077534085
 10
126.3692029849007
 20
-149.5602077534085
 10
126.3905625769093
 20
-149.5626193202482
 10
126.3905625769093
 20
-149.5795002881259
 10
126.3905625769093
 20
-149.5984483132948
 10
126.3757486663227
 20
-149.6091281092991
 10
126.3502549597319
 20
-149.628076134468
 10
126.3502549597319
 20
-149.6787190381011
 10
126.3440537878584
 20
-149.9071288687732
 10
126.3461208451496
 20
-149.9539821673726
 10
126.4749674162979
 20
-149.9539821673726
 10
126.4877142695933
 20
-149.9539821673726
 10
126.5852104718259
 20
-149.9453694286595
 10
126.5852104718259
 20
-149.9453694286595
 10
126.5852104718259
 20
-150.1400173235761
 10
126.5852104718259
 20
-150.1400173235761
 10
126.5469699119396
 20
-150.137950266285
 10
126.4794460404287
 20
-150.1338161517026
 10
126.3440537878584
 20
-150.1358832089938
 10
126.3440537878584
 20
-150.1358832089938
 10
126.3440537878584
 20
-150.4741915856453
 10
126.3440537878584
 20
-150.4741915856453
 10
126.3988308060739
 20
-150.4511094458941
 10
126.4646321298422
 20
-150.4235486820121
 10
126.5132079761842
 20
-150.4001220327125
 10
126.5132079761842
 20
-150.4001220327125
 10
126.5132079761842
 20
-150.2223551056736
 10
126.5132079761842
 20
-150.2223551056736
 10
126.6275851462945
 20
-150.235101958969
 10
126.7457519214385
 20
-150.235101958969
 10
126.86219614884
 20
-150.235101958969
 10
126.8391140090888
 20
-150.1400173235761
 10
126.8115532452068
 20
-150.0573350319301
 10
126.7481634882782
 20
-149.9243543461994
 10
126.7037217565185
 20
-149.9264214034906
 10
126.6210394648725
 20
-149.9305555180729
 10
126.5831434145348
 20
-149.932622575364
 10
126.5831434145348
 20
-149.932622575364
 10
126.5831434145348
 20
-149.752788591034
 10
126.5831434145348
 20
-149.752788591034
 10
126.7078558711008
 20
-149.7614013297471
 10
126.8811441740089
 20
-149.7655354443294
 10
126.9638264656548
 20
-149.7655354443294
 10
126.9638264656548
 20
-149.7655354443294
 10
127.0461642477523
 20
-149.7655354443294
 10
127.0461642477523
 20
-149.7655354443294
 10
127.0461642477523
 20
-149.6025824278771
 10
127.0461642477523
 20
-149.5922471414214
 10
127.0440971904612
 20
-149.5371256136574
 10
127.0440971904612
 20
-149.5371256136574
 10
127.2683729065509
 20
-149.5626193202482
 10
127.2683729065509
 20
-149.5626193202482
 10
127.2725070211332
 20
-149.5626193202482
 10
127.2938666131418
 20
-149.5646863775394
 10
127.2938666131418
 20
-149.5815673454171
 10
127.2938666131418
 20
-149.5963812560037
 10
127.2831868171375
 20
-149.6046494851683
 10
127.2556260532555
 20
-149.6194633957548
 10
127.2494248813821
 20
-149.6852647195231
 10
127.2473578240909
 20
-149.7062798019831
 10
127.2473578240909
 20
-149.7655354443294
 10
127.2473578240909
 20
-149.7655354443294
 10
127.3424424594838
 20
-149.7655354443294
 10
127.3424424594838
 20
-149.7655354443294
 10
127.4251247511298
 20
-149.7655354443294
 10
127.5984130540379
 20
-149.7614013297471
 10
127.7231255106039
 20
-149.752788591034
 10
127.7231255106039
 20
-149.752788591034
 10
127.7231255106039
 20
-149.932622575364
 10
127.7231255106039
 20
-149.932622575364
 10
127.6934976894308
 20
-149.9305555180729
 10
127.5753309142867
 20
-149.9264214034906
 10
127.5350232971093
 20
-149.9243543461994
 10
127.5202093865227
 20
-149.9749972498326
 10
127.4864474507673
 20
-150.0869628531033
 10
127.420646126999
 20
-150.2268337298044
 10
127.4630208014676
 20
-150.2268337298044
 10
127.7403509880302
 20
-150.207541195087
 10
127.8016736876676
 20
-150.2054741377958
 10
127.8016736876676
 20
-150.2054741377958
 10
127.8016736876676
 20
-150.3897867462567
 10
127.8016736876676
 20
-150.3897867462567
 10
127.7720458664945
 20
-150.3897867462567
 10
127.7551648986168
 20
-150.3853081221259
 10
127.5922118821644
 20
-150.3853081221259
 97
        0
 97
        1
330
156
 75
     2
 76
     1
 98
        1
 10
0.0
 20
0.0
450
        0
451
        0
460
0.0
461
0.0
452
        0
462
0.0
453
        0
470

  0
SPLINE
  5
158
330
150
100
AcDbEntity
  8
レイヤー 1
100
AcDbSpline
210
0.0
220
0.0
230
1.0
 70
    11
 71
     3
 72
    17
 73
    13
 74
     0
 42
0.0000000001
 43
0.0000000001
 40
0.0
 40
0.0
 40
0.0
 40
0.0
 40
1.0
 40
1.0
 40
1.0
 40
2.0
 40
2.0
 40
2.0
 40
3.0
 40
3.0
 40
3.0
 40
4.0
 40
4.0
 40
4.0
 40
4.0
 10
129.448429329617
 20
-151.1849147842523
 30
0.0
 10
129.448429329617
 20
-151.1849147842523
 30
0.0
 10
128.7418402455923
 20
-151.1849147842523
 30
0.0
 10
128.7418402455923
 20
-151.1849147842523
 30
0.0
 10
128.7418402455923
 20
-151.1849147842523
 30
0.0
 10
128.7418402455923
 20
-151.2992919543626
 30
0.0
 10
128.7418402455923
 20
-151.2992919543626
 30
0.0
 10
128.7418402455923
 20
-151.2992919543626
 30
0.0
 10
129.448429329617
 20
-151.2992919543626
 30
0.0
 10
129.448429329617
 20
-151.2992919543626
 30
0.0
 10
129.448429329617
 20
-151.2992919543626
 30
0.0
 10
129.448429329617
 20
-151.1849147842523
 30
0.0
 10
129.448429329617
 20
-151.1849147842523
 30
0.0
  0
SPLINE
  5
159
330
150
100
AcDbEntity
  8
レイヤー 1
100
AcDbSpline
210
0.0
220
0.0
230
1.0
 70
    11
 71
     3
 72
    17
 73
    13
 74
     0
 42
0.0000000001
 43
0.0000000001
 40
0.0
 40
0.0
 40
0.0
 40
0.0
 40
1.0
 40
1.0
 40
1.0
 40
2.0
 40
2.0
 40
2.0
 40
3.0
 40
3.0
 40
3.0
 40
4.0
 40
4.0
 40
4.0
 40
4.0
 10
129.448429329617
 20
-150.9416910429937
 30
0.0
 10
129.448429329617
 20
-150.9416910429937
 30
0.0
 10
128.7418402455923
 20
-150.9416910429937
 30
0.0
 10
128.7418402455923
 20
-150.9416910429937
 30
0.0
 10
128.7418402455923
 20
-150.9416910429937
 30
0.0
 10
128.7418402455923
 20
-151.056068213104
 30
0.0
 10
128.7418402455923
 20
-151.056068213104
 30
0.0
 10
128.7418402455923
 20
-151.056068213104
 30
0.0
 10
129.448429329617
 20
-151.056068213104
 30
0.0
 10
129.448429329617
 20
-151.056068213104
 30
0.0
 10
129.448429329617
 20
-151.056068213104
 30
0.0
 10
129.448429329617
 20
-150.9416910429937
 30
0.0
 10
129.448429329617
 20
-150.9416910429937
 30
0.0
  0
SPLINE
  5
15A
330
150
100
AcDbEntity
  8
レイヤー 1
100
AcDbSpline
210
0.0
220
0.0
230
1.0
 70
    11
 71
     3
 72
    17
 73
    13
 74
     0
 42
0.0000000001
 43
0.0000000001
 40
0.0
 40
0.0
 40
0.0
 40
0.0
 40
1.0
 40
1.0
 40
1.0
 40
2.0
 40
2.0
 40
2.0
 40
3.0
 40
3.0
 40
3.0
 40
4.0
 40
4.0
 40
4.0
 40
4.0
 10
129.448429329617
 20
-150.7091470977394
 30
0.0
 10
129.448429329617
 20
-150.7091470977394
 30
0.0
 10
128.7418402455923
 20
-150.7091470977394
 30
0.0
 10
128.7418402455923
 20
-150.7091470977394
 30
0.0
 10
128.7418402455923
 20
-150.7091470977394
 30
0.0
 10
128.7418402455923
 20
-150.8169785864277
 30
0.0
 10
128.7418402455923
 20
-150.8169785864277
 30
0.0
 10
128.7418402455923
 20
-150.8169785864277
 30
0.0
 10
129.448429329617
 20
-150.8169785864277
 30
0.0
 10
129.448429329617
 20
-150.8169785864277
 30
0.0
 10
129.448429329617
 20
-150.8169785864277
 30
0.0
 10
129.448429329617
 20
-150.7091470977394
 30
0.0
 10
129.448429329617
 20
-150.7091470977394
 30
0.0
  0
SPLINE
  5
15B
330
150
100
AcDbEntity
  8
レイヤー 1
100
AcDbSpline
210
0.0
220
0.0
230
1.0
 70
     9
 71
     3
 72
   203
 73
   199
 74
     0
 42
0.0000000001
 43
0.0000000001
 40
0.0
 40
0.0
 40
0.0
 40
0.0
 40
1.0
 40
1.0
 40
1.0
 40
2.0
 40
2.0
 40
2.0
 40
3.0
 40
3.0
 40
3.0
 40
4.0
 40
4.0
 40
4.0
 40
5.0
 40
5.0
 40
5.0
 40
6.0
 40
6.0
 40
6.0
 40
7.0
 40
7.0
 40
7.0
 40
8.0
 40
8.0
 40
8.0
 40
9.0
 40
9.0
 40
9.0
 40
10.0
 40
10.0
 40
10.0
 40
11.0
 40
11.0
 40
11.0
 40
12.0
 40
12.0
 40
12.0
 40
13.0
 40
13.0
 40
13.0
 40
14.0
 40
14.0
 40
14.0
 40
15.0
 40
15.0
 40
15.0
 40
16.0
 40
16.0
 40
16.0
 40
17.0
 40
17.0
 40
17.0
 40
18.0
 40
18.0
 40
18.0
 40
19.0
 40
19.0
 40
19.0
 40
20.0
 40
20.0
 40
20.0
 40
21.0
 40
21.0
 40
21.0
 40
22.0
 40
22.0
 40
22.0
 40
23.0
 40
23.0
 40
23.0
 40
24.0
 40
24.0
 40
24.0
 40
25.0
 40
25.0
 40
25.0
 40
26.0
 40
26.0
 40
26.0
 40
27.0
 40
27.0
 40
27.0
 40
28.0
 40
28.0
 40
28.0
 40
29.0
 40
29.0
 40
29.0
 40
30.0
 40
30.0
 40
30.0
 40
31.0
 40
31.0
 40
31.0
 40
32.0
 40
32.0
 40
32.0
 40
33.0
 40
33.0
 40
33.0
 40
34.0
 40
34.0
 40
34.0
 40
35.0
 40
35.0
 40
35.0
 40
36.0
 40
36.0
 40
36.0
 40
37.0
 40
37.0
 40
37.0
 40
38.0
 40
38.0
 40
38.0
 40
39.0
 40
39.0
 40
39.0
 40
40.0
 40
40.0
 40
40.0
 40
41.0
 40
41.0
 40
41.0
 40
42.0
 40
42.0
 40
42.0
 40
43.0
 40
43.0
 40
43.0
 40
44.0
 40
44.0
 40
44.0
 40
45.0
 40
45.0
 40
45.0
 40
46.0
 40
46.0
 40
46.0
 40
47.0
 40
47.0
 40
47.0
 40
48.0
 40
48.0
 40
48.0
 40
49.0
 40
49.0
 40
49.0
 40
50.0
 40
50.0
 40
50.0
 40
51.0
 40
51.0
 40
51.0
 40
52.0
 40
52.0
 40
52.0
 40
53.0
 40
53.0
 40
53.0
 40
54.0
 40
54.0
 40
54.0
 40
55.0
 40
55.0
 40
55.0
 40
56.0
 40
56.0
 40
56.0
 40
57.0
 40
57.0
 40
57.0
 40
58.0
 40
58.0
 40
58.0
 40
59.0
 40
59.0
 40
59.0
 40
60.0
 40
60.0
 40
60.0
 40
61.0
 40
61.0
 40
61.0
 40
62.0
 40
62.0
 40
62.0
 40
63.0
 40
63.0
 40
63.0
 40
64.0
 40
64.0
 40
64.0
 40
65.0
 40
65.0
 40
65.0
 40
66.0
 40
66.0
 40
66.0
 40
66.0
 10
129.2834092558736
 20
-150.4531765031853
 30
0.0
 10
129.2834092558736
 20
-150.4531765031853
 30
0.0
 10
128.7249592777146
 20
-150.4531765031853
 30
0.0
 10
128.7249592777146
 20
-150.4531765031853
 30
0.0
 10
128.7146239912588
 20
-150.497618234945
 30
0.0
 10
128.7060112525457
 20
-150.5293131134093
 30
0.0
 10
128.6932643992503
 20
-150.5672091637471
 30
0.0
 10
128.7187581058411
 20
-150.5672091637471
 30
0.0
 10
128.7335720164277
 20
-150.5696207305867
 30
0.0
 10
128.7397731883011
 20
-150.5696207305867
 30
0.0
 10
128.7397731883011
 20
-150.5696207305867
 30
0.0
 10
128.9282199113443
 20
-150.5696207305867
 30
0.0
 10
128.9282199113443
 20
-150.5696207305867
 30
0.0
 10
128.9282199113443
 20
-150.5696207305867
 30
0.0
 10
129.302701790591
 20
-150.5696207305867
 30
0.0
 10
129.302701790591
 20
-150.5696207305867
 30
0.0
 10
129.3533446942241
 20
-150.5696207305867
 30
0.0
 10
129.6368760526602
 20
-150.5568738772913
 30
0.0
 10
129.6685709311245
 20
-150.5568738772913
 30
0.0
 10
129.6665038738334
 20
-150.5844346411733
 30
0.0
 10
129.6644368165422
 20
-150.6033826663422
 30
0.0
 10
129.6644368165422
 20
-150.6330104875154
 30
0.0
 10
129.662369759251
 20
-150.6647053659796
 30
0.0
 10
129.662369759251
 20
-150.8000976185499
 30
0.0
 10
129.662369759251
 20
-150.827658382432
 30
0.0
 10
129.662369759251
 20
-150.827658382432
 30
0.0
 10
129.662369759251
 20
-151.0729491809818
 30
0.0
 10
129.662369759251
 20
-151.0729491809818
 30
0.0
 10
129.662369759251
 20
-151.1173909127415
 30
0.0
 10
129.6665038738334
 20
-151.3141058649492
 30
0.0
 10
129.6706379884156
 20
-151.4663790853973
 30
0.0
 10
129.6706379884156
 20
-151.4663790853973
 30
0.0
 10
129.4442952150347
 20
-151.4663790853973
 30
0.0
 10
129.4442952150347
 20
-151.4663790853973
 30
0.0
 10
129.4442952150347
 20
-151.4663790853973
 30
0.0
 10
129.4463622723259
 20
-151.4326171496418
 30
0.0
 10
129.4463622723259
 20
-151.4326171496418
 30
0.0
 10
129.4463622723259
 20
-151.4326171496418
 30
0.0
 10
128.744251812432
 20
-151.4326171496418
 30
0.0
 10
128.744251812432
 20
-151.4326171496418
 30
0.0
 10
128.744251812432
 20
-151.4326171496418
 30
0.0
 10
128.7463188697231
 20
-151.4663790853973
 30
0.0
 10
128.7463188697231
 20
-151.4663790853973
 30
0.0
 10
128.7463188697231
 20
-151.4663790853973
 30
0.0
 10
128.5282443255068
 20
-151.4663790853973
 30
0.0
 10
128.5282443255068
 20
-151.4663790853973
 30
0.0
 10
128.5323784400891
 20
-151.4112575576333
 30
0.0
 10
128.5323784400891
 20
-151.3988552138864
 30
0.0
 10
128.5389241215111
 20
-151.2844780437761
 30
0.0
 10
128.5409911788022
 20
-151.2569172798941
 30
0.0
 10
128.5430582360934
 20
-151.1235920846149
 30
0.0
 10
128.5430582360934
 20
-151.104644059446
 30
0.0
 10
128.5430582360934
 20
-151.104644059446
 30
0.0
 10
128.5430582360934
 20
-150.9017279353648
 30
0.0
 10
128.5430582360934
 20
-150.9017279353648
 30
0.0
 10
128.4035318689408
 20
-151.1511528484969
 30
0.0
 10
128.234377680615
 20
-151.2824109864849
 30
0.0
 10
128.1286132492178
 20
-151.3478678007047
 30
0.0
 10
128.1286132492178
 20
-151.3478678007047
 30
0.0
 10
127.9549804367612
 20
-151.2083414335521
 30
0.0
 10
127.9549804367612
 20
-151.2083414335521
 30
0.0
 10
128.0438639002807
 20
-151.1576985299189
 30
0.0
 10
128.1878688915641
 20
-151.0708821236906
 30
0.0
 10
128.3253282014256
 20
-150.876234228774
 30
0.0
 10
128.4162787222362
 20
-150.7491102053682
 30
0.0
 10
128.4817355364559
 20
-150.6054497236333
 30
0.0
 10
128.5154974722114
 20
-150.4531765031853
 30
0.0
 10
128.2870876415393
 20
-150.4552435604765
 30
0.0
 10
128.1072536572093
 20
-150.4614447323499
 30
0.0
 10
128.0121690218164
 20
-150.4635117896411
 30
0.0
 10
128.0121690218164
 20
-150.4635117896411
 30
0.0
 10
128.0121690218164
 20
-150.2860893721507
 30
0.0
 10
128.0121690218164
 20
-150.2860893721507
 30
0.0
 10
128.2088839740241
 20
-150.2922905440241
 30
0.0
 10
128.4924153324602
 20
-150.2964246586064
 30
0.0
 10
128.6426214956171
 20
-150.2964246586064
 30
0.0
 10
128.6426214956171
 20
-150.2964246586064
 30
0.0
 10
128.8562174157026
 20
-150.2964246586064
 30
0.0
 10
128.8562174157026
 20
-150.2964246586064
 30
0.0
 10
128.8562174157026
 20
-150.2964246586064
 30
0.0
 10
128.8562174157026
 20
-150.1885931699181
 30
0.0
 10
128.8562174157026
 20
-150.1885931699181
 30
0.0
 10
128.8562174157026
 20
-150.1885931699181
 30
0.0
 10
128.710145367128
 20
-150.1885931699181
 30
0.0
 10
128.710145367128
 20
-150.1885931699181
 30
0.0
 10
128.5409911788022
 20
-150.1885931699181
 30
0.0
 10
128.3718369904764
 20
-150.1927272845004
 30
0.0
 10
128.2047498594419
 20
-150.1992729659224
 30
0.0
 10
128.2047498594419
 20
-150.1992729659224
 30
0.0
 10
128.2047498594419
 20
-150.0280517203055
 30
0.0
 10
128.2047498594419
 20
-150.0280517203055
 30
0.0
 10
128.359090137181
 20
-150.0383870067612
 30
0.0
 10
128.5451252933845
 20
-150.0383870067612
 30
0.0
 10
128.710145367128
 20
-150.0383870067612
 30
0.0
 10
128.710145367128
 20
-150.0383870067612
 30
0.0
 10
128.8562174157026
 20
-150.0383870067612
 30
0.0
 10
128.8562174157026
 20
-150.0383870067612
 30
0.0
 10
128.8562174157026
 20
-150.0383870067612
 30
0.0
 10
128.8562174157026
 20
-149.9198757220686
 30
0.0
 10
128.8562174157026
 20
-149.9198757220686
 30
0.0
 10
128.8562174157026
 20
-149.9198757220686
 30
0.0
 10
128.7249592777146
 20
-149.9198757220686
 30
0.0
 10
128.7249592777146
 20
-149.9198757220686
 30
0.0
 10
128.6784504886637
 20
-149.9198757220686
 30
0.0
 10
128.4755343645825
 20
-149.9284884607817
 30
0.0
 10
128.4331596901139
 20
-149.9284884607817
 30
0.0
 10
128.2298990564842
 20
-149.932622575364
 30
0.0
 10
128.1537624462601
 20
-149.9346896326552
 30
0.0
 10
128.075558778745
 20
-149.9367566899463
 30
0.0
 10
128.075558778745
 20
-149.9367566899463
 30
0.0
 10
128.075558778745
 20
-149.752788591034
 30
0.0
 10
128.075558778745
 20
-149.752788591034
 30
0.0
 10
128.1899359488553
 20
-149.7614013297471
 30
0.0
 10
128.234377680615
 20
-149.7614013297471
 30
0.0
 10
128.6171277890263
 20
-149.7696695589117
 30
0.0
 10
128.5537380320976
 20
-149.6745849235188
 30
0.0
 10
128.5261772682157
 20
-149.6470241596368
 30
0.0
 10
128.490348275169
 20
-149.6111951665902
 30
0.0
 10
128.490348275169
 20
-149.6111951665902
 30
0.0
 10
128.6657036353683
 20
-149.5285128749442
 30
0.0
 10
128.6657036353683
 20
-149.5285128749442
 30
0.0
 10
128.7060112525457
 20
-149.5646863775394
 30
0.0
 10
128.7504529843054
 20
-149.6070610520079
 30
0.0
 10
128.8245225372383
 20
-149.7169595979874
 30
0.0
 10
128.8245225372383
 20
-149.7169595979874
 30
0.0
 10
128.710145367128
 20
-149.7720811257514
 30
0.0
 10
128.710145367128
 20
-149.7720811257514
 30
0.0
 10
128.710145367128
 20
-149.7720811257514
 30
0.0
 10
128.7208251631323
 20
-149.7720811257514
 30
0.0
 10
128.7208251631323
 20
-149.7720811257514
 30
0.0
 10
128.7208251631323
 20
-149.7720811257514
 30
0.0
 10
129.2434461482447
 20
-149.7720811257514
 30
0.0
 10
129.2434461482447
 20
-149.7720811257514
 30
0.0
 10
129.2434461482447
 20
-149.7720811257514
 30
0.0
 10
129.1480170033032
 20
-149.7276393939917
 30
0.0
 10
129.1480170033032
 20
-149.7276393939917
 30
0.0
 10
129.1755777671852
 20
-149.6893988341054
 30
0.0
 10
129.2327663522404
 20
-149.6091281092991
 30
0.0
 10
129.247580262827
 20
-149.5350585563662
 30
0.0
 10
129.247580262827
 20
-149.5350585563662
 30
0.0
 10
129.4611761829125
 20
-149.5984483132948
 30
0.0
 10
129.4611761829125
 20
-149.5984483132948
 30
0.0
 10
129.4697889216256
 20
-149.600515370586
 30
0.0
 10
129.4908040040856
 20
-149.6111951665902
 30
0.0
 10
129.4908040040856
 20
-149.6322102490502
 30
0.0
 10
129.4908040040856
 20
-149.6704508089365
 30
0.0
 10
129.4253471898659
 20
-149.6704508089365
 30
0.0
 10
129.406399164697
 20
-149.6704508089365
 30
0.0
 10
129.3957193686927
 20
-149.6893988341054
 30
0.0
 10
129.372292719393
 20
-149.7297064512828
 30
0.0
 10
129.3426648982199
 20
-149.7696695589117
 30
0.0
 10
129.7426404840574
 20
-149.7634683870383
 30
0.0
 10
129.7722683052305
 20
-149.7614013297471
 30
0.0
 10
129.8484049154545
 20
-149.7548556483252
 30
0.0
 10
129.8484049154545
 20
-149.7548556483252
 30
0.0
 10
129.8484049154545
 20
-149.9367566899463
 30
0.0
 10
129.8484049154545
 20
-149.9367566899463
 30
0.0
 10
129.8294568902857
 20
-149.9367566899463
 30
0.0
 10
129.8039631836948
 20
-149.9346896326552
 30
0.0
 10
129.5838215821874
 20
-149.9264214034906
 30
0.0
 10
129.5331786785542
 20
-149.9243543461994
 30
0.0
 10
129.3130370770467
 20
-149.9198757220686
 30
0.0
 10
129.268595345287
 20
-149.9198757220686
 30
0.0
 10
129.268595345287
 20
-149.9198757220686
 30
0.0
 10
129.0529323679104
 20
-149.9198757220686
 30
0.0
 10
129.0529323679104
 20
-149.9198757220686
 30
0.0
 10
129.0529323679104
 20
-149.9198757220686
 30
0.0
 10
129.0529323679104
 20
-150.0383870067612
 30
0.0
 10
129.0529323679104
 20
-150.0383870067612
 30
0.0
 10
129.0529323679104
 20
-150.0383870067612
 30
0.0
 10
129.2265651803669
 20
-150.0383870067612
 30
0.0
 10
129.2265651803669
 20
-150.0383870067612
 30
0.0
 10
129.3891736872707
 20
-150.0383870067612
 30
0.0
 10
129.5796874676051
 20
-150.0383870067612
 30
0.0
 10
129.7364393121839
 20
-150.0280517203055
 30
0.0
 10
129.7364393121839
 20
-150.0280517203055
 30
0.0
 10
129.7364393121839
 20
-150.1992729659224
 30
0.0
 10
129.7364393121839
 20
-150.1992729659224
 30
0.0
 10
129.5269775066807
 20
-150.1906602272093
 30
0.0
 10
129.330262554473
 20
-150.1885931699181
 30
0.0
 10
129.2265651803669
 20
-150.1885931699181
 30
0.0
 10
129.2265651803669
 20
-150.1885931699181
 30
0.0
 10
129.0529323679104
 20
-150.1885931699181
 30
0.0
 10
129.0529323679104
 20
-150.1885931699181
 30
0.0
 10
129.0529323679104
 20
-150.1885931699181
 30
0.0
 10
129.0529323679104
 20
-150.2964246586064
 30
0.0
 10
129.0529323679104
 20
-150.2964246586064
 30
0.0
 10
129.0529323679104
 20
-150.2964246586064
 30
0.0
 10
129.2834092558736
 20
-150.2964246586064
 30
0.0
 10
129.2834092558736
 20
-150.2964246586064
 30
0.0
 10
129.4167344511527
 20
-150.2964246586064
 30
0.0
 10
129.7043999241711
 20
-150.2922905440241
 30
0.0
 10
129.9138617296743
 20
-150.2860893721507
 30
0.0
 10
129.9138617296743
 20
-150.2860893721507
 30
0.0
 10
129.9138617296743
 20
-150.4635117896411
 30
0.0
 10
129.9138617296743
 20
-150.4635117896411
 30
0.0
 10
129.7216254015973
 20
-150.4573106177676
 30
0.0
 10
129.4084662219881
 20
-150.4531765031853
 30
0.0
 10
129.2834092558736
 20
-150.4531765031853
 30
0.0
  0
HATCH
  5
15C
330
150
100
AcDbEntity
  8
レイヤー 1
 62
    18
420
        0
440
 33554687
100
AcDbHatch
 10
0.0
 20
0.0
 30
0.0
210
0.0
220
0.0
230
1.0
  2
SOLID
 70
     1
 71
     1
 91
        4
 92
        1
 93
        1
 72
     4
 94
        3
 73
     0
 74
     0
 95
       17
 96
       13
 40
0.0
 40
0.0
 40
0.0
 40
0.0
 40
1.0
 40
1.0
 40
1.0
 40
2.0
 40
2.0
 40
2.0
 40
3.0
 40
3.0
 40
3.0
 40
4.0
 40
4.0
 40
4.0
 40
4.0
 10
129.448429329617
 20
-151.1849147842523
 10
129.448429329617
 20
-151.1849147842523
 10
128.7418402455923
 20
-151.1849147842523
 10
128.7418402455923
 20
-151.1849147842523
 10
128.7418402455923
 20
-151.1849147842523
 10
128.7418402455923
 20
-151.2992919543626
 10
128.7418402455923
 20
-151.2992919543626
 10
128.7418402455923
 20
-151.2992919543626
 10
129.448429329617
 20
-151.2992919543626
 10
129.448429329617
 20
-151.2992919543626
 10
129.448429329617
 20
-151.2992919543626
 10
129.448429329617
 20
-151.1849147842523
 10
129.448429329617
 20
-151.1849147842523
 97
        0
 97
        1
330
158
 92
        1
 93
        1
 72
     4
 94
        3
 73
     0
 74
     0
 95
       17
 96
       13
 40
0.0
 40
0.0
 40
0.0
 40
0.0
 40
1.0
 40
1.0
 40
1.0
 40
2.0
 40
2.0
 40
2.0
 40
3.0
 40
3.0
 40
3.0
 40
4.0
 40
4.0
 40
4.0
 40
4.0
 10
129.448429329617
 20
-150.9416910429937
 10
129.448429329617
 20
-150.9416910429937
 10
128.7418402455923
 20
-150.9416910429937
 10
128.7418402455923
 20
-150.9416910429937
 10
128.7418402455923
 20
-150.9416910429937
 10
128.7418402455923
 20
-151.056068213104
 10
128.7418402455923
 20
-151.056068213104
 10
128.7418402455923
 20
-151.056068213104
 10
129.448429329617
 20
-151.056068213104
 10
129.448429329617
 20
-151.056068213104
 10
129.448429329617
 20
-151.056068213104
 10
129.448429329617
 20
-150.9416910429937
 10
129.448429329617
 20
-150.9416910429937
 97
        0
 97
        1
330
159
 92
        1
 93
        1
 72
     4
 94
        3
 73
     0
 74
     0
 95
       17
 96
       13
 40
0.0
 40
0.0
 40
0.0
 40
0.0
 40
1.0
 40
1.0
 40
1.0
 40
2.0
 40
2.0
 40
2.0
 40
3.0
 40
3.0
 40
3.0
 40
4.0
 40
4.0
 40
4.0
 40
4.0
 10
129.448429329617
 20
-150.7091470977394
 10
129.448429329617
 20
-150.7091470977394
 10
128.7418402455923
 20
-150.7091470977394
 10
128.7418402455923
 20
-150.7091470977394
 10
128.7418402455923
 20
-150.7091470977394
 10
128.7418402455923
 20
-150.8169785864277
 10
128.7418402455923
 20
-150.8169785864277
 10
128.7418402455923
 20
-150.8169785864277
 10
129.448429329617
 20
-150.8169785864277
 10
129.448429329617
 20
-150.8169785864277
 10
129.448429329617
 20
-150.8169785864277
 10
129.448429329617
 20
-150.7091470977394
 10
129.448429329617
 20
-150.7091470977394
 97
        0
 97
        1
330
15A
 92
        1
 93
        1
 72
     4
 94
        3
 73
     0
 74
     0
 95
      203
 96
      199
 40
0.0
 40
0.0
 40
0.0
 40
0.0
 40
1.0
 40
1.0
 40
1.0
 40
2.0
 40
2.0
 40
2.0
 40
3.0
 40
3.0
 40
3.0
 40
4.0
 40
4.0
 40
4.0
 40
5.0
 40
5.0
 40
5.0
 40
6.0
 40
6.0
 40
6.0
 40
7.0
 40
7.0
 40
7.0
 40
8.0
 40
8.0
 40
8.0
 40
9.0
 40
9.0
 40
9.0
 40
10.0
 40
10.0
 40
10.0
 40
11.0
 40
11.0
 40
11.0
 40
12.0
 40
12.0
 40
12.0
 40
13.0
 40
13.0
 40
13.0
 40
14.0
 40
14.0
 40
14.0
 40
15.0
 40
15.0
 40
15.0
 40
16.0
 40
16.0
 40
16.0
 40
17.0
 40
17.0
 40
17.0
 40
18.0
 40
18.0
 40
18.0
 40
19.0
 40
19.0
 40
19.0
 40
20.0
 40
20.0
 40
20.0
 40
21.0
 40
21.0
 40
21.0
 40
22.0
 40
22.0
 40
22.0
 40
23.0
 40
23.0
 40
23.0
 40
24.0
 40
24.0
 40
24.0
 40
25.0
 40
25.0
 40
25.0
 40
26.0
 40
26.0
 40
26.0
 40
27.0
 40
27.0
 40
27.0
 40
28.0
 40
28.0
 40
28.0
 40
29.0
 40
29.0
 40
29.0
 40
30.0
 40
30.0
 40
30.0
 40
31.0
 40
31.0
 40
31.0
 40
32.0
 40
32.0
 40
32.0
 40
33.0
 40
33.0
 40
33.0
 40
34.0
 40
34.0
 40
34.0
 40
35.0
 40
35.0
 40
35.0
 40
36.0
 40
36.0
 40
36.0
 40
37.0
 40
37.0
 40
37.0
 40
38.0
 40
38.0
 40
38.0
 40
39.0
 40
39.0
 40
39.0
 40
40.0
 40
40.0
 40
40.0
 40
41.0
 40
41.0
 40
41.0
 40
42.0
 40
42.0
 40
42.0
 40
43.0
 40
43.0
 40
43.0
 40
44.0
 40
44.0
 40
44.0
 40
45.0
 40
45.0
 40
45.0
 40
46.0
 40
46.0
 40
46.0
 40
47.0
 40
47.0
 40
47.0
 40
48.0
 40
48.0
 40
48.0
 40
49.0
 40
49.0
 40
49.0
 40
50.0
 40
50.0
 40
50.0
 40
51.0
 40
51.0
 40
51.0
 40
52.0
 40
52.0
 40
52.0
 40
53.0
 40
53.0
 40
53.0
 40
54.0
 40
54.0
 40
54.0
 40
55.0
 40
55.0
 40
55.0
 40
56.0
 40
56.0
 40
56.0
 40
57.0
 40
57.0
 40
57.0
 40
58.0
 40
58.0
 40
58.0
 40
59.0
 40
59.0
 40
59.0
 40
60.0
 40
60.0
 40
60.0
 40
61.0
 40
61.0
 40
61.0
 40
62.0
 40
62.0
 40
62.0
 40
63.0
 40
63.0
 40
63.0
 40
64.0
 40
64.0
 40
64.0
 40
65.0
 40
65.0
 40
65.0
 40
66.0
 40
66.0
 40
66.0
 40
66.0
 10
129.2834092558736
 20
-150.4531765031853
 10
129.2834092558736
 20
-150.4531765031853
 10
128.7249592777146
 20
-150.4531765031853
 10
128.7249592777146
 20
-150.4531765031853
 10
128.7146239912588
 20
-150.497618234945
 10
128.7060112525457
 20
-150.5293131134093
 10
128.6932643992503
 20
-150.5672091637471
 10
128.7187581058411
 20
-150.5672091637471
 10
128.7335720164277
 20
-150.5696207305867
 10
128.7397731883011
 20
-150.5696207305867
 10
128.7397731883011
 20
-150.5696207305867
 10
128.9282199113443
 20
-150.5696207305867
 10
128.9282199113443
 20
-150.5696207305867
 10
128.9282199113443
 20
-150.5696207305867
 10
129.302701790591
 20
-150.5696207305867
 10
129.302701790591
 20
-150.5696207305867
 10
129.3533446942241
 20
-150.5696207305867
 10
129.6368760526602
 20
-150.5568738772913
 10
129.6685709311245
 20
-150.5568738772913
 10
129.6665038738334
 20
-150.5844346411733
 10
129.6644368165422
 20
-150.6033826663422
 10
129.6644368165422
 20
-150.6330104875154
 10
129.662369759251
 20
-150.6647053659796
 10
129.662369759251
 20
-150.8000976185499
 10
129.662369759251
 20
-150.827658382432
 10
129.662369759251
 20
-150.827658382432
 10
129.662369759251
 20
-151.0729491809818
 10
129.662369759251
 20
-151.0729491809818
 10
129.662369759251
 20
-151.1173909127415
 10
129.6665038738334
 20
-151.3141058649492
 10
129.6706379884156
 20
-151.4663790853973
 10
129.6706379884156
 20
-151.4663790853973
 10
129.4442952150347
 20
-151.4663790853973
 10
129.4442952150347
 20
-151.4663790853973
 10
129.4442952150347
 20
-151.4663790853973
 10
129.4463622723259
 20
-151.4326171496418
 10
129.4463622723259
 20
-151.4326171496418
 10
129.4463622723259
 20
-151.4326171496418
 10
128.744251812432
 20
-151.4326171496418
 10
128.744251812432
 20
-151.4326171496418
 10
128.744251812432
 20
-151.4326171496418
 10
128.7463188697231
 20
-151.4663790853973
 10
128.7463188697231
 20
-151.4663790853973
 10
128.7463188697231
 20
-151.4663790853973
 10
128.5282443255068
 20
-151.4663790853973
 10
128.5282443255068
 20
-151.4663790853973
 10
128.5323784400891
 20
-151.4112575576333
 10
128.5323784400891
 20
-151.3988552138864
 10
128.5389241215111
 20
-151.2844780437761
 10
128.5409911788022
 20
-151.2569172798941
 10
128.5430582360934
 20
-151.1235920846149
 10
128.5430582360934
 20
-151.104644059446
 10
128.5430582360934
 20
-151.104644059446
 10
128.5430582360934
 20
-150.9017279353648
 10
128.5430582360934
 20
-150.9017279353648
 10
128.4035318689408
 20
-151.1511528484969
 10
128.234377680615
 20
-151.2824109864849
 10
128.1286132492178
 20
-151.3478678007047
 10
128.1286132492178
 20
-151.3478678007047
 10
127.9549804367612
 20
-151.2083414335521
 10
127.9549804367612
 20
-151.2083414335521
 10
128.0438639002807
 20
-151.1576985299189
 10
128.1878688915641
 20
-151.0708821236906
 10
128.3253282014256
 20
-150.876234228774
 10
128.4162787222362
 20
-150.7491102053682
 10
128.4817355364559
 20
-150.6054497236333
 10
128.5154974722114
 20
-150.4531765031853
 10
128.2870876415393
 20
-150.4552435604765
 10
128.1072536572093
 20
-150.4614447323499
 10
128.0121690218164
 20
-150.4635117896411
 10
128.0121690218164
 20
-150.4635117896411
 10
128.0121690218164
 20
-150.2860893721507
 10
128.0121690218164
 20
-150.2860893721507
 10
128.2088839740241
 20
-150.2922905440241
 10
128.4924153324602
 20
-150.2964246586064
 10
128.6426214956171
 20
-150.2964246586064
 10
128.6426214956171
 20
-150.2964246586064
 10
128.8562174157026
 20
-150.2964246586064
 10
128.8562174157026
 20
-150.2964246586064
 10
128.8562174157026
 20
-150.2964246586064
 10
128.8562174157026
 20
-150.1885931699181
 10
128.8562174157026
 20
-150.1885931699181
 10
128.8562174157026
 20
-150.1885931699181
 10
128.710145367128
 20
-150.1885931699181
 10
128.710145367128
 20
-150.1885931699181
 10
128.5409911788022
 20
-150.1885931699181
 10
128.3718369904764
 20
-150.1927272845004
 10
128.2047498594419
 20
-150.1992729659224
 10
128.2047498594419
 20
-150.1992729659224
 10
128.2047498594419
 20
-150.0280517203055
 10
128.2047498594419
 20
-150.0280517203055
 10
128.359090137181
 20
-150.0383870067612
 10
128.5451252933845
 20
-150.0383870067612
 10
128.710145367128
 20
-150.0383870067612
 10
128.710145367128
 20
-150.0383870067612
 10
128.8562174157026
 20
-150.0383870067612
 10
128.8562174157026
 20
-150.0383870067612
 10
128.8562174157026
 20
-150.0383870067612
 10
128.8562174157026
 20
-149.9198757220686
 10
128.8562174157026
 20
-149.9198757220686
 10
128.8562174157026
 20
-149.9198757220686
 10
128.7249592777146
 20
-149.9198757220686
 10
128.7249592777146
 20
-149.9198757220686
 10
128.6784504886637
 20
-149.9198757220686
 10
128.4755343645825
 20
-149.9284884607817
 10
128.4331596901139
 20
-149.9284884607817
 10
128.2298990564842
 20
-149.932622575364
 10
128.1537624462601
 20
-149.9346896326552
 10
128.075558778745
 20
-149.9367566899463
 10
128.075558778745
 20
-149.9367566899463
 10
128.075558778745
 20
-149.752788591034
 10
128.075558778745
 20
-149.752788591034
 10
128.1899359488553
 20
-149.7614013297471
 10
128.234377680615
 20
-149.7614013297471
 10
128.6171277890263
 20
-149.7696695589117
 10
128.5537380320976
 20
-149.6745849235188
 10
128.5261772682157
 20
-149.6470241596368
 10
128.490348275169
 20
-149.6111951665902
 10
128.490348275169
 20
-149.6111951665902
 10
128.6657036353683
 20
-149.5285128749442
 10
128.6657036353683
 20
-149.5285128749442
 10
128.7060112525457
 20
-149.5646863775394
 10
128.7504529843054
 20
-149.6070610520079
 10
128.8245225372383
 20
-149.7169595979874
 10
128.8245225372383
 20
-149.7169595979874
 10
128.710145367128
 20
-149.7720811257514
 10
128.710145367128
 20
-149.7720811257514
 10
128.710145367128
 20
-149.7720811257514
 10
128.7208251631323
 20
-149.7720811257514
 10
128.7208251631323
 20
-149.7720811257514
 10
128.7208251631323
 20
-149.7720811257514
 10
129.2434461482447
 20
-149.7720811257514
 10
129.2434461482447
 20
-149.7720811257514
 10
129.2434461482447
 20
-149.7720811257514
 10
129.1480170033032
 20
-149.7276393939917
 10
129.1480170033032
 20
-149.7276393939917
 10
129.1755777671852
 20
-149.6893988341054
 10
129.2327663522404
 20
-149.6091281092991
 10
129.247580262827
 20
-149.5350585563662
 10
129.247580262827
 20
-149.5350585563662
 10
129.4611761829125
 20
-149.5984483132948
 10
129.4611761829125
 20
-149.5984483132948
 10
129.4697889216256
 20
-149.600515370586
 10
129.4908040040856
 20
-149.6111951665902
 10
129.4908040040856
 20
-149.6322102490502
 10
129.4908040040856
 20
-149.6704508089365
 10
129.4253471898659
 20
-149.6704508089365
 10
129.406399164697
 20
-149.6704508089365
 10
129.3957193686927
 20
-149.6893988341054
 10
129.372292719393
 20
-149.7297064512828
 10
129.3426648982199
 20
-149.7696695589117
 10
129.7426404840574
 20
-149.7634683870383
 10
129.7722683052305
 20
-149.7614013297471
 10
129.8484049154545
 20
-149.7548556483252
 10
129.8484049154545
 20
-149.7548556483252
 10
129.8484049154545
 20
-149.9367566899463
 10
129.8484049154545
 20
-149.9367566899463
 10
129.8294568902857
 20
-149.9367566899463
 10
129.8039631836948
 20
-149.9346896326552
 10
129.5838215821874
 20
-149.9264214034906
 10
129.5331786785542
 20
-149.9243543461994
 10
129.3130370770467
 20
-149.9198757220686
 10
129.268595345287
 20
-149.9198757220686
 10
129.268595345287
 20
-149.9198757220686
 10
129.0529323679104
 20
-149.9198757220686
 10
129.0529323679104
 20
-149.9198757220686
 10
129.0529323679104
 20
-149.9198757220686
 10
129.0529323679104
 20
-150.0383870067612
 10
129.0529323679104
 20
-150.0383870067612
 10
129.0529323679104
 20
-150.0383870067612
 10
129.2265651803669
 20
-150.0383870067612
 10
129.2265651803669
 20
-150.0383870067612
 10
129.3891736872707
 20
-150.0383870067612
 10
129.5796874676051
 20
-150.0383870067612
 10
129.7364393121839
 20
-150.0280517203055
 10
129.7364393121839
 20
-150.0280517203055
 10
129.7364393121839
 20
-150.1992729659224
 10
129.7364393121839
 20
-150.1992729659224
 10
129.5269775066807
 20
-150.1906602272093
 10
129.330262554473
 20
-150.1885931699181
 10
129.2265651803669
 20
-150.1885931699181
 10
129.2265651803669
 20
-150.1885931699181
 10
129.0529323679104
 20
-150.1885931699181
 10
129.0529323679104
 20
-150.1885931699181
 10
129.0529323679104
 20
-150.1885931699181
 10
129.0529323679104
 20
-150.2964246586064
 10
129.0529323679104
 20
-150.2964246586064
 10
129.0529323679104
 20
-150.2964246586064
 10
129.2834092558736
 20
-150.2964246586064
 10
129.2834092558736
 20
-150.2964246586064
 10
129.4167344511527
 20
-150.2964246586064
 10
129.7043999241711
 20
-150.2922905440241
 10
129.9138617296743
 20
-150.2860893721507
 10
129.9138617296743
 20
-150.2860893721507
 10
129.9138617296743
 20
-150.4635117896411
 10
129.9138617296743
 20
-150.4635117896411
 10
129.7216254015973
 20
-150.4573106177676
 10
129.4084662219881
 20
-150.4531765031853
 10
129.2834092558736
 20
-150.4531765031853
 97
        0
 97
        1
330
15B
 75
     2
 76
     1
 98
        1
 10
0.0
 20
0.0
450
        0
451
        0
460
0.0
461
0.0
452
        0
462
0.0
453
        0
470

  0
SPLINE
  5
15D
330
150
100
AcDbEntity
  8
レイヤー 1
100
AcDbSpline
210
0.0
220
0.0
230
1.0
 70
     9
 71
     3
 72
    29
 73
    25
 74
     0
 42
0.0000000001
 43
0.0000000001
 40
0.0
 40
0.0
 40
0.0
 40
0.0
 40
1.0
 40
1.0
 40
1.0
 40
2.0
 40
2.0
 40
2.0
 40
3.0
 40
3.0
 40
3.0
 40
4.0
 40
4.0
 40
4.0
 40
5.0
 40
5.0
 40
5.0
 40
6.0
 40
6.0
 40
6.0
 40
7.0
 40
7.0
 40
7.0
 40
8.0
 40
8.0
 40
8.0
 40
8.0
 10
131.1589192380436
 20
-149.9009276968997
 30
0.0
 10
131.1589192380436
 20
-149.9009276968997
 30
0.0
 10
130.8057969508055
 20
-149.9009276968997
 30
0.0
 10
130.8057969508055
 20
-149.9009276968997
 30
0.0
 10
130.6934868379864
 20
-149.9009276968997
 30
0.0
 10
130.5539604708337
 20
-149.9071288687732
 30
0.0
 10
130.4461289821454
 20
-149.9198757220686
 30
0.0
 10
130.4461289821454
 20
-149.9198757220686
 30
0.0
 10
130.4461289821454
 20
-149.6852647195231
 30
0.0
 10
130.4461289821454
 20
-149.6852647195231
 30
0.0
 10
130.564640266838
 20
-149.7000786301097
 30
0.0
 10
130.7486083657503
 20
-149.704212744692
 30
0.0
 10
130.8057969508055
 20
-149.704212744692
 30
0.0
 10
130.8057969508055
 20
-149.704212744692
 30
0.0
 10
131.1589192380436
 20
-149.704212744692
 30
0.0
 10
131.1589192380436
 20
-149.704212744692
 30
0.0
 10
131.178211772761
 20
-149.704212744692
 30
0.0
 10
131.3811278968422
 20
-149.704212744692
 30
0.0
 10
131.522721321286
 20
-149.6852647195231
 30
0.0
 10
131.522721321286
 20
-149.6852647195231
 30
0.0
 10
131.522721321286
 20
-149.9198757220686
 30
0.0
 10
131.522721321286
 20
-149.9198757220686
 30
0.0
 10
131.3663139862556
 20
-149.9009276968997
 30
0.0
 10
131.1758002059213
 20
-149.9009276968997
 30
0.0
 10
131.1589192380436
 20
-149.9009276968997
 30
0.0
  0
SPLINE
  5
15E
330
150
100
AcDbEntity
  8
レイヤー 1
100
AcDbSpline
210
0.0
220
0.0
230
1.0
 70
     9
 71
     3
 72
    47
 73
    43
 74
     0
 42
0.0000000001
 43
0.0000000001
 40
0.0
 40
0.0
 40
0.0
 40
0.0
 40
1.0
 40
1.0
 40
1.0
 40
2.0
 40
2.0
 40
2.0
 40
3.0
 40
3.0
 40
3.0
 40
4.0
 40
4.0
 40
4.0
 40
5.0
 40
5.0
 40
5.0
 40
6.0
 40
6.0
 40
6.0
 40
7.0
 40
7.0
 40
7.0
 40
8.0
 40
8.0
 40
8.0
 40
9.0
 40
9.0
 40
9.0
 40
10.0
 40
10.0
 40
10.0
 40
11.0
 40
11.0
 40
11.0
 40
12.0
 40
12.0
 40
12.0
 40
13.0
 40
13.0
 40
13.0
 40
14.0
 40
14.0
 40
14.0
 40
14.0
 10
131.2605495548584
 20
-150.4297498538856
 30
0.0
 10
131.2605495548584
 20
-150.4297498538856
 30
0.0
 10
131.1589192380436
 20
-150.4297498538856
 30
0.0
 10
131.1589192380436
 20
-150.4297498538856
 30
0.0
 10
131.1589192380436
 20
-150.5165662601139
 30
0.0
 10
131.1379041555836
 20
-150.9058620499471
 30
0.0
 10
130.9411892033758
 20
-151.1260036514546
 30
0.0
 10
130.7889159829278
 20
-151.2951578397804
 30
0.0
 10
130.5815212347157
 20
-151.3647487685824
 30
0.0
 10
130.4967718857786
 20
-151.3923095324644
 30
0.0
 10
130.4967718857786
 20
-151.3923095324644
 30
0.0
 10
130.302123990862
 20
-151.2252224014298
 30
0.0
 10
130.302123990862
 20
-151.2252224014298
 30
0.0
 10
130.3996201930945
 20
-151.2124755481344
 30
0.0
 10
130.5749755532938
 20
-151.1893934083832
 30
0.0
 10
130.7634222763369
 20
-151.00094668534
 30
0.0
 10
130.8374918292698
 20
-150.9289441896983
 30
0.0
 10
130.9411892033758
 20
-150.7894178225457
 30
0.0
 10
130.9411892033758
 20
-150.4297498538856
 30
0.0
 10
130.9411892033758
 20
-150.4297498538856
 30
0.0
 10
130.7103678058641
 20
-150.4297498538856
 30
0.0
 10
130.7103678058641
 20
-150.4297498538856
 30
0.0
 10
130.5243326496606
 20
-150.4297498538856
 30
0.0
 10
130.3382974934571
 20
-150.4342284780164
 30
0.0
 10
130.1519178277051
 20
-150.4486978790545
 30
0.0
 10
130.1519178277051
 20
-150.4486978790545
 30
0.0
 10
130.1519178277051
 20
-150.2289007870955
 30
0.0
 10
130.1519178277051
 20
-150.2289007870955
 30
0.0
 10
130.3403645507482
 20
-150.2437146976821
 30
0.0
 10
130.6259629664754
 20
-150.2478488122644
 30
0.0
 10
130.7103678058641
 20
-150.2478488122644
 30
0.0
 10
130.7103678058641
 20
-150.2478488122644
 30
0.0
 10
131.2605495548584
 20
-150.2478488122644
 30
0.0
 10
131.2605495548584
 20
-150.2478488122644
 30
0.0
 10
131.2794975800273
 20
-150.2478488122644
 30
0.0
 10
131.5967908742188
 20
-150.2478488122644
 30
0.0
 10
131.8255452144394
 20
-150.2289007870955
 30
0.0
 10
131.8255452144394
 20
-150.2289007870955
 30
0.0
 10
131.8255452144394
 20
-150.4486978790545
 30
0.0
 10
131.8255452144394
 20
-150.4486978790545
 30
0.0
 10
131.6370984913962
 20
-150.4342284780164
 30
0.0
 10
131.4489962779016
 20
-150.4297498538856
 30
0.0
 10
131.2605495548584
 20
-150.4297498538856
 30
0.0
  0
HATCH
  5
15F
330
150
100
AcDbEntity
  8
レイヤー 1
 62
    18
420
        0
440
 33554687
100
AcDbHatch
 10
0.0
 20
0.0
 30
0.0
210
0.0
220
0.0
230
1.0
  2
SOLID
 70
     1
 71
     1
 91
        2
 92
        1
 93
        1
 72
     4
 94
        3
 73
     0
 74
     0
 95
       29
 96
       25
 40
0.0
 40
0.0
 40
0.0
 40
0.0
 40
1.0
 40
1.0
 40
1.0
 40
2.0
 40
2.0
 40
2.0
 40
3.0
 40
3.0
 40
3.0
 40
4.0
 40
4.0
 40
4.0
 40
5.0
 40
5.0
 40
5.0
 40
6.0
 40
6.0
 40
6.0
 40
7.0
 40
7.0
 40
7.0
 40
8.0
 40
8.0
 40
8.0
 40
8.0
 10
131.1589192380436
 20
-149.9009276968997
 10
131.1589192380436
 20
-149.9009276968997
 10
130.8057969508055
 20
-149.9009276968997
 10
130.8057969508055
 20
-149.9009276968997
 10
130.6934868379864
 20
-149.9009276968997
 10
130.5539604708337
 20
-149.9071288687732
 10
130.4461289821454
 20
-149.9198757220686
 10
130.4461289821454
 20
-149.9198757220686
 10
130.4461289821454
 20
-149.6852647195231
 10
130.4461289821454
 20
-149.6852647195231
 10
130.564640266838
 20
-149.7000786301097
 10
130.7486083657503
 20
-149.704212744692
 10
130.8057969508055
 20
-149.704212744692
 10
130.8057969508055
 20
-149.704212744692
 10
131.1589192380436
 20
-149.704212744692
 10
131.1589192380436
 20
-149.704212744692
 10
131.178211772761
 20
-149.704212744692
 10
131.3811278968422
 20
-149.704212744692
 10
131.522721321286
 20
-149.6852647195231
 10
131.522721321286
 20
-149.6852647195231
 10
131.522721321286
 20
-149.9198757220686
 10
131.522721321286
 20
-149.9198757220686
 10
131.3663139862556
 20
-149.9009276968997
 10
131.1758002059213
 20
-149.9009276968997
 10
131.1589192380436
 20
-149.9009276968997
 97
        0
 97
        1
330
15D
 92
        1
 93
        1
 72
     4
 94
        3
 73
     0
 74
     0
 95
       47
 96
       43
 40
0.0
 40
0.0
 40
0.0
 40
0.0
 40
1.0
 40
1.0
 40
1.0
 40
2.0
 40
2.0
 40
2.0
 40
3.0
 40
3.0
 40
3.0
 40
4.0
 40
4.0
 40
4.0
 40
5.0
 40
5.0
 40
5.0
 40
6.0
 40
6.0
 40
6.0
 40
7.0
 40
7.0
 40
7.0
 40
8.0
 40
8.0
 40
8.0
 40
9.0
 40
9.0
 40
9.0
 40
10.0
 40
10.0
 40
10.0
 40
11.0
 40
11.0
 40
11.0
 40
12.0
 40
12.0
 40
12.0
 40
13.0
 40
13.0
 40
13.0
 40
14.0
 40
14.0
 40
14.0
 40
14.0
 10
131.2605495548584
 20
-150.4297498538856
 10
131.2605495548584
 20
-150.4297498538856
 10
131.1589192380436
 20
-150.4297498538856
 10
131.1589192380436
 20
-150.4297498538856
 10
131.1589192380436
 20
-150.5165662601139
 10
131.1379041555836
 20
-150.9058620499471
 10
130.9411892033758
 20
-151.1260036514546
 10
130.7889159829278
 20
-151.2951578397804
 10
130.5815212347157
 20
-151.3647487685824
 10
130.4967718857786
 20
-151.3923095324644
 10
130.4967718857786
 20
-151.3923095324644
 10
130.302123990862
 20
-151.2252224014298
 10
130.302123990862
 20
-151.2252224014298
 10
130.3996201930945
 20
-151.2124755481344
 10
130.5749755532938
 20
-151.1893934083832
 10
130.7634222763369
 20
-151.00094668534
 10
130.8374918292698
 20
-150.9289441896983
 10
130.9411892033758
 20
-150.7894178225457
 10
130.9411892033758
 20
-150.4297498538856
 10
130.9411892033758
 20
-150.4297498538856
 10
130.7103678058641
 20
-150.4297498538856
 10
130.7103678058641
 20
-150.4297498538856
 10
130.5243326496606
 20
-150.4297498538856
 10
130.3382974934571
 20
-150.4342284780164
 10
130.1519178277051
 20
-150.4486978790545
 10
130.1519178277051
 20
-150.4486978790545
 10
130.1519178277051
 20
-150.2289007870955
 10
130.1519178277051
 20
-150.2289007870955
 10
130.3403645507482
 20
-150.2437146976821
 10
130.6259629664754
 20
-150.2478488122644
 10
130.7103678058641
 20
-150.2478488122644
 10
130.7103678058641
 20
-150.2478488122644
 10
131.2605495548584
 20
-150.2478488122644
 10
131.2605495548584
 20
-150.2478488122644
 10
131.2794975800273
 20
-150.2478488122644
 10
131.5967908742188
 20
-150.2478488122644
 10
131.8255452144394
 20
-150.2289007870955
 10
131.8255452144394
 20
-150.2289007870955
 10
131.8255452144394
 20
-150.4486978790545
 10
131.8255452144394
 20
-150.4486978790545
 10
131.6370984913962
 20
-150.4342284780164
 10
131.4489962779016
 20
-150.4297498538856
 10
131.2605495548584
 20
-150.4297498538856
 97
        0
 97
        1
330
15E
 75
     2
 76
     1
 98
        1
 10
0.0
 20
0.0
450
        0
451
        0
460
0.0
461
0.0
452
        0
462
0.0
453
        0
470

  0
SPLINE
  5
160
330
150
100
AcDbEntity
  8
レイヤー 1
100
AcDbSpline
210
0.0
220
0.0
230
1.0
 70
     9
 71
     3
 72
    29
 73
    25
 74
     0
 42
0.0000000001
 43
0.0000000001
 40
0.0
 40
0.0
 40
0.0
 40
0.0
 40
1.0
 40
1.0
 40
1.0
 40
2.0
 40
2.0
 40
2.0
 40
3.0
 40
3.0
 40
3.0
 40
4.0
 40
4.0
 40
4.0
 40
5.0
 40
5.0
 40
5.0
 40
6.0
 40
6.0
 40
6.0
 40
7.0
 40
7.0
 40
7.0
 40
8.0
 40
8.0
 40
8.0
 40
8.0
 10
133.1064317158553
 20
-150.5927028703379
 30
0.0
 10
133.1064317158553
 20
-150.5927028703379
 30
0.0
 10
132.6220512906292
 20
-150.5927028703379
 30
0.0
 10
132.6220512906292
 20
-150.5927028703379
 30
0.0
 10
132.5944905267472
 20
-150.5927028703379
 30
0.0
 10
132.2771972325557
 20
-150.5927028703379
 30
0.0
 10
132.0656683697613
 20
-150.6181965769288
 30
0.0
 10
132.0656683697613
 20
-150.6181965769288
 30
0.0
 10
132.0656683697613
 20
-150.387375179417
 30
0.0
 10
132.0656683697613
 20
-150.387375179417
 30
0.0
 10
132.2241427620828
 20
-150.4108018287167
 30
0.0
 10
132.4146565424171
 20
-150.4128688860079
 30
0.0
 10
132.6220512906292
 20
-150.4128688860079
 30
0.0
 10
132.6220512906292
 20
-150.4128688860079
 30
0.0
 10
133.1064317158553
 20
-150.4128688860079
 30
0.0
 10
133.1064317158553
 20
-150.4128688860079
 30
0.0
 10
133.2924668720588
 20
-150.4128688860079
 30
0.0
 10
133.4785020282623
 20
-150.4108018287167
 30
0.0
 10
133.6628146367232
 20
-150.387375179417
 30
0.0
 10
133.6628146367232
 20
-150.387375179417
 30
0.0
 10
133.6628146367232
 20
-150.6181965769288
 30
0.0
 10
133.6628146367232
 20
-150.6181965769288
 30
0.0
 10
133.4785020282623
 20
-150.5947699276291
 30
0.0
 10
133.2311441724214
 20
-150.5927028703379
 30
0.0
 10
133.1064317158553
 20
-150.5927028703379
 30
0.0
  0
HATCH
  5
161
330
150
100
AcDbEntity
  8
レイヤー 1
 62
    18
420
        0
440
 33554687
100
AcDbHatch
 10
0.0
 20
0.0
 30
0.0
210
0.0
220
0.0
230
1.0
  2
SOLID
 70
     1
 71
     1
 91
        1
 92
        1
 93
        1
 72
     4
 94
        3
 73
     0
 74
     0
 95
       29
 96
       25
 40
0.0
 40
0.0
 40
0.0
 40
0.0
 40
1.0
 40
1.0
 40
1.0
 40
2.0
 40
2.0
 40
2.0
 40
3.0
 40
3.0
 40
3.0
 40
4.0
 40
4.0
 40
4.0
 40
5.0
 40
5.0
 40
5.0
 40
6.0
 40
6.0
 40
6.0
 40
7.0
 40
7.0
 40
7.0
 40
8.0
 40
8.0
 40
8.0
 40
8.0
 10
133.1064317158553
 20
-150.5927028703379
 10
133.1064317158553
 20
-150.5927028703379
 10
132.6220512906292
 20
-150.5927028703379
 10
132.6220512906292
 20
-150.5927028703379
 10
132.5944905267472
 20
-150.5927028703379
 10
132.2771972325557
 20
-150.5927028703379
 10
132.0656683697613
 20
-150.6181965769288
 10
132.0656683697613
 20
-150.6181965769288
 10
132.0656683697613
 20
-150.387375179417
 10
132.0656683697613
 20
-150.387375179417
 10
132.2241427620828
 20
-150.4108018287167
 10
132.4146565424171
 20
-150.4128688860079
 10
132.6220512906292
 20
-150.4128688860079
 10
132.6220512906292
 20
-150.4128688860079
 10
133.1064317158553
 20
-150.4128688860079
 10
133.1064317158553
 20
-150.4128688860079
 10
133.2924668720588
 20
-150.4128688860079
 10
133.4785020282623
 20
-150.4108018287167
 10
133.6628146367232
 20
-150.387375179417
 10
133.6628146367232
 20
-150.387375179417
 10
133.6628146367232
 20
-150.6181965769288
 10
133.6628146367232
 20
-150.6181965769288
 10
133.4785020282623
 20
-150.5947699276291
 10
133.2311441724214
 20
-150.5927028703379
 10
133.1064317158553
 20
-150.5927028703379
 97
        0
 97
        1
330
160
 75
     2
 76
     1
 98
        1
 10
0.0
 20
0.0
450
        0
451
        0
460
0.0
461
0.0
452
        0
462
0.0
453
        0
470

  0
SPLINE
  5
162
330
150
100
AcDbEntity
  8
レイヤー 1
100
AcDbSpline
210
0.0
220
0.0
230
1.0
 70
     9
 71
     3
 72
    47
 73
    43
 74
     0
 42
0.0000000001
 43
0.0000000001
 40
0.0
 40
0.0
 40
0.0
 40
0.0
 40
1.0
 40
1.0
 40
1.0
 40
2.0
 40
2.0
 40
2.0
 40
3.0
 40
3.0
 40
3.0
 40
4.0
 40
4.0
 40
4.0
 40
5.0
 40
5.0
 40
5.0
 40
6.0
 40
6.0
 40
6.0
 40
7.0
 40
7.0
 40
7.0
 40
8.0
 40
8.0
 40
8.0
 40
9.0
 40
9.0
 40
9.0
 40
10.0
 40
10.0
 40
10.0
 40
11.0
 40
11.0
 40
11.0
 40
12.0
 40
12.0
 40
12.0
 40
13.0
 40
13.0
 40
13.0
 40
14.0
 40
14.0
 40
14.0
 40
14.0
 10
135.3264512465503
 20
-149.9984238991323
 30
0.0
 10
135.2565158081997
 20
-150.2774766334376
 30
0.0
 10
135.1803791979757
 20
-150.5820230743337
 30
0.0
 10
134.867564527915
 20
-150.9141302791117
 30
0.0
 10
134.6305419585299
 20
-151.1638997017923
 30
0.0
 10
134.3852511599801
 20
-151.2634629613161
 30
0.0
 10
134.2794867285829
 20
-151.3054931262361
 30
0.0
 10
134.2794867285829
 20
-151.3054931262361
 30
0.0
 10
134.0848388336663
 20
-151.1235920846149
 30
0.0
 10
134.0848388336663
 20
-151.1235920846149
 30
0.0
 10
134.2708739898698
 20
-151.0770832955641
 30
0.0
 10
134.632609015821
 20
-150.9840657174623
 30
0.0
 10
134.9288872275525
 20
-150.4890054962319
 30
0.0
 10
135.0894286771651
 20
-150.2223551056736
 30
0.0
 10
135.1021755304605
 20
-150.0490668027655
 30
0.0
 10
135.1107882691737
 20
-149.9581162819549
 30
0.0
 10
135.1107882691737
 20
-149.9581162819549
 30
0.0
 10
134.605048251939
 20
-149.9581162819549
 30
0.0
 10
134.605048251939
 20
-149.9581162819549
 30
0.0
 10
134.4865369672464
 20
-149.9581162819549
 30
0.0
 10
134.0655462989489
 20
-149.9770643071238
 30
0.0
 10
133.9132730785008
 20
-149.987744103128
 30
0.0
 10
133.9132730785008
 20
-149.987744103128
 30
0.0
 10
133.9132730785008
 20
-149.7782822976249
 30
0.0
 10
133.9132730785008
 20
-149.7782822976249
 30
0.0
 10
134.0552110124931
 20
-149.7910291509203
 30
0.0
 10
134.3321966895072
 20
-149.7951632655026
 30
0.0
 10
134.4486409169087
 20
-149.7951632655026
 30
0.0
 10
134.4486409169087
 20
-149.7951632655026
 30
0.0
 10
134.8038302614379
 20
-149.7951632655026
 30
0.0
 10
134.8038302614379
 20
-149.7951632655026
 30
0.0
 10
134.8313910253199
 20
-149.7951632655026
 30
0.0
 10
134.9922769844811
 20
-149.7930962082114
 30
0.0
 10
135.1021755304605
 20
-149.7782822976249
 30
0.0
 10
135.1593641155157
 20
-149.7720811257514
 30
0.0
 10
135.1762450833934
 20
-149.752788591034
 30
0.0
 10
135.1996717326931
 20
-149.7297064512828
 30
0.0
 10
135.1996717326931
 20
-149.7297064512828
 30
0.0
 10
135.3877739461878
 20
-149.8799126144397
 30
0.0
 10
135.3877739461878
 20
-149.8799126144397
 30
0.0
 10
135.3729600356012
 20
-149.9095404356129
 30
0.0
 10
135.3626247491454
 20
-149.9284884607817
 30
0.0
 10
135.3264512465503
 20
-149.9984238991323
 30
0.0
  0
HATCH
  5
163
330
150
100
AcDbEntity
  8
レイヤー 1
 62
    18
420
        0
440
 33554687
100
AcDbHatch
 10
0.0
 20
0.0
 30
0.0
210
0.0
220
0.0
230
1.0
  2
SOLID
 70
     1
 71
     1
 91
        1
 92
        1
 93
        1
 72
     4
 94
        3
 73
     0
 74
     0
 95
       47
 96
       43
 40
0.0
 40
0.0
 40
0.0
 40
0.0
 40
1.0
 40
1.0
 40
1.0
 40
2.0
 40
2.0
 40
2.0
 40
3.0
 40
3.0
 40
3.0
 40
4.0
 40
4.0
 40
4.0
 40
5.0
 40
5.0
 40
5.0
 40
6.0
 40
6.0
 40
6.0
 40
7.0
 40
7.0
 40
7.0
 40
8.0
 40
8.0
 40
8.0
 40
9.0
 40
9.0
 40
9.0
 40
10.0
 40
10.0
 40
10.0
 40
11.0
 40
11.0
 40
11.0
 40
12.0
 40
12.0
 40
12.0
 40
13.0
 40
13.0
 40
13.0
 40
14.0
 40
14.0
 40
14.0
 40
14.0
 10
135.3264512465503
 20
-149.9984238991323
 10
135.2565158081997
 20
-150.2774766334376
 10
135.1803791979757
 20
-150.5820230743337
 10
134.867564527915
 20
-150.9141302791117
 10
134.6305419585299
 20
-151.1638997017923
 10
134.3852511599801
 20
-151.2634629613161
 10
134.2794867285829
 20
-151.3054931262361
 10
134.2794867285829
 20
-151.3054931262361
 10
134.0848388336663
 20
-151.1235920846149
 10
134.0848388336663
 20
-151.1235920846149
 10
134.2708739898698
 20
-151.0770832955641
 10
134.632609015821
 20
-150.9840657174623
 10
134.9288872275525
 20
-150.4890054962319
 10
135.0894286771651
 20
-150.2223551056736
 10
135.1021755304605
 20
-150.0490668027655
 10
135.1107882691737
 20
-149.9581162819549
 10
135.1107882691737
 20
-149.9581162819549
 10
134.605048251939
 20
-149.9581162819549
 10
134.605048251939
 20
-149.9581162819549
 10
134.4865369672464
 20
-149.9581162819549
 10
134.0655462989489
 20
-149.9770643071238
 10
133.9132730785008
 20
-149.987744103128
 10
133.9132730785008
 20
-149.987744103128
 10
133.9132730785008
 20
-149.7782822976249
 10
133.9132730785008
 20
-149.7782822976249
 10
134.0552110124931
 20
-149.7910291509203
 10
134.3321966895072
 20
-149.7951632655026
 10
134.4486409169087
 20
-149.7951632655026
 10
134.4486409169087
 20
-149.7951632655026
 10
134.8038302614379
 20
-149.7951632655026
 10
134.8038302614379
 20
-149.7951632655026
 10
134.8313910253199
 20
-149.7951632655026
 10
134.9922769844811
 20
-149.7930962082114
 10
135.1021755304605
 20
-149.7782822976249
 10
135.1593641155157
 20
-149.7720811257514
 10
135.1762450833934
 20
-149.752788591034
 10
135.1996717326931
 20
-149.7297064512828
 10
135.1996717326931
 20
-149.7297064512828
 10
135.3877739461878
 20
-149.8799126144397
 10
135.3877739461878
 20
-149.8799126144397
 10
135.3729600356012
 20
-149.9095404356129
 10
135.3626247491454
 20
-149.9284884607817
 10
135.3264512465503
 20
-149.9984238991323
 97
        0
 97
        1
330
162
 75
     2
 76
     1
 98
        1
 10
0.0
 20
0.0
450
        0
451
        0
460
0.0
461
0.0
452
        0
462
0.0
453
        0
470

  0
SPLINE
  5
164
330
150
100
AcDbEntity
  8
レイヤー 1
100
AcDbSpline
210
0.0
220
0.0
230
1.0
 70
    11
 71
     3
 72
    17
 73
    13
 74
     0
 42
0.0000000001
 43
0.0000000001
 40
0.0
 40
0.0
 40
0.0
 40
0.0
 40
1.0
 40
1.0
 40
1.0
 40
2.0
 40
2.0
 40
2.0
 40
3.0
 40
3.0
 40
3.0
 40
4.0
 40
4.0
 40
4.0
 40
4.0
 10
135.7167805650291
 20
-149.780349354916
 30
0.0
 10
135.7167805650291
 20
-149.8396049972623
 30
0.0
 10
135.76328935408
 20
-149.8861137863132
 30
0.0
 10
135.8225449964263
 20
-149.8861137863132
 30
0.0
 10
135.8818006387726
 20
-149.8861137863132
 30
0.0
 10
135.9303764851146
 20
-149.8396049972623
 30
0.0
 10
135.9303764851146
 20
-149.780349354916
 30
0.0
 10
135.9303764851146
 20
-149.7210937125697
 30
0.0
 10
135.8818006387726
 20
-149.6725178662277
 30
0.0
 10
135.8225449964263
 20
-149.6725178662277
 30
0.0
 10
135.76328935408
 20
-149.6725178662277
 30
0.0
 10
135.7167805650291
 20
-149.7210937125697
 30
0.0
 10
135.7167805650291
 20
-149.780349354916
 30
0.0
  0
SPLINE
  5
165
330
150
100
AcDbEntity
  8
レイヤー 1
100
AcDbSpline
210
0.0
220
0.0
230
1.0
 70
     9
 71
     3
 72
    17
 73
    13
 74
     0
 42
0.0000000001
 43
0.0000000001
 40
0.0
 40
0.0
 40
0.0
 40
0.0
 40
1.0
 40
1.0
 40
1.0
 40
2.0
 40
2.0
 40
2.0
 40
3.0
 40
3.0
 40
3.0
 40
4.0
 40
4.0
 40
4.0
 40
4.0
 10
136.0320068019295
 20
-149.780349354916
 30
0.0
 10
136.0320068019295
 20
-149.8947265250263
 30
0.0
 10
135.9389892238277
 20
-149.9898111604192
 30
0.0
 10
135.8225449964263
 20
-149.9898111604192
 30
0.0
 10
135.708167826316
 20
-149.9898111604192
 30
0.0
 10
135.6130831909231
 20
-149.8947265250263
 30
0.0
 10
135.6130831909231
 20
-149.780349354916
 30
0.0
 10
135.6130831909231
 20
-149.6639051275146
 30
0.0
 10
135.708167826316
 20
-149.5708875494128
 30
0.0
 10
135.8225449964263
 20
-149.5708875494128
 30
0.0
 10
135.9369221665366
 20
-149.5708875494128
 30
0.0
 10
136.0320068019295
 20
-149.6639051275146
 30
0.0
 10
136.0320068019295
 20
-149.780349354916
 30
0.0
  0
HATCH
  5
166
330
150
100
AcDbEntity
  8
レイヤー 1
 62
    18
420
        0
440
 33554687
100
AcDbHatch
 10
0.0
 20
0.0
 30
0.0
210
0.0
220
0.0
230
1.0
  2
SOLID
 70
     1
 71
     1
 91
        2
 92
        1
 93
        1
 72
     4
 94
        3
 73
     0
 74
     0
 95
       17
 96
       13
 40
0.0
 40
0.0
 40
0.0
 40
0.0
 40
1.0
 40
1.0
 40
1.0
 40
2.0
 40
2.0
 40
2.0
 40
3.0
 40
3.0
 40
3.0
 40
4.0
 40
4.0
 40
4.0
 40
4.0
 10
135.7167805650291
 20
-149.780349354916
 10
135.7167805650291
 20
-149.8396049972623
 10
135.76328935408
 20
-149.8861137863132
 10
135.8225449964263
 20
-149.8861137863132
 10
135.8818006387726
 20
-149.8861137863132
 10
135.9303764851146
 20
-149.8396049972623
 10
135.9303764851146
 20
-149.780349354916
 10
135.9303764851146
 20
-149.7210937125697
 10
135.8818006387726
 20
-149.6725178662277
 10
135.8225449964263
 20
-149.6725178662277
 10
135.76328935408
 20
-149.6725178662277
 10
135.7167805650291
 20
-149.7210937125697
 10
135.7167805650291
 20
-149.780349354916
 97
        0
 97
        1
330
164
 92
        1
 93
        1
 72
     4
 94
        3
 73
     0
 74
     0
 95
       17
 96
       13
 40
0.0
 40
0.0
 40
0.0
 40
0.0
 40
1.0
 40
1.0
 40
1.0
 40
2.0
 40
2.0
 40
2.0
 40
3.0
 40
3.0
 40
3.0
 40
4.0
 40
4.0
 40
4.0
 40
4.0
 10
136.0320068019295
 20
-149.780349354916
 10
136.0320068019295
 20
-149.8947265250263
 10
135.9389892238277
 20
-149.9898111604192
 10
135.8225449964263
 20
-149.9898111604192
 10
135.708167826316
 20
-149.9898111604192
 10
135.6130831909231
 20
-149.8947265250263
 10
135.6130831909231
 20
-149.780349354916
 10
135.6130831909231
 20
-149.6639051275146
 10
135.708167826316
 20
-149.5708875494128
 10
135.8225449964263
 20
-149.5708875494128
 10
135.9369221665366
 20
-149.5708875494128
 10
136.0320068019295
 20
-149.6639051275146
 10
136.0320068019295
 20
-149.780349354916
 97
        0
 97
        1
330
165
 75
     2
 76
     1
 98
        1
 10
0.0
 20
0.0
450
        0
451
        0
460
0.0
461
0.0
452
        0
462
0.0
453
        0
470

  0
ENDBLK
  5
153
330
150
100
AcDbEntity
  8
0
100
AcDbBlockEnd
  0
ENDSEC
  0
SECTION
  2
ENTITIES
  0
INSERT
  5
7A
330
70
100
AcDbEntity
  8
レイヤー 1
100
AcDbBlockReference
  2
Block_0
 10
0.0
 20
0.0
 30
0.0
  0
INSERT
  5
142
330
70
100
AcDbEntity
  8
レイヤー 1
100
AcDbBlockReference
  2
Block_12
 10
0.0
 20
0.0
 30
0.0
  0
ENDSEC
  0
SECTION
  2
OBJECTS
  0
DICTIONARY
  5
C
330
0
100
AcDbDictionary
281
     1
  3
ACAD_COLOR
350
63
  3
ACAD_DETAILVIEWSTYLE
350
6A
  3
ACAD_GROUP
350
D
  3
ACAD_LAYOUT
350
62
  3
ACAD_MATERIAL
350
10
  3
ACAD_MLEADERSTYLE
350
66
  3
ACAD_MLINESTYLE
350
5F
  3
ACAD_PLOTSETTINGS
350
61
  3
ACAD_PLOTSTYLENAME
350
E
  3
ACAD_SCALELIST
350
42
  3
ACAD_SECTIONVIEWSTYLE
350
68
  3
ACAD_TABLESTYLE
350
64
  3
ACAD_VISUALSTYLE
350
29
  3
ACDB_RECOMPOSE_DATA
350
16F
  3
AcDbVariableDictionary
350
167
  0
DICTIONARY
  5
63
102
{ACAD_REACTORS
330
C
102
}
330
C
100
AcDbDictionary
281
     1
  0
DICTIONARY
  5
6A
102
{ACAD_REACTORS
330
C
102
}
330
C
100
AcDbDictionary
281
     1
  3
Imperial24
350
6B
  0
DICTIONARY
  5
D
102
{ACAD_REACTORS
330
C
102
}
330
C
100
AcDbDictionary
281
     1
  0
DICTIONARY
  5
62
102
{ACAD_REACTORS
330
C
102
}
330
C
100
AcDbDictionary
281
     1
  3
Layout1
350
6F
  3
Layout2
350
77
  3
Model
350
73
  0
DICTIONARY
  5
10
102
{ACAD_REACTORS
330
C
102
}
330
C
100
AcDbDictionary
281
     1
  3
ByBlock
350
19
  3
ByLayer
350
11
  3
Global
350
21
  0
DICTIONARY
  5
66
102
{ACAD_REACTORS
330
C
102
}
330
C
100
AcDbDictionary
281
     1
  3
Standard
350
67
  0
DICTIONARY
  5
5F
102
{ACAD_REACTORS
330
C
102
}
330
C
100
AcDbDictionary
281
     1
  3
Standard
350
60
  0
DICTIONARY
  5
61
102
{ACAD_REACTORS
330
C
102
}
330
C
100
AcDbDictionary
281
     1
  0
ACDBDICTIONARYWDFLT
  5
E
102
{ACAD_REACTORS
330
C
102
}
330
C
100
AcDbDictionary
281
     1
  3
Normal
350
F
100
AcDbDictionaryWithDefault
340
F
  0
DICTIONARY
  5
42
102
{ACAD_REACTORS
330
C
102
}
330
C
100
AcDbDictionary
281
     1
  3
A0
350
43
  3
A1
350
44
  3
A2
350
45
  3
A3
350
46
  3
A4
350
47
  3
A5
350
48
  3
A6
350
49
  3
A7
350
4A
  3
A8
350
4B
  3
A9
350
4C
  3
B0
350
4D
  3
B1
350
4E
  3
B2
350
4F
  3
B3
350
50
  3
B4
350
51
  3
B5
350
52
  3
B6
350
53
  0
DICTIONARY
  5
68
102
{ACAD_REACTORS
330
C
102
}
330
C
100
AcDbDictionary
281
     1
  3
Imperial24
350
69
  0
DICTIONARY
  5
64
102
{ACAD_REACTORS
330
C
102
}
330
C
100
AcDbDictionary
281
     1
  3
Standard
350
65
  0
DICTIONARY
  5
29
102
{ACAD_REACTORS
330
C
102
}
330
C
100
AcDbDictionary
281
     1
  3
2dWireframe
350
2F
  3
Basic
350
2E
  3
Brighten
350
35
  3
ColorChange
350
39
  3
Conceptual
350
32
  3
Dim
350
34
  3
EdgeColorOff
350
41
  3
Facepattern
350
38
  3
Flat
350
2A
  3
FlatWithEdges
350
2B
  3
Gouraud
350
2C
  3
GouraudWithEdges
350
2D
  3
Hidden
350
31
  3
JitterOff
350
3F
  3
Linepattern
350
37
  3
OverhangOff
350
40
  3
Realistic
350
33
  3
Shaded
350
3E
  3
Shaded with edges
350
3D
  3
Shades of Gray
350
3A
  3
Sketchy
350
3B
  3
Thicken
350
36
  3
Wireframe
350
30
  3
X-Ray
350
3C
  0
XRECORD
  5
16F
102
{ACAD_REACTORS
330
C
102
}
330
C
100
AcDbXrecord
280
     1
 90
        1
330
65
  0
DICTIONARY
  5
167
102
{ACAD_REACTORS
330
C
102
}
330
C
100
AcDbDictionary
281
     1
  3
CANNOSCALE
350
16C
  3
CMLEADERSTYLE
350
169
  3
CTABLESTYLE
350
168
  3
CVIEWDETAILSTYLE
350
16A
  3
CVIEWSECTIONSTYLE
350
16B
  0
ACDBDETAILVIEWSTYLE
  5
6B
102
{ACAD_XDICTIONARY
360
1A4
102
}
102
{ACAD_REACTORS
330
6A
102
}
330
6A
100
AcDbModelDocViewStyle
 70
     0
  3
Imperial24
290
     0
100
AcDbDetailViewStyle
 70
     0
 71
     0
 90
        3
 71
     1
340
55
 62
   256
 40
0.24
340
0
 62
   256
 40
0.24
300

 40
0.36
280
     3
 71
     2
340
5D
 90
       25
 62
   256
 71
     3
340
55
 62
   256
 40
0.24
 90
        1
 40
0.75
 90
        1
300
%<\AcVar ViewType \f "%tc1">% %<\AcVar ViewDetailId>%\PSCALE %<\AcVar ViewScale \f "%sn">%
 71
     4
340
5D
 90
       25
 62
   256
340
5D
 90
       25
 62
   256
280
     0
  0
LAYOUT
  5
6F
102
{ACAD_REACTORS
330
62
102
}
330
62
100
AcDbPlotSettings
  1

  2

  4

  6

 40
0.0
 41
0.0
 42
0.0
 43
0.0
 44
0.0
 45
0.0
 46
0.0
 47
0.0
 48
0.0
 49
0.0
140
0.0
141
0.0
142
1.0
143
1.0
 70
   688
 72
     0
 73
     0
 74
     5
  7

 75
    16
147
1.0
 76
     0
 77
     2
 78
   300
148
0.0
149
0.0
100
AcDbLayout
  1
Layout1
 70
     1
 71
     1
 10
0.0
 20
0.0
 11
12.0
 21
9.0
 12
0.0
 22
0.0
 32
0.0
 14
0.0
 24
0.0
 34
0.0
 15
0.0
 25
0.0
 35
0.0
146
0.0
 13
0.0
 23
0.0
 33
0.0
 16
1.0
 26
0.0
 36
0.0
 17
0.0
 27
1.0
 37
0.0
 76
     0
330
6C
  0
LAYOUT
  5
77
102
{ACAD_REACTORS
330
62
102
}
330
62
100
AcDbPlotSettings
  1

  2

  4

  6

 40
0.0
 41
0.0
 42
0.0
 43
0.0
 44
0.0
 45
0.0
 46
0.0
 47
0.0
 48
0.0
 49
0.0
140
0.0
141
0.0
142
1.0
143
1.0
 70
   688
 72
     0
 73
     0
 74
     5
  7

 75
    16
147
1.0
 76
     0
 77
     2
 78
   300
148
0.0
149
0.0
100
AcDbLayout
  1
Layout2
 70
     1
 71
     2
 10
0.0
 20
0.0
 11
12.0
 21
9.0
 12
0.0
 22
0.0
 32
0.0
 14
0.0
 24
0.0
 34
0.0
 15
0.0
 25
0.0
 35
0.0
146
0.0
 13
0.0
 23
0.0
 33
0.0
 16
1.0
 26
0.0
 36
0.0
 17
0.0
 27
1.0
 37
0.0
 76
     0
330
74
  0
LAYOUT
  5
73
102
{ACAD_REACTORS
330
62
102
}
330
62
100
AcDbPlotSettings
  1

  2

  4

  6

 40
0.0
 41
0.0
 42
0.0
 43
0.0
 44
0.0
 45
0.0
 46
0.0
 47
0.0
 48
0.0
 49
0.0
140
0.0
141
0.0
142
1.0
143
1.0
 70
  1712
 72
     0
 73
     0
 74
     0
  7

 75
     0
147
1.0
 76
     0
 77
     2
 78
   300
148
0.0
149
0.0
100
AcDbLayout
  1
Model
 70
     1
 71
     0
 10
0.0
 20
0.0
 11
12.0
 21
9.0
 12
0.0
 22
0.0
 32
0.0
 14
0.0
 24
0.0
 34
0.0
 15
0.0
 25
0.0
 35
0.0
146
0.0
 13
0.0
 23
0.0
 33
0.0
 16
1.0
 26
0.0
 36
0.0
 17
0.0
 27
1.0
 37
0.0
 76
     0
330
70
  0
MATERIAL
  5
19
102
{ACAD_XDICTIONARY
360
1A
102
}
102
{ACAD_REACTORS
330
10
102
}
330
10
100
AcDbMaterial
  1
ByBlock
 72
     0
 43
0.0208333333333333
 43
0.0
 43
0.0
 43
0.0
 43
0.0
 43
0.0208333333333333
 43
0.0
 43
0.0
 43
0.0
 43
0.0
 43
1.0
 43
0.0
 43
0.0
 43
0.0
 43
0.0
 43
1.0
 77
     0
 47
0.0208333333333333
 47
0.0
 47
0.0
 47
0.0
 47
0.0
 47
0.0208333333333333
 47
0.0
 47
0.0
 47
0.0
 47
0.0
 47
1.0
 47
0.0
 47
0.0
 47
0.0
 47
0.0
 47
1.0
171
     0
 49
0.0208333333333333
 49
0.0
 49
0.0
 49
0.0
 49
0.0
 49
0.0208333333333333
 49
0.0
 49
0.0
 49
0.0
 49
0.0
 49
1.0
 49
0.0
 49
0.0
 49
0.0
 49
0.0
 49
1.0
175
     0
142
0.0208333333333333
142
0.0
142
0.0
142
0.0
142
0.0
142
0.0208333333333333
142
0.0
142
0.0
142
0.0
142
0.0
142
1.0
142
0.0
142
0.0
142
0.0
142
0.0
142
1.0
179
     0
144
0.0208333333333333
144
0.0
144
0.0
144
0.0
144
0.0
144
0.0208333333333333
144
0.0
144
0.0
144
0.0
144
0.0
144
1.0
144
0.0
144
0.0
144
0.0
144
0.0
144
1.0
147
0.0208333333333333
147
0.0
147
0.0
147
0.0
147
0.0
147
0.0208333333333333
147
0.0
147
0.0
147
0.0
147
0.0
147
1.0
147
0.0
147
0.0
147
0.0
147
0.0
147
1.0
  0
MATERIAL
  5
11
102
{ACAD_XDICTIONARY
360
12
102
}
102
{ACAD_REACTORS
330
10
102
}
330
10
100
AcDbMaterial
  1
ByLayer
 72
     0
 43
0.0208333333333333
 43
0.0
 43
0.0
 43
0.0
 43
0.0
 43
0.0208333333333333
 43
0.0
 43
0.0
 43
0.0
 43
0.0
 43
1.0
 43
0.0
 43
0.0
 43
0.0
 43
0.0
 43
1.0
 77
     0
 47
0.0208333333333333
 47
0.0
 47
0.0
 47
0.0
 47
0.0
 47
0.0208333333333333
 47
0.0
 47
0.0
 47
0.0
 47
0.0
 47
1.0
 47
0.0
 47
0.0
 47
0.0
 47
0.0
 47
1.0
171
     0
 49
0.0208333333333333
 49
0.0
 49
0.0
 49
0.0
 49
0.0
 49
0.0208333333333333
 49
0.0
 49
0.0
 49
0.0
 49
0.0
 49
1.0
 49
0.0
 49
0.0
 49
0.0
 49
0.0
 49
1.0
175
     0
142
0.0208333333333333
142
0.0
142
0.0
142
0.0
142
0.0
142
0.0208333333333333
142
0.0
142
0.0
142
0.0
142
0.0
142
1.0
142
0.0
142
0.0
142
0.0
142
0.0
142
1.0
179
     0
144
0.0208333333333333
144
0.0
144
0.0
144
0.0
144
0.0
144
0.0208333333333333
144
0.0
144
0.0
144
0.0
144
0.0
144
1.0
144
0.0
144
0.0
144
0.0
144
0.0
144
1.0
147
0.0208333333333333
147
0.0
147
0.0
147
0.0
147
0.0
147
0.0208333333333333
147
0.0
147
0.0
147
0.0
147
0.0
147
1.0
147
0.0
147
0.0
147
0.0
147
0.0
147
1.0
  0
MATERIAL
  5
21
102
{ACAD_XDICTIONARY
360
22
102
}
102
{ACAD_REACTORS
330
10
102
}
330
10
100
AcDbMaterial
  1
Global
 72
     0
 43
0.0208333333333333
 43
0.0
 43
0.0
 43
0.0
 43
0.0
 43
0.0208333333333333
 43
0.0
 43
0.0
 43
0.0
 43
0.0
 43
1.0
 43
0.0
 43
0.0
 43
0.0
 43
0.0
 43
1.0
 77
     0
 47
0.0208333333333333
 47
0.0
 47
0.0
 47
0.0
 47
0.0
 47
0.0208333333333333
 47
0.0
 47
0.0
 47
0.0
 47
0.0
 47
1.0
 47
0.0
 47
0.0
 47
0.0
 47
0.0
 47
1.0
171
     0
 49
0.0208333333333333
 49
0.0
 49
0.0
 49
0.0
 49
0.0
 49
0.0208333333333333
 49
0.0
 49
0.0
 49
0.0
 49
0.0
 49
1.0
 49
0.0
 49
0.0
 49
0.0
 49
0.0
 49
1.0
175
     0
142
0.0208333333333333
142
0.0
142
0.0
142
0.0
142
0.0
142
0.0208333333333333
142
0.0
142
0.0
142
0.0
142
0.0
142
1.0
142
0.0
142
0.0
142
0.0
142
0.0
142
1.0
179
     0
144
0.0208333333333333
144
0.0
144
0.0
144
0.0
144
0.0
144
0.0208333333333333
144
0.0
144
0.0
144
0.0
144
0.0
144
1.0
144
0.0
144
0.0
144
0.0
144
0.0
144
1.0
147
0.0208333333333333
147
0.0
147
0.0
147
0.0
147
0.0
147
0.0208333333333333
147
0.0
147
0.0
147
0.0
147
0.0
147
1.0
147
0.0
147
0.0
147
0.0
147
0.0
147
1.0
  0
MLEADERSTYLE
  5
67
102
{ACAD_XDICTIONARY
360
1A0
102
}
102
{ACAD_REACTORS
330
66
102
}
330
66
100
AcDbMLeaderStyle
179
     2
170
     2
171
     1
172
     0
 90
        2
 40
0.0
 41
0.0
173
     1
 91
-1056964608
340
5B
 92
       -2
290
     1
 42
0.09
291
     1
 43
0.36
  3
Standard
 44
0.18
300

342
55
174
     1
178
     6
175
     1
176
     0
 93
-1056964608
 45
0.18
292
     0
297
     0
 46
0.18
 94
-1056964608
 47
1.0
 49
1.0
140
1.0
293
     1
141
0.0
294
     1
177
     0
142
1.0
295
     0
296
     0
143
0.125
271
     0
272
     9
273
     9
  0
MLINESTYLE
  5
60
102
{ACAD_REACTORS
330
5F
102
}
330
5F
100
AcDbMlineStyle
  2
STANDARD
 70
     0
  3

 62
   256
 51
90.0
 52
90.0
 71
     2
 49
0.5
 62
   256
  6
BYLAYER
 49
-0.5
 62
   256
  6
BYLAYER
  0
ACDBPLACEHOLDER
  5
F
102
{ACAD_REACTORS
330
E
102
}
330
E
  0
SCALE
  5
43
102
{ACAD_REACTORS
330
42
102
}
330
42
100
AcDbScale
 70
     0
300
1:1
140
1.0
141
1.0
290
     1
  0
SCALE
  5
44
102
{ACAD_REACTORS
330
42
102
}
330
42
100
AcDbScale
 70
     0
300
1/128" = 1'-0"
140
0.0078125
141
12.0
290
     0
  0
SCALE
  5
45
102
{ACAD_REACTORS
330
42
102
}
330
42
100
AcDbScale
 70
     0
300
1/64" = 1'-0"
140
0.015625
141
12.0
290
     0
  0
SCALE
  5
46
102
{ACAD_REACTORS
330
42
102
}
330
42
100
AcDbScale
 70
     0
300
1/32" = 1'-0"
140
0.03125
141
12.0
290
     0
  0
SCALE
  5
47
102
{ACAD_REACTORS
330
42
102
}
330
42
100
AcDbScale
 70
     0
300
1/16" = 1'-0"
140
0.0625
141
12.0
290
     0
  0
SCALE
  5
48
102
{ACAD_REACTORS
330
42
102
}
330
42
100
AcDbScale
 70
     0
300
3/32" = 1'-0"
140
0.09375
141
12.0
290
     0
  0
SCALE
  5
49
102
{ACAD_REACTORS
330
42
102
}
330
42
100
AcDbScale
 70
     0
300
1/8" = 1'-0"
140
0.125
141
12.0
290
     0
  0
SCALE
  5
4A
102
{ACAD_REACTORS
330
42
102
}
330
42
100
AcDbScale
 70
     0
300
3/16" = 1'-0"
140
0.1875
141
12.0
290
     0
  0
SCALE
  5
4B
102
{ACAD_REACTORS
330
42
102
}
330
42
100
AcDbScale
 70
     0
300
1/4" = 1'-0"
140
0.25
141
12.0
290
     0
  0
SCALE
  5
4C
102
{ACAD_REACTORS
330
42
102
}
330
42
100
AcDbScale
 70
     0
300
3/8" = 1'-0"
140
0.375
141
12.0
290
     0
  0
SCALE
  5
4D
102
{ACAD_REACTORS
330
42
102
}
330
42
100
AcDbScale
 70
     0
300
1/2" = 1'-0"
140
0.5
141
12.0
290
     0
  0
SCALE
  5
4E
102
{ACAD_REACTORS
330
42
102
}
330
42
100
AcDbScale
 70
     0
300
3/4" = 1'-0"
140
0.75
141
12.0
290
     0
  0
SCALE
  5
4F
102
{ACAD_REACTORS
330
42
102
}
330
42
100
AcDbScale
 70
     0
300
1" = 1'-0"
140
1.0
141
12.0
290
     0
  0
SCALE
  5
50
102
{ACAD_REACTORS
330
42
102
}
330
42
100
AcDbScale
 70
     0
300
1-1/2" = 1'-0"
140
1.5
141
12.0
290
     0
  0
SCALE
  5
51
102
{ACAD_REACTORS
330
42
102
}
330
42
100
AcDbScale
 70
     0
300
3" = 1'-0"
140
3.0
141
12.0
290
     0
  0
SCALE
  5
52
102
{ACAD_REACTORS
330
42
102
}
330
42
100
AcDbScale
 70
     0
300
6" = 1'-0"
140
6.0
141
12.0
290
     0
  0
SCALE
  5
53
102
{ACAD_REACTORS
330
42
102
}
330
42
100
AcDbScale
 70
     0
300
1'-0" = 1'-0"
140
12.0
141
12.0
290
     0
  0
ACDBSECTIONVIEWSTYLE
  5
69
102
{ACAD_XDICTIONARY
360
1A2
102
}
102
{ACAD_REACTORS
330
68
102
}
330
68
100
AcDbModelDocViewStyle
 70
     0
  3
Imperial24
290
     0
100
AcDbSectionViewStyle
 70
     0
 71
     0
 90
       78
 71
     1
340
55
 62
   256
 40
0.24
340
0
340
0
 62
   256
 40
0.24
300
I, O, Q, S, X, Z
 40
0.48
 90
        3
 40
0.18
 90
        1
 71
     2
340
5D
 90
       25
 62
   256
340
5D
 90
       50
 62
   256
 40
0.24
 40
0.0
 40
0.24
 71
     3
340
55
 62
   256
 40
0.24
 90
        1
 40
0.75
 90
        1
300
%<\AcVar ViewType \f "%tc1">% %<\AcVar ViewSectionStartId>%-%<\AcVar ViewSectionEndId>%\PSCALE %<\AcVar ViewScale \f "%sn">%
 71
     4
 62
   256
 62
   257
300
ANSI31
 40
1.0
 90
        0
290
     0
290
     0
 90
        6
 40
0.0
 40
1.570796326794896
 40
0.2617993877991494
 40
1.308996938995747
 40
-0.2617993877991494
 40
1.832595714594046
  0
TABLESTYLE
  5
65
102
{ACAD_XDICTIONARY
360
16D
102
}
102
{ACAD_REACTORS
330
64
102
}
330
64
100
AcDbTableStyle
280
     0
  3
Standard
 70
     0
 71
     0
 40
0.06
 41
0.06
280
     0
281
     0
  7
Standard
140
0.18
170
     2
 62
     0
 63
     7
283
     0
 90
      512
 91
        0
  1

274
    -2
284
     1
 64
     0
275
    -2
285
     1
 65
     0
276
    -2
286
     1
 66
     0
277
    -2
287
     1
 67
     0
278
    -2
288
     1
 68
     0
279
    -2
289
     1
 69
     0
  7
Standard
140
0.25
170
     5
 62
     0
 63
     7
283
     0
 90
      512
 91
        0
  1

274
    -2
284
     1
 64
     0
275
    -2
285
     1
 65
     0
276
    -2
286
     1
 66
     0
277
    -2
287
     1
 67
     0
278
    -2
288
     1
 68
     0
279
    -2
289
     1
 69
     0
  7
Standard
140
0.18
170
     5
 62
     0
 63
     7
283
     0
 90
      512
 91
        0
  1

274
    -2
284
     1
 64
     0
275
    -2
285
     1
 65
     0
276
    -2
286
     1
 66
     0
277
    -2
287
     1
 67
     0
278
    -2
288
     1
 68
     0
279
    -2
289
     1
 69
     0
  0
VISUALSTYLE
  5
2F
102
{ACAD_XDICTIONARY
360
17A
102
}
102
{ACAD_REACTORS
330
29
102
}
330
29
100
AcDbVisualStyle
  2
2dWireframe
 70
     4
177
     2
291
     0
 71
     0
176
     1
 72
     2
176
     1
 73
     0
176
     1
 90
        0
176
     1
 40
0.6
176
     1
 41
30.0
176
     1
 63
     7
421
 16777215
176
     1
 74
     1
176
     1
 91
        4
176
     1
 64
     7
176
     1
 65
   257
176
     1
 75
     1
176
     1
175
     1
176
     1
 42
1.0
176
     1
 92
        0
176
     1
 66
   257
176
     1
 43
1.0
176
     1
 76
     1
176
     1
 77
     6
176
     1
 78
     2
176
     1
 67
     7
176
     1
 79
     5
176
     1
170
     0
176
     1
171
     0
176
     1
290
     0
176
     1
 93
        1
176
     1
 44
0.0
176
     1
173
     0
176
     1
1001
ACAD
1000
AcDbSavedByObjectVersion
1070
     0
  0
VISUALSTYLE
  5
2E
102
{ACAD_XDICTIONARY
360
178
102
}
102
{ACAD_REACTORS
330
29
102
}
330
29
100
AcDbVisualStyle
  2
Basic
 70
     7
177
     2
291
     1
 71
     1
176
     1
 72
     0
176
     1
 73
     1
176
     1
 90
        0
176
     1
 40
0.6
176
     1
 41
30.0
176
     1
 63
     7
421
 16777215
176
     1
 74
     0
176
     1
 91
        4
176
     1
 64
     7
176
     1
 65
   257
176
     1
 75
     1
176
     1
175
     1
176
     1
 42
1.0
176
     1
 92
        8
176
     1
 66
     7
176
     1
 43
1.0
176
     1
 76
     1
176
     1
 77
     6
176
     1
 78
     2
176
     1
 67
     7
176
     1
 79
     5
176
     1
170
     0
176
     1
171
     0
176
     1
290
     0
176
     1
 93
        1
176
     1
 44
0.0
176
     1
173
     0
176
     1
1001
ACAD
1000
AcDbSavedByObjectVersion
1070
     0
  0
VISUALSTYLE
  5
35
102
{ACAD_XDICTIONARY
360
186
102
}
102
{ACAD_REACTORS
330
29
102
}
330
29
100
AcDbVisualStyle
  2
Brighten
 70
    12
177
     2
291
     1
 71
     2
176
     1
 72
     2
176
     1
 73
     0
176
     1
 90
        0
176
     1
 40
0.6
176
     1
 41
30.0
176
     1
 63
     7
421
 16777215
176
     1
 74
     1
176
     1
 91
        4
176
     1
 64
     7
176
     1
 65
   257
176
     1
 75
     1
176
     1
175
     1
176
     1
 42
1.0
176
     1
 92
        8
176
     1
 66
     7
176
     1
 43
1.0
176
     1
 76
     1
176
     1
 77
     6
176
     1
 78
     2
176
     1
 67
     7
176
     1
 79
     5
176
     1
170
     0
176
     1
171
     0
176
     1
290
     0
176
     1
 93
        1
176
     1
 44
50.0
176
     1
173
     0
176
     1
1001
ACAD
1000
AcDbSavedByObjectVersion
1070
     0
  0
VISUALSTYLE
  5
39
102
{ACAD_XDICTIONARY
360
18E
102
}
102
{ACAD_REACTORS
330
29
102
}
330
29
100
AcDbVisualStyle
  2
ColorChange
 70
    16
177
     2
291
     1
 71
     2
176
     1
 72
     2
176
     1
 73
     3
176
     1
 90
        0
176
     1
 40
0.6
176
     1
 41
30.0
176
     1
 63
     8
421
  8421504
176
     1
 74
     1
176
     1
 91
        4
176
     1
 64
     7
176
     1
 65
   257
176
     1
 75
     1
176
     1
175
     1
176
     1
 42
1.0
176
     1
 92
        8
176
     1
 66
     8
424
  8421504
176
     1
 43
1.0
176
     1
 76
     1
176
     1
 77
     6
176
     1
 78
     2
176
     1
 67
     7
176
     1
 79
     5
176
     1
170
     0
176
     1
171
     0
176
     1
290
     0
176
     1
 93
        1
176
     1
 44
0.0
176
     1
173
     0
176
     1
1001
ACAD
1000
AcDbSavedByObjectVersion
1070
     0
  0
VISUALSTYLE
  5
32
102
{ACAD_XDICTIONARY
360
180
102
}
102
{ACAD_REACTORS
330
29
102
}
330
29
100
AcDbVisualStyle
  2
Conceptual
 70
     9
177
     2
291
     0
 71
     3
176
     1
 72
     2
176
     1
 73
     0
176
     1
 90
        0
176
     1
 40
0.6
176
     1
 41
30.0
176
     1
 63
     7
421
 16777215
176
     1
 74
     2
176
     1
 91
        2
176
     1
 64
     7
176
     1
 65
   257
176
     1
 75
     1
176
     1
175
     1
176
     1
 42
179.0
176
     1
 92
        8
176
     1
 66
     7
176
     1
 43
1.0
176
     1
 76
     1
176
     1
 77
     6
176
     1
 78
     2
176
     1
 67
     7
176
     1
 79
     3
176
     1
170
     0
176
     1
171
     0
176
     1
290
     0
176
     1
 93
        1
176
     1
 44
0.0
176
     1
173
     0
176
     1
1001
ACAD
1000
AcDbSavedByObjectVersion
1070
     0
  0
VISUALSTYLE
  5
34
102
{ACAD_XDICTIONARY
360
184
102
}
102
{ACAD_REACTORS
330
29
102
}
330
29
100
AcDbVisualStyle
  2
Dim
 70
    11
177
     2
291
     1
 71
     2
176
     1
 72
     2
176
     1
 73
     0
176
     1
 90
        0
176
     1
 40
0.6
176
     1
 41
30.0
176
     1
 63
     7
421
 16777215
176
     1
 74
     1
176
     1
 91
        4
176
     1
 64
     7
176
     1
 65
   257
176
     1
 75
     1
176
     1
175
     1
176
     1
 42
1.0
176
     1
 92
        8
176
     1
 66
     7
176
     1
 43
1.0
176
     1
 76
     1
176
     1
 77
     6
176
     1
 78
     2
176
     1
 67
     7
176
     1
 79
     5
176
     1
170
     0
176
     1
171
     0
176
     1
290
     0
176
     1
 93
        1
176
     1
 44
-50.0
176
     1
173
     0
176
     1
1001
ACAD
1000
AcDbSavedByObjectVersion
1070
     0
  0
VISUALSTYLE
  5
41
102
{ACAD_XDICTIONARY
360
19E
102
}
102
{ACAD_REACTORS
330
29
102
}
330
29
100
AcDbVisualStyle
  2
EdgeColorOff
 70
    22
177
     2
291
     1
 71
     2
176
     0
 72
     2
176
     0
 73
     0
176
     0
 90
        0
176
     0
 40
0.6
176
     0
 41
30.0
176
     0
 63
     7
421
 16777215
176
     0
 74
     1
176
     0
 91
        4
176
     0
 64
     7
176
     0
 65
   257
176
     0
 75
     1
176
     0
175
     1
176
     0
 42
1.0
176
     0
 92
        8
176
     2
 66
     7
176
     0
 43
1.0
176
     0
 76
     1
176
     0
 77
     6
176
     0
 78
     2
176
     0
 67
     7
176
     0
 79
     5
176
     0
170
     0
176
     0
171
     0
176
     0
290
     0
176
     0
 93
        1
176
     0
 44
0.0
176
     0
173
     0
176
     0
1001
ACAD
1000
AcDbSavedByObjectVersion
1070
     0
  0
VISUALSTYLE
  5
38
102
{ACAD_XDICTIONARY
360
18C
102
}
102
{ACAD_REACTORS
330
29
102
}
330
29
100
AcDbVisualStyle
  2
Facepattern
 70
    15
177
     2
291
     1
 71
     2
176
     1
 72
     2
176
     1
 73
     0
176
     1
 90
        0
176
     1
 40
0.6
176
     1
 41
30.0
176
     1
 63
     7
421
 16777215
176
     1
 74
     1
176
     1
 91
        4
176
     1
 64
     7
176
     1
 65
   257
176
     1
 75
     1
176
     1
175
     1
176
     1
 42
1.0
176
     1
 92
        8
176
     1
 66
     7
176
     1
 43
1.0
176
     1
 76
     1
176
     1
 77
     6
176
     1
 78
     2
176
     1
 67
     7
176
     1
 79
     5
176
     1
170
     0
176
     1
171
     0
176
     1
290
     0
176
     1
 93
        1
176
     1
 44
0.0
176
     1
173
     0
176
     1
1001
ACAD
1000
AcDbSavedByObjectVersion
1070
     0
  0
VISUALSTYLE
  5
2A
102
{ACAD_XDICTIONARY
360
170
102
}
102
{ACAD_REACTORS
330
29
102
}
330
29
100
AcDbVisualStyle
  2
Flat
 70
     0
177
     2
291
     1
 71
     2
176
     1
 72
     1
176
     1
 73
     1
176
     1
 90
        2
176
     1
 40
0.6
176
     1
 41
30.0
176
     1
 63
     7
421
 16777215
176
     1
 74
     0
176
     1
 91
        0
176
     1
 64
     7
176
     1
 65
   257
176
     1
 75
     1
176
     1
175
     1
176
     1
 42
1.0
176
     1
 92
        8
176
     1
 66
     7
176
     1
 43
1.0
176
     1
 76
     1
176
     1
 77
     6
176
     1
 78
     2
176
     1
 67
     7
176
     1
 79
     5
176
     1
170
     0
176
     1
171
     0
176
     1
290
     0
176
     1
 93
       13
176
     1
 44
0.0
176
     1
173
     0
176
     1
1001
ACAD
1000
AcDbSavedByObjectVersion
1070
     0
  0
VISUALSTYLE
  5
2B
102
{ACAD_XDICTIONARY
360
172
102
}
102
{ACAD_REACTORS
330
29
102
}
330
29
100
AcDbVisualStyle
  2
FlatWithEdges
 70
     1
177
     2
291
     1
 71
     2
176
     1
 72
     1
176
     1
 73
     1
176
     1
 90
        2
176
     1
 40
0.6
176
     1
 41
30.0
176
     1
 63
     7
421
 16777215
176
     1
 74
     1
176
     1
 91
        0
176
     1
 64
     7
176
     1
 65
   257
176
     1
 75
     1
176
     1
175
     1
176
     1
 42
1.0
176
     1
 92
        0
176
     1
 66
   257
176
     1
 43
1.0
176
     1
 76
     1
176
     1
 77
     6
176
     1
 78
     2
176
     1
 67
     7
176
     1
 79
     5
176
     1
170
     0
176
     1
171
     0
176
     1
290
     0
176
     1
 93
       13
176
     1
 44
0.0
176
     1
173
     0
176
     1
1001
ACAD
1000
AcDbSavedByObjectVersion
1070
     0
  0
VISUALSTYLE
  5
2C
102
{ACAD_XDICTIONARY
360
174
102
}
102
{ACAD_REACTORS
330
29
102
}
330
29
100
AcDbVisualStyle
  2
Gouraud
 70
     2
177
     2
291
     1
 71
     2
176
     1
 72
     2
176
     1
 73
     1
176
     1
 90
        2
176
     1
 40
0.6
176
     1
 41
30.0
176
     1
 63
     7
421
 16777215
176
     1
 74
     0
176
     1
 91
        0
176
     1
 64
     7
176
     1
 65
   257
176
     1
 75
     1
176
     1
175
     1
176
     1
 42
1.0
176
     1
 92
        0
176
     1
 66
     7
176
     1
 43
1.0
176
     1
 76
     1
176
     1
 77
     6
176
     1
 78
     2
176
     1
 67
     7
176
     1
 79
     5
176
     1
170
     0
176
     1
171
     0
176
     1
290
     0
176
     1
 93
       13
176
     1
 44
0.0
176
     1
173
     0
176
     1
1001
ACAD
1000
AcDbSavedByObjectVersion
1070
     0
  0
VISUALSTYLE
  5
2D
102
{ACAD_XDICTIONARY
360
176
102
}
102
{ACAD_REACTORS
330
29
102
}
330
29
100
AcDbVisualStyle
  2
GouraudWithEdges
 70
     3
177
     2
291
     1
 71
     2
176
     1
 72
     2
176
     1
 73
     1
176
     1
 90
        2
176
     1
 40
0.6
176
     1
 41
30.0
176
     1
 63
     7
421
 16777215
176
     1
 74
     1
176
     1
 91
        0
176
     1
 64
     7
176
     1
 65
   257
176
     1
 75
     1
176
     1
175
     1
176
     1
 42
1.0
176
     1
 92
        0
176
     1
 66
   257
176
     1
 43
1.0
176
     1
 76
     1
176
     1
 77
     6
176
     1
 78
     2
176
     1
 67
     7
176
     1
 79
     5
176
     1
170
     0
176
     1
171
     0
176
     1
290
     0
176
     1
 93
       13
176
     1
 44
0.0
176
     1
173
     0
176
     1
1001
ACAD
1000
AcDbSavedByObjectVersion
1070
     0
  0
VISUALSTYLE
  5
31
102
{ACAD_XDICTIONARY
360
17E
102
}
102
{ACAD_REACTORS
330
29
102
}
330
29
100
AcDbVisualStyle
  2
Hidden
 70
     6
177
     2
291
     0
 71
     1
176
     1
 72
     2
176
     1
 73
     2
176
     1
 90
        0
176
     1
 40
0.6
176
     1
 41
30.0
176
     1
 63
     7
421
 16777215
176
     1
 74
     2
176
     1
 91
        2
176
     1
 64
     7
176
     1
 65
   257
176
     1
 75
     2
176
     1
175
     1
176
     1
 42
40.0
176
     1
 92
        0
176
     1
 66
   257
176
     1
 43
1.0
176
     1
 76
     1
176
     1
 77
     6
176
     1
 78
     2
176
     1
 67
     7
176
     1
 79
     3
176
     1
170
     0
176
     1
171
     0
176
     1
290
     0
176
     1
 93
        1
176
     1
 44
0.0
176
     1
173
     0
176
     1
1001
ACAD
1000
AcDbSavedByObjectVersion
1070
     0
  0
VISUALSTYLE
  5
3F
102
{ACAD_XDICTIONARY
360
19A
102
}
102
{ACAD_REACTORS
330
29
102
}
330
29
100
AcDbVisualStyle
  2
JitterOff
 70
    20
177
     2
291
     1
 71
     2
176
     0
 72
     2
176
     0
 73
     0
176
     0
 90
        0
176
     0
 40
0.6
176
     0
 41
30.0
176
     0
 63
     7
421
 16777215
176
     0
 74
     1
176
     0
 91
        4
176
     0
 64
     7
176
     0
 65
   257
176
     0
 75
     1
176
     0
175
     1
176
     0
 42
1.0
176
     0
 92
       10
176
     2
 66
     7
176
     0
 43
1.0
176
     0
 76
     1
176
     0
 77
     6
176
     0
 78
     2
176
     0
 67
     7
176
     0
 79
     5
176
     0
170
     0
176
     0
171
     0
176
     0
290
     0
176
     0
 93
        1
176
     0
 44
0.0
176
     0
173
     0
176
     0
1001
ACAD
1000
AcDbSavedByObjectVersion
1070
     0
  0
VISUALSTYLE
  5
37
102
{ACAD_XDICTIONARY
360
18A
102
}
102
{ACAD_REACTORS
330
29
102
}
330
29
100
AcDbVisualStyle
  2
Linepattern
 70
    14
177
     2
291
     1
 71
     2
176
     1
 72
     2
176
     1
 73
     0
176
     1
 90
        0
176
     1
 40
0.6
176
     1
 41
30.0
176
     1
 63
     7
421
 16777215
176
     1
 74
     1
176
     1
 91
        4
176
     1
 64
     7
176
     1
 65
   257
176
     1
 75
     7
176
     1
175
     7
176
     1
 42
1.0
176
     1
 92
        8
176
     1
 66
     7
176
     1
 43
1.0
176
     1
 76
     1
176
     1
 77
     6
176
     1
 78
     2
176
     1
 67
     7
176
     1
 79
     5
176
     1
170
     0
176
     1
171
     0
176
     1
290
     0
176
     1
 93
        1
176
     1
 44
0.0
176
     1
173
     0
176
     1
1001
ACAD
1000
AcDbSavedByObjectVersion
1070
     0
  0
VISUALSTYLE
  5
40
102
{ACAD_XDICTIONARY
360
19C
102
}
102
{ACAD_REACTORS
330
29
102
}
330
29
100
AcDbVisualStyle
  2
OverhangOff
 70
    21
177
     2
291
     1
 71
     2
176
     0
 72
     2
176
     0
 73
     0
176
     0
 90
        0
176
     0
 40
0.6
176
     0
 41
30.0
176
     0
 63
     7
421
 16777215
176
     0
 74
     1
176
     0
 91
        4
176
     0
 64
     7
176
     0
 65
   257
176
     0
 75
     1
176
     0
175
     1
176
     0
 42
1.0
176
     0
 92
        9
176
     2
 66
     7
176
     0
 43
1.0
176
     0
 76
     1
176
     0
 77
     6
176
     0
 78
     2
176
     0
 67
     7
176
     0
 79
     5
176
     0
170
     0
176
     0
171
     0
176
     0
290
     0
176
     0
 93
        1
176
     0
 44
0.0
176
     0
173
     0
176
     0
1001
ACAD
1000
AcDbSavedByObjectVersion
1070
     0
  0
VISUALSTYLE
  5
33
102
{ACAD_XDICTIONARY
360
182
102
}
102
{ACAD_REACTORS
330
29
102
}
330
29
100
AcDbVisualStyle
  2
Realistic
 70
     8
177
     2
291
     0
 71
     2
176
     1
 72
     3
176
     1
 73
     0
176
     1
 90
        2
176
     1
 40
0.6
176
     1
 41
30.0
176
     1
 63
     7
421
 16777215
176
     1
 74
     0
176
     1
 91
        0
176
     1
 64
     7
176
     1
 65
   257
176
     1
 75
     1
176
     1
175
     1
176
     1
 42
1.0
176
     1
 92
        8
176
     1
 66
   257
176
     1
 43
1.0
176
     1
 76
     1
176
     1
 77
     6
176
     1
 78
     2
176
     1
 67
     7
176
     1
 79
     3
176
     1
170
     0
176
     1
171
     0
176
     1
290
     0
176
     1
 93
       13
176
     1
 44
0.0
176
     1
173
     0
176
     1
1001
ACAD
1000
AcDbSavedByObjectVersion
1070
     0
  0
VISUALSTYLE
  5
3E
102
{ACAD_XDICTIONARY
360
198
102
}
102
{ACAD_REACTORS
330
29
102
}
330
29
100
AcDbVisualStyle
  2
Shaded
 70
    27
177
     2
291
     0
 71
     2
176
     1
 72
     2
176
     1
 73
     1
176
     1
 90
        2
176
     1
 40
0.6
176
     1
 41
30.0
176
     1
 63
     7
421
 16777215
176
     1
 74
     0
176
     1
 91
        4
176
     1
 64
     7
176
     1
 65
   257
176
     1
 75
     1
176
     1
175
     1
176
     1
 42
1.0
176
     1
 92
        8
176
     1
 66
   257
176
     1
 43
1.0
176
     1
 76
     1
176
     1
 77
     6
176
     1
 78
     2
176
     1
 67
     8
425
  7895160
176
     1
 79
     3
176
     1
170
     0
176
     1
171
     0
176
     1
290
     0
176
     1
 93
        5
176
     1
 44
0.0
176
     1
173
     0
176
     1
1001
ACAD
1000
AcDbSavedByObjectVersion
1070
     0
  0
VISUALSTYLE
  5
3D
102
{ACAD_XDICTIONARY
360
196
102
}
102
{ACAD_REACTORS
330
29
102
}
330
29
100
AcDbVisualStyle
  2
Shaded with edges
 70
    26
177
     2
291
     0
 71
     2
176
     1
 72
     2
176
     1
 73
     1
176
     1
 90
        2
176
     1
 40
0.6
176
     1
 41
30.0
176
     1
 63
     7
421
 16777215
176
     1
 74
     1
176
     1
 91
        2
176
     1
 64
     7
176
     1
 65
   257
176
     1
 75
     2
176
     1
175
     1
176
     1
 42
1.0
176
     1
 92
        8
176
     1
 66
   257
176
     1
 43
1.0
176
     1
 76
     1
176
     1
 77
     6
176
     1
 78
     2
176
     1
 67
     7
176
     1
 79
     3
176
     1
170
     0
176
     1
171
     0
176
     1
290
     0
176
     1
 93
        5
176
     1
 44
0.0
176
     1
173
     0
176
     1
1001
ACAD
1000
AcDbSavedByObjectVersion
1070
     0
  0
VISUALSTYLE
  5
3A
102
{ACAD_XDICTIONARY
360
190
102
}
102
{ACAD_REACTORS
330
29
102
}
330
29
100
AcDbVisualStyle
  2
Shades of Gray
 70
    23
177
     2
291
     0
 71
     2
176
     1
 72
     2
176
     1
 73
     3
176
     1
 90
        0
176
     1
 40
0.6
176
     1
 41
30.0
176
     1
 63
     7
421
 16777215
176
     1
 74
     2
176
     1
 91
        2
176
     1
 64
     7
176
     1
 65
     7
176
     1
 75
     1
176
     1
175
     1
176
     1
 42
40.0
176
     1
 92
        8
176
     1
 66
     7
176
     1
 43
1.0
176
     1
 76
     1
176
     1
 77
     6
176
     1
 78
     2
176
     1
 67
     7
176
     1
 79
     3
176
     1
170
     0
176
     1
171
     0
176
     1
290
     0
176
     1
 93
        1
176
     1
 44
0.0
176
     1
173
     0
176
     1
1001
ACAD
1000
AcDbSavedByObjectVersion
1070
     0
  0
VISUALSTYLE
  5
3B
102
{ACAD_XDICTIONARY
360
192
102
}
102
{ACAD_REACTORS
330
29
102
}
330
29
100
AcDbVisualStyle
  2
Sketchy
 70
    24
177
     2
291
     0
 71
     1
176
     1
 72
     2
176
     1
 73
     2
176
     1
 90
        0
176
     1
 40
0.6
176
     1
 41
30.0
176
     1
 63
     7
421
 16777215
176
     1
 74
     2
176
     1
 91
        2
176
     1
 64
     7
176
     1
 65
     7
176
     1
 75
     1
176
     1
175
     1
176
     1
 42
40.0
176
     1
 92
       11
176
     1
 66
     7
176
     1
 43
1.0
176
     1
 76
     1
176
     1
 77
     6
176
     1
 78
     2
176
     1
 67
     7
176
     1
 79
     6
176
     1
170
     0
176
     1
171
     0
176
     1
290
     0
176
     1
 93
        1
176
     1
 44
0.0
176
     1
173
     0
176
     1
1001
ACAD
1000
AcDbSavedByObjectVersion
1070
     0
  0
VISUALSTYLE
  5
36
102
{ACAD_XDICTIONARY
360
188
102
}
102
{ACAD_REACTORS
330
29
102
}
330
29
100
AcDbVisualStyle
  2
Thicken
 70
    13
177
     2
291
     1
 71
     2
176
     1
 72
     2
176
     1
 73
     0
176
     1
 90
        0
176
     1
 40
0.6
176
     1
 41
30.0
176
     1
 63
     7
421
 16777215
176
     1
 74
     1
176
     1
 91
        4
176
     1
 64
     7
176
     1
 65
   257
176
     1
 75
     1
176
     1
175
     1
176
     1
 42
1.0
176
     1
 92
       12
176
     1
 66
     7
176
     1
 43
1.0
176
     1
 76
     1
176
     1
 77
     6
176
     1
 78
     2
176
     1
 67
     7
176
     1
 79
     5
176
     1
170
     0
176
     1
171
     0
176
     1
290
     0
176
     1
 93
        1
176
     1
 44
0.0
176
     1
173
     0
176
     1
1001
ACAD
1000
AcDbSavedByObjectVersion
1070
     0
  0
VISUALSTYLE
  5
30
102
{ACAD_XDICTIONARY
360
17C
102
}
102
{ACAD_REACTORS
330
29
102
}
330
29
100
AcDbVisualStyle
  2
Wireframe
 70
     5
177
     2
291
     0
 71
     0
176
     1
 72
     2
176
     1
 73
     0
176
     1
 90
        0
176
     1
 40
0.6
176
     1
 41
30.0
176
     1
 63
     7
421
 16777215
176
     1
 74
     1
176
     1
 91
        4
176
     1
 64
     7
176
     1
 65
   257
176
     1
 75
     1
176
     1
175
     1
176
     1
 42
1.0
176
     1
 92
        0
176
     1
 66
   257
176
     1
 43
1.0
176
     1
 76
     1
176
     1
 77
     6
176
     1
 78
     2
176
     1
 67
     7
176
     1
 79
     3
176
     1
170
     0
176
     1
171
     0
176
     1
290
     0
176
     1
 93
        1
176
     1
 44
0.0
176
     1
173
     0
176
     1
1001
ACAD
1000
AcDbSavedByObjectVersion
1070
     0
  0
VISUALSTYLE
  5
3C
102
{ACAD_XDICTIONARY
360
194
102
}
102
{ACAD_REACTORS
330
29
102
}
330
29
100
AcDbVisualStyle
  2
X-Ray
 70
    25
177
     2
291
     0
 71
     2
176
     1
 72
     2
176
     1
 73
     1
176
     1
 90
        1
176
     1
 40
0.5
176
     1
 41
30.0
176
     1
 63
     7
421
 16777215
176
     1
 74
     1
176
     1
 91
        0
176
     1
 64
     7
176
     1
 65
   257
176
     1
 75
     1
176
     1
175
     1
176
     1
 42
1.0
176
     1
 92
        8
176
     1
 66
     7
176
     1
 43
1.0
176
     1
 76
     1
176
     1
 77
     6
176
     1
 78
     2
176
     1
 67
     7
176
     1
 79
     3
176
     1
170
     0
176
     1
171
     0
176
     1
290
     0
176
     1
 93
       13
176
     1
 44
0.0
176
     1
173
     0
176
     1
1001
ACAD
1000
AcDbSavedByObjectVersion
1070
     0
  0
DICTIONARYVAR
  5
16C
102
{ACAD_REACTORS
330
167
102
}
330
167
100
DictionaryVariables
280
     0
  1
1:1
  0
DICTIONARYVAR
  5
169
102
{ACAD_REACTORS
330
167
102
}
330
167
100
DictionaryVariables
280
     0
  1
STANDARD
  0
DICTIONARYVAR
  5
168
102
{ACAD_REACTORS
330
167
102
}
330
167
100
DictionaryVariables
280
     0
  1
STANDARD
  0
DICTIONARYVAR
  5
16A
102
{ACAD_REACTORS
330
167
102
}
330
167
100
DictionaryVariables
280
     0
  1
Imperial24
  0
DICTIONARYVAR
  5
16B
102
{ACAD_REACTORS
330
167
102
}
330
167
100
DictionaryVariables
280
     0
  1
Imperial24
  0
DICTIONARY
  5
1A4
330
6B
100
AcDbDictionary
280
     1
281
     1
  3
ACAD_XREC_ROUNDTRIP
360
1A5
  0
DICTIONARY
  5
1A
330
19
100
AcDbDictionary
280
     1
281
     1
  3
BUMPTILE
360
1C
  3
DIFFUSETILE
360
1B
  3
OPACITYTILE
360
1F
  3
REFLECTIONTILE
360
1E
  3
REFRACTIONTILE
360
20
  3
SPECULARTILE
360
1D
  0
DICTIONARY
  5
12
330
11
100
AcDbDictionary
280
     1
281
     1
  3
BUMPTILE
360
14
  3
DIFFUSETILE
360
13
  3
OPACITYTILE
360
17
  3
REFLECTIONTILE
360
16
  3
REFRACTIONTILE
360
18
  3
SPECULARTILE
360
15
  0
DICTIONARY
  5
22
330
21
100
AcDbDictionary
280
     1
281
     1
  3
BUMPTILE
360
24
  3
DIFFUSETILE
360
23
  3
OPACITYTILE
360
27
  3
REFLECTIONTILE
360
26
  3
REFRACTIONTILE
360
28
  3
SPECULARTILE
360
25
  0
DICTIONARY
  5
1A0
330
67
100
AcDbDictionary
280
     1
281
     1
  3
ACAD_XREC_ROUNDTRIP
360
1A1
  0
DICTIONARY
  5
1A2
330
69
100
AcDbDictionary
280
     1
281
     1
  3
ACAD_XREC_ROUNDTRIP
360
1A3
  0
DICTIONARY
  5
16D
330
65
100
AcDbDictionary
280
     1
281
     1
  3
ACAD_ROUNDTRIP_2008_TABLESTYLE_CELLSTYLEMAP
360
16E
  0
DICTIONARY
  5
17A
330
2F
100
AcDbDictionary
280
     1
281
     1
  3
ACAD_XREC_ROUNDTRIP
360
17B
  0
DICTIONARY
  5
178
330
2E
100
AcDbDictionary
280
     1
281
     1
  3
ACAD_XREC_ROUNDTRIP
360
179
  0
DICTIONARY
  5
186
330
35
100
AcDbDictionary
280
     1
281
     1
  3
ACAD_XREC_ROUNDTRIP
360
187
  0
DICTIONARY
  5
18E
330
39
100
AcDbDictionary
280
     1
281
     1
  3
ACAD_XREC_ROUNDTRIP
360
18F
  0
DICTIONARY
  5
180
330
32
100
AcDbDictionary
280
     1
281
     1
  3
ACAD_XREC_ROUNDTRIP
360
181
  0
DICTIONARY
  5
184
330
34
100
AcDbDictionary
280
     1
281
     1
  3
ACAD_XREC_ROUNDTRIP
360
185
  0
DICTIONARY
  5
19E
330
41
100
AcDbDictionary
280
     1
281
     1
  3
ACAD_XREC_ROUNDTRIP
360
19F
  0
DICTIONARY
  5
18C
330
38
100
AcDbDictionary
280
     1
281
     1
  3
ACAD_XREC_ROUNDTRIP
360
18D
  0
DICTIONARY
  5
170
330
2A
100
AcDbDictionary
280
     1
281
     1
  3
ACAD_XREC_ROUNDTRIP
360
171
  0
DICTIONARY
  5
172
330
2B
100
AcDbDictionary
280
     1
281
     1
  3
ACAD_XREC_ROUNDTRIP
360
173
  0
DICTIONARY
  5
174
330
2C
100
AcDbDictionary
280
     1
281
     1
  3
ACAD_XREC_ROUNDTRIP
360
175
  0
DICTIONARY
  5
176
330
2D
100
AcDbDictionary
280
     1
281
     1
  3
ACAD_XREC_ROUNDTRIP
360
177
  0
DICTIONARY
  5
17E
330
31
100
AcDbDictionary
280
     1
281
     1
  3
ACAD_XREC_ROUNDTRIP
360
17F
  0
DICTIONARY
  5
19A
330
3F
100
AcDbDictionary
280
     1
281
     1
  3
ACAD_XREC_ROUNDTRIP
360
19B
  0
DICTIONARY
  5
18A
330
37
100
AcDbDictionary
280
     1
281
     1
  3
ACAD_XREC_ROUNDTRIP
360
18B
  0
DICTIONARY
  5
19C
330
40
100
AcDbDictionary
280
     1
281
     1
  3
ACAD_XREC_ROUNDTRIP
360
19D
  0
DICTIONARY
  5
182
330
33
100
AcDbDictionary
280
     1
281
     1
  3
ACAD_XREC_ROUNDTRIP
360
183
  0
DICTIONARY
  5
198
330
3E
100
AcDbDictionary
280
     1
281
     1
  3
ACAD_XREC_ROUNDTRIP
360
199
  0
DICTIONARY
  5
196
330
3D
100
AcDbDictionary
280
     1
281
     1
  3
ACAD_XREC_ROUNDTRIP
360
197
  0
DICTIONARY
  5
190
330
3A
100
AcDbDictionary
280
     1
281
     1
  3
ACAD_XREC_ROUNDTRIP
360
191
  0
DICTIONARY
  5
192
330
3B
100
AcDbDictionary
280
     1
281
     1
  3
ACAD_XREC_ROUNDTRIP
360
193
  0
DICTIONARY
  5
188
330
36
100
AcDbDictionary
280
     1
281
     1
  3
ACAD_XREC_ROUNDTRIP
360
189
  0
DICTIONARY
  5
17C
330
30
100
AcDbDictionary
280
     1
281
     1
  3
ACAD_XREC_ROUNDTRIP
360
17D
  0
DICTIONARY
  5
194
330
3C
100
AcDbDictionary
280
     1
281
     1
  3
ACAD_XREC_ROUNDTRIP
360
195
  0
XRECORD
  5
1A5
102
{ACAD_REACTORS
330
1A4
102
}
330
1A4
100
AcDbXrecord
280
     1
102
DISPLAYNAME
  1
Imperial24
102
FLAGS
 90
        0
  0
XRECORD
  5
1C
102
{ACAD_REACTORS
330
1A
102
}
330
1A
100
AcDbXrecord
280
     1
270
     1
271
     1
  0
XRECORD
  5
1B
102
{ACAD_REACTORS
330
1A
102
}
330
1A
100
AcDbXrecord
280
     1
270
     1
271
     1
  0
XRECORD
  5
1F
102
{ACAD_REACTORS
330
1A
102
}
330
1A
100
AcDbXrecord
280
     1
270
     1
271
     1
  0
XRECORD
  5
1E
102
{ACAD_REACTORS
330
1A
102
}
330
1A
100
AcDbXrecord
280
     1
270
     1
271
     1
  0
XRECORD
  5
20
102
{ACAD_REACTORS
330
1A
102
}
330
1A
100
AcDbXrecord
280
     1
270
     1
271
     1
  0
XRECORD
  5
1D
102
{ACAD_REACTORS
330
1A
102
}
330
1A
100
AcDbXrecord
280
     1
270
     1
271
     1
  0
XRECORD
  5
14
102
{ACAD_REACTORS
330
12
102
}
330
12
100
AcDbXrecord
280
     1
270
     1
271
     1
  0
XRECORD
  5
13
102
{ACAD_REACTORS
330
12
102
}
330
12
100
AcDbXrecord
280
     1
270
     1
271
     1
  0
XRECORD
  5
17
102
{ACAD_REACTORS
330
12
102
}
330
12
100
AcDbXrecord
280
     1
270
     1
271
     1
  0
XRECORD
  5
16
102
{ACAD_REACTORS
330
12
102
}
330
12
100
AcDbXrecord
280
     1
270
     1
271
     1
  0
XRECORD
  5
18
102
{ACAD_REACTORS
330
12
102
}
330
12
100
AcDbXrecord
280
     1
270
     1
271
     1
  0
XRECORD
  5
15
102
{ACAD_REACTORS
330
12
102
}
330
12
100
AcDbXrecord
280
     1
270
     1
271
     1
  0
XRECORD
  5
24
102
{ACAD_REACTORS
330
22
102
}
330
22
100
AcDbXrecord
280
     1
270
     1
271
     1
  0
XRECORD
  5
23
102
{ACAD_REACTORS
330
22
102
}
330
22
100
AcDbXrecord
280
     1
270
     1
271
     1
  0
XRECORD
  5
27
102
{ACAD_REACTORS
330
22
102
}
330
22
100
AcDbXrecord
280
     1
270
     1
271
     1
  0
XRECORD
  5
26
102
{ACAD_REACTORS
330
22
102
}
330
22
100
AcDbXrecord
280
     1
270
     1
271
     1
  0
XRECORD
  5
28
102
{ACAD_REACTORS
330
22
102
}
330
22
100
AcDbXrecord
280
     1
270
     1
271
     1
  0
XRECORD
  5
25
102
{ACAD_REACTORS
330
22
102
}
330
22
100
AcDbXrecord
280
     1
270
     1
271
     1
  0
XRECORD
  5
1A1
102
{ACAD_REACTORS
330
1A0
102
}
330
1A0
100
AcDbXrecord
280
     1
102
ACAD_ROUNDTRIP_2012_MLEADER_STYLE
298
     1
  0
XRECORD
  5
1A3
102
{ACAD_REACTORS
330
1A2
102
}
330
1A2
100
AcDbXrecord
280
     1
102
DISPLAYNAME
  1
Imperial24
102
FLAGS
 90
        0
  0
CELLSTYLEMAP
  5
16E
102
{ACAD_REACTORS
330
16D
102
}
330
16D
100
AcDbCellStyleMap
 90
        3
300
CELLSTYLE
  1
TABLEFORMAT_BEGIN
 90
        5
170
     1
 91
        0
 92
    32768
 62
   257
 93
        1
300
CONTENTFORMAT
  1
CONTENTFORMAT_BEGIN
 90
        0
 91
        0
 92
      512
 93
        0
300

 40
0.0
140
1.0
 94
        5
 62
     0
340
55
144
0.25
309
CONTENTFORMAT_END
171
     0
 94
        0
309
TABLEFORMAT_END
  1
CELLSTYLE_BEGIN
 90
        1
 91
        1
300
_TITLE
309
CELLSTYLE_END
300
CELLSTYLE
  1
TABLEFORMAT_BEGIN
 90
        5
170
     1
 91
        0
 92
        0
 62
   257
 93
        1
300
CONTENTFORMAT
  1
CONTENTFORMAT_BEGIN
 90
        0
 91
        0
 92
      512
 93
        0
300

 40
0.0
140
1.0
 94
        5
 62
     0
340
55
144
0.18
309
CONTENTFORMAT_END
171
     0
 94
        0
309
TABLEFORMAT_END
  1
CELLSTYLE_BEGIN
 90
        2
 91
        1
300
_HEADER
309
CELLSTYLE_END
300
CELLSTYLE
  1
TABLEFORMAT_BEGIN
 90
        5
170
     1
 91
        0
 92
        0
 62
   257
 93
        1
300
CONTENTFORMAT
  1
CONTENTFORMAT_BEGIN
 90
        0
 91
        0
 92
      512
 93
        0
300

 40
0.0
140
1.0
 94
        2
 62
     0
340
55
144
0.18
309
CONTENTFORMAT_END
171
     0
 94
        0
309
TABLEFORMAT_END
  1
CELLSTYLE_BEGIN
 90
        3
 91
        2
300
_DATA
309
CELLSTYLE_END
  0
XRECORD
  5
17B
102
{ACAD_REACTORS
330
17A
102
}
330
17A
100
AcDbXrecord
280
     1
102
RTVSPost2010Prop28
280
     1
102
RTVSPost2010PropOp28
 70
     1
102
RTVSPost2010Prop29
280
     1
102
RTVSPost2010PropOp29
 70
     1
102
RTVSPost2010Prop30
280
     0
102
RTVSPost2010PropOp30
 70
     1
102
RTVSPost2010Prop31
280
     0
102
RTVSPost2010PropOp31
 70
     1
102
RTVSPost2010Prop32
280
     0
102
RTVSPost2010PropOp32
 70
     1
102
RTVSPost2010Prop33
280
     0
102
RTVSPost2010PropOp33
 70
     1
102
RTVSPost2010Prop34
280
     0
102
RTVSPost2010PropOp34
 70
     1
102
RTVSPost2010Prop35
280
     0
102
RTVSPost2010PropOp35
 70
     1
102
RTVSPost2010Prop36
280
     0
102
RTVSPost2010PropOp36
 70
     1
102
RTVSPost2010Prop37
 90
       50
102
RTVSPost2010PropOp37
 70
     1
102
RTVSPost2010Prop38
140
0.0
102
RTVSPost2010PropOp38
 70
     1
102
RTVSPost2010Prop39
140
1.0
102
RTVSPost2010PropOp39
 70
     1
102
RTVSPost2010Prop40
 90
        0
102
RTVSPost2010PropOp40
 70
     1
102
RTVSPost2010Prop41ColorIndex
 90
       18
102
RTVSPost2010Prop41ColorRGB
 90
        0
102
RTVSPost2010PropOp41
 70
     1
102
RTVSPost2010Prop42
 90
       50
102
RTVSPost2010PropOp42
 70
     1
102
RTVSPost2010Prop43
 90
        3
102
RTVSPost2010PropOp43
 70
     1
102
RTVSPost2010Prop44ColorIndex
 90
        5
102
RTVSPost2010Prop44ColorRGB
 90
      255
102
RTVSPost2010PropOp44
 70
     1
102
RTVSPost2010Prop45
280
     0
102
RTVSPost2010PropOp45
 70
     1
102
RTVSPost2010Prop46
 90
       50
102
RTVSPost2010PropOp46
 70
     1
102
RTVSPost2010Prop47
 90
       50
102
RTVSPost2010PropOp47
 70
     1
102
RTVSPost2010Prop48
 90
       50
102
RTVSPost2010PropOp48
 70
     1
102
RTVSPost2010Prop49
280
     0
102
RTVSPost2010PropOp49
 70
     1
102
RTVSPost2010Prop50
 90
       50
102
RTVSPost2010PropOp50
 70
     1
102
RTVSPost2010Prop51ColorIndex
 90
      256
102
RTVSPost2010Prop51ColorRGB
 90
-16777216
102
RTVSPost2010PropOp51
 70
     0
102
RTVSPost2010Prop52
140
1.0
102
RTVSPost2010PropOp52
 70
     0
102
RTVSPost2010Prop53
 90
        2
102
RTVSPost2010PropOp53
 70
     1
102
RTVSPost2010Prop54
  1
strokes_ogs.tif
102
RTVSPost2010PropOp54
 70
     1
102
RTVSPost2010Prop55
280
     0
102
RTVSPost2010PropOp55
 70
     1
102
RTVSPost2010Prop56
140
1.0
102
RTVSPost2010PropOp56
 70
     1
102
RTVSPost2010Prop57
140
1.0
102
RTVSPost2010PropOp57
 70
     1
  0
XRECORD
  5
179
102
{ACAD_REACTORS
330
178
102
}
330
178
100
AcDbXrecord
280
     1
102
RTVSPost2010Prop28
280
     0
102
RTVSPost2010PropOp28
 70
     1
102
RTVSPost2010Prop29
280
     1
102
RTVSPost2010PropOp29
 70
     1
102
RTVSPost2010Prop30
280
     1
102
RTVSPost2010PropOp30
 70
     1
102
RTVSPost2010Prop31
280
     0
102
RTVSPost2010PropOp31
 70
     1
102
RTVSPost2010Prop32
280
     0
102
RTVSPost2010PropOp32
 70
     1
102
RTVSPost2010Prop33
280
     0
102
RTVSPost2010PropOp33
 70
     1
102
RTVSPost2010Prop34
280
     0
102
RTVSPost2010PropOp34
 70
     1
102
RTVSPost2010Prop35
280
     0
102
RTVSPost2010PropOp35
 70
     1
102
RTVSPost2010Prop36
280
     0
102
RTVSPost2010PropOp36
 70
     1
102
RTVSPost2010Prop37
 90
       50
102
RTVSPost2010PropOp37
 70
     1
102
RTVSPost2010Prop38
140
0.0
102
RTVSPost2010PropOp38
 70
     1
102
RTVSPost2010Prop39
140
1.0
102
RTVSPost2010PropOp39
 70
     1
102
RTVSPost2010Prop40
 90
        0
102
RTVSPost2010PropOp40
 70
     1
102
RTVSPost2010Prop41ColorIndex
 90
       18
102
RTVSPost2010Prop41ColorRGB
 90
        0
102
RTVSPost2010PropOp41
 70
     1
102
RTVSPost2010Prop42
 90
       50
102
RTVSPost2010PropOp42
 70
     1
102
RTVSPost2010Prop43
 90
        3
102
RTVSPost2010PropOp43
 70
     1
102
RTVSPost2010Prop44ColorIndex
 90
        5
102
RTVSPost2010Prop44ColorRGB
 90
      255
102
RTVSPost2010PropOp44
 70
     1
102
RTVSPost2010Prop45
280
     0
102
RTVSPost2010PropOp45
 70
     1
102
RTVSPost2010Prop46
 90
       50
102
RTVSPost2010PropOp46
 70
     1
102
RTVSPost2010Prop47
 90
       50
102
RTVSPost2010PropOp47
 70
     1
102
RTVSPost2010Prop48
 90
       50
102
RTVSPost2010PropOp48
 70
     1
102
RTVSPost2010Prop49
280
     0
102
RTVSPost2010PropOp49
 70
     1
102
RTVSPost2010Prop50
 90
       50
102
RTVSPost2010PropOp50
 70
     1
102
RTVSPost2010Prop51ColorIndex
 90
      256
102
RTVSPost2010Prop51ColorRGB
 90
-16777216
102
RTVSPost2010PropOp51
 70
     0
102
RTVSPost2010Prop52
140
1.0
102
RTVSPost2010PropOp52
 70
     0
102
RTVSPost2010Prop53
 90
        2
102
RTVSPost2010PropOp53
 70
     1
102
RTVSPost2010Prop54
  1
strokes_ogs.tif
102
RTVSPost2010PropOp54
 70
     1
102
RTVSPost2010Prop55
280
     0
102
RTVSPost2010PropOp55
 70
     1
102
RTVSPost2010Prop56
140
1.0
102
RTVSPost2010PropOp56
 70
     1
102
RTVSPost2010Prop57
140
1.0
102
RTVSPost2010PropOp57
 70
     1
  0
XRECORD
  5
187
102
{ACAD_REACTORS
330
186
102
}
330
186
100
AcDbXrecord
280
     1
102
RTVSPost2010Prop28
280
     0
102
RTVSPost2010PropOp28
 70
     1
102
RTVSPost2010Prop29
280
     1
102
RTVSPost2010PropOp29
 70
     1
102
RTVSPost2010Prop30
280
     1
102
RTVSPost2010PropOp30
 70
     1
102
RTVSPost2010Prop31
280
     0
102
RTVSPost2010PropOp31
 70
     1
102
RTVSPost2010Prop32
280
     0
102
RTVSPost2010PropOp32
 70
     1
102
RTVSPost2010Prop33
280
     0
102
RTVSPost2010PropOp33
 70
     1
102
RTVSPost2010Prop34
280
     0
102
RTVSPost2010PropOp34
 70
     1
102
RTVSPost2010Prop35
280
     0
102
RTVSPost2010PropOp35
 70
     1
102
RTVSPost2010Prop36
280
     0
102
RTVSPost2010PropOp36
 70
     1
102
RTVSPost2010Prop37
 90
       50
102
RTVSPost2010PropOp37
 70
     1
102
RTVSPost2010Prop38
140
0.0
102
RTVSPost2010PropOp38
 70
     1
102
RTVSPost2010Prop39
140
1.0
102
RTVSPost2010PropOp39
 70
     1
102
RTVSPost2010Prop40
 90
        0
102
RTVSPost2010PropOp40
 70
     1
102
RTVSPost2010Prop41ColorIndex
 90
       18
102
RTVSPost2010Prop41ColorRGB
 90
        0
102
RTVSPost2010PropOp41
 70
     1
102
RTVSPost2010Prop42
 90
       50
102
RTVSPost2010PropOp42
 70
     1
102
RTVSPost2010Prop43
 90
        3
102
RTVSPost2010PropOp43
 70
     1
102
RTVSPost2010Prop44ColorIndex
 90
        5
102
RTVSPost2010Prop44ColorRGB
 90
      255
102
RTVSPost2010PropOp44
 70
     1
102
RTVSPost2010Prop45
280
     0
102
RTVSPost2010PropOp45
 70
     1
102
RTVSPost2010Prop46
 90
       50
102
RTVSPost2010PropOp46
 70
     1
102
RTVSPost2010Prop47
 90
       50
102
RTVSPost2010PropOp47
 70
     1
102
RTVSPost2010Prop48
 90
       50
102
RTVSPost2010PropOp48
 70
     1
102
RTVSPost2010Prop49
280
     0
102
RTVSPost2010PropOp49
 70
     1
102
RTVSPost2010Prop50
 90
       50
102
RTVSPost2010PropOp50
 70
     1
102
RTVSPost2010Prop51ColorIndex
 90
      256
102
RTVSPost2010Prop51ColorRGB
 90
-16777216
102
RTVSPost2010PropOp51
 70
     0
102
RTVSPost2010Prop52
140
1.0
102
RTVSPost2010PropOp52
 70
     0
102
RTVSPost2010Prop53
 90
        2
102
RTVSPost2010PropOp53
 70
     1
102
RTVSPost2010Prop54
  1
strokes_ogs.tif
102
RTVSPost2010PropOp54
 70
     1
102
RTVSPost2010Prop55
280
     0
102
RTVSPost2010PropOp55
 70
     1
102
RTVSPost2010Prop56
140
1.0
102
RTVSPost2010PropOp56
 70
     1
102
RTVSPost2010Prop57
140
1.0
102
RTVSPost2010PropOp57
 70
     1
  0
XRECORD
  5
18F
102
{ACAD_REACTORS
330
18E
102
}
330
18E
100
AcDbXrecord
280
     1
102
RTVSPost2010Prop28
280
     0
102
RTVSPost2010PropOp28
 70
     1
102
RTVSPost2010Prop29
280
     1
102
RTVSPost2010PropOp29
 70
     1
102
RTVSPost2010Prop30
280
     1
102
RTVSPost2010PropOp30
 70
     1
102
RTVSPost2010Prop31
280
     0
102
RTVSPost2010PropOp31
 70
     1
102
RTVSPost2010Prop32
280
     0
102
RTVSPost2010PropOp32
 70
     1
102
RTVSPost2010Prop33
280
     0
102
RTVSPost2010PropOp33
 70
     1
102
RTVSPost2010Prop34
280
     0
102
RTVSPost2010PropOp34
 70
     1
102
RTVSPost2010Prop35
280
     0
102
RTVSPost2010PropOp35
 70
     1
102
RTVSPost2010Prop36
280
     0
102
RTVSPost2010PropOp36
 70
     1
102
RTVSPost2010Prop37
 90
       50
102
RTVSPost2010PropOp37
 70
     1
102
RTVSPost2010Prop38
140
0.0
102
RTVSPost2010PropOp38
 70
     1
102
RTVSPost2010Prop39
140
1.0
102
RTVSPost2010PropOp39
 70
     1
102
RTVSPost2010Prop40
 90
        0
102
RTVSPost2010PropOp40
 70
     1
102
RTVSPost2010Prop41ColorIndex
 90
       18
102
RTVSPost2010Prop41ColorRGB
 90
        0
102
RTVSPost2010PropOp41
 70
     1
102
RTVSPost2010Prop42
 90
       50
102
RTVSPost2010PropOp42
 70
     1
102
RTVSPost2010Prop43
 90
        3
102
RTVSPost2010PropOp43
 70
     1
102
RTVSPost2010Prop44ColorIndex
 90
        5
102
RTVSPost2010Prop44ColorRGB
 90
      255
102
RTVSPost2010PropOp44
 70
     1
102
RTVSPost2010Prop45
280
     0
102
RTVSPost2010PropOp45
 70
     1
102
RTVSPost2010Prop46
 90
       50
102
RTVSPost2010PropOp46
 70
     1
102
RTVSPost2010Prop47
 90
       50
102
RTVSPost2010PropOp47
 70
     1
102
RTVSPost2010Prop48
 90
       50
102
RTVSPost2010PropOp48
 70
     1
102
RTVSPost2010Prop49
280
     0
102
RTVSPost2010PropOp49
 70
     1
102
RTVSPost2010Prop50
 90
       50
102
RTVSPost2010PropOp50
 70
     1
102
RTVSPost2010Prop51ColorIndex
 90
      256
102
RTVSPost2010Prop51ColorRGB
 90
-16777216
102
RTVSPost2010PropOp51
 70
     0
102
RTVSPost2010Prop52
140
1.0
102
RTVSPost2010PropOp52
 70
     0
102
RTVSPost2010Prop53
 90
        2
102
RTVSPost2010PropOp53
 70
     1
102
RTVSPost2010Prop54
  1
strokes_ogs.tif
102
RTVSPost2010PropOp54
 70
     1
102
RTVSPost2010Prop55
280
     0
102
RTVSPost2010PropOp55
 70
     1
102
RTVSPost2010Prop56
140
1.0
102
RTVSPost2010PropOp56
 70
     1
102
RTVSPost2010Prop57
140
1.0
102
RTVSPost2010PropOp57
 70
     1
  0
XRECORD
  5
181
102
{ACAD_REACTORS
330
180
102
}
330
180
100
AcDbXrecord
280
     1
102
RTVSPost2010Prop28
280
     0
102
RTVSPost2010PropOp28
 70
     1
102
RTVSPost2010Prop29
280
     1
102
RTVSPost2010PropOp29
 70
     1
102
RTVSPost2010Prop30
280
     1
102
RTVSPost2010PropOp30
 70
     1
102
RTVSPost2010Prop31
280
     0
102
RTVSPost2010PropOp31
 70
     1
102
RTVSPost2010Prop32
280
     0
102
RTVSPost2010PropOp32
 70
     1
102
RTVSPost2010Prop33
280
     0
102
RTVSPost2010PropOp33
 70
     1
102
RTVSPost2010Prop34
280
     0
102
RTVSPost2010PropOp34
 70
     1
102
RTVSPost2010Prop35
280
     0
102
RTVSPost2010PropOp35
 70
     1
102
RTVSPost2010Prop36
280
     0
102
RTVSPost2010PropOp36
 70
     1
102
RTVSPost2010Prop37
 90
       50
102
RTVSPost2010PropOp37
 70
     1
102
RTVSPost2010Prop38
140
0.0
102
RTVSPost2010PropOp38
 70
     1
102
RTVSPost2010Prop39
140
1.0
102
RTVSPost2010PropOp39
 70
     1
102
RTVSPost2010Prop40
 90
        0
102
RTVSPost2010PropOp40
 70
     1
102
RTVSPost2010Prop41ColorIndex
 90
       18
102
RTVSPost2010Prop41ColorRGB
 90
        0
102
RTVSPost2010PropOp41
 70
     1
102
RTVSPost2010Prop42
 90
       50
102
RTVSPost2010PropOp42
 70
     1
102
RTVSPost2010Prop43
 90
        3
102
RTVSPost2010PropOp43
 70
     1
102
RTVSPost2010Prop44ColorIndex
 90
        5
102
RTVSPost2010Prop44ColorRGB
 90
      255
102
RTVSPost2010PropOp44
 70
     1
102
RTVSPost2010Prop45
280
     0
102
RTVSPost2010PropOp45
 70
     1
102
RTVSPost2010Prop46
 90
       50
102
RTVSPost2010PropOp46
 70
     1
102
RTVSPost2010Prop47
 90
       50
102
RTVSPost2010PropOp47
 70
     1
102
RTVSPost2010Prop48
 90
       50
102
RTVSPost2010PropOp48
 70
     1
102
RTVSPost2010Prop49
280
     0
102
RTVSPost2010PropOp49
 70
     1
102
RTVSPost2010Prop50
 90
       50
102
RTVSPost2010PropOp50
 70
     1
102
RTVSPost2010Prop51ColorIndex
 90
      256
102
RTVSPost2010Prop51ColorRGB
 90
-16777216
102
RTVSPost2010PropOp51
 70
     0
102
RTVSPost2010Prop52
140
1.0
102
RTVSPost2010PropOp52
 70
     0
102
RTVSPost2010Prop53
 90
        2
102
RTVSPost2010PropOp53
 70
     1
102
RTVSPost2010Prop54
  1
strokes_ogs.tif
102
RTVSPost2010PropOp54
 70
     1
102
RTVSPost2010Prop55
280
     0
102
RTVSPost2010PropOp55
 70
     1
102
RTVSPost2010Prop56
140
1.0
102
RTVSPost2010PropOp56
 70
     1
102
RTVSPost2010Prop57
140
1.0
102
RTVSPost2010PropOp57
 70
     1
  0
XRECORD
  5
185
102
{ACAD_REACTORS
330
184
102
}
330
184
100
AcDbXrecord
280
     1
102
RTVSPost2010Prop28
280
     0
102
RTVSPost2010PropOp28
 70
     1
102
RTVSPost2010Prop29
280
     1
102
RTVSPost2010PropOp29
 70
     1
102
RTVSPost2010Prop30
280
     1
102
RTVSPost2010PropOp30
 70
     1
102
RTVSPost2010Prop31
280
     0
102
RTVSPost2010PropOp31
 70
     1
102
RTVSPost2010Prop32
280
     0
102
RTVSPost2010PropOp32
 70
     1
102
RTVSPost2010Prop33
280
     0
102
RTVSPost2010PropOp33
 70
     1
102
RTVSPost2010Prop34
280
     0
102
RTVSPost2010PropOp34
 70
     1
102
RTVSPost2010Prop35
280
     0
102
RTVSPost2010PropOp35
 70
     1
102
RTVSPost2010Prop36
280
     0
102
RTVSPost2010PropOp36
 70
     1
102
RTVSPost2010Prop37
 90
       50
102
RTVSPost2010PropOp37
 70
     1
102
RTVSPost2010Prop38
140
0.0
102
RTVSPost2010PropOp38
 70
     1
102
RTVSPost2010Prop39
140
1.0
102
RTVSPost2010PropOp39
 70
     1
102
RTVSPost2010Prop40
 90
        0
102
RTVSPost2010PropOp40
 70
     1
102
RTVSPost2010Prop41ColorIndex
 90
       18
102
RTVSPost2010Prop41ColorRGB
 90
        0
102
RTVSPost2010PropOp41
 70
     1
102
RTVSPost2010Prop42
 90
       50
102
RTVSPost2010PropOp42
 70
     1
102
RTVSPost2010Prop43
 90
        3
102
RTVSPost2010PropOp43
 70
     1
102
RTVSPost2010Prop44ColorIndex
 90
        5
102
RTVSPost2010Prop44ColorRGB
 90
      255
102
RTVSPost2010PropOp44
 70
     1
102
RTVSPost2010Prop45
280
     0
102
RTVSPost2010PropOp45
 70
     1
102
RTVSPost2010Prop46
 90
       50
102
RTVSPost2010PropOp46
 70
     1
102
RTVSPost2010Prop47
 90
       50
102
RTVSPost2010PropOp47
 70
     1
102
RTVSPost2010Prop48
 90
       50
102
RTVSPost2010PropOp48
 70
     1
102
RTVSPost2010Prop49
280
     0
102
RTVSPost2010PropOp49
 70
     1
102
RTVSPost2010Prop50
 90
       50
102
RTVSPost2010PropOp50
 70
     1
102
RTVSPost2010Prop51ColorIndex
 90
      256
102
RTVSPost2010Prop51ColorRGB
 90
-16777216
102
RTVSPost2010PropOp51
 70
     0
102
RTVSPost2010Prop52
140
1.0
102
RTVSPost2010PropOp52
 70
     0
102
RTVSPost2010Prop53
 90
        2
102
RTVSPost2010PropOp53
 70
     1
102
RTVSPost2010Prop54
  1
strokes_ogs.tif
102
RTVSPost2010PropOp54
 70
     1
102
RTVSPost2010Prop55
280
     0
102
RTVSPost2010PropOp55
 70
     1
102
RTVSPost2010Prop56
140
1.0
102
RTVSPost2010PropOp56
 70
     1
102
RTVSPost2010Prop57
140
1.0
102
RTVSPost2010PropOp57
 70
     1
  0
XRECORD
  5
19F
102
{ACAD_REACTORS
330
19E
102
}
330
19E
100
AcDbXrecord
280
     1
102
RTVSPost2010Prop28
280
     0
102
RTVSPost2010PropOp28
 70
     0
102
RTVSPost2010Prop29
280
     1
102
RTVSPost2010PropOp29
 70
     0
102
RTVSPost2010Prop30
280
     1
102
RTVSPost2010PropOp30
 70
     0
102
RTVSPost2010Prop31
280
     0
102
RTVSPost2010PropOp31
 70
     0
102
RTVSPost2010Prop32
280
     0
102
RTVSPost2010PropOp32
 70
     0
102
RTVSPost2010Prop33
280
     0
102
RTVSPost2010PropOp33
 70
     0
102
RTVSPost2010Prop34
280
     0
102
RTVSPost2010PropOp34
 70
     0
102
RTVSPost2010Prop35
280
     0
102
RTVSPost2010PropOp35
 70
     0
102
RTVSPost2010Prop36
280
     0
102
RTVSPost2010PropOp36
 70
     0
102
RTVSPost2010Prop37
 90
       50
102
RTVSPost2010PropOp37
 70
     0
102
RTVSPost2010Prop38
140
0.0
102
RTVSPost2010PropOp38
 70
     0
102
RTVSPost2010Prop39
140
1.0
102
RTVSPost2010PropOp39
 70
     0
102
RTVSPost2010Prop40
 90
        0
102
RTVSPost2010PropOp40
 70
     0
102
RTVSPost2010Prop41ColorIndex
 90
       18
102
RTVSPost2010Prop41ColorRGB
 90
        0
102
RTVSPost2010PropOp41
 70
     0
102
RTVSPost2010Prop42
 90
       50
102
RTVSPost2010PropOp42
 70
     0
102
RTVSPost2010Prop43
 90
        3
102
RTVSPost2010PropOp43
 70
     0
102
RTVSPost2010Prop44ColorIndex
 90
        5
102
RTVSPost2010Prop44ColorRGB
 90
      255
102
RTVSPost2010PropOp44
 70
     0
102
RTVSPost2010Prop45
280
     0
102
RTVSPost2010PropOp45
 70
     0
102
RTVSPost2010Prop46
 90
       50
102
RTVSPost2010PropOp46
 70
     0
102
RTVSPost2010Prop47
 90
       50
102
RTVSPost2010PropOp47
 70
     0
102
RTVSPost2010Prop48
 90
       50
102
RTVSPost2010PropOp48
 70
     0
102
RTVSPost2010Prop49
280
     0
102
RTVSPost2010PropOp49
 70
     0
102
RTVSPost2010Prop50
 90
       50
102
RTVSPost2010PropOp50
 70
     0
102
RTVSPost2010Prop51ColorIndex
 90
      256
102
RTVSPost2010Prop51ColorRGB
 90
-16777216
102
RTVSPost2010PropOp51
 70
     0
102
RTVSPost2010Prop52
140
1.0
102
RTVSPost2010PropOp52
 70
     0
102
RTVSPost2010Prop53
 90
        2
102
RTVSPost2010PropOp53
 70
     0
102
RTVSPost2010Prop54
  1
strokes_ogs.tif
102
RTVSPost2010PropOp54
 70
     0
102
RTVSPost2010Prop55
280
     0
102
RTVSPost2010PropOp55
 70
     0
102
RTVSPost2010Prop56
140
1.0
102
RTVSPost2010PropOp56
 70
     0
102
RTVSPost2010Prop57
140
1.0
102
RTVSPost2010PropOp57
 70
     0
  0
XRECORD
  5
18D
102
{ACAD_REACTORS
330
18C
102
}
330
18C
100
AcDbXrecord
280
     1
102
RTVSPost2010Prop28
280
     0
102
RTVSPost2010PropOp28
 70
     1
102
RTVSPost2010Prop29
280
     1
102
RTVSPost2010PropOp29
 70
     1
102
RTVSPost2010Prop30
280
     1
102
RTVSPost2010PropOp30
 70
     1
102
RTVSPost2010Prop31
280
     0
102
RTVSPost2010PropOp31
 70
     1
102
RTVSPost2010Prop32
280
     0
102
RTVSPost2010PropOp32
 70
     1
102
RTVSPost2010Prop33
280
     0
102
RTVSPost2010PropOp33
 70
     1
102
RTVSPost2010Prop34
280
     0
102
RTVSPost2010PropOp34
 70
     1
102
RTVSPost2010Prop35
280
     0
102
RTVSPost2010PropOp35
 70
     1
102
RTVSPost2010Prop36
280
     0
102
RTVSPost2010PropOp36
 70
     1
102
RTVSPost2010Prop37
 90
       50
102
RTVSPost2010PropOp37
 70
     1
102
RTVSPost2010Prop38
140
0.0
102
RTVSPost2010PropOp38
 70
     1
102
RTVSPost2010Prop39
140
1.0
102
RTVSPost2010PropOp39
 70
     1
102
RTVSPost2010Prop40
 90
        0
102
RTVSPost2010PropOp40
 70
     1
102
RTVSPost2010Prop41ColorIndex
 90
       18
102
RTVSPost2010Prop41ColorRGB
 90
        0
102
RTVSPost2010PropOp41
 70
     1
102
RTVSPost2010Prop42
 90
       50
102
RTVSPost2010PropOp42
 70
     1
102
RTVSPost2010Prop43
 90
        3
102
RTVSPost2010PropOp43
 70
     1
102
RTVSPost2010Prop44ColorIndex
 90
        5
102
RTVSPost2010Prop44ColorRGB
 90
      255
102
RTVSPost2010PropOp44
 70
     1
102
RTVSPost2010Prop45
280
     0
102
RTVSPost2010PropOp45
 70
     1
102
RTVSPost2010Prop46
 90
       50
102
RTVSPost2010PropOp46
 70
     1
102
RTVSPost2010Prop47
 90
       50
102
RTVSPost2010PropOp47
 70
     1
102
RTVSPost2010Prop48
 90
       50
102
RTVSPost2010PropOp48
 70
     1
102
RTVSPost2010Prop49
280
     0
102
RTVSPost2010PropOp49
 70
     1
102
RTVSPost2010Prop50
 90
       50
102
RTVSPost2010PropOp50
 70
     1
102
RTVSPost2010Prop51ColorIndex
 90
      256
102
RTVSPost2010Prop51ColorRGB
 90
-16777216
102
RTVSPost2010PropOp51
 70
     0
102
RTVSPost2010Prop52
140
1.0
102
RTVSPost2010PropOp52
 70
     0
102
RTVSPost2010Prop53
 90
        2
102
RTVSPost2010PropOp53
 70
     1
102
RTVSPost2010Prop54
  1
strokes_ogs.tif
102
RTVSPost2010PropOp54
 70
     1
102
RTVSPost2010Prop55
280
     0
102
RTVSPost2010PropOp55
 70
     1
102
RTVSPost2010Prop56
140
1.0
102
RTVSPost2010PropOp56
 70
     1
102
RTVSPost2010Prop57
140
1.0
102
RTVSPost2010PropOp57
 70
     1
  0
XRECORD
  5
171
102
{ACAD_REACTORS
330
170
102
}
330
170
100
AcDbXrecord
280
     1
102
RTVSPost2010Prop28
280
     0
102
RTVSPost2010PropOp28
 70
     1
102
RTVSPost2010Prop29
280
     1
102
RTVSPost2010PropOp29
 70
     1
102
RTVSPost2010Prop30
280
     1
102
RTVSPost2010PropOp30
 70
     1
102
RTVSPost2010Prop31
280
     0
102
RTVSPost2010PropOp31
 70
     1
102
RTVSPost2010Prop32
280
     0
102
RTVSPost2010PropOp32
 70
     1
102
RTVSPost2010Prop33
280
     0
102
RTVSPost2010PropOp33
 70
     1
102
RTVSPost2010Prop34
280
     0
102
RTVSPost2010PropOp34
 70
     1
102
RTVSPost2010Prop35
280
     0
102
RTVSPost2010PropOp35
 70
     1
102
RTVSPost2010Prop36
280
     0
102
RTVSPost2010PropOp36
 70
     1
102
RTVSPost2010Prop37
 90
       50
102
RTVSPost2010PropOp37
 70
     1
102
RTVSPost2010Prop38
140
0.0
102
RTVSPost2010PropOp38
 70
     1
102
RTVSPost2010Prop39
140
1.0
102
RTVSPost2010PropOp39
 70
     1
102
RTVSPost2010Prop40
 90
        0
102
RTVSPost2010PropOp40
 70
     1
102
RTVSPost2010Prop41ColorIndex
 90
       18
102
RTVSPost2010Prop41ColorRGB
 90
        0
102
RTVSPost2010PropOp41
 70
     1
102
RTVSPost2010Prop42
 90
       50
102
RTVSPost2010PropOp42
 70
     1
102
RTVSPost2010Prop43
 90
        3
102
RTVSPost2010PropOp43
 70
     1
102
RTVSPost2010Prop44ColorIndex
 90
        5
102
RTVSPost2010Prop44ColorRGB
 90
      255
102
RTVSPost2010PropOp44
 70
     1
102
RTVSPost2010Prop45
280
     0
102
RTVSPost2010PropOp45
 70
     1
102
RTVSPost2010Prop46
 90
       50
102
RTVSPost2010PropOp46
 70
     1
102
RTVSPost2010Prop47
 90
       50
102
RTVSPost2010PropOp47
 70
     1
102
RTVSPost2010Prop48
 90
       50
102
RTVSPost2010PropOp48
 70
     1
102
RTVSPost2010Prop49
280
     0
102
RTVSPost2010PropOp49
 70
     1
102
RTVSPost2010Prop50
 90
       50
102
RTVSPost2010PropOp50
 70
     1
102
RTVSPost2010Prop51ColorIndex
 90
      256
102
RTVSPost2010Prop51ColorRGB
 90
-16777216
102
RTVSPost2010PropOp51
 70
     0
102
RTVSPost2010Prop52
140
1.0
102
RTVSPost2010PropOp52
 70
     0
102
RTVSPost2010Prop53
 90
        2
102
RTVSPost2010PropOp53
 70
     1
102
RTVSPost2010Prop54
  1
strokes_ogs.tif
102
RTVSPost2010PropOp54
 70
     1
102
RTVSPost2010Prop55
280
     0
102
RTVSPost2010PropOp55
 70
     1
102
RTVSPost2010Prop56
140
1.0
102
RTVSPost2010PropOp56
 70
     1
102
RTVSPost2010Prop57
140
1.0
102
RTVSPost2010PropOp57
 70
     1
  0
XRECORD
  5
173
102
{ACAD_REACTORS
330
172
102
}
330
172
100
AcDbXrecord
280
     1
102
RTVSPost2010Prop28
280
     0
102
RTVSPost2010PropOp28
 70
     1
102
RTVSPost2010Prop29
280
     1
102
RTVSPost2010PropOp29
 70
     1
102
RTVSPost2010Prop30
280
     1
102
RTVSPost2010PropOp30
 70
     1
102
RTVSPost2010Prop31
280
     0
102
RTVSPost2010PropOp31
 70
     1
102
RTVSPost2010Prop32
280
     0
102
RTVSPost2010PropOp32
 70
     1
102
RTVSPost2010Prop33
280
     0
102
RTVSPost2010PropOp33
 70
     1
102
RTVSPost2010Prop34
280
     0
102
RTVSPost2010PropOp34
 70
     1
102
RTVSPost2010Prop35
280
     0
102
RTVSPost2010PropOp35
 70
     1
102
RTVSPost2010Prop36
280
     0
102
RTVSPost2010PropOp36
 70
     1
102
RTVSPost2010Prop37
 90
       50
102
RTVSPost2010PropOp37
 70
     1
102
RTVSPost2010Prop38
140
0.0
102
RTVSPost2010PropOp38
 70
     1
102
RTVSPost2010Prop39
140
1.0
102
RTVSPost2010PropOp39
 70
     1
102
RTVSPost2010Prop40
 90
        0
102
RTVSPost2010PropOp40
 70
     1
102
RTVSPost2010Prop41ColorIndex
 90
       18
102
RTVSPost2010Prop41ColorRGB
 90
        0
102
RTVSPost2010PropOp41
 70
     1
102
RTVSPost2010Prop42
 90
       50
102
RTVSPost2010PropOp42
 70
     1
102
RTVSPost2010Prop43
 90
        3
102
RTVSPost2010PropOp43
 70
     1
102
RTVSPost2010Prop44ColorIndex
 90
        5
102
RTVSPost2010Prop44ColorRGB
 90
      255
102
RTVSPost2010PropOp44
 70
     1
102
RTVSPost2010Prop45
280
     0
102
RTVSPost2010PropOp45
 70
     1
102
RTVSPost2010Prop46
 90
       50
102
RTVSPost2010PropOp46
 70
     1
102
RTVSPost2010Prop47
 90
       50
102
RTVSPost2010PropOp47
 70
     1
102
RTVSPost2010Prop48
 90
       50
102
RTVSPost2010PropOp48
 70
     1
102
RTVSPost2010Prop49
280
     0
102
RTVSPost2010PropOp49
 70
     1
102
RTVSPost2010Prop50
 90
       50
102
RTVSPost2010PropOp50
 70
     1
102
RTVSPost2010Prop51ColorIndex
 90
      256
102
RTVSPost2010Prop51ColorRGB
 90
-16777216
102
RTVSPost2010PropOp51
 70
     0
102
RTVSPost2010Prop52
140
1.0
102
RTVSPost2010PropOp52
 70
     0
102
RTVSPost2010Prop53
 90
        2
102
RTVSPost2010PropOp53
 70
     1
102
RTVSPost2010Prop54
  1
strokes_ogs.tif
102
RTVSPost2010PropOp54
 70
     1
102
RTVSPost2010Prop55
280
     0
102
RTVSPost2010PropOp55
 70
     1
102
RTVSPost2010Prop56
140
1.0
102
RTVSPost2010PropOp56
 70
     1
102
RTVSPost2010Prop57
140
1.0
102
RTVSPost2010PropOp57
 70
     1
  0
XRECORD
  5
175
102
{ACAD_REACTORS
330
174
102
}
330
174
100
AcDbXrecord
280
     1
102
RTVSPost2010Prop28
280
     0
102
RTVSPost2010PropOp28
 70
     1
102
RTVSPost2010Prop29
280
     1
102
RTVSPost2010PropOp29
 70
     1
102
RTVSPost2010Prop30
280
     1
102
RTVSPost2010PropOp30
 70
     1
102
RTVSPost2010Prop31
280
     0
102
RTVSPost2010PropOp31
 70
     1
102
RTVSPost2010Prop32
280
     0
102
RTVSPost2010PropOp32
 70
     1
102
RTVSPost2010Prop33
280
     0
102
RTVSPost2010PropOp33
 70
     1
102
RTVSPost2010Prop34
280
     0
102
RTVSPost2010PropOp34
 70
     1
102
RTVSPost2010Prop35
280
     0
102
RTVSPost2010PropOp35
 70
     1
102
RTVSPost2010Prop36
280
     0
102
RTVSPost2010PropOp36
 70
     1
102
RTVSPost2010Prop37
 90
       50
102
RTVSPost2010PropOp37
 70
     1
102
RTVSPost2010Prop38
140
0.0
102
RTVSPost2010PropOp38
 70
     1
102
RTVSPost2010Prop39
140
1.0
102
RTVSPost2010PropOp39
 70
     1
102
RTVSPost2010Prop40
 90
        0
102
RTVSPost2010PropOp40
 70
     1
102
RTVSPost2010Prop41ColorIndex
 90
       18
102
RTVSPost2010Prop41ColorRGB
 90
        0
102
RTVSPost2010PropOp41
 70
     1
102
RTVSPost2010Prop42
 90
       50
102
RTVSPost2010PropOp42
 70
     1
102
RTVSPost2010Prop43
 90
        3
102
RTVSPost2010PropOp43
 70
     1
102
RTVSPost2010Prop44ColorIndex
 90
        5
102
RTVSPost2010Prop44ColorRGB
 90
      255
102
RTVSPost2010PropOp44
 70
     1
102
RTVSPost2010Prop45
280
     0
102
RTVSPost2010PropOp45
 70
     1
102
RTVSPost2010Prop46
 90
       50
102
RTVSPost2010PropOp46
 70
     1
102
RTVSPost2010Prop47
 90
       50
102
RTVSPost2010PropOp47
 70
     1
102
RTVSPost2010Prop48
 90
       50
102
RTVSPost2010PropOp48
 70
     1
102
RTVSPost2010Prop49
280
     0
102
RTVSPost2010PropOp49
 70
     1
102
RTVSPost2010Prop50
 90
       50
102
RTVSPost2010PropOp50
 70
     1
102
RTVSPost2010Prop51ColorIndex
 90
      256
102
RTVSPost2010Prop51ColorRGB
 90
-16777216
102
RTVSPost2010PropOp51
 70
     0
102
RTVSPost2010Prop52
140
1.0
102
RTVSPost2010PropOp52
 70
     0
102
RTVSPost2010Prop53
 90
        2
102
RTVSPost2010PropOp53
 70
     1
102
RTVSPost2010Prop54
  1
strokes_ogs.tif
102
RTVSPost2010PropOp54
 70
     1
102
RTVSPost2010Prop55
280
     0
102
RTVSPost2010PropOp55
 70
     1
102
RTVSPost2010Prop56
140
1.0
102
RTVSPost2010PropOp56
 70
     1
102
RTVSPost2010Prop57
140
1.0
102
RTVSPost2010PropOp57
 70
     1
  0
XRECORD
  5
177
102
{ACAD_REACTORS
330
176
102
}
330
176
100
AcDbXrecord
280
     1
102
RTVSPost2010Prop28
280
     0
102
RTVSPost2010PropOp28
 70
     1
102
RTVSPost2010Prop29
280
     1
102
RTVSPost2010PropOp29
 70
     1
102
RTVSPost2010Prop30
280
     1
102
RTVSPost2010PropOp30
 70
     1
102
RTVSPost2010Prop31
280
     0
102
RTVSPost2010PropOp31
 70
     1
102
RTVSPost2010Prop32
280
     0
102
RTVSPost2010PropOp32
 70
     1
102
RTVSPost2010Prop33
280
     0
102
RTVSPost2010PropOp33
 70
     1
102
RTVSPost2010Prop34
280
     0
102
RTVSPost2010PropOp34
 70
     1
102
RTVSPost2010Prop35
280
     0
102
RTVSPost2010PropOp35
 70
     1
102
RTVSPost2010Prop36
280
     0
102
RTVSPost2010PropOp36
 70
     1
102
RTVSPost2010Prop37
 90
       50
102
RTVSPost2010PropOp37
 70
     1
102
RTVSPost2010Prop38
140
0.0
102
RTVSPost2010PropOp38
 70
     1
102
RTVSPost2010Prop39
140
1.0
102
RTVSPost2010PropOp39
 70
     1
102
RTVSPost2010Prop40
 90
        0
102
RTVSPost2010PropOp40
 70
     1
102
RTVSPost2010Prop41ColorIndex
 90
       18
102
RTVSPost2010Prop41ColorRGB
 90
        0
102
RTVSPost2010PropOp41
 70
     1
102
RTVSPost2010Prop42
 90
       50
102
RTVSPost2010PropOp42
 70
     1
102
RTVSPost2010Prop43
 90
        3
102
RTVSPost2010PropOp43
 70
     1
102
RTVSPost2010Prop44ColorIndex
 90
        5
102
RTVSPost2010Prop44ColorRGB
 90
      255
102
RTVSPost2010PropOp44
 70
     1
102
RTVSPost2010Prop45
280
     0
102
RTVSPost2010PropOp45
 70
     1
102
RTVSPost2010Prop46
 90
       50
102
RTVSPost2010PropOp46
 70
     1
102
RTVSPost2010Prop47
 90
       50
102
RTVSPost2010PropOp47
 70
     1
102
RTVSPost2010Prop48
 90
       50
102
RTVSPost2010PropOp48
 70
     1
102
RTVSPost2010Prop49
280
     0
102
RTVSPost2010PropOp49
 70
     1
102
RTVSPost2010Prop50
 90
       50
102
RTVSPost2010PropOp50
 70
     1
102
RTVSPost2010Prop51ColorIndex
 90
      256
102
RTVSPost2010Prop51ColorRGB
 90
-16777216
102
RTVSPost2010PropOp51
 70
     0
102
RTVSPost2010Prop52
140
1.0
102
RTVSPost2010PropOp52
 70
     0
102
RTVSPost2010Prop53
 90
        2
102
RTVSPost2010PropOp53
 70
     1
102
RTVSPost2010Prop54
  1
strokes_ogs.tif
102
RTVSPost2010PropOp54
 70
     1
102
RTVSPost2010Prop55
280
     0
102
RTVSPost2010PropOp55
 70
     1
102
RTVSPost2010Prop56
140
1.0
102
RTVSPost2010PropOp56
 70
     1
102
RTVSPost2010Prop57
140
1.0
102
RTVSPost2010PropOp57
 70
     1
  0
XRECORD
  5
17F
102
{ACAD_REACTORS
330
17E
102
}
330
17E
100
AcDbXrecord
280
     1
102
RTVSPost2010Prop28
280
     0
102
RTVSPost2010PropOp28
 70
     1
102
RTVSPost2010Prop29
280
     1
102
RTVSPost2010PropOp29
 70
     1
102
RTVSPost2010Prop30
280
     1
102
RTVSPost2010PropOp30
 70
     1
102
RTVSPost2010Prop31
280
     0
102
RTVSPost2010PropOp31
 70
     1
102
RTVSPost2010Prop32
280
     0
102
RTVSPost2010PropOp32
 70
     1
102
RTVSPost2010Prop33
280
     0
102
RTVSPost2010PropOp33
 70
     1
102
RTVSPost2010Prop34
280
     0
102
RTVSPost2010PropOp34
 70
     1
102
RTVSPost2010Prop35
280
     0
102
RTVSPost2010PropOp35
 70
     1
102
RTVSPost2010Prop36
280
     0
102
RTVSPost2010PropOp36
 70
     1
102
RTVSPost2010Prop37
 90
       50
102
RTVSPost2010PropOp37
 70
     1
102
RTVSPost2010Prop38
140
0.0
102
RTVSPost2010PropOp38
 70
     1
102
RTVSPost2010Prop39
140
1.0
102
RTVSPost2010PropOp39
 70
     1
102
RTVSPost2010Prop40
 90
        0
102
RTVSPost2010PropOp40
 70
     1
102
RTVSPost2010Prop41ColorIndex
 90
       18
102
RTVSPost2010Prop41ColorRGB
 90
        0
102
RTVSPost2010PropOp41
 70
     1
102
RTVSPost2010Prop42
 90
       50
102
RTVSPost2010PropOp42
 70
     1
102
RTVSPost2010Prop43
 90
        3
102
RTVSPost2010PropOp43
 70
     1
102
RTVSPost2010Prop44ColorIndex
 90
        5
102
RTVSPost2010Prop44ColorRGB
 90
      255
102
RTVSPost2010PropOp44
 70
     1
102
RTVSPost2010Prop45
280
     0
102
RTVSPost2010PropOp45
 70
     1
102
RTVSPost2010Prop46
 90
       50
102
RTVSPost2010PropOp46
 70
     1
102
RTVSPost2010Prop47
 90
       50
102
RTVSPost2010PropOp47
 70
     1
102
RTVSPost2010Prop48
 90
       50
102
RTVSPost2010PropOp48
 70
     1
102
RTVSPost2010Prop49
280
     0
102
RTVSPost2010PropOp49
 70
     1
102
RTVSPost2010Prop50
 90
       50
102
RTVSPost2010PropOp50
 70
     1
102
RTVSPost2010Prop51ColorIndex
 90
      256
102
RTVSPost2010Prop51ColorRGB
 90
-16777216
102
RTVSPost2010PropOp51
 70
     0
102
RTVSPost2010Prop52
140
1.0
102
RTVSPost2010PropOp52
 70
     0
102
RTVSPost2010Prop53
 90
        2
102
RTVSPost2010PropOp53
 70
     1
102
RTVSPost2010Prop54
  1
strokes_ogs.tif
102
RTVSPost2010PropOp54
 70
     1
102
RTVSPost2010Prop55
280
     0
102
RTVSPost2010PropOp55
 70
     1
102
RTVSPost2010Prop56
140
1.0
102
RTVSPost2010PropOp56
 70
     1
102
RTVSPost2010Prop57
140
1.0
102
RTVSPost2010PropOp57
 70
     1
  0
XRECORD
  5
19B
102
{ACAD_REACTORS
330
19A
102
}
330
19A
100
AcDbXrecord
280
     1
102
RTVSPost2010Prop28
280
     0
102
RTVSPost2010PropOp28
 70
     0
102
RTVSPost2010Prop29
280
     1
102
RTVSPost2010PropOp29
 70
     0
102
RTVSPost2010Prop30
280
     1
102
RTVSPost2010PropOp30
 70
     0
102
RTVSPost2010Prop31
280
     0
102
RTVSPost2010PropOp31
 70
     0
102
RTVSPost2010Prop32
280
     0
102
RTVSPost2010PropOp32
 70
     0
102
RTVSPost2010Prop33
280
     0
102
RTVSPost2010PropOp33
 70
     0
102
RTVSPost2010Prop34
280
     0
102
RTVSPost2010PropOp34
 70
     0
102
RTVSPost2010Prop35
280
     0
102
RTVSPost2010PropOp35
 70
     0
102
RTVSPost2010Prop36
280
     0
102
RTVSPost2010PropOp36
 70
     0
102
RTVSPost2010Prop37
 90
       50
102
RTVSPost2010PropOp37
 70
     0
102
RTVSPost2010Prop38
140
0.0
102
RTVSPost2010PropOp38
 70
     0
102
RTVSPost2010Prop39
140
1.0
102
RTVSPost2010PropOp39
 70
     0
102
RTVSPost2010Prop40
 90
        0
102
RTVSPost2010PropOp40
 70
     0
102
RTVSPost2010Prop41ColorIndex
 90
       18
102
RTVSPost2010Prop41ColorRGB
 90
        0
102
RTVSPost2010PropOp41
 70
     0
102
RTVSPost2010Prop42
 90
       50
102
RTVSPost2010PropOp42
 70
     0
102
RTVSPost2010Prop43
 90
        3
102
RTVSPost2010PropOp43
 70
     0
102
RTVSPost2010Prop44ColorIndex
 90
        5
102
RTVSPost2010Prop44ColorRGB
 90
      255
102
RTVSPost2010PropOp44
 70
     0
102
RTVSPost2010Prop45
280
     0
102
RTVSPost2010PropOp45
 70
     0
102
RTVSPost2010Prop46
 90
       50
102
RTVSPost2010PropOp46
 70
     0
102
RTVSPost2010Prop47
 90
       50
102
RTVSPost2010PropOp47
 70
     0
102
RTVSPost2010Prop48
 90
       50
102
RTVSPost2010PropOp48
 70
     0
102
RTVSPost2010Prop49
280
     0
102
RTVSPost2010PropOp49
 70
     0
102
RTVSPost2010Prop50
 90
       50
102
RTVSPost2010PropOp50
 70
     0
102
RTVSPost2010Prop51ColorIndex
 90
      256
102
RTVSPost2010Prop51ColorRGB
 90
-16777216
102
RTVSPost2010PropOp51
 70
     0
102
RTVSPost2010Prop52
140
1.0
102
RTVSPost2010PropOp52
 70
     0
102
RTVSPost2010Prop53
 90
        2
102
RTVSPost2010PropOp53
 70
     0
102
RTVSPost2010Prop54
  1
strokes_ogs.tif
102
RTVSPost2010PropOp54
 70
     0
102
RTVSPost2010Prop55
280
     0
102
RTVSPost2010PropOp55
 70
     0
102
RTVSPost2010Prop56
140
1.0
102
RTVSPost2010PropOp56
 70
     0
102
RTVSPost2010Prop57
140
1.0
102
RTVSPost2010PropOp57
 70
     0
  0
XRECORD
  5
18B
102
{ACAD_REACTORS
330
18A
102
}
330
18A
100
AcDbXrecord
280
     1
102
RTVSPost2010Prop28
280
     0
102
RTVSPost2010PropOp28
 70
     1
102
RTVSPost2010Prop29
280
     1
102
RTVSPost2010PropOp29
 70
     1
102
RTVSPost2010Prop30
280
     1
102
RTVSPost2010PropOp30
 70
     1
102
RTVSPost2010Prop31
280
     0
102
RTVSPost2010PropOp31
 70
     1
102
RTVSPost2010Prop32
280
     0
102
RTVSPost2010PropOp32
 70
     1
102
RTVSPost2010Prop33
280
     0
102
RTVSPost2010PropOp33
 70
     1
102
RTVSPost2010Prop34
280
     0
102
RTVSPost2010PropOp34
 70
     1
102
RTVSPost2010Prop35
280
     0
102
RTVSPost2010PropOp35
 70
     1
102
RTVSPost2010Prop36
280
     0
102
RTVSPost2010PropOp36
 70
     1
102
RTVSPost2010Prop37
 90
       50
102
RTVSPost2010PropOp37
 70
     1
102
RTVSPost2010Prop38
140
0.0
102
RTVSPost2010PropOp38
 70
     1
102
RTVSPost2010Prop39
140
1.0
102
RTVSPost2010PropOp39
 70
     1
102
RTVSPost2010Prop40
 90
        0
102
RTVSPost2010PropOp40
 70
     1
102
RTVSPost2010Prop41ColorIndex
 90
       18
102
RTVSPost2010Prop41ColorRGB
 90
        0
102
RTVSPost2010PropOp41
 70
     1
102
RTVSPost2010Prop42
 90
       50
102
RTVSPost2010PropOp42
 70
     1
102
RTVSPost2010Prop43
 90
        3
102
RTVSPost2010PropOp43
 70
     1
102
RTVSPost2010Prop44ColorIndex
 90
        5
102
RTVSPost2010Prop44ColorRGB
 90
      255
102
RTVSPost2010PropOp44
 70
     1
102
RTVSPost2010Prop45
280
     0
102
RTVSPost2010PropOp45
 70
     1
102
RTVSPost2010Prop46
 90
       50
102
RTVSPost2010PropOp46
 70
     1
102
RTVSPost2010Prop47
 90
       50
102
RTVSPost2010PropOp47
 70
     1
102
RTVSPost2010Prop48
 90
       50
102
RTVSPost2010PropOp48
 70
     1
102
RTVSPost2010Prop49
280
     0
102
RTVSPost2010PropOp49
 70
     1
102
RTVSPost2010Prop50
 90
       50
102
RTVSPost2010PropOp50
 70
     1
102
RTVSPost2010Prop51ColorIndex
 90
      256
102
RTVSPost2010Prop51ColorRGB
 90
-16777216
102
RTVSPost2010PropOp51
 70
     0
102
RTVSPost2010Prop52
140
1.0
102
RTVSPost2010PropOp52
 70
     0
102
RTVSPost2010Prop53
 90
        2
102
RTVSPost2010PropOp53
 70
     1
102
RTVSPost2010Prop54
  1
strokes_ogs.tif
102
RTVSPost2010PropOp54
 70
     1
102
RTVSPost2010Prop55
280
     0
102
RTVSPost2010PropOp55
 70
     1
102
RTVSPost2010Prop56
140
1.0
102
RTVSPost2010PropOp56
 70
     1
102
RTVSPost2010Prop57
140
1.0
102
RTVSPost2010PropOp57
 70
     1
  0
XRECORD
  5
19D
102
{ACAD_REACTORS
330
19C
102
}
330
19C
100
AcDbXrecord
280
     1
102
RTVSPost2010Prop28
280
     0
102
RTVSPost2010PropOp28
 70
     0
102
RTVSPost2010Prop29
280
     1
102
RTVSPost2010PropOp29
 70
     0
102
RTVSPost2010Prop30
280
     1
102
RTVSPost2010PropOp30
 70
     0
102
RTVSPost2010Prop31
280
     0
102
RTVSPost2010PropOp31
 70
     0
102
RTVSPost2010Prop32
280
     0
102
RTVSPost2010PropOp32
 70
     0
102
RTVSPost2010Prop33
280
     0
102
RTVSPost2010PropOp33
 70
     0
102
RTVSPost2010Prop34
280
     0
102
RTVSPost2010PropOp34
 70
     0
102
RTVSPost2010Prop35
280
     0
102
RTVSPost2010PropOp35
 70
     0
102
RTVSPost2010Prop36
280
     0
102
RTVSPost2010PropOp36
 70
     0
102
RTVSPost2010Prop37
 90
       50
102
RTVSPost2010PropOp37
 70
     0
102
RTVSPost2010Prop38
140
0.0
102
RTVSPost2010PropOp38
 70
     0
102
RTVSPost2010Prop39
140
1.0
102
RTVSPost2010PropOp39
 70
     0
102
RTVSPost2010Prop40
 90
        0
102
RTVSPost2010PropOp40
 70
     0
102
RTVSPost2010Prop41ColorIndex
 90
       18
102
RTVSPost2010Prop41ColorRGB
 90
        0
102
RTVSPost2010PropOp41
 70
     0
102
RTVSPost2010Prop42
 90
       50
102
RTVSPost2010PropOp42
 70
     0
102
RTVSPost2010Prop43
 90
        3
102
RTVSPost2010PropOp43
 70
     0
102
RTVSPost2010Prop44ColorIndex
 90
        5
102
RTVSPost2010Prop44ColorRGB
 90
      255
102
RTVSPost2010PropOp44
 70
     0
102
RTVSPost2010Prop45
280
     0
102
RTVSPost2010PropOp45
 70
     0
102
RTVSPost2010Prop46
 90
       50
102
RTVSPost2010PropOp46
 70
     0
102
RTVSPost2010Prop47
 90
       50
102
RTVSPost2010PropOp47
 70
     0
102
RTVSPost2010Prop48
 90
       50
102
RTVSPost2010PropOp48
 70
     0
102
RTVSPost2010Prop49
280
     0
102
RTVSPost2010PropOp49
 70
     0
102
RTVSPost2010Prop50
 90
       50
102
RTVSPost2010PropOp50
 70
     0
102
RTVSPost2010Prop51ColorIndex
 90
      256
102
RTVSPost2010Prop51ColorRGB
 90
-16777216
102
RTVSPost2010PropOp51
 70
     0
102
RTVSPost2010Prop52
140
1.0
102
RTVSPost2010PropOp52
 70
     0
102
RTVSPost2010Prop53
 90
        2
102
RTVSPost2010PropOp53
 70
     0
102
RTVSPost2010Prop54
  1
strokes_ogs.tif
102
RTVSPost2010PropOp54
 70
     0
102
RTVSPost2010Prop55
280
     0
102
RTVSPost2010PropOp55
 70
     0
102
RTVSPost2010Prop56
140
1.0
102
RTVSPost2010PropOp56
 70
     0
102
RTVSPost2010Prop57
140
1.0
102
RTVSPost2010PropOp57
 70
     0
  0
XRECORD
  5
183
102
{ACAD_REACTORS
330
182
102
}
330
182
100
AcDbXrecord
280
     1
102
RTVSPost2010Prop28
280
     0
102
RTVSPost2010PropOp28
 70
     1
102
RTVSPost2010Prop29
280
     1
102
RTVSPost2010PropOp29
 70
     1
102
RTVSPost2010Prop30
280
     1
102
RTVSPost2010PropOp30
 70
     1
102
RTVSPost2010Prop31
280
     0
102
RTVSPost2010PropOp31
 70
     1
102
RTVSPost2010Prop32
280
     0
102
RTVSPost2010PropOp32
 70
     1
102
RTVSPost2010Prop33
280
     0
102
RTVSPost2010PropOp33
 70
     1
102
RTVSPost2010Prop34
280
     0
102
RTVSPost2010PropOp34
 70
     1
102
RTVSPost2010Prop35
280
     0
102
RTVSPost2010PropOp35
 70
     1
102
RTVSPost2010Prop36
280
     0
102
RTVSPost2010PropOp36
 70
     1
102
RTVSPost2010Prop37
 90
       50
102
RTVSPost2010PropOp37
 70
     1
102
RTVSPost2010Prop38
140
0.0
102
RTVSPost2010PropOp38
 70
     1
102
RTVSPost2010Prop39
140
1.0
102
RTVSPost2010PropOp39
 70
     1
102
RTVSPost2010Prop40
 90
        0
102
RTVSPost2010PropOp40
 70
     1
102
RTVSPost2010Prop41ColorIndex
 90
       18
102
RTVSPost2010Prop41ColorRGB
 90
        0
102
RTVSPost2010PropOp41
 70
     1
102
RTVSPost2010Prop42
 90
       50
102
RTVSPost2010PropOp42
 70
     1
102
RTVSPost2010Prop43
 90
        3
102
RTVSPost2010PropOp43
 70
     1
102
RTVSPost2010Prop44ColorIndex
 90
        5
102
RTVSPost2010Prop44ColorRGB
 90
      255
102
RTVSPost2010PropOp44
 70
     1
102
RTVSPost2010Prop45
280
     0
102
RTVSPost2010PropOp45
 70
     1
102
RTVSPost2010Prop46
 90
       50
102
RTVSPost2010PropOp46
 70
     1
102
RTVSPost2010Prop47
 90
       50
102
RTVSPost2010PropOp47
 70
     1
102
RTVSPost2010Prop48
 90
       50
102
RTVSPost2010PropOp48
 70
     1
102
RTVSPost2010Prop49
280
     0
102
RTVSPost2010PropOp49
 70
     1
102
RTVSPost2010Prop50
 90
       50
102
RTVSPost2010PropOp50
 70
     1
102
RTVSPost2010Prop51ColorIndex
 90
      256
102
RTVSPost2010Prop51ColorRGB
 90
-16777216
102
RTVSPost2010PropOp51
 70
     0
102
RTVSPost2010Prop52
140
1.0
102
RTVSPost2010PropOp52
 70
     0
102
RTVSPost2010Prop53
 90
        2
102
RTVSPost2010PropOp53
 70
     1
102
RTVSPost2010Prop54
  1
strokes_ogs.tif
102
RTVSPost2010PropOp54
 70
     1
102
RTVSPost2010Prop55
280
     0
102
RTVSPost2010PropOp55
 70
     1
102
RTVSPost2010Prop56
140
1.0
102
RTVSPost2010PropOp56
 70
     1
102
RTVSPost2010Prop57
140
1.0
102
RTVSPost2010PropOp57
 70
     1
  0
XRECORD
  5
199
102
{ACAD_REACTORS
330
198
102
}
330
198
100
AcDbXrecord
280
     1
102
RTVSPost2010Prop28
280
     0
102
RTVSPost2010PropOp28
 70
     1
102
RTVSPost2010Prop29
280
     1
102
RTVSPost2010PropOp29
 70
     1
102
RTVSPost2010Prop30
280
     1
102
RTVSPost2010PropOp30
 70
     1
102
RTVSPost2010Prop31
280
     0
102
RTVSPost2010PropOp31
 70
     1
102
RTVSPost2010Prop32
280
     0
102
RTVSPost2010PropOp32
 70
     1
102
RTVSPost2010Prop33
280
     0
102
RTVSPost2010PropOp33
 70
     1
102
RTVSPost2010Prop34
280
     0
102
RTVSPost2010PropOp34
 70
     1
102
RTVSPost2010Prop35
280
     0
102
RTVSPost2010PropOp35
 70
     1
102
RTVSPost2010Prop36
280
     0
102
RTVSPost2010PropOp36
 70
     1
102
RTVSPost2010Prop37
 90
       50
102
RTVSPost2010PropOp37
 70
     1
102
RTVSPost2010Prop38
140
0.0
102
RTVSPost2010PropOp38
 70
     1
102
RTVSPost2010Prop39
140
1.0
102
RTVSPost2010PropOp39
 70
     1
102
RTVSPost2010Prop40
 90
        0
102
RTVSPost2010PropOp40
 70
     1
102
RTVSPost2010Prop41ColorIndex
 90
       18
102
RTVSPost2010Prop41ColorRGB
 90
        0
102
RTVSPost2010PropOp41
 70
     1
102
RTVSPost2010Prop42
 90
       50
102
RTVSPost2010PropOp42
 70
     1
102
RTVSPost2010Prop43
 90
        3
102
RTVSPost2010PropOp43
 70
     1
102
RTVSPost2010Prop44ColorIndex
 90
        5
102
RTVSPost2010Prop44ColorRGB
 90
      255
102
RTVSPost2010PropOp44
 70
     1
102
RTVSPost2010Prop45
280
     0
102
RTVSPost2010PropOp45
 70
     1
102
RTVSPost2010Prop46
 90
       50
102
RTVSPost2010PropOp46
 70
     1
102
RTVSPost2010Prop47
 90
       50
102
RTVSPost2010PropOp47
 70
     1
102
RTVSPost2010Prop48
 90
       50
102
RTVSPost2010PropOp48
 70
     1
102
RTVSPost2010Prop49
280
     0
102
RTVSPost2010PropOp49
 70
     1
102
RTVSPost2010Prop50
 90
       50
102
RTVSPost2010PropOp50
 70
     1
102
RTVSPost2010Prop51ColorIndex
 90
      256
102
RTVSPost2010Prop51ColorRGB
 90
-16777216
102
RTVSPost2010PropOp51
 70
     0
102
RTVSPost2010Prop52
140
1.0
102
RTVSPost2010PropOp52
 70
     0
102
RTVSPost2010Prop53
 90
        2
102
RTVSPost2010PropOp53
 70
     1
102
RTVSPost2010Prop54
  1
strokes_ogs.tif
102
RTVSPost2010PropOp54
 70
     1
102
RTVSPost2010Prop55
280
     0
102
RTVSPost2010PropOp55
 70
     1
102
RTVSPost2010Prop56
140
1.0
102
RTVSPost2010PropOp56
 70
     1
102
RTVSPost2010Prop57
140
1.0
102
RTVSPost2010PropOp57
 70
     1
  0
XRECORD
  5
197
102
{ACAD_REACTORS
330
196
102
}
330
196
100
AcDbXrecord
280
     1
102
RTVSPost2010Prop28
280
     0
102
RTVSPost2010PropOp28
 70
     1
102
RTVSPost2010Prop29
280
     1
102
RTVSPost2010PropOp29
 70
     1
102
RTVSPost2010Prop30
280
     1
102
RTVSPost2010PropOp30
 70
     1
102
RTVSPost2010Prop31
280
     0
102
RTVSPost2010PropOp31
 70
     1
102
RTVSPost2010Prop32
280
     0
102
RTVSPost2010PropOp32
 70
     1
102
RTVSPost2010Prop33
280
     0
102
RTVSPost2010PropOp33
 70
     1
102
RTVSPost2010Prop34
280
     0
102
RTVSPost2010PropOp34
 70
     1
102
RTVSPost2010Prop35
280
     0
102
RTVSPost2010PropOp35
 70
     1
102
RTVSPost2010Prop36
280
     0
102
RTVSPost2010PropOp36
 70
     1
102
RTVSPost2010Prop37
 90
       50
102
RTVSPost2010PropOp37
 70
     1
102
RTVSPost2010Prop38
140
0.0
102
RTVSPost2010PropOp38
 70
     1
102
RTVSPost2010Prop39
140
1.0
102
RTVSPost2010PropOp39
 70
     1
102
RTVSPost2010Prop40
 90
        0
102
RTVSPost2010PropOp40
 70
     1
102
RTVSPost2010Prop41ColorIndex
 90
       18
102
RTVSPost2010Prop41ColorRGB
 90
        0
102
RTVSPost2010PropOp41
 70
     1
102
RTVSPost2010Prop42
 90
       50
102
RTVSPost2010PropOp42
 70
     1
102
RTVSPost2010Prop43
 90
        3
102
RTVSPost2010PropOp43
 70
     1
102
RTVSPost2010Prop44ColorIndex
 90
        5
102
RTVSPost2010Prop44ColorRGB
 90
      255
102
RTVSPost2010PropOp44
 70
     1
102
RTVSPost2010Prop45
280
     0
102
RTVSPost2010PropOp45
 70
     1
102
RTVSPost2010Prop46
 90
       50
102
RTVSPost2010PropOp46
 70
     1
102
RTVSPost2010Prop47
 90
       50
102
RTVSPost2010PropOp47
 70
     1
102
RTVSPost2010Prop48
 90
       50
102
RTVSPost2010PropOp48
 70
     1
102
RTVSPost2010Prop49
280
     0
102
RTVSPost2010PropOp49
 70
     1
102
RTVSPost2010Prop50
 90
       50
102
RTVSPost2010PropOp50
 70
     1
102
RTVSPost2010Prop51ColorIndex
 90
      256
102
RTVSPost2010Prop51ColorRGB
 90
-16777216
102
RTVSPost2010PropOp51
 70
     0
102
RTVSPost2010Prop52
140
1.0
102
RTVSPost2010PropOp52
 70
     0
102
RTVSPost2010Prop53
 90
        2
102
RTVSPost2010PropOp53
 70
     1
102
RTVSPost2010Prop54
  1
strokes_ogs.tif
102
RTVSPost2010PropOp54
 70
     1
102
RTVSPost2010Prop55
280
     0
102
RTVSPost2010PropOp55
 70
     1
102
RTVSPost2010Prop56
140
1.0
102
RTVSPost2010PropOp56
 70
     1
102
RTVSPost2010Prop57
140
1.0
102
RTVSPost2010PropOp57
 70
     1
  0
XRECORD
  5
191
102
{ACAD_REACTORS
330
190
102
}
330
190
100
AcDbXrecord
280
     1
102
RTVSPost2010Prop28
280
     0
102
RTVSPost2010PropOp28
 70
     1
102
RTVSPost2010Prop29
280
     1
102
RTVSPost2010PropOp29
 70
     1
102
RTVSPost2010Prop30
280
     1
102
RTVSPost2010PropOp30
 70
     1
102
RTVSPost2010Prop31
280
     0
102
RTVSPost2010PropOp31
 70
     1
102
RTVSPost2010Prop32
280
     0
102
RTVSPost2010PropOp32
 70
     1
102
RTVSPost2010Prop33
280
     0
102
RTVSPost2010PropOp33
 70
     1
102
RTVSPost2010Prop34
280
     0
102
RTVSPost2010PropOp34
 70
     1
102
RTVSPost2010Prop35
280
     0
102
RTVSPost2010PropOp35
 70
     1
102
RTVSPost2010Prop36
280
     0
102
RTVSPost2010PropOp36
 70
     1
102
RTVSPost2010Prop37
 90
       50
102
RTVSPost2010PropOp37
 70
     1
102
RTVSPost2010Prop38
140
0.0
102
RTVSPost2010PropOp38
 70
     1
102
RTVSPost2010Prop39
140
1.0
102
RTVSPost2010PropOp39
 70
     1
102
RTVSPost2010Prop40
 90
        0
102
RTVSPost2010PropOp40
 70
     1
102
RTVSPost2010Prop41ColorIndex
 90
       18
102
RTVSPost2010Prop41ColorRGB
 90
        0
102
RTVSPost2010PropOp41
 70
     1
102
RTVSPost2010Prop42
 90
       50
102
RTVSPost2010PropOp42
 70
     1
102
RTVSPost2010Prop43
 90
        3
102
RTVSPost2010PropOp43
 70
     1
102
RTVSPost2010Prop44ColorIndex
 90
        5
102
RTVSPost2010Prop44ColorRGB
 90
      255
102
RTVSPost2010PropOp44
 70
     1
102
RTVSPost2010Prop45
280
     0
102
RTVSPost2010PropOp45
 70
     1
102
RTVSPost2010Prop46
 90
       50
102
RTVSPost2010PropOp46
 70
     1
102
RTVSPost2010Prop47
 90
       50
102
RTVSPost2010PropOp47
 70
     1
102
RTVSPost2010Prop48
 90
       50
102
RTVSPost2010PropOp48
 70
     1
102
RTVSPost2010Prop49
280
     0
102
RTVSPost2010PropOp49
 70
     1
102
RTVSPost2010Prop50
 90
       50
102
RTVSPost2010PropOp50
 70
     1
102
RTVSPost2010Prop51ColorIndex
 90
      256
102
RTVSPost2010Prop51ColorRGB
 90
-16777216
102
RTVSPost2010PropOp51
 70
     0
102
RTVSPost2010Prop52
140
1.0
102
RTVSPost2010PropOp52
 70
     0
102
RTVSPost2010Prop53
 90
        2
102
RTVSPost2010PropOp53
 70
     1
102
RTVSPost2010Prop54
  1
strokes_ogs.tif
102
RTVSPost2010PropOp54
 70
     1
102
RTVSPost2010Prop55
280
     0
102
RTVSPost2010PropOp55
 70
     1
102
RTVSPost2010Prop56
140
1.0
102
RTVSPost2010PropOp56
 70
     1
102
RTVSPost2010Prop57
140
1.0
102
RTVSPost2010PropOp57
 70
     1
  0
XRECORD
  5
193
102
{ACAD_REACTORS
330
192
102
}
330
192
100
AcDbXrecord
280
     1
102
RTVSPost2010Prop28
280
     0
102
RTVSPost2010PropOp28
 70
     1
102
RTVSPost2010Prop29
280
     1
102
RTVSPost2010PropOp29
 70
     1
102
RTVSPost2010Prop30
280
     1
102
RTVSPost2010PropOp30
 70
     1
102
RTVSPost2010Prop31
280
     0
102
RTVSPost2010PropOp31
 70
     1
102
RTVSPost2010Prop32
280
     0
102
RTVSPost2010PropOp32
 70
     1
102
RTVSPost2010Prop33
280
     0
102
RTVSPost2010PropOp33
 70
     1
102
RTVSPost2010Prop34
280
     0
102
RTVSPost2010PropOp34
 70
     1
102
RTVSPost2010Prop35
280
     0
102
RTVSPost2010PropOp35
 70
     1
102
RTVSPost2010Prop36
280
     0
102
RTVSPost2010PropOp36
 70
     1
102
RTVSPost2010Prop37
 90
       50
102
RTVSPost2010PropOp37
 70
     1
102
RTVSPost2010Prop38
140
0.0
102
RTVSPost2010PropOp38
 70
     1
102
RTVSPost2010Prop39
140
1.0
102
RTVSPost2010PropOp39
 70
     1
102
RTVSPost2010Prop40
 90
        0
102
RTVSPost2010PropOp40
 70
     1
102
RTVSPost2010Prop41ColorIndex
 90
       18
102
RTVSPost2010Prop41ColorRGB
 90
        0
102
RTVSPost2010PropOp41
 70
     1
102
RTVSPost2010Prop42
 90
       50
102
RTVSPost2010PropOp42
 70
     1
102
RTVSPost2010Prop43
 90
        3
102
RTVSPost2010PropOp43
 70
     1
102
RTVSPost2010Prop44ColorIndex
 90
        5
102
RTVSPost2010Prop44ColorRGB
 90
      255
102
RTVSPost2010PropOp44
 70
     1
102
RTVSPost2010Prop45
280
     0
102
RTVSPost2010PropOp45
 70
     1
102
RTVSPost2010Prop46
 90
       50
102
RTVSPost2010PropOp46
 70
     1
102
RTVSPost2010Prop47
 90
       50
102
RTVSPost2010PropOp47
 70
     1
102
RTVSPost2010Prop48
 90
       50
102
RTVSPost2010PropOp48
 70
     1
102
RTVSPost2010Prop49
280
     0
102
RTVSPost2010PropOp49
 70
     1
102
RTVSPost2010Prop50
 90
       50
102
RTVSPost2010PropOp50
 70
     1
102
RTVSPost2010Prop51ColorIndex
 90
      256
102
RTVSPost2010Prop51ColorRGB
 90
-16777216
102
RTVSPost2010PropOp51
 70
     0
102
RTVSPost2010Prop52
140
1.0
102
RTVSPost2010PropOp52
 70
     0
102
RTVSPost2010Prop53
 90
        2
102
RTVSPost2010PropOp53
 70
     1
102
RTVSPost2010Prop54
  1
strokes_ogs.tif
102
RTVSPost2010PropOp54
 70
     1
102
RTVSPost2010Prop55
280
     0
102
RTVSPost2010PropOp55
 70
     1
102
RTVSPost2010Prop56
140
1.0
102
RTVSPost2010PropOp56
 70
     1
102
RTVSPost2010Prop57
140
1.0
102
RTVSPost2010PropOp57
 70
     1
  0
XRECORD
  5
189
102
{ACAD_REACTORS
330
188
102
}
330
188
100
AcDbXrecord
280
     1
102
RTVSPost2010Prop28
280
     0
102
RTVSPost2010PropOp28
 70
     1
102
RTVSPost2010Prop29
280
     1
102
RTVSPost2010PropOp29
 70
     1
102
RTVSPost2010Prop30
280
     1
102
RTVSPost2010PropOp30
 70
     1
102
RTVSPost2010Prop31
280
     0
102
RTVSPost2010PropOp31
 70
     1
102
RTVSPost2010Prop32
280
     0
102
RTVSPost2010PropOp32
 70
     1
102
RTVSPost2010Prop33
280
     0
102
RTVSPost2010PropOp33
 70
     1
102
RTVSPost2010Prop34
280
     0
102
RTVSPost2010PropOp34
 70
     1
102
RTVSPost2010Prop35
280
     0
102
RTVSPost2010PropOp35
 70
     1
102
RTVSPost2010Prop36
280
     0
102
RTVSPost2010PropOp36
 70
     1
102
RTVSPost2010Prop37
 90
       50
102
RTVSPost2010PropOp37
 70
     1
102
RTVSPost2010Prop38
140
0.0
102
RTVSPost2010PropOp38
 70
     1
102
RTVSPost2010Prop39
140
1.0
102
RTVSPost2010PropOp39
 70
     1
102
RTVSPost2010Prop40
 90
        0
102
RTVSPost2010PropOp40
 70
     1
102
RTVSPost2010Prop41ColorIndex
 90
       18
102
RTVSPost2010Prop41ColorRGB
 90
        0
102
RTVSPost2010PropOp41
 70
     1
102
RTVSPost2010Prop42
 90
       50
102
RTVSPost2010PropOp42
 70
     1
102
RTVSPost2010Prop43
 90
        3
102
RTVSPost2010PropOp43
 70
     1
102
RTVSPost2010Prop44ColorIndex
 90
        5
102
RTVSPost2010Prop44ColorRGB
 90
      255
102
RTVSPost2010PropOp44
 70
     1
102
RTVSPost2010Prop45
280
     0
102
RTVSPost2010PropOp45
 70
     1
102
RTVSPost2010Prop46
 90
       50
102
RTVSPost2010PropOp46
 70
     1
102
RTVSPost2010Prop47
 90
       50
102
RTVSPost2010PropOp47
 70
     1
102
RTVSPost2010Prop48
 90
       50
102
RTVSPost2010PropOp48
 70
     1
102
RTVSPost2010Prop49
280
     0
102
RTVSPost2010PropOp49
 70
     1
102
RTVSPost2010Prop50
 90
       50
102
RTVSPost2010PropOp50
 70
     1
102
RTVSPost2010Prop51ColorIndex
 90
      256
102
RTVSPost2010Prop51ColorRGB
 90
-16777216
102
RTVSPost2010PropOp51
 70
     0
102
RTVSPost2010Prop52
140
1.0
102
RTVSPost2010PropOp52
 70
     0
102
RTVSPost2010Prop53
 90
        2
102
RTVSPost2010PropOp53
 70
     1
102
RTVSPost2010Prop54
  1
strokes_ogs.tif
102
RTVSPost2010PropOp54
 70
     1
102
RTVSPost2010Prop55
280
     0
102
RTVSPost2010PropOp55
 70
     1
102
RTVSPost2010Prop56
140
1.0
102
RTVSPost2010PropOp56
 70
     1
102
RTVSPost2010Prop57
140
1.0
102
RTVSPost2010PropOp57
 70
     1
  0
XRECORD
  5
17D
102
{ACAD_REACTORS
330
17C
102
}
330
17C
100
AcDbXrecord
280
     1
102
RTVSPost2010Prop28
280
     0
102
RTVSPost2010PropOp28
 70
     1
102
RTVSPost2010Prop29
280
     1
102
RTVSPost2010PropOp29
 70
     1
102
RTVSPost2010Prop30
280
     1
102
RTVSPost2010PropOp30
 70
     1
102
RTVSPost2010Prop31
280
     0
102
RTVSPost2010PropOp31
 70
     1
102
RTVSPost2010Prop32
280
     0
102
RTVSPost2010PropOp32
 70
     1
102
RTVSPost2010Prop33
280
     0
102
RTVSPost2010PropOp33
 70
     1
102
RTVSPost2010Prop34
280
     0
102
RTVSPost2010PropOp34
 70
     1
102
RTVSPost2010Prop35
280
     0
102
RTVSPost2010PropOp35
 70
     1
102
RTVSPost2010Prop36
280
     0
102
RTVSPost2010PropOp36
 70
     1
102
RTVSPost2010Prop37
 90
       50
102
RTVSPost2010PropOp37
 70
     1
102
RTVSPost2010Prop38
140
0.0
102
RTVSPost2010PropOp38
 70
     1
102
RTVSPost2010Prop39
140
1.0
102
RTVSPost2010PropOp39
 70
     1
102
RTVSPost2010Prop40
 90
        0
102
RTVSPost2010PropOp40
 70
     1
102
RTVSPost2010Prop41ColorIndex
 90
       18
102
RTVSPost2010Prop41ColorRGB
 90
        0
102
RTVSPost2010PropOp41
 70
     1
102
RTVSPost2010Prop42
 90
       50
102
RTVSPost2010PropOp42
 70
     1
102
RTVSPost2010Prop43
 90
        3
102
RTVSPost2010PropOp43
 70
     1
102
RTVSPost2010Prop44ColorIndex
 90
        5
102
RTVSPost2010Prop44ColorRGB
 90
      255
102
RTVSPost2010PropOp44
 70
     1
102
RTVSPost2010Prop45
280
     0
102
RTVSPost2010PropOp45
 70
     1
102
RTVSPost2010Prop46
 90
       50
102
RTVSPost2010PropOp46
 70
     1
102
RTVSPost2010Prop47
 90
       50
102
RTVSPost2010PropOp47
 70
     1
102
RTVSPost2010Prop48
 90
       50
102
RTVSPost2010PropOp48
 70
     1
102
RTVSPost2010Prop49
280
     0
102
RTVSPost2010PropOp49
 70
     1
102
RTVSPost2010Prop50
 90
       50
102
RTVSPost2010PropOp50
 70
     1
102
RTVSPost2010Prop51ColorIndex
 90
      256
102
RTVSPost2010Prop51ColorRGB
 90
-16777216
102
RTVSPost2010PropOp51
 70
     0
102
RTVSPost2010Prop52
140
1.0
102
RTVSPost2010PropOp52
 70
     0
102
RTVSPost2010Prop53
 90
        2
102
RTVSPost2010PropOp53
 70
     1
102
RTVSPost2010Prop54
  1
strokes_ogs.tif
102
RTVSPost2010PropOp54
 70
     1
102
RTVSPost2010Prop55
280
     0
102
RTVSPost2010PropOp55
 70
     1
102
RTVSPost2010Prop56
140
1.0
102
RTVSPost2010PropOp56
 70
     1
102
RTVSPost2010Prop57
140
1.0
102
RTVSPost2010PropOp57
 70
     1
  0
XRECORD
  5
195
102
{ACAD_REACTORS
330
194
102
}
330
194
100
AcDbXrecord
280
     1
102
RTVSPost2010Prop28
280
     0
102
RTVSPost2010PropOp28
 70
     1
102
RTVSPost2010Prop29
280
     1
102
RTVSPost2010PropOp29
 70
     1
102
RTVSPost2010Prop30
280
     1
102
RTVSPost2010PropOp30
 70
     1
102
RTVSPost2010Prop31
280
     0
102
RTVSPost2010PropOp31
 70
     1
102
RTVSPost2010Prop32
280
     0
102
RTVSPost2010PropOp32
 70
     1
102
RTVSPost2010Prop33
280
     0
102
RTVSPost2010PropOp33
 70
     1
102
RTVSPost2010Prop34
280
     0
102
RTVSPost2010PropOp34
 70
     1
102
RTVSPost2010Prop35
280
     0
102
RTVSPost2010PropOp35
 70
     1
102
RTVSPost2010Prop36
280
     0
102
RTVSPost2010PropOp36
 70
     1
102
RTVSPost2010Prop37
 90
       50
102
RTVSPost2010PropOp37
 70
     1
102
RTVSPost2010Prop38
140
0.0
102
RTVSPost2010PropOp38
 70
     1
102
RTVSPost2010Prop39
140
1.0
102
RTVSPost2010PropOp39
 70
     1
102
RTVSPost2010Prop40
 90
        0
102
RTVSPost2010PropOp40
 70
     1
102
RTVSPost2010Prop41ColorIndex
 90
       18
102
RTVSPost2010Prop41ColorRGB
 90
        0
102
RTVSPost2010PropOp41
 70
     1
102
RTVSPost2010Prop42
 90
       50
102
RTVSPost2010PropOp42
 70
     1
102
RTVSPost2010Prop43
 90
        3
102
RTVSPost2010PropOp43
 70
     1
102
RTVSPost2010Prop44ColorIndex
 90
        5
102
RTVSPost2010Prop44ColorRGB
 90
      255
102
RTVSPost2010PropOp44
 70
     1
102
RTVSPost2010Prop45
280
     0
102
RTVSPost2010PropOp45
 70
     1
102
RTVSPost2010Prop46
 90
       50
102
RTVSPost2010PropOp46
 70
     1
102
RTVSPost2010Prop47
 90
       50
102
RTVSPost2010PropOp47
 70
     1
102
RTVSPost2010Prop48
 90
       50
102
RTVSPost2010PropOp48
 70
     1
102
RTVSPost2010Prop49
280
     0
102
RTVSPost2010PropOp49
 70
     1
102
RTVSPost2010Prop50
 90
       50
102
RTVSPost2010PropOp50
 70
     1
102
RTVSPost2010Prop51ColorIndex
 90
      256
102
RTVSPost2010Prop51ColorRGB
 90
-16777216
102
RTVSPost2010PropOp51
 70
     0
102
RTVSPost2010Prop52
140
1.0
102
RTVSPost2010PropOp52
 70
     0
102
RTVSPost2010Prop53
 90
        2
102
RTVSPost2010PropOp53
 70
     1
102
RTVSPost2010Prop54
  1
strokes_ogs.tif
102
RTVSPost2010PropOp54
 70
     1
102
RTVSPost2010Prop55
280
     0
102
RTVSPost2010PropOp55
 70
     1
102
RTVSPost2010Prop56
140
1.0
102
RTVSPost2010PropOp56
 70
     1
102
RTVSPost2010Prop57
140
1.0
102
RTVSPost2010PropOp57
 70
     1
  0
ENDSEC
  0
EOF
