  0
SECTION
  2
HEADER
  9
$ACADVER
  1
AC1024
  9
$ACADMAINTVER
 70
   226
  9
$DWGCODEPAGE
  3
ANSI_932
  9
$INSBASE
 10
0.0
 20
0.0
 30
0.0
  9
$EXTMIN
 10
1.000000000000000E+20
 20
1.000000000000000E+20
 30
1.000000000000000E+20
  9
$EXTMAX
 10
-1.000000000000000E+20
 20
-1.000000000000000E+20
 30
-1.000000000000000E+20
  9
$LIMMIN
 10
0.0
 20
0.0
  9
$LIMMAX
 10
12.0
 20
9.0
  9
$ORTHOMODE
 70
     0
  9
$REGENMODE
 70
     1
  9
$FILLMODE
 70
     1
  9
$QTEXTMODE
 70
     0
  9
$MIRRTEXT
 70
     0
  9
$LTSCALE
 40
1.0
  9
$ATTMODE
 70
     1
  9
$TEXTSIZE
 40
0.2
  9
$TRACEWID
 40
0.05
  9
$TEXTSTYLE
  7
Standard
  9
$CLAYER
  8
0
  9
$CELTYPE
  6
ByLayer
  9
$CECOLOR
 62
   256
  9
$CELTSCALE
 40
1.0
  9
$DISPSILH
 70
     0
  9
$DIMSCALE
 40
1.0
  9
$DIMASZ
 40
0.18
  9
$DIMEXO
 40
0.0625
  9
$DIMDLI
 40
0.38
  9
$DIMRND
 40
0.0
  9
$DIMDLE
 40
0.0
  9
$DIMEXE
 40
0.18
  9
$DIMTP
 40
0.0
  9
$DIMTM
 40
0.0
  9
$DIMTXT
 40
0.18
  9
$DIMCEN
 40
0.09
  9
$DIMTSZ
 40
0.0
  9
$DIMTOL
 70
     0
  9
$DIMLIM
 70
     0
  9
$DIMTIH
 70
     1
  9
$DIMTOH
 70
     1
  9
$DIMSE1
 70
     0
  9
$DIMSE2
 70
     0
  9
$DIMTAD
 70
     0
  9
$DIMZIN
 70
     0
  9
$DIMBLK
  1

  9
$DIMASO
 70
     1
  9
$DIMSHO
 70
     1
  9
$DIMPOST
  1

  9
$DIMAPOST
  1

  9
$DIMALT
 70
     0
  9
$DIMALTD
 70
     2
  9
$DIMALTF
 40
25.4
  9
$DIMLFAC
 40
1.0
  9
$DIMTOFL
 70
     0
  9
$DIMTVP
 40
0.0
  9
$DIMTIX
 70
     0
  9
$DIMSOXD
 70
     0
  9
$DIMSAH
 70
     0
  9
$DIMBLK1
  1

  9
$DIMBLK2
  1

  9
$DIMSTYLE
  2
Standard
  9
$DIMCLRD
 70
     0
  9
$DIMCLRE
 70
     0
  9
$DIMCLRT
 70
     0
  9
$DIMTFAC
 40
1.0
  9
$DIMGAP
 40
0.09
  9
$DIMJUST
 70
     0
  9
$DIMSD1
 70
     0
  9
$DIMSD2
 70
     0
  9
$DIMTOLJ
 70
     1
  9
$DIMTZIN
 70
     0
  9
$DIMALTZ
 70
     0
  9
$DIMALTTZ
 70
     0
  9
$DIMUPT
 70
     0
  9
$DIMDEC
 70
     4
  9
$DIMTDEC
 70
     4
  9
$DIMALTU
 70
     2
  9
$DIMALTTD
 70
     2
  9
$DIMTXSTY
  7
Standard
  9
$DIMAUNIT
 70
     0
  9
$DIMADEC
 70
     0
  9
$DIMALTRND
 40
0.0
  9
$DIMAZIN
 70
     0
  9
$DIMDSEP
 70
    46
  9
$DIMATFIT
 70
     3
  9
$DIMFRAC
 70
     0
  9
$DIMLDRBLK
  1

  9
$DIMLUNIT
 70
     2
  9
$DIMLWD
 70
    -2
  9
$DIMLWE
 70
    -2
  9
$DIMTMOVE
 70
     0
  9
$DIMFXL
 40
1.0
  9
$DIMFXLON
 70
     0
  9
$DIMJOGANG
 40
0.7853981633974483
  9
$DIMTFILL
 70
     0
  9
$DIMTFILLCLR
 70
     0
  9
$DIMARCSYM
 70
     0
  9
$DIMLTYPE
  6

  9
$DIMLTEX1
  6

  9
$DIMLTEX2
  6

  9
$DIMTXTDIRECTION
 70
     0
  9
$LUNITS
 70
     2
  9
$LUPREC
 70
     4
  9
$SKETCHINC
 40
0.1
  9
$FILLETRAD
 40
0.0
  9
$AUNITS
 70
     0
  9
$AUPREC
 70
     0
  9
$MENU
  1
.
  9
$ELEVATION
 40
0.0
  9
$PELEVATION
 40
0.0
  9
$THICKNESS
 40
0.0
  9
$LIMCHECK
 70
     0
  9
$CHAMFERA
 40
0.0
  9
$CHAMFERB
 40
0.0
  9
$CHAMFERC
 40
0.0
  9
$CHAMFERD
 40
0.0
  9
$SKPOLY
 70
     0
  9
$TDCREATE
 40
2459569.503240741
  9
$TDUCREATE
 40
2459569.128240741
  9
$TDUPDATE
 40
2459569.503240741
  9
$TDUUPDATE
 40
2459569.128240741
  9
$TDINDWG
 40
0.0000000000
  9
$TDUSRTIMER
 40
0.0000000000
  9
$USRTIMER
 70
     1
  9
$ANGBASE
 50
0.0
  9
$ANGDIR
 70
     0
  9
$PDMODE
 70
     0
  9
$PDSIZE
 40
0.0
  9
$PLINEWID
 40
0.0
  9
$SPLFRAME
 70
     0
  9
$SPLINETYPE
 70
     6
  9
$SPLINESEGS
 70
     8
  9
$HANDSEED
  5
17A
  9
$SURFTAB1
 70
     6
  9
$SURFTAB2
 70
     6
  9
$SURFTYPE
 70
     6
  9
$SURFU
 70
     6
  9
$SURFV
 70
     6
  9
$UCSBASE
  2

  9
$UCSNAME
  2

  9
$UCSORG
 10
0.0
 20
0.0
 30
0.0
  9
$UCSXDIR
 10
1.0
 20
0.0
 30
0.0
  9
$UCSYDIR
 10
0.0
 20
1.0
 30
0.0
  9
$UCSORTHOREF
  2

  9
$UCSORTHOVIEW
 70
     0
  9
$UCSORGTOP
 10
0.0
 20
0.0
 30
0.0
  9
$UCSORGBOTTOM
 10
0.0
 20
0.0
 30
0.0
  9
$UCSORGLEFT
 10
0.0
 20
0.0
 30
0.0
  9
$UCSORGRIGHT
 10
0.0
 20
0.0
 30
0.0
  9
$UCSORGFRONT
 10
0.0
 20
0.0
 30
0.0
  9
$UCSORGBACK
 10
0.0
 20
0.0
 30
0.0
  9
$PUCSBASE
  2

  9
$PUCSNAME
  2

  9
$PUCSORG
 10
0.0
 20
0.0
 30
0.0
  9
$PUCSXDIR
 10
1.0
 20
0.0
 30
0.0
  9
$PUCSYDIR
 10
0.0
 20
1.0
 30
0.0
  9
$PUCSORTHOREF
  2

  9
$PUCSORTHOVIEW
 70
     0
  9
$PUCSORGTOP
 10
0.0
 20
0.0
 30
0.0
  9
$PUCSORGBOTTOM
 10
0.0
 20
0.0
 30
0.0
  9
$PUCSORGLEFT
 10
0.0
 20
0.0
 30
0.0
  9
$PUCSORGRIGHT
 10
0.0
 20
0.0
 30
0.0
  9
$PUCSORGFRONT
 10
0.0
 20
0.0
 30
0.0
  9
$PUCSORGBACK
 10
0.0
 20
0.0
 30
0.0
  9
$USERI1
 70
     0
  9
$USERI2
 70
     0
  9
$USERI3
 70
     0
  9
$USERI4
 70
     0
  9
$USERI5
 70
     0
  9
$USERR1
 40
0.0
  9
$USERR2
 40
0.0
  9
$USERR3
 40
0.0
  9
$USERR4
 40
0.0
  9
$USERR5
 40
0.0
  9
$WORLDVIEW
 70
     1
  9
$SHADEDGE
 70
     3
  9
$SHADEDIF
 70
    70
  9
$TILEMODE
 70
     1
  9
$MAXACTVP
 70
    64
  9
$PINSBASE
 10
0.0
 20
0.0
 30
0.0
  9
$PLIMCHECK
 70
     0
  9
$PEXTMIN
 10
1.000000000000000E+20
 20
1.000000000000000E+20
 30
1.000000000000000E+20
  9
$PEXTMAX
 10
-1.000000000000000E+20
 20
-1.000000000000000E+20
 30
-1.000000000000000E+20
  9
$PLIMMIN
 10
0.0
 20
0.0
  9
$PLIMMAX
 10
12.0
 20
9.0
  9
$UNITMODE
 70
     0
  9
$VISRETAIN
 70
     1
  9
$PLINEGEN
 70
     0
  9
$PSLTSCALE
 70
     1
  9
$TREEDEPTH
 70
  3020
  9
$CMLSTYLE
  2
Standard
  9
$CMLJUST
 70
     0
  9
$CMLSCALE
 40
1.0
  9
$PROXYGRAPHICS
 70
     1
  9
$MEASUREMENT
 70
     0
  9
$CELWEIGHT
370
    -1
  9
$ENDCAPS
280
     0
  9
$JOINSTYLE
280
     0
  9
$LWDISPLAY
290
     1
  9
$INSUNITS
 70
     4
  9
$HYPERLINKBASE
  1

  9
$STYLESHEET
  1

  9
$XEDIT
290
     1
  9
$CEPSNTYPE
380
     0
  9
$PSTYLEMODE
290
     1
  9
$FINGERPRINTGUID
  2
{D2ECFF45-D451-2848-BF2E-05383518C3C1}
  9
$VERSIONGUID
  2
{02F63D28-1923-404A-8ACE-75EF79B6A504}
  9
$EXTNAMES
290
     1
  9
$PSVPSCALE
 40
0.0
  9
$OLESTARTUP
290
     0
  9
$SORTENTS
280
   127
  9
$INDEXCTL
280
     0
  9
$HIDETEXT
280
     1
  9
$XCLIPFRAME
280
     2
  9
$HALOGAP
280
     0
  9
$OBSCOLOR
 70
   257
  9
$OBSLTYPE
280
     0
  9
$INTERSECTIONDISPLAY
280
     0
  9
$INTERSECTIONCOLOR
 70
   257
  9
$DIMASSOC
280
     2
  9
$PROJECTNAME
  1

  9
$CAMERADISPLAY
290
     0
  9
$LENSLENGTH
 40
50.0
  9
$CAMERAHEIGHT
 40
0.0
  9
$STEPSPERSEC
 40
2.0
  9
$STEPSIZE
 40
6.0
  9
$3DDWFPREC
 40
2.0
  9
$PSOLWIDTH
 40
0.25
  9
$PSOLHEIGHT
 40
4.0
  9
$LOFTANG1
 40
1.570796326794896
  9
$LOFTANG2
 40
1.570796326794896
  9
$LOFTMAG1
 40
0.0
  9
$LOFTMAG2
 40
0.0
  9
$LOFTPARAM
 70
     7
  9
$LOFTNORMALS
280
     1
  9
$LATITUDE
 40
37.795
  9
$LONGITUDE
 40
-122.394
  9
$NORTHDIRECTION
 40
0.0
  9
$TIMEZONE
 70
 -8000
  9
$LIGHTGLYPHDISPLAY
280
     1
  9
$TILEMODELIGHTSYNCH
280
     1
  9
$CMATERIAL
347
11
  9
$SOLIDHIST
280
     0
  9
$SHOWHIST
280
     1
  9
$DWFFRAME
280
     2
  9
$DGNFRAME
280
     0
  9
$REALWORLDSCALE
290
     1
  9
$INTERFERECOLOR
 62
     1
  9
$INTERFEREOBJVS
345
33
  9
$INTERFEREVPVS
346
30
  9
$CSHADOW
280
     0
  9
$SHADOWPLANELOCATION
 40
0.0
  0
ENDSEC
  0
SECTION
  2
CLASSES
  0
CLASS
  1
ACDBDICTIONARYWDFLT
  2
AcDbDictionaryWithDefault
  3
ObjectDBX Classes
 90
        0
 91
        1
280
     0
281
     0
  0
CLASS
  1
MATERIAL
  2
AcDbMaterial
  3
ObjectDBX Classes
 90
     1153
 91
        3
280
     0
281
     0
  0
CLASS
  1
VISUALSTYLE
  2
AcDbVisualStyle
  3
ObjectDBX Classes
 90
     4095
 91
       24
280
     0
281
     0
  0
CLASS
  1
SCALE
  2
AcDbScale
  3
ObjectDBX Classes
 90
     1153
 91
       17
280
     0
281
     0
  0
CLASS
  1
TABLESTYLE
  2
AcDbTableStyle
  3
ObjectDBX Classes
 90
     4095
 91
        1
280
     0
281
     0
  0
CLASS
  1
MLEADERSTYLE
  2
AcDbMLeaderStyle
  3
ACDB_MLEADERSTYLE_CLASS
 90
     4095
 91
        1
280
     0
281
     0
  0
CLASS
  1
ACDBSECTIONVIEWSTYLE
  2
AcDbSectionViewStyle
  3
ObjectDBX Classes
 90
     1025
 91
        1
280
     0
281
     0
  0
CLASS
  1
ACDBDETAILVIEWSTYLE
  2
AcDbDetailViewStyle
  3
ObjectDBX Classes
 90
     1025
 91
        1
280
     0
281
     0
  0
CLASS
  1
DICTIONARYVAR
  2
AcDbDictionaryVar
  3
ObjectDBX Classes
 90
        0
 91
        5
280
     0
281
     0
  0
CLASS
  1
CELLSTYLEMAP
  2
AcDbCellStyleMap
  3
ObjectDBX Classes
 90
     1152
 91
        1
280
     0
281
     0
  0
ENDSEC
  0
SECTION
  2
TABLES
  0
TABLE
  2
VPORT
  5
8
330
0
100
AcDbSymbolTable
 70
     1
  0
VPORT
  5
57
330
8
100
AcDbSymbolTableRecord
100
AcDbViewportTableRecord
  2
*Active
 70
     0
 10
0.0
 20
0.0
 11
1.0
 21
1.0
 12
0.0
 22
0.0
 13
0.0
 23
0.0
 14
1.0
 24
1.0
 15
0.0
 25
0.0
 16
0.0
 26
0.0
 36
1.0
 17
104.9999999737534
 27
-148.4999999628701
 37
0.0
 40
302.939999924255
 41
0.7070707070707534
 42
50.0
 43
0.0
 44
0.0
 50
0.0
 51
0.0
 71
     0
 72
   100
 73
     1
 74
     0
 75
     1
 76
     0
 77
     0
 78
     0
281
     0
 65
     1
110
0.0
120
0.0
130
0.0
111
1.0
121
0.0
131
0.0
112
0.0
122
1.0
132
0.0
 79
     0
146
0.0
 60
     3
 61
     5
292
     1
282
     1
141
0.0
142
0.0
 63
   250
421
  3355443
  0
ENDTAB
  0
TABLE
  2
LTYPE
  5
5
330
0
100
AcDbSymbolTable
 70
     1
  0
LTYPE
  5
5B
330
5
100
AcDbSymbolTableRecord
100
AcDbLinetypeTableRecord
  2
ByBlock
 70
     0
  3

 72
    65
 73
     0
 40
0.0
  0
LTYPE
  5
5C
330
5
100
AcDbSymbolTableRecord
100
AcDbLinetypeTableRecord
  2
ByLayer
 70
     0
  3

 72
    65
 73
     0
 40
0.0
  0
LTYPE
  5
5D
330
5
100
AcDbSymbolTableRecord
100
AcDbLinetypeTableRecord
  2
Continuous
 70
     0
  3
Solid line
 72
    65
 73
     0
 40
0.0
  0
ENDTAB
  0
TABLE
  2
LAYER
  5
2
330
0
100
AcDbSymbolTable
 70
     2
  0
LAYER
  5
54
330
2
100
AcDbSymbolTableRecord
100
AcDbLayerTableRecord
  2
0
 70
     0
 62
     7
  6
Continuous
370
    -3
390
F
347
21
  0
LAYER
  5
78
330
2
100
AcDbSymbolTableRecord
100
AcDbLayerTableRecord
  2
レイヤー 1
 70
     0
 62
     7
  6
Continuous
370
     0
390
F
347
21
  0
ENDTAB
  0
TABLE
  2
STYLE
  5
3
330
0
100
AcDbSymbolTable
 70
     2
  0
STYLE
  5
55
330
3
100
AcDbSymbolTableRecord
100
AcDbTextStyleTableRecord
  2
Standard
 70
     0
 40
0.0
 41
1.0
 50
0.0
 71
     0
 42
0.2
  3
txt
  4

  0
STYLE
  5
5A
330
3
100
AcDbSymbolTableRecord
100
AcDbTextStyleTableRecord
  2
Annotative
 70
     0
 40
0.0
 41
1.0
 50
0.0
 71
     0
 42
0.2
  3
txt
  4

1001
AcadAnnotative
1000
AnnotativeData
1002
{
1070
     1
1070
     1
1002
}
  0
ENDTAB
  0
TABLE
  2
VIEW
  5
6
330
0
100
AcDbSymbolTable
 70
     0
  0
ENDTAB
  0
TABLE
  2
UCS
  5
7
330
0
100
AcDbSymbolTable
 70
     0
  0
ENDTAB
  0
TABLE
  2
APPID
  5
9
330
0
100
AcDbSymbolTable
 70
     2
  0
APPID
  5
56
330
9
100
AcDbSymbolTableRecord
100
AcDbRegAppTableRecord
  2
ACAD
 70
     0
  0
APPID
  5
5E
330
9
100
AcDbSymbolTableRecord
100
AcDbRegAppTableRecord
  2
AcadAnnotative
 70
     0
  0
ENDTAB
  0
TABLE
  2
DIMSTYLE
  5
A
330
0
100
AcDbSymbolTable
 70
     2
100
AcDbDimStyleTable
 71
     0
  0
DIMSTYLE
105
58
330
A
100
AcDbSymbolTableRecord
100
AcDbDimStyleTableRecord
  2
Standard
 70
     0
340
55
  0
DIMSTYLE
105
59
330
A
100
AcDbSymbolTableRecord
100
AcDbDimStyleTableRecord
  2
Annotative
 70
     0
340
55
1001
AcadAnnotative
1000
AnnotativeData
1002
{
1070
     1
1070
     1
1002
}
  0
ENDTAB
  0
TABLE
  2
BLOCK_RECORD
  5
1
330
0
100
AcDbSymbolTable
 70
    13
  0
BLOCK_RECORD
  5
70
330
1
100
AcDbSymbolTableRecord
100
AcDbBlockTableRecord
  2
*Model_Space
340
73
 70
     0
280
     1
281
     0
  0
BLOCK_RECORD
  5
6C
330
1
100
AcDbSymbolTableRecord
100
AcDbBlockTableRecord
  2
*Paper_Space
340
6F
 70
     0
280
     1
281
     0
  0
BLOCK_RECORD
  5
74
330
1
100
AcDbSymbolTableRecord
100
AcDbBlockTableRecord
  2
*Paper_Space0
340
77
 70
     0
280
     1
281
     0
  0
BLOCK_RECORD
  5
79
330
1
100
AcDbSymbolTableRecord
100
AcDbBlockTableRecord
  2
Block_0
340
0
102
{BLKREFS
331
7A
102
}
 70
     0
280
     1
281
     0
  0
BLOCK_RECORD
  5
E5
330
1
100
AcDbSymbolTableRecord
100
AcDbBlockTableRecord
  2
Block_1
340
0
102
{BLKREFS
331
E6
102
}
 70
     0
280
     1
281
     0
  0
BLOCK_RECORD
  5
EB
330
1
100
AcDbSymbolTableRecord
100
AcDbBlockTableRecord
  2
Block_2
340
0
102
{BLKREFS
331
EC
102
}
 70
     0
280
     1
281
     0
  0
BLOCK_RECORD
  5
F5
330
1
100
AcDbSymbolTableRecord
100
AcDbBlockTableRecord
  2
Block_3
340
0
102
{BLKREFS
331
F6
102
}
 70
     0
280
     1
281
     0
  0
BLOCK_RECORD
  5
F9
330
1
100
AcDbSymbolTableRecord
100
AcDbBlockTableRecord
  2
Block_4
340
0
102
{BLKREFS
331
FA
102
}
 70
     0
280
     1
281
     0
  0
BLOCK_RECORD
  5
108
330
1
100
AcDbSymbolTableRecord
100
AcDbBlockTableRecord
  2
Block_5
340
0
102
{BLKREFS
331
109
102
}
 70
     0
280
     1
281
     0
  0
BLOCK_RECORD
  5
10C
330
1
100
AcDbSymbolTableRecord
100
AcDbBlockTableRecord
  2
Block_6
340
0
102
{BLKREFS
331
10D
102
}
 70
     0
280
     1
281
     0
  0
BLOCK_RECORD
  5
119
330
1
100
AcDbSymbolTableRecord
100
AcDbBlockTableRecord
  2
Block_7
340
0
102
{BLKREFS
331
11A
102
}
 70
     0
280
     1
281
     0
  0
BLOCK_RECORD
  5
11D
330
1
100
AcDbSymbolTableRecord
100
AcDbBlockTableRecord
  2
Block_8
340
0
102
{BLKREFS
331
11E
102
}
 70
     0
280
     1
281
     0
  0
BLOCK_RECORD
  5
127
330
1
100
AcDbSymbolTableRecord
100
AcDbBlockTableRecord
  2
Block_9
340
0
102
{BLKREFS
331
128
102
}
 70
     0
280
     1
281
     0
  0
BLOCK_RECORD
  5
12B
330
1
100
AcDbSymbolTableRecord
100
AcDbBlockTableRecord
  2
Block_10
340
0
102
{BLKREFS
331
12C
102
}
 70
     0
280
     1
281
     0
  0
BLOCK_RECORD
  5
135
330
1
100
AcDbSymbolTableRecord
100
AcDbBlockTableRecord
  2
Block_11
340
0
102
{BLKREFS
331
136
102
}
 70
     0
280
     1
281
     0
  0
ENDTAB
  0
ENDSEC
  0
SECTION
  2
BLOCKS
  0
BLOCK
  5
71
330
70
100
AcDbEntity
  8
0
100
AcDbBlockBegin
  2
*Model_Space
 70
     0
 10
0.0
 20
0.0
 30
0.0
  3
*Model_Space
  1

  0
ENDBLK
  5
72
330
70
100
AcDbEntity
  8
0
100
AcDbBlockEnd
  0
BLOCK
  5
6D
330
6C
100
AcDbEntity
 67
     1
  8
0
100
AcDbBlockBegin
  2
*Paper_Space
 70
     0
 10
0.0
 20
0.0
 30
0.0
  3
*Paper_Space
  1

  0
ENDBLK
  5
6E
330
6C
100
AcDbEntity
 67
     1
  8
0
100
AcDbBlockEnd
  0
BLOCK
  5
75
330
74
100
AcDbEntity
 67
     1
  8
0
100
AcDbBlockBegin
  2
*Paper_Space0
 70
     0
 10
0.0
 20
0.0
 30
0.0
  3
*Paper_Space0
  1

  0
ENDBLK
  5
76
330
74
100
AcDbEntity
 67
     1
  8
0
100
AcDbBlockEnd
  0
BLOCK
  5
7B
330
79
100
AcDbEntity
  8
0
100
AcDbBlockBegin
  2
Block_0
 70
     0
 10
0.0
 20
0.0
 30
0.0
  3
Block_0
  1

  0
LINE
  5
7D
330
79
100
AcDbEntity
  8
レイヤー 1
 62
   250
420
  2299925
370
    25
100
AcDbLine
 10
111.8782910987283
 20
-152.701560882085
 30
0.0
 11
105.3787827879701
 21
-152.701560882085
 31
0.0
  0
LINE
  5
7E
330
79
100
AcDbEntity
  8
レイヤー 1
 62
   250
420
  2299925
370
    25
100
AcDbLine
 10
86.12861777183226
 20
-147.1921950501285
 30
0.0
 11
86.12861777183226
 21
-147.6923986611147
 31
0.0
  0
LINE
  5
7F
330
79
100
AcDbEntity
  8
レイヤー 1
 62
   250
420
  2299925
370
    25
100
AcDbLine
 10
106.2193827668099
 20
-147.6923986611147
 30
0.0
 11
86.12861777183226
 21
-147.6923986611147
 31
0.0
  0
LINE
  5
80
330
79
100
AcDbEntity
  8
レイヤー 1
 62
   250
420
  2299925
370
    25
100
AcDbLine
 10
110.9956410989488
 20
-151.7507189378778
 30
0.0
 11
106.261397487675
 21
-151.7507189378778
 31
0.0
  0
LINE
  5
81
330
79
100
AcDbEntity
  8
レイヤー 1
 62
   250
420
  2299925
370
    25
100
AcDbLine
 10
105.3787827879701
 20
-152.6922828265319
 30
0.0
 11
106.2193827668099
 21
-147.6923986611147
 31
0.0
  0
LINE
  5
82
330
79
100
AcDbEntity
  8
レイヤー 1
 62
   250
420
  2299925
370
    25
100
AcDbLine
 10
106.261397487675
 20
-151.6921578267816
 30
0.0
 11
107.1295835766368
 21
-146.430124494764
 31
0.0
  0
LINE
  5
83
330
79
100
AcDbEntity
  8
レイヤー 1
 62
   250
420
  2299925
370
    25
100
AcDbLine
 10
86.12861777183226
 20
-147.1921950501285
 30
0.0
 11
86.64226221614866
 21
-147.5745708833668
 31
0.0
  0
LINE
  5
84
330
79
100
AcDbEntity
  8
レイヤー 1
 62
   250
420
  2299925
370
    25
100
AcDbLine
 10
86.64226221614866
 20
-147.5745708833668
 30
0.0
 11
87.12768443824929
 21
-147.1570583834708
 31
0.0
  0
LINE
  5
85
330
79
100
AcDbEntity
  8
レイヤー 1
 62
   250
420
  2299925
370
    25
100
AcDbLine
 10
87.64171693812064
 20
-147.538763938931
 30
0.0
 11
88.12710388244374
 21
-147.1212161612575
 31
0.0
  0
LINE
  5
86
330
79
100
AcDbEntity
  8
レイヤー 1
 62
   250
420
  2299925
370
    25
100
AcDbLine
 10
87.12768443824929
 20
-147.1570583834708
 30
0.0
 11
87.64171693812064
 21
-147.538763938931
 31
0.0
  0
LINE
  5
87
330
79
100
AcDbEntity
  8
レイヤー 1
 62
   250
420
  2299925
370
    25
100
AcDbLine
 10
88.12710388244374
 20
-147.1212161612575
 30
0.0
 11
88.64113638231541
 21
-147.5029217167178
 31
0.0
  0
LINE
  5
88
330
79
100
AcDbEntity
  8
レイヤー 1
 62
   250
420
  2299925
370
    25
100
AcDbLine
 10
88.64113638231541
 20
-147.5029217167178
 30
0.0
 11
89.12652332663853
 21
-147.0853739390443
 31
0.0
  0
LINE
  5
89
330
79
100
AcDbEntity
  8
レイヤー 1
 62
   250
420
  2299925
370
    25
100
AcDbLine
 10
89.12652332663853
 20
-147.0853739390443
 30
0.0
 11
89.6405558265102
 21
-147.4671147722827
 31
0.0
  0
LINE
  5
8A
330
79
100
AcDbEntity
  8
レイヤー 1
 62
   250
420
  2299925
370
    25
100
AcDbLine
 10
89.6405558265102
 20
-147.4671147722827
 30
0.0
 11
90.12562527083337
 21
-147.0495669946092
 31
0.0
  0
LINE
  5
8B
330
79
100
AcDbEntity
  8
レイヤー 1
 62
   250
420
  2299925
370
    25
100
AcDbLine
 10
90.12562527083337
 20
-147.0495669946092
 30
0.0
 11
90.63962249292691
 21
-147.4312725500691
 31
0.0
  0
LINE
  5
8C
330
79
100
AcDbEntity
  8
レイヤー 1
 62
   250
420
  2299925
370
    25
100
AcDbLine
 10
90.63962249292691
 20
-147.4312725500691
 30
0.0
 11
91.12539749280529
 21
-147.0137247723953
 31
0.0
  0
LINE
  5
8D
330
79
100
AcDbEntity
  8
レイヤー 1
 62
   250
420
  2299925
370
    25
100
AcDbLine
 10
91.12539749280529
 20
-147.0137247723953
 30
0.0
 11
91.63939471489912
 21
-147.3961358834111
 31
0.0
  0
LINE
  5
8E
330
79
100
AcDbEntity
  8
レイヤー 1
 62
   250
420
  2299925
370
    25
100
AcDbLine
 10
91.63939471489912
 20
-147.3961358834111
 30
0.0
 11
92.12446415922229
 21
-146.9785881057382
 31
0.0
  0
LINE
  5
8F
330
79
100
AcDbEntity
  8
レイヤー 1
 62
   250
420
  2299925
370
    25
100
AcDbLine
 10
92.12446415922229
 20
-146.9785881057382
 30
0.0
 11
92.63846138131615
 21
-147.3602936611978
 31
0.0
  0
LINE
  5
90
330
79
100
AcDbEntity
  8
レイヤー 1
 62
   250
420
  2299925
370
    25
100
AcDbLine
 10
92.63846138131615
 20
-147.3602936611978
 30
0.0
 11
93.12388360341708
 21
-146.9427458835243
 31
0.0
  0
LINE
  5
91
330
79
100
AcDbEntity
  8
レイヤー 1
 62
   250
420
  2299925
370
    25
100
AcDbLine
 10
93.6378808255106
 20
-147.3244867167621
 30
0.0
 11
94.12330304761153
 21
-146.9069389390886
 31
0.0
  0
LINE
  5
92
330
79
100
AcDbEntity
  8
レイヤー 1
 62
   250
420
  2299925
370
    25
100
AcDbLine
 10
93.12388360341708
 20
-146.9427458835243
 30
0.0
 11
93.6378808255106
 21
-147.3244867167621
 31
0.0
  0
LINE
  5
93
330
79
100
AcDbEntity
  8
レイヤー 1
 62
   250
420
  2299925
370
    25
100
AcDbLine
 10
94.12330304761153
 20
-146.9069389390886
 30
0.0
 11
94.63730026970537
 21
-147.2886444945495
 31
0.0
  0
LINE
  5
94
330
79
100
AcDbEntity
  8
レイヤー 1
 62
   250
420
  2299925
370
    25
100
AcDbLine
 10
94.63730026970537
 20
-147.2886444945495
 30
0.0
 11
95.122722491806
 21
-146.871096716876
 31
0.0
  0
LINE
  5
95
330
79
100
AcDbEntity
  8
レイヤー 1
 62
   250
420
  2299925
370
    25
100
AcDbLine
 10
95.63640221389992
 20
-147.2528022723356
 30
0.0
 11
96.12214193600078
 21
-146.8352544946621
 31
0.0
  0
LINE
  5
96
330
79
100
AcDbEntity
  8
レイヤー 1
 62
   250
420
  2299925
370
    25
100
AcDbLine
 10
95.122722491806
 20
-146.871096716876
 30
0.0
 11
95.63640221389992
 21
-147.2528022723356
 31
0.0
  0
LINE
  5
97
330
79
100
AcDbEntity
  8
レイヤー 1
 62
   250
420
  2299925
370
    25
100
AcDbLine
 10
96.63613915809399
 20
-147.2176656056779
 30
0.0
 11
97.12120860241716
 21
-146.800117828005
 31
0.0
  0
LINE
  5
98
330
79
100
AcDbEntity
  8
レイヤー 1
 62
   250
420
  2299925
370
    25
100
AcDbLine
 10
96.12214193600078
 20
-146.8352544946621
 30
0.0
 11
96.63613915809399
 21
-147.2176656056779
 31
0.0
  0
LINE
  5
99
330
79
100
AcDbEntity
  8
レイヤー 1
 62
   250
420
  2299925
370
    25
100
AcDbLine
 10
97.12120860241716
 20
-146.800117828005
 30
0.0
 11
97.63524110228916
 21
-147.1818586612428
 31
0.0
  0
LINE
  5
9A
330
79
100
AcDbEntity
  8
レイヤー 1
 62
   250
420
  2299925
370
    25
100
AcDbLine
 10
97.63524110228916
 20
-147.1818586612428
 30
0.0
 11
98.12097991757688
 21
-146.7643108835693
 31
0.0
  0
LINE
  5
9B
330
79
100
AcDbEntity
  8
レイヤー 1
 62
   250
420
  2299925
370
    25
100
AcDbLine
 10
98.12097991757688
 20
-146.7643108835693
 30
0.0
 11
98.63430776870586
 21
-147.1460164390289
 31
0.0
  0
LINE
  5
9C
330
79
100
AcDbEntity
  8
レイヤー 1
 62
   250
420
  2299925
370
    25
100
AcDbLine
 10
98.63430776870586
 20
-147.1460164390289
 30
0.0
 11
99.12008276858456
 21
-146.7284686613554
 31
0.0
  0
LINE
  5
9D
330
79
100
AcDbEntity
  8
レイヤー 1
 62
   250
420
  2299925
370
    25
100
AcDbLine
 10
99.12008276858456
 20
-146.7284686613554
 30
0.0
 11
99.63443276845584
 21
-147.1101742168163
 31
0.0
  0
LINE
  5
9E
330
79
100
AcDbEntity
  8
レイヤー 1
 62
   250
420
  2299925
370
    25
100
AcDbLine
 10
99.63443276845584
 20
-147.1101742168163
 30
0.0
 11
100.119502212779
 21
-146.6926264391428
 31
0.0
  0
LINE
  5
9F
330
79
100
AcDbEntity
  8
レイヤー 1
 62
   250
420
  2299925
370
    25
100
AcDbLine
 10
100.119502212779
 20
-146.6926264391428
 30
0.0
 11
100.6334994348728
 21
-147.0743672723806
 31
0.0
  0
LINE
  5
A0
330
79
100
AcDbEntity
  8
レイヤー 1
 62
   250
420
  2299925
370
    25
100
AcDbLine
 10
100.6334994348728
 20
-147.0743672723806
 30
0.0
 11
101.1192744347515
 21
-146.6568194947071
 31
0.0
  0
LINE
  5
A1
330
79
100
AcDbEntity
  8
レイヤー 1
 62
   250
420
  2299925
370
    25
100
AcDbLine
 10
101.1192744347515
 20
-146.6568194947071
 30
0.0
 11
101.6325661012899
 21
-147.0392306057222
 31
0.0
  0
LINE
  5
A2
330
79
100
AcDbEntity
  8
レイヤー 1
 62
   250
420
  2299925
370
    25
100
AcDbLine
 10
101.6325661012899
 20
-147.0392306057222
 30
0.0
 11
102.1183411011682
 21
-146.6216828280497
 31
0.0
  0
LINE
  5
A3
330
79
100
AcDbEntity
  8
レイヤー 1
 62
   250
420
  2299925
370
    25
100
AcDbLine
 10
102.1183411011682
 20
-146.6216828280497
 30
0.0
 11
102.6323383232621
 21
-147.0033883835096
 31
0.0
  0
LINE
  5
A4
330
79
100
AcDbEntity
  8
レイヤー 1
 62
   250
420
  2299925
370
    25
100
AcDbLine
 10
102.6323383232621
 20
-147.0033883835096
 30
0.0
 11
103.1174077675853
 21
-146.5858406058361
 31
0.0
  0
LINE
  5
A5
330
79
100
AcDbEntity
  8
レイヤー 1
 62
   250
420
  2299925
370
    25
100
AcDbLine
 10
103.1174077675853
 20
-146.5858406058361
 30
0.0
 11
103.6314049896787
 21
-146.9675461612957
 31
0.0
  0
LINE
  5
A6
330
79
100
AcDbEntity
  8
レイヤー 1
 62
   250
420
  2299925
370
    25
100
AcDbLine
 10
103.6314049896787
 20
-146.9675461612957
 30
0.0
 11
104.1171799895575
 21
-146.5499983836229
 31
0.0
  0
LINE
  5
A7
330
79
100
AcDbEntity
  8
レイヤー 1
 62
   250
420
  2299925
370
    25
100
AcDbLine
 10
104.1171799895575
 20
-146.5499983836229
 30
0.0
 11
104.6311772116513
 21
-146.9317392168606
 31
0.0
  0
LINE
  5
A8
330
79
100
AcDbEntity
  8
レイヤー 1
 62
   250
420
  2299925
370
    25
100
AcDbLine
 10
104.6311772116513
 20
-146.9317392168606
 30
0.0
 11
105.1162466559745
 21
-146.5141914391871
 31
0.0
  0
LINE
  5
A9
330
79
100
AcDbEntity
  8
レイヤー 1
 62
   250
420
  2299925
370
    25
100
AcDbLine
 10
105.1162466559745
 20
-146.5141914391871
 30
0.0
 11
105.6302780593317
 21
-146.8958969946474
 31
0.0
  0
LINE
  5
AA
330
79
100
AcDbEntity
  8
レイヤー 1
 62
   250
420
  2299925
370
    25
100
AcDbLine
 10
105.6302780593317
 20
-146.8958969946474
 30
0.0
 11
106.1160188779464
 21
-146.4783492169739
 31
0.0
  0
LINE
  5
AB
330
79
100
AcDbEntity
  8
レイヤー 1
 62
   250
420
  2299925
370
    25
100
AcDbLine
 10
106.1160188779464
 20
-146.4783492169739
 30
0.0
 11
107.1295835766368
 21
-146.430124494764
 31
0.0
  0
LINE
  5
AC
330
79
100
AcDbEntity
  8
レイヤー 1
 62
   250
420
  2299925
370
    25
100
AcDbLine
 10
121.1345787748951
 20
-146.8352544946621
 30
0.0
 11
120.6205815657861
 21
-147.2176656056779
 31
0.0
  0
LINE
  5
AD
330
79
100
AcDbEntity
  8
レイヤー 1
 62
   250
420
  2299925
370
    25
100
AcDbLine
 10
126.131323091862
 20
-147.0137247723953
 30
0.0
 11
125.617325882753
 21
-147.3961358834111
 31
0.0
  0
LINE
  5
AE
330
79
100
AcDbEntity
  8
レイヤー 1
 62
   250
420
  2299925
370
    25
100
AcDbLine
 10
121.6203184847251
 20
-147.2528022723356
 30
0.0
 11
121.1345787748951
 21
-146.8352544946621
 31
0.0
  0
LINE
  5
AF
330
79
100
AcDbEntity
  8
レイヤー 1
 62
   250
420
  2299925
370
    25
100
AcDbLine
 10
122.6194204036804
 20
-147.2886444945495
 30
0.0
 11
122.1343509716111
 21
-146.871096716876
 31
0.0
  0
LINE
  5
B0
330
79
100
AcDbEntity
  8
レイヤー 1
 62
   250
420
  2299925
370
    25
100
AcDbLine
 10
120.6205815657861
 20
-147.2176656056779
 30
0.0
 11
120.1355121337168
 21
-146.800117828005
 31
0.0
  0
LINE
  5
B1
330
79
100
AcDbEntity
  8
レイヤー 1
 62
   250
420
  2299925
370
    25
100
AcDbLine
 10
122.1343509716111
 20
-146.871096716876
 30
0.0
 11
121.6203184847251
 21
-147.2528022723356
 31
0.0
  0
LINE
  5
B2
330
79
100
AcDbEntity
  8
レイヤー 1
 62
   250
420
  2299925
370
    25
100
AcDbLine
 10
130.1290360454274
 20
-147.1570583834708
 30
0.0
 11
129.6150035585421
 21
-147.538763938931
 31
0.0
  0
LINE
  5
B3
330
79
100
AcDbEntity
  8
レイヤー 1
 62
   250
420
  2299925
370
    25
100
AcDbLine
 10
123.1334176127901
 20
-146.9069389390886
 30
0.0
 11
122.6194204036804
 21
-147.2886444945495
 31
0.0
  0
LINE
  5
B4
330
79
100
AcDbEntity
  8
レイヤー 1
 62
   250
420
  2299925
370
    25
100
AcDbLine
 10
124.1331898095053
 20
-146.9427458835243
 30
0.0
 11
123.6191926003963
 21
-147.3244867167621
 31
0.0
  0
LINE
  5
B5
330
79
100
AcDbEntity
  8
レイヤー 1
 62
   250
420
  2299925
370
    25
100
AcDbLine
 10
123.6191926003963
 20
-147.3244867167621
 30
0.0
 11
123.1334176127901
 21
-146.9069389390886
 31
0.0
  0
LINE
  5
B6
330
79
100
AcDbEntity
  8
レイヤー 1
 62
   250
420
  2299925
370
    25
100
AcDbLine
 10
124.6182592415746
 20
-147.3602936611978
 30
0.0
 11
124.1331898095053
 21
-146.9427458835243
 31
0.0
  0
LINE
  5
B7
330
79
100
AcDbEntity
  8
レイヤー 1
 62
   250
420
  2299925
370
    25
100
AcDbLine
 10
129.6150035585421
 20
-147.538763938931
 30
0.0
 11
129.1299341264722
 21
-147.1212161612575
 31
0.0
  0
LINE
  5
B8
330
79
100
AcDbEntity
  8
レイヤー 1
 62
   250
420
  2299925
370
    25
100
AcDbLine
 10
125.1322564506837
 20
-146.9785881057382
 30
0.0
 11
124.6182592415746
 21
-147.3602936611978
 31
0.0
  0
LINE
  5
B9
330
79
100
AcDbEntity
  8
レイヤー 1
 62
   250
420
  2299925
370
    25
100
AcDbLine
 10
125.617325882753
 20
-147.3961358834111
 30
0.0
 11
125.1322564506837
 21
-146.9785881057382
 31
0.0
  0
LINE
  5
BA
330
79
100
AcDbEntity
  8
レイヤー 1
 62
   250
420
  2299925
370
    25
100
AcDbLine
 10
130.6141054774967
 20
-147.5745708833668
 30
0.0
 11
130.1290360454274
 21
-147.1570583834708
 31
0.0
  0
LINE
  5
BB
330
79
100
AcDbEntity
  8
レイヤー 1
 62
   250
420
  2299925
370
    25
100
AcDbLine
 10
127.1310952885779
 20
-147.0495669946092
 30
0.0
 11
126.6170980794689
 21
-147.4312725500691
 31
0.0
  0
LINE
  5
BC
330
79
100
AcDbEntity
  8
レイヤー 1
 62
   250
420
  2299925
370
    25
100
AcDbLine
 10
128.1301972075332
 20
-147.0853739390443
 30
0.0
 11
127.6161647206472
 21
-147.4671147722827
 31
0.0
  0
LINE
  5
BD
330
79
100
AcDbEntity
  8
レイヤー 1
 62
   250
420
  2299925
370
    25
100
AcDbLine
 10
127.6161647206472
 20
-147.4671147722827
 30
0.0
 11
127.1310952885779
 21
-147.0495669946092
 31
0.0
  0
LINE
  5
BE
330
79
100
AcDbEntity
  8
レイヤー 1
 62
   250
420
  2299925
370
    25
100
AcDbLine
 10
131.1281026866058
 20
-147.1921950501285
 30
0.0
 11
130.6141054774967
 21
-147.5745708833668
 31
0.0
  0
LINE
  5
BF
330
79
100
AcDbEntity
  8
レイヤー 1
 62
   250
420
  2299925
370
    25
100
AcDbLine
 10
126.6170980794689
 20
-147.4312725500691
 30
0.0
 11
126.131323091862
 21
-147.0137247723953
 31
0.0
  0
LINE
  5
C0
330
79
100
AcDbEntity
  8
レイヤー 1
 62
   250
420
  2299925
370
    25
100
AcDbLine
 10
110.9956410989488
 20
-151.6921578267816
 30
0.0
 11
110.1268187779487
 21
-146.430124494764
 31
0.0
  0
LINE
  5
C1
330
79
100
AcDbEntity
  8
レイヤー 1
 62
   250
420
  2299925
370
    25
100
AcDbLine
 10
129.1299341264722
 20
-147.1212161612575
 30
0.0
 11
128.6159369173631
 21
-147.5029217167178
 31
0.0
  0
LINE
  5
C2
330
79
100
AcDbEntity
  8
レイヤー 1
 62
   250
420
  2299925
370
    25
100
AcDbLine
 10
128.6159369173631
 20
-147.5029217167178
 30
0.0
 11
128.1301972075332
 21
-147.0853739390443
 31
0.0
  0
LINE
  5
C3
330
79
100
AcDbEntity
  8
レイヤー 1
 62
   250
420
  2299925
370
    25
100
AcDbLine
 10
111.8782910987283
 20
-152.6922828265319
 30
0.0
 11
111.0376909769333
 21
-147.6923986611147
 31
0.0
  0
LINE
  5
C4
330
79
100
AcDbEntity
  8
レイヤー 1
 62
   250
420
  2299925
370
    25
100
AcDbLine
 10
131.1281026866058
 20
-147.1921950501285
 30
0.0
 11
131.1281026866058
 21
-147.6923986611147
 31
0.0
  0
LINE
  5
C5
330
79
100
AcDbEntity
  8
レイヤー 1
 62
   250
420
  2299925
370
    25
100
AcDbLine
 10
111.0376909769333
 20
-147.6923986611147
 30
0.0
 11
131.1281026866058
 21
-147.6923986611147
 31
0.0
  0
LINE
  5
C6
330
79
100
AcDbEntity
  8
レイヤー 1
 62
   250
420
  2299925
370
    25
100
AcDbLine
 10
120.1355121337168
 20
-146.800117828005
 30
0.0
 11
119.6214796468315
 21
-147.1818586612428
 31
0.0
  0
LINE
  5
C7
330
79
100
AcDbEntity
  8
レイヤー 1
 62
   250
420
  2299925
370
    25
100
AcDbLine
 10
119.6214796468315
 20
-147.1818586612428
 30
0.0
 11
119.1357399370009
 21
-146.7643108835693
 31
0.0
  0
LINE
  5
C8
330
79
100
AcDbEntity
  8
レイヤー 1
 62
   250
420
  2299925
370
    25
100
AcDbLine
 10
119.1357399370009
 20
-146.7643108835693
 30
0.0
 11
118.6224130056525
 21
-147.1460164390289
 31
0.0
  0
LINE
  5
C9
330
79
100
AcDbEntity
  8
レイヤー 1
 62
   250
420
  2299925
370
    25
100
AcDbLine
 10
118.6224130056525
 20
-147.1460164390289
 30
0.0
 11
118.1366380180457
 21
-146.7284686613554
 31
0.0
  0
LINE
  5
CA
330
79
100
AcDbEntity
  8
レイヤー 1
 62
   250
420
  2299925
370
    25
100
AcDbLine
 10
118.1366380180457
 20
-146.7284686613554
 30
0.0
 11
117.6226408089366
 21
-147.1101742168163
 31
0.0
  0
LINE
  5
CB
330
79
100
AcDbEntity
  8
レイヤー 1
 62
   250
420
  2299925
370
    25
100
AcDbLine
 10
117.6226408089366
 20
-147.1101742168163
 30
0.0
 11
117.1375713768673
 21
-146.6926264391428
 31
0.0
  0
LINE
  5
CC
330
79
100
AcDbEntity
  8
レイヤー 1
 62
   250
420
  2299925
370
    25
100
AcDbLine
 10
117.1375713768673
 20
-146.6926264391428
 30
0.0
 11
116.6235741677582
 21
-147.0743672723806
 31
0.0
  0
LINE
  5
CD
330
79
100
AcDbEntity
  8
レイヤー 1
 62
   250
420
  2299925
370
    25
100
AcDbLine
 10
116.6235741677582
 20
-147.0743672723806
 30
0.0
 11
116.1377991801514
 21
-146.6568194947071
 31
0.0
  0
LINE
  5
CE
330
79
100
AcDbEntity
  8
レイヤー 1
 62
   250
420
  2299925
370
    25
100
AcDbLine
 10
116.1377991801514
 20
-146.6568194947071
 30
0.0
 11
115.6238019710423
 21
-147.0392306057222
 31
0.0
  0
LINE
  5
CF
330
79
100
AcDbEntity
  8
レイヤー 1
 62
   250
420
  2299925
370
    25
100
AcDbLine
 10
115.6238019710423
 20
-147.0392306057222
 30
0.0
 11
115.138732538973
 21
-146.6216828280497
 31
0.0
  0
LINE
  5
D0
330
79
100
AcDbEntity
  8
レイヤー 1
 62
   250
420
  2299925
370
    25
100
AcDbLine
 10
115.138732538973
 20
-146.6216828280497
 30
0.0
 11
114.624735329864
 21
-147.0033883835096
 31
0.0
  0
LINE
  5
D1
330
79
100
AcDbEntity
  8
レイヤー 1
 62
   250
420
  2299925
370
    25
100
AcDbLine
 10
114.624735329864
 20
-147.0033883835096
 30
0.0
 11
114.1389603422571
 21
-146.5858406058361
 31
0.0
  0
LINE
  5
D2
330
79
100
AcDbEntity
  8
レイヤー 1
 62
   250
420
  2299925
370
    25
100
AcDbLine
 10
114.1389603422571
 20
-146.5858406058361
 30
0.0
 11
113.6249631331481
 21
-146.9675461612957
 31
0.0
  0
LINE
  5
D3
330
79
100
AcDbEntity
  8
レイヤー 1
 62
   250
420
  2299925
370
    25
100
AcDbLine
 10
113.6249631331481
 20
-146.9675461612957
 30
0.0
 11
113.1398937010794
 21
-146.5499983836229
 31
0.0
  0
LINE
  5
D4
330
79
100
AcDbEntity
  8
レイヤー 1
 62
   250
420
  2299925
370
    25
100
AcDbLine
 10
113.1398937010794
 20
-146.5499983836229
 30
0.0
 11
112.6258612141928
 21
-146.9317392168606
 31
0.0
  0
LINE
  5
D5
330
79
100
AcDbEntity
  8
レイヤー 1
 62
   250
420
  2299925
370
    25
100
AcDbLine
 10
112.6258612141928
 20
-146.9317392168606
 30
0.0
 11
112.1407917821235
 21
-146.5141914391871
 31
0.0
  0
LINE
  5
D6
330
79
100
AcDbEntity
  8
レイヤー 1
 62
   250
420
  2299925
370
    25
100
AcDbLine
 10
112.1407917821235
 20
-146.5141914391871
 30
0.0
 11
111.6267945730145
 21
-146.8958969946474
 31
0.0
  0
LINE
  5
D7
330
79
100
AcDbEntity
  8
レイヤー 1
 62
   250
420
  2299925
370
    25
100
AcDbLine
 10
111.6267945730145
 20
-146.8958969946474
 30
0.0
 11
111.1410548631845
 21
-146.4783492169739
 31
0.0
  0
LINE
  5
D8
330
79
100
AcDbEntity
  8
レイヤー 1
 62
   250
420
  2299925
370
    25
100
AcDbLine
 10
111.1410548631845
 20
-146.4783492169739
 30
0.0
 11
110.1268187779487
 21
-146.430124494764
 31
0.0
  0
SPLINE
  5
D9
330
79
100
AcDbEntity
  8
レイヤー 1
 62
   250
420
  2299925
370
     9
100
AcDbSpline
210
0.0
220
0.0
230
1.0
 70
     9
 71
     3
 72
    17
 73
    13
 74
     0
 42
0.0000000001
 43
0.0000000001
 40
0.0
 40
0.0
 40
0.0
 40
0.0
 40
1.0
 40
1.0
 40
1.0
 40
2.0
 40
2.0
 40
2.0
 40
3.0
 40
3.0
 40
3.0
 40
4.0
 40
4.0
 40
4.0
 40
4.0
 10
86.22852443847422
 20
-142.4303653290972
 30
0.0
 10
86.22852443847422
 20
-142.3752614402222
 30
0.0
 10
86.1837216607075
 20
-142.3304586624555
 30
0.0
 10
86.12861777183226
 20
-142.3304586624555
 30
0.0
 10
86.0731611051796
 20
-142.3304586624555
 30
0.0
 10
86.02835832741288
 20
-142.3752614402222
 30
0.0
 10
86.02835832741288
 20
-142.4303653290972
 30
0.0
 10
86.02835832741288
 20
-142.4855044957502
 30
0.0
 10
86.0731611051796
 20
-142.5302719957388
 30
0.0
 10
86.12861777183226
 20
-142.5302719957388
 30
0.0
 10
86.1837216607075
 20
-142.5302719957388
 30
0.0
 10
86.22852443847422
 20
-142.4855044957502
 30
0.0
 10
86.22852443847422
 20
-142.4303653290972
 30
0.0
  0
SPLINE
  5
DA
330
79
100
AcDbEntity
  8
レイヤー 1
 62
   250
420
  2299925
370
     9
100
AcDbSpline
210
0.0
220
0.0
230
1.0
 70
     9
 71
     3
 72
    17
 73
    13
 74
     0
 42
0.0000000001
 43
0.0000000001
 40
0.0
 40
0.0
 40
0.0
 40
0.0
 40
1.0
 40
1.0
 40
1.0
 40
2.0
 40
2.0
 40
2.0
 40
3.0
 40
3.0
 40
3.0
 40
4.0
 40
4.0
 40
4.0
 40
4.0
 10
82.22841249502989
 20
-147.1921950501285
 30
0.0
 10
82.22841249502989
 20
-147.1370558834761
 30
0.0
 10
82.18364499504103
 20
-147.0922883834875
 30
0.0
 10
82.12815305061019
 20
-147.0922883834875
 30
0.0
 10
82.07304916173526
 20
-147.0922883834875
 30
0.0
 10
82.02824638396855
 20
-147.1370558834761
 30
0.0
 10
82.02824638396855
 20
-147.1921950501285
 30
0.0
 10
82.02824638396855
 20
-147.2472989390041
 30
0.0
 10
82.07304916173526
 20
-147.2921017167708
 30
0.0
 10
82.12815305061019
 20
-147.2921017167708
 30
0.0
 10
82.18364499504103
 20
-147.2921017167708
 30
0.0
 10
82.22841249502989
 20
-147.2472989390041
 30
0.0
 10
82.22841249502989
 20
-147.1921950501285
 30
0.0
  0
SPLINE
  5
DB
330
79
100
AcDbEntity
  8
レイヤー 1
 62
   250
420
  2299925
370
     9
100
AcDbSpline
210
0.0
220
0.0
230
1.0
 70
     9
 71
     3
 72
    17
 73
    13
 74
     0
 42
0.0000000001
 43
0.0000000001
 40
0.0
 40
0.0
 40
0.0
 40
0.0
 40
1.0
 40
1.0
 40
1.0
 40
2.0
 40
2.0
 40
2.0
 40
3.0
 40
3.0
 40
3.0
 40
4.0
 40
4.0
 40
4.0
 40
4.0
 10
82.22841249502989
 20
-147.6923986611147
 30
0.0
 10
82.22841249502989
 20
-147.6372947722398
 30
0.0
 10
82.18364499504103
 20
-147.5924919944731
 30
0.0
 10
82.12815305061019
 20
-147.5924919944731
 30
0.0
 10
82.07304916173526
 20
-147.5924919944731
 30
0.0
 10
82.02824638396855
 20
-147.6372947722398
 30
0.0
 10
82.02824638396855
 20
-147.6923986611147
 30
0.0
 10
82.02824638396855
 20
-147.7475378277678
 30
0.0
 10
82.07304916173526
 20
-147.792305327757
 30
0.0
 10
82.12815305061019
 20
-147.792305327757
 30
0.0
 10
82.18364499504103
 20
-147.792305327757
 30
0.0
 10
82.22841249502989
 20
-147.7475378277678
 30
0.0
 10
82.22841249502989
 20
-147.6923986611147
 30
0.0
  0
SPLINE
  5
DC
330
79
100
AcDbEntity
  8
レイヤー 1
 62
   250
420
  2299925
370
     9
100
AcDbSpline
210
0.0
220
0.0
230
1.0
 70
     9
 71
     3
 72
    17
 73
    13
 74
     0
 42
0.0000000001
 43
0.0000000001
 40
0.0
 40
0.0
 40
0.0
 40
0.0
 40
1.0
 40
1.0
 40
1.0
 40
2.0
 40
2.0
 40
2.0
 40
3.0
 40
3.0
 40
3.0
 40
4.0
 40
4.0
 40
4.0
 40
4.0
 10
82.22841249502989
 20
-152.764284770958
 30
0.0
 10
82.22841249502989
 20
-152.7091456043056
 30
0.0
 10
82.18364499504103
 20
-152.6643781043163
 30
0.0
 10
82.12815305061019
 20
-152.6643781043163
 30
0.0
 10
82.07304916173526
 20
-152.6643781043163
 30
0.0
 10
82.02824638396855
 20
-152.7091456043056
 30
0.0
 10
82.02824638396855
 20
-152.764284770958
 30
0.0
 10
82.02824638396855
 20
-152.8193886598335
 30
0.0
 10
82.07304916173526
 20
-152.8641914375996
 30
0.0
 10
82.12815305061019
 20
-152.8641914375996
 30
0.0
 10
82.18364499504103
 20
-152.8641914375996
 30
0.0
 10
82.22841249502989
 20
-152.8193886598335
 30
0.0
 10
82.22841249502989
 20
-152.764284770958
 30
0.0
  0
SPLINE
  5
DD
330
79
100
AcDbEntity
  8
レイヤー 1
 62
   250
420
  2299925
370
     9
100
AcDbSpline
210
0.0
220
0.0
230
1.0
 70
     9
 71
     3
 72
    17
 73
    13
 74
     0
 42
0.0000000001
 43
0.0000000001
 40
0.0
 40
0.0
 40
0.0
 40
0.0
 40
1.0
 40
1.0
 40
1.0
 40
2.0
 40
2.0
 40
2.0
 40
3.0
 40
3.0
 40
3.0
 40
4.0
 40
4.0
 40
4.0
 40
4.0
 10
105.4786894520879
 20
-156.7371622699645
 30
0.0
 10
105.4786894520879
 20
-156.6820583810895
 30
0.0
 10
105.4338866754532
 20
-156.6372556033235
 30
0.0
 10
105.3787827879701
 20
-156.6372556033235
 30
0.0
 10
105.3229744337004
 20
-156.6372556033235
 30
0.0
 10
105.278171655934
 20
-156.6820583810895
 30
0.0
 10
105.278171655934
 20
-156.7371622699645
 30
0.0
 10
105.278171655934
 20
-156.7923014366175
 30
0.0
 10
105.3229744337004
 20
-156.8370689366067
 30
0.0
 10
105.3787827879701
 20
-156.8370689366067
 30
0.0
 10
105.4338866754532
 20
-156.8370689366067
 30
0.0
 10
105.4786894520879
 20
-156.7923014366175
 30
0.0
 10
105.4786894520879
 20
-156.7371622699645
 30
0.0
  0
SPLINE
  5
DE
330
79
100
AcDbEntity
  8
レイヤー 1
 62
   250
420
  2299925
370
     9
100
AcDbSpline
210
0.0
220
0.0
230
1.0
 70
     9
 71
     3
 72
    17
 73
    13
 74
     0
 42
0.0000000001
 43
0.0000000001
 40
0.0
 40
0.0
 40
0.0
 40
0.0
 40
1.0
 40
1.0
 40
1.0
 40
2.0
 40
2.0
 40
2.0
 40
3.0
 40
3.0
 40
3.0
 40
4.0
 40
4.0
 40
4.0
 40
4.0
 10
111.9781965084939
 20
-156.7371622699645
 30
0.0
 10
111.9781965084939
 20
-156.6820583810895
 30
0.0
 10
111.933429009636
 20
-156.6372556033235
 30
0.0
 10
111.8782910987283
 20
-156.6372556033235
 30
0.0
 10
111.823185956893
 20
-156.6372556033235
 30
0.0
 10
111.7783831802583
 20
-156.6820583810895
 30
0.0
 10
111.7783831802583
 20
-156.7371622699645
 30
0.0
 10
111.7783831802583
 20
-156.7923014366175
 30
0.0
 10
111.823185956893
 20
-156.8370689366067
 30
0.0
 10
111.8782910987283
 20
-156.8370689366067
 30
0.0
 10
111.933429009636
 20
-156.8370689366067
 30
0.0
 10
111.9781965084939
 20
-156.7923014366175
 30
0.0
 10
111.9781965084939
 20
-156.7371622699645
 30
0.0
  0
SPLINE
  5
DF
330
79
100
AcDbEntity
  8
レイヤー 1
 62
   250
420
  2299925
370
     9
100
AcDbSpline
210
0.0
220
0.0
230
1.0
 70
     9
 71
     3
 72
    17
 73
    13
 74
     0
 42
0.0000000001
 43
0.0000000001
 40
0.0
 40
0.0
 40
0.0
 40
0.0
 40
1.0
 40
1.0
 40
1.0
 40
2.0
 40
2.0
 40
2.0
 40
3.0
 40
3.0
 40
3.0
 40
4.0
 40
4.0
 40
4.0
 40
4.0
 10
131.2287149062612
 20
-142.4303653290972
 30
0.0
 10
131.2287149062612
 20
-142.3752614402222
 30
0.0
 10
131.1839121296264
 20
-142.3304586624555
 30
0.0
 10
131.1281026866058
 20
-142.3304586624555
 30
0.0
 10
131.0729987991227
 20
-142.3304586624555
 30
0.0
 10
131.028196022488
 20
-142.3752614402222
 30
0.0
 10
131.028196022488
 20
-142.4303653290972
 30
0.0
 10
131.028196022488
 20
-142.4855044957502
 30
0.0
 10
131.0729987991227
 20
-142.5302719957388
 30
0.0
 10
131.1281026866058
 20
-142.5302719957388
 30
0.0
 10
131.1839121296264
 20
-142.5302719957388
 30
0.0
 10
131.2287149062612
 20
-142.4855044957502
 30
0.0
 10
131.2287149062612
 20
-142.4303653290972
 30
0.0
  0
SPLINE
  5
E0
330
79
100
AcDbEntity
  8
レイヤー 1
 62
   250
420
  2299925
370
     9
100
AcDbSpline
210
0.0
220
0.0
230
1.0
 70
     9
 71
     3
 72
    17
 73
    13
 74
     0
 42
0.0000000001
 43
0.0000000001
 40
0.0
 40
0.0
 40
0.0
 40
0.0
 40
1.0
 40
1.0
 40
1.0
 40
2.0
 40
2.0
 40
2.0
 40
3.0
 40
3.0
 40
3.0
 40
4.0
 40
4.0
 40
4.0
 40
4.0
 10
110.2273957198272
 20
-142.4303653290972
 30
0.0
 10
110.2273957198272
 20
-142.3752614402222
 30
0.0
 10
110.1826282209694
 20
-142.3304586624555
 30
0.0
 10
110.1268187779487
 20
-142.3304586624555
 30
0.0
 10
110.0716796126888
 20
-142.3304586624555
 30
0.0
 10
110.0269133214135
 20
-142.3752614402222
 30
0.0
 10
110.0269133214135
 20
-142.4303653290972
 30
0.0
 10
110.0269133214135
 20
-142.4855044957502
 30
0.0
 10
110.0716796126888
 20
-142.5302719957388
 30
0.0
 10
110.1268187779487
 20
-142.5302719957388
 30
0.0
 10
110.1826282209694
 20
-142.5302719957388
 30
0.0
 10
110.2273957198272
 20
-142.4855044957502
 30
0.0
 10
110.2273957198272
 20
-142.4303653290972
 30
0.0
  0
CIRCLE
  5
E1
330
79
100
AcDbEntity
  8
レイヤー 1
 62
   250
420
  2299925
370
     9
100
AcDbCircle
 10
107.1295835766368
 20
-142.4303653290972
 30
0.0
 40
0.0999066653797365
  0
LINE
  5
E2
330
79
100
AcDbEntity
  8
レイヤー 1
 62
   250
420
  2299925
370
     9
100
AcDbLine
 10
107.1295835766368
 20
-142.4303653290972
 30
0.0
 11
110.1268187779487
 21
-142.4303653290972
 31
0.0
  0
LINE
  5
E3
330
79
100
AcDbEntity
  8
レイヤー 1
 62
   250
420
  2299925
370
     9
100
AcDbLine
 10
107.1295835766368
 20
-143.8904067176209
 30
0.0
 11
107.1295835766368
 21
-141.4305931071246
 31
0.0
  0
LINE
  5
E4
330
79
100
AcDbEntity
  8
レイヤー 1
 62
   250
420
  2299925
370
     9
100
AcDbLine
 10
110.1268187779487
 20
-143.8904067176209
 30
0.0
 11
110.1268187779487
 21
-141.4305931071246
 31
0.0
  0
INSERT
  5
E6
330
79
100
AcDbEntity
  8
レイヤー 1
100
AcDbBlockReference
  2
Block_1
 10
0.0
 20
0.0
 30
0.0
  0
INSERT
  5
EC
330
79
100
AcDbEntity
  8
レイヤー 1
100
AcDbBlockReference
  2
Block_2
 10
0.0
 20
0.0
 30
0.0
  0
LINE
  5
F1
330
79
100
AcDbEntity
  8
レイヤー 1
 62
   250
420
  2299925
370
     9
100
AcDbLine
 10
111.8782910987283
 20
-156.7371622699645
 30
0.0
 11
105.3787827879701
 21
-156.7371622699645
 31
0.0
  0
LINE
  5
F2
330
79
100
AcDbEntity
  8
レイヤー 1
 62
   250
420
  2299925
370
     9
100
AcDbLine
 10
116.68626277727
 20
-150.0378417160837
 30
0.0
 11
110.186755720864
 21
-150.0378417160837
 31
0.0
  0
LINE
  5
F3
330
79
100
AcDbEntity
  8
レイヤー 1
 62
   250
420
  2299925
370
     9
100
AcDbLine
 10
111.8782910987283
 20
-155.2771208814407
 30
0.0
 11
111.8782910987283
 21
-157.736934491937
 31
0.0
  0
LINE
  5
F4
330
79
100
AcDbEntity
  8
レイヤー 1
 62
   250
420
  2299925
370
     9
100
AcDbLine
 10
105.3787827879701
 20
-155.2771208814407
 30
0.0
 11
105.3787827879701
 21
-157.736934491937
 31
0.0
  0
INSERT
  5
F6
330
79
100
AcDbEntity
  8
レイヤー 1
100
AcDbBlockReference
  2
Block_3
 10
0.0
 20
0.0
 30
0.0
  0
LINE
  5
104
330
79
100
AcDbEntity
  8
レイヤー 1
 62
   250
420
  2299925
370
     9
100
AcDbLine
 10
82.12815305061019
 20
-147.1921950501285
 30
0.0
 11
82.12815305061019
 21
-145.3401117172582
 31
0.0
  0
LINE
  5
105
330
79
100
AcDbEntity
  8
レイヤー 1
 62
   250
420
  2299925
370
     9
100
AcDbLine
 10
82.12815305061019
 20
-147.1921950501285
 30
0.0
 11
82.12815305061019
 21
-147.6923986611147
 31
0.0
  0
LINE
  5
106
330
79
100
AcDbEntity
  8
レイヤー 1
 62
   250
420
  2299925
370
     9
100
AcDbLine
 10
83.58819443913422
 20
-147.1921950501285
 30
0.0
 11
81.12841610641579
 21
-147.1921950501285
 31
0.0
  0
LINE
  5
107
330
79
100
AcDbEntity
  8
レイヤー 1
 62
   250
420
  2299925
370
     9
100
AcDbLine
 10
83.58819443913422
 20
-147.6923986611147
 30
0.0
 11
81.12841610641579
 21
-147.6923986611147
 31
0.0
  0
INSERT
  5
109
330
79
100
AcDbEntity
  8
レイヤー 1
100
AcDbBlockReference
  2
Block_5
 10
0.0
 20
0.0
 30
0.0
  0
LINE
  5
117
330
79
100
AcDbEntity
  8
レイヤー 1
 62
   250
420
  2299925
370
     9
100
AcDbLine
 10
86.12861777183226
 20
-142.4303653290972
 30
0.0
 11
107.1295835766368
 21
-142.4303653290972
 31
0.0
  0
LINE
  5
118
330
79
100
AcDbEntity
  8
レイヤー 1
 62
   250
420
  2299925
370
     9
100
AcDbLine
 10
86.12861777183226
 20
-144.6524419952078
 30
0.0
 11
86.12861777183226
 21
-141.4305931071246
 31
0.0
  0
INSERT
  5
11A
330
79
100
AcDbEntity
  8
レイヤー 1
100
AcDbBlockReference
  2
Block_7
 10
0.0
 20
0.0
 30
0.0
  0
LINE
  5
125
330
79
100
AcDbEntity
  8
レイヤー 1
 62
   250
420
  2299925
370
     9
100
AcDbLine
 10
110.1268187779487
 20
-142.4303653290972
 30
0.0
 11
131.1281026866058
 21
-142.4303653290972
 31
0.0
  0
LINE
  5
126
330
79
100
AcDbEntity
  8
レイヤー 1
 62
   250
420
  2299925
370
     9
100
AcDbLine
 10
131.1281026866058
 20
-144.6524419952078
 30
0.0
 11
131.1281026866058
 21
-141.4305931071246
 31
0.0
  0
INSERT
  5
128
330
79
100
AcDbEntity
  8
レイヤー 1
100
AcDbBlockReference
  2
Block_9
 10
0.0
 20
0.0
 30
0.0
  0
LINE
  5
133
330
79
100
AcDbEntity
  8
レイヤー 1
 62
   250
420
  2299925
370
     9
100
AcDbLine
 10
82.12815305061019
 20
-147.6923986611147
 30
0.0
 11
82.12815305061019
 21
-152.6926356043096
 31
0.0
  0
LINE
  5
134
330
79
100
AcDbEntity
  8
レイヤー 1
 62
   250
420
  2299925
370
     9
100
AcDbLine
 10
102.8383605454327
 20
-152.764284770958
 30
0.0
 11
81.12841610641579
 21
-152.764284770958
 31
0.0
  0
INSERT
  5
136
330
79
100
AcDbEntity
  8
レイヤー 1
100
AcDbBlockReference
  2
Block_11
 10
0.0
 20
0.0
 30
0.0
  0
ENDBLK
  5
7C
330
79
100
AcDbEntity
  8
0
100
AcDbBlockEnd
  0
BLOCK
  5
E7
330
E5
100
AcDbEntity
  8
0
100
AcDbBlockBegin
  2
Block_1
 70
     0
 10
0.0
 20
0.0
 30
0.0
  3
Block_1
  1

  0
SPLINE
  5
E9
330
E5
100
AcDbEntity
  8
レイヤー 1
100
AcDbSpline
210
0.0
220
0.0
230
1.0
 70
     9
 71
     3
 72
    62
 73
    58
 74
     0
 42
0.0000000001
 43
0.0000000001
 40
0.0
 40
0.0
 40
0.0
 40
0.0
 40
1.0
 40
1.0
 40
1.0
 40
2.0
 40
2.0
 40
2.0
 40
3.0
 40
3.0
 40
3.0
 40
4.0
 40
4.0
 40
4.0
 40
5.0
 40
5.0
 40
5.0
 40
6.0
 40
6.0
 40
6.0
 40
7.0
 40
7.0
 40
7.0
 40
8.0
 40
8.0
 40
8.0
 40
9.0
 40
9.0
 40
9.0
 40
10.0
 40
10.0
 40
10.0
 40
11.0
 40
11.0
 40
11.0
 40
12.0
 40
12.0
 40
12.0
 40
13.0
 40
13.0
 40
13.0
 40
14.0
 40
14.0
 40
14.0
 40
15.0
 40
15.0
 40
15.0
 40
16.0
 40
16.0
 40
16.0
 40
17.0
 40
17.0
 40
17.0
 40
18.0
 40
18.0
 40
18.0
 40
19.0
 40
19.0
 40
19.0
 40
19.0
 10
108.6224826117333
 20
-141.7670572562249
 30
0.0
 10
108.5270534667918
 20
-141.7670572562249
 30
0.0
 10
108.309323432124
 20
-141.7458699189906
 30
0.0
 10
108.1842664660095
 20
-141.5596625080129
 30
0.0
 10
108.1105414226251
 20
-141.447524649968
 30
0.0
 10
108.1060627984943
 20
-141.3481336452185
 30
0.0
 10
108.101928683912
 20
-141.2635565510556
 30
0.0
 10
108.101928683912
 20
-141.2635565510556
 30
0.0
 10
108.3220702854195
 20
-141.2635565510556
 30
0.0
 10
108.3220702854195
 20
-141.2635565510556
 30
0.0
 10
108.3241373427106
 20
-141.3376261039885
 30
0.0
 10
108.3344726291664
 20
-141.5724093613083
 30
0.0
 10
108.6180039876024
 20
-141.5724093613083
 30
0.0
 10
108.7554632974639
 20
-141.5724093613083
 30
0.0
 10
108.9080810274605
 20
-141.502646177732
 30
0.0
 10
108.9080810274605
 20
-141.2740640922856
 30
0.0
 10
108.9080810274605
 20
-141.1577921196584
 30
0.0
 10
108.8698404675742
 20
-141.1090440185422
 30
0.0
 10
108.8381455891099
 20
-141.0773491400779
 30
0.0
 10
108.764076036177
 20
-141.003279587145
 30
0.0
 10
108.6476318087756
 20
-140.9907049886238
 30
0.0
 10
108.5928547905601
 20
-140.9907049886238
 30
0.0
 10
108.5735622558427
 20
-140.9907049886238
 30
0.0
 10
108.5377332627961
 20
-140.992772045915
 30
0.0
 10
108.5101724989141
 20
-140.9969061604973
 30
0.0
 10
108.5101724989141
 20
-140.9969061604973
 30
0.0
 10
108.5101724989141
 20
-140.8024305203549
 30
0.0
 10
108.5101724989141
 20
-140.8024305203549
 30
0.0
 10
108.5484130588004
 20
-140.8086316922284
 30
0.0
 10
108.5904432237204
 20
-140.8108710042938
 30
0.0
 10
108.5969889051424
 20
-140.8108710042938
 30
0.0
 10
108.6624457193621
 20
-140.8108710042938
 30
0.0
 10
108.8612277288611
 20
-140.7896836670595
 30
0.0
 10
108.8612277288611
 20
-140.5526610976743
 30
0.0
 10
108.8612277288611
 20
-140.3750664254097
 30
0.0
 10
108.7303141004216
 20
-140.3199448976457
 30
0.0
 10
108.6200710448936
 20
-140.3199448976457
 30
0.0
 10
108.3558322211749
 20
-140.3199448976457
 30
0.0
 10
108.3472194824618
 20
-140.5526610976743
 30
0.0
 10
108.3430853678795
 20
-140.624663593316
 30
0.0
 10
108.3430853678795
 20
-140.624663593316
 30
0.0
 10
108.1398247342497
 20
-140.624663593316
 30
0.0
 10
108.1398247342497
 20
-140.624663593316
 30
0.0
 10
108.1484374729629
 20
-140.4997788819757
 30
0.0
 10
108.1759982368449
 20
-140.1232299454379
 30
0.0
 10
108.632817898189
 20
-140.1232299454379
 30
0.0
 10
108.8570936142787
 20
-140.1232299454379
 30
0.0
 10
109.0982502982462
 20
-140.2501817140694
 30
0.0
 10
109.0982502982462
 20
-140.5462876710266
 30
0.0
 10
109.0982502982462
 20
-140.7324950820044
 30
0.0
 10
109.0031656628533
 20
-140.8150051188761
 30
0.0
 10
108.9036024033296
 20
-140.8763278185135
 30
0.0
 10
108.9649251029671
 20
-140.9038885823955
 30
0.0
 10
109.1468261445883
 20
-140.9843315619761
 30
0.0
 10
109.1468261445883
 20
-141.2614894937645
 30
0.0
 10
109.1468261445883
 20
-141.5999701251902
 30
0.0
 10
108.8994682887473
 20
-141.7670572562249
 30
0.0
 10
108.6224826117333
 20
-141.7670572562249
 30
0.0
  0
HATCH
  5
EA
330
E5
100
AcDbEntity
  8
レイヤー 1
 62
   250
420
  2299925
440
 33554687
100
AcDbHatch
 10
0.0
 20
0.0
 30
0.0
210
0.0
220
0.0
230
1.0
  2
SOLID
 70
     1
 71
     1
 91
        1
 92
        1
 93
        1
 72
     4
 94
        3
 73
     0
 74
     0
 95
       62
 96
       58
 40
0.0
 40
0.0
 40
0.0
 40
0.0
 40
1.0
 40
1.0
 40
1.0
 40
2.0
 40
2.0
 40
2.0
 40
3.0
 40
3.0
 40
3.0
 40
4.0
 40
4.0
 40
4.0
 40
5.0
 40
5.0
 40
5.0
 40
6.0
 40
6.0
 40
6.0
 40
7.0
 40
7.0
 40
7.0
 40
8.0
 40
8.0
 40
8.0
 40
9.0
 40
9.0
 40
9.0
 40
10.0
 40
10.0
 40
10.0
 40
11.0
 40
11.0
 40
11.0
 40
12.0
 40
12.0
 40
12.0
 40
13.0
 40
13.0
 40
13.0
 40
14.0
 40
14.0
 40
14.0
 40
15.0
 40
15.0
 40
15.0
 40
16.0
 40
16.0
 40
16.0
 40
17.0
 40
17.0
 40
17.0
 40
18.0
 40
18.0
 40
18.0
 40
19.0
 40
19.0
 40
19.0
 40
19.0
 10
108.6224826117333
 20
-141.7670572562249
 10
108.5270534667918
 20
-141.7670572562249
 10
108.309323432124
 20
-141.7458699189906
 10
108.1842664660095
 20
-141.5596625080129
 10
108.1105414226251
 20
-141.447524649968
 10
108.1060627984943
 20
-141.3481336452185
 10
108.101928683912
 20
-141.2635565510556
 10
108.101928683912
 20
-141.2635565510556
 10
108.3220702854195
 20
-141.2635565510556
 10
108.3220702854195
 20
-141.2635565510556
 10
108.3241373427106
 20
-141.3376261039885
 10
108.3344726291664
 20
-141.5724093613083
 10
108.6180039876024
 20
-141.5724093613083
 10
108.7554632974639
 20
-141.5724093613083
 10
108.9080810274605
 20
-141.502646177732
 10
108.9080810274605
 20
-141.2740640922856
 10
108.9080810274605
 20
-141.1577921196584
 10
108.8698404675742
 20
-141.1090440185422
 10
108.8381455891099
 20
-141.0773491400779
 10
108.764076036177
 20
-141.003279587145
 10
108.6476318087756
 20
-140.9907049886238
 10
108.5928547905601
 20
-140.9907049886238
 10
108.5735622558427
 20
-140.9907049886238
 10
108.5377332627961
 20
-140.992772045915
 10
108.5101724989141
 20
-140.9969061604973
 10
108.5101724989141
 20
-140.9969061604973
 10
108.5101724989141
 20
-140.8024305203549
 10
108.5101724989141
 20
-140.8024305203549
 10
108.5484130588004
 20
-140.8086316922284
 10
108.5904432237204
 20
-140.8108710042938
 10
108.5969889051424
 20
-140.8108710042938
 10
108.6624457193621
 20
-140.8108710042938
 10
108.8612277288611
 20
-140.7896836670595
 10
108.8612277288611
 20
-140.5526610976743
 10
108.8612277288611
 20
-140.3750664254097
 10
108.7303141004216
 20
-140.3199448976457
 10
108.6200710448936
 20
-140.3199448976457
 10
108.3558322211749
 20
-140.3199448976457
 10
108.3472194824618
 20
-140.5526610976743
 10
108.3430853678795
 20
-140.624663593316
 10
108.3430853678795
 20
-140.624663593316
 10
108.1398247342497
 20
-140.624663593316
 10
108.1398247342497
 20
-140.624663593316
 10
108.1484374729629
 20
-140.4997788819757
 10
108.1759982368449
 20
-140.1232299454379
 10
108.632817898189
 20
-140.1232299454379
 10
108.8570936142787
 20
-140.1232299454379
 10
109.0982502982462
 20
-140.2501817140694
 10
109.0982502982462
 20
-140.5462876710266
 10
109.0982502982462
 20
-140.7324950820044
 10
109.0031656628533
 20
-140.8150051188761
 10
108.9036024033296
 20
-140.8763278185135
 10
108.9649251029671
 20
-140.9038885823955
 10
109.1468261445883
 20
-140.9843315619761
 10
109.1468261445883
 20
-141.2614894937645
 10
109.1468261445883
 20
-141.5999701251902
 10
108.8994682887473
 20
-141.7670572562249
 10
108.6224826117333
 20
-141.7670572562249
 97
        0
 97
        1
330
E9
 75
     2
 76
     1
 98
        1
 10
0.0
 20
0.0
450
        0
451
        0
460
0.0
461
0.0
452
        0
462
0.0
453
        0
470

  0
ENDBLK
  5
E8
330
E5
100
AcDbEntity
  8
0
100
AcDbBlockEnd
  0
BLOCK
  5
ED
330
EB
100
AcDbEntity
  8
0
100
AcDbBlockBegin
  2
Block_2
 70
     0
 10
0.0
 20
0.0
 30
0.0
  3
Block_2
  1

  0
SPLINE
  5
EF
330
EB
100
AcDbEntity
  8
レイヤー 1
100
AcDbSpline
210
0.0
220
0.0
230
1.0
 70
    11
 71
     3
 72
    26
 73
    22
 74
     0
 42
0.0000000001
 43
0.0000000001
 40
0.0
 40
0.0
 40
0.0
 40
0.0
 40
1.0
 40
1.0
 40
1.0
 40
2.0
 40
2.0
 40
2.0
 40
3.0
 40
3.0
 40
3.0
 40
4.0
 40
4.0
 40
4.0
 40
5.0
 40
5.0
 40
5.0
 40
6.0
 40
6.0
 40
6.0
 40
7.0
 40
7.0
 40
7.0
 40
7.0
 10
117.7840250356581
 20
-150.7997531090014
 30
0.0
 10
117.7840250356581
 20
-150.7997531090014
 30
0.0
 10
117.7840250356581
 20
-149.6956000059789
 30
0.0
 10
117.7840250356581
 20
-149.6956000059789
 30
0.0
 10
117.7840250356581
 20
-149.6956000059789
 30
0.0
 10
117.4539848881712
 20
-149.6956000059789
 30
0.0
 10
117.4539848881712
 20
-149.6956000059789
 30
0.0
 10
117.4539848881712
 20
-149.6956000059789
 30
0.0
 10
117.4539848881712
 20
-149.5474609001131
 30
0.0
 10
117.4539848881712
 20
-149.5474609001131
 30
0.0
 10
117.7860920929493
 20
-149.5326469895266
 30
0.0
 10
117.8326008820002
 20
-149.3696939730742
 30
0.0
 10
117.8622287031733
 20
-149.2553168029639
 30
0.0
 10
117.8622287031733
 20
-149.2553168029639
 30
0.0
 10
118.0083007517479
 20
-149.2553168029639
 30
0.0
 10
118.0083007517479
 20
-149.2553168029639
 30
0.0
 10
118.0083007517479
 20
-149.2553168029639
 30
0.0
 10
118.0083007517479
 20
-150.7997531090014
 30
0.0
 10
118.0083007517479
 20
-150.7997531090014
 30
0.0
 10
118.0083007517479
 20
-150.7997531090014
 30
0.0
 10
117.7840250356581
 20
-150.7997531090014
 30
0.0
 10
117.7840250356581
 20
-150.7997531090014
 30
0.0
  0
HATCH
  5
F0
330
EB
100
AcDbEntity
  8
レイヤー 1
 62
   250
420
  2299925
440
 33554687
100
AcDbHatch
 10
0.0
 20
0.0
 30
0.0
210
0.0
220
0.0
230
1.0
  2
SOLID
 70
     1
 71
     1
 91
        1
 92
        1
 93
        1
 72
     4
 94
        3
 73
     0
 74
     0
 95
       26
 96
       22
 40
0.0
 40
0.0
 40
0.0
 40
0.0
 40
1.0
 40
1.0
 40
1.0
 40
2.0
 40
2.0
 40
2.0
 40
3.0
 40
3.0
 40
3.0
 40
4.0
 40
4.0
 40
4.0
 40
5.0
 40
5.0
 40
5.0
 40
6.0
 40
6.0
 40
6.0
 40
7.0
 40
7.0
 40
7.0
 40
7.0
 10
117.7840250356581
 20
-150.7997531090014
 10
117.7840250356581
 20
-150.7997531090014
 10
117.7840250356581
 20
-149.6956000059789
 10
117.7840250356581
 20
-149.6956000059789
 10
117.7840250356581
 20
-149.6956000059789
 10
117.4539848881712
 20
-149.6956000059789
 10
117.4539848881712
 20
-149.6956000059789
 10
117.4539848881712
 20
-149.6956000059789
 10
117.4539848881712
 20
-149.5474609001131
 10
117.4539848881712
 20
-149.5474609001131
 10
117.7860920929493
 20
-149.5326469895266
 10
117.8326008820002
 20
-149.3696939730742
 10
117.8622287031733
 20
-149.2553168029639
 10
117.8622287031733
 20
-149.2553168029639
 10
118.0083007517479
 20
-149.2553168029639
 10
118.0083007517479
 20
-149.2553168029639
 10
118.0083007517479
 20
-149.2553168029639
 10
118.0083007517479
 20
-150.7997531090014
 10
118.0083007517479
 20
-150.7997531090014
 10
118.0083007517479
 20
-150.7997531090014
 10
117.7840250356581
 20
-150.7997531090014
 10
117.7840250356581
 20
-150.7997531090014
 97
        0
 97
        1
330
EF
 75
     2
 76
     1
 98
        1
 10
0.0
 20
0.0
450
        0
451
        0
460
0.0
461
0.0
452
        0
462
0.0
453
        0
470

  0
ENDBLK
  5
EE
330
EB
100
AcDbEntity
  8
0
100
AcDbBlockEnd
  0
BLOCK
  5
F7
330
F5
100
AcDbEntity
  8
0
100
AcDbBlockBegin
  2
Block_3
 70
     0
 10
0.0
 20
0.0
 30
0.0
  3
Block_3
  1

  0
INSERT
  5
FA
330
F5
100
AcDbEntity
  8
レイヤー 1
100
AcDbBlockReference
  2
Block_4
 10
0.0
 20
0.0
 30
0.0
  0
ENDBLK
  5
F8
330
F5
100
AcDbEntity
  8
0
100
AcDbBlockEnd
  0
BLOCK
  5
FB
330
F9
100
AcDbEntity
  8
0
100
AcDbBlockBegin
  2
Block_4
 70
     0
 10
0.0
 20
0.0
 30
0.0
  3
Block_4
  1

  0
SPLINE
  5
FD
330
F9
100
AcDbEntity
  8
レイヤー 1
100
AcDbSpline
210
0.0
220
0.0
230
1.0
 70
     9
 71
     3
 72
    17
 73
    13
 74
     0
 42
0.0000000001
 43
0.0000000001
 40
0.0
 40
0.0
 40
0.0
 40
0.0
 40
1.0
 40
1.0
 40
1.0
 40
2.0
 40
2.0
 40
2.0
 40
3.0
 40
3.0
 40
3.0
 40
4.0
 40
4.0
 40
4.0
 40
4.0
 10
107.8342447647081
 20
-155.2146429733491
 30
0.0
 10
107.5720729982806
 20
-155.2146429733491
 30
0.0
 10
107.5341769479428
 20
-155.4261718361434
 30
0.0
 10
107.5341769479428
 20
-155.5426160635449
 30
0.0
 10
107.5341769479428
 20
-155.7183159332926
 30
0.0
 10
107.6292615833357
 20
-155.8812689497449
 30
0.0
 10
107.8132296822481
 20
-155.8812689497449
 30
0.0
 10
107.9338080242318
 20
-155.8812689497449
 30
0.0
 10
108.1095078939795
 20
-155.8220133073986
 30
0.0
 10
108.1095078939795
 20
-155.5364148916714
 30
0.0
 10
108.1095078939795
 20
-155.3121391755817
 30
0.0
 10
107.9699815268269
 20
-155.2146429733491
 30
0.0
 10
107.8342447647081
 20
-155.2146429733491
 30
0.0
  0
SPLINE
  5
FE
330
F9
100
AcDbEntity
  8
レイヤー 1
100
AcDbSpline
210
0.0
220
0.0
230
1.0
 70
     9
 71
     3
 72
    32
 73
    28
 74
     0
 42
0.0000000001
 43
0.0000000001
 40
0.0
 40
0.0
 40
0.0
 40
0.0
 40
1.0
 40
1.0
 40
1.0
 40
2.0
 40
2.0
 40
2.0
 40
3.0
 40
3.0
 40
3.0
 40
4.0
 40
4.0
 40
4.0
 40
5.0
 40
5.0
 40
5.0
 40
6.0
 40
6.0
 40
6.0
 40
7.0
 40
7.0
 40
7.0
 40
8.0
 40
8.0
 40
8.0
 40
9.0
 40
9.0
 40
9.0
 40
9.0
 10
107.8173637968304
 20
-156.0735052778219
 30
0.0
 10
107.3012884931399
 20
-156.0735052778219
 30
0.0
 10
107.2926757544268
 20
-155.5195339237937
 30
0.0
 10
107.2926757544268
 20
-155.3055934941597
 30
0.0
 10
107.2926757544268
 20
-155.0751166061965
 30
0.0
 10
107.3119682891442
 20
-154.4277831645181
 30
0.0
 10
107.8556043567166
 20
-154.4277831645181
 30
0.0
 10
108.0288926596247
 20
-154.4277831645181
 30
0.0
 10
108.274527967723
 20
-154.4977186028686
 30
0.0
 10
108.3124240180608
 20
-154.8298258076467
 30
0.0
 10
108.3124240180608
 20
-154.8298258076467
 30
0.0
 10
108.0988280979753
 20
-154.8298258076467
 30
0.0
 10
108.0988280979753
 20
-154.8298258076467
 30
0.0
 10
108.088148301971
 20
-154.7726372225915
 30
0.0
 10
108.0564534235067
 20
-154.6244981167258
 30
0.0
 10
107.8535372994255
 20
-154.6244981167258
 30
0.0
 10
107.5613932022763
 20
-154.6244981167258
 30
0.0
 10
107.5214300946474
 20
-154.9524712069216
 30
0.0
 10
107.508683241352
 20
-155.157454388294
 30
0.0
 10
107.6017008194537
 20
-155.0792507207788
 30
0.0
 10
107.6695692005131
 20
-155.0199950784325
 30
0.0
 10
107.8514702421343
 20
-155.0199950784325
 30
0.0
 10
108.0313042264644
 20
-155.0199950784325
 30
0.0
 10
108.3337836100693
 20
-155.1281710766693
 30
0.0
 10
108.3337836100693
 20
-155.5343478343803
 30
0.0
 10
108.3337836100693
 20
-155.8537081858629
 30
0.0
 10
108.1346570910219
 20
-156.0735052778219
 30
0.0
 10
107.8173637968304
 20
-156.0735052778219
 30
0.0
  0
HATCH
  5
FF
330
F9
100
AcDbEntity
  8
レイヤー 1
 62
   250
420
  2299925
440
 33554687
100
AcDbHatch
 10
0.0
 20
0.0
 30
0.0
210
0.0
220
0.0
230
1.0
  2
SOLID
 70
     1
 71
     1
 91
        2
 92
        1
 93
        1
 72
     4
 94
        3
 73
     0
 74
     0
 95
       17
 96
       13
 40
0.0
 40
0.0
 40
0.0
 40
0.0
 40
1.0
 40
1.0
 40
1.0
 40
2.0
 40
2.0
 40
2.0
 40
3.0
 40
3.0
 40
3.0
 40
4.0
 40
4.0
 40
4.0
 40
4.0
 10
107.8342447647081
 20
-155.2146429733491
 10
107.5720729982806
 20
-155.2146429733491
 10
107.5341769479428
 20
-155.4261718361434
 10
107.5341769479428
 20
-155.5426160635449
 10
107.5341769479428
 20
-155.7183159332926
 10
107.6292615833357
 20
-155.8812689497449
 10
107.8132296822481
 20
-155.8812689497449
 10
107.9338080242318
 20
-155.8812689497449
 10
108.1095078939795
 20
-155.8220133073986
 10
108.1095078939795
 20
-155.5364148916714
 10
108.1095078939795
 20
-155.3121391755817
 10
107.9699815268269
 20
-155.2146429733491
 10
107.8342447647081
 20
-155.2146429733491
 97
        0
 97
        1
330
FD
 92
        1
 93
        1
 72
     4
 94
        3
 73
     0
 74
     0
 95
       32
 96
       28
 40
0.0
 40
0.0
 40
0.0
 40
0.0
 40
1.0
 40
1.0
 40
1.0
 40
2.0
 40
2.0
 40
2.0
 40
3.0
 40
3.0
 40
3.0
 40
4.0
 40
4.0
 40
4.0
 40
5.0
 40
5.0
 40
5.0
 40
6.0
 40
6.0
 40
6.0
 40
7.0
 40
7.0
 40
7.0
 40
8.0
 40
8.0
 40
8.0
 40
9.0
 40
9.0
 40
9.0
 40
9.0
 10
107.8173637968304
 20
-156.0735052778219
 10
107.3012884931399
 20
-156.0735052778219
 10
107.2926757544268
 20
-155.5195339237937
 10
107.2926757544268
 20
-155.3055934941597
 10
107.2926757544268
 20
-155.0751166061965
 10
107.3119682891442
 20
-154.4277831645181
 10
107.8556043567166
 20
-154.4277831645181
 10
108.0288926596247
 20
-154.4277831645181
 10
108.274527967723
 20
-154.4977186028686
 10
108.3124240180608
 20
-154.8298258076467
 10
108.3124240180608
 20
-154.8298258076467
 10
108.0988280979753
 20
-154.8298258076467
 10
108.0988280979753
 20
-154.8298258076467
 10
108.088148301971
 20
-154.7726372225915
 10
108.0564534235067
 20
-154.6244981167258
 10
107.8535372994255
 20
-154.6244981167258
 10
107.5613932022763
 20
-154.6244981167258
 10
107.5214300946474
 20
-154.9524712069216
 10
107.508683241352
 20
-155.157454388294
 10
107.6017008194537
 20
-155.0792507207788
 10
107.6695692005131
 20
-155.0199950784325
 10
107.8514702421343
 20
-155.0199950784325
 10
108.0313042264644
 20
-155.0199950784325
 10
108.3337836100693
 20
-155.1281710766693
 10
108.3337836100693
 20
-155.5343478343803
 10
108.3337836100693
 20
-155.8537081858629
 10
108.1346570910219
 20
-156.0735052778219
 10
107.8173637968304
 20
-156.0735052778219
 97
        0
 97
        1
330
FE
 75
     2
 76
     1
 98
        1
 10
0.0
 20
0.0
450
        0
451
        0
460
0.0
461
0.0
452
        0
462
0.0
453
        0
470

  0
SPLINE
  5
100
330
F9
100
AcDbEntity
  8
レイヤー 1
100
AcDbSpline
210
0.0
220
0.0
230
1.0
 70
    11
 71
     3
 72
    17
 73
    13
 74
     0
 42
0.0000000001
 43
0.0000000001
 40
0.0
 40
0.0
 40
0.0
 40
0.0
 40
1.0
 40
1.0
 40
1.0
 40
2.0
 40
2.0
 40
2.0
 40
3.0
 40
3.0
 40
3.0
 40
4.0
 40
4.0
 40
4.0
 40
4.0
 10
108.550135606543
 20
-156.0228623741887
 30
0.0
 10
108.550135606543
 20
-156.0228623741887
 30
0.0
 10
108.550135606543
 20
-155.7710258942169
 30
0.0
 10
108.550135606543
 20
-155.7710258942169
 30
0.0
 10
108.550135606543
 20
-155.7710258942169
 30
0.0
 10
108.8019720865148
 20
-155.7710258942169
 30
0.0
 10
108.8019720865148
 20
-155.7710258942169
 30
0.0
 10
108.8019720865148
 20
-155.7710258942169
 30
0.0
 10
108.8019720865148
 20
-156.0228623741887
 30
0.0
 10
108.8019720865148
 20
-156.0228623741887
 30
0.0
 10
108.8019720865148
 20
-156.0228623741887
 30
0.0
 10
108.550135606543
 20
-156.0228623741887
 30
0.0
 10
108.550135606543
 20
-156.0228623741887
 30
0.0
  0
HATCH
  5
101
330
F9
100
AcDbEntity
  8
レイヤー 1
 62
   250
420
  2299925
440
 33554687
100
AcDbHatch
 10
0.0
 20
0.0
 30
0.0
210
0.0
220
0.0
230
1.0
  2
SOLID
 70
     1
 71
     1
 91
        1
 92
        1
 93
        1
 72
     4
 94
        3
 73
     0
 74
     0
 95
       17
 96
       13
 40
0.0
 40
0.0
 40
0.0
 40
0.0
 40
1.0
 40
1.0
 40
1.0
 40
2.0
 40
2.0
 40
2.0
 40
3.0
 40
3.0
 40
3.0
 40
4.0
 40
4.0
 40
4.0
 40
4.0
 10
108.550135606543
 20
-156.0228623741887
 10
108.550135606543
 20
-156.0228623741887
 10
108.550135606543
 20
-155.7710258942169
 10
108.550135606543
 20
-155.7710258942169
 10
108.550135606543
 20
-155.7710258942169
 10
108.8019720865148
 20
-155.7710258942169
 10
108.8019720865148
 20
-155.7710258942169
 10
108.8019720865148
 20
-155.7710258942169
 10
108.8019720865148
 20
-156.0228623741887
 10
108.8019720865148
 20
-156.0228623741887
 10
108.8019720865148
 20
-156.0228623741887
 10
108.550135606543
 20
-156.0228623741887
 10
108.550135606543
 20
-156.0228623741887
 97
        0
 97
        1
330
100
 75
     2
 76
     1
 98
        1
 10
0.0
 20
0.0
450
        0
451
        0
460
0.0
461
0.0
452
        0
462
0.0
453
        0
470

  0
SPLINE
  5
102
330
F9
100
AcDbEntity
  8
レイヤー 1
100
AcDbSpline
210
0.0
220
0.0
230
1.0
 70
     9
 71
     3
 72
    53
 73
    49
 74
     0
 42
0.0000000001
 43
0.0000000001
 40
0.0
 40
0.0
 40
0.0
 40
0.0
 40
1.0
 40
1.0
 40
1.0
 40
2.0
 40
2.0
 40
2.0
 40
3.0
 40
3.0
 40
3.0
 40
4.0
 40
4.0
 40
4.0
 40
5.0
 40
5.0
 40
5.0
 40
6.0
 40
6.0
 40
6.0
 40
7.0
 40
7.0
 40
7.0
 40
8.0
 40
8.0
 40
8.0
 40
9.0
 40
9.0
 40
9.0
 40
10.0
 40
10.0
 40
10.0
 40
11.0
 40
11.0
 40
11.0
 40
12.0
 40
12.0
 40
12.0
 40
13.0
 40
13.0
 40
13.0
 40
14.0
 40
14.0
 40
14.0
 40
15.0
 40
15.0
 40
15.0
 40
16.0
 40
16.0
 40
16.0
 40
16.0
 10
109.5192409665438
 20
-156.0735052778219
 30
0.0
 10
109.4410372990286
 20
-156.0735052778219
 30
0.0
 10
109.3394069822137
 20
-156.0566243099442
 30
0.0
 10
109.2377766653989
 20
-155.9932345530156
 30
0.0
 10
109.0644883624908
 20
-155.8833360070361
 30
0.0
 10
109.0431287704823
 20
-155.7520778690481
 30
0.0
 10
109.0241807453134
 20
-155.6442463803598
 30
0.0
 10
109.0241807453134
 20
-155.6442463803598
 30
0.0
 10
109.246389404112
 20
-155.6442463803598
 30
0.0
 10
109.246389404112
 20
-155.6442463803598
 30
0.0
 10
109.3011664223275
 20
-155.8430283898587
 30
0.0
 10
109.4282904457332
 20
-155.8726562110318
 30
0.0
 10
109.5213080238349
 20
-155.8726562110318
 30
0.0
 10
109.6608343909875
 20
-155.8726562110318
 30
0.0
 10
109.8131076114356
 20
-155.7730929515081
 30
0.0
 10
109.8131076114356
 20
-155.5405490062538
 30
0.0
 10
109.8131076114356
 20
-155.2845784116997
 30
0.0
 10
109.6332736271055
 20
-155.2146429733491
 30
0.0
 10
109.5126952851218
 20
-155.2146429733491
 30
0.0
 10
109.4810004066575
 20
-155.2146429733491
 30
0.0
 10
109.3394069822137
 20
-155.2146429733491
 30
0.0
 10
109.2505235186943
 20
-155.343834054046
 30
0.0
 10
109.2505235186943
 20
-155.343834054046
 30
0.0
 10
109.0748236489466
 20
-155.3248860288771
 30
0.0
 10
109.0748236489466
 20
-155.3248860288771
 30
0.0
 10
109.0748236489466
 20
-155.3248860288771
 30
0.0
 10
109.1954019909303
 20
-154.4784260681512
 30
0.0
 10
109.1954019909303
 20
-154.4784260681512
 30
0.0
 10
109.1954019909303
 20
-154.4784260681512
 30
0.0
 10
109.9739935705968
 20
-154.4784260681512
 30
0.0
 10
109.9739935705968
 20
-154.4784260681512
 30
0.0
 10
109.9739935705968
 20
-154.4784260681512
 30
0.0
 10
109.9739935705968
 20
-154.6730739630678
 30
0.0
 10
109.9739935705968
 20
-154.6730739630678
 30
0.0
 10
109.9739935705968
 20
-154.6730739630678
 30
0.0
 10
109.3583550073826
 20
-154.6730739630678
 30
0.0
 10
109.3583550073826
 20
-154.6730739630678
 30
0.0
 10
109.3583550073826
 20
-154.6730739630678
 30
0.0
 10
109.2928981931629
 20
-155.0961316886565
 30
0.0
 10
109.2928981931629
 20
-155.0961316886565
 30
0.0
 10
109.3542208928003
 20
-155.0623697529011
 30
0.0
 10
109.4365586748978
 20
-155.0220621357236
 30
0.0
 10
109.5550699595904
 20
-155.0220621357236
 30
0.0
 10
109.8089734968533
 20
-155.0220621357236
 30
0.0
 10
110.0459960662385
 20
-155.2084418014757
 30
0.0
 10
110.0459960662385
 20
-155.5216009810848
 30
0.0
 10
110.0459960662385
 20
-155.8388942752764
 30
0.0
 10
109.8217203501487
 20
-156.0735052778219
 30
0.0
 10
109.5192409665438
 20
-156.0735052778219
 30
0.0
  0
HATCH
  5
103
330
F9
100
AcDbEntity
  8
レイヤー 1
 62
   250
420
  2299925
440
 33554687
100
AcDbHatch
 10
0.0
 20
0.0
 30
0.0
210
0.0
220
0.0
230
1.0
  2
SOLID
 70
     1
 71
     1
 91
        1
 92
        1
 93
        1
 72
     4
 94
        3
 73
     0
 74
     0
 95
       53
 96
       49
 40
0.0
 40
0.0
 40
0.0
 40
0.0
 40
1.0
 40
1.0
 40
1.0
 40
2.0
 40
2.0
 40
2.0
 40
3.0
 40
3.0
 40
3.0
 40
4.0
 40
4.0
 40
4.0
 40
5.0
 40
5.0
 40
5.0
 40
6.0
 40
6.0
 40
6.0
 40
7.0
 40
7.0
 40
7.0
 40
8.0
 40
8.0
 40
8.0
 40
9.0
 40
9.0
 40
9.0
 40
10.0
 40
10.0
 40
10.0
 40
11.0
 40
11.0
 40
11.0
 40
12.0
 40
12.0
 40
12.0
 40
13.0
 40
13.0
 40
13.0
 40
14.0
 40
14.0
 40
14.0
 40
15.0
 40
15.0
 40
15.0
 40
16.0
 40
16.0
 40
16.0
 40
16.0
 10
109.5192409665438
 20
-156.0735052778219
 10
109.4410372990286
 20
-156.0735052778219
 10
109.3394069822137
 20
-156.0566243099442
 10
109.2377766653989
 20
-155.9932345530156
 10
109.0644883624908
 20
-155.8833360070361
 10
109.0431287704823
 20
-155.7520778690481
 10
109.0241807453134
 20
-155.6442463803598
 10
109.0241807453134
 20
-155.6442463803598
 10
109.246389404112
 20
-155.6442463803598
 10
109.246389404112
 20
-155.6442463803598
 10
109.3011664223275
 20
-155.8430283898587
 10
109.4282904457332
 20
-155.8726562110318
 10
109.5213080238349
 20
-155.8726562110318
 10
109.6608343909875
 20
-155.8726562110318
 10
109.8131076114356
 20
-155.7730929515081
 10
109.8131076114356
 20
-155.5405490062538
 10
109.8131076114356
 20
-155.2845784116997
 10
109.6332736271055
 20
-155.2146429733491
 10
109.5126952851218
 20
-155.2146429733491
 10
109.4810004066575
 20
-155.2146429733491
 10
109.3394069822137
 20
-155.2146429733491
 10
109.2505235186943
 20
-155.343834054046
 10
109.2505235186943
 20
-155.343834054046
 10
109.0748236489466
 20
-155.3248860288771
 10
109.0748236489466
 20
-155.3248860288771
 10
109.0748236489466
 20
-155.3248860288771
 10
109.1954019909303
 20
-154.4784260681512
 10
109.1954019909303
 20
-154.4784260681512
 10
109.1954019909303
 20
-154.4784260681512
 10
109.9739935705968
 20
-154.4784260681512
 10
109.9739935705968
 20
-154.4784260681512
 10
109.9739935705968
 20
-154.4784260681512
 10
109.9739935705968
 20
-154.6730739630678
 10
109.9739935705968
 20
-154.6730739630678
 10
109.9739935705968
 20
-154.6730739630678
 10
109.3583550073826
 20
-154.6730739630678
 10
109.3583550073826
 20
-154.6730739630678
 10
109.3583550073826
 20
-154.6730739630678
 10
109.2928981931629
 20
-155.0961316886565
 10
109.2928981931629
 20
-155.0961316886565
 10
109.3542208928003
 20
-155.0623697529011
 10
109.4365586748978
 20
-155.0220621357236
 10
109.5550699595904
 20
-155.0220621357236
 10
109.8089734968533
 20
-155.0220621357236
 10
110.0459960662385
 20
-155.2084418014757
 10
110.0459960662385
 20
-155.5216009810848
 10
110.0459960662385
 20
-155.8388942752764
 10
109.8217203501487
 20
-156.0735052778219
 10
109.5192409665438
 20
-156.0735052778219
 97
        0
 97
        1
330
102
 75
     2
 76
     1
 98
        1
 10
0.0
 20
0.0
450
        0
451
        0
460
0.0
461
0.0
452
        0
462
0.0
453
        0
470

  0
ENDBLK
  5
FC
330
F9
100
AcDbEntity
  8
0
100
AcDbBlockEnd
  0
BLOCK
  5
10A
330
108
100
AcDbEntity
  8
0
100
AcDbBlockBegin
  2
Block_5
 70
     0
 10
0.0
 20
0.0
 30
0.0
  3
Block_5
  1

  0
INSERT
  5
10D
330
108
100
AcDbEntity
  8
レイヤー 1
100
AcDbBlockReference
  2
Block_6
 10
0.0
 20
0.0
 30
0.0
  0
ENDBLK
  5
10B
330
108
100
AcDbEntity
  8
0
100
AcDbBlockEnd
  0
BLOCK
  5
10E
330
10C
100
AcDbEntity
  8
0
100
AcDbBlockBegin
  2
Block_6
 70
     0
 10
0.0
 20
0.0
 30
0.0
  3
Block_6
  1

  0
SPLINE
  5
110
330
10C
100
AcDbEntity
  8
レイヤー 1
100
AcDbSpline
210
0.0
220
0.0
230
1.0
 70
     9
 71
     3
 72
    17
 73
    13
 74
     0
 42
0.0000000001
 43
0.0000000001
 40
0.0
 40
0.0
 40
0.0
 40
0.0
 40
1.0
 40
1.0
 40
1.0
 40
2.0
 40
2.0
 40
2.0
 40
3.0
 40
3.0
 40
3.0
 40
4.0
 40
4.0
 40
4.0
 40
4.0
 10
79.18724227621014
 20
-145.888252730455
 30
0.0
 10
79.18724227621014
 20
-146.1380221531356
 30
0.0
 10
79.47060137987193
 20
-146.1845309421865
 30
0.0
 10
79.81545543794545
 20
-146.1845309421865
 30
0.0
 10
80.13498804420237
 20
-146.1845309421865
 30
0.0
 10
80.44384085445502
 20
-146.1483574395914
 30
0.0
 10
80.44384085445502
 20
-145.888252730455
 30
0.0
 10
80.44384085445502
 20
-145.6407226198398
 30
0.0
 10
80.16237655331011
 20
-145.5919745187235
 30
0.0
 10
79.81545543794545
 20
-145.5919745187235
 30
0.0
 10
79.49609508646279
 20
-145.5919745187235
 30
0.0
 10
79.18724227621014
 20
-145.6302150786098
 30
0.0
 10
79.18724227621014
 20
-145.888252730455
 30
0.0
  0
SPLINE
  5
111
330
10C
100
AcDbEntity
  8
レイヤー 1
100
AcDbSpline
210
0.0
220
0.0
230
1.0
 70
     9
 71
     3
 72
    29
 73
    25
 74
     0
 42
0.0000000001
 43
0.0000000001
 40
0.0
 40
0.0
 40
0.0
 40
0.0
 40
1.0
 40
1.0
 40
1.0
 40
2.0
 40
2.0
 40
2.0
 40
3.0
 40
3.0
 40
3.0
 40
4.0
 40
4.0
 40
4.0
 40
5.0
 40
5.0
 40
5.0
 40
6.0
 40
6.0
 40
6.0
 40
7.0
 40
7.0
 40
7.0
 40
8.0
 40
8.0
 40
8.0
 40
8.0
 10
80.40990666392529
 20
-145.4905164566829
 30
0.0
 10
80.61936846942849
 20
-145.5983479453712
 30
0.0
 10
80.63848874937162
 20
-145.7718085030536
 30
0.0
 10
80.63848874937162
 20
-145.888252730455
 30
0.0
 10
80.63848874937162
 20
-146.0491386896162
 30
0.0
 10
80.59197996032075
 20
-146.1907321140599
 30
0.0
 10
80.40990666392529
 20
-146.2858167494528
 30
0.0
 10
80.21543102378295
 20
-146.3895141235589
 30
0.0
 10
79.97840845439776
 20
-146.4088066582763
 30
0.0
 10
79.81545543794545
 20
-146.4088066582763
 30
0.0
 10
79.67162270143626
 20
-146.4088066582763
 30
0.0
 10
79.41995847623876
 20
-146.39158118085
 30
0.0
 10
79.22100421196559
 20
-146.2858167494528
 30
0.0
 10
79.01791583311011
 20
-146.1779852607645
 30
0.0
 10
78.99466143858467
 20
-146.0170993016033
 30
0.0
 10
78.99466143858467
 20
-145.888252730455
 30
0.0
 10
78.99466143858467
 20
-145.729433828585
 30
0.0
 10
79.03910317034439
 20
-145.5857733468501
 30
0.0
 10
79.22100421196559
 20
-145.4905164566829
 30
0.0
 10
79.41358504959104
 20
-145.3911254519335
 30
0.0
 10
79.64199488026311
 20
-145.367871057408
 30
0.0
 10
79.81545543794545
 20
-145.367871057408
 30
0.0
 10
79.98684893833662
 20
-145.367871057408
 30
0.0
 10
80.2174980810741
 20
-145.388886139868
 30
0.0
 10
80.40990666392529
 20
-145.4905164566829
 30
0.0
  0
HATCH
  5
112
330
10C
100
AcDbEntity
  8
レイヤー 1
 62
   250
420
  2299925
440
 33554687
100
AcDbHatch
 10
0.0
 20
0.0
 30
0.0
210
0.0
220
0.0
230
1.0
  2
SOLID
 70
     1
 71
     1
 91
        2
 92
        1
 93
        1
 72
     4
 94
        3
 73
     0
 74
     0
 95
       17
 96
       13
 40
0.0
 40
0.0
 40
0.0
 40
0.0
 40
1.0
 40
1.0
 40
1.0
 40
2.0
 40
2.0
 40
2.0
 40
3.0
 40
3.0
 40
3.0
 40
4.0
 40
4.0
 40
4.0
 40
4.0
 10
79.18724227621014
 20
-145.888252730455
 10
79.18724227621014
 20
-146.1380221531356
 10
79.47060137987193
 20
-146.1845309421865
 10
79.81545543794545
 20
-146.1845309421865
 10
80.13498804420237
 20
-146.1845309421865
 10
80.44384085445502
 20
-146.1483574395914
 10
80.44384085445502
 20
-145.888252730455
 10
80.44384085445502
 20
-145.6407226198398
 10
80.16237655331011
 20
-145.5919745187235
 10
79.81545543794545
 20
-145.5919745187235
 10
79.49609508646279
 20
-145.5919745187235
 10
79.18724227621014
 20
-145.6302150786098
 10
79.18724227621014
 20
-145.888252730455
 97
        0
 97
        1
330
110
 92
        1
 93
        1
 72
     4
 94
        3
 73
     0
 74
     0
 95
       29
 96
       25
 40
0.0
 40
0.0
 40
0.0
 40
0.0
 40
1.0
 40
1.0
 40
1.0
 40
2.0
 40
2.0
 40
2.0
 40
3.0
 40
3.0
 40
3.0
 40
4.0
 40
4.0
 40
4.0
 40
5.0
 40
5.0
 40
5.0
 40
6.0
 40
6.0
 40
6.0
 40
7.0
 40
7.0
 40
7.0
 40
8.0
 40
8.0
 40
8.0
 40
8.0
 10
80.40990666392529
 20
-145.4905164566829
 10
80.61936846942849
 20
-145.5983479453712
 10
80.63848874937162
 20
-145.7718085030536
 10
80.63848874937162
 20
-145.888252730455
 10
80.63848874937162
 20
-146.0491386896162
 10
80.59197996032075
 20
-146.1907321140599
 10
80.40990666392529
 20
-146.2858167494528
 10
80.21543102378295
 20
-146.3895141235589
 10
79.97840845439776
 20
-146.4088066582763
 10
79.81545543794545
 20
-146.4088066582763
 10
79.67162270143626
 20
-146.4088066582763
 10
79.41995847623876
 20
-146.39158118085
 10
79.22100421196559
 20
-146.2858167494528
 10
79.01791583311011
 20
-146.1779852607645
 10
78.99466143858467
 20
-146.0170993016033
 10
78.99466143858467
 20
-145.888252730455
 10
78.99466143858467
 20
-145.729433828585
 10
79.03910317034439
 20
-145.5857733468501
 10
79.22100421196559
 20
-145.4905164566829
 10
79.41358504959104
 20
-145.3911254519335
 10
79.64199488026311
 20
-145.367871057408
 10
79.81545543794545
 20
-145.367871057408
 10
79.98684893833662
 20
-145.367871057408
 10
80.2174980810741
 20
-145.388886139868
 10
80.40990666392529
 20
-145.4905164566829
 97
        0
 97
        1
330
111
 75
     2
 76
     1
 98
        1
 10
0.0
 20
0.0
450
        0
451
        0
460
0.0
461
0.0
452
        0
462
0.0
453
        0
470

  0
SPLINE
  5
113
330
10C
100
AcDbEntity
  8
レイヤー 1
100
AcDbSpline
210
0.0
220
0.0
230
1.0
 70
    11
 71
     3
 72
    17
 73
    13
 74
     0
 42
0.0000000001
 43
0.0000000001
 40
0.0
 40
0.0
 40
0.0
 40
0.0
 40
1.0
 40
1.0
 40
1.0
 40
2.0
 40
2.0
 40
2.0
 40
3.0
 40
3.0
 40
3.0
 40
4.0
 40
4.0
 40
4.0
 40
4.0
 10
80.58767359096419
 20
-145.1513468061601
 30
0.0
 10
80.58767359096419
 20
-145.1513468061601
 30
0.0
 10
80.3360093657667
 20
-145.1513468061601
 30
0.0
 10
80.3360093657667
 20
-145.1513468061601
 30
0.0
 10
80.3360093657667
 20
-145.1513468061601
 30
0.0
 10
80.3360093657667
 20
-144.8996825809626
 30
0.0
 10
80.3360093657667
 20
-144.8996825809626
 30
0.0
 10
80.3360093657667
 20
-144.8996825809626
 30
0.0
 10
80.58767359096419
 20
-144.8996825809626
 30
0.0
 10
80.58767359096419
 20
-144.8996825809626
 30
0.0
 10
80.58767359096419
 20
-144.8996825809626
 30
0.0
 10
80.58767359096419
 20
-145.1513468061601
 30
0.0
 10
80.58767359096419
 20
-145.1513468061601
 30
0.0
  0
HATCH
  5
114
330
10C
100
AcDbEntity
  8
レイヤー 1
 62
   250
420
  2299925
440
 33554687
100
AcDbHatch
 10
0.0
 20
0.0
 30
0.0
210
0.0
220
0.0
230
1.0
  2
SOLID
 70
     1
 71
     1
 91
        1
 92
        1
 93
        1
 72
     4
 94
        3
 73
     0
 74
     0
 95
       17
 96
       13
 40
0.0
 40
0.0
 40
0.0
 40
0.0
 40
1.0
 40
1.0
 40
1.0
 40
2.0
 40
2.0
 40
2.0
 40
3.0
 40
3.0
 40
3.0
 40
4.0
 40
4.0
 40
4.0
 40
4.0
 10
80.58767359096419
 20
-145.1513468061601
 10
80.58767359096419
 20
-145.1513468061601
 10
80.3360093657667
 20
-145.1513468061601
 10
80.3360093657667
 20
-145.1513468061601
 10
80.3360093657667
 20
-145.1513468061601
 10
80.3360093657667
 20
-144.8996825809626
 10
80.3360093657667
 20
-144.8996825809626
 10
80.3360093657667
 20
-144.8996825809626
 10
80.58767359096419
 20
-144.8996825809626
 10
80.58767359096419
 20
-144.8996825809626
 10
80.58767359096419
 20
-144.8996825809626
 10
80.58767359096419
 20
-145.1513468061601
 10
80.58767359096419
 20
-145.1513468061601
 97
        0
 97
        1
330
113
 75
     2
 76
     1
 98
        1
 10
0.0
 20
0.0
450
        0
451
        0
460
0.0
461
0.0
452
        0
462
0.0
453
        0
470

  0
SPLINE
  5
115
330
10C
100
AcDbEntity
  8
レイヤー 1
100
AcDbSpline
210
0.0
220
0.0
230
1.0
 70
     9
 71
     3
 72
    53
 73
    49
 74
     0
 42
0.0000000001
 43
0.0000000001
 40
0.0
 40
0.0
 40
0.0
 40
0.0
 40
1.0
 40
1.0
 40
1.0
 40
2.0
 40
2.0
 40
2.0
 40
3.0
 40
3.0
 40
3.0
 40
4.0
 40
4.0
 40
4.0
 40
5.0
 40
5.0
 40
5.0
 40
6.0
 40
6.0
 40
6.0
 40
7.0
 40
7.0
 40
7.0
 40
8.0
 40
8.0
 40
8.0
 40
9.0
 40
9.0
 40
9.0
 40
10.0
 40
10.0
 40
10.0
 40
11.0
 40
11.0
 40
11.0
 40
12.0
 40
12.0
 40
12.0
 40
13.0
 40
13.0
 40
13.0
 40
14.0
 40
14.0
 40
14.0
 40
15.0
 40
15.0
 40
15.0
 40
16.0
 40
16.0
 40
16.0
 40
16.0
 10
80.63848874937162
 20
-144.182069191385
 30
0.0
 10
80.63848874937162
 20
-144.2604451136745
 30
0.0
 10
80.6216077814939
 20
-144.3619031757151
 30
0.0
 10
80.55804576979104
 20
-144.4635334925299
 30
0.0
 10
80.44797496903731
 20
-144.6369940502123
 30
0.0
 10
80.31688908582356
 20
-144.6581813874465
 30
0.0
 10
80.20905759713524
 20
-144.6771294126154
 30
0.0
 10
80.20905759713524
 20
-144.6771294126154
 30
0.0
 10
80.20905759713524
 20
-144.4550930085911
 30
0.0
 10
80.20905759713524
 20
-144.4550930085911
 30
0.0
 10
80.40783960663416
 20
-144.3999714808271
 30
0.0
 10
80.43746742780731
 20
-144.2730197121956
 30
0.0
 10
80.43746742780731
 20
-144.1800021340938
 30
0.0
 10
80.43746742780731
 20
-144.040303512167
 30
0.0
 10
80.33807642305784
 20
-143.8880302917189
 30
0.0
 10
80.10536022302922
 20
-143.8880302917189
 30
0.0
 10
79.84938962847515
 20
-143.8880302917189
 30
0.0
 10
79.77962644489885
 20
-144.067864276049
 30
0.0
 10
79.77962644489885
 20
-144.1884426180327
 30
0.0
 10
79.77962644489885
 20
-144.220137496497
 30
0.0
 10
79.77962644489885
 20
-144.3619031757151
 30
0.0
 10
79.90864527082145
 20
-144.4507866392345
 30
0.0
 10
79.90864527082145
 20
-144.4507866392345
 30
0.0
 10
79.88952499087831
 20
-144.626314254208
 30
0.0
 10
79.88952499087831
 20
-144.626314254208
 30
0.0
 10
79.88952499087831
 20
-144.626314254208
 30
0.0
 10
79.04340953970096
 20
-144.5057359122242
 30
0.0
 10
79.04340953970096
 20
-144.5057359122242
 30
0.0
 10
79.04340953970096
 20
-144.5057359122242
 30
0.0
 10
79.04340953970096
 20
-143.727316587332
 30
0.0
 10
79.04340953970096
 20
-143.727316587332
 30
0.0
 10
79.04340953970096
 20
-143.727316587332
 30
0.0
 10
79.23805743461757
 20
-143.727316587332
 30
0.0
 10
79.23805743461757
 20
-143.727316587332
 30
0.0
 10
79.23805743461757
 20
-143.727316587332
 30
0.0
 10
79.23805743461757
 20
-144.3429551505462
 30
0.0
 10
79.23805743461757
 20
-144.3429551505462
 30
0.0
 10
79.23805743461757
 20
-144.3429551505462
 30
0.0
 10
79.66111516020625
 20
-144.4084119647659
 30
0.0
 10
79.66111516020625
 20
-144.4084119647659
 30
0.0
 10
79.62718096967654
 20
-144.3470892651285
 30
0.0
 10
79.58704560727338
 20
-144.2645792282568
 30
0.0
 10
79.58704560727338
 20
-144.1462401983384
 30
0.0
 10
79.58704560727338
 20
-143.8923366610755
 30
0.0
 10
79.77325301825114
 20
-143.6553140916903
 30
0.0
 10
80.08623994308608
 20
-143.6553140916903
 30
0.0
 10
80.40370549205185
 20
-143.6553140916903
 30
0.0
 10
80.63848874937162
 20
-143.8795898077801
 30
0.0
 10
80.63848874937162
 20
-144.182069191385
 30
0.0
  0
HATCH
  5
116
330
10C
100
AcDbEntity
  8
レイヤー 1
 62
   250
420
  2299925
440
 33554687
100
AcDbHatch
 10
0.0
 20
0.0
 30
0.0
210
0.0
220
0.0
230
1.0
  2
SOLID
 70
     1
 71
     1
 91
        1
 92
        1
 93
        1
 72
     4
 94
        3
 73
     0
 74
     0
 95
       53
 96
       49
 40
0.0
 40
0.0
 40
0.0
 40
0.0
 40
1.0
 40
1.0
 40
1.0
 40
2.0
 40
2.0
 40
2.0
 40
3.0
 40
3.0
 40
3.0
 40
4.0
 40
4.0
 40
4.0
 40
5.0
 40
5.0
 40
5.0
 40
6.0
 40
6.0
 40
6.0
 40
7.0
 40
7.0
 40
7.0
 40
8.0
 40
8.0
 40
8.0
 40
9.0
 40
9.0
 40
9.0
 40
10.0
 40
10.0
 40
10.0
 40
11.0
 40
11.0
 40
11.0
 40
12.0
 40
12.0
 40
12.0
 40
13.0
 40
13.0
 40
13.0
 40
14.0
 40
14.0
 40
14.0
 40
15.0
 40
15.0
 40
15.0
 40
16.0
 40
16.0
 40
16.0
 40
16.0
 10
80.63848874937162
 20
-144.182069191385
 10
80.63848874937162
 20
-144.2604451136745
 10
80.6216077814939
 20
-144.3619031757151
 10
80.55804576979104
 20
-144.4635334925299
 10
80.44797496903731
 20
-144.6369940502123
 10
80.31688908582356
 20
-144.6581813874465
 10
80.20905759713524
 20
-144.6771294126154
 10
80.20905759713524
 20
-144.6771294126154
 10
80.20905759713524
 20
-144.4550930085911
 10
80.20905759713524
 20
-144.4550930085911
 10
80.40783960663416
 20
-144.3999714808271
 10
80.43746742780731
 20
-144.2730197121956
 10
80.43746742780731
 20
-144.1800021340938
 10
80.43746742780731
 20
-144.040303512167
 10
80.33807642305784
 20
-143.8880302917189
 10
80.10536022302922
 20
-143.8880302917189
 10
79.84938962847515
 20
-143.8880302917189
 10
79.77962644489885
 20
-144.067864276049
 10
79.77962644489885
 20
-144.1884426180327
 10
79.77962644489885
 20
-144.220137496497
 10
79.77962644489885
 20
-144.3619031757151
 10
79.90864527082145
 20
-144.4507866392345
 10
79.90864527082145
 20
-144.4507866392345
 10
79.88952499087831
 20
-144.626314254208
 10
79.88952499087831
 20
-144.626314254208
 10
79.88952499087831
 20
-144.626314254208
 10
79.04340953970096
 20
-144.5057359122242
 10
79.04340953970096
 20
-144.5057359122242
 10
79.04340953970096
 20
-144.5057359122242
 10
79.04340953970096
 20
-143.727316587332
 10
79.04340953970096
 20
-143.727316587332
 10
79.04340953970096
 20
-143.727316587332
 10
79.23805743461757
 20
-143.727316587332
 10
79.23805743461757
 20
-143.727316587332
 10
79.23805743461757
 20
-143.727316587332
 10
79.23805743461757
 20
-144.3429551505462
 10
79.23805743461757
 20
-144.3429551505462
 10
79.23805743461757
 20
-144.3429551505462
 10
79.66111516020625
 20
-144.4084119647659
 10
79.66111516020625
 20
-144.4084119647659
 10
79.62718096967654
 20
-144.3470892651285
 10
79.58704560727338
 20
-144.2645792282568
 10
79.58704560727338
 20
-144.1462401983384
 10
79.58704560727338
 20
-143.8923366610755
 10
79.77325301825114
 20
-143.6553140916903
 10
80.08623994308608
 20
-143.6553140916903
 10
80.40370549205185
 20
-143.6553140916903
 10
80.63848874937162
 20
-143.8795898077801
 10
80.63848874937162
 20
-144.182069191385
 97
        0
 97
        1
330
115
 75
     2
 76
     1
 98
        1
 10
0.0
 20
0.0
450
        0
451
        0
460
0.0
461
0.0
452
        0
462
0.0
453
        0
470

  0
ENDBLK
  5
10F
330
10C
100
AcDbEntity
  8
0
100
AcDbBlockEnd
  0
BLOCK
  5
11B
330
119
100
AcDbEntity
  8
0
100
AcDbBlockBegin
  2
Block_7
 70
     0
 10
0.0
 20
0.0
 30
0.0
  3
Block_7
  1

  0
INSERT
  5
11E
330
119
100
AcDbEntity
  8
レイヤー 1
100
AcDbBlockReference
  2
Block_8
 10
0.0
 20
0.0
 30
0.0
  0
ENDBLK
  5
11C
330
119
100
AcDbEntity
  8
0
100
AcDbBlockEnd
  0
BLOCK
  5
11F
330
11D
100
AcDbEntity
  8
0
100
AcDbBlockBegin
  2
Block_8
 70
     0
 10
0.0
 20
0.0
 30
0.0
  3
Block_8
  1

  0
SPLINE
  5
121
330
11D
100
AcDbEntity
  8
レイヤー 1
100
AcDbSpline
210
0.0
220
0.0
230
1.0
 70
     9
 71
     3
 72
    44
 73
    40
 74
     0
 42
0.0000000001
 43
0.0000000001
 40
0.0
 40
0.0
 40
0.0
 40
0.0
 40
1.0
 40
1.0
 40
1.0
 40
2.0
 40
2.0
 40
2.0
 40
3.0
 40
3.0
 40
3.0
 40
4.0
 40
4.0
 40
4.0
 40
5.0
 40
5.0
 40
5.0
 40
6.0
 40
6.0
 40
6.0
 40
7.0
 40
7.0
 40
7.0
 40
8.0
 40
8.0
 40
8.0
 40
9.0
 40
9.0
 40
9.0
 40
10.0
 40
10.0
 40
10.0
 40
11.0
 40
11.0
 40
11.0
 40
12.0
 40
12.0
 40
12.0
 40
13.0
 40
13.0
 40
13.0
 40
13.0
 10
96.05753035793007
 20
-141.1348822346815
 30
0.0
 10
95.839628068488
 20
-141.2935288817773
 30
0.0
 10
95.74643823561201
 20
-141.3675984347102
 30
0.0
 10
95.69786238926999
 20
-141.5114311712193
 30
0.0
 10
95.69786238926999
 20
-141.5114311712193
 30
0.0
 10
96.47628171416219
 20
-141.5114311712193
 30
0.0
 10
96.47628171416219
 20
-141.5114311712193
 30
0.0
 10
96.47628171416219
 20
-141.5114311712193
 30
0.0
 10
96.47628171416219
 20
-141.716586607366
 30
0.0
 10
96.47628171416219
 20
-141.716586607366
 30
0.0
 10
96.47628171416219
 20
-141.716586607366
 30
0.0
 10
95.44826522136363
 20
-141.716586607366
 30
0.0
 10
95.44826522136363
 20
-141.716586607366
 30
0.0
 10
95.47996009982794
 20
-141.358985695997
 30
0.0
 10
95.54558916882193
 20
-141.2807820284819
 30
0.0
 10
95.9305785892986
 20
-140.9824367594592
 30
0.0
 10
96.18654918385267
 20
-140.7836547499603
 30
0.0
 10
96.25200599807243
 20
-140.7159586236752
 30
0.0
 10
96.25200599807243
 20
-140.5784993138137
 30
0.0
 10
96.25200599807243
 20
-140.4599880291211
 30
0.0
 10
96.18017575720497
 20
-140.3289021459073
 30
0.0
 10
95.9834608049972
 20
-140.3289021459073
 30
0.0
 10
95.72318384108656
 20
-140.3289021459073
 30
0.0
 10
95.71474335714771
 20
-140.5593790338706
 30
0.0
 10
95.71043698779114
 20
-140.675823261272
 30
0.0
 10
95.71043698779114
 20
-140.675823261272
 30
0.0
 10
95.48633352647565
 20
-140.675823261272
 30
0.0
 10
95.48633352647565
 20
-140.675823261272
 30
0.0
 10
95.4947740104145
 20
-140.5488714926405
 30
0.0
 10
95.50528155164451
 20
-140.4367336345957
 30
0.0
 10
95.5857245312251
 20
-140.3182223499031
 30
0.0
 10
95.69562307720458
 20
-140.1575086455161
 30
0.0
 10
95.88183048818233
 20
-140.1235744549865
 30
0.0
 10
95.99827471558377
 20
-140.1235744549865
 30
0.0
 10
96.27543264737212
 20
-140.1235744549865
 30
0.0
 10
96.48265514080989
 20
-140.3077148086731
 30
0.0
 10
96.48265514080989
 20
-140.5805663711048
 30
0.0
 10
96.48265514080989
 20
-140.8089762017769
 30
0.0
 10
96.3663831681827
 20
-140.9085394613006
 30
0.0
 10
96.05753035793007
 20
-141.1348822346815
 30
0.0
  0
HATCH
  5
122
330
11D
100
AcDbEntity
  8
レイヤー 1
 62
   250
420
  2299925
440
 33554687
100
AcDbHatch
 10
0.0
 20
0.0
 30
0.0
210
0.0
220
0.0
230
1.0
  2
SOLID
 70
     1
 71
     1
 91
        1
 92
        1
 93
        1
 72
     4
 94
        3
 73
     0
 74
     0
 95
       44
 96
       40
 40
0.0
 40
0.0
 40
0.0
 40
0.0
 40
1.0
 40
1.0
 40
1.0
 40
2.0
 40
2.0
 40
2.0
 40
3.0
 40
3.0
 40
3.0
 40
4.0
 40
4.0
 40
4.0
 40
5.0
 40
5.0
 40
5.0
 40
6.0
 40
6.0
 40
6.0
 40
7.0
 40
7.0
 40
7.0
 40
8.0
 40
8.0
 40
8.0
 40
9.0
 40
9.0
 40
9.0
 40
10.0
 40
10.0
 40
10.0
 40
11.0
 40
11.0
 40
11.0
 40
12.0
 40
12.0
 40
12.0
 40
13.0
 40
13.0
 40
13.0
 40
13.0
 10
96.05753035793007
 20
-141.1348822346815
 10
95.839628068488
 20
-141.2935288817773
 10
95.74643823561201
 20
-141.3675984347102
 10
95.69786238926999
 20
-141.5114311712193
 10
95.69786238926999
 20
-141.5114311712193
 10
96.47628171416219
 20
-141.5114311712193
 10
96.47628171416219
 20
-141.5114311712193
 10
96.47628171416219
 20
-141.5114311712193
 10
96.47628171416219
 20
-141.716586607366
 10
96.47628171416219
 20
-141.716586607366
 10
96.47628171416219
 20
-141.716586607366
 10
95.44826522136363
 20
-141.716586607366
 10
95.44826522136363
 20
-141.716586607366
 10
95.47996009982794
 20
-141.358985695997
 10
95.54558916882193
 20
-141.2807820284819
 10
95.9305785892986
 20
-140.9824367594592
 10
96.18654918385267
 20
-140.7836547499603
 10
96.25200599807243
 20
-140.7159586236752
 10
96.25200599807243
 20
-140.5784993138137
 10
96.25200599807243
 20
-140.4599880291211
 10
96.18017575720497
 20
-140.3289021459073
 10
95.9834608049972
 20
-140.3289021459073
 10
95.72318384108656
 20
-140.3289021459073
 10
95.71474335714771
 20
-140.5593790338706
 10
95.71043698779114
 20
-140.675823261272
 10
95.71043698779114
 20
-140.675823261272
 10
95.48633352647565
 20
-140.675823261272
 10
95.48633352647565
 20
-140.675823261272
 10
95.4947740104145
 20
-140.5488714926405
 10
95.50528155164451
 20
-140.4367336345957
 10
95.5857245312251
 20
-140.3182223499031
 10
95.69562307720458
 20
-140.1575086455161
 10
95.88183048818233
 20
-140.1235744549865
 10
95.99827471558377
 20
-140.1235744549865
 10
96.27543264737212
 20
-140.1235744549865
 10
96.48265514080989
 20
-140.3077148086731
 10
96.48265514080989
 20
-140.5805663711048
 10
96.48265514080989
 20
-140.8089762017769
 10
96.3663831681827
 20
-140.9085394613006
 10
96.05753035793007
 20
-141.1348822346815
 97
        0
 97
        1
330
121
 75
     2
 76
     1
 98
        1
 10
0.0
 20
0.0
450
        0
451
        0
460
0.0
461
0.0
452
        0
462
0.0
453
        0
470

  0
SPLINE
  5
123
330
11D
100
AcDbEntity
  8
レイヤー 1
100
AcDbSpline
210
0.0
220
0.0
230
1.0
 70
    11
 71
     3
 72
    26
 73
    22
 74
     0
 42
0.0000000001
 43
0.0000000001
 40
0.0
 40
0.0
 40
0.0
 40
0.0
 40
1.0
 40
1.0
 40
1.0
 40
2.0
 40
2.0
 40
2.0
 40
3.0
 40
3.0
 40
3.0
 40
4.0
 40
4.0
 40
4.0
 40
5.0
 40
5.0
 40
5.0
 40
6.0
 40
6.0
 40
6.0
 40
7.0
 40
7.0
 40
7.0
 40
7.0
 10
97.09260929647339
 20
-141.716586607366
 30
0.0
 10
97.09260929647339
 20
-141.716586607366
 30
0.0
 10
97.09260929647339
 20
-140.6122612495692
 30
0.0
 10
97.09260929647339
 20
-140.6122612495692
 30
0.0
 10
97.09260929647339
 20
-140.6122612495692
 30
0.0
 10
96.76256914898644
 20
-140.6122612495692
 30
0.0
 10
96.76256914898644
 20
-140.6122612495692
 30
0.0
 10
96.76256914898644
 20
-140.6122612495692
 30
0.0
 10
96.76256914898644
 20
-140.4642943984776
 30
0.0
 10
96.76256914898644
 20
-140.4642943984776
 30
0.0
 10
97.09467635376453
 20
-140.4494804878911
 30
0.0
 10
97.1411851428154
 20
-140.2865274714388
 30
0.0
 10
97.17081296398855
 20
-140.1723225561027
 30
0.0
 10
97.17081296398855
 20
-140.1723225561027
 30
0.0
 10
97.31688501256314
 20
-140.1723225561027
 30
0.0
 10
97.31688501256314
 20
-140.1723225561027
 30
0.0
 10
97.31688501256314
 20
-140.1723225561027
 30
0.0
 10
97.31688501256314
 20
-141.716586607366
 30
0.0
 10
97.31688501256314
 20
-141.716586607366
 30
0.0
 10
97.31688501256314
 20
-141.716586607366
 30
0.0
 10
97.09260929647339
 20
-141.716586607366
 30
0.0
 10
97.09260929647339
 20
-141.716586607366
 30
0.0
  0
HATCH
  5
124
330
11D
100
AcDbEntity
  8
レイヤー 1
 62
   250
420
  2299925
440
 33554687
100
AcDbHatch
 10
0.0
 20
0.0
 30
0.0
210
0.0
220
0.0
230
1.0
  2
SOLID
 70
     1
 71
     1
 91
        1
 92
        1
 93
        1
 72
     4
 94
        3
 73
     0
 74
     0
 95
       26
 96
       22
 40
0.0
 40
0.0
 40
0.0
 40
0.0
 40
1.0
 40
1.0
 40
1.0
 40
2.0
 40
2.0
 40
2.0
 40
3.0
 40
3.0
 40
3.0
 40
4.0
 40
4.0
 40
4.0
 40
5.0
 40
5.0
 40
5.0
 40
6.0
 40
6.0
 40
6.0
 40
7.0
 40
7.0
 40
7.0
 40
7.0
 10
97.09260929647339
 20
-141.716586607366
 10
97.09260929647339
 20
-141.716586607366
 10
97.09260929647339
 20
-140.6122612495692
 10
97.09260929647339
 20
-140.6122612495692
 10
97.09260929647339
 20
-140.6122612495692
 10
96.76256914898644
 20
-140.6122612495692
 10
96.76256914898644
 20
-140.6122612495692
 10
96.76256914898644
 20
-140.6122612495692
 10
96.76256914898644
 20
-140.4642943984776
 10
96.76256914898644
 20
-140.4642943984776
 10
97.09467635376453
 20
-140.4494804878911
 10
97.1411851428154
 20
-140.2865274714388
 10
97.17081296398855
 20
-140.1723225561027
 10
97.17081296398855
 20
-140.1723225561027
 10
97.31688501256314
 20
-140.1723225561027
 10
97.31688501256314
 20
-140.1723225561027
 10
97.31688501256314
 20
-140.1723225561027
 10
97.31688501256314
 20
-141.716586607366
 10
97.31688501256314
 20
-141.716586607366
 10
97.31688501256314
 20
-141.716586607366
 10
97.09260929647339
 20
-141.716586607366
 10
97.09260929647339
 20
-141.716586607366
 97
        0
 97
        1
330
123
 75
     2
 76
     1
 98
        1
 10
0.0
 20
0.0
450
        0
451
        0
460
0.0
461
0.0
452
        0
462
0.0
453
        0
470

  0
ENDBLK
  5
120
330
11D
100
AcDbEntity
  8
0
100
AcDbBlockEnd
  0
BLOCK
  5
129
330
127
100
AcDbEntity
  8
0
100
AcDbBlockBegin
  2
Block_9
 70
     0
 10
0.0
 20
0.0
 30
0.0
  3
Block_9
  1

  0
INSERT
  5
12C
330
127
100
AcDbEntity
  8
レイヤー 1
100
AcDbBlockReference
  2
Block_10
 10
0.0
 20
0.0
 30
0.0
  0
ENDBLK
  5
12A
330
127
100
AcDbEntity
  8
0
100
AcDbBlockEnd
  0
BLOCK
  5
12D
330
12B
100
AcDbEntity
  8
0
100
AcDbBlockBegin
  2
Block_10
 70
     0
 10
0.0
 20
0.0
 30
0.0
  3
Block_10
  1

  0
SPLINE
  5
12F
330
12B
100
AcDbEntity
  8
レイヤー 1
100
AcDbSpline
210
0.0
220
0.0
230
1.0
 70
     9
 71
     3
 72
    44
 73
    40
 74
     0
 42
0.0000000001
 43
0.0000000001
 40
0.0
 40
0.0
 40
0.0
 40
0.0
 40
1.0
 40
1.0
 40
1.0
 40
2.0
 40
2.0
 40
2.0
 40
3.0
 40
3.0
 40
3.0
 40
4.0
 40
4.0
 40
4.0
 40
5.0
 40
5.0
 40
5.0
 40
6.0
 40
6.0
 40
6.0
 40
7.0
 40
7.0
 40
7.0
 40
8.0
 40
8.0
 40
8.0
 40
9.0
 40
9.0
 40
9.0
 40
10.0
 40
10.0
 40
10.0
 40
11.0
 40
11.0
 40
11.0
 40
12.0
 40
12.0
 40
12.0
 40
13.0
 40
13.0
 40
13.0
 40
13.0
 10
120.0560655081804
 20
-141.1348822346815
 30
0.0
 10
119.8383354735126
 20
-141.2935288817773
 30
0.0
 10
119.7453178954109
 20
-141.3675984347102
 30
0.0
 10
119.6963975395203
 20
-141.5114311712193
 30
0.0
 10
119.6963975395203
 20
-141.5114311712193
 30
0.0
 10
120.4749891191868
 20
-141.5114311712193
 30
0.0
 10
120.4749891191868
 20
-141.5114311712193
 30
0.0
 10
120.4749891191868
 20
-141.5114311712193
 30
0.0
 10
120.4749891191868
 20
-141.716586607366
 30
0.0
 10
120.4749891191868
 20
-141.716586607366
 30
0.0
 10
120.4749891191868
 20
-141.716586607366
 30
0.0
 10
119.4469726263882
 20
-141.716586607366
 30
0.0
 10
119.4469726263882
 20
-141.716586607366
 30
0.0
 10
119.4786675048525
 20
-141.358985695997
 30
0.0
 10
119.5441243190723
 20
-141.2807820284819
 30
0.0
 10
119.9292859943232
 20
-140.9824367594592
 30
0.0
 10
120.1852565888773
 20
-140.7836547499603
 30
0.0
 10
120.250713403097
 20
-140.7159586236752
 30
0.0
 10
120.250713403097
 20
-140.5784993138137
 30
0.0
 10
120.250713403097
 20
-140.4599880291211
 30
0.0
 10
120.1787109074553
 20
-140.3289021459073
 30
0.0
 10
119.9819959552475
 20
-140.3289021459073
 30
0.0
 10
119.7218912461112
 20
-140.3289021459073
 30
0.0
 10
119.7136230169466
 20
-140.5593790338706
 30
0.0
 10
119.7091443928157
 20
-140.675823261272
 30
0.0
 10
119.7091443928157
 20
-140.675823261272
 30
0.0
 10
119.484868676726
 20
-140.675823261272
 30
0.0
 10
119.484868676726
 20
-140.675823261272
 30
0.0
 10
119.4934814154391
 20
-140.5488714926405
 30
0.0
 10
119.5041612114434
 20
-140.4367336345957
 30
0.0
 10
119.5844319362497
 20
-140.3182223499031
 30
0.0
 10
119.6943304822292
 20
-140.1575086455161
 30
0.0
 10
119.8807101479812
 20
-140.1235744549865
 30
0.0
 10
119.9968098658341
 20
-140.1235744549865
 30
0.0
 10
120.2741400523967
 20
-140.1235744549865
 30
0.0
 10
120.4815348006088
 20
-140.3077148086731
 30
0.0
 10
120.4815348006088
 20
-140.5805663711048
 30
0.0
 10
120.4815348006088
 20
-140.8089762017769
 30
0.0
 10
120.3650905732073
 20
-140.9085394613006
 30
0.0
 10
120.0560655081804
 20
-141.1348822346815
 30
0.0
  0
HATCH
  5
130
330
12B
100
AcDbEntity
  8
レイヤー 1
 62
   250
420
  2299925
440
 33554687
100
AcDbHatch
 10
0.0
 20
0.0
 30
0.0
210
0.0
220
0.0
230
1.0
  2
SOLID
 70
     1
 71
     1
 91
        1
 92
        1
 93
        1
 72
     4
 94
        3
 73
     0
 74
     0
 95
       44
 96
       40
 40
0.0
 40
0.0
 40
0.0
 40
0.0
 40
1.0
 40
1.0
 40
1.0
 40
2.0
 40
2.0
 40
2.0
 40
3.0
 40
3.0
 40
3.0
 40
4.0
 40
4.0
 40
4.0
 40
5.0
 40
5.0
 40
5.0
 40
6.0
 40
6.0
 40
6.0
 40
7.0
 40
7.0
 40
7.0
 40
8.0
 40
8.0
 40
8.0
 40
9.0
 40
9.0
 40
9.0
 40
10.0
 40
10.0
 40
10.0
 40
11.0
 40
11.0
 40
11.0
 40
12.0
 40
12.0
 40
12.0
 40
13.0
 40
13.0
 40
13.0
 40
13.0
 10
120.0560655081804
 20
-141.1348822346815
 10
119.8383354735126
 20
-141.2935288817773
 10
119.7453178954109
 20
-141.3675984347102
 10
119.6963975395203
 20
-141.5114311712193
 10
119.6963975395203
 20
-141.5114311712193
 10
120.4749891191868
 20
-141.5114311712193
 10
120.4749891191868
 20
-141.5114311712193
 10
120.4749891191868
 20
-141.5114311712193
 10
120.4749891191868
 20
-141.716586607366
 10
120.4749891191868
 20
-141.716586607366
 10
120.4749891191868
 20
-141.716586607366
 10
119.4469726263882
 20
-141.716586607366
 10
119.4469726263882
 20
-141.716586607366
 10
119.4786675048525
 20
-141.358985695997
 10
119.5441243190723
 20
-141.2807820284819
 10
119.9292859943232
 20
-140.9824367594592
 10
120.1852565888773
 20
-140.7836547499603
 10
120.250713403097
 20
-140.7159586236752
 10
120.250713403097
 20
-140.5784993138137
 10
120.250713403097
 20
-140.4599880291211
 10
120.1787109074553
 20
-140.3289021459073
 10
119.9819959552475
 20
-140.3289021459073
 10
119.7218912461112
 20
-140.3289021459073
 10
119.7136230169466
 20
-140.5593790338706
 10
119.7091443928157
 20
-140.675823261272
 10
119.7091443928157
 20
-140.675823261272
 10
119.484868676726
 20
-140.675823261272
 10
119.484868676726
 20
-140.675823261272
 10
119.4934814154391
 20
-140.5488714926405
 10
119.5041612114434
 20
-140.4367336345957
 10
119.5844319362497
 20
-140.3182223499031
 10
119.6943304822292
 20
-140.1575086455161
 10
119.8807101479812
 20
-140.1235744549865
 10
119.9968098658341
 20
-140.1235744549865
 10
120.2741400523967
 20
-140.1235744549865
 10
120.4815348006088
 20
-140.3077148086731
 10
120.4815348006088
 20
-140.5805663711048
 10
120.4815348006088
 20
-140.8089762017769
 10
120.3650905732073
 20
-140.9085394613006
 10
120.0560655081804
 20
-141.1348822346815
 97
        0
 97
        1
330
12F
 75
     2
 76
     1
 98
        1
 10
0.0
 20
0.0
450
        0
451
        0
460
0.0
461
0.0
452
        0
462
0.0
453
        0
470

  0
SPLINE
  5
131
330
12B
100
AcDbEntity
  8
レイヤー 1
100
AcDbSpline
210
0.0
220
0.0
230
1.0
 70
    11
 71
     3
 72
    26
 73
    22
 74
     0
 42
0.0000000001
 43
0.0000000001
 40
0.0
 40
0.0
 40
0.0
 40
0.0
 40
1.0
 40
1.0
 40
1.0
 40
2.0
 40
2.0
 40
2.0
 40
3.0
 40
3.0
 40
3.0
 40
4.0
 40
4.0
 40
4.0
 40
5.0
 40
5.0
 40
5.0
 40
6.0
 40
6.0
 40
6.0
 40
7.0
 40
7.0
 40
7.0
 40
7.0
 10
121.091316701498
 20
-141.716586607366
 30
0.0
 10
121.091316701498
 20
-141.716586607366
 30
0.0
 10
121.091316701498
 20
-140.6122612495692
 30
0.0
 10
121.091316701498
 20
-140.6122612495692
 30
0.0
 10
121.091316701498
 20
-140.6122612495692
 30
0.0
 10
120.761276554011
 20
-140.6122612495692
 30
0.0
 10
120.761276554011
 20
-140.6122612495692
 30
0.0
 10
120.761276554011
 20
-140.6122612495692
 30
0.0
 10
120.761276554011
 20
-140.4642943984776
 30
0.0
 10
120.761276554011
 20
-140.4642943984776
 30
0.0
 10
121.0933837587891
 20
-140.4494804878911
 30
0.0
 10
121.13989254784
 20
-140.2865274714388
 30
0.0
 10
121.1695203690132
 20
-140.1723225561027
 30
0.0
 10
121.1695203690132
 20
-140.1723225561027
 30
0.0
 10
121.3155924175878
 20
-140.1723225561027
 30
0.0
 10
121.3155924175878
 20
-140.1723225561027
 30
0.0
 10
121.3155924175878
 20
-140.1723225561027
 30
0.0
 10
121.3155924175878
 20
-141.716586607366
 30
0.0
 10
121.3155924175878
 20
-141.716586607366
 30
0.0
 10
121.3155924175878
 20
-141.716586607366
 30
0.0
 10
121.091316701498
 20
-141.716586607366
 30
0.0
 10
121.091316701498
 20
-141.716586607366
 30
0.0
  0
HATCH
  5
132
330
12B
100
AcDbEntity
  8
レイヤー 1
 62
   250
420
  2299925
440
 33554687
100
AcDbHatch
 10
0.0
 20
0.0
 30
0.0
210
0.0
220
0.0
230
1.0
  2
SOLID
 70
     1
 71
     1
 91
        1
 92
        1
 93
        1
 72
     4
 94
        3
 73
     0
 74
     0
 95
       26
 96
       22
 40
0.0
 40
0.0
 40
0.0
 40
0.0
 40
1.0
 40
1.0
 40
1.0
 40
2.0
 40
2.0
 40
2.0
 40
3.0
 40
3.0
 40
3.0
 40
4.0
 40
4.0
 40
4.0
 40
5.0
 40
5.0
 40
5.0
 40
6.0
 40
6.0
 40
6.0
 40
7.0
 40
7.0
 40
7.0
 40
7.0
 10
121.091316701498
 20
-141.716586607366
 10
121.091316701498
 20
-141.716586607366
 10
121.091316701498
 20
-140.6122612495692
 10
121.091316701498
 20
-140.6122612495692
 10
121.091316701498
 20
-140.6122612495692
 10
120.761276554011
 20
-140.6122612495692
 10
120.761276554011
 20
-140.6122612495692
 10
120.761276554011
 20
-140.6122612495692
 10
120.761276554011
 20
-140.4642943984776
 10
120.761276554011
 20
-140.4642943984776
 10
121.0933837587891
 20
-140.4494804878911
 10
121.13989254784
 20
-140.2865274714388
 10
121.1695203690132
 20
-140.1723225561027
 10
121.1695203690132
 20
-140.1723225561027
 10
121.3155924175878
 20
-140.1723225561027
 10
121.3155924175878
 20
-140.1723225561027
 10
121.3155924175878
 20
-140.1723225561027
 10
121.3155924175878
 20
-141.716586607366
 10
121.3155924175878
 20
-141.716586607366
 10
121.3155924175878
 20
-141.716586607366
 10
121.091316701498
 20
-141.716586607366
 10
121.091316701498
 20
-141.716586607366
 97
        0
 97
        1
330
131
 75
     2
 76
     1
 98
        1
 10
0.0
 20
0.0
450
        0
451
        0
460
0.0
461
0.0
452
        0
462
0.0
453
        0
470

  0
ENDBLK
  5
12E
330
12B
100
AcDbEntity
  8
0
100
AcDbBlockEnd
  0
BLOCK
  5
137
330
135
100
AcDbEntity
  8
0
100
AcDbBlockBegin
  2
Block_11
 70
     0
 10
0.0
 20
0.0
 30
0.0
  3
Block_11
  1

  0
SPLINE
  5
139
330
135
100
AcDbEntity
  8
レイヤー 1
100
AcDbSpline
210
0.0
220
0.0
230
1.0
 70
     9
 71
     3
 72
    53
 73
    49
 74
     0
 42
0.0000000001
 43
0.0000000001
 40
0.0
 40
0.0
 40
0.0
 40
0.0
 40
1.0
 40
1.0
 40
1.0
 40
2.0
 40
2.0
 40
2.0
 40
3.0
 40
3.0
 40
3.0
 40
4.0
 40
4.0
 40
4.0
 40
5.0
 40
5.0
 40
5.0
 40
6.0
 40
6.0
 40
6.0
 40
7.0
 40
7.0
 40
7.0
 40
8.0
 40
8.0
 40
8.0
 40
9.0
 40
9.0
 40
9.0
 40
10.0
 40
10.0
 40
10.0
 40
11.0
 40
11.0
 40
11.0
 40
12.0
 40
12.0
 40
12.0
 40
13.0
 40
13.0
 40
13.0
 40
14.0
 40
14.0
 40
14.0
 40
15.0
 40
15.0
 40
15.0
 40
16.0
 40
16.0
 40
16.0
 40
16.0
 10
80.63831649459737
 20
-150.4735025665483
 30
0.0
 10
80.63831649459737
 20
-150.5517062340634
 30
0.0
 10
80.62143552671965
 20
-150.6533365508783
 30
0.0
 10
80.55787351501678
 20
-150.7549668676932
 30
0.0
 10
80.44780271426304
 20
-150.9282551706013
 30
0.0
 10
80.3167168310493
 20
-150.9496147626098
 30
0.0
 10
80.20888534236098
 20
-150.9685627877787
 30
0.0
 10
80.20888534236098
 20
-150.9685627877787
 30
0.0
 10
80.20888534236098
 20
-150.74635412898
 30
0.0
 10
80.20888534236098
 20
-150.74635412898
 30
0.0
 10
80.40766735185989
 20
-150.6915771107646
 30
0.0
 10
80.43729517303303
 20
-150.5644530873589
 30
0.0
 10
80.43729517303303
 20
-150.4714355092571
 30
0.0
 10
80.43729517303303
 20
-150.3319091421045
 30
0.0
 10
80.33790416828358
 20
-150.1796359216565
 30
0.0
 10
80.10518796825495
 20
-150.1796359216565
 30
0.0
 10
79.8492173737009
 20
-150.1796359216565
 30
0.0
 10
79.77945419012458
 20
-150.3594699059865
 30
0.0
 10
79.77945419012458
 20
-150.4800482479702
 30
0.0
 10
79.77945419012458
 20
-150.5117431264345
 30
0.0
 10
79.77945419012458
 20
-150.6533365508783
 30
0.0
 10
79.9084730160472
 20
-150.7422200143978
 30
0.0
 10
79.9084730160472
 20
-150.7422200143978
 30
0.0
 10
79.88935273610406
 20
-150.9179198841455
 30
0.0
 10
79.88935273610406
 20
-150.9179198841455
 30
0.0
 10
79.88935273610406
 20
-150.9179198841455
 30
0.0
 10
79.04323728492669
 20
-150.7973415421617
 30
0.0
 10
79.04323728492669
 20
-150.7973415421617
 30
0.0
 10
79.04323728492669
 20
-150.7973415421617
 30
0.0
 10
79.04323728492669
 20
-150.0187499624953
 30
0.0
 10
79.04323728492669
 20
-150.0187499624953
 30
0.0
 10
79.04323728492669
 20
-150.0187499624953
 30
0.0
 10
79.23788517984331
 20
-150.0187499624953
 30
0.0
 10
79.23788517984331
 20
-150.0187499624953
 30
0.0
 10
79.23788517984331
 20
-150.0187499624953
 30
0.0
 10
79.23788517984331
 20
-150.6343885257094
 30
0.0
 10
79.23788517984331
 20
-150.6343885257094
 30
0.0
 10
79.23788517984331
 20
-150.6343885257094
 30
0.0
 10
79.660942905432
 20
-150.6998453399292
 30
0.0
 10
79.660942905432
 20
-150.6998453399292
 30
0.0
 10
79.62700871490227
 20
-150.6385226402917
 30
0.0
 10
79.58687335249912
 20
-150.5561848581943
 30
0.0
 10
79.58687335249912
 20
-150.4376735735017
 30
0.0
 10
79.58687335249912
 20
-150.1837700362388
 30
0.0
 10
79.77308076347687
 20
-149.9467474668536
 30
0.0
 10
80.08606768831182
 20
-149.9467474668536
 30
0.0
 10
80.40353323727758
 20
-149.9467474668536
 30
0.0
 10
80.63831649459737
 20
-150.1710231829433
 30
0.0
 10
80.63831649459737
 20
-150.4735025665483
 30
0.0
  0
HATCH
  5
13A
330
135
100
AcDbEntity
  8
レイヤー 1
 62
   250
420
  2299925
440
 33554687
100
AcDbHatch
 10
0.0
 20
0.0
 30
0.0
210
0.0
220
0.0
230
1.0
  2
SOLID
 70
     1
 71
     1
 91
        1
 92
        1
 93
        1
 72
     4
 94
        3
 73
     0
 74
     0
 95
       53
 96
       49
 40
0.0
 40
0.0
 40
0.0
 40
0.0
 40
1.0
 40
1.0
 40
1.0
 40
2.0
 40
2.0
 40
2.0
 40
3.0
 40
3.0
 40
3.0
 40
4.0
 40
4.0
 40
4.0
 40
5.0
 40
5.0
 40
5.0
 40
6.0
 40
6.0
 40
6.0
 40
7.0
 40
7.0
 40
7.0
 40
8.0
 40
8.0
 40
8.0
 40
9.0
 40
9.0
 40
9.0
 40
10.0
 40
10.0
 40
10.0
 40
11.0
 40
11.0
 40
11.0
 40
12.0
 40
12.0
 40
12.0
 40
13.0
 40
13.0
 40
13.0
 40
14.0
 40
14.0
 40
14.0
 40
15.0
 40
15.0
 40
15.0
 40
16.0
 40
16.0
 40
16.0
 40
16.0
 10
80.63831649459737
 20
-150.4735025665483
 10
80.63831649459737
 20
-150.5517062340634
 10
80.62143552671965
 20
-150.6533365508783
 10
80.55787351501678
 20
-150.7549668676932
 10
80.44780271426304
 20
-150.9282551706013
 10
80.3167168310493
 20
-150.9496147626098
 10
80.20888534236098
 20
-150.9685627877787
 10
80.20888534236098
 20
-150.9685627877787
 10
80.20888534236098
 20
-150.74635412898
 10
80.20888534236098
 20
-150.74635412898
 10
80.40766735185989
 20
-150.6915771107646
 10
80.43729517303303
 20
-150.5644530873589
 10
80.43729517303303
 20
-150.4714355092571
 10
80.43729517303303
 20
-150.3319091421045
 10
80.33790416828358
 20
-150.1796359216565
 10
80.10518796825495
 20
-150.1796359216565
 10
79.8492173737009
 20
-150.1796359216565
 10
79.77945419012458
 20
-150.3594699059865
 10
79.77945419012458
 20
-150.4800482479702
 10
79.77945419012458
 20
-150.5117431264345
 10
79.77945419012458
 20
-150.6533365508783
 10
79.9084730160472
 20
-150.7422200143978
 10
79.9084730160472
 20
-150.7422200143978
 10
79.88935273610406
 20
-150.9179198841455
 10
79.88935273610406
 20
-150.9179198841455
 10
79.88935273610406
 20
-150.9179198841455
 10
79.04323728492669
 20
-150.7973415421617
 10
79.04323728492669
 20
-150.7973415421617
 10
79.04323728492669
 20
-150.7973415421617
 10
79.04323728492669
 20
-150.0187499624953
 10
79.04323728492669
 20
-150.0187499624953
 10
79.04323728492669
 20
-150.0187499624953
 10
79.23788517984331
 20
-150.0187499624953
 10
79.23788517984331
 20
-150.0187499624953
 10
79.23788517984331
 20
-150.0187499624953
 10
79.23788517984331
 20
-150.6343885257094
 10
79.23788517984331
 20
-150.6343885257094
 10
79.23788517984331
 20
-150.6343885257094
 10
79.660942905432
 20
-150.6998453399292
 10
79.660942905432
 20
-150.6998453399292
 10
79.62700871490227
 20
-150.6385226402917
 10
79.58687335249912
 20
-150.5561848581943
 10
79.58687335249912
 20
-150.4376735735017
 10
79.58687335249912
 20
-150.1837700362388
 10
79.77308076347687
 20
-149.9467474668536
 10
80.08606768831182
 20
-149.9467474668536
 10
80.40353323727758
 20
-149.9467474668536
 10
80.63831649459737
 20
-150.1710231829433
 10
80.63831649459737
 20
-150.4735025665483
 97
        0
 97
        1
330
139
 75
     2
 76
     1
 98
        1
 10
0.0
 20
0.0
450
        0
451
        0
460
0.0
461
0.0
452
        0
462
0.0
453
        0
470

  0
ENDBLK
  5
138
330
135
100
AcDbEntity
  8
0
100
AcDbBlockEnd
  0
ENDSEC
  0
SECTION
  2
ENTITIES
  0
INSERT
  5
7A
330
70
100
AcDbEntity
  8
レイヤー 1
100
AcDbBlockReference
  2
Block_0
 10
0.0
 20
0.0
 30
0.0
  0
ENDSEC
  0
SECTION
  2
OBJECTS
  0
DICTIONARY
  5
C
330
0
100
AcDbDictionary
281
     1
  3
ACAD_COLOR
350
63
  3
ACAD_DETAILVIEWSTYLE
350
6A
  3
ACAD_GROUP
350
D
  3
ACAD_LAYOUT
350
62
  3
ACAD_MATERIAL
350
10
  3
ACAD_MLEADERSTYLE
350
66
  3
ACAD_MLINESTYLE
350
5F
  3
ACAD_PLOTSETTINGS
350
61
  3
ACAD_PLOTSTYLENAME
350
E
  3
ACAD_SCALELIST
350
42
  3
ACAD_SECTIONVIEWSTYLE
350
68
  3
ACAD_TABLESTYLE
350
64
  3
ACAD_VISUALSTYLE
350
29
  3
ACDB_RECOMPOSE_DATA
350
143
  3
AcDbVariableDictionary
350
13B
  0
DICTIONARY
  5
63
102
{ACAD_REACTORS
330
C
102
}
330
C
100
AcDbDictionary
281
     1
  0
DICTIONARY
  5
6A
102
{ACAD_REACTORS
330
C
102
}
330
C
100
AcDbDictionary
281
     1
  3
Imperial24
350
6B
  0
DICTIONARY
  5
D
102
{ACAD_REACTORS
330
C
102
}
330
C
100
AcDbDictionary
281
     1
  0
DICTIONARY
  5
62
102
{ACAD_REACTORS
330
C
102
}
330
C
100
AcDbDictionary
281
     1
  3
Layout1
350
6F
  3
Layout2
350
77
  3
Model
350
73
  0
DICTIONARY
  5
10
102
{ACAD_REACTORS
330
C
102
}
330
C
100
AcDbDictionary
281
     1
  3
ByBlock
350
19
  3
ByLayer
350
11
  3
Global
350
21
  0
DICTIONARY
  5
66
102
{ACAD_REACTORS
330
C
102
}
330
C
100
AcDbDictionary
281
     1
  3
Standard
350
67
  0
DICTIONARY
  5
5F
102
{ACAD_REACTORS
330
C
102
}
330
C
100
AcDbDictionary
281
     1
  3
Standard
350
60
  0
DICTIONARY
  5
61
102
{ACAD_REACTORS
330
C
102
}
330
C
100
AcDbDictionary
281
     1
  0
ACDBDICTIONARYWDFLT
  5
E
102
{ACAD_REACTORS
330
C
102
}
330
C
100
AcDbDictionary
281
     1
  3
Normal
350
F
100
AcDbDictionaryWithDefault
340
F
  0
DICTIONARY
  5
42
102
{ACAD_REACTORS
330
C
102
}
330
C
100
AcDbDictionary
281
     1
  3
A0
350
43
  3
A1
350
44
  3
A2
350
45
  3
A3
350
46
  3
A4
350
47
  3
A5
350
48
  3
A6
350
49
  3
A7
350
4A
  3
A8
350
4B
  3
A9
350
4C
  3
B0
350
4D
  3
B1
350
4E
  3
B2
350
4F
  3
B3
350
50
  3
B4
350
51
  3
B5
350
52
  3
B6
350
53
  0
DICTIONARY
  5
68
102
{ACAD_REACTORS
330
C
102
}
330
C
100
AcDbDictionary
281
     1
  3
Imperial24
350
69
  0
DICTIONARY
  5
64
102
{ACAD_REACTORS
330
C
102
}
330
C
100
AcDbDictionary
281
     1
  3
Standard
350
65
  0
DICTIONARY
  5
29
102
{ACAD_REACTORS
330
C
102
}
330
C
100
AcDbDictionary
281
     1
  3
2dWireframe
350
2F
  3
Basic
350
2E
  3
Brighten
350
35
  3
ColorChange
350
39
  3
Conceptual
350
32
  3
Dim
350
34
  3
EdgeColorOff
350
41
  3
Facepattern
350
38
  3
Flat
350
2A
  3
FlatWithEdges
350
2B
  3
Gouraud
350
2C
  3
GouraudWithEdges
350
2D
  3
Hidden
350
31
  3
JitterOff
350
3F
  3
Linepattern
350
37
  3
OverhangOff
350
40
  3
Realistic
350
33
  3
Shaded
350
3E
  3
Shaded with edges
350
3D
  3
Shades of Gray
350
3A
  3
Sketchy
350
3B
  3
Thicken
350
36
  3
Wireframe
350
30
  3
X-Ray
350
3C
  0
XRECORD
  5
143
102
{ACAD_REACTORS
330
C
102
}
330
C
100
AcDbXrecord
280
     1
 90
        1
330
65
  0
DICTIONARY
  5
13B
102
{ACAD_REACTORS
330
C
102
}
330
C
100
AcDbDictionary
281
     1
  3
CANNOSCALE
350
140
  3
CMLEADERSTYLE
350
13D
  3
CTABLESTYLE
350
13C
  3
CVIEWDETAILSTYLE
350
13E
  3
CVIEWSECTIONSTYLE
350
13F
  0
ACDBDETAILVIEWSTYLE
  5
6B
102
{ACAD_XDICTIONARY
360
178
102
}
102
{ACAD_REACTORS
330
6A
102
}
330
6A
100
AcDbModelDocViewStyle
 70
     0
  3
Imperial24
290
     0
100
AcDbDetailViewStyle
 70
     0
 71
     0
 90
        3
 71
     1
340
55
 62
   256
 40
0.24
340
0
 62
   256
 40
0.24
300

 40
0.36
280
     3
 71
     2
340
5D
 90
       25
 62
   256
 71
     3
340
55
 62
   256
 40
0.24
 90
        1
 40
0.75
 90
        1
300
%<\AcVar ViewType \f "%tc1">% %<\AcVar ViewDetailId>%\PSCALE %<\AcVar ViewScale \f "%sn">%
 71
     4
340
5D
 90
       25
 62
   256
340
5D
 90
       25
 62
   256
280
     0
  0
LAYOUT
  5
6F
102
{ACAD_REACTORS
330
62
102
}
330
62
100
AcDbPlotSettings
  1

  2

  4

  6

 40
0.0
 41
0.0
 42
0.0
 43
0.0
 44
0.0
 45
0.0
 46
0.0
 47
0.0
 48
0.0
 49
0.0
140
0.0
141
0.0
142
1.0
143
1.0
 70
   688
 72
     0
 73
     0
 74
     5
  7

 75
    16
147
1.0
 76
     0
 77
     2
 78
   300
148
0.0
149
0.0
100
AcDbLayout
  1
Layout1
 70
     1
 71
     1
 10
0.0
 20
0.0
 11
12.0
 21
9.0
 12
0.0
 22
0.0
 32
0.0
 14
0.0
 24
0.0
 34
0.0
 15
0.0
 25
0.0
 35
0.0
146
0.0
 13
0.0
 23
0.0
 33
0.0
 16
1.0
 26
0.0
 36
0.0
 17
0.0
 27
1.0
 37
0.0
 76
     0
330
6C
  0
LAYOUT
  5
77
102
{ACAD_REACTORS
330
62
102
}
330
62
100
AcDbPlotSettings
  1

  2

  4

  6

 40
0.0
 41
0.0
 42
0.0
 43
0.0
 44
0.0
 45
0.0
 46
0.0
 47
0.0
 48
0.0
 49
0.0
140
0.0
141
0.0
142
1.0
143
1.0
 70
   688
 72
     0
 73
     0
 74
     5
  7

 75
    16
147
1.0
 76
     0
 77
     2
 78
   300
148
0.0
149
0.0
100
AcDbLayout
  1
Layout2
 70
     1
 71
     2
 10
0.0
 20
0.0
 11
12.0
 21
9.0
 12
0.0
 22
0.0
 32
0.0
 14
0.0
 24
0.0
 34
0.0
 15
0.0
 25
0.0
 35
0.0
146
0.0
 13
0.0
 23
0.0
 33
0.0
 16
1.0
 26
0.0
 36
0.0
 17
0.0
 27
1.0
 37
0.0
 76
     0
330
74
  0
LAYOUT
  5
73
102
{ACAD_REACTORS
330
62
102
}
330
62
100
AcDbPlotSettings
  1

  2

  4

  6

 40
0.0
 41
0.0
 42
0.0
 43
0.0
 44
0.0
 45
0.0
 46
0.0
 47
0.0
 48
0.0
 49
0.0
140
0.0
141
0.0
142
1.0
143
1.0
 70
  1712
 72
     0
 73
     0
 74
     0
  7

 75
     0
147
1.0
 76
     0
 77
     2
 78
   300
148
0.0
149
0.0
100
AcDbLayout
  1
Model
 70
     1
 71
     0
 10
0.0
 20
0.0
 11
12.0
 21
9.0
 12
0.0
 22
0.0
 32
0.0
 14
0.0
 24
0.0
 34
0.0
 15
0.0
 25
0.0
 35
0.0
146
0.0
 13
0.0
 23
0.0
 33
0.0
 16
1.0
 26
0.0
 36
0.0
 17
0.0
 27
1.0
 37
0.0
 76
     0
330
70
  0
MATERIAL
  5
19
102
{ACAD_XDICTIONARY
360
1A
102
}
102
{ACAD_REACTORS
330
10
102
}
330
10
100
AcDbMaterial
  1
ByBlock
 72
     0
 43
0.0208333333333333
 43
0.0
 43
0.0
 43
0.0
 43
0.0
 43
0.0208333333333333
 43
0.0
 43
0.0
 43
0.0
 43
0.0
 43
1.0
 43
0.0
 43
0.0
 43
0.0
 43
0.0
 43
1.0
 77
     0
 47
0.0208333333333333
 47
0.0
 47
0.0
 47
0.0
 47
0.0
 47
0.0208333333333333
 47
0.0
 47
0.0
 47
0.0
 47
0.0
 47
1.0
 47
0.0
 47
0.0
 47
0.0
 47
0.0
 47
1.0
171
     0
 49
0.0208333333333333
 49
0.0
 49
0.0
 49
0.0
 49
0.0
 49
0.0208333333333333
 49
0.0
 49
0.0
 49
0.0
 49
0.0
 49
1.0
 49
0.0
 49
0.0
 49
0.0
 49
0.0
 49
1.0
175
     0
142
0.0208333333333333
142
0.0
142
0.0
142
0.0
142
0.0
142
0.0208333333333333
142
0.0
142
0.0
142
0.0
142
0.0
142
1.0
142
0.0
142
0.0
142
0.0
142
0.0
142
1.0
179
     0
144
0.0208333333333333
144
0.0
144
0.0
144
0.0
144
0.0
144
0.0208333333333333
144
0.0
144
0.0
144
0.0
144
0.0
144
1.0
144
0.0
144
0.0
144
0.0
144
0.0
144
1.0
147
0.0208333333333333
147
0.0
147
0.0
147
0.0
147
0.0
147
0.0208333333333333
147
0.0
147
0.0
147
0.0
147
0.0
147
1.0
147
0.0
147
0.0
147
0.0
147
0.0
147
1.0
  0
MATERIAL
  5
11
102
{ACAD_XDICTIONARY
360
12
102
}
102
{ACAD_REACTORS
330
10
102
}
330
10
100
AcDbMaterial
  1
ByLayer
 72
     0
 43
0.0208333333333333
 43
0.0
 43
0.0
 43
0.0
 43
0.0
 43
0.0208333333333333
 43
0.0
 43
0.0
 43
0.0
 43
0.0
 43
1.0
 43
0.0
 43
0.0
 43
0.0
 43
0.0
 43
1.0
 77
     0
 47
0.0208333333333333
 47
0.0
 47
0.0
 47
0.0
 47
0.0
 47
0.0208333333333333
 47
0.0
 47
0.0
 47
0.0
 47
0.0
 47
1.0
 47
0.0
 47
0.0
 47
0.0
 47
0.0
 47
1.0
171
     0
 49
0.0208333333333333
 49
0.0
 49
0.0
 49
0.0
 49
0.0
 49
0.0208333333333333
 49
0.0
 49
0.0
 49
0.0
 49
0.0
 49
1.0
 49
0.0
 49
0.0
 49
0.0
 49
0.0
 49
1.0
175
     0
142
0.0208333333333333
142
0.0
142
0.0
142
0.0
142
0.0
142
0.0208333333333333
142
0.0
142
0.0
142
0.0
142
0.0
142
1.0
142
0.0
142
0.0
142
0.0
142
0.0
142
1.0
179
     0
144
0.0208333333333333
144
0.0
144
0.0
144
0.0
144
0.0
144
0.0208333333333333
144
0.0
144
0.0
144
0.0
144
0.0
144
1.0
144
0.0
144
0.0
144
0.0
144
0.0
144
1.0
147
0.0208333333333333
147
0.0
147
0.0
147
0.0
147
0.0
147
0.0208333333333333
147
0.0
147
0.0
147
0.0
147
0.0
147
1.0
147
0.0
147
0.0
147
0.0
147
0.0
147
1.0
  0
MATERIAL
  5
21
102
{ACAD_XDICTIONARY
360
22
102
}
102
{ACAD_REACTORS
330
10
102
}
330
10
100
AcDbMaterial
  1
Global
 72
     0
 43
0.0208333333333333
 43
0.0
 43
0.0
 43
0.0
 43
0.0
 43
0.0208333333333333
 43
0.0
 43
0.0
 43
0.0
 43
0.0
 43
1.0
 43
0.0
 43
0.0
 43
0.0
 43
0.0
 43
1.0
 77
     0
 47
0.0208333333333333
 47
0.0
 47
0.0
 47
0.0
 47
0.0
 47
0.0208333333333333
 47
0.0
 47
0.0
 47
0.0
 47
0.0
 47
1.0
 47
0.0
 47
0.0
 47
0.0
 47
0.0
 47
1.0
171
     0
 49
0.0208333333333333
 49
0.0
 49
0.0
 49
0.0
 49
0.0
 49
0.0208333333333333
 49
0.0
 49
0.0
 49
0.0
 49
0.0
 49
1.0
 49
0.0
 49
0.0
 49
0.0
 49
0.0
 49
1.0
175
     0
142
0.0208333333333333
142
0.0
142
0.0
142
0.0
142
0.0
142
0.0208333333333333
142
0.0
142
0.0
142
0.0
142
0.0
142
1.0
142
0.0
142
0.0
142
0.0
142
0.0
142
1.0
179
     0
144
0.0208333333333333
144
0.0
144
0.0
144
0.0
144
0.0
144
0.0208333333333333
144
0.0
144
0.0
144
0.0
144
0.0
144
1.0
144
0.0
144
0.0
144
0.0
144
0.0
144
1.0
147
0.0208333333333333
147
0.0
147
0.0
147
0.0
147
0.0
147
0.0208333333333333
147
0.0
147
0.0
147
0.0
147
0.0
147
1.0
147
0.0
147
0.0
147
0.0
147
0.0
147
1.0
  0
MLEADERSTYLE
  5
67
102
{ACAD_XDICTIONARY
360
174
102
}
102
{ACAD_REACTORS
330
66
102
}
330
66
100
AcDbMLeaderStyle
179
     2
170
     2
171
     1
172
     0
 90
        2
 40
0.0
 41
0.0
173
     1
 91
-1056964608
340
5B
 92
       -2
290
     1
 42
0.09
291
     1
 43
0.36
  3
Standard
 44
0.18
300

342
55
174
     1
178
     6
175
     1
176
     0
 93
-1056964608
 45
0.18
292
     0
297
     0
 46
0.18
 94
-1056964608
 47
1.0
 49
1.0
140
1.0
293
     1
141
0.0
294
     1
177
     0
142
1.0
295
     0
296
     0
143
0.125
271
     0
272
     9
273
     9
  0
MLINESTYLE
  5
60
102
{ACAD_REACTORS
330
5F
102
}
330
5F
100
AcDbMlineStyle
  2
STANDARD
 70
     0
  3

 62
   256
 51
90.0
 52
90.0
 71
     2
 49
0.5
 62
   256
  6
BYLAYER
 49
-0.5
 62
   256
  6
BYLAYER
  0
ACDBPLACEHOLDER
  5
F
102
{ACAD_REACTORS
330
E
102
}
330
E
  0
SCALE
  5
43
102
{ACAD_REACTORS
330
42
102
}
330
42
100
AcDbScale
 70
     0
300
1:1
140
1.0
141
1.0
290
     1
  0
SCALE
  5
44
102
{ACAD_REACTORS
330
42
102
}
330
42
100
AcDbScale
 70
     0
300
1/128" = 1'-0"
140
0.0078125
141
12.0
290
     0
  0
SCALE
  5
45
102
{ACAD_REACTORS
330
42
102
}
330
42
100
AcDbScale
 70
     0
300
1/64" = 1'-0"
140
0.015625
141
12.0
290
     0
  0
SCALE
  5
46
102
{ACAD_REACTORS
330
42
102
}
330
42
100
AcDbScale
 70
     0
300
1/32" = 1'-0"
140
0.03125
141
12.0
290
     0
  0
SCALE
  5
47
102
{ACAD_REACTORS
330
42
102
}
330
42
100
AcDbScale
 70
     0
300
1/16" = 1'-0"
140
0.0625
141
12.0
290
     0
  0
SCALE
  5
48
102
{ACAD_REACTORS
330
42
102
}
330
42
100
AcDbScale
 70
     0
300
3/32" = 1'-0"
140
0.09375
141
12.0
290
     0
  0
SCALE
  5
49
102
{ACAD_REACTORS
330
42
102
}
330
42
100
AcDbScale
 70
     0
300
1/8" = 1'-0"
140
0.125
141
12.0
290
     0
  0
SCALE
  5
4A
102
{ACAD_REACTORS
330
42
102
}
330
42
100
AcDbScale
 70
     0
300
3/16" = 1'-0"
140
0.1875
141
12.0
290
     0
  0
SCALE
  5
4B
102
{ACAD_REACTORS
330
42
102
}
330
42
100
AcDbScale
 70
     0
300
1/4" = 1'-0"
140
0.25
141
12.0
290
     0
  0
SCALE
  5
4C
102
{ACAD_REACTORS
330
42
102
}
330
42
100
AcDbScale
 70
     0
300
3/8" = 1'-0"
140
0.375
141
12.0
290
     0
  0
SCALE
  5
4D
102
{ACAD_REACTORS
330
42
102
}
330
42
100
AcDbScale
 70
     0
300
1/2" = 1'-0"
140
0.5
141
12.0
290
     0
  0
SCALE
  5
4E
102
{ACAD_REACTORS
330
42
102
}
330
42
100
AcDbScale
 70
     0
300
3/4" = 1'-0"
140
0.75
141
12.0
290
     0
  0
SCALE
  5
4F
102
{ACAD_REACTORS
330
42
102
}
330
42
100
AcDbScale
 70
     0
300
1" = 1'-0"
140
1.0
141
12.0
290
     0
  0
SCALE
  5
50
102
{ACAD_REACTORS
330
42
102
}
330
42
100
AcDbScale
 70
     0
300
1-1/2" = 1'-0"
140
1.5
141
12.0
290
     0
  0
SCALE
  5
51
102
{ACAD_REACTORS
330
42
102
}
330
42
100
AcDbScale
 70
     0
300
3" = 1'-0"
140
3.0
141
12.0
290
     0
  0
SCALE
  5
52
102
{ACAD_REACTORS
330
42
102
}
330
42
100
AcDbScale
 70
     0
300
6" = 1'-0"
140
6.0
141
12.0
290
     0
  0
SCALE
  5
53
102
{ACAD_REACTORS
330
42
102
}
330
42
100
AcDbScale
 70
     0
300
1'-0" = 1'-0"
140
12.0
141
12.0
290
     0
  0
ACDBSECTIONVIEWSTYLE
  5
69
102
{ACAD_XDICTIONARY
360
176
102
}
102
{ACAD_REACTORS
330
68
102
}
330
68
100
AcDbModelDocViewStyle
 70
     0
  3
Imperial24
290
     0
100
AcDbSectionViewStyle
 70
     0
 71
     0
 90
       78
 71
     1
340
55
 62
   256
 40
0.24
340
0
340
0
 62
   256
 40
0.24
300
I, O, Q, S, X, Z
 40
0.48
 90
        3
 40
0.18
 90
        1
 71
     2
340
5D
 90
       25
 62
   256
340
5D
 90
       50
 62
   256
 40
0.24
 40
0.0
 40
0.24
 71
     3
340
55
 62
   256
 40
0.24
 90
        1
 40
0.75
 90
        1
300
%<\AcVar ViewType \f "%tc1">% %<\AcVar ViewSectionStartId>%-%<\AcVar ViewSectionEndId>%\PSCALE %<\AcVar ViewScale \f "%sn">%
 71
     4
 62
   256
 62
   257
300
ANSI31
 40
1.0
 90
        0
290
     0
290
     0
 90
        6
 40
0.0
 40
1.570796326794896
 40
0.2617993877991494
 40
1.308996938995747
 40
-0.2617993877991494
 40
1.832595714594046
  0
TABLESTYLE
  5
65
102
{ACAD_XDICTIONARY
360
141
102
}
102
{ACAD_REACTORS
330
64
102
}
330
64
100
AcDbTableStyle
280
     0
  3
Standard
 70
     0
 71
     0
 40
0.06
 41
0.06
280
     0
281
     0
  7
Standard
140
0.18
170
     2
 62
     0
 63
     7
283
     0
 90
      512
 91
        0
  1

274
    -2
284
     1
 64
     0
275
    -2
285
     1
 65
     0
276
    -2
286
     1
 66
     0
277
    -2
287
     1
 67
     0
278
    -2
288
     1
 68
     0
279
    -2
289
     1
 69
     0
  7
Standard
140
0.25
170
     5
 62
     0
 63
     7
283
     0
 90
      512
 91
        0
  1

274
    -2
284
     1
 64
     0
275
    -2
285
     1
 65
     0
276
    -2
286
     1
 66
     0
277
    -2
287
     1
 67
     0
278
    -2
288
     1
 68
     0
279
    -2
289
     1
 69
     0
  7
Standard
140
0.18
170
     5
 62
     0
 63
     7
283
     0
 90
      512
 91
        0
  1

274
    -2
284
     1
 64
     0
275
    -2
285
     1
 65
     0
276
    -2
286
     1
 66
     0
277
    -2
287
     1
 67
     0
278
    -2
288
     1
 68
     0
279
    -2
289
     1
 69
     0
  0
VISUALSTYLE
  5
2F
102
{ACAD_XDICTIONARY
360
14E
102
}
102
{ACAD_REACTORS
330
29
102
}
330
29
100
AcDbVisualStyle
  2
2dWireframe
 70
     4
177
     2
291
     0
 71
     0
176
     1
 72
     2
176
     1
 73
     0
176
     1
 90
        0
176
     1
 40
0.6
176
     1
 41
30.0
176
     1
 63
     7
421
 16777215
176
     1
 74
     1
176
     1
 91
        4
176
     1
 64
     7
176
     1
 65
   257
176
     1
 75
     1
176
     1
175
     1
176
     1
 42
1.0
176
     1
 92
        0
176
     1
 66
   257
176
     1
 43
1.0
176
     1
 76
     1
176
     1
 77
     6
176
     1
 78
     2
176
     1
 67
     7
176
     1
 79
     5
176
     1
170
     0
176
     1
171
     0
176
     1
290
     0
176
     1
 93
        1
176
     1
 44
0.0
176
     1
173
     0
176
     1
1001
ACAD
1000
AcDbSavedByObjectVersion
1070
     0
  0
VISUALSTYLE
  5
2E
102
{ACAD_XDICTIONARY
360
14C
102
}
102
{ACAD_REACTORS
330
29
102
}
330
29
100
AcDbVisualStyle
  2
Basic
 70
     7
177
     2
291
     1
 71
     1
176
     1
 72
     0
176
     1
 73
     1
176
     1
 90
        0
176
     1
 40
0.6
176
     1
 41
30.0
176
     1
 63
     7
421
 16777215
176
     1
 74
     0
176
     1
 91
        4
176
     1
 64
     7
176
     1
 65
   257
176
     1
 75
     1
176
     1
175
     1
176
     1
 42
1.0
176
     1
 92
        8
176
     1
 66
     7
176
     1
 43
1.0
176
     1
 76
     1
176
     1
 77
     6
176
     1
 78
     2
176
     1
 67
     7
176
     1
 79
     5
176
     1
170
     0
176
     1
171
     0
176
     1
290
     0
176
     1
 93
        1
176
     1
 44
0.0
176
     1
173
     0
176
     1
1001
ACAD
1000
AcDbSavedByObjectVersion
1070
     0
  0
VISUALSTYLE
  5
35
102
{ACAD_XDICTIONARY
360
15A
102
}
102
{ACAD_REACTORS
330
29
102
}
330
29
100
AcDbVisualStyle
  2
Brighten
 70
    12
177
     2
291
     1
 71
     2
176
     1
 72
     2
176
     1
 73
     0
176
     1
 90
        0
176
     1
 40
0.6
176
     1
 41
30.0
176
     1
 63
     7
421
 16777215
176
     1
 74
     1
176
     1
 91
        4
176
     1
 64
     7
176
     1
 65
   257
176
     1
 75
     1
176
     1
175
     1
176
     1
 42
1.0
176
     1
 92
        8
176
     1
 66
     7
176
     1
 43
1.0
176
     1
 76
     1
176
     1
 77
     6
176
     1
 78
     2
176
     1
 67
     7
176
     1
 79
     5
176
     1
170
     0
176
     1
171
     0
176
     1
290
     0
176
     1
 93
        1
176
     1
 44
50.0
176
     1
173
     0
176
     1
1001
ACAD
1000
AcDbSavedByObjectVersion
1070
     0
  0
VISUALSTYLE
  5
39
102
{ACAD_XDICTIONARY
360
162
102
}
102
{ACAD_REACTORS
330
29
102
}
330
29
100
AcDbVisualStyle
  2
ColorChange
 70
    16
177
     2
291
     1
 71
     2
176
     1
 72
     2
176
     1
 73
     3
176
     1
 90
        0
176
     1
 40
0.6
176
     1
 41
30.0
176
     1
 63
     8
421
  8421504
176
     1
 74
     1
176
     1
 91
        4
176
     1
 64
     7
176
     1
 65
   257
176
     1
 75
     1
176
     1
175
     1
176
     1
 42
1.0
176
     1
 92
        8
176
     1
 66
     8
424
  8421504
176
     1
 43
1.0
176
     1
 76
     1
176
     1
 77
     6
176
     1
 78
     2
176
     1
 67
     7
176
     1
 79
     5
176
     1
170
     0
176
     1
171
     0
176
     1
290
     0
176
     1
 93
        1
176
     1
 44
0.0
176
     1
173
     0
176
     1
1001
ACAD
1000
AcDbSavedByObjectVersion
1070
     0
  0
VISUALSTYLE
  5
32
102
{ACAD_XDICTIONARY
360
154
102
}
102
{ACAD_REACTORS
330
29
102
}
330
29
100
AcDbVisualStyle
  2
Conceptual
 70
     9
177
     2
291
     0
 71
     3
176
     1
 72
     2
176
     1
 73
     0
176
     1
 90
        0
176
     1
 40
0.6
176
     1
 41
30.0
176
     1
 63
     7
421
 16777215
176
     1
 74
     2
176
     1
 91
        2
176
     1
 64
     7
176
     1
 65
   257
176
     1
 75
     1
176
     1
175
     1
176
     1
 42
179.0
176
     1
 92
        8
176
     1
 66
     7
176
     1
 43
1.0
176
     1
 76
     1
176
     1
 77
     6
176
     1
 78
     2
176
     1
 67
     7
176
     1
 79
     3
176
     1
170
     0
176
     1
171
     0
176
     1
290
     0
176
     1
 93
        1
176
     1
 44
0.0
176
     1
173
     0
176
     1
1001
ACAD
1000
AcDbSavedByObjectVersion
1070
     0
  0
VISUALSTYLE
  5
34
102
{ACAD_XDICTIONARY
360
158
102
}
102
{ACAD_REACTORS
330
29
102
}
330
29
100
AcDbVisualStyle
  2
Dim
 70
    11
177
     2
291
     1
 71
     2
176
     1
 72
     2
176
     1
 73
     0
176
     1
 90
        0
176
     1
 40
0.6
176
     1
 41
30.0
176
     1
 63
     7
421
 16777215
176
     1
 74
     1
176
     1
 91
        4
176
     1
 64
     7
176
     1
 65
   257
176
     1
 75
     1
176
     1
175
     1
176
     1
 42
1.0
176
     1
 92
        8
176
     1
 66
     7
176
     1
 43
1.0
176
     1
 76
     1
176
     1
 77
     6
176
     1
 78
     2
176
     1
 67
     7
176
     1
 79
     5
176
     1
170
     0
176
     1
171
     0
176
     1
290
     0
176
     1
 93
        1
176
     1
 44
-50.0
176
     1
173
     0
176
     1
1001
ACAD
1000
AcDbSavedByObjectVersion
1070
     0
  0
VISUALSTYLE
  5
41
102
{ACAD_XDICTIONARY
360
172
102
}
102
{ACAD_REACTORS
330
29
102
}
330
29
100
AcDbVisualStyle
  2
EdgeColorOff
 70
    22
177
     2
291
     1
 71
     2
176
     0
 72
     2
176
     0
 73
     0
176
     0
 90
        0
176
     0
 40
0.6
176
     0
 41
30.0
176
     0
 63
     7
421
 16777215
176
     0
 74
     1
176
     0
 91
        4
176
     0
 64
     7
176
     0
 65
   257
176
     0
 75
     1
176
     0
175
     1
176
     0
 42
1.0
176
     0
 92
        8
176
     2
 66
     7
176
     0
 43
1.0
176
     0
 76
     1
176
     0
 77
     6
176
     0
 78
     2
176
     0
 67
     7
176
     0
 79
     5
176
     0
170
     0
176
     0
171
     0
176
     0
290
     0
176
     0
 93
        1
176
     0
 44
0.0
176
     0
173
     0
176
     0
1001
ACAD
1000
AcDbSavedByObjectVersion
1070
     0
  0
VISUALSTYLE
  5
38
102
{ACAD_XDICTIONARY
360
160
102
}
102
{ACAD_REACTORS
330
29
102
}
330
29
100
AcDbVisualStyle
  2
Facepattern
 70
    15
177
     2
291
     1
 71
     2
176
     1
 72
     2
176
     1
 73
     0
176
     1
 90
        0
176
     1
 40
0.6
176
     1
 41
30.0
176
     1
 63
     7
421
 16777215
176
     1
 74
     1
176
     1
 91
        4
176
     1
 64
     7
176
     1
 65
   257
176
     1
 75
     1
176
     1
175
     1
176
     1
 42
1.0
176
     1
 92
        8
176
     1
 66
     7
176
     1
 43
1.0
176
     1
 76
     1
176
     1
 77
     6
176
     1
 78
     2
176
     1
 67
     7
176
     1
 79
     5
176
     1
170
     0
176
     1
171
     0
176
     1
290
     0
176
     1
 93
        1
176
     1
 44
0.0
176
     1
173
     0
176
     1
1001
ACAD
1000
AcDbSavedByObjectVersion
1070
     0
  0
VISUALSTYLE
  5
2A
102
{ACAD_XDICTIONARY
360
144
102
}
102
{ACAD_REACTORS
330
29
102
}
330
29
100
AcDbVisualStyle
  2
Flat
 70
     0
177
     2
291
     1
 71
     2
176
     1
 72
     1
176
     1
 73
     1
176
     1
 90
        2
176
     1
 40
0.6
176
     1
 41
30.0
176
     1
 63
     7
421
 16777215
176
     1
 74
     0
176
     1
 91
        0
176
     1
 64
     7
176
     1
 65
   257
176
     1
 75
     1
176
     1
175
     1
176
     1
 42
1.0
176
     1
 92
        8
176
     1
 66
     7
176
     1
 43
1.0
176
     1
 76
     1
176
     1
 77
     6
176
     1
 78
     2
176
     1
 67
     7
176
     1
 79
     5
176
     1
170
     0
176
     1
171
     0
176
     1
290
     0
176
     1
 93
       13
176
     1
 44
0.0
176
     1
173
     0
176
     1
1001
ACAD
1000
AcDbSavedByObjectVersion
1070
     0
  0
VISUALSTYLE
  5
2B
102
{ACAD_XDICTIONARY
360
146
102
}
102
{ACAD_REACTORS
330
29
102
}
330
29
100
AcDbVisualStyle
  2
FlatWithEdges
 70
     1
177
     2
291
     1
 71
     2
176
     1
 72
     1
176
     1
 73
     1
176
     1
 90
        2
176
     1
 40
0.6
176
     1
 41
30.0
176
     1
 63
     7
421
 16777215
176
     1
 74
     1
176
     1
 91
        0
176
     1
 64
     7
176
     1
 65
   257
176
     1
 75
     1
176
     1
175
     1
176
     1
 42
1.0
176
     1
 92
        0
176
     1
 66
   257
176
     1
 43
1.0
176
     1
 76
     1
176
     1
 77
     6
176
     1
 78
     2
176
     1
 67
     7
176
     1
 79
     5
176
     1
170
     0
176
     1
171
     0
176
     1
290
     0
176
     1
 93
       13
176
     1
 44
0.0
176
     1
173
     0
176
     1
1001
ACAD
1000
AcDbSavedByObjectVersion
1070
     0
  0
VISUALSTYLE
  5
2C
102
{ACAD_XDICTIONARY
360
148
102
}
102
{ACAD_REACTORS
330
29
102
}
330
29
100
AcDbVisualStyle
  2
Gouraud
 70
     2
177
     2
291
     1
 71
     2
176
     1
 72
     2
176
     1
 73
     1
176
     1
 90
        2
176
     1
 40
0.6
176
     1
 41
30.0
176
     1
 63
     7
421
 16777215
176
     1
 74
     0
176
     1
 91
        0
176
     1
 64
     7
176
     1
 65
   257
176
     1
 75
     1
176
     1
175
     1
176
     1
 42
1.0
176
     1
 92
        0
176
     1
 66
     7
176
     1
 43
1.0
176
     1
 76
     1
176
     1
 77
     6
176
     1
 78
     2
176
     1
 67
     7
176
     1
 79
     5
176
     1
170
     0
176
     1
171
     0
176
     1
290
     0
176
     1
 93
       13
176
     1
 44
0.0
176
     1
173
     0
176
     1
1001
ACAD
1000
AcDbSavedByObjectVersion
1070
     0
  0
VISUALSTYLE
  5
2D
102
{ACAD_XDICTIONARY
360
14A
102
}
102
{ACAD_REACTORS
330
29
102
}
330
29
100
AcDbVisualStyle
  2
GouraudWithEdges
 70
     3
177
     2
291
     1
 71
     2
176
     1
 72
     2
176
     1
 73
     1
176
     1
 90
        2
176
     1
 40
0.6
176
     1
 41
30.0
176
     1
 63
     7
421
 16777215
176
     1
 74
     1
176
     1
 91
        0
176
     1
 64
     7
176
     1
 65
   257
176
     1
 75
     1
176
     1
175
     1
176
     1
 42
1.0
176
     1
 92
        0
176
     1
 66
   257
176
     1
 43
1.0
176
     1
 76
     1
176
     1
 77
     6
176
     1
 78
     2
176
     1
 67
     7
176
     1
 79
     5
176
     1
170
     0
176
     1
171
     0
176
     1
290
     0
176
     1
 93
       13
176
     1
 44
0.0
176
     1
173
     0
176
     1
1001
ACAD
1000
AcDbSavedByObjectVersion
1070
     0
  0
VISUALSTYLE
  5
31
102
{ACAD_XDICTIONARY
360
152
102
}
102
{ACAD_REACTORS
330
29
102
}
330
29
100
AcDbVisualStyle
  2
Hidden
 70
     6
177
     2
291
     0
 71
     1
176
     1
 72
     2
176
     1
 73
     2
176
     1
 90
        0
176
     1
 40
0.6
176
     1
 41
30.0
176
     1
 63
     7
421
 16777215
176
     1
 74
     2
176
     1
 91
        2
176
     1
 64
     7
176
     1
 65
   257
176
     1
 75
     2
176
     1
175
     1
176
     1
 42
40.0
176
     1
 92
        0
176
     1
 66
   257
176
     1
 43
1.0
176
     1
 76
     1
176
     1
 77
     6
176
     1
 78
     2
176
     1
 67
     7
176
     1
 79
     3
176
     1
170
     0
176
     1
171
     0
176
     1
290
     0
176
     1
 93
        1
176
     1
 44
0.0
176
     1
173
     0
176
     1
1001
ACAD
1000
AcDbSavedByObjectVersion
1070
     0
  0
VISUALSTYLE
  5
3F
102
{ACAD_XDICTIONARY
360
16E
102
}
102
{ACAD_REACTORS
330
29
102
}
330
29
100
AcDbVisualStyle
  2
JitterOff
 70
    20
177
     2
291
     1
 71
     2
176
     0
 72
     2
176
     0
 73
     0
176
     0
 90
        0
176
     0
 40
0.6
176
     0
 41
30.0
176
     0
 63
     7
421
 16777215
176
     0
 74
     1
176
     0
 91
        4
176
     0
 64
     7
176
     0
 65
   257
176
     0
 75
     1
176
     0
175
     1
176
     0
 42
1.0
176
     0
 92
       10
176
     2
 66
     7
176
     0
 43
1.0
176
     0
 76
     1
176
     0
 77
     6
176
     0
 78
     2
176
     0
 67
     7
176
     0
 79
     5
176
     0
170
     0
176
     0
171
     0
176
     0
290
     0
176
     0
 93
        1
176
     0
 44
0.0
176
     0
173
     0
176
     0
1001
ACAD
1000
AcDbSavedByObjectVersion
1070
     0
  0
VISUALSTYLE
  5
37
102
{ACAD_XDICTIONARY
360
15E
102
}
102
{ACAD_REACTORS
330
29
102
}
330
29
100
AcDbVisualStyle
  2
Linepattern
 70
    14
177
     2
291
     1
 71
     2
176
     1
 72
     2
176
     1
 73
     0
176
     1
 90
        0
176
     1
 40
0.6
176
     1
 41
30.0
176
     1
 63
     7
421
 16777215
176
     1
 74
     1
176
     1
 91
        4
176
     1
 64
     7
176
     1
 65
   257
176
     1
 75
     7
176
     1
175
     7
176
     1
 42
1.0
176
     1
 92
        8
176
     1
 66
     7
176
     1
 43
1.0
176
     1
 76
     1
176
     1
 77
     6
176
     1
 78
     2
176
     1
 67
     7
176
     1
 79
     5
176
     1
170
     0
176
     1
171
     0
176
     1
290
     0
176
     1
 93
        1
176
     1
 44
0.0
176
     1
173
     0
176
     1
1001
ACAD
1000
AcDbSavedByObjectVersion
1070
     0
  0
VISUALSTYLE
  5
40
102
{ACAD_XDICTIONARY
360
170
102
}
102
{ACAD_REACTORS
330
29
102
}
330
29
100
AcDbVisualStyle
  2
OverhangOff
 70
    21
177
     2
291
     1
 71
     2
176
     0
 72
     2
176
     0
 73
     0
176
     0
 90
        0
176
     0
 40
0.6
176
     0
 41
30.0
176
     0
 63
     7
421
 16777215
176
     0
 74
     1
176
     0
 91
        4
176
     0
 64
     7
176
     0
 65
   257
176
     0
 75
     1
176
     0
175
     1
176
     0
 42
1.0
176
     0
 92
        9
176
     2
 66
     7
176
     0
 43
1.0
176
     0
 76
     1
176
     0
 77
     6
176
     0
 78
     2
176
     0
 67
     7
176
     0
 79
     5
176
     0
170
     0
176
     0
171
     0
176
     0
290
     0
176
     0
 93
        1
176
     0
 44
0.0
176
     0
173
     0
176
     0
1001
ACAD
1000
AcDbSavedByObjectVersion
1070
     0
  0
VISUALSTYLE
  5
33
102
{ACAD_XDICTIONARY
360
156
102
}
102
{ACAD_REACTORS
330
29
102
}
330
29
100
AcDbVisualStyle
  2
Realistic
 70
     8
177
     2
291
     0
 71
     2
176
     1
 72
     3
176
     1
 73
     0
176
     1
 90
        2
176
     1
 40
0.6
176
     1
 41
30.0
176
     1
 63
     7
421
 16777215
176
     1
 74
     0
176
     1
 91
        0
176
     1
 64
     7
176
     1
 65
   257
176
     1
 75
     1
176
     1
175
     1
176
     1
 42
1.0
176
     1
 92
        8
176
     1
 66
   257
176
     1
 43
1.0
176
     1
 76
     1
176
     1
 77
     6
176
     1
 78
     2
176
     1
 67
     7
176
     1
 79
     3
176
     1
170
     0
176
     1
171
     0
176
     1
290
     0
176
     1
 93
       13
176
     1
 44
0.0
176
     1
173
     0
176
     1
1001
ACAD
1000
AcDbSavedByObjectVersion
1070
     0
  0
VISUALSTYLE
  5
3E
102
{ACAD_XDICTIONARY
360
16C
102
}
102
{ACAD_REACTORS
330
29
102
}
330
29
100
AcDbVisualStyle
  2
Shaded
 70
    27
177
     2
291
     0
 71
     2
176
     1
 72
     2
176
     1
 73
     1
176
     1
 90
        2
176
     1
 40
0.6
176
     1
 41
30.0
176
     1
 63
     7
421
 16777215
176
     1
 74
     0
176
     1
 91
        4
176
     1
 64
     7
176
     1
 65
   257
176
     1
 75
     1
176
     1
175
     1
176
     1
 42
1.0
176
     1
 92
        8
176
     1
 66
   257
176
     1
 43
1.0
176
     1
 76
     1
176
     1
 77
     6
176
     1
 78
     2
176
     1
 67
     8
425
  7895160
176
     1
 79
     3
176
     1
170
     0
176
     1
171
     0
176
     1
290
     0
176
     1
 93
        5
176
     1
 44
0.0
176
     1
173
     0
176
     1
1001
ACAD
1000
AcDbSavedByObjectVersion
1070
     0
  0
VISUALSTYLE
  5
3D
102
{ACAD_XDICTIONARY
360
16A
102
}
102
{ACAD_REACTORS
330
29
102
}
330
29
100
AcDbVisualStyle
  2
Shaded with edges
 70
    26
177
     2
291
     0
 71
     2
176
     1
 72
     2
176
     1
 73
     1
176
     1
 90
        2
176
     1
 40
0.6
176
     1
 41
30.0
176
     1
 63
     7
421
 16777215
176
     1
 74
     1
176
     1
 91
        2
176
     1
 64
     7
176
     1
 65
   257
176
     1
 75
     2
176
     1
175
     1
176
     1
 42
1.0
176
     1
 92
        8
176
     1
 66
   257
176
     1
 43
1.0
176
     1
 76
     1
176
     1
 77
     6
176
     1
 78
     2
176
     1
 67
     7
176
     1
 79
     3
176
     1
170
     0
176
     1
171
     0
176
     1
290
     0
176
     1
 93
        5
176
     1
 44
0.0
176
     1
173
     0
176
     1
1001
ACAD
1000
AcDbSavedByObjectVersion
1070
     0
  0
VISUALSTYLE
  5
3A
102
{ACAD_XDICTIONARY
360
164
102
}
102
{ACAD_REACTORS
330
29
102
}
330
29
100
AcDbVisualStyle
  2
Shades of Gray
 70
    23
177
     2
291
     0
 71
     2
176
     1
 72
     2
176
     1
 73
     3
176
     1
 90
        0
176
     1
 40
0.6
176
     1
 41
30.0
176
     1
 63
     7
421
 16777215
176
     1
 74
     2
176
     1
 91
        2
176
     1
 64
     7
176
     1
 65
     7
176
     1
 75
     1
176
     1
175
     1
176
     1
 42
40.0
176
     1
 92
        8
176
     1
 66
     7
176
     1
 43
1.0
176
     1
 76
     1
176
     1
 77
     6
176
     1
 78
     2
176
     1
 67
     7
176
     1
 79
     3
176
     1
170
     0
176
     1
171
     0
176
     1
290
     0
176
     1
 93
        1
176
     1
 44
0.0
176
     1
173
     0
176
     1
1001
ACAD
1000
AcDbSavedByObjectVersion
1070
     0
  0
VISUALSTYLE
  5
3B
102
{ACAD_XDICTIONARY
360
166
102
}
102
{ACAD_REACTORS
330
29
102
}
330
29
100
AcDbVisualStyle
  2
Sketchy
 70
    24
177
     2
291
     0
 71
     1
176
     1
 72
     2
176
     1
 73
     2
176
     1
 90
        0
176
     1
 40
0.6
176
     1
 41
30.0
176
     1
 63
     7
421
 16777215
176
     1
 74
     2
176
     1
 91
        2
176
     1
 64
     7
176
     1
 65
     7
176
     1
 75
     1
176
     1
175
     1
176
     1
 42
40.0
176
     1
 92
       11
176
     1
 66
     7
176
     1
 43
1.0
176
     1
 76
     1
176
     1
 77
     6
176
     1
 78
     2
176
     1
 67
     7
176
     1
 79
     6
176
     1
170
     0
176
     1
171
     0
176
     1
290
     0
176
     1
 93
        1
176
     1
 44
0.0
176
     1
173
     0
176
     1
1001
ACAD
1000
AcDbSavedByObjectVersion
1070
     0
  0
VISUALSTYLE
  5
36
102
{ACAD_XDICTIONARY
360
15C
102
}
102
{ACAD_REACTORS
330
29
102
}
330
29
100
AcDbVisualStyle
  2
Thicken
 70
    13
177
     2
291
     1
 71
     2
176
     1
 72
     2
176
     1
 73
     0
176
     1
 90
        0
176
     1
 40
0.6
176
     1
 41
30.0
176
     1
 63
     7
421
 16777215
176
     1
 74
     1
176
     1
 91
        4
176
     1
 64
     7
176
     1
 65
   257
176
     1
 75
     1
176
     1
175
     1
176
     1
 42
1.0
176
     1
 92
       12
176
     1
 66
     7
176
     1
 43
1.0
176
     1
 76
     1
176
     1
 77
     6
176
     1
 78
     2
176
     1
 67
     7
176
     1
 79
     5
176
     1
170
     0
176
     1
171
     0
176
     1
290
     0
176
     1
 93
        1
176
     1
 44
0.0
176
     1
173
     0
176
     1
1001
ACAD
1000
AcDbSavedByObjectVersion
1070
     0
  0
VISUALSTYLE
  5
30
102
{ACAD_XDICTIONARY
360
150
102
}
102
{ACAD_REACTORS
330
29
102
}
330
29
100
AcDbVisualStyle
  2
Wireframe
 70
     5
177
     2
291
     0
 71
     0
176
     1
 72
     2
176
     1
 73
     0
176
     1
 90
        0
176
     1
 40
0.6
176
     1
 41
30.0
176
     1
 63
     7
421
 16777215
176
     1
 74
     1
176
     1
 91
        4
176
     1
 64
     7
176
     1
 65
   257
176
     1
 75
     1
176
     1
175
     1
176
     1
 42
1.0
176
     1
 92
        0
176
     1
 66
   257
176
     1
 43
1.0
176
     1
 76
     1
176
     1
 77
     6
176
     1
 78
     2
176
     1
 67
     7
176
     1
 79
     3
176
     1
170
     0
176
     1
171
     0
176
     1
290
     0
176
     1
 93
        1
176
     1
 44
0.0
176
     1
173
     0
176
     1
1001
ACAD
1000
AcDbSavedByObjectVersion
1070
     0
  0
VISUALSTYLE
  5
3C
102
{ACAD_XDICTIONARY
360
168
102
}
102
{ACAD_REACTORS
330
29
102
}
330
29
100
AcDbVisualStyle
  2
X-Ray
 70
    25
177
     2
291
     0
 71
     2
176
     1
 72
     2
176
     1
 73
     1
176
     1
 90
        1
176
     1
 40
0.5
176
     1
 41
30.0
176
     1
 63
     7
421
 16777215
176
     1
 74
     1
176
     1
 91
        0
176
     1
 64
     7
176
     1
 65
   257
176
     1
 75
     1
176
     1
175
     1
176
     1
 42
1.0
176
     1
 92
        8
176
     1
 66
     7
176
     1
 43
1.0
176
     1
 76
     1
176
     1
 77
     6
176
     1
 78
     2
176
     1
 67
     7
176
     1
 79
     3
176
     1
170
     0
176
     1
171
     0
176
     1
290
     0
176
     1
 93
       13
176
     1
 44
0.0
176
     1
173
     0
176
     1
1001
ACAD
1000
AcDbSavedByObjectVersion
1070
     0
  0
DICTIONARYVAR
  5
140
102
{ACAD_REACTORS
330
13B
102
}
330
13B
100
DictionaryVariables
280
     0
  1
1:1
  0
DICTIONARYVAR
  5
13D
102
{ACAD_REACTORS
330
13B
102
}
330
13B
100
DictionaryVariables
280
     0
  1
STANDARD
  0
DICTIONARYVAR
  5
13C
102
{ACAD_REACTORS
330
13B
102
}
330
13B
100
DictionaryVariables
280
     0
  1
STANDARD
  0
DICTIONARYVAR
  5
13E
102
{ACAD_REACTORS
330
13B
102
}
330
13B
100
DictionaryVariables
280
     0
  1
Imperial24
  0
DICTIONARYVAR
  5
13F
102
{ACAD_REACTORS
330
13B
102
}
330
13B
100
DictionaryVariables
280
     0
  1
Imperial24
  0
DICTIONARY
  5
178
330
6B
100
AcDbDictionary
280
     1
281
     1
  3
ACAD_XREC_ROUNDTRIP
360
179
  0
DICTIONARY
  5
1A
330
19
100
AcDbDictionary
280
     1
281
     1
  3
BUMPTILE
360
1C
  3
DIFFUSETILE
360
1B
  3
OPACITYTILE
360
1F
  3
REFLECTIONTILE
360
1E
  3
REFRACTIONTILE
360
20
  3
SPECULARTILE
360
1D
  0
DICTIONARY
  5
12
330
11
100
AcDbDictionary
280
     1
281
     1
  3
BUMPTILE
360
14
  3
DIFFUSETILE
360
13
  3
OPACITYTILE
360
17
  3
REFLECTIONTILE
360
16
  3
REFRACTIONTILE
360
18
  3
SPECULARTILE
360
15
  0
DICTIONARY
  5
22
330
21
100
AcDbDictionary
280
     1
281
     1
  3
BUMPTILE
360
24
  3
DIFFUSETILE
360
23
  3
OPACITYTILE
360
27
  3
REFLECTIONTILE
360
26
  3
REFRACTIONTILE
360
28
  3
SPECULARTILE
360
25
  0
DICTIONARY
  5
174
330
67
100
AcDbDictionary
280
     1
281
     1
  3
ACAD_XREC_ROUNDTRIP
360
175
  0
DICTIONARY
  5
176
330
69
100
AcDbDictionary
280
     1
281
     1
  3
ACAD_XREC_ROUNDTRIP
360
177
  0
DICTIONARY
  5
141
330
65
100
AcDbDictionary
280
     1
281
     1
  3
ACAD_ROUNDTRIP_2008_TABLESTYLE_CELLSTYLEMAP
360
142
  0
DICTIONARY
  5
14E
330
2F
100
AcDbDictionary
280
     1
281
     1
  3
ACAD_XREC_ROUNDTRIP
360
14F
  0
DICTIONARY
  5
14C
330
2E
100
AcDbDictionary
280
     1
281
     1
  3
ACAD_XREC_ROUNDTRIP
360
14D
  0
DICTIONARY
  5
15A
330
35
100
AcDbDictionary
280
     1
281
     1
  3
ACAD_XREC_ROUNDTRIP
360
15B
  0
DICTIONARY
  5
162
330
39
100
AcDbDictionary
280
     1
281
     1
  3
ACAD_XREC_ROUNDTRIP
360
163
  0
DICTIONARY
  5
154
330
32
100
AcDbDictionary
280
     1
281
     1
  3
ACAD_XREC_ROUNDTRIP
360
155
  0
DICTIONARY
  5
158
330
34
100
AcDbDictionary
280
     1
281
     1
  3
ACAD_XREC_ROUNDTRIP
360
159
  0
DICTIONARY
  5
172
330
41
100
AcDbDictionary
280
     1
281
     1
  3
ACAD_XREC_ROUNDTRIP
360
173
  0
DICTIONARY
  5
160
330
38
100
AcDbDictionary
280
     1
281
     1
  3
ACAD_XREC_ROUNDTRIP
360
161
  0
DICTIONARY
  5
144
330
2A
100
AcDbDictionary
280
     1
281
     1
  3
ACAD_XREC_ROUNDTRIP
360
145
  0
DICTIONARY
  5
146
330
2B
100
AcDbDictionary
280
     1
281
     1
  3
ACAD_XREC_ROUNDTRIP
360
147
  0
DICTIONARY
  5
148
330
2C
100
AcDbDictionary
280
     1
281
     1
  3
ACAD_XREC_ROUNDTRIP
360
149
  0
DICTIONARY
  5
14A
330
2D
100
AcDbDictionary
280
     1
281
     1
  3
ACAD_XREC_ROUNDTRIP
360
14B
  0
DICTIONARY
  5
152
330
31
100
AcDbDictionary
280
     1
281
     1
  3
ACAD_XREC_ROUNDTRIP
360
153
  0
DICTIONARY
  5
16E
330
3F
100
AcDbDictionary
280
     1
281
     1
  3
ACAD_XREC_ROUNDTRIP
360
16F
  0
DICTIONARY
  5
15E
330
37
100
AcDbDictionary
280
     1
281
     1
  3
ACAD_XREC_ROUNDTRIP
360
15F
  0
DICTIONARY
  5
170
330
40
100
AcDbDictionary
280
     1
281
     1
  3
ACAD_XREC_ROUNDTRIP
360
171
  0
DICTIONARY
  5
156
330
33
100
AcDbDictionary
280
     1
281
     1
  3
ACAD_XREC_ROUNDTRIP
360
157
  0
DICTIONARY
  5
16C
330
3E
100
AcDbDictionary
280
     1
281
     1
  3
ACAD_XREC_ROUNDTRIP
360
16D
  0
DICTIONARY
  5
16A
330
3D
100
AcDbDictionary
280
     1
281
     1
  3
ACAD_XREC_ROUNDTRIP
360
16B
  0
DICTIONARY
  5
164
330
3A
100
AcDbDictionary
280
     1
281
     1
  3
ACAD_XREC_ROUNDTRIP
360
165
  0
DICTIONARY
  5
166
330
3B
100
AcDbDictionary
280
     1
281
     1
  3
ACAD_XREC_ROUNDTRIP
360
167
  0
DICTIONARY
  5
15C
330
36
100
AcDbDictionary
280
     1
281
     1
  3
ACAD_XREC_ROUNDTRIP
360
15D
  0
DICTIONARY
  5
150
330
30
100
AcDbDictionary
280
     1
281
     1
  3
ACAD_XREC_ROUNDTRIP
360
151
  0
DICTIONARY
  5
168
330
3C
100
AcDbDictionary
280
     1
281
     1
  3
ACAD_XREC_ROUNDTRIP
360
169
  0
XRECORD
  5
179
102
{ACAD_REACTORS
330
178
102
}
330
178
100
AcDbXrecord
280
     1
102
DISPLAYNAME
  1
Imperial24
102
FLAGS
 90
        0
  0
XRECORD
  5
1C
102
{ACAD_REACTORS
330
1A
102
}
330
1A
100
AcDbXrecord
280
     1
270
     1
271
     1
  0
XRECORD
  5
1B
102
{ACAD_REACTORS
330
1A
102
}
330
1A
100
AcDbXrecord
280
     1
270
     1
271
     1
  0
XRECORD
  5
1F
102
{ACAD_REACTORS
330
1A
102
}
330
1A
100
AcDbXrecord
280
     1
270
     1
271
     1
  0
XRECORD
  5
1E
102
{ACAD_REACTORS
330
1A
102
}
330
1A
100
AcDbXrecord
280
     1
270
     1
271
     1
  0
XRECORD
  5
20
102
{ACAD_REACTORS
330
1A
102
}
330
1A
100
AcDbXrecord
280
     1
270
     1
271
     1
  0
XRECORD
  5
1D
102
{ACAD_REACTORS
330
1A
102
}
330
1A
100
AcDbXrecord
280
     1
270
     1
271
     1
  0
XRECORD
  5
14
102
{ACAD_REACTORS
330
12
102
}
330
12
100
AcDbXrecord
280
     1
270
     1
271
     1
  0
XRECORD
  5
13
102
{ACAD_REACTORS
330
12
102
}
330
12
100
AcDbXrecord
280
     1
270
     1
271
     1
  0
XRECORD
  5
17
102
{ACAD_REACTORS
330
12
102
}
330
12
100
AcDbXrecord
280
     1
270
     1
271
     1
  0
XRECORD
  5
16
102
{ACAD_REACTORS
330
12
102
}
330
12
100
AcDbXrecord
280
     1
270
     1
271
     1
  0
XRECORD
  5
18
102
{ACAD_REACTORS
330
12
102
}
330
12
100
AcDbXrecord
280
     1
270
     1
271
     1
  0
XRECORD
  5
15
102
{ACAD_REACTORS
330
12
102
}
330
12
100
AcDbXrecord
280
     1
270
     1
271
     1
  0
XRECORD
  5
24
102
{ACAD_REACTORS
330
22
102
}
330
22
100
AcDbXrecord
280
     1
270
     1
271
     1
  0
XRECORD
  5
23
102
{ACAD_REACTORS
330
22
102
}
330
22
100
AcDbXrecord
280
     1
270
     1
271
     1
  0
XRECORD
  5
27
102
{ACAD_REACTORS
330
22
102
}
330
22
100
AcDbXrecord
280
     1
270
     1
271
     1
  0
XRECORD
  5
26
102
{ACAD_REACTORS
330
22
102
}
330
22
100
AcDbXrecord
280
     1
270
     1
271
     1
  0
XRECORD
  5
28
102
{ACAD_REACTORS
330
22
102
}
330
22
100
AcDbXrecord
280
     1
270
     1
271
     1
  0
XRECORD
  5
25
102
{ACAD_REACTORS
330
22
102
}
330
22
100
AcDbXrecord
280
     1
270
     1
271
     1
  0
XRECORD
  5
175
102
{ACAD_REACTORS
330
174
102
}
330
174
100
AcDbXrecord
280
     1
102
ACAD_ROUNDTRIP_2012_MLEADER_STYLE
298
     1
  0
XRECORD
  5
177
102
{ACAD_REACTORS
330
176
102
}
330
176
100
AcDbXrecord
280
     1
102
DISPLAYNAME
  1
Imperial24
102
FLAGS
 90
        0
  0
CELLSTYLEMAP
  5
142
102
{ACAD_REACTORS
330
141
102
}
330
141
100
AcDbCellStyleMap
 90
        3
300
CELLSTYLE
  1
TABLEFORMAT_BEGIN
 90
        5
170
     1
 91
        0
 92
    32768
 62
   257
 93
        1
300
CONTENTFORMAT
  1
CONTENTFORMAT_BEGIN
 90
        0
 91
        0
 92
      512
 93
        0
300

 40
0.0
140
1.0
 94
        5
 62
     0
340
55
144
0.25
309
CONTENTFORMAT_END
171
     0
 94
        0
309
TABLEFORMAT_END
  1
CELLSTYLE_BEGIN
 90
        1
 91
        1
300
_TITLE
309
CELLSTYLE_END
300
CELLSTYLE
  1
TABLEFORMAT_BEGIN
 90
        5
170
     1
 91
        0
 92
        0
 62
   257
 93
        1
300
CONTENTFORMAT
  1
CONTENTFORMAT_BEGIN
 90
        0
 91
        0
 92
      512
 93
        0
300

 40
0.0
140
1.0
 94
        5
 62
     0
340
55
144
0.18
309
CONTENTFORMAT_END
171
     0
 94
        0
309
TABLEFORMAT_END
  1
CELLSTYLE_BEGIN
 90
        2
 91
        1
300
_HEADER
309
CELLSTYLE_END
300
CELLSTYLE
  1
TABLEFORMAT_BEGIN
 90
        5
170
     1
 91
        0
 92
        0
 62
   257
 93
        1
300
CONTENTFORMAT
  1
CONTENTFORMAT_BEGIN
 90
        0
 91
        0
 92
      512
 93
        0
300

 40
0.0
140
1.0
 94
        2
 62
     0
340
55
144
0.18
309
CONTENTFORMAT_END
171
     0
 94
        0
309
TABLEFORMAT_END
  1
CELLSTYLE_BEGIN
 90
        3
 91
        2
300
_DATA
309
CELLSTYLE_END
  0
XRECORD
  5
14F
102
{ACAD_REACTORS
330
14E
102
}
330
14E
100
AcDbXrecord
280
     1
102
RTVSPost2010Prop28
280
     1
102
RTVSPost2010PropOp28
 70
     1
102
RTVSPost2010Prop29
280
     1
102
RTVSPost2010PropOp29
 70
     1
102
RTVSPost2010Prop30
280
     0
102
RTVSPost2010PropOp30
 70
     1
102
RTVSPost2010Prop31
280
     0
102
RTVSPost2010PropOp31
 70
     1
102
RTVSPost2010Prop32
280
     0
102
RTVSPost2010PropOp32
 70
     1
102
RTVSPost2010Prop33
280
     0
102
RTVSPost2010PropOp33
 70
     1
102
RTVSPost2010Prop34
280
     0
102
RTVSPost2010PropOp34
 70
     1
102
RTVSPost2010Prop35
280
     0
102
RTVSPost2010PropOp35
 70
     1
102
RTVSPost2010Prop36
280
     0
102
RTVSPost2010PropOp36
 70
     1
102
RTVSPost2010Prop37
 90
       50
102
RTVSPost2010PropOp37
 70
     1
102
RTVSPost2010Prop38
140
0.0
102
RTVSPost2010PropOp38
 70
     1
102
RTVSPost2010Prop39
140
1.0
102
RTVSPost2010PropOp39
 70
     1
102
RTVSPost2010Prop40
 90
        0
102
RTVSPost2010PropOp40
 70
     1
102
RTVSPost2010Prop41ColorIndex
 90
       18
102
RTVSPost2010Prop41ColorRGB
 90
        0
102
RTVSPost2010PropOp41
 70
     1
102
RTVSPost2010Prop42
 90
       50
102
RTVSPost2010PropOp42
 70
     1
102
RTVSPost2010Prop43
 90
        3
102
RTVSPost2010PropOp43
 70
     1
102
RTVSPost2010Prop44ColorIndex
 90
        5
102
RTVSPost2010Prop44ColorRGB
 90
      255
102
RTVSPost2010PropOp44
 70
     1
102
RTVSPost2010Prop45
280
     0
102
RTVSPost2010PropOp45
 70
     1
102
RTVSPost2010Prop46
 90
       50
102
RTVSPost2010PropOp46
 70
     1
102
RTVSPost2010Prop47
 90
       50
102
RTVSPost2010PropOp47
 70
     1
102
RTVSPost2010Prop48
 90
       50
102
RTVSPost2010PropOp48
 70
     1
102
RTVSPost2010Prop49
280
     0
102
RTVSPost2010PropOp49
 70
     1
102
RTVSPost2010Prop50
 90
       50
102
RTVSPost2010PropOp50
 70
     1
102
RTVSPost2010Prop51ColorIndex
 90
      256
102
RTVSPost2010Prop51ColorRGB
 90
-16777216
102
RTVSPost2010PropOp51
 70
     0
102
RTVSPost2010Prop52
140
1.0
102
RTVSPost2010PropOp52
 70
     0
102
RTVSPost2010Prop53
 90
        2
102
RTVSPost2010PropOp53
 70
     1
102
RTVSPost2010Prop54
  1
strokes_ogs.tif
102
RTVSPost2010PropOp54
 70
     1
102
RTVSPost2010Prop55
280
     0
102
RTVSPost2010PropOp55
 70
     1
102
RTVSPost2010Prop56
140
1.0
102
RTVSPost2010PropOp56
 70
     1
102
RTVSPost2010Prop57
140
1.0
102
RTVSPost2010PropOp57
 70
     1
  0
XRECORD
  5
14D
102
{ACAD_REACTORS
330
14C
102
}
330
14C
100
AcDbXrecord
280
     1
102
RTVSPost2010Prop28
280
     0
102
RTVSPost2010PropOp28
 70
     1
102
RTVSPost2010Prop29
280
     1
102
RTVSPost2010PropOp29
 70
     1
102
RTVSPost2010Prop30
280
     1
102
RTVSPost2010PropOp30
 70
     1
102
RTVSPost2010Prop31
280
     0
102
RTVSPost2010PropOp31
 70
     1
102
RTVSPost2010Prop32
280
     0
102
RTVSPost2010PropOp32
 70
     1
102
RTVSPost2010Prop33
280
     0
102
RTVSPost2010PropOp33
 70
     1
102
RTVSPost2010Prop34
280
     0
102
RTVSPost2010PropOp34
 70
     1
102
RTVSPost2010Prop35
280
     0
102
RTVSPost2010PropOp35
 70
     1
102
RTVSPost2010Prop36
280
     0
102
RTVSPost2010PropOp36
 70
     1
102
RTVSPost2010Prop37
 90
       50
102
RTVSPost2010PropOp37
 70
     1
102
RTVSPost2010Prop38
140
0.0
102
RTVSPost2010PropOp38
 70
     1
102
RTVSPost2010Prop39
140
1.0
102
RTVSPost2010PropOp39
 70
     1
102
RTVSPost2010Prop40
 90
        0
102
RTVSPost2010PropOp40
 70
     1
102
RTVSPost2010Prop41ColorIndex
 90
       18
102
RTVSPost2010Prop41ColorRGB
 90
        0
102
RTVSPost2010PropOp41
 70
     1
102
RTVSPost2010Prop42
 90
       50
102
RTVSPost2010PropOp42
 70
     1
102
RTVSPost2010Prop43
 90
        3
102
RTVSPost2010PropOp43
 70
     1
102
RTVSPost2010Prop44ColorIndex
 90
        5
102
RTVSPost2010Prop44ColorRGB
 90
      255
102
RTVSPost2010PropOp44
 70
     1
102
RTVSPost2010Prop45
280
     0
102
RTVSPost2010PropOp45
 70
     1
102
RTVSPost2010Prop46
 90
       50
102
RTVSPost2010PropOp46
 70
     1
102
RTVSPost2010Prop47
 90
       50
102
RTVSPost2010PropOp47
 70
     1
102
RTVSPost2010Prop48
 90
       50
102
RTVSPost2010PropOp48
 70
     1
102
RTVSPost2010Prop49
280
     0
102
RTVSPost2010PropOp49
 70
     1
102
RTVSPost2010Prop50
 90
       50
102
RTVSPost2010PropOp50
 70
     1
102
RTVSPost2010Prop51ColorIndex
 90
      256
102
RTVSPost2010Prop51ColorRGB
 90
-16777216
102
RTVSPost2010PropOp51
 70
     0
102
RTVSPost2010Prop52
140
1.0
102
RTVSPost2010PropOp52
 70
     0
102
RTVSPost2010Prop53
 90
        2
102
RTVSPost2010PropOp53
 70
     1
102
RTVSPost2010Prop54
  1
strokes_ogs.tif
102
RTVSPost2010PropOp54
 70
     1
102
RTVSPost2010Prop55
280
     0
102
RTVSPost2010PropOp55
 70
     1
102
RTVSPost2010Prop56
140
1.0
102
RTVSPost2010PropOp56
 70
     1
102
RTVSPost2010Prop57
140
1.0
102
RTVSPost2010PropOp57
 70
     1
  0
XRECORD
  5
15B
102
{ACAD_REACTORS
330
15A
102
}
330
15A
100
AcDbXrecord
280
     1
102
RTVSPost2010Prop28
280
     0
102
RTVSPost2010PropOp28
 70
     1
102
RTVSPost2010Prop29
280
     1
102
RTVSPost2010PropOp29
 70
     1
102
RTVSPost2010Prop30
280
     1
102
RTVSPost2010PropOp30
 70
     1
102
RTVSPost2010Prop31
280
     0
102
RTVSPost2010PropOp31
 70
     1
102
RTVSPost2010Prop32
280
     0
102
RTVSPost2010PropOp32
 70
     1
102
RTVSPost2010Prop33
280
     0
102
RTVSPost2010PropOp33
 70
     1
102
RTVSPost2010Prop34
280
     0
102
RTVSPost2010PropOp34
 70
     1
102
RTVSPost2010Prop35
280
     0
102
RTVSPost2010PropOp35
 70
     1
102
RTVSPost2010Prop36
280
     0
102
RTVSPost2010PropOp36
 70
     1
102
RTVSPost2010Prop37
 90
       50
102
RTVSPost2010PropOp37
 70
     1
102
RTVSPost2010Prop38
140
0.0
102
RTVSPost2010PropOp38
 70
     1
102
RTVSPost2010Prop39
140
1.0
102
RTVSPost2010PropOp39
 70
     1
102
RTVSPost2010Prop40
 90
        0
102
RTVSPost2010PropOp40
 70
     1
102
RTVSPost2010Prop41ColorIndex
 90
       18
102
RTVSPost2010Prop41ColorRGB
 90
        0
102
RTVSPost2010PropOp41
 70
     1
102
RTVSPost2010Prop42
 90
       50
102
RTVSPost2010PropOp42
 70
     1
102
RTVSPost2010Prop43
 90
        3
102
RTVSPost2010PropOp43
 70
     1
102
RTVSPost2010Prop44ColorIndex
 90
        5
102
RTVSPost2010Prop44ColorRGB
 90
      255
102
RTVSPost2010PropOp44
 70
     1
102
RTVSPost2010Prop45
280
     0
102
RTVSPost2010PropOp45
 70
     1
102
RTVSPost2010Prop46
 90
       50
102
RTVSPost2010PropOp46
 70
     1
102
RTVSPost2010Prop47
 90
       50
102
RTVSPost2010PropOp47
 70
     1
102
RTVSPost2010Prop48
 90
       50
102
RTVSPost2010PropOp48
 70
     1
102
RTVSPost2010Prop49
280
     0
102
RTVSPost2010PropOp49
 70
     1
102
RTVSPost2010Prop50
 90
       50
102
RTVSPost2010PropOp50
 70
     1
102
RTVSPost2010Prop51ColorIndex
 90
      256
102
RTVSPost2010Prop51ColorRGB
 90
-16777216
102
RTVSPost2010PropOp51
 70
     0
102
RTVSPost2010Prop52
140
1.0
102
RTVSPost2010PropOp52
 70
     0
102
RTVSPost2010Prop53
 90
        2
102
RTVSPost2010PropOp53
 70
     1
102
RTVSPost2010Prop54
  1
strokes_ogs.tif
102
RTVSPost2010PropOp54
 70
     1
102
RTVSPost2010Prop55
280
     0
102
RTVSPost2010PropOp55
 70
     1
102
RTVSPost2010Prop56
140
1.0
102
RTVSPost2010PropOp56
 70
     1
102
RTVSPost2010Prop57
140
1.0
102
RTVSPost2010PropOp57
 70
     1
  0
XRECORD
  5
163
102
{ACAD_REACTORS
330
162
102
}
330
162
100
AcDbXrecord
280
     1
102
RTVSPost2010Prop28
280
     0
102
RTVSPost2010PropOp28
 70
     1
102
RTVSPost2010Prop29
280
     1
102
RTVSPost2010PropOp29
 70
     1
102
RTVSPost2010Prop30
280
     1
102
RTVSPost2010PropOp30
 70
     1
102
RTVSPost2010Prop31
280
     0
102
RTVSPost2010PropOp31
 70
     1
102
RTVSPost2010Prop32
280
     0
102
RTVSPost2010PropOp32
 70
     1
102
RTVSPost2010Prop33
280
     0
102
RTVSPost2010PropOp33
 70
     1
102
RTVSPost2010Prop34
280
     0
102
RTVSPost2010PropOp34
 70
     1
102
RTVSPost2010Prop35
280
     0
102
RTVSPost2010PropOp35
 70
     1
102
RTVSPost2010Prop36
280
     0
102
RTVSPost2010PropOp36
 70
     1
102
RTVSPost2010Prop37
 90
       50
102
RTVSPost2010PropOp37
 70
     1
102
RTVSPost2010Prop38
140
0.0
102
RTVSPost2010PropOp38
 70
     1
102
RTVSPost2010Prop39
140
1.0
102
RTVSPost2010PropOp39
 70
     1
102
RTVSPost2010Prop40
 90
        0
102
RTVSPost2010PropOp40
 70
     1
102
RTVSPost2010Prop41ColorIndex
 90
       18
102
RTVSPost2010Prop41ColorRGB
 90
        0
102
RTVSPost2010PropOp41
 70
     1
102
RTVSPost2010Prop42
 90
       50
102
RTVSPost2010PropOp42
 70
     1
102
RTVSPost2010Prop43
 90
        3
102
RTVSPost2010PropOp43
 70
     1
102
RTVSPost2010Prop44ColorIndex
 90
        5
102
RTVSPost2010Prop44ColorRGB
 90
      255
102
RTVSPost2010PropOp44
 70
     1
102
RTVSPost2010Prop45
280
     0
102
RTVSPost2010PropOp45
 70
     1
102
RTVSPost2010Prop46
 90
       50
102
RTVSPost2010PropOp46
 70
     1
102
RTVSPost2010Prop47
 90
       50
102
RTVSPost2010PropOp47
 70
     1
102
RTVSPost2010Prop48
 90
       50
102
RTVSPost2010PropOp48
 70
     1
102
RTVSPost2010Prop49
280
     0
102
RTVSPost2010PropOp49
 70
     1
102
RTVSPost2010Prop50
 90
       50
102
RTVSPost2010PropOp50
 70
     1
102
RTVSPost2010Prop51ColorIndex
 90
      256
102
RTVSPost2010Prop51ColorRGB
 90
-16777216
102
RTVSPost2010PropOp51
 70
     0
102
RTVSPost2010Prop52
140
1.0
102
RTVSPost2010PropOp52
 70
     0
102
RTVSPost2010Prop53
 90
        2
102
RTVSPost2010PropOp53
 70
     1
102
RTVSPost2010Prop54
  1
strokes_ogs.tif
102
RTVSPost2010PropOp54
 70
     1
102
RTVSPost2010Prop55
280
     0
102
RTVSPost2010PropOp55
 70
     1
102
RTVSPost2010Prop56
140
1.0
102
RTVSPost2010PropOp56
 70
     1
102
RTVSPost2010Prop57
140
1.0
102
RTVSPost2010PropOp57
 70
     1
  0
XRECORD
  5
155
102
{ACAD_REACTORS
330
154
102
}
330
154
100
AcDbXrecord
280
     1
102
RTVSPost2010Prop28
280
     0
102
RTVSPost2010PropOp28
 70
     1
102
RTVSPost2010Prop29
280
     1
102
RTVSPost2010PropOp29
 70
     1
102
RTVSPost2010Prop30
280
     1
102
RTVSPost2010PropOp30
 70
     1
102
RTVSPost2010Prop31
280
     0
102
RTVSPost2010PropOp31
 70
     1
102
RTVSPost2010Prop32
280
     0
102
RTVSPost2010PropOp32
 70
     1
102
RTVSPost2010Prop33
280
     0
102
RTVSPost2010PropOp33
 70
     1
102
RTVSPost2010Prop34
280
     0
102
RTVSPost2010PropOp34
 70
     1
102
RTVSPost2010Prop35
280
     0
102
RTVSPost2010PropOp35
 70
     1
102
RTVSPost2010Prop36
280
     0
102
RTVSPost2010PropOp36
 70
     1
102
RTVSPost2010Prop37
 90
       50
102
RTVSPost2010PropOp37
 70
     1
102
RTVSPost2010Prop38
140
0.0
102
RTVSPost2010PropOp38
 70
     1
102
RTVSPost2010Prop39
140
1.0
102
RTVSPost2010PropOp39
 70
     1
102
RTVSPost2010Prop40
 90
        0
102
RTVSPost2010PropOp40
 70
     1
102
RTVSPost2010Prop41ColorIndex
 90
       18
102
RTVSPost2010Prop41ColorRGB
 90
        0
102
RTVSPost2010PropOp41
 70
     1
102
RTVSPost2010Prop42
 90
       50
102
RTVSPost2010PropOp42
 70
     1
102
RTVSPost2010Prop43
 90
        3
102
RTVSPost2010PropOp43
 70
     1
102
RTVSPost2010Prop44ColorIndex
 90
        5
102
RTVSPost2010Prop44ColorRGB
 90
      255
102
RTVSPost2010PropOp44
 70
     1
102
RTVSPost2010Prop45
280
     0
102
RTVSPost2010PropOp45
 70
     1
102
RTVSPost2010Prop46
 90
       50
102
RTVSPost2010PropOp46
 70
     1
102
RTVSPost2010Prop47
 90
       50
102
RTVSPost2010PropOp47
 70
     1
102
RTVSPost2010Prop48
 90
       50
102
RTVSPost2010PropOp48
 70
     1
102
RTVSPost2010Prop49
280
     0
102
RTVSPost2010PropOp49
 70
     1
102
RTVSPost2010Prop50
 90
       50
102
RTVSPost2010PropOp50
 70
     1
102
RTVSPost2010Prop51ColorIndex
 90
      256
102
RTVSPost2010Prop51ColorRGB
 90
-16777216
102
RTVSPost2010PropOp51
 70
     0
102
RTVSPost2010Prop52
140
1.0
102
RTVSPost2010PropOp52
 70
     0
102
RTVSPost2010Prop53
 90
        2
102
RTVSPost2010PropOp53
 70
     1
102
RTVSPost2010Prop54
  1
strokes_ogs.tif
102
RTVSPost2010PropOp54
 70
     1
102
RTVSPost2010Prop55
280
     0
102
RTVSPost2010PropOp55
 70
     1
102
RTVSPost2010Prop56
140
1.0
102
RTVSPost2010PropOp56
 70
     1
102
RTVSPost2010Prop57
140
1.0
102
RTVSPost2010PropOp57
 70
     1
  0
XRECORD
  5
159
102
{ACAD_REACTORS
330
158
102
}
330
158
100
AcDbXrecord
280
     1
102
RTVSPost2010Prop28
280
     0
102
RTVSPost2010PropOp28
 70
     1
102
RTVSPost2010Prop29
280
     1
102
RTVSPost2010PropOp29
 70
     1
102
RTVSPost2010Prop30
280
     1
102
RTVSPost2010PropOp30
 70
     1
102
RTVSPost2010Prop31
280
     0
102
RTVSPost2010PropOp31
 70
     1
102
RTVSPost2010Prop32
280
     0
102
RTVSPost2010PropOp32
 70
     1
102
RTVSPost2010Prop33
280
     0
102
RTVSPost2010PropOp33
 70
     1
102
RTVSPost2010Prop34
280
     0
102
RTVSPost2010PropOp34
 70
     1
102
RTVSPost2010Prop35
280
     0
102
RTVSPost2010PropOp35
 70
     1
102
RTVSPost2010Prop36
280
     0
102
RTVSPost2010PropOp36
 70
     1
102
RTVSPost2010Prop37
 90
       50
102
RTVSPost2010PropOp37
 70
     1
102
RTVSPost2010Prop38
140
0.0
102
RTVSPost2010PropOp38
 70
     1
102
RTVSPost2010Prop39
140
1.0
102
RTVSPost2010PropOp39
 70
     1
102
RTVSPost2010Prop40
 90
        0
102
RTVSPost2010PropOp40
 70
     1
102
RTVSPost2010Prop41ColorIndex
 90
       18
102
RTVSPost2010Prop41ColorRGB
 90
        0
102
RTVSPost2010PropOp41
 70
     1
102
RTVSPost2010Prop42
 90
       50
102
RTVSPost2010PropOp42
 70
     1
102
RTVSPost2010Prop43
 90
        3
102
RTVSPost2010PropOp43
 70
     1
102
RTVSPost2010Prop44ColorIndex
 90
        5
102
RTVSPost2010Prop44ColorRGB
 90
      255
102
RTVSPost2010PropOp44
 70
     1
102
RTVSPost2010Prop45
280
     0
102
RTVSPost2010PropOp45
 70
     1
102
RTVSPost2010Prop46
 90
       50
102
RTVSPost2010PropOp46
 70
     1
102
RTVSPost2010Prop47
 90
       50
102
RTVSPost2010PropOp47
 70
     1
102
RTVSPost2010Prop48
 90
       50
102
RTVSPost2010PropOp48
 70
     1
102
RTVSPost2010Prop49
280
     0
102
RTVSPost2010PropOp49
 70
     1
102
RTVSPost2010Prop50
 90
       50
102
RTVSPost2010PropOp50
 70
     1
102
RTVSPost2010Prop51ColorIndex
 90
      256
102
RTVSPost2010Prop51ColorRGB
 90
-16777216
102
RTVSPost2010PropOp51
 70
     0
102
RTVSPost2010Prop52
140
1.0
102
RTVSPost2010PropOp52
 70
     0
102
RTVSPost2010Prop53
 90
        2
102
RTVSPost2010PropOp53
 70
     1
102
RTVSPost2010Prop54
  1
strokes_ogs.tif
102
RTVSPost2010PropOp54
 70
     1
102
RTVSPost2010Prop55
280
     0
102
RTVSPost2010PropOp55
 70
     1
102
RTVSPost2010Prop56
140
1.0
102
RTVSPost2010PropOp56
 70
     1
102
RTVSPost2010Prop57
140
1.0
102
RTVSPost2010PropOp57
 70
     1
  0
XRECORD
  5
173
102
{ACAD_REACTORS
330
172
102
}
330
172
100
AcDbXrecord
280
     1
102
RTVSPost2010Prop28
280
     0
102
RTVSPost2010PropOp28
 70
     0
102
RTVSPost2010Prop29
280
     1
102
RTVSPost2010PropOp29
 70
     0
102
RTVSPost2010Prop30
280
     1
102
RTVSPost2010PropOp30
 70
     0
102
RTVSPost2010Prop31
280
     0
102
RTVSPost2010PropOp31
 70
     0
102
RTVSPost2010Prop32
280
     0
102
RTVSPost2010PropOp32
 70
     0
102
RTVSPost2010Prop33
280
     0
102
RTVSPost2010PropOp33
 70
     0
102
RTVSPost2010Prop34
280
     0
102
RTVSPost2010PropOp34
 70
     0
102
RTVSPost2010Prop35
280
     0
102
RTVSPost2010PropOp35
 70
     0
102
RTVSPost2010Prop36
280
     0
102
RTVSPost2010PropOp36
 70
     0
102
RTVSPost2010Prop37
 90
       50
102
RTVSPost2010PropOp37
 70
     0
102
RTVSPost2010Prop38
140
0.0
102
RTVSPost2010PropOp38
 70
     0
102
RTVSPost2010Prop39
140
1.0
102
RTVSPost2010PropOp39
 70
     0
102
RTVSPost2010Prop40
 90
        0
102
RTVSPost2010PropOp40
 70
     0
102
RTVSPost2010Prop41ColorIndex
 90
       18
102
RTVSPost2010Prop41ColorRGB
 90
        0
102
RTVSPost2010PropOp41
 70
     0
102
RTVSPost2010Prop42
 90
       50
102
RTVSPost2010PropOp42
 70
     0
102
RTVSPost2010Prop43
 90
        3
102
RTVSPost2010PropOp43
 70
     0
102
RTVSPost2010Prop44ColorIndex
 90
        5
102
RTVSPost2010Prop44ColorRGB
 90
      255
102
RTVSPost2010PropOp44
 70
     0
102
RTVSPost2010Prop45
280
     0
102
RTVSPost2010PropOp45
 70
     0
102
RTVSPost2010Prop46
 90
       50
102
RTVSPost2010PropOp46
 70
     0
102
RTVSPost2010Prop47
 90
       50
102
RTVSPost2010PropOp47
 70
     0
102
RTVSPost2010Prop48
 90
       50
102
RTVSPost2010PropOp48
 70
     0
102
RTVSPost2010Prop49
280
     0
102
RTVSPost2010PropOp49
 70
     0
102
RTVSPost2010Prop50
 90
       50
102
RTVSPost2010PropOp50
 70
     0
102
RTVSPost2010Prop51ColorIndex
 90
      256
102
RTVSPost2010Prop51ColorRGB
 90
-16777216
102
RTVSPost2010PropOp51
 70
     0
102
RTVSPost2010Prop52
140
1.0
102
RTVSPost2010PropOp52
 70
     0
102
RTVSPost2010Prop53
 90
        2
102
RTVSPost2010PropOp53
 70
     0
102
RTVSPost2010Prop54
  1
strokes_ogs.tif
102
RTVSPost2010PropOp54
 70
     0
102
RTVSPost2010Prop55
280
     0
102
RTVSPost2010PropOp55
 70
     0
102
RTVSPost2010Prop56
140
1.0
102
RTVSPost2010PropOp56
 70
     0
102
RTVSPost2010Prop57
140
1.0
102
RTVSPost2010PropOp57
 70
     0
  0
XRECORD
  5
161
102
{ACAD_REACTORS
330
160
102
}
330
160
100
AcDbXrecord
280
     1
102
RTVSPost2010Prop28
280
     0
102
RTVSPost2010PropOp28
 70
     1
102
RTVSPost2010Prop29
280
     1
102
RTVSPost2010PropOp29
 70
     1
102
RTVSPost2010Prop30
280
     1
102
RTVSPost2010PropOp30
 70
     1
102
RTVSPost2010Prop31
280
     0
102
RTVSPost2010PropOp31
 70
     1
102
RTVSPost2010Prop32
280
     0
102
RTVSPost2010PropOp32
 70
     1
102
RTVSPost2010Prop33
280
     0
102
RTVSPost2010PropOp33
 70
     1
102
RTVSPost2010Prop34
280
     0
102
RTVSPost2010PropOp34
 70
     1
102
RTVSPost2010Prop35
280
     0
102
RTVSPost2010PropOp35
 70
     1
102
RTVSPost2010Prop36
280
     0
102
RTVSPost2010PropOp36
 70
     1
102
RTVSPost2010Prop37
 90
       50
102
RTVSPost2010PropOp37
 70
     1
102
RTVSPost2010Prop38
140
0.0
102
RTVSPost2010PropOp38
 70
     1
102
RTVSPost2010Prop39
140
1.0
102
RTVSPost2010PropOp39
 70
     1
102
RTVSPost2010Prop40
 90
        0
102
RTVSPost2010PropOp40
 70
     1
102
RTVSPost2010Prop41ColorIndex
 90
       18
102
RTVSPost2010Prop41ColorRGB
 90
        0
102
RTVSPost2010PropOp41
 70
     1
102
RTVSPost2010Prop42
 90
       50
102
RTVSPost2010PropOp42
 70
     1
102
RTVSPost2010Prop43
 90
        3
102
RTVSPost2010PropOp43
 70
     1
102
RTVSPost2010Prop44ColorIndex
 90
        5
102
RTVSPost2010Prop44ColorRGB
 90
      255
102
RTVSPost2010PropOp44
 70
     1
102
RTVSPost2010Prop45
280
     0
102
RTVSPost2010PropOp45
 70
     1
102
RTVSPost2010Prop46
 90
       50
102
RTVSPost2010PropOp46
 70
     1
102
RTVSPost2010Prop47
 90
       50
102
RTVSPost2010PropOp47
 70
     1
102
RTVSPost2010Prop48
 90
       50
102
RTVSPost2010PropOp48
 70
     1
102
RTVSPost2010Prop49
280
     0
102
RTVSPost2010PropOp49
 70
     1
102
RTVSPost2010Prop50
 90
       50
102
RTVSPost2010PropOp50
 70
     1
102
RTVSPost2010Prop51ColorIndex
 90
      256
102
RTVSPost2010Prop51ColorRGB
 90
-16777216
102
RTVSPost2010PropOp51
 70
     0
102
RTVSPost2010Prop52
140
1.0
102
RTVSPost2010PropOp52
 70
     0
102
RTVSPost2010Prop53
 90
        2
102
RTVSPost2010PropOp53
 70
     1
102
RTVSPost2010Prop54
  1
strokes_ogs.tif
102
RTVSPost2010PropOp54
 70
     1
102
RTVSPost2010Prop55
280
     0
102
RTVSPost2010PropOp55
 70
     1
102
RTVSPost2010Prop56
140
1.0
102
RTVSPost2010PropOp56
 70
     1
102
RTVSPost2010Prop57
140
1.0
102
RTVSPost2010PropOp57
 70
     1
  0
XRECORD
  5
145
102
{ACAD_REACTORS
330
144
102
}
330
144
100
AcDbXrecord
280
     1
102
RTVSPost2010Prop28
280
     0
102
RTVSPost2010PropOp28
 70
     1
102
RTVSPost2010Prop29
280
     1
102
RTVSPost2010PropOp29
 70
     1
102
RTVSPost2010Prop30
280
     1
102
RTVSPost2010PropOp30
 70
     1
102
RTVSPost2010Prop31
280
     0
102
RTVSPost2010PropOp31
 70
     1
102
RTVSPost2010Prop32
280
     0
102
RTVSPost2010PropOp32
 70
     1
102
RTVSPost2010Prop33
280
     0
102
RTVSPost2010PropOp33
 70
     1
102
RTVSPost2010Prop34
280
     0
102
RTVSPost2010PropOp34
 70
     1
102
RTVSPost2010Prop35
280
     0
102
RTVSPost2010PropOp35
 70
     1
102
RTVSPost2010Prop36
280
     0
102
RTVSPost2010PropOp36
 70
     1
102
RTVSPost2010Prop37
 90
       50
102
RTVSPost2010PropOp37
 70
     1
102
RTVSPost2010Prop38
140
0.0
102
RTVSPost2010PropOp38
 70
     1
102
RTVSPost2010Prop39
140
1.0
102
RTVSPost2010PropOp39
 70
     1
102
RTVSPost2010Prop40
 90
        0
102
RTVSPost2010PropOp40
 70
     1
102
RTVSPost2010Prop41ColorIndex
 90
       18
102
RTVSPost2010Prop41ColorRGB
 90
        0
102
RTVSPost2010PropOp41
 70
     1
102
RTVSPost2010Prop42
 90
       50
102
RTVSPost2010PropOp42
 70
     1
102
RTVSPost2010Prop43
 90
        3
102
RTVSPost2010PropOp43
 70
     1
102
RTVSPost2010Prop44ColorIndex
 90
        5
102
RTVSPost2010Prop44ColorRGB
 90
      255
102
RTVSPost2010PropOp44
 70
     1
102
RTVSPost2010Prop45
280
     0
102
RTVSPost2010PropOp45
 70
     1
102
RTVSPost2010Prop46
 90
       50
102
RTVSPost2010PropOp46
 70
     1
102
RTVSPost2010Prop47
 90
       50
102
RTVSPost2010PropOp47
 70
     1
102
RTVSPost2010Prop48
 90
       50
102
RTVSPost2010PropOp48
 70
     1
102
RTVSPost2010Prop49
280
     0
102
RTVSPost2010PropOp49
 70
     1
102
RTVSPost2010Prop50
 90
       50
102
RTVSPost2010PropOp50
 70
     1
102
RTVSPost2010Prop51ColorIndex
 90
      256
102
RTVSPost2010Prop51ColorRGB
 90
-16777216
102
RTVSPost2010PropOp51
 70
     0
102
RTVSPost2010Prop52
140
1.0
102
RTVSPost2010PropOp52
 70
     0
102
RTVSPost2010Prop53
 90
        2
102
RTVSPost2010PropOp53
 70
     1
102
RTVSPost2010Prop54
  1
strokes_ogs.tif
102
RTVSPost2010PropOp54
 70
     1
102
RTVSPost2010Prop55
280
     0
102
RTVSPost2010PropOp55
 70
     1
102
RTVSPost2010Prop56
140
1.0
102
RTVSPost2010PropOp56
 70
     1
102
RTVSPost2010Prop57
140
1.0
102
RTVSPost2010PropOp57
 70
     1
  0
XRECORD
  5
147
102
{ACAD_REACTORS
330
146
102
}
330
146
100
AcDbXrecord
280
     1
102
RTVSPost2010Prop28
280
     0
102
RTVSPost2010PropOp28
 70
     1
102
RTVSPost2010Prop29
280
     1
102
RTVSPost2010PropOp29
 70
     1
102
RTVSPost2010Prop30
280
     1
102
RTVSPost2010PropOp30
 70
     1
102
RTVSPost2010Prop31
280
     0
102
RTVSPost2010PropOp31
 70
     1
102
RTVSPost2010Prop32
280
     0
102
RTVSPost2010PropOp32
 70
     1
102
RTVSPost2010Prop33
280
     0
102
RTVSPost2010PropOp33
 70
     1
102
RTVSPost2010Prop34
280
     0
102
RTVSPost2010PropOp34
 70
     1
102
RTVSPost2010Prop35
280
     0
102
RTVSPost2010PropOp35
 70
     1
102
RTVSPost2010Prop36
280
     0
102
RTVSPost2010PropOp36
 70
     1
102
RTVSPost2010Prop37
 90
       50
102
RTVSPost2010PropOp37
 70
     1
102
RTVSPost2010Prop38
140
0.0
102
RTVSPost2010PropOp38
 70
     1
102
RTVSPost2010Prop39
140
1.0
102
RTVSPost2010PropOp39
 70
     1
102
RTVSPost2010Prop40
 90
        0
102
RTVSPost2010PropOp40
 70
     1
102
RTVSPost2010Prop41ColorIndex
 90
       18
102
RTVSPost2010Prop41ColorRGB
 90
        0
102
RTVSPost2010PropOp41
 70
     1
102
RTVSPost2010Prop42
 90
       50
102
RTVSPost2010PropOp42
 70
     1
102
RTVSPost2010Prop43
 90
        3
102
RTVSPost2010PropOp43
 70
     1
102
RTVSPost2010Prop44ColorIndex
 90
        5
102
RTVSPost2010Prop44ColorRGB
 90
      255
102
RTVSPost2010PropOp44
 70
     1
102
RTVSPost2010Prop45
280
     0
102
RTVSPost2010PropOp45
 70
     1
102
RTVSPost2010Prop46
 90
       50
102
RTVSPost2010PropOp46
 70
     1
102
RTVSPost2010Prop47
 90
       50
102
RTVSPost2010PropOp47
 70
     1
102
RTVSPost2010Prop48
 90
       50
102
RTVSPost2010PropOp48
 70
     1
102
RTVSPost2010Prop49
280
     0
102
RTVSPost2010PropOp49
 70
     1
102
RTVSPost2010Prop50
 90
       50
102
RTVSPost2010PropOp50
 70
     1
102
RTVSPost2010Prop51ColorIndex
 90
      256
102
RTVSPost2010Prop51ColorRGB
 90
-16777216
102
RTVSPost2010PropOp51
 70
     0
102
RTVSPost2010Prop52
140
1.0
102
RTVSPost2010PropOp52
 70
     0
102
RTVSPost2010Prop53
 90
        2
102
RTVSPost2010PropOp53
 70
     1
102
RTVSPost2010Prop54
  1
strokes_ogs.tif
102
RTVSPost2010PropOp54
 70
     1
102
RTVSPost2010Prop55
280
     0
102
RTVSPost2010PropOp55
 70
     1
102
RTVSPost2010Prop56
140
1.0
102
RTVSPost2010PropOp56
 70
     1
102
RTVSPost2010Prop57
140
1.0
102
RTVSPost2010PropOp57
 70
     1
  0
XRECORD
  5
149
102
{ACAD_REACTORS
330
148
102
}
330
148
100
AcDbXrecord
280
     1
102
RTVSPost2010Prop28
280
     0
102
RTVSPost2010PropOp28
 70
     1
102
RTVSPost2010Prop29
280
     1
102
RTVSPost2010PropOp29
 70
     1
102
RTVSPost2010Prop30
280
     1
102
RTVSPost2010PropOp30
 70
     1
102
RTVSPost2010Prop31
280
     0
102
RTVSPost2010PropOp31
 70
     1
102
RTVSPost2010Prop32
280
     0
102
RTVSPost2010PropOp32
 70
     1
102
RTVSPost2010Prop33
280
     0
102
RTVSPost2010PropOp33
 70
     1
102
RTVSPost2010Prop34
280
     0
102
RTVSPost2010PropOp34
 70
     1
102
RTVSPost2010Prop35
280
     0
102
RTVSPost2010PropOp35
 70
     1
102
RTVSPost2010Prop36
280
     0
102
RTVSPost2010PropOp36
 70
     1
102
RTVSPost2010Prop37
 90
       50
102
RTVSPost2010PropOp37
 70
     1
102
RTVSPost2010Prop38
140
0.0
102
RTVSPost2010PropOp38
 70
     1
102
RTVSPost2010Prop39
140
1.0
102
RTVSPost2010PropOp39
 70
     1
102
RTVSPost2010Prop40
 90
        0
102
RTVSPost2010PropOp40
 70
     1
102
RTVSPost2010Prop41ColorIndex
 90
       18
102
RTVSPost2010Prop41ColorRGB
 90
        0
102
RTVSPost2010PropOp41
 70
     1
102
RTVSPost2010Prop42
 90
       50
102
RTVSPost2010PropOp42
 70
     1
102
RTVSPost2010Prop43
 90
        3
102
RTVSPost2010PropOp43
 70
     1
102
RTVSPost2010Prop44ColorIndex
 90
        5
102
RTVSPost2010Prop44ColorRGB
 90
      255
102
RTVSPost2010PropOp44
 70
     1
102
RTVSPost2010Prop45
280
     0
102
RTVSPost2010PropOp45
 70
     1
102
RTVSPost2010Prop46
 90
       50
102
RTVSPost2010PropOp46
 70
     1
102
RTVSPost2010Prop47
 90
       50
102
RTVSPost2010PropOp47
 70
     1
102
RTVSPost2010Prop48
 90
       50
102
RTVSPost2010PropOp48
 70
     1
102
RTVSPost2010Prop49
280
     0
102
RTVSPost2010PropOp49
 70
     1
102
RTVSPost2010Prop50
 90
       50
102
RTVSPost2010PropOp50
 70
     1
102
RTVSPost2010Prop51ColorIndex
 90
      256
102
RTVSPost2010Prop51ColorRGB
 90
-16777216
102
RTVSPost2010PropOp51
 70
     0
102
RTVSPost2010Prop52
140
1.0
102
RTVSPost2010PropOp52
 70
     0
102
RTVSPost2010Prop53
 90
        2
102
RTVSPost2010PropOp53
 70
     1
102
RTVSPost2010Prop54
  1
strokes_ogs.tif
102
RTVSPost2010PropOp54
 70
     1
102
RTVSPost2010Prop55
280
     0
102
RTVSPost2010PropOp55
 70
     1
102
RTVSPost2010Prop56
140
1.0
102
RTVSPost2010PropOp56
 70
     1
102
RTVSPost2010Prop57
140
1.0
102
RTVSPost2010PropOp57
 70
     1
  0
XRECORD
  5
14B
102
{ACAD_REACTORS
330
14A
102
}
330
14A
100
AcDbXrecord
280
     1
102
RTVSPost2010Prop28
280
     0
102
RTVSPost2010PropOp28
 70
     1
102
RTVSPost2010Prop29
280
     1
102
RTVSPost2010PropOp29
 70
     1
102
RTVSPost2010Prop30
280
     1
102
RTVSPost2010PropOp30
 70
     1
102
RTVSPost2010Prop31
280
     0
102
RTVSPost2010PropOp31
 70
     1
102
RTVSPost2010Prop32
280
     0
102
RTVSPost2010PropOp32
 70
     1
102
RTVSPost2010Prop33
280
     0
102
RTVSPost2010PropOp33
 70
     1
102
RTVSPost2010Prop34
280
     0
102
RTVSPost2010PropOp34
 70
     1
102
RTVSPost2010Prop35
280
     0
102
RTVSPost2010PropOp35
 70
     1
102
RTVSPost2010Prop36
280
     0
102
RTVSPost2010PropOp36
 70
     1
102
RTVSPost2010Prop37
 90
       50
102
RTVSPost2010PropOp37
 70
     1
102
RTVSPost2010Prop38
140
0.0
102
RTVSPost2010PropOp38
 70
     1
102
RTVSPost2010Prop39
140
1.0
102
RTVSPost2010PropOp39
 70
     1
102
RTVSPost2010Prop40
 90
        0
102
RTVSPost2010PropOp40
 70
     1
102
RTVSPost2010Prop41ColorIndex
 90
       18
102
RTVSPost2010Prop41ColorRGB
 90
        0
102
RTVSPost2010PropOp41
 70
     1
102
RTVSPost2010Prop42
 90
       50
102
RTVSPost2010PropOp42
 70
     1
102
RTVSPost2010Prop43
 90
        3
102
RTVSPost2010PropOp43
 70
     1
102
RTVSPost2010Prop44ColorIndex
 90
        5
102
RTVSPost2010Prop44ColorRGB
 90
      255
102
RTVSPost2010PropOp44
 70
     1
102
RTVSPost2010Prop45
280
     0
102
RTVSPost2010PropOp45
 70
     1
102
RTVSPost2010Prop46
 90
       50
102
RTVSPost2010PropOp46
 70
     1
102
RTVSPost2010Prop47
 90
       50
102
RTVSPost2010PropOp47
 70
     1
102
RTVSPost2010Prop48
 90
       50
102
RTVSPost2010PropOp48
 70
     1
102
RTVSPost2010Prop49
280
     0
102
RTVSPost2010PropOp49
 70
     1
102
RTVSPost2010Prop50
 90
       50
102
RTVSPost2010PropOp50
 70
     1
102
RTVSPost2010Prop51ColorIndex
 90
      256
102
RTVSPost2010Prop51ColorRGB
 90
-16777216
102
RTVSPost2010PropOp51
 70
     0
102
RTVSPost2010Prop52
140
1.0
102
RTVSPost2010PropOp52
 70
     0
102
RTVSPost2010Prop53
 90
        2
102
RTVSPost2010PropOp53
 70
     1
102
RTVSPost2010Prop54
  1
strokes_ogs.tif
102
RTVSPost2010PropOp54
 70
     1
102
RTVSPost2010Prop55
280
     0
102
RTVSPost2010PropOp55
 70
     1
102
RTVSPost2010Prop56
140
1.0
102
RTVSPost2010PropOp56
 70
     1
102
RTVSPost2010Prop57
140
1.0
102
RTVSPost2010PropOp57
 70
     1
  0
XRECORD
  5
153
102
{ACAD_REACTORS
330
152
102
}
330
152
100
AcDbXrecord
280
     1
102
RTVSPost2010Prop28
280
     0
102
RTVSPost2010PropOp28
 70
     1
102
RTVSPost2010Prop29
280
     1
102
RTVSPost2010PropOp29
 70
     1
102
RTVSPost2010Prop30
280
     1
102
RTVSPost2010PropOp30
 70
     1
102
RTVSPost2010Prop31
280
     0
102
RTVSPost2010PropOp31
 70
     1
102
RTVSPost2010Prop32
280
     0
102
RTVSPost2010PropOp32
 70
     1
102
RTVSPost2010Prop33
280
     0
102
RTVSPost2010PropOp33
 70
     1
102
RTVSPost2010Prop34
280
     0
102
RTVSPost2010PropOp34
 70
     1
102
RTVSPost2010Prop35
280
     0
102
RTVSPost2010PropOp35
 70
     1
102
RTVSPost2010Prop36
280
     0
102
RTVSPost2010PropOp36
 70
     1
102
RTVSPost2010Prop37
 90
       50
102
RTVSPost2010PropOp37
 70
     1
102
RTVSPost2010Prop38
140
0.0
102
RTVSPost2010PropOp38
 70
     1
102
RTVSPost2010Prop39
140
1.0
102
RTVSPost2010PropOp39
 70
     1
102
RTVSPost2010Prop40
 90
        0
102
RTVSPost2010PropOp40
 70
     1
102
RTVSPost2010Prop41ColorIndex
 90
       18
102
RTVSPost2010Prop41ColorRGB
 90
        0
102
RTVSPost2010PropOp41
 70
     1
102
RTVSPost2010Prop42
 90
       50
102
RTVSPost2010PropOp42
 70
     1
102
RTVSPost2010Prop43
 90
        3
102
RTVSPost2010PropOp43
 70
     1
102
RTVSPost2010Prop44ColorIndex
 90
        5
102
RTVSPost2010Prop44ColorRGB
 90
      255
102
RTVSPost2010PropOp44
 70
     1
102
RTVSPost2010Prop45
280
     0
102
RTVSPost2010PropOp45
 70
     1
102
RTVSPost2010Prop46
 90
       50
102
RTVSPost2010PropOp46
 70
     1
102
RTVSPost2010Prop47
 90
       50
102
RTVSPost2010PropOp47
 70
     1
102
RTVSPost2010Prop48
 90
       50
102
RTVSPost2010PropOp48
 70
     1
102
RTVSPost2010Prop49
280
     0
102
RTVSPost2010PropOp49
 70
     1
102
RTVSPost2010Prop50
 90
       50
102
RTVSPost2010PropOp50
 70
     1
102
RTVSPost2010Prop51ColorIndex
 90
      256
102
RTVSPost2010Prop51ColorRGB
 90
-16777216
102
RTVSPost2010PropOp51
 70
     0
102
RTVSPost2010Prop52
140
1.0
102
RTVSPost2010PropOp52
 70
     0
102
RTVSPost2010Prop53
 90
        2
102
RTVSPost2010PropOp53
 70
     1
102
RTVSPost2010Prop54
  1
strokes_ogs.tif
102
RTVSPost2010PropOp54
 70
     1
102
RTVSPost2010Prop55
280
     0
102
RTVSPost2010PropOp55
 70
     1
102
RTVSPost2010Prop56
140
1.0
102
RTVSPost2010PropOp56
 70
     1
102
RTVSPost2010Prop57
140
1.0
102
RTVSPost2010PropOp57
 70
     1
  0
XRECORD
  5
16F
102
{ACAD_REACTORS
330
16E
102
}
330
16E
100
AcDbXrecord
280
     1
102
RTVSPost2010Prop28
280
     0
102
RTVSPost2010PropOp28
 70
     0
102
RTVSPost2010Prop29
280
     1
102
RTVSPost2010PropOp29
 70
     0
102
RTVSPost2010Prop30
280
     1
102
RTVSPost2010PropOp30
 70
     0
102
RTVSPost2010Prop31
280
     0
102
RTVSPost2010PropOp31
 70
     0
102
RTVSPost2010Prop32
280
     0
102
RTVSPost2010PropOp32
 70
     0
102
RTVSPost2010Prop33
280
     0
102
RTVSPost2010PropOp33
 70
     0
102
RTVSPost2010Prop34
280
     0
102
RTVSPost2010PropOp34
 70
     0
102
RTVSPost2010Prop35
280
     0
102
RTVSPost2010PropOp35
 70
     0
102
RTVSPost2010Prop36
280
     0
102
RTVSPost2010PropOp36
 70
     0
102
RTVSPost2010Prop37
 90
       50
102
RTVSPost2010PropOp37
 70
     0
102
RTVSPost2010Prop38
140
0.0
102
RTVSPost2010PropOp38
 70
     0
102
RTVSPost2010Prop39
140
1.0
102
RTVSPost2010PropOp39
 70
     0
102
RTVSPost2010Prop40
 90
        0
102
RTVSPost2010PropOp40
 70
     0
102
RTVSPost2010Prop41ColorIndex
 90
       18
102
RTVSPost2010Prop41ColorRGB
 90
        0
102
RTVSPost2010PropOp41
 70
     0
102
RTVSPost2010Prop42
 90
       50
102
RTVSPost2010PropOp42
 70
     0
102
RTVSPost2010Prop43
 90
        3
102
RTVSPost2010PropOp43
 70
     0
102
RTVSPost2010Prop44ColorIndex
 90
        5
102
RTVSPost2010Prop44ColorRGB
 90
      255
102
RTVSPost2010PropOp44
 70
     0
102
RTVSPost2010Prop45
280
     0
102
RTVSPost2010PropOp45
 70
     0
102
RTVSPost2010Prop46
 90
       50
102
RTVSPost2010PropOp46
 70
     0
102
RTVSPost2010Prop47
 90
       50
102
RTVSPost2010PropOp47
 70
     0
102
RTVSPost2010Prop48
 90
       50
102
RTVSPost2010PropOp48
 70
     0
102
RTVSPost2010Prop49
280
     0
102
RTVSPost2010PropOp49
 70
     0
102
RTVSPost2010Prop50
 90
       50
102
RTVSPost2010PropOp50
 70
     0
102
RTVSPost2010Prop51ColorIndex
 90
      256
102
RTVSPost2010Prop51ColorRGB
 90
-16777216
102
RTVSPost2010PropOp51
 70
     0
102
RTVSPost2010Prop52
140
1.0
102
RTVSPost2010PropOp52
 70
     0
102
RTVSPost2010Prop53
 90
        2
102
RTVSPost2010PropOp53
 70
     0
102
RTVSPost2010Prop54
  1
strokes_ogs.tif
102
RTVSPost2010PropOp54
 70
     0
102
RTVSPost2010Prop55
280
     0
102
RTVSPost2010PropOp55
 70
     0
102
RTVSPost2010Prop56
140
1.0
102
RTVSPost2010PropOp56
 70
     0
102
RTVSPost2010Prop57
140
1.0
102
RTVSPost2010PropOp57
 70
     0
  0
XRECORD
  5
15F
102
{ACAD_REACTORS
330
15E
102
}
330
15E
100
AcDbXrecord
280
     1
102
RTVSPost2010Prop28
280
     0
102
RTVSPost2010PropOp28
 70
     1
102
RTVSPost2010Prop29
280
     1
102
RTVSPost2010PropOp29
 70
     1
102
RTVSPost2010Prop30
280
     1
102
RTVSPost2010PropOp30
 70
     1
102
RTVSPost2010Prop31
280
     0
102
RTVSPost2010PropOp31
 70
     1
102
RTVSPost2010Prop32
280
     0
102
RTVSPost2010PropOp32
 70
     1
102
RTVSPost2010Prop33
280
     0
102
RTVSPost2010PropOp33
 70
     1
102
RTVSPost2010Prop34
280
     0
102
RTVSPost2010PropOp34
 70
     1
102
RTVSPost2010Prop35
280
     0
102
RTVSPost2010PropOp35
 70
     1
102
RTVSPost2010Prop36
280
     0
102
RTVSPost2010PropOp36
 70
     1
102
RTVSPost2010Prop37
 90
       50
102
RTVSPost2010PropOp37
 70
     1
102
RTVSPost2010Prop38
140
0.0
102
RTVSPost2010PropOp38
 70
     1
102
RTVSPost2010Prop39
140
1.0
102
RTVSPost2010PropOp39
 70
     1
102
RTVSPost2010Prop40
 90
        0
102
RTVSPost2010PropOp40
 70
     1
102
RTVSPost2010Prop41ColorIndex
 90
       18
102
RTVSPost2010Prop41ColorRGB
 90
        0
102
RTVSPost2010PropOp41
 70
     1
102
RTVSPost2010Prop42
 90
       50
102
RTVSPost2010PropOp42
 70
     1
102
RTVSPost2010Prop43
 90
        3
102
RTVSPost2010PropOp43
 70
     1
102
RTVSPost2010Prop44ColorIndex
 90
        5
102
RTVSPost2010Prop44ColorRGB
 90
      255
102
RTVSPost2010PropOp44
 70
     1
102
RTVSPost2010Prop45
280
     0
102
RTVSPost2010PropOp45
 70
     1
102
RTVSPost2010Prop46
 90
       50
102
RTVSPost2010PropOp46
 70
     1
102
RTVSPost2010Prop47
 90
       50
102
RTVSPost2010PropOp47
 70
     1
102
RTVSPost2010Prop48
 90
       50
102
RTVSPost2010PropOp48
 70
     1
102
RTVSPost2010Prop49
280
     0
102
RTVSPost2010PropOp49
 70
     1
102
RTVSPost2010Prop50
 90
       50
102
RTVSPost2010PropOp50
 70
     1
102
RTVSPost2010Prop51ColorIndex
 90
      256
102
RTVSPost2010Prop51ColorRGB
 90
-16777216
102
RTVSPost2010PropOp51
 70
     0
102
RTVSPost2010Prop52
140
1.0
102
RTVSPost2010PropOp52
 70
     0
102
RTVSPost2010Prop53
 90
        2
102
RTVSPost2010PropOp53
 70
     1
102
RTVSPost2010Prop54
  1
strokes_ogs.tif
102
RTVSPost2010PropOp54
 70
     1
102
RTVSPost2010Prop55
280
     0
102
RTVSPost2010PropOp55
 70
     1
102
RTVSPost2010Prop56
140
1.0
102
RTVSPost2010PropOp56
 70
     1
102
RTVSPost2010Prop57
140
1.0
102
RTVSPost2010PropOp57
 70
     1
  0
XRECORD
  5
171
102
{ACAD_REACTORS
330
170
102
}
330
170
100
AcDbXrecord
280
     1
102
RTVSPost2010Prop28
280
     0
102
RTVSPost2010PropOp28
 70
     0
102
RTVSPost2010Prop29
280
     1
102
RTVSPost2010PropOp29
 70
     0
102
RTVSPost2010Prop30
280
     1
102
RTVSPost2010PropOp30
 70
     0
102
RTVSPost2010Prop31
280
     0
102
RTVSPost2010PropOp31
 70
     0
102
RTVSPost2010Prop32
280
     0
102
RTVSPost2010PropOp32
 70
     0
102
RTVSPost2010Prop33
280
     0
102
RTVSPost2010PropOp33
 70
     0
102
RTVSPost2010Prop34
280
     0
102
RTVSPost2010PropOp34
 70
     0
102
RTVSPost2010Prop35
280
     0
102
RTVSPost2010PropOp35
 70
     0
102
RTVSPost2010Prop36
280
     0
102
RTVSPost2010PropOp36
 70
     0
102
RTVSPost2010Prop37
 90
       50
102
RTVSPost2010PropOp37
 70
     0
102
RTVSPost2010Prop38
140
0.0
102
RTVSPost2010PropOp38
 70
     0
102
RTVSPost2010Prop39
140
1.0
102
RTVSPost2010PropOp39
 70
     0
102
RTVSPost2010Prop40
 90
        0
102
RTVSPost2010PropOp40
 70
     0
102
RTVSPost2010Prop41ColorIndex
 90
       18
102
RTVSPost2010Prop41ColorRGB
 90
        0
102
RTVSPost2010PropOp41
 70
     0
102
RTVSPost2010Prop42
 90
       50
102
RTVSPost2010PropOp42
 70
     0
102
RTVSPost2010Prop43
 90
        3
102
RTVSPost2010PropOp43
 70
     0
102
RTVSPost2010Prop44ColorIndex
 90
        5
102
RTVSPost2010Prop44ColorRGB
 90
      255
102
RTVSPost2010PropOp44
 70
     0
102
RTVSPost2010Prop45
280
     0
102
RTVSPost2010PropOp45
 70
     0
102
RTVSPost2010Prop46
 90
       50
102
RTVSPost2010PropOp46
 70
     0
102
RTVSPost2010Prop47
 90
       50
102
RTVSPost2010PropOp47
 70
     0
102
RTVSPost2010Prop48
 90
       50
102
RTVSPost2010PropOp48
 70
     0
102
RTVSPost2010Prop49
280
     0
102
RTVSPost2010PropOp49
 70
     0
102
RTVSPost2010Prop50
 90
       50
102
RTVSPost2010PropOp50
 70
     0
102
RTVSPost2010Prop51ColorIndex
 90
      256
102
RTVSPost2010Prop51ColorRGB
 90
-16777216
102
RTVSPost2010PropOp51
 70
     0
102
RTVSPost2010Prop52
140
1.0
102
RTVSPost2010PropOp52
 70
     0
102
RTVSPost2010Prop53
 90
        2
102
RTVSPost2010PropOp53
 70
     0
102
RTVSPost2010Prop54
  1
strokes_ogs.tif
102
RTVSPost2010PropOp54
 70
     0
102
RTVSPost2010Prop55
280
     0
102
RTVSPost2010PropOp55
 70
     0
102
RTVSPost2010Prop56
140
1.0
102
RTVSPost2010PropOp56
 70
     0
102
RTVSPost2010Prop57
140
1.0
102
RTVSPost2010PropOp57
 70
     0
  0
XRECORD
  5
157
102
{ACAD_REACTORS
330
156
102
}
330
156
100
AcDbXrecord
280
     1
102
RTVSPost2010Prop28
280
     0
102
RTVSPost2010PropOp28
 70
     1
102
RTVSPost2010Prop29
280
     1
102
RTVSPost2010PropOp29
 70
     1
102
RTVSPost2010Prop30
280
     1
102
RTVSPost2010PropOp30
 70
     1
102
RTVSPost2010Prop31
280
     0
102
RTVSPost2010PropOp31
 70
     1
102
RTVSPost2010Prop32
280
     0
102
RTVSPost2010PropOp32
 70
     1
102
RTVSPost2010Prop33
280
     0
102
RTVSPost2010PropOp33
 70
     1
102
RTVSPost2010Prop34
280
     0
102
RTVSPost2010PropOp34
 70
     1
102
RTVSPost2010Prop35
280
     0
102
RTVSPost2010PropOp35
 70
     1
102
RTVSPost2010Prop36
280
     0
102
RTVSPost2010PropOp36
 70
     1
102
RTVSPost2010Prop37
 90
       50
102
RTVSPost2010PropOp37
 70
     1
102
RTVSPost2010Prop38
140
0.0
102
RTVSPost2010PropOp38
 70
     1
102
RTVSPost2010Prop39
140
1.0
102
RTVSPost2010PropOp39
 70
     1
102
RTVSPost2010Prop40
 90
        0
102
RTVSPost2010PropOp40
 70
     1
102
RTVSPost2010Prop41ColorIndex
 90
       18
102
RTVSPost2010Prop41ColorRGB
 90
        0
102
RTVSPost2010PropOp41
 70
     1
102
RTVSPost2010Prop42
 90
       50
102
RTVSPost2010PropOp42
 70
     1
102
RTVSPost2010Prop43
 90
        3
102
RTVSPost2010PropOp43
 70
     1
102
RTVSPost2010Prop44ColorIndex
 90
        5
102
RTVSPost2010Prop44ColorRGB
 90
      255
102
RTVSPost2010PropOp44
 70
     1
102
RTVSPost2010Prop45
280
     0
102
RTVSPost2010PropOp45
 70
     1
102
RTVSPost2010Prop46
 90
       50
102
RTVSPost2010PropOp46
 70
     1
102
RTVSPost2010Prop47
 90
       50
102
RTVSPost2010PropOp47
 70
     1
102
RTVSPost2010Prop48
 90
       50
102
RTVSPost2010PropOp48
 70
     1
102
RTVSPost2010Prop49
280
     0
102
RTVSPost2010PropOp49
 70
     1
102
RTVSPost2010Prop50
 90
       50
102
RTVSPost2010PropOp50
 70
     1
102
RTVSPost2010Prop51ColorIndex
 90
      256
102
RTVSPost2010Prop51ColorRGB
 90
-16777216
102
RTVSPost2010PropOp51
 70
     0
102
RTVSPost2010Prop52
140
1.0
102
RTVSPost2010PropOp52
 70
     0
102
RTVSPost2010Prop53
 90
        2
102
RTVSPost2010PropOp53
 70
     1
102
RTVSPost2010Prop54
  1
strokes_ogs.tif
102
RTVSPost2010PropOp54
 70
     1
102
RTVSPost2010Prop55
280
     0
102
RTVSPost2010PropOp55
 70
     1
102
RTVSPost2010Prop56
140
1.0
102
RTVSPost2010PropOp56
 70
     1
102
RTVSPost2010Prop57
140
1.0
102
RTVSPost2010PropOp57
 70
     1
  0
XRECORD
  5
16D
102
{ACAD_REACTORS
330
16C
102
}
330
16C
100
AcDbXrecord
280
     1
102
RTVSPost2010Prop28
280
     0
102
RTVSPost2010PropOp28
 70
     1
102
RTVSPost2010Prop29
280
     1
102
RTVSPost2010PropOp29
 70
     1
102
RTVSPost2010Prop30
280
     1
102
RTVSPost2010PropOp30
 70
     1
102
RTVSPost2010Prop31
280
     0
102
RTVSPost2010PropOp31
 70
     1
102
RTVSPost2010Prop32
280
     0
102
RTVSPost2010PropOp32
 70
     1
102
RTVSPost2010Prop33
280
     0
102
RTVSPost2010PropOp33
 70
     1
102
RTVSPost2010Prop34
280
     0
102
RTVSPost2010PropOp34
 70
     1
102
RTVSPost2010Prop35
280
     0
102
RTVSPost2010PropOp35
 70
     1
102
RTVSPost2010Prop36
280
     0
102
RTVSPost2010PropOp36
 70
     1
102
RTVSPost2010Prop37
 90
       50
102
RTVSPost2010PropOp37
 70
     1
102
RTVSPost2010Prop38
140
0.0
102
RTVSPost2010PropOp38
 70
     1
102
RTVSPost2010Prop39
140
1.0
102
RTVSPost2010PropOp39
 70
     1
102
RTVSPost2010Prop40
 90
        0
102
RTVSPost2010PropOp40
 70
     1
102
RTVSPost2010Prop41ColorIndex
 90
       18
102
RTVSPost2010Prop41ColorRGB
 90
        0
102
RTVSPost2010PropOp41
 70
     1
102
RTVSPost2010Prop42
 90
       50
102
RTVSPost2010PropOp42
 70
     1
102
RTVSPost2010Prop43
 90
        3
102
RTVSPost2010PropOp43
 70
     1
102
RTVSPost2010Prop44ColorIndex
 90
        5
102
RTVSPost2010Prop44ColorRGB
 90
      255
102
RTVSPost2010PropOp44
 70
     1
102
RTVSPost2010Prop45
280
     0
102
RTVSPost2010PropOp45
 70
     1
102
RTVSPost2010Prop46
 90
       50
102
RTVSPost2010PropOp46
 70
     1
102
RTVSPost2010Prop47
 90
       50
102
RTVSPost2010PropOp47
 70
     1
102
RTVSPost2010Prop48
 90
       50
102
RTVSPost2010PropOp48
 70
     1
102
RTVSPost2010Prop49
280
     0
102
RTVSPost2010PropOp49
 70
     1
102
RTVSPost2010Prop50
 90
       50
102
RTVSPost2010PropOp50
 70
     1
102
RTVSPost2010Prop51ColorIndex
 90
      256
102
RTVSPost2010Prop51ColorRGB
 90
-16777216
102
RTVSPost2010PropOp51
 70
     0
102
RTVSPost2010Prop52
140
1.0
102
RTVSPost2010PropOp52
 70
     0
102
RTVSPost2010Prop53
 90
        2
102
RTVSPost2010PropOp53
 70
     1
102
RTVSPost2010Prop54
  1
strokes_ogs.tif
102
RTVSPost2010PropOp54
 70
     1
102
RTVSPost2010Prop55
280
     0
102
RTVSPost2010PropOp55
 70
     1
102
RTVSPost2010Prop56
140
1.0
102
RTVSPost2010PropOp56
 70
     1
102
RTVSPost2010Prop57
140
1.0
102
RTVSPost2010PropOp57
 70
     1
  0
XRECORD
  5
16B
102
{ACAD_REACTORS
330
16A
102
}
330
16A
100
AcDbXrecord
280
     1
102
RTVSPost2010Prop28
280
     0
102
RTVSPost2010PropOp28
 70
     1
102
RTVSPost2010Prop29
280
     1
102
RTVSPost2010PropOp29
 70
     1
102
RTVSPost2010Prop30
280
     1
102
RTVSPost2010PropOp30
 70
     1
102
RTVSPost2010Prop31
280
     0
102
RTVSPost2010PropOp31
 70
     1
102
RTVSPost2010Prop32
280
     0
102
RTVSPost2010PropOp32
 70
     1
102
RTVSPost2010Prop33
280
     0
102
RTVSPost2010PropOp33
 70
     1
102
RTVSPost2010Prop34
280
     0
102
RTVSPost2010PropOp34
 70
     1
102
RTVSPost2010Prop35
280
     0
102
RTVSPost2010PropOp35
 70
     1
102
RTVSPost2010Prop36
280
     0
102
RTVSPost2010PropOp36
 70
     1
102
RTVSPost2010Prop37
 90
       50
102
RTVSPost2010PropOp37
 70
     1
102
RTVSPost2010Prop38
140
0.0
102
RTVSPost2010PropOp38
 70
     1
102
RTVSPost2010Prop39
140
1.0
102
RTVSPost2010PropOp39
 70
     1
102
RTVSPost2010Prop40
 90
        0
102
RTVSPost2010PropOp40
 70
     1
102
RTVSPost2010Prop41ColorIndex
 90
       18
102
RTVSPost2010Prop41ColorRGB
 90
        0
102
RTVSPost2010PropOp41
 70
     1
102
RTVSPost2010Prop42
 90
       50
102
RTVSPost2010PropOp42
 70
     1
102
RTVSPost2010Prop43
 90
        3
102
RTVSPost2010PropOp43
 70
     1
102
RTVSPost2010Prop44ColorIndex
 90
        5
102
RTVSPost2010Prop44ColorRGB
 90
      255
102
RTVSPost2010PropOp44
 70
     1
102
RTVSPost2010Prop45
280
     0
102
RTVSPost2010PropOp45
 70
     1
102
RTVSPost2010Prop46
 90
       50
102
RTVSPost2010PropOp46
 70
     1
102
RTVSPost2010Prop47
 90
       50
102
RTVSPost2010PropOp47
 70
     1
102
RTVSPost2010Prop48
 90
       50
102
RTVSPost2010PropOp48
 70
     1
102
RTVSPost2010Prop49
280
     0
102
RTVSPost2010PropOp49
 70
     1
102
RTVSPost2010Prop50
 90
       50
102
RTVSPost2010PropOp50
 70
     1
102
RTVSPost2010Prop51ColorIndex
 90
      256
102
RTVSPost2010Prop51ColorRGB
 90
-16777216
102
RTVSPost2010PropOp51
 70
     0
102
RTVSPost2010Prop52
140
1.0
102
RTVSPost2010PropOp52
 70
     0
102
RTVSPost2010Prop53
 90
        2
102
RTVSPost2010PropOp53
 70
     1
102
RTVSPost2010Prop54
  1
strokes_ogs.tif
102
RTVSPost2010PropOp54
 70
     1
102
RTVSPost2010Prop55
280
     0
102
RTVSPost2010PropOp55
 70
     1
102
RTVSPost2010Prop56
140
1.0
102
RTVSPost2010PropOp56
 70
     1
102
RTVSPost2010Prop57
140
1.0
102
RTVSPost2010PropOp57
 70
     1
  0
XRECORD
  5
165
102
{ACAD_REACTORS
330
164
102
}
330
164
100
AcDbXrecord
280
     1
102
RTVSPost2010Prop28
280
     0
102
RTVSPost2010PropOp28
 70
     1
102
RTVSPost2010Prop29
280
     1
102
RTVSPost2010PropOp29
 70
     1
102
RTVSPost2010Prop30
280
     1
102
RTVSPost2010PropOp30
 70
     1
102
RTVSPost2010Prop31
280
     0
102
RTVSPost2010PropOp31
 70
     1
102
RTVSPost2010Prop32
280
     0
102
RTVSPost2010PropOp32
 70
     1
102
RTVSPost2010Prop33
280
     0
102
RTVSPost2010PropOp33
 70
     1
102
RTVSPost2010Prop34
280
     0
102
RTVSPost2010PropOp34
 70
     1
102
RTVSPost2010Prop35
280
     0
102
RTVSPost2010PropOp35
 70
     1
102
RTVSPost2010Prop36
280
     0
102
RTVSPost2010PropOp36
 70
     1
102
RTVSPost2010Prop37
 90
       50
102
RTVSPost2010PropOp37
 70
     1
102
RTVSPost2010Prop38
140
0.0
102
RTVSPost2010PropOp38
 70
     1
102
RTVSPost2010Prop39
140
1.0
102
RTVSPost2010PropOp39
 70
     1
102
RTVSPost2010Prop40
 90
        0
102
RTVSPost2010PropOp40
 70
     1
102
RTVSPost2010Prop41ColorIndex
 90
       18
102
RTVSPost2010Prop41ColorRGB
 90
        0
102
RTVSPost2010PropOp41
 70
     1
102
RTVSPost2010Prop42
 90
       50
102
RTVSPost2010PropOp42
 70
     1
102
RTVSPost2010Prop43
 90
        3
102
RTVSPost2010PropOp43
 70
     1
102
RTVSPost2010Prop44ColorIndex
 90
        5
102
RTVSPost2010Prop44ColorRGB
 90
      255
102
RTVSPost2010PropOp44
 70
     1
102
RTVSPost2010Prop45
280
     0
102
RTVSPost2010PropOp45
 70
     1
102
RTVSPost2010Prop46
 90
       50
102
RTVSPost2010PropOp46
 70
     1
102
RTVSPost2010Prop47
 90
       50
102
RTVSPost2010PropOp47
 70
     1
102
RTVSPost2010Prop48
 90
       50
102
RTVSPost2010PropOp48
 70
     1
102
RTVSPost2010Prop49
280
     0
102
RTVSPost2010PropOp49
 70
     1
102
RTVSPost2010Prop50
 90
       50
102
RTVSPost2010PropOp50
 70
     1
102
RTVSPost2010Prop51ColorIndex
 90
      256
102
RTVSPost2010Prop51ColorRGB
 90
-16777216
102
RTVSPost2010PropOp51
 70
     0
102
RTVSPost2010Prop52
140
1.0
102
RTVSPost2010PropOp52
 70
     0
102
RTVSPost2010Prop53
 90
        2
102
RTVSPost2010PropOp53
 70
     1
102
RTVSPost2010Prop54
  1
strokes_ogs.tif
102
RTVSPost2010PropOp54
 70
     1
102
RTVSPost2010Prop55
280
     0
102
RTVSPost2010PropOp55
 70
     1
102
RTVSPost2010Prop56
140
1.0
102
RTVSPost2010PropOp56
 70
     1
102
RTVSPost2010Prop57
140
1.0
102
RTVSPost2010PropOp57
 70
     1
  0
XRECORD
  5
167
102
{ACAD_REACTORS
330
166
102
}
330
166
100
AcDbXrecord
280
     1
102
RTVSPost2010Prop28
280
     0
102
RTVSPost2010PropOp28
 70
     1
102
RTVSPost2010Prop29
280
     1
102
RTVSPost2010PropOp29
 70
     1
102
RTVSPost2010Prop30
280
     1
102
RTVSPost2010PropOp30
 70
     1
102
RTVSPost2010Prop31
280
     0
102
RTVSPost2010PropOp31
 70
     1
102
RTVSPost2010Prop32
280
     0
102
RTVSPost2010PropOp32
 70
     1
102
RTVSPost2010Prop33
280
     0
102
RTVSPost2010PropOp33
 70
     1
102
RTVSPost2010Prop34
280
     0
102
RTVSPost2010PropOp34
 70
     1
102
RTVSPost2010Prop35
280
     0
102
RTVSPost2010PropOp35
 70
     1
102
RTVSPost2010Prop36
280
     0
102
RTVSPost2010PropOp36
 70
     1
102
RTVSPost2010Prop37
 90
       50
102
RTVSPost2010PropOp37
 70
     1
102
RTVSPost2010Prop38
140
0.0
102
RTVSPost2010PropOp38
 70
     1
102
RTVSPost2010Prop39
140
1.0
102
RTVSPost2010PropOp39
 70
     1
102
RTVSPost2010Prop40
 90
        0
102
RTVSPost2010PropOp40
 70
     1
102
RTVSPost2010Prop41ColorIndex
 90
       18
102
RTVSPost2010Prop41ColorRGB
 90
        0
102
RTVSPost2010PropOp41
 70
     1
102
RTVSPost2010Prop42
 90
       50
102
RTVSPost2010PropOp42
 70
     1
102
RTVSPost2010Prop43
 90
        3
102
RTVSPost2010PropOp43
 70
     1
102
RTVSPost2010Prop44ColorIndex
 90
        5
102
RTVSPost2010Prop44ColorRGB
 90
      255
102
RTVSPost2010PropOp44
 70
     1
102
RTVSPost2010Prop45
280
     0
102
RTVSPost2010PropOp45
 70
     1
102
RTVSPost2010Prop46
 90
       50
102
RTVSPost2010PropOp46
 70
     1
102
RTVSPost2010Prop47
 90
       50
102
RTVSPost2010PropOp47
 70
     1
102
RTVSPost2010Prop48
 90
       50
102
RTVSPost2010PropOp48
 70
     1
102
RTVSPost2010Prop49
280
     0
102
RTVSPost2010PropOp49
 70
     1
102
RTVSPost2010Prop50
 90
       50
102
RTVSPost2010PropOp50
 70
     1
102
RTVSPost2010Prop51ColorIndex
 90
      256
102
RTVSPost2010Prop51ColorRGB
 90
-16777216
102
RTVSPost2010PropOp51
 70
     0
102
RTVSPost2010Prop52
140
1.0
102
RTVSPost2010PropOp52
 70
     0
102
RTVSPost2010Prop53
 90
        2
102
RTVSPost2010PropOp53
 70
     1
102
RTVSPost2010Prop54
  1
strokes_ogs.tif
102
RTVSPost2010PropOp54
 70
     1
102
RTVSPost2010Prop55
280
     0
102
RTVSPost2010PropOp55
 70
     1
102
RTVSPost2010Prop56
140
1.0
102
RTVSPost2010PropOp56
 70
     1
102
RTVSPost2010Prop57
140
1.0
102
RTVSPost2010PropOp57
 70
     1
  0
XRECORD
  5
15D
102
{ACAD_REACTORS
330
15C
102
}
330
15C
100
AcDbXrecord
280
     1
102
RTVSPost2010Prop28
280
     0
102
RTVSPost2010PropOp28
 70
     1
102
RTVSPost2010Prop29
280
     1
102
RTVSPost2010PropOp29
 70
     1
102
RTVSPost2010Prop30
280
     1
102
RTVSPost2010PropOp30
 70
     1
102
RTVSPost2010Prop31
280
     0
102
RTVSPost2010PropOp31
 70
     1
102
RTVSPost2010Prop32
280
     0
102
RTVSPost2010PropOp32
 70
     1
102
RTVSPost2010Prop33
280
     0
102
RTVSPost2010PropOp33
 70
     1
102
RTVSPost2010Prop34
280
     0
102
RTVSPost2010PropOp34
 70
     1
102
RTVSPost2010Prop35
280
     0
102
RTVSPost2010PropOp35
 70
     1
102
RTVSPost2010Prop36
280
     0
102
RTVSPost2010PropOp36
 70
     1
102
RTVSPost2010Prop37
 90
       50
102
RTVSPost2010PropOp37
 70
     1
102
RTVSPost2010Prop38
140
0.0
102
RTVSPost2010PropOp38
 70
     1
102
RTVSPost2010Prop39
140
1.0
102
RTVSPost2010PropOp39
 70
     1
102
RTVSPost2010Prop40
 90
        0
102
RTVSPost2010PropOp40
 70
     1
102
RTVSPost2010Prop41ColorIndex
 90
       18
102
RTVSPost2010Prop41ColorRGB
 90
        0
102
RTVSPost2010PropOp41
 70
     1
102
RTVSPost2010Prop42
 90
       50
102
RTVSPost2010PropOp42
 70
     1
102
RTVSPost2010Prop43
 90
        3
102
RTVSPost2010PropOp43
 70
     1
102
RTVSPost2010Prop44ColorIndex
 90
        5
102
RTVSPost2010Prop44ColorRGB
 90
      255
102
RTVSPost2010PropOp44
 70
     1
102
RTVSPost2010Prop45
280
     0
102
RTVSPost2010PropOp45
 70
     1
102
RTVSPost2010Prop46
 90
       50
102
RTVSPost2010PropOp46
 70
     1
102
RTVSPost2010Prop47
 90
       50
102
RTVSPost2010PropOp47
 70
     1
102
RTVSPost2010Prop48
 90
       50
102
RTVSPost2010PropOp48
 70
     1
102
RTVSPost2010Prop49
280
     0
102
RTVSPost2010PropOp49
 70
     1
102
RTVSPost2010Prop50
 90
       50
102
RTVSPost2010PropOp50
 70
     1
102
RTVSPost2010Prop51ColorIndex
 90
      256
102
RTVSPost2010Prop51ColorRGB
 90
-16777216
102
RTVSPost2010PropOp51
 70
     0
102
RTVSPost2010Prop52
140
1.0
102
RTVSPost2010PropOp52
 70
     0
102
RTVSPost2010Prop53
 90
        2
102
RTVSPost2010PropOp53
 70
     1
102
RTVSPost2010Prop54
  1
strokes_ogs.tif
102
RTVSPost2010PropOp54
 70
     1
102
RTVSPost2010Prop55
280
     0
102
RTVSPost2010PropOp55
 70
     1
102
RTVSPost2010Prop56
140
1.0
102
RTVSPost2010PropOp56
 70
     1
102
RTVSPost2010Prop57
140
1.0
102
RTVSPost2010PropOp57
 70
     1
  0
XRECORD
  5
151
102
{ACAD_REACTORS
330
150
102
}
330
150
100
AcDbXrecord
280
     1
102
RTVSPost2010Prop28
280
     0
102
RTVSPost2010PropOp28
 70
     1
102
RTVSPost2010Prop29
280
     1
102
RTVSPost2010PropOp29
 70
     1
102
RTVSPost2010Prop30
280
     1
102
RTVSPost2010PropOp30
 70
     1
102
RTVSPost2010Prop31
280
     0
102
RTVSPost2010PropOp31
 70
     1
102
RTVSPost2010Prop32
280
     0
102
RTVSPost2010PropOp32
 70
     1
102
RTVSPost2010Prop33
280
     0
102
RTVSPost2010PropOp33
 70
     1
102
RTVSPost2010Prop34
280
     0
102
RTVSPost2010PropOp34
 70
     1
102
RTVSPost2010Prop35
280
     0
102
RTVSPost2010PropOp35
 70
     1
102
RTVSPost2010Prop36
280
     0
102
RTVSPost2010PropOp36
 70
     1
102
RTVSPost2010Prop37
 90
       50
102
RTVSPost2010PropOp37
 70
     1
102
RTVSPost2010Prop38
140
0.0
102
RTVSPost2010PropOp38
 70
     1
102
RTVSPost2010Prop39
140
1.0
102
RTVSPost2010PropOp39
 70
     1
102
RTVSPost2010Prop40
 90
        0
102
RTVSPost2010PropOp40
 70
     1
102
RTVSPost2010Prop41ColorIndex
 90
       18
102
RTVSPost2010Prop41ColorRGB
 90
        0
102
RTVSPost2010PropOp41
 70
     1
102
RTVSPost2010Prop42
 90
       50
102
RTVSPost2010PropOp42
 70
     1
102
RTVSPost2010Prop43
 90
        3
102
RTVSPost2010PropOp43
 70
     1
102
RTVSPost2010Prop44ColorIndex
 90
        5
102
RTVSPost2010Prop44ColorRGB
 90
      255
102
RTVSPost2010PropOp44
 70
     1
102
RTVSPost2010Prop45
280
     0
102
RTVSPost2010PropOp45
 70
     1
102
RTVSPost2010Prop46
 90
       50
102
RTVSPost2010PropOp46
 70
     1
102
RTVSPost2010Prop47
 90
       50
102
RTVSPost2010PropOp47
 70
     1
102
RTVSPost2010Prop48
 90
       50
102
RTVSPost2010PropOp48
 70
     1
102
RTVSPost2010Prop49
280
     0
102
RTVSPost2010PropOp49
 70
     1
102
RTVSPost2010Prop50
 90
       50
102
RTVSPost2010PropOp50
 70
     1
102
RTVSPost2010Prop51ColorIndex
 90
      256
102
RTVSPost2010Prop51ColorRGB
 90
-16777216
102
RTVSPost2010PropOp51
 70
     0
102
RTVSPost2010Prop52
140
1.0
102
RTVSPost2010PropOp52
 70
     0
102
RTVSPost2010Prop53
 90
        2
102
RTVSPost2010PropOp53
 70
     1
102
RTVSPost2010Prop54
  1
strokes_ogs.tif
102
RTVSPost2010PropOp54
 70
     1
102
RTVSPost2010Prop55
280
     0
102
RTVSPost2010PropOp55
 70
     1
102
RTVSPost2010Prop56
140
1.0
102
RTVSPost2010PropOp56
 70
     1
102
RTVSPost2010Prop57
140
1.0
102
RTVSPost2010PropOp57
 70
     1
  0
XRECORD
  5
169
102
{ACAD_REACTORS
330
168
102
}
330
168
100
AcDbXrecord
280
     1
102
RTVSPost2010Prop28
280
     0
102
RTVSPost2010PropOp28
 70
     1
102
RTVSPost2010Prop29
280
     1
102
RTVSPost2010PropOp29
 70
     1
102
RTVSPost2010Prop30
280
     1
102
RTVSPost2010PropOp30
 70
     1
102
RTVSPost2010Prop31
280
     0
102
RTVSPost2010PropOp31
 70
     1
102
RTVSPost2010Prop32
280
     0
102
RTVSPost2010PropOp32
 70
     1
102
RTVSPost2010Prop33
280
     0
102
RTVSPost2010PropOp33
 70
     1
102
RTVSPost2010Prop34
280
     0
102
RTVSPost2010PropOp34
 70
     1
102
RTVSPost2010Prop35
280
     0
102
RTVSPost2010PropOp35
 70
     1
102
RTVSPost2010Prop36
280
     0
102
RTVSPost2010PropOp36
 70
     1
102
RTVSPost2010Prop37
 90
       50
102
RTVSPost2010PropOp37
 70
     1
102
RTVSPost2010Prop38
140
0.0
102
RTVSPost2010PropOp38
 70
     1
102
RTVSPost2010Prop39
140
1.0
102
RTVSPost2010PropOp39
 70
     1
102
RTVSPost2010Prop40
 90
        0
102
RTVSPost2010PropOp40
 70
     1
102
RTVSPost2010Prop41ColorIndex
 90
       18
102
RTVSPost2010Prop41ColorRGB
 90
        0
102
RTVSPost2010PropOp41
 70
     1
102
RTVSPost2010Prop42
 90
       50
102
RTVSPost2010PropOp42
 70
     1
102
RTVSPost2010Prop43
 90
        3
102
RTVSPost2010PropOp43
 70
     1
102
RTVSPost2010Prop44ColorIndex
 90
        5
102
RTVSPost2010Prop44ColorRGB
 90
      255
102
RTVSPost2010PropOp44
 70
     1
102
RTVSPost2010Prop45
280
     0
102
RTVSPost2010PropOp45
 70
     1
102
RTVSPost2010Prop46
 90
       50
102
RTVSPost2010PropOp46
 70
     1
102
RTVSPost2010Prop47
 90
       50
102
RTVSPost2010PropOp47
 70
     1
102
RTVSPost2010Prop48
 90
       50
102
RTVSPost2010PropOp48
 70
     1
102
RTVSPost2010Prop49
280
     0
102
RTVSPost2010PropOp49
 70
     1
102
RTVSPost2010Prop50
 90
       50
102
RTVSPost2010PropOp50
 70
     1
102
RTVSPost2010Prop51ColorIndex
 90
      256
102
RTVSPost2010Prop51ColorRGB
 90
-16777216
102
RTVSPost2010PropOp51
 70
     0
102
RTVSPost2010Prop52
140
1.0
102
RTVSPost2010PropOp52
 70
     0
102
RTVSPost2010Prop53
 90
        2
102
RTVSPost2010PropOp53
 70
     1
102
RTVSPost2010Prop54
  1
strokes_ogs.tif
102
RTVSPost2010PropOp54
 70
     1
102
RTVSPost2010Prop55
280
     0
102
RTVSPost2010PropOp55
 70
     1
102
RTVSPost2010Prop56
140
1.0
102
RTVSPost2010PropOp56
 70
     1
102
RTVSPost2010Prop57
140
1.0
102
RTVSPost2010PropOp57
 70
     1
  0
ENDSEC
  0
EOF
