  0
SECTION
  2
HEADER
  9
$ACADVER
  1
AC1024
  9
$ACADMAINTVER
 70
   226
  9
$DWGCODEPAGE
  3
ANSI_932
  9
$INSBASE
 10
0.0
 20
0.0
 30
0.0
  9
$EXTMIN
 10
1.000000000000000E+20
 20
1.000000000000000E+20
 30
1.000000000000000E+20
  9
$EXTMAX
 10
-1.000000000000000E+20
 20
-1.000000000000000E+20
 30
-1.000000000000000E+20
  9
$LIMMIN
 10
0.0
 20
0.0
  9
$LIMMAX
 10
12.0
 20
9.0
  9
$ORTHOMODE
 70
     0
  9
$REGENMODE
 70
     1
  9
$FILLMODE
 70
     1
  9
$QTEXTMODE
 70
     0
  9
$MIRRTEXT
 70
     0
  9
$LTSCALE
 40
1.0
  9
$ATTMODE
 70
     1
  9
$TEXTSIZE
 40
0.2
  9
$TRACEWID
 40
0.05
  9
$TEXTSTYLE
  7
Standard
  9
$CLAYER
  8
0
  9
$CELTYPE
  6
ByLayer
  9
$CECOLOR
 62
   256
  9
$CELTSCALE
 40
1.0
  9
$DISPSILH
 70
     0
  9
$DIMSCALE
 40
1.0
  9
$DIMASZ
 40
0.18
  9
$DIMEXO
 40
0.0625
  9
$DIMDLI
 40
0.38
  9
$DIMRND
 40
0.0
  9
$DIMDLE
 40
0.0
  9
$DIMEXE
 40
0.18
  9
$DIMTP
 40
0.0
  9
$DIMTM
 40
0.0
  9
$DIMTXT
 40
0.18
  9
$DIMCEN
 40
0.09
  9
$DIMTSZ
 40
0.0
  9
$DIMTOL
 70
     0
  9
$DIMLIM
 70
     0
  9
$DIMTIH
 70
     1
  9
$DIMTOH
 70
     1
  9
$DIMSE1
 70
     0
  9
$DIMSE2
 70
     0
  9
$DIMTAD
 70
     0
  9
$DIMZIN
 70
     0
  9
$DIMBLK
  1

  9
$DIMASO
 70
     1
  9
$DIMSHO
 70
     1
  9
$DIMPOST
  1

  9
$DIMAPOST
  1

  9
$DIMALT
 70
     0
  9
$DIMALTD
 70
     2
  9
$DIMALTF
 40
25.4
  9
$DIMLFAC
 40
1.0
  9
$DIMTOFL
 70
     0
  9
$DIMTVP
 40
0.0
  9
$DIMTIX
 70
     0
  9
$DIMSOXD
 70
     0
  9
$DIMSAH
 70
     0
  9
$DIMBLK1
  1

  9
$DIMBLK2
  1

  9
$DIMSTYLE
  2
Standard
  9
$DIMCLRD
 70
     0
  9
$DIMCLRE
 70
     0
  9
$DIMCLRT
 70
     0
  9
$DIMTFAC
 40
1.0
  9
$DIMGAP
 40
0.09
  9
$DIMJUST
 70
     0
  9
$DIMSD1
 70
     0
  9
$DIMSD2
 70
     0
  9
$DIMTOLJ
 70
     1
  9
$DIMTZIN
 70
     0
  9
$DIMALTZ
 70
     0
  9
$DIMALTTZ
 70
     0
  9
$DIMUPT
 70
     0
  9
$DIMDEC
 70
     4
  9
$DIMTDEC
 70
     4
  9
$DIMALTU
 70
     2
  9
$DIMALTTD
 70
     2
  9
$DIMTXSTY
  7
Standard
  9
$DIMAUNIT
 70
     0
  9
$DIMADEC
 70
     0
  9
$DIMALTRND
 40
0.0
  9
$DIMAZIN
 70
     0
  9
$DIMDSEP
 70
    46
  9
$DIMATFIT
 70
     3
  9
$DIMFRAC
 70
     0
  9
$DIMLDRBLK
  1

  9
$DIMLUNIT
 70
     2
  9
$DIMLWD
 70
    -2
  9
$DIMLWE
 70
    -2
  9
$DIMTMOVE
 70
     0
  9
$DIMFXL
 40
1.0
  9
$DIMFXLON
 70
     0
  9
$DIMJOGANG
 40
0.7853981633974483
  9
$DIMTFILL
 70
     0
  9
$DIMTFILLCLR
 70
     0
  9
$DIMARCSYM
 70
     0
  9
$DIMLTYPE
  6

  9
$DIMLTEX1
  6

  9
$DIMLTEX2
  6

  9
$DIMTXTDIRECTION
 70
     0
  9
$LUNITS
 70
     2
  9
$LUPREC
 70
     4
  9
$SKETCHINC
 40
0.1
  9
$FILLETRAD
 40
0.0
  9
$AUNITS
 70
     0
  9
$AUPREC
 70
     0
  9
$MENU
  1
.
  9
$ELEVATION
 40
0.0
  9
$PELEVATION
 40
0.0
  9
$THICKNESS
 40
0.0
  9
$LIMCHECK
 70
     0
  9
$CHAMFERA
 40
0.0
  9
$CHAMFERB
 40
0.0
  9
$CHAMFERC
 40
0.0
  9
$CHAMFERD
 40
0.0
  9
$SKPOLY
 70
     0
  9
$TDCREATE
 40
2459569.503229167
  9
$TDUCREATE
 40
2459569.128229167
  9
$TDUPDATE
 40
2459569.503229167
  9
$TDUUPDATE
 40
2459569.128229167
  9
$TDINDWG
 40
0.0000000000
  9
$TDUSRTIMER
 40
0.0000000000
  9
$USRTIMER
 70
     1
  9
$ANGBASE
 50
0.0
  9
$ANGDIR
 70
     0
  9
$PDMODE
 70
     0
  9
$PDSIZE
 40
0.0
  9
$PLINEWID
 40
0.0
  9
$SPLFRAME
 70
     0
  9
$SPLINETYPE
 70
     6
  9
$SPLINESEGS
 70
     8
  9
$HANDSEED
  5
1A0
  9
$SURFTAB1
 70
     6
  9
$SURFTAB2
 70
     6
  9
$SURFTYPE
 70
     6
  9
$SURFU
 70
     6
  9
$SURFV
 70
     6
  9
$UCSBASE
  2

  9
$UCSNAME
  2

  9
$UCSORG
 10
0.0
 20
0.0
 30
0.0
  9
$UCSXDIR
 10
1.0
 20
0.0
 30
0.0
  9
$UCSYDIR
 10
0.0
 20
1.0
 30
0.0
  9
$UCSORTHOREF
  2

  9
$UCSORTHOVIEW
 70
     0
  9
$UCSORGTOP
 10
0.0
 20
0.0
 30
0.0
  9
$UCSORGBOTTOM
 10
0.0
 20
0.0
 30
0.0
  9
$UCSORGLEFT
 10
0.0
 20
0.0
 30
0.0
  9
$UCSORGRIGHT
 10
0.0
 20
0.0
 30
0.0
  9
$UCSORGFRONT
 10
0.0
 20
0.0
 30
0.0
  9
$UCSORGBACK
 10
0.0
 20
0.0
 30
0.0
  9
$PUCSBASE
  2

  9
$PUCSNAME
  2

  9
$PUCSORG
 10
0.0
 20
0.0
 30
0.0
  9
$PUCSXDIR
 10
1.0
 20
0.0
 30
0.0
  9
$PUCSYDIR
 10
0.0
 20
1.0
 30
0.0
  9
$PUCSORTHOREF
  2

  9
$PUCSORTHOVIEW
 70
     0
  9
$PUCSORGTOP
 10
0.0
 20
0.0
 30
0.0
  9
$PUCSORGBOTTOM
 10
0.0
 20
0.0
 30
0.0
  9
$PUCSORGLEFT
 10
0.0
 20
0.0
 30
0.0
  9
$PUCSORGRIGHT
 10
0.0
 20
0.0
 30
0.0
  9
$PUCSORGFRONT
 10
0.0
 20
0.0
 30
0.0
  9
$PUCSORGBACK
 10
0.0
 20
0.0
 30
0.0
  9
$USERI1
 70
     0
  9
$USERI2
 70
     0
  9
$USERI3
 70
     0
  9
$USERI4
 70
     0
  9
$USERI5
 70
     0
  9
$USERR1
 40
0.0
  9
$USERR2
 40
0.0
  9
$USERR3
 40
0.0
  9
$USERR4
 40
0.0
  9
$USERR5
 40
0.0
  9
$WORLDVIEW
 70
     1
  9
$SHADEDGE
 70
     3
  9
$SHADEDIF
 70
    70
  9
$TILEMODE
 70
     1
  9
$MAXACTVP
 70
    64
  9
$PINSBASE
 10
0.0
 20
0.0
 30
0.0
  9
$PLIMCHECK
 70
     0
  9
$PEXTMIN
 10
1.000000000000000E+20
 20
1.000000000000000E+20
 30
1.000000000000000E+20
  9
$PEXTMAX
 10
-1.000000000000000E+20
 20
-1.000000000000000E+20
 30
-1.000000000000000E+20
  9
$PLIMMIN
 10
0.0
 20
0.0
  9
$PLIMMAX
 10
12.0
 20
9.0
  9
$UNITMODE
 70
     0
  9
$VISRETAIN
 70
     1
  9
$PLINEGEN
 70
     0
  9
$PSLTSCALE
 70
     1
  9
$TREEDEPTH
 70
  3020
  9
$CMLSTYLE
  2
Standard
  9
$CMLJUST
 70
     0
  9
$CMLSCALE
 40
1.0
  9
$PROXYGRAPHICS
 70
     1
  9
$MEASUREMENT
 70
     0
  9
$CELWEIGHT
370
    -1
  9
$ENDCAPS
280
     0
  9
$JOINSTYLE
280
     0
  9
$LWDISPLAY
290
     1
  9
$INSUNITS
 70
     4
  9
$HYPERLINKBASE
  1

  9
$STYLESHEET
  1

  9
$XEDIT
290
     1
  9
$CEPSNTYPE
380
     0
  9
$PSTYLEMODE
290
     1
  9
$FINGERPRINTGUID
  2
{F7AB2B30-733C-5D41-9DE3-55CC601C3E35}
  9
$VERSIONGUID
  2
{25F83F59-CD4A-0447-9509-E61A6090B810}
  9
$EXTNAMES
290
     1
  9
$PSVPSCALE
 40
0.0
  9
$OLESTARTUP
290
     0
  9
$SORTENTS
280
   127
  9
$INDEXCTL
280
     0
  9
$HIDETEXT
280
     1
  9
$XCLIPFRAME
280
     2
  9
$HALOGAP
280
     0
  9
$OBSCOLOR
 70
   257
  9
$OBSLTYPE
280
     0
  9
$INTERSECTIONDISPLAY
280
     0
  9
$INTERSECTIONCOLOR
 70
   257
  9
$DIMASSOC
280
     2
  9
$PROJECTNAME
  1

  9
$CAMERADISPLAY
290
     0
  9
$LENSLENGTH
 40
50.0
  9
$CAMERAHEIGHT
 40
0.0
  9
$STEPSPERSEC
 40
2.0
  9
$STEPSIZE
 40
6.0
  9
$3DDWFPREC
 40
2.0
  9
$PSOLWIDTH
 40
0.25
  9
$PSOLHEIGHT
 40
4.0
  9
$LOFTANG1
 40
1.570796326794896
  9
$LOFTANG2
 40
1.570796326794896
  9
$LOFTMAG1
 40
0.0
  9
$LOFTMAG2
 40
0.0
  9
$LOFTPARAM
 70
     7
  9
$LOFTNORMALS
280
     1
  9
$LATITUDE
 40
37.795
  9
$LONGITUDE
 40
-122.394
  9
$NORTHDIRECTION
 40
0.0
  9
$TIMEZONE
 70
 -8000
  9
$LIGHTGLYPHDISPLAY
280
     1
  9
$TILEMODELIGHTSYNCH
280
     1
  9
$CMATERIAL
347
11
  9
$SOLIDHIST
280
     0
  9
$SHOWHIST
280
     1
  9
$DWFFRAME
280
     2
  9
$DGNFRAME
280
     0
  9
$REALWORLDSCALE
290
     1
  9
$INTERFERECOLOR
 62
     1
  9
$INTERFEREOBJVS
345
33
  9
$INTERFEREVPVS
346
30
  9
$CSHADOW
280
     0
  9
$SHADOWPLANELOCATION
 40
0.0
  0
ENDSEC
  0
SECTION
  2
CLASSES
  0
CLASS
  1
ACDBDICTIONARYWDFLT
  2
AcDbDictionaryWithDefault
  3
ObjectDBX Classes
 90
        0
 91
        1
280
     0
281
     0
  0
CLASS
  1
MATERIAL
  2
AcDbMaterial
  3
ObjectDBX Classes
 90
     1153
 91
        3
280
     0
281
     0
  0
CLASS
  1
VISUALSTYLE
  2
AcDbVisualStyle
  3
ObjectDBX Classes
 90
     4095
 91
       24
280
     0
281
     0
  0
CLASS
  1
SCALE
  2
AcDbScale
  3
ObjectDBX Classes
 90
     1153
 91
       17
280
     0
281
     0
  0
CLASS
  1
TABLESTYLE
  2
AcDbTableStyle
  3
ObjectDBX Classes
 90
     4095
 91
        1
280
     0
281
     0
  0
CLASS
  1
MLEADERSTYLE
  2
AcDbMLeaderStyle
  3
ACDB_MLEADERSTYLE_CLASS
 90
     4095
 91
        1
280
     0
281
     0
  0
CLASS
  1
ACDBSECTIONVIEWSTYLE
  2
AcDbSectionViewStyle
  3
ObjectDBX Classes
 90
     1025
 91
        1
280
     0
281
     0
  0
CLASS
  1
ACDBDETAILVIEWSTYLE
  2
AcDbDetailViewStyle
  3
ObjectDBX Classes
 90
     1025
 91
        1
280
     0
281
     0
  0
CLASS
  1
DICTIONARYVAR
  2
AcDbDictionaryVar
  3
ObjectDBX Classes
 90
        0
 91
        5
280
     0
281
     0
  0
CLASS
  1
CELLSTYLEMAP
  2
AcDbCellStyleMap
  3
ObjectDBX Classes
 90
     1152
 91
        1
280
     0
281
     0
  0
ENDSEC
  0
SECTION
  2
TABLES
  0
TABLE
  2
VPORT
  5
8
330
0
100
AcDbSymbolTable
 70
     1
  0
VPORT
  5
57
330
8
100
AcDbSymbolTableRecord
100
AcDbViewportTableRecord
  2
*Active
 70
     0
 10
0.0
 20
0.0
 11
1.0
 21
1.0
 12
0.0
 22
0.0
 13
0.0
 23
0.0
 14
1.0
 24
1.0
 15
0.0
 25
0.0
 16
0.0
 26
0.0
 36
1.0
 17
104.9999999737534
 27
-148.4999999628701
 37
0.0
 40
302.939999924255
 41
0.7070707070707534
 42
50.0
 43
0.0
 44
0.0
 50
0.0
 51
0.0
 71
     0
 72
   100
 73
     1
 74
     0
 75
     1
 76
     0
 77
     0
 78
     0
281
     0
 65
     1
110
0.0
120
0.0
130
0.0
111
1.0
121
0.0
131
0.0
112
0.0
122
1.0
132
0.0
 79
     0
146
0.0
 60
     3
 61
     5
292
     1
282
     1
141
0.0
142
0.0
 63
   250
421
  3355443
  0
ENDTAB
  0
TABLE
  2
LTYPE
  5
5
330
0
100
AcDbSymbolTable
 70
     3
  0
LTYPE
  5
5B
330
5
100
AcDbSymbolTableRecord
100
AcDbLinetypeTableRecord
  2
ByBlock
 70
     0
  3

 72
    65
 73
     0
 40
0.0
  0
LTYPE
  5
5C
330
5
100
AcDbSymbolTableRecord
100
AcDbLinetypeTableRecord
  2
ByLayer
 70
     0
  3

 72
    65
 73
     0
 40
0.0
  0
LTYPE
  5
5D
330
5
100
AcDbSymbolTableRecord
100
AcDbLinetypeTableRecord
  2
Continuous
 70
     0
  3
Solid line
 72
    65
 73
     0
 40
0.0
  0
LTYPE
  5
138
330
5
100
AcDbSymbolTableRecord
100
AcDbLinetypeTableRecord
  2
AI-Linetype-0
 70
     0
  3
Adobe Illustrator Linetype No. 0
 72
    65
 73
     2
 40
1.411111110758333
 49
0.7055555553791667
 74
     0
 49
-0.7055555553791667
 74
     0
  0
LTYPE
  5
13A
330
5
100
AcDbSymbolTableRecord
100
AcDbLinetypeTableRecord
  2
AI-Linetype-1
 70
     0
  3
Adobe Illustrator Linetype No. 1
 72
    65
 73
     2
 40
1.411111110758333
 49
0.7055555553791667
 74
     0
 49
-0.7055555553791667
 74
     0
  0
ENDTAB
  0
TABLE
  2
LAYER
  5
2
330
0
100
AcDbSymbolTable
 70
     2
  0
LAYER
  5
54
330
2
100
AcDbSymbolTableRecord
100
AcDbLayerTableRecord
  2
0
 70
     0
 62
     7
  6
Continuous
370
    -3
390
F
347
21
  0
LAYER
  5
78
330
2
100
AcDbSymbolTableRecord
100
AcDbLayerTableRecord
  2
レイヤー 1
 70
     0
 62
     7
  6
Continuous
370
     0
390
F
347
21
  0
ENDTAB
  0
TABLE
  2
STYLE
  5
3
330
0
100
AcDbSymbolTable
 70
     2
  0
STYLE
  5
55
330
3
100
AcDbSymbolTableRecord
100
AcDbTextStyleTableRecord
  2
Standard
 70
     0
 40
0.0
 41
1.0
 50
0.0
 71
     0
 42
0.2
  3
txt
  4

  0
STYLE
  5
5A
330
3
100
AcDbSymbolTableRecord
100
AcDbTextStyleTableRecord
  2
Annotative
 70
     0
 40
0.0
 41
1.0
 50
0.0
 71
     0
 42
0.2
  3
txt
  4

1001
AcadAnnotative
1000
AnnotativeData
1002
{
1070
     1
1070
     1
1002
}
  0
ENDTAB
  0
TABLE
  2
VIEW
  5
6
330
0
100
AcDbSymbolTable
 70
     0
  0
ENDTAB
  0
TABLE
  2
UCS
  5
7
330
0
100
AcDbSymbolTable
 70
     0
  0
ENDTAB
  0
TABLE
  2
APPID
  5
9
330
0
100
AcDbSymbolTable
 70
     2
  0
APPID
  5
56
330
9
100
AcDbSymbolTableRecord
100
AcDbRegAppTableRecord
  2
ACAD
 70
     0
  0
APPID
  5
5E
330
9
100
AcDbSymbolTableRecord
100
AcDbRegAppTableRecord
  2
AcadAnnotative
 70
     0
  0
ENDTAB
  0
TABLE
  2
DIMSTYLE
  5
A
330
0
100
AcDbSymbolTable
 70
     2
100
AcDbDimStyleTable
 71
     0
  0
DIMSTYLE
105
58
330
A
100
AcDbSymbolTableRecord
100
AcDbDimStyleTableRecord
  2
Standard
 70
     0
340
55
  0
DIMSTYLE
105
59
330
A
100
AcDbSymbolTableRecord
100
AcDbDimStyleTableRecord
  2
Annotative
 70
     0
340
55
1001
AcadAnnotative
1000
AnnotativeData
1002
{
1070
     1
1070
     1
1002
}
  0
ENDTAB
  0
TABLE
  2
BLOCK_RECORD
  5
1
330
0
100
AcDbSymbolTable
 70
    16
  0
BLOCK_RECORD
  5
70
330
1
100
AcDbSymbolTableRecord
100
AcDbBlockTableRecord
  2
*Model_Space
340
73
 70
     0
280
     1
281
     0
  0
BLOCK_RECORD
  5
6C
330
1
100
AcDbSymbolTableRecord
100
AcDbBlockTableRecord
  2
*Paper_Space
340
6F
 70
     0
280
     1
281
     0
  0
BLOCK_RECORD
  5
74
330
1
100
AcDbSymbolTableRecord
100
AcDbBlockTableRecord
  2
*Paper_Space0
340
77
 70
     0
280
     1
281
     0
  0
BLOCK_RECORD
  5
E1
330
1
100
AcDbSymbolTableRecord
100
AcDbBlockTableRecord
  2
Block_0
340
0
102
{BLKREFS
331
E2
102
}
 70
     0
280
     1
281
     0
  0
BLOCK_RECORD
  5
E7
330
1
100
AcDbSymbolTableRecord
100
AcDbBlockTableRecord
  2
Block_1
340
0
102
{BLKREFS
331
E8
102
}
 70
     0
280
     1
281
     0
  0
BLOCK_RECORD
  5
F1
330
1
100
AcDbSymbolTableRecord
100
AcDbBlockTableRecord
  2
Block_2
340
0
102
{BLKREFS
331
F2
102
}
 70
     0
280
     1
281
     0
  0
BLOCK_RECORD
  5
F5
330
1
100
AcDbSymbolTableRecord
100
AcDbBlockTableRecord
  2
Block_3
340
0
102
{BLKREFS
331
F6
102
}
 70
     0
280
     1
281
     0
  0
BLOCK_RECORD
  5
104
330
1
100
AcDbSymbolTableRecord
100
AcDbBlockTableRecord
  2
Block_4
340
0
102
{BLKREFS
331
105
102
}
 70
     0
280
     1
281
     0
  0
BLOCK_RECORD
  5
108
330
1
100
AcDbSymbolTableRecord
100
AcDbBlockTableRecord
  2
Block_5
340
0
102
{BLKREFS
331
109
102
}
 70
     0
280
     1
281
     0
  0
BLOCK_RECORD
  5
115
330
1
100
AcDbSymbolTableRecord
100
AcDbBlockTableRecord
  2
Block_6
340
0
102
{BLKREFS
331
116
102
}
 70
     0
280
     1
281
     0
  0
BLOCK_RECORD
  5
119
330
1
100
AcDbSymbolTableRecord
100
AcDbBlockTableRecord
  2
Block_7
340
0
102
{BLKREFS
331
11A
102
}
 70
     0
280
     1
281
     0
  0
BLOCK_RECORD
  5
123
330
1
100
AcDbSymbolTableRecord
100
AcDbBlockTableRecord
  2
Block_8
340
0
102
{BLKREFS
331
124
102
}
 70
     0
280
     1
281
     0
  0
BLOCK_RECORD
  5
127
330
1
100
AcDbSymbolTableRecord
100
AcDbBlockTableRecord
  2
Block_9
340
0
102
{BLKREFS
331
128
102
}
 70
     0
280
     1
281
     0
  0
BLOCK_RECORD
  5
131
330
1
100
AcDbSymbolTableRecord
100
AcDbBlockTableRecord
  2
Block_10
340
0
102
{BLKREFS
331
132
102
}
 70
     0
280
     1
281
     0
  0
BLOCK_RECORD
  5
13B
330
1
100
AcDbSymbolTableRecord
100
AcDbBlockTableRecord
  2
Block_11
340
0
102
{BLKREFS
331
13C
102
}
 70
     0
280
     1
281
     0
  0
BLOCK_RECORD
  5
13F
330
1
100
AcDbSymbolTableRecord
100
AcDbBlockTableRecord
  2
Block_12
340
0
102
{BLKREFS
331
140
102
}
 70
     0
280
     1
281
     0
  0
BLOCK_RECORD
  5
146
330
1
100
AcDbSymbolTableRecord
100
AcDbBlockTableRecord
  2
Block_13
340
0
102
{BLKREFS
331
147
102
}
 70
     0
280
     1
281
     0
  0
BLOCK_RECORD
  5
14A
330
1
100
AcDbSymbolTableRecord
100
AcDbBlockTableRecord
  2
Block_14
340
0
102
{BLKREFS
331
14B
102
}
 70
     0
280
     1
281
     0
  0
ENDTAB
  0
ENDSEC
  0
SECTION
  2
BLOCKS
  0
BLOCK
  5
71
330
70
100
AcDbEntity
  8
0
100
AcDbBlockBegin
  2
*Model_Space
 70
     0
 10
0.0
 20
0.0
 30
0.0
  3
*Model_Space
  1

  0
ENDBLK
  5
72
330
70
100
AcDbEntity
  8
0
100
AcDbBlockEnd
  0
BLOCK
  5
6D
330
6C
100
AcDbEntity
 67
     1
  8
0
100
AcDbBlockBegin
  2
*Paper_Space
 70
     0
 10
0.0
 20
0.0
 30
0.0
  3
*Paper_Space
  1

  0
ENDBLK
  5
6E
330
6C
100
AcDbEntity
 67
     1
  8
0
100
AcDbBlockEnd
  0
BLOCK
  5
75
330
74
100
AcDbEntity
 67
     1
  8
0
100
AcDbBlockBegin
  2
*Paper_Space0
 70
     0
 10
0.0
 20
0.0
 30
0.0
  3
*Paper_Space0
  1

  0
ENDBLK
  5
76
330
74
100
AcDbEntity
 67
     1
  8
0
100
AcDbBlockEnd
  0
BLOCK
  5
E3
330
E1
100
AcDbEntity
  8
0
100
AcDbBlockBegin
  2
Block_0
 70
     0
 10
0.0
 20
0.0
 30
0.0
  3
Block_0
  1

  0
SPLINE
  5
E5
330
E1
100
AcDbEntity
  8
レイヤー 1
100
AcDbSpline
210
0.0
220
0.0
230
1.0
 70
     9
 71
     3
 72
    62
 73
    58
 74
     0
 42
0.0000000001
 43
0.0000000001
 40
0.0
 40
0.0
 40
0.0
 40
0.0
 40
1.0
 40
1.0
 40
1.0
 40
2.0
 40
2.0
 40
2.0
 40
3.0
 40
3.0
 40
3.0
 40
4.0
 40
4.0
 40
4.0
 40
5.0
 40
5.0
 40
5.0
 40
6.0
 40
6.0
 40
6.0
 40
7.0
 40
7.0
 40
7.0
 40
8.0
 40
8.0
 40
8.0
 40
9.0
 40
9.0
 40
9.0
 40
10.0
 40
10.0
 40
10.0
 40
11.0
 40
11.0
 40
11.0
 40
12.0
 40
12.0
 40
12.0
 40
13.0
 40
13.0
 40
13.0
 40
14.0
 40
14.0
 40
14.0
 40
15.0
 40
15.0
 40
15.0
 40
16.0
 40
16.0
 40
16.0
 40
17.0
 40
17.0
 40
17.0
 40
18.0
 40
18.0
 40
18.0
 40
19.0
 40
19.0
 40
19.0
 40
19.0
 10
102.9923353149637
 20
-141.7670572562249
 30
0.0
 10
102.8970784247966
 20
-141.7670572562249
 30
0.0
 10
102.6791761353545
 20
-141.7458699189906
 30
0.0
 10
102.5544636787884
 20
-141.5596625080129
 30
0.0
 10
102.4803941258556
 20
-141.447524649968
 30
0.0
 10
102.476087756499
 20
-141.3481336452185
 30
0.0
 10
102.4719536419167
 20
-141.2635565510556
 30
0.0
 10
102.4719536419167
 20
-141.2635565510556
 30
0.0
 10
102.6919229886499
 20
-141.2635565510556
 30
0.0
 10
102.6919229886499
 20
-141.2635565510556
 30
0.0
 10
102.6939900459411
 20
-141.3376261039885
 30
0.0
 10
102.7046698419453
 20
-141.5724093613083
 30
0.0
 10
102.9880289456071
 20
-141.5724093613083
 30
0.0
 10
103.1256605102429
 20
-141.5724093613083
 30
0.0
 10
103.2779337306909
 20
-141.502646177732
 30
0.0
 10
103.2779337306909
 20
-141.2740640922856
 30
0.0
 10
103.2779337306909
 20
-141.1577921196584
 30
0.0
 10
103.2398654255789
 20
-141.1090440185422
 30
0.0
 10
103.2081705471146
 20
-141.0773491400779
 30
0.0
 10
103.1341009941817
 20
-141.003279587145
 30
0.0
 10
103.0176567667803
 20
-140.9907049886238
 30
0.0
 10
102.9627074937905
 20
-140.9907049886238
 30
0.0
 10
102.9437594686217
 20
-140.9907049886238
 30
0.0
 10
102.9077582208008
 20
-140.992772045915
 30
0.0
 10
102.8801974569188
 20
-140.9969061604973
 30
0.0
 10
102.8801974569188
 20
-140.9969061604973
 30
0.0
 10
102.8801974569188
 20
-140.8024305203549
 30
0.0
 10
102.8801974569188
 20
-140.8024305203549
 30
0.0
 10
102.9182657620308
 20
-140.8086316922284
 30
0.0
 10
102.9606404364994
 20
-140.8108710042938
 30
0.0
 10
102.9670138631471
 20
-140.8108710042938
 30
0.0
 10
103.0324706773669
 20
-140.8108710042938
 30
0.0
 10
103.2314249416401
 20
-140.7896836670595
 30
0.0
 10
103.2314249416401
 20
-140.5526610976743
 30
0.0
 10
103.2314249416401
 20
-140.3750664254097
 30
0.0
 10
103.100166803652
 20
-140.3199448976457
 30
0.0
 10
102.9902682576726
 20
-140.3199448976457
 30
0.0
 10
102.7258571791796
 20
-140.3199448976457
 30
0.0
 10
102.7172444404665
 20
-140.5526610976743
 30
0.0
 10
102.7131103258842
 20
-140.624663593316
 30
0.0
 10
102.7131103258842
 20
-140.624663593316
 30
0.0
 10
102.5100219470287
 20
-140.624663593316
 30
0.0
 10
102.5100219470287
 20
-140.624663593316
 30
0.0
 10
102.5184624309676
 20
-140.4997788819757
 30
0.0
 10
102.5460231948496
 20
-140.1232299454379
 30
0.0
 10
103.0028428561937
 20
-140.1232299454379
 30
0.0
 10
103.2271185722835
 20
-140.1232299454379
 30
0.0
 10
103.468275256251
 20
-140.2501817140694
 30
0.0
 10
103.468275256251
 20
-140.5462876710266
 30
0.0
 10
103.468275256251
 20
-140.7324950820044
 30
0.0
 10
103.3731906208581
 20
-140.8150051188761
 30
0.0
 10
103.2736273613344
 20
-140.8763278185135
 30
0.0
 10
103.3351223157461
 20
-140.9038885823955
 30
0.0
 10
103.5170233573672
 20
-140.9843315619761
 30
0.0
 10
103.5170233573672
 20
-141.2614894937645
 30
0.0
 10
103.5170233573672
 20
-141.5999701251902
 30
0.0
 10
103.269493246752
 20
-141.7670572562249
 30
0.0
 10
102.9923353149637
 20
-141.7670572562249
 30
0.0
  0
HATCH
  5
E6
330
E1
100
AcDbEntity
  8
レイヤー 1
 62
   250
420
  2299925
440
 33554687
100
AcDbHatch
 10
0.0
 20
0.0
 30
0.0
210
0.0
220
0.0
230
1.0
  2
SOLID
 70
     1
 71
     1
 91
        1
 92
        1
 93
        1
 72
     4
 94
        3
 73
     0
 74
     0
 95
       62
 96
       58
 40
0.0
 40
0.0
 40
0.0
 40
0.0
 40
1.0
 40
1.0
 40
1.0
 40
2.0
 40
2.0
 40
2.0
 40
3.0
 40
3.0
 40
3.0
 40
4.0
 40
4.0
 40
4.0
 40
5.0
 40
5.0
 40
5.0
 40
6.0
 40
6.0
 40
6.0
 40
7.0
 40
7.0
 40
7.0
 40
8.0
 40
8.0
 40
8.0
 40
9.0
 40
9.0
 40
9.0
 40
10.0
 40
10.0
 40
10.0
 40
11.0
 40
11.0
 40
11.0
 40
12.0
 40
12.0
 40
12.0
 40
13.0
 40
13.0
 40
13.0
 40
14.0
 40
14.0
 40
14.0
 40
15.0
 40
15.0
 40
15.0
 40
16.0
 40
16.0
 40
16.0
 40
17.0
 40
17.0
 40
17.0
 40
18.0
 40
18.0
 40
18.0
 40
19.0
 40
19.0
 40
19.0
 40
19.0
 10
102.9923353149637
 20
-141.7670572562249
 10
102.8970784247966
 20
-141.7670572562249
 10
102.6791761353545
 20
-141.7458699189906
 10
102.5544636787884
 20
-141.5596625080129
 10
102.4803941258556
 20
-141.447524649968
 10
102.476087756499
 20
-141.3481336452185
 10
102.4719536419167
 20
-141.2635565510556
 10
102.4719536419167
 20
-141.2635565510556
 10
102.6919229886499
 20
-141.2635565510556
 10
102.6919229886499
 20
-141.2635565510556
 10
102.6939900459411
 20
-141.3376261039885
 10
102.7046698419453
 20
-141.5724093613083
 10
102.9880289456071
 20
-141.5724093613083
 10
103.1256605102429
 20
-141.5724093613083
 10
103.2779337306909
 20
-141.502646177732
 10
103.2779337306909
 20
-141.2740640922856
 10
103.2779337306909
 20
-141.1577921196584
 10
103.2398654255789
 20
-141.1090440185422
 10
103.2081705471146
 20
-141.0773491400779
 10
103.1341009941817
 20
-141.003279587145
 10
103.0176567667803
 20
-140.9907049886238
 10
102.9627074937905
 20
-140.9907049886238
 10
102.9437594686217
 20
-140.9907049886238
 10
102.9077582208008
 20
-140.992772045915
 10
102.8801974569188
 20
-140.9969061604973
 10
102.8801974569188
 20
-140.9969061604973
 10
102.8801974569188
 20
-140.8024305203549
 10
102.8801974569188
 20
-140.8024305203549
 10
102.9182657620308
 20
-140.8086316922284
 10
102.9606404364994
 20
-140.8108710042938
 10
102.9670138631471
 20
-140.8108710042938
 10
103.0324706773669
 20
-140.8108710042938
 10
103.2314249416401
 20
-140.7896836670595
 10
103.2314249416401
 20
-140.5526610976743
 10
103.2314249416401
 20
-140.3750664254097
 10
103.100166803652
 20
-140.3199448976457
 10
102.9902682576726
 20
-140.3199448976457
 10
102.7258571791796
 20
-140.3199448976457
 10
102.7172444404665
 20
-140.5526610976743
 10
102.7131103258842
 20
-140.624663593316
 10
102.7131103258842
 20
-140.624663593316
 10
102.5100219470287
 20
-140.624663593316
 10
102.5100219470287
 20
-140.624663593316
 10
102.5184624309676
 20
-140.4997788819757
 10
102.5460231948496
 20
-140.1232299454379
 10
103.0028428561937
 20
-140.1232299454379
 10
103.2271185722835
 20
-140.1232299454379
 10
103.468275256251
 20
-140.2501817140694
 10
103.468275256251
 20
-140.5462876710266
 10
103.468275256251
 20
-140.7324950820044
 10
103.3731906208581
 20
-140.8150051188761
 10
103.2736273613344
 20
-140.8763278185135
 10
103.3351223157461
 20
-140.9038885823955
 10
103.5170233573672
 20
-140.9843315619761
 10
103.5170233573672
 20
-141.2614894937645
 10
103.5170233573672
 20
-141.5999701251902
 10
103.269493246752
 20
-141.7670572562249
 10
102.9923353149637
 20
-141.7670572562249
 97
        0
 97
        1
330
E5
 75
     2
 76
     1
 98
        1
 10
0.0
 20
0.0
450
        0
451
        0
460
0.0
461
0.0
452
        0
462
0.0
453
        0
470

  0
ENDBLK
  5
E4
330
E1
100
AcDbEntity
  8
0
100
AcDbBlockEnd
  0
BLOCK
  5
E9
330
E7
100
AcDbEntity
  8
0
100
AcDbBlockBegin
  2
Block_1
 70
     0
 10
0.0
 20
0.0
 30
0.0
  3
Block_1
  1

  0
SPLINE
  5
EB
330
E7
100
AcDbEntity
  8
レイヤー 1
100
AcDbSpline
210
0.0
220
0.0
230
1.0
 70
    11
 71
     3
 72
    26
 73
    22
 74
     0
 42
0.0000000001
 43
0.0000000001
 40
0.0
 40
0.0
 40
0.0
 40
0.0
 40
1.0
 40
1.0
 40
1.0
 40
2.0
 40
2.0
 40
2.0
 40
3.0
 40
3.0
 40
3.0
 40
4.0
 40
4.0
 40
4.0
 40
5.0
 40
5.0
 40
5.0
 40
6.0
 40
6.0
 40
6.0
 40
7.0
 40
7.0
 40
7.0
 40
7.0
 10
112.1540499936628
 20
-150.7997531090014
 30
0.0
 10
112.1540499936628
 20
-150.7997531090014
 30
0.0
 10
112.1540499936628
 20
-149.6956000059789
 30
0.0
 10
112.1540499936628
 20
-149.6956000059789
 30
0.0
 10
112.1540499936628
 20
-149.6956000059789
 30
0.0
 10
111.8240098461759
 20
-149.6956000059789
 30
0.0
 10
111.8240098461759
 20
-149.6956000059789
 30
0.0
 10
111.8240098461759
 20
-149.6956000059789
 30
0.0
 10
111.8240098461759
 20
-149.5474609001131
 30
0.0
 10
111.8240098461759
 20
-149.5474609001131
 30
0.0
 10
112.156117050954
 20
-149.5326469895266
 30
0.0
 10
112.2026258400049
 20
-149.3696939730742
 30
0.0
 10
112.232253661178
 20
-149.2553168029639
 30
0.0
 10
112.232253661178
 20
-149.2553168029639
 30
0.0
 10
112.3783257097526
 20
-149.2553168029639
 30
0.0
 10
112.3783257097526
 20
-149.2553168029639
 30
0.0
 10
112.3783257097526
 20
-149.2553168029639
 30
0.0
 10
112.3783257097526
 20
-150.7997531090014
 30
0.0
 10
112.3783257097526
 20
-150.7997531090014
 30
0.0
 10
112.3783257097526
 20
-150.7997531090014
 30
0.0
 10
112.1540499936628
 20
-150.7997531090014
 30
0.0
 10
112.1540499936628
 20
-150.7997531090014
 30
0.0
  0
HATCH
  5
EC
330
E7
100
AcDbEntity
  8
レイヤー 1
 62
   250
420
  2299925
440
 33554687
100
AcDbHatch
 10
0.0
 20
0.0
 30
0.0
210
0.0
220
0.0
230
1.0
  2
SOLID
 70
     1
 71
     1
 91
        1
 92
        1
 93
        1
 72
     4
 94
        3
 73
     0
 74
     0
 95
       26
 96
       22
 40
0.0
 40
0.0
 40
0.0
 40
0.0
 40
1.0
 40
1.0
 40
1.0
 40
2.0
 40
2.0
 40
2.0
 40
3.0
 40
3.0
 40
3.0
 40
4.0
 40
4.0
 40
4.0
 40
5.0
 40
5.0
 40
5.0
 40
6.0
 40
6.0
 40
6.0
 40
7.0
 40
7.0
 40
7.0
 40
7.0
 10
112.1540499936628
 20
-150.7997531090014
 10
112.1540499936628
 20
-150.7997531090014
 10
112.1540499936628
 20
-149.6956000059789
 10
112.1540499936628
 20
-149.6956000059789
 10
112.1540499936628
 20
-149.6956000059789
 10
111.8240098461759
 20
-149.6956000059789
 10
111.8240098461759
 20
-149.6956000059789
 10
111.8240098461759
 20
-149.6956000059789
 10
111.8240098461759
 20
-149.5474609001131
 10
111.8240098461759
 20
-149.5474609001131
 10
112.156117050954
 20
-149.5326469895266
 10
112.2026258400049
 20
-149.3696939730742
 10
112.232253661178
 20
-149.2553168029639
 10
112.232253661178
 20
-149.2553168029639
 10
112.3783257097526
 20
-149.2553168029639
 10
112.3783257097526
 20
-149.2553168029639
 10
112.3783257097526
 20
-149.2553168029639
 10
112.3783257097526
 20
-150.7997531090014
 10
112.3783257097526
 20
-150.7997531090014
 10
112.3783257097526
 20
-150.7997531090014
 10
112.1540499936628
 20
-150.7997531090014
 10
112.1540499936628
 20
-150.7997531090014
 97
        0
 97
        1
330
EB
 75
     2
 76
     1
 98
        1
 10
0.0
 20
0.0
450
        0
451
        0
460
0.0
461
0.0
452
        0
462
0.0
453
        0
470

  0
ENDBLK
  5
EA
330
E7
100
AcDbEntity
  8
0
100
AcDbBlockEnd
  0
BLOCK
  5
F3
330
F1
100
AcDbEntity
  8
0
100
AcDbBlockBegin
  2
Block_2
 70
     0
 10
0.0
 20
0.0
 30
0.0
  3
Block_2
  1

  0
INSERT
  5
F6
330
F1
100
AcDbEntity
  8
レイヤー 1
100
AcDbBlockReference
  2
Block_3
 10
0.0
 20
0.0
 30
0.0
  0
ENDBLK
  5
F4
330
F1
100
AcDbEntity
  8
0
100
AcDbBlockEnd
  0
BLOCK
  5
F7
330
F5
100
AcDbEntity
  8
0
100
AcDbBlockBegin
  2
Block_3
 70
     0
 10
0.0
 20
0.0
 30
0.0
  3
Block_3
  1

  0
SPLINE
  5
F9
330
F5
100
AcDbEntity
  8
レイヤー 1
100
AcDbSpline
210
0.0
220
0.0
230
1.0
 70
     9
 71
     3
 72
    17
 73
    13
 74
     0
 42
0.0000000001
 43
0.0000000001
 40
0.0
 40
0.0
 40
0.0
 40
0.0
 40
1.0
 40
1.0
 40
1.0
 40
2.0
 40
2.0
 40
2.0
 40
3.0
 40
3.0
 40
3.0
 40
4.0
 40
4.0
 40
4.0
 40
4.0
 10
102.197207276968
 20
-155.2146429733491
 30
0.0
 10
101.9350355105405
 20
-155.2146429733491
 30
0.0
 10
101.8971394602028
 20
-155.4261718361434
 30
0.0
 10
101.8971394602028
 20
-155.5426160635449
 30
0.0
 10
101.8971394602028
 20
-155.7183159332926
 30
0.0
 10
101.9922240955957
 20
-155.8812689497449
 30
0.0
 10
102.176192194508
 20
-155.8812689497449
 30
0.0
 10
102.2967705364917
 20
-155.8812689497449
 30
0.0
 10
102.4724704062395
 20
-155.8220133073986
 30
0.0
 10
102.4724704062395
 20
-155.5364148916714
 30
0.0
 10
102.4724704062395
 20
-155.3121391755817
 30
0.0
 10
102.3329440390869
 20
-155.2146429733491
 30
0.0
 10
102.197207276968
 20
-155.2146429733491
 30
0.0
  0
SPLINE
  5
FA
330
F5
100
AcDbEntity
  8
レイヤー 1
100
AcDbSpline
210
0.0
220
0.0
230
1.0
 70
     9
 71
     3
 72
    32
 73
    28
 74
     0
 42
0.0000000001
 43
0.0000000001
 40
0.0
 40
0.0
 40
0.0
 40
0.0
 40
1.0
 40
1.0
 40
1.0
 40
2.0
 40
2.0
 40
2.0
 40
3.0
 40
3.0
 40
3.0
 40
4.0
 40
4.0
 40
4.0
 40
5.0
 40
5.0
 40
5.0
 40
6.0
 40
6.0
 40
6.0
 40
7.0
 40
7.0
 40
7.0
 40
8.0
 40
8.0
 40
8.0
 40
9.0
 40
9.0
 40
9.0
 40
9.0
 10
102.1803263090903
 20
-156.0735052778219
 30
0.0
 10
101.6642510053999
 20
-156.0735052778219
 30
0.0
 10
101.6556382666868
 20
-155.5195339237937
 30
0.0
 10
101.6556382666868
 20
-155.3055934941597
 30
0.0
 10
101.6556382666868
 20
-155.0751166061965
 30
0.0
 10
101.6749308014042
 20
-154.4277831645181
 30
0.0
 10
102.2185668689766
 20
-154.4277831645181
 30
0.0
 10
102.3918551718847
 20
-154.4277831645181
 30
0.0
 10
102.637490479983
 20
-154.4977186028686
 30
0.0
 10
102.6753865303207
 20
-154.8298258076467
 30
0.0
 10
102.6753865303207
 20
-154.8298258076467
 30
0.0
 10
102.4617906102352
 20
-154.8298258076467
 30
0.0
 10
102.4617906102352
 20
-154.8298258076467
 30
0.0
 10
102.4511108142309
 20
-154.7726372225915
 30
0.0
 10
102.4194159357667
 20
-154.6244981167258
 30
0.0
 10
102.2164998116854
 20
-154.6244981167258
 30
0.0
 10
101.9243557145363
 20
-154.6244981167258
 30
0.0
 10
101.8843926069074
 20
-154.9524712069216
 30
0.0
 10
101.8716457536119
 20
-155.157454388294
 30
0.0
 10
101.9646633317137
 20
-155.0792507207788
 30
0.0
 10
102.0325317127731
 20
-155.0199950784325
 30
0.0
 10
102.2144327543943
 20
-155.0199950784325
 30
0.0
 10
102.3942667387243
 20
-155.0199950784325
 30
0.0
 10
102.6967461223293
 20
-155.1281710766693
 30
0.0
 10
102.6967461223293
 20
-155.5343478343803
 30
0.0
 10
102.6967461223293
 20
-155.8537081858629
 30
0.0
 10
102.4976196032818
 20
-156.0735052778219
 30
0.0
 10
102.1803263090903
 20
-156.0735052778219
 30
0.0
  0
HATCH
  5
FB
330
F5
100
AcDbEntity
  8
レイヤー 1
 62
   250
420
  2299925
440
 33554687
100
AcDbHatch
 10
0.0
 20
0.0
 30
0.0
210
0.0
220
0.0
230
1.0
  2
SOLID
 70
     1
 71
     1
 91
        2
 92
        1
 93
        1
 72
     4
 94
        3
 73
     0
 74
     0
 95
       17
 96
       13
 40
0.0
 40
0.0
 40
0.0
 40
0.0
 40
1.0
 40
1.0
 40
1.0
 40
2.0
 40
2.0
 40
2.0
 40
3.0
 40
3.0
 40
3.0
 40
4.0
 40
4.0
 40
4.0
 40
4.0
 10
102.197207276968
 20
-155.2146429733491
 10
101.9350355105405
 20
-155.2146429733491
 10
101.8971394602028
 20
-155.4261718361434
 10
101.8971394602028
 20
-155.5426160635449
 10
101.8971394602028
 20
-155.7183159332926
 10
101.9922240955957
 20
-155.8812689497449
 10
102.176192194508
 20
-155.8812689497449
 10
102.2967705364917
 20
-155.8812689497449
 10
102.4724704062395
 20
-155.8220133073986
 10
102.4724704062395
 20
-155.5364148916714
 10
102.4724704062395
 20
-155.3121391755817
 10
102.3329440390869
 20
-155.2146429733491
 10
102.197207276968
 20
-155.2146429733491
 97
        0
 97
        1
330
F9
 92
        1
 93
        1
 72
     4
 94
        3
 73
     0
 74
     0
 95
       32
 96
       28
 40
0.0
 40
0.0
 40
0.0
 40
0.0
 40
1.0
 40
1.0
 40
1.0
 40
2.0
 40
2.0
 40
2.0
 40
3.0
 40
3.0
 40
3.0
 40
4.0
 40
4.0
 40
4.0
 40
5.0
 40
5.0
 40
5.0
 40
6.0
 40
6.0
 40
6.0
 40
7.0
 40
7.0
 40
7.0
 40
8.0
 40
8.0
 40
8.0
 40
9.0
 40
9.0
 40
9.0
 40
9.0
 10
102.1803263090903
 20
-156.0735052778219
 10
101.6642510053999
 20
-156.0735052778219
 10
101.6556382666868
 20
-155.5195339237937
 10
101.6556382666868
 20
-155.3055934941597
 10
101.6556382666868
 20
-155.0751166061965
 10
101.6749308014042
 20
-154.4277831645181
 10
102.2185668689766
 20
-154.4277831645181
 10
102.3918551718847
 20
-154.4277831645181
 10
102.637490479983
 20
-154.4977186028686
 10
102.6753865303207
 20
-154.8298258076467
 10
102.6753865303207
 20
-154.8298258076467
 10
102.4617906102352
 20
-154.8298258076467
 10
102.4617906102352
 20
-154.8298258076467
 10
102.4511108142309
 20
-154.7726372225915
 10
102.4194159357667
 20
-154.6244981167258
 10
102.2164998116854
 20
-154.6244981167258
 10
101.9243557145363
 20
-154.6244981167258
 10
101.8843926069074
 20
-154.9524712069216
 10
101.8716457536119
 20
-155.157454388294
 10
101.9646633317137
 20
-155.0792507207788
 10
102.0325317127731
 20
-155.0199950784325
 10
102.2144327543943
 20
-155.0199950784325
 10
102.3942667387243
 20
-155.0199950784325
 10
102.6967461223293
 20
-155.1281710766693
 10
102.6967461223293
 20
-155.5343478343803
 10
102.6967461223293
 20
-155.8537081858629
 10
102.4976196032818
 20
-156.0735052778219
 10
102.1803263090903
 20
-156.0735052778219
 97
        0
 97
        1
330
FA
 75
     2
 76
     1
 98
        1
 10
0.0
 20
0.0
450
        0
451
        0
460
0.0
461
0.0
452
        0
462
0.0
453
        0
470

  0
SPLINE
  5
FC
330
F5
100
AcDbEntity
  8
レイヤー 1
100
AcDbSpline
210
0.0
220
0.0
230
1.0
 70
    11
 71
     3
 72
    17
 73
    13
 74
     0
 42
0.0000000001
 43
0.0000000001
 40
0.0
 40
0.0
 40
0.0
 40
0.0
 40
1.0
 40
1.0
 40
1.0
 40
2.0
 40
2.0
 40
2.0
 40
3.0
 40
3.0
 40
3.0
 40
4.0
 40
4.0
 40
4.0
 40
4.0
 10
102.913098118803
 20
-156.0228623741887
 30
0.0
 10
102.913098118803
 20
-156.0228623741887
 30
0.0
 10
102.913098118803
 20
-155.7710258942169
 30
0.0
 10
102.913098118803
 20
-155.7710258942169
 30
0.0
 10
102.913098118803
 20
-155.7710258942169
 30
0.0
 10
103.1649345987747
 20
-155.7710258942169
 30
0.0
 10
103.1649345987747
 20
-155.7710258942169
 30
0.0
 10
103.1649345987747
 20
-155.7710258942169
 30
0.0
 10
103.1649345987747
 20
-156.0228623741887
 30
0.0
 10
103.1649345987747
 20
-156.0228623741887
 30
0.0
 10
103.1649345987747
 20
-156.0228623741887
 30
0.0
 10
102.913098118803
 20
-156.0228623741887
 30
0.0
 10
102.913098118803
 20
-156.0228623741887
 30
0.0
  0
HATCH
  5
FD
330
F5
100
AcDbEntity
  8
レイヤー 1
 62
   250
420
  2299925
440
 33554687
100
AcDbHatch
 10
0.0
 20
0.0
 30
0.0
210
0.0
220
0.0
230
1.0
  2
SOLID
 70
     1
 71
     1
 91
        1
 92
        1
 93
        1
 72
     4
 94
        3
 73
     0
 74
     0
 95
       17
 96
       13
 40
0.0
 40
0.0
 40
0.0
 40
0.0
 40
1.0
 40
1.0
 40
1.0
 40
2.0
 40
2.0
 40
2.0
 40
3.0
 40
3.0
 40
3.0
 40
4.0
 40
4.0
 40
4.0
 40
4.0
 10
102.913098118803
 20
-156.0228623741887
 10
102.913098118803
 20
-156.0228623741887
 10
102.913098118803
 20
-155.7710258942169
 10
102.913098118803
 20
-155.7710258942169
 10
102.913098118803
 20
-155.7710258942169
 10
103.1649345987747
 20
-155.7710258942169
 10
103.1649345987747
 20
-155.7710258942169
 10
103.1649345987747
 20
-155.7710258942169
 10
103.1649345987747
 20
-156.0228623741887
 10
103.1649345987747
 20
-156.0228623741887
 10
103.1649345987747
 20
-156.0228623741887
 10
102.913098118803
 20
-156.0228623741887
 10
102.913098118803
 20
-156.0228623741887
 97
        0
 97
        1
330
FC
 75
     2
 76
     1
 98
        1
 10
0.0
 20
0.0
450
        0
451
        0
460
0.0
461
0.0
452
        0
462
0.0
453
        0
470

  0
SPLINE
  5
FE
330
F5
100
AcDbEntity
  8
レイヤー 1
100
AcDbSpline
210
0.0
220
0.0
230
1.0
 70
     9
 71
     3
 72
    53
 73
    49
 74
     0
 42
0.0000000001
 43
0.0000000001
 40
0.0
 40
0.0
 40
0.0
 40
0.0
 40
1.0
 40
1.0
 40
1.0
 40
2.0
 40
2.0
 40
2.0
 40
3.0
 40
3.0
 40
3.0
 40
4.0
 40
4.0
 40
4.0
 40
5.0
 40
5.0
 40
5.0
 40
6.0
 40
6.0
 40
6.0
 40
7.0
 40
7.0
 40
7.0
 40
8.0
 40
8.0
 40
8.0
 40
9.0
 40
9.0
 40
9.0
 40
10.0
 40
10.0
 40
10.0
 40
11.0
 40
11.0
 40
11.0
 40
12.0
 40
12.0
 40
12.0
 40
13.0
 40
13.0
 40
13.0
 40
14.0
 40
14.0
 40
14.0
 40
15.0
 40
15.0
 40
15.0
 40
16.0
 40
16.0
 40
16.0
 40
16.0
 10
103.8822034788037
 20
-156.0735052778219
 30
0.0
 10
103.8039998112886
 20
-156.0735052778219
 30
0.0
 10
103.7023694944737
 20
-156.0566243099442
 30
0.0
 10
103.6007391776588
 20
-155.9932345530156
 30
0.0
 10
103.4274508747508
 20
-155.8833360070361
 30
0.0
 10
103.4060912827422
 20
-155.7520778690481
 30
0.0
 10
103.3871432575733
 20
-155.6442463803598
 30
0.0
 10
103.3871432575733
 20
-155.6442463803598
 30
0.0
 10
103.6093519163719
 20
-155.6442463803598
 30
0.0
 10
103.6093519163719
 20
-155.6442463803598
 30
0.0
 10
103.6641289345874
 20
-155.8430283898587
 30
0.0
 10
103.7912529579931
 20
-155.8726562110318
 30
0.0
 10
103.8842705360949
 20
-155.8726562110318
 30
0.0
 10
104.0237969032475
 20
-155.8726562110318
 30
0.0
 10
104.1760701236955
 20
-155.7730929515081
 30
0.0
 10
104.1760701236955
 20
-155.5405490062538
 30
0.0
 10
104.1760701236955
 20
-155.2845784116997
 30
0.0
 10
103.9962361393655
 20
-155.2146429733491
 30
0.0
 10
103.8756577973818
 20
-155.2146429733491
 30
0.0
 10
103.8439629189175
 20
-155.2146429733491
 30
0.0
 10
103.7023694944737
 20
-155.2146429733491
 30
0.0
 10
103.6134860309543
 20
-155.343834054046
 30
0.0
 10
103.6134860309543
 20
-155.343834054046
 30
0.0
 10
103.4377861612065
 20
-155.3248860288771
 30
0.0
 10
103.4377861612065
 20
-155.3248860288771
 30
0.0
 10
103.4377861612065
 20
-155.3248860288771
 30
0.0
 10
103.5583645031902
 20
-154.4784260681512
 30
0.0
 10
103.5583645031902
 20
-154.4784260681512
 30
0.0
 10
103.5583645031902
 20
-154.4784260681512
 30
0.0
 10
104.3369560828567
 20
-154.4784260681512
 30
0.0
 10
104.3369560828567
 20
-154.4784260681512
 30
0.0
 10
104.3369560828567
 20
-154.4784260681512
 30
0.0
 10
104.3369560828567
 20
-154.6730739630678
 30
0.0
 10
104.3369560828567
 20
-154.6730739630678
 30
0.0
 10
104.3369560828567
 20
-154.6730739630678
 30
0.0
 10
103.7213175196426
 20
-154.6730739630678
 30
0.0
 10
103.7213175196426
 20
-154.6730739630678
 30
0.0
 10
103.7213175196426
 20
-154.6730739630678
 30
0.0
 10
103.6558607054228
 20
-155.0961316886565
 30
0.0
 10
103.6558607054228
 20
-155.0961316886565
 30
0.0
 10
103.7171834050603
 20
-155.0623697529011
 30
0.0
 10
103.7995211871577
 20
-155.0220621357236
 30
0.0
 10
103.9180324718503
 20
-155.0220621357236
 30
0.0
 10
104.1719360091132
 20
-155.0220621357236
 30
0.0
 10
104.4089585784984
 20
-155.2084418014757
 30
0.0
 10
104.4089585784984
 20
-155.5216009810848
 30
0.0
 10
104.4089585784984
 20
-155.8388942752764
 30
0.0
 10
104.1846828624087
 20
-156.0735052778219
 30
0.0
 10
103.8822034788037
 20
-156.0735052778219
 30
0.0
  0
HATCH
  5
FF
330
F5
100
AcDbEntity
  8
レイヤー 1
 62
   250
420
  2299925
440
 33554687
100
AcDbHatch
 10
0.0
 20
0.0
 30
0.0
210
0.0
220
0.0
230
1.0
  2
SOLID
 70
     1
 71
     1
 91
        1
 92
        1
 93
        1
 72
     4
 94
        3
 73
     0
 74
     0
 95
       53
 96
       49
 40
0.0
 40
0.0
 40
0.0
 40
0.0
 40
1.0
 40
1.0
 40
1.0
 40
2.0
 40
2.0
 40
2.0
 40
3.0
 40
3.0
 40
3.0
 40
4.0
 40
4.0
 40
4.0
 40
5.0
 40
5.0
 40
5.0
 40
6.0
 40
6.0
 40
6.0
 40
7.0
 40
7.0
 40
7.0
 40
8.0
 40
8.0
 40
8.0
 40
9.0
 40
9.0
 40
9.0
 40
10.0
 40
10.0
 40
10.0
 40
11.0
 40
11.0
 40
11.0
 40
12.0
 40
12.0
 40
12.0
 40
13.0
 40
13.0
 40
13.0
 40
14.0
 40
14.0
 40
14.0
 40
15.0
 40
15.0
 40
15.0
 40
16.0
 40
16.0
 40
16.0
 40
16.0
 10
103.8822034788037
 20
-156.0735052778219
 10
103.8039998112886
 20
-156.0735052778219
 10
103.7023694944737
 20
-156.0566243099442
 10
103.6007391776588
 20
-155.9932345530156
 10
103.4274508747508
 20
-155.8833360070361
 10
103.4060912827422
 20
-155.7520778690481
 10
103.3871432575733
 20
-155.6442463803598
 10
103.3871432575733
 20
-155.6442463803598
 10
103.6093519163719
 20
-155.6442463803598
 10
103.6093519163719
 20
-155.6442463803598
 10
103.6641289345874
 20
-155.8430283898587
 10
103.7912529579931
 20
-155.8726562110318
 10
103.8842705360949
 20
-155.8726562110318
 10
104.0237969032475
 20
-155.8726562110318
 10
104.1760701236955
 20
-155.7730929515081
 10
104.1760701236955
 20
-155.5405490062538
 10
104.1760701236955
 20
-155.2845784116997
 10
103.9962361393655
 20
-155.2146429733491
 10
103.8756577973818
 20
-155.2146429733491
 10
103.8439629189175
 20
-155.2146429733491
 10
103.7023694944737
 20
-155.2146429733491
 10
103.6134860309543
 20
-155.343834054046
 10
103.6134860309543
 20
-155.343834054046
 10
103.4377861612065
 20
-155.3248860288771
 10
103.4377861612065
 20
-155.3248860288771
 10
103.4377861612065
 20
-155.3248860288771
 10
103.5583645031902
 20
-154.4784260681512
 10
103.5583645031902
 20
-154.4784260681512
 10
103.5583645031902
 20
-154.4784260681512
 10
104.3369560828567
 20
-154.4784260681512
 10
104.3369560828567
 20
-154.4784260681512
 10
104.3369560828567
 20
-154.4784260681512
 10
104.3369560828567
 20
-154.6730739630678
 10
104.3369560828567
 20
-154.6730739630678
 10
104.3369560828567
 20
-154.6730739630678
 10
103.7213175196426
 20
-154.6730739630678
 10
103.7213175196426
 20
-154.6730739630678
 10
103.7213175196426
 20
-154.6730739630678
 10
103.6558607054228
 20
-155.0961316886565
 10
103.6558607054228
 20
-155.0961316886565
 10
103.7171834050603
 20
-155.0623697529011
 10
103.7995211871577
 20
-155.0220621357236
 10
103.9180324718503
 20
-155.0220621357236
 10
104.1719360091132
 20
-155.0220621357236
 10
104.4089585784984
 20
-155.2084418014757
 10
104.4089585784984
 20
-155.5216009810848
 10
104.4089585784984
 20
-155.8388942752764
 10
104.1846828624087
 20
-156.0735052778219
 10
103.8822034788037
 20
-156.0735052778219
 97
        0
 97
        1
330
FE
 75
     2
 76
     1
 98
        1
 10
0.0
 20
0.0
450
        0
451
        0
460
0.0
461
0.0
452
        0
462
0.0
453
        0
470

  0
ENDBLK
  5
F8
330
F5
100
AcDbEntity
  8
0
100
AcDbBlockEnd
  0
BLOCK
  5
106
330
104
100
AcDbEntity
  8
0
100
AcDbBlockBegin
  2
Block_4
 70
     0
 10
0.0
 20
0.0
 30
0.0
  3
Block_4
  1

  0
INSERT
  5
109
330
104
100
AcDbEntity
  8
レイヤー 1
100
AcDbBlockReference
  2
Block_5
 10
0.0
 20
0.0
 30
0.0
  0
ENDBLK
  5
107
330
104
100
AcDbEntity
  8
0
100
AcDbBlockEnd
  0
BLOCK
  5
10A
330
108
100
AcDbEntity
  8
0
100
AcDbBlockBegin
  2
Block_5
 70
     0
 10
0.0
 20
0.0
 30
0.0
  3
Block_5
  1

  0
SPLINE
  5
10C
330
108
100
AcDbEntity
  8
レイヤー 1
100
AcDbSpline
210
0.0
220
0.0
230
1.0
 70
     9
 71
     3
 72
    17
 73
    13
 74
     0
 42
0.0000000001
 43
0.0000000001
 40
0.0
 40
0.0
 40
0.0
 40
0.0
 40
1.0
 40
1.0
 40
1.0
 40
2.0
 40
2.0
 40
2.0
 40
3.0
 40
3.0
 40
3.0
 40
4.0
 40
4.0
 40
4.0
 40
4.0
 10
73.55743948898911
 20
-145.888252730455
 30
0.0
 10
73.55743948898911
 20
-146.1380221531356
 30
0.0
 10
73.84079859265091
 20
-146.1845309421865
 30
0.0
 10
74.18565265072442
 20
-146.1845309421865
 30
0.0
 10
74.50518525698135
 20
-146.1845309421865
 30
0.0
 10
74.81403806723399
 20
-146.1483574395914
 30
0.0
 10
74.81403806723399
 20
-145.888252730455
 30
0.0
 10
74.81403806723399
 20
-145.6407226198398
 30
0.0
 10
74.53257376608909
 20
-145.5919745187235
 30
0.0
 10
74.18565265072442
 20
-145.5919745187235
 30
0.0
 10
73.86629229924176
 20
-145.5919745187235
 30
0.0
 10
73.55743948898911
 20
-145.6302150786098
 30
0.0
 10
73.55743948898911
 20
-145.888252730455
 30
0.0
  0
SPLINE
  5
10D
330
108
100
AcDbEntity
  8
レイヤー 1
100
AcDbSpline
210
0.0
220
0.0
230
1.0
 70
     9
 71
     3
 72
    29
 73
    25
 74
     0
 42
0.0000000001
 43
0.0000000001
 40
0.0
 40
0.0
 40
0.0
 40
0.0
 40
1.0
 40
1.0
 40
1.0
 40
2.0
 40
2.0
 40
2.0
 40
3.0
 40
3.0
 40
3.0
 40
4.0
 40
4.0
 40
4.0
 40
5.0
 40
5.0
 40
5.0
 40
6.0
 40
6.0
 40
6.0
 40
7.0
 40
7.0
 40
7.0
 40
8.0
 40
8.0
 40
8.0
 40
8.0
 10
74.78010387670429
 20
-145.4905164566829
 30
0.0
 10
74.98956568220747
 20
-145.5983479453712
 30
0.0
 10
75.0086859621506
 20
-145.7718085030536
 30
0.0
 10
75.0086859621506
 20
-145.888252730455
 30
0.0
 10
75.0086859621506
 20
-146.0491386896162
 30
0.0
 10
74.96217717309973
 20
-146.1907321140599
 30
0.0
 10
74.78010387670429
 20
-146.2858167494528
 30
0.0
 10
74.58562823656193
 20
-146.3895141235589
 30
0.0
 10
74.34860566717674
 20
-146.4088066582763
 30
0.0
 10
74.18565265072442
 20
-146.4088066582763
 30
0.0
 10
74.04181991421523
 20
-146.4088066582763
 30
0.0
 10
73.79015568901774
 20
-146.39158118085
 30
0.0
 10
73.59120142474457
 20
-146.2858167494528
 30
0.0
 10
73.38811304588908
 20
-146.1779852607645
 30
0.0
 10
73.36485865136364
 20
-146.0170993016033
 30
0.0
 10
73.36485865136364
 20
-145.888252730455
 30
0.0
 10
73.36485865136364
 20
-145.729433828585
 30
0.0
 10
73.40930038312336
 20
-145.5857733468501
 30
0.0
 10
73.59120142474457
 20
-145.4905164566829
 30
0.0
 10
73.78378226237003
 20
-145.3911254519335
 30
0.0
 10
74.01219209304208
 20
-145.367871057408
 30
0.0
 10
74.18565265072442
 20
-145.367871057408
 30
0.0
 10
74.3570461511156
 20
-145.367871057408
 30
0.0
 10
74.58769529385307
 20
-145.388886139868
 30
0.0
 10
74.78010387670429
 20
-145.4905164566829
 30
0.0
  0
HATCH
  5
10E
330
108
100
AcDbEntity
  8
レイヤー 1
 62
   250
420
  2299925
440
 33554687
100
AcDbHatch
 10
0.0
 20
0.0
 30
0.0
210
0.0
220
0.0
230
1.0
  2
SOLID
 70
     1
 71
     1
 91
        2
 92
        1
 93
        1
 72
     4
 94
        3
 73
     0
 74
     0
 95
       17
 96
       13
 40
0.0
 40
0.0
 40
0.0
 40
0.0
 40
1.0
 40
1.0
 40
1.0
 40
2.0
 40
2.0
 40
2.0
 40
3.0
 40
3.0
 40
3.0
 40
4.0
 40
4.0
 40
4.0
 40
4.0
 10
73.55743948898911
 20
-145.888252730455
 10
73.55743948898911
 20
-146.1380221531356
 10
73.84079859265091
 20
-146.1845309421865
 10
74.18565265072442
 20
-146.1845309421865
 10
74.50518525698135
 20
-146.1845309421865
 10
74.81403806723399
 20
-146.1483574395914
 10
74.81403806723399
 20
-145.888252730455
 10
74.81403806723399
 20
-145.6407226198398
 10
74.53257376608909
 20
-145.5919745187235
 10
74.18565265072442
 20
-145.5919745187235
 10
73.86629229924176
 20
-145.5919745187235
 10
73.55743948898911
 20
-145.6302150786098
 10
73.55743948898911
 20
-145.888252730455
 97
        0
 97
        1
330
10C
 92
        1
 93
        1
 72
     4
 94
        3
 73
     0
 74
     0
 95
       29
 96
       25
 40
0.0
 40
0.0
 40
0.0
 40
0.0
 40
1.0
 40
1.0
 40
1.0
 40
2.0
 40
2.0
 40
2.0
 40
3.0
 40
3.0
 40
3.0
 40
4.0
 40
4.0
 40
4.0
 40
5.0
 40
5.0
 40
5.0
 40
6.0
 40
6.0
 40
6.0
 40
7.0
 40
7.0
 40
7.0
 40
8.0
 40
8.0
 40
8.0
 40
8.0
 10
74.78010387670429
 20
-145.4905164566829
 10
74.98956568220747
 20
-145.5983479453712
 10
75.0086859621506
 20
-145.7718085030536
 10
75.0086859621506
 20
-145.888252730455
 10
75.0086859621506
 20
-146.0491386896162
 10
74.96217717309973
 20
-146.1907321140599
 10
74.78010387670429
 20
-146.2858167494528
 10
74.58562823656193
 20
-146.3895141235589
 10
74.34860566717674
 20
-146.4088066582763
 10
74.18565265072442
 20
-146.4088066582763
 10
74.04181991421523
 20
-146.4088066582763
 10
73.79015568901774
 20
-146.39158118085
 10
73.59120142474457
 20
-146.2858167494528
 10
73.38811304588908
 20
-146.1779852607645
 10
73.36485865136364
 20
-146.0170993016033
 10
73.36485865136364
 20
-145.888252730455
 10
73.36485865136364
 20
-145.729433828585
 10
73.40930038312336
 20
-145.5857733468501
 10
73.59120142474457
 20
-145.4905164566829
 10
73.78378226237003
 20
-145.3911254519335
 10
74.01219209304208
 20
-145.367871057408
 10
74.18565265072442
 20
-145.367871057408
 10
74.3570461511156
 20
-145.367871057408
 10
74.58769529385307
 20
-145.388886139868
 10
74.78010387670429
 20
-145.4905164566829
 97
        0
 97
        1
330
10D
 75
     2
 76
     1
 98
        1
 10
0.0
 20
0.0
450
        0
451
        0
460
0.0
461
0.0
452
        0
462
0.0
453
        0
470

  0
SPLINE
  5
10F
330
108
100
AcDbEntity
  8
レイヤー 1
100
AcDbSpline
210
0.0
220
0.0
230
1.0
 70
    11
 71
     3
 72
    17
 73
    13
 74
     0
 42
0.0000000001
 43
0.0000000001
 40
0.0
 40
0.0
 40
0.0
 40
0.0
 40
1.0
 40
1.0
 40
1.0
 40
2.0
 40
2.0
 40
2.0
 40
3.0
 40
3.0
 40
3.0
 40
4.0
 40
4.0
 40
4.0
 40
4.0
 10
74.95787080374317
 20
-145.1513468061601
 30
0.0
 10
74.95787080374317
 20
-145.1513468061601
 30
0.0
 10
74.70620657854567
 20
-145.1513468061601
 30
0.0
 10
74.70620657854567
 20
-145.1513468061601
 30
0.0
 10
74.70620657854567
 20
-145.1513468061601
 30
0.0
 10
74.70620657854567
 20
-144.8996825809626
 30
0.0
 10
74.70620657854567
 20
-144.8996825809626
 30
0.0
 10
74.70620657854567
 20
-144.8996825809626
 30
0.0
 10
74.95787080374317
 20
-144.8996825809626
 30
0.0
 10
74.95787080374317
 20
-144.8996825809626
 30
0.0
 10
74.95787080374317
 20
-144.8996825809626
 30
0.0
 10
74.95787080374317
 20
-145.1513468061601
 30
0.0
 10
74.95787080374317
 20
-145.1513468061601
 30
0.0
  0
HATCH
  5
110
330
108
100
AcDbEntity
  8
レイヤー 1
 62
   250
420
  2299925
440
 33554687
100
AcDbHatch
 10
0.0
 20
0.0
 30
0.0
210
0.0
220
0.0
230
1.0
  2
SOLID
 70
     1
 71
     1
 91
        1
 92
        1
 93
        1
 72
     4
 94
        3
 73
     0
 74
     0
 95
       17
 96
       13
 40
0.0
 40
0.0
 40
0.0
 40
0.0
 40
1.0
 40
1.0
 40
1.0
 40
2.0
 40
2.0
 40
2.0
 40
3.0
 40
3.0
 40
3.0
 40
4.0
 40
4.0
 40
4.0
 40
4.0
 10
74.95787080374317
 20
-145.1513468061601
 10
74.95787080374317
 20
-145.1513468061601
 10
74.70620657854567
 20
-145.1513468061601
 10
74.70620657854567
 20
-145.1513468061601
 10
74.70620657854567
 20
-145.1513468061601
 10
74.70620657854567
 20
-144.8996825809626
 10
74.70620657854567
 20
-144.8996825809626
 10
74.70620657854567
 20
-144.8996825809626
 10
74.95787080374317
 20
-144.8996825809626
 10
74.95787080374317
 20
-144.8996825809626
 10
74.95787080374317
 20
-144.8996825809626
 10
74.95787080374317
 20
-145.1513468061601
 10
74.95787080374317
 20
-145.1513468061601
 97
        0
 97
        1
330
10F
 75
     2
 76
     1
 98
        1
 10
0.0
 20
0.0
450
        0
451
        0
460
0.0
461
0.0
452
        0
462
0.0
453
        0
470

  0
SPLINE
  5
111
330
108
100
AcDbEntity
  8
レイヤー 1
100
AcDbSpline
210
0.0
220
0.0
230
1.0
 70
     9
 71
     3
 72
    53
 73
    49
 74
     0
 42
0.0000000001
 43
0.0000000001
 40
0.0
 40
0.0
 40
0.0
 40
0.0
 40
1.0
 40
1.0
 40
1.0
 40
2.0
 40
2.0
 40
2.0
 40
3.0
 40
3.0
 40
3.0
 40
4.0
 40
4.0
 40
4.0
 40
5.0
 40
5.0
 40
5.0
 40
6.0
 40
6.0
 40
6.0
 40
7.0
 40
7.0
 40
7.0
 40
8.0
 40
8.0
 40
8.0
 40
9.0
 40
9.0
 40
9.0
 40
10.0
 40
10.0
 40
10.0
 40
11.0
 40
11.0
 40
11.0
 40
12.0
 40
12.0
 40
12.0
 40
13.0
 40
13.0
 40
13.0
 40
14.0
 40
14.0
 40
14.0
 40
15.0
 40
15.0
 40
15.0
 40
16.0
 40
16.0
 40
16.0
 40
16.0
 10
75.0086859621506
 20
-144.182069191385
 30
0.0
 10
75.0086859621506
 20
-144.2604451136745
 30
0.0
 10
74.99180499427288
 20
-144.3619031757151
 30
0.0
 10
74.92824298257002
 20
-144.4635334925299
 30
0.0
 10
74.81817218181629
 20
-144.6369940502123
 30
0.0
 10
74.68708629860254
 20
-144.6581813874465
 30
0.0
 10
74.57925480991422
 20
-144.6771294126154
 30
0.0
 10
74.57925480991422
 20
-144.6771294126154
 30
0.0
 10
74.57925480991422
 20
-144.4550930085911
 30
0.0
 10
74.57925480991422
 20
-144.4550930085911
 30
0.0
 10
74.77803681941313
 20
-144.3999714808271
 30
0.0
 10
74.80766464058628
 20
-144.2730197121956
 30
0.0
 10
74.80766464058628
 20
-144.1800021340938
 30
0.0
 10
74.80766464058628
 20
-144.040303512167
 30
0.0
 10
74.70827363583682
 20
-143.8880302917189
 30
0.0
 10
74.4755574358082
 20
-143.8880302917189
 30
0.0
 10
74.21958684125414
 20
-143.8880302917189
 30
0.0
 10
74.14982365767783
 20
-144.067864276049
 30
0.0
 10
74.14982365767783
 20
-144.1884426180327
 30
0.0
 10
74.14982365767783
 20
-144.220137496497
 30
0.0
 10
74.14982365767783
 20
-144.3619031757151
 30
0.0
 10
74.27884248360043
 20
-144.4507866392345
 30
0.0
 10
74.27884248360043
 20
-144.4507866392345
 30
0.0
 10
74.25972220365729
 20
-144.626314254208
 30
0.0
 10
74.25972220365729
 20
-144.626314254208
 30
0.0
 10
74.25972220365729
 20
-144.626314254208
 30
0.0
 10
73.41360675247994
 20
-144.5057359122242
 30
0.0
 10
73.41360675247994
 20
-144.5057359122242
 30
0.0
 10
73.41360675247994
 20
-144.5057359122242
 30
0.0
 10
73.41360675247994
 20
-143.727316587332
 30
0.0
 10
73.41360675247994
 20
-143.727316587332
 30
0.0
 10
73.41360675247994
 20
-143.727316587332
 30
0.0
 10
73.60825464739654
 20
-143.727316587332
 30
0.0
 10
73.60825464739654
 20
-143.727316587332
 30
0.0
 10
73.60825464739654
 20
-143.727316587332
 30
0.0
 10
73.60825464739654
 20
-144.3429551505462
 30
0.0
 10
73.60825464739654
 20
-144.3429551505462
 30
0.0
 10
73.60825464739654
 20
-144.3429551505462
 30
0.0
 10
74.03131237298523
 20
-144.4084119647659
 30
0.0
 10
74.03131237298523
 20
-144.4084119647659
 30
0.0
 10
73.99737818245552
 20
-144.3470892651285
 30
0.0
 10
73.95724282005236
 20
-144.2645792282568
 30
0.0
 10
73.95724282005236
 20
-144.1462401983384
 30
0.0
 10
73.95724282005236
 20
-143.8923366610755
 30
0.0
 10
74.14345023103011
 20
-143.6553140916903
 30
0.0
 10
74.45643715586506
 20
-143.6553140916903
 30
0.0
 10
74.77390270483083
 20
-143.6553140916903
 30
0.0
 10
75.0086859621506
 20
-143.8795898077801
 30
0.0
 10
75.0086859621506
 20
-144.182069191385
 30
0.0
  0
HATCH
  5
112
330
108
100
AcDbEntity
  8
レイヤー 1
 62
   250
420
  2299925
440
 33554687
100
AcDbHatch
 10
0.0
 20
0.0
 30
0.0
210
0.0
220
0.0
230
1.0
  2
SOLID
 70
     1
 71
     1
 91
        1
 92
        1
 93
        1
 72
     4
 94
        3
 73
     0
 74
     0
 95
       53
 96
       49
 40
0.0
 40
0.0
 40
0.0
 40
0.0
 40
1.0
 40
1.0
 40
1.0
 40
2.0
 40
2.0
 40
2.0
 40
3.0
 40
3.0
 40
3.0
 40
4.0
 40
4.0
 40
4.0
 40
5.0
 40
5.0
 40
5.0
 40
6.0
 40
6.0
 40
6.0
 40
7.0
 40
7.0
 40
7.0
 40
8.0
 40
8.0
 40
8.0
 40
9.0
 40
9.0
 40
9.0
 40
10.0
 40
10.0
 40
10.0
 40
11.0
 40
11.0
 40
11.0
 40
12.0
 40
12.0
 40
12.0
 40
13.0
 40
13.0
 40
13.0
 40
14.0
 40
14.0
 40
14.0
 40
15.0
 40
15.0
 40
15.0
 40
16.0
 40
16.0
 40
16.0
 40
16.0
 10
75.0086859621506
 20
-144.182069191385
 10
75.0086859621506
 20
-144.2604451136745
 10
74.99180499427288
 20
-144.3619031757151
 10
74.92824298257002
 20
-144.4635334925299
 10
74.81817218181629
 20
-144.6369940502123
 10
74.68708629860254
 20
-144.6581813874465
 10
74.57925480991422
 20
-144.6771294126154
 10
74.57925480991422
 20
-144.6771294126154
 10
74.57925480991422
 20
-144.4550930085911
 10
74.57925480991422
 20
-144.4550930085911
 10
74.77803681941313
 20
-144.3999714808271
 10
74.80766464058628
 20
-144.2730197121956
 10
74.80766464058628
 20
-144.1800021340938
 10
74.80766464058628
 20
-144.040303512167
 10
74.70827363583682
 20
-143.8880302917189
 10
74.4755574358082
 20
-143.8880302917189
 10
74.21958684125414
 20
-143.8880302917189
 10
74.14982365767783
 20
-144.067864276049
 10
74.14982365767783
 20
-144.1884426180327
 10
74.14982365767783
 20
-144.220137496497
 10
74.14982365767783
 20
-144.3619031757151
 10
74.27884248360043
 20
-144.4507866392345
 10
74.27884248360043
 20
-144.4507866392345
 10
74.25972220365729
 20
-144.626314254208
 10
74.25972220365729
 20
-144.626314254208
 10
74.25972220365729
 20
-144.626314254208
 10
73.41360675247994
 20
-144.5057359122242
 10
73.41360675247994
 20
-144.5057359122242
 10
73.41360675247994
 20
-144.5057359122242
 10
73.41360675247994
 20
-143.727316587332
 10
73.41360675247994
 20
-143.727316587332
 10
73.41360675247994
 20
-143.727316587332
 10
73.60825464739654
 20
-143.727316587332
 10
73.60825464739654
 20
-143.727316587332
 10
73.60825464739654
 20
-143.727316587332
 10
73.60825464739654
 20
-144.3429551505462
 10
73.60825464739654
 20
-144.3429551505462
 10
73.60825464739654
 20
-144.3429551505462
 10
74.03131237298523
 20
-144.4084119647659
 10
74.03131237298523
 20
-144.4084119647659
 10
73.99737818245552
 20
-144.3470892651285
 10
73.95724282005236
 20
-144.2645792282568
 10
73.95724282005236
 20
-144.1462401983384
 10
73.95724282005236
 20
-143.8923366610755
 10
74.14345023103011
 20
-143.6553140916903
 10
74.45643715586506
 20
-143.6553140916903
 10
74.77390270483083
 20
-143.6553140916903
 10
75.0086859621506
 20
-143.8795898077801
 10
75.0086859621506
 20
-144.182069191385
 97
        0
 97
        1
330
111
 75
     2
 76
     1
 98
        1
 10
0.0
 20
0.0
450
        0
451
        0
460
0.0
461
0.0
452
        0
462
0.0
453
        0
470

  0
ENDBLK
  5
10B
330
108
100
AcDbEntity
  8
0
100
AcDbBlockEnd
  0
BLOCK
  5
117
330
115
100
AcDbEntity
  8
0
100
AcDbBlockBegin
  2
Block_6
 70
     0
 10
0.0
 20
0.0
 30
0.0
  3
Block_6
  1

  0
INSERT
  5
11A
330
115
100
AcDbEntity
  8
レイヤー 1
100
AcDbBlockReference
  2
Block_7
 10
0.0
 20
0.0
 30
0.0
  0
ENDBLK
  5
118
330
115
100
AcDbEntity
  8
0
100
AcDbBlockEnd
  0
BLOCK
  5
11B
330
119
100
AcDbEntity
  8
0
100
AcDbBlockBegin
  2
Block_7
 70
     0
 10
0.0
 20
0.0
 30
0.0
  3
Block_7
  1

  0
SPLINE
  5
11D
330
119
100
AcDbEntity
  8
レイヤー 1
100
AcDbSpline
210
0.0
220
0.0
230
1.0
 70
     9
 71
     3
 72
    44
 73
    40
 74
     0
 42
0.0000000001
 43
0.0000000001
 40
0.0
 40
0.0
 40
0.0
 40
0.0
 40
1.0
 40
1.0
 40
1.0
 40
2.0
 40
2.0
 40
2.0
 40
3.0
 40
3.0
 40
3.0
 40
4.0
 40
4.0
 40
4.0
 40
5.0
 40
5.0
 40
5.0
 40
6.0
 40
6.0
 40
6.0
 40
7.0
 40
7.0
 40
7.0
 40
8.0
 40
8.0
 40
8.0
 40
9.0
 40
9.0
 40
9.0
 40
10.0
 40
10.0
 40
10.0
 40
11.0
 40
11.0
 40
11.0
 40
12.0
 40
12.0
 40
12.0
 40
13.0
 40
13.0
 40
13.0
 40
13.0
 10
90.42772757070904
 20
-141.1352267442301
 30
0.0
 10
90.20982528126699
 20
-141.2938733913258
 30
0.0
 10
90.11663544839098
 20
-141.3679429442587
 30
0.0
 10
90.06805960204896
 20
-141.5117756807679
 30
0.0
 10
90.06805960204896
 20
-141.5117756807679
 30
0.0
 10
90.84647892694116
 20
-141.5117756807679
 30
0.0
 10
90.84647892694116
 20
-141.5117756807679
 30
0.0
 10
90.84647892694116
 20
-141.5117756807679
 30
0.0
 10
90.84647892694116
 20
-141.7169311169145
 30
0.0
 10
90.84647892694116
 20
-141.7169311169145
 30
0.0
 10
90.84647892694116
 20
-141.7169311169145
 30
0.0
 10
89.81846243414262
 20
-141.7169311169145
 30
0.0
 10
89.81846243414262
 20
-141.7169311169145
 30
0.0
 10
89.85015731260691
 20
-141.3593302055456
 30
0.0
 10
89.91578638160092
 20
-141.2811265380304
 30
0.0
 10
90.30077580207757
 20
-140.9827812690078
 30
0.0
 10
90.55674639663164
 20
-140.7839992595089
 30
0.0
 10
90.6222032108514
 20
-140.7163031332237
 30
0.0
 10
90.6222032108514
 20
-140.5788438233622
 30
0.0
 10
90.6222032108514
 20
-140.4603325386696
 30
0.0
 10
90.55037296998394
 20
-140.3292466554558
 30
0.0
 10
90.35365801777617
 20
-140.3292466554558
 30
0.0
 10
90.09338105386554
 20
-140.3292466554558
 30
0.0
 10
90.08494056992669
 20
-140.5597235434191
 30
0.0
 10
90.08063420057011
 20
-140.6761677708205
 30
0.0
 10
90.08063420057011
 20
-140.6761677708205
 30
0.0
 10
89.85653073925462
 20
-140.6761677708205
 30
0.0
 10
89.85653073925462
 20
-140.6761677708205
 30
0.0
 10
89.86497122319347
 20
-140.5492160021891
 30
0.0
 10
89.87547876442349
 20
-140.4370781441442
 30
0.0
 10
89.95592174400407
 20
-140.3185668594516
 30
0.0
 10
90.06582028998355
 20
-140.1578531550647
 30
0.0
 10
90.25202770096131
 20
-140.123918964535
 30
0.0
 10
90.36847192836274
 20
-140.123918964535
 30
0.0
 10
90.6456298601511
 20
-140.123918964535
 30
0.0
 10
90.85285235358886
 20
-140.3080593182216
 30
0.0
 10
90.85285235358886
 20
-140.5809108806534
 30
0.0
 10
90.85285235358886
 20
-140.8093207113254
 30
0.0
 10
90.73658038096169
 20
-140.9088839708491
 30
0.0
 10
90.42772757070904
 20
-141.1352267442301
 30
0.0
  0
HATCH
  5
11E
330
119
100
AcDbEntity
  8
レイヤー 1
 62
   250
420
  2299925
440
 33554687
100
AcDbHatch
 10
0.0
 20
0.0
 30
0.0
210
0.0
220
0.0
230
1.0
  2
SOLID
 70
     1
 71
     1
 91
        1
 92
        1
 93
        1
 72
     4
 94
        3
 73
     0
 74
     0
 95
       44
 96
       40
 40
0.0
 40
0.0
 40
0.0
 40
0.0
 40
1.0
 40
1.0
 40
1.0
 40
2.0
 40
2.0
 40
2.0
 40
3.0
 40
3.0
 40
3.0
 40
4.0
 40
4.0
 40
4.0
 40
5.0
 40
5.0
 40
5.0
 40
6.0
 40
6.0
 40
6.0
 40
7.0
 40
7.0
 40
7.0
 40
8.0
 40
8.0
 40
8.0
 40
9.0
 40
9.0
 40
9.0
 40
10.0
 40
10.0
 40
10.0
 40
11.0
 40
11.0
 40
11.0
 40
12.0
 40
12.0
 40
12.0
 40
13.0
 40
13.0
 40
13.0
 40
13.0
 10
90.42772757070904
 20
-141.1352267442301
 10
90.20982528126699
 20
-141.2938733913258
 10
90.11663544839098
 20
-141.3679429442587
 10
90.06805960204896
 20
-141.5117756807679
 10
90.06805960204896
 20
-141.5117756807679
 10
90.84647892694116
 20
-141.5117756807679
 10
90.84647892694116
 20
-141.5117756807679
 10
90.84647892694116
 20
-141.5117756807679
 10
90.84647892694116
 20
-141.7169311169145
 10
90.84647892694116
 20
-141.7169311169145
 10
90.84647892694116
 20
-141.7169311169145
 10
89.81846243414262
 20
-141.7169311169145
 10
89.81846243414262
 20
-141.7169311169145
 10
89.85015731260691
 20
-141.3593302055456
 10
89.91578638160092
 20
-141.2811265380304
 10
90.30077580207757
 20
-140.9827812690078
 10
90.55674639663164
 20
-140.7839992595089
 10
90.6222032108514
 20
-140.7163031332237
 10
90.6222032108514
 20
-140.5788438233622
 10
90.6222032108514
 20
-140.4603325386696
 10
90.55037296998394
 20
-140.3292466554558
 10
90.35365801777617
 20
-140.3292466554558
 10
90.09338105386554
 20
-140.3292466554558
 10
90.08494056992669
 20
-140.5597235434191
 10
90.08063420057011
 20
-140.6761677708205
 10
90.08063420057011
 20
-140.6761677708205
 10
89.85653073925462
 20
-140.6761677708205
 10
89.85653073925462
 20
-140.6761677708205
 10
89.86497122319347
 20
-140.5492160021891
 10
89.87547876442349
 20
-140.4370781441442
 10
89.95592174400407
 20
-140.3185668594516
 10
90.06582028998355
 20
-140.1578531550647
 10
90.25202770096131
 20
-140.123918964535
 10
90.36847192836274
 20
-140.123918964535
 10
90.6456298601511
 20
-140.123918964535
 10
90.85285235358886
 20
-140.3080593182216
 10
90.85285235358886
 20
-140.5809108806534
 10
90.85285235358886
 20
-140.8093207113254
 10
90.73658038096169
 20
-140.9088839708491
 10
90.42772757070904
 20
-141.1352267442301
 97
        0
 97
        1
330
11D
 75
     2
 76
     1
 98
        1
 10
0.0
 20
0.0
450
        0
451
        0
460
0.0
461
0.0
452
        0
462
0.0
453
        0
470

  0
SPLINE
  5
11F
330
119
100
AcDbEntity
  8
レイヤー 1
100
AcDbSpline
210
0.0
220
0.0
230
1.0
 70
    11
 71
     3
 72
    26
 73
    22
 74
     0
 42
0.0000000001
 43
0.0000000001
 40
0.0
 40
0.0
 40
0.0
 40
0.0
 40
1.0
 40
1.0
 40
1.0
 40
2.0
 40
2.0
 40
2.0
 40
3.0
 40
3.0
 40
3.0
 40
4.0
 40
4.0
 40
4.0
 40
5.0
 40
5.0
 40
5.0
 40
6.0
 40
6.0
 40
6.0
 40
7.0
 40
7.0
 40
7.0
 40
7.0
 10
91.46280650925236
 20
-141.7169311169145
 30
0.0
 10
91.46280650925236
 20
-141.7169311169145
 30
0.0
 10
91.46280650925236
 20
-140.6126057591177
 30
0.0
 10
91.46280650925236
 20
-140.6126057591177
 30
0.0
 10
91.46280650925236
 20
-140.6126057591177
 30
0.0
 10
91.13276636176541
 20
-140.6126057591177
 30
0.0
 10
91.13276636176541
 20
-140.6126057591177
 30
0.0
 10
91.13276636176541
 20
-140.6126057591177
 30
0.0
 10
91.13276636176541
 20
-140.4646389080262
 30
0.0
 10
91.13276636176541
 20
-140.4646389080262
 30
0.0
 10
91.4648735665435
 20
-140.4498249974396
 30
0.0
 10
91.51138235559438
 20
-140.2868719809873
 30
0.0
 10
91.54101017676753
 20
-140.1726670656513
 30
0.0
 10
91.54101017676753
 20
-140.1726670656513
 30
0.0
 10
91.68708222534212
 20
-140.1726670656513
 30
0.0
 10
91.68708222534212
 20
-140.1726670656513
 30
0.0
 10
91.68708222534212
 20
-140.1726670656513
 30
0.0
 10
91.68708222534212
 20
-141.7169311169145
 30
0.0
 10
91.68708222534212
 20
-141.7169311169145
 30
0.0
 10
91.68708222534212
 20
-141.7169311169145
 30
0.0
 10
91.46280650925236
 20
-141.7169311169145
 30
0.0
 10
91.46280650925236
 20
-141.7169311169145
 30
0.0
  0
HATCH
  5
120
330
119
100
AcDbEntity
  8
レイヤー 1
 62
   250
420
  2299925
440
 33554687
100
AcDbHatch
 10
0.0
 20
0.0
 30
0.0
210
0.0
220
0.0
230
1.0
  2
SOLID
 70
     1
 71
     1
 91
        1
 92
        1
 93
        1
 72
     4
 94
        3
 73
     0
 74
     0
 95
       26
 96
       22
 40
0.0
 40
0.0
 40
0.0
 40
0.0
 40
1.0
 40
1.0
 40
1.0
 40
2.0
 40
2.0
 40
2.0
 40
3.0
 40
3.0
 40
3.0
 40
4.0
 40
4.0
 40
4.0
 40
5.0
 40
5.0
 40
5.0
 40
6.0
 40
6.0
 40
6.0
 40
7.0
 40
7.0
 40
7.0
 40
7.0
 10
91.46280650925236
 20
-141.7169311169145
 10
91.46280650925236
 20
-141.7169311169145
 10
91.46280650925236
 20
-140.6126057591177
 10
91.46280650925236
 20
-140.6126057591177
 10
91.46280650925236
 20
-140.6126057591177
 10
91.13276636176541
 20
-140.6126057591177
 10
91.13276636176541
 20
-140.6126057591177
 10
91.13276636176541
 20
-140.6126057591177
 10
91.13276636176541
 20
-140.4646389080262
 10
91.13276636176541
 20
-140.4646389080262
 10
91.4648735665435
 20
-140.4498249974396
 10
91.51138235559438
 20
-140.2868719809873
 10
91.54101017676753
 20
-140.1726670656513
 10
91.54101017676753
 20
-140.1726670656513
 10
91.68708222534212
 20
-140.1726670656513
 10
91.68708222534212
 20
-140.1726670656513
 10
91.68708222534212
 20
-140.1726670656513
 10
91.68708222534212
 20
-141.7169311169145
 10
91.68708222534212
 20
-141.7169311169145
 10
91.68708222534212
 20
-141.7169311169145
 10
91.46280650925236
 20
-141.7169311169145
 10
91.46280650925236
 20
-141.7169311169145
 97
        0
 97
        1
330
11F
 75
     2
 76
     1
 98
        1
 10
0.0
 20
0.0
450
        0
451
        0
460
0.0
461
0.0
452
        0
462
0.0
453
        0
470

  0
ENDBLK
  5
11C
330
119
100
AcDbEntity
  8
0
100
AcDbBlockEnd
  0
BLOCK
  5
125
330
123
100
AcDbEntity
  8
0
100
AcDbBlockBegin
  2
Block_8
 70
     0
 10
0.0
 20
0.0
 30
0.0
  3
Block_8
  1

  0
INSERT
  5
128
330
123
100
AcDbEntity
  8
レイヤー 1
100
AcDbBlockReference
  2
Block_9
 10
0.0
 20
0.0
 30
0.0
  0
ENDBLK
  5
126
330
123
100
AcDbEntity
  8
0
100
AcDbBlockEnd
  0
BLOCK
  5
129
330
127
100
AcDbEntity
  8
0
100
AcDbBlockBegin
  2
Block_9
 70
     0
 10
0.0
 20
0.0
 30
0.0
  3
Block_9
  1

  0
SPLINE
  5
12B
330
127
100
AcDbEntity
  8
レイヤー 1
100
AcDbSpline
210
0.0
220
0.0
230
1.0
 70
     9
 71
     3
 72
    44
 73
    40
 74
     0
 42
0.0000000001
 43
0.0000000001
 40
0.0
 40
0.0
 40
0.0
 40
0.0
 40
1.0
 40
1.0
 40
1.0
 40
2.0
 40
2.0
 40
2.0
 40
3.0
 40
3.0
 40
3.0
 40
4.0
 40
4.0
 40
4.0
 40
5.0
 40
5.0
 40
5.0
 40
6.0
 40
6.0
 40
6.0
 40
7.0
 40
7.0
 40
7.0
 40
8.0
 40
8.0
 40
8.0
 40
9.0
 40
9.0
 40
9.0
 40
10.0
 40
10.0
 40
10.0
 40
11.0
 40
11.0
 40
11.0
 40
12.0
 40
12.0
 40
12.0
 40
13.0
 40
13.0
 40
13.0
 40
13.0
 10
114.4260904661851
 20
-141.1352267442301
 30
0.0
 10
114.2083604315173
 20
-141.2938733913258
 30
0.0
 10
114.1153428534156
 20
-141.3679429442587
 30
0.0
 10
114.066422497525
 20
-141.5117756807679
 30
0.0
 10
114.066422497525
 20
-141.5117756807679
 30
0.0
 10
114.8450140771915
 20
-141.5117756807679
 30
0.0
 10
114.8450140771915
 20
-141.5117756807679
 30
0.0
 10
114.8450140771915
 20
-141.5117756807679
 30
0.0
 10
114.8450140771915
 20
-141.7169311169145
 30
0.0
 10
114.8450140771915
 20
-141.7169311169145
 30
0.0
 10
114.8450140771915
 20
-141.7169311169145
 30
0.0
 10
113.816997584393
 20
-141.7169311169145
 30
0.0
 10
113.816997584393
 20
-141.7169311169145
 30
0.0
 10
113.8486924628572
 20
-141.3593302055456
 30
0.0
 10
113.914149277077
 20
-141.2811265380304
 30
0.0
 10
114.2993109523279
 20
-140.9827812690078
 30
0.0
 10
114.555281546882
 20
-140.7839992595089
 30
0.0
 10
114.6207383611018
 20
-140.7163031332237
 30
0.0
 10
114.6207383611018
 20
-140.5788438233622
 30
0.0
 10
114.6207383611018
 20
-140.4603325386696
 30
0.0
 10
114.54873586546
 20
-140.3292466554558
 30
0.0
 10
114.3520209132522
 20
-140.3292466554558
 30
0.0
 10
114.0919162041159
 20
-140.3292466554558
 30
0.0
 10
114.0836479749513
 20
-140.5597235434191
 30
0.0
 10
114.0791693508205
 20
-140.6761677708205
 30
0.0
 10
114.0791693508205
 20
-140.6761677708205
 30
0.0
 10
113.8548936347307
 20
-140.6761677708205
 30
0.0
 10
113.8548936347307
 20
-140.6761677708205
 30
0.0
 10
113.8635063734438
 20
-140.5492160021891
 30
0.0
 10
113.8741861694481
 20
-140.4370781441442
 30
0.0
 10
113.9544568942544
 20
-140.3185668594516
 30
0.0
 10
114.0643554402339
 20
-140.1578531550647
 30
0.0
 10
114.2507351059859
 20
-140.123918964535
 30
0.0
 10
114.3668348238388
 20
-140.123918964535
 30
0.0
 10
114.6441650104014
 20
-140.123918964535
 30
0.0
 10
114.8515597586135
 20
-140.3080593182216
 30
0.0
 10
114.8515597586135
 20
-140.5809108806534
 30
0.0
 10
114.8515597586135
 20
-140.8093207113254
 30
0.0
 10
114.735115531212
 20
-140.9088839708491
 30
0.0
 10
114.4260904661851
 20
-141.1352267442301
 30
0.0
  0
HATCH
  5
12C
330
127
100
AcDbEntity
  8
レイヤー 1
 62
   250
420
  2299925
440
 33554687
100
AcDbHatch
 10
0.0
 20
0.0
 30
0.0
210
0.0
220
0.0
230
1.0
  2
SOLID
 70
     1
 71
     1
 91
        1
 92
        1
 93
        1
 72
     4
 94
        3
 73
     0
 74
     0
 95
       44
 96
       40
 40
0.0
 40
0.0
 40
0.0
 40
0.0
 40
1.0
 40
1.0
 40
1.0
 40
2.0
 40
2.0
 40
2.0
 40
3.0
 40
3.0
 40
3.0
 40
4.0
 40
4.0
 40
4.0
 40
5.0
 40
5.0
 40
5.0
 40
6.0
 40
6.0
 40
6.0
 40
7.0
 40
7.0
 40
7.0
 40
8.0
 40
8.0
 40
8.0
 40
9.0
 40
9.0
 40
9.0
 40
10.0
 40
10.0
 40
10.0
 40
11.0
 40
11.0
 40
11.0
 40
12.0
 40
12.0
 40
12.0
 40
13.0
 40
13.0
 40
13.0
 40
13.0
 10
114.4260904661851
 20
-141.1352267442301
 10
114.2083604315173
 20
-141.2938733913258
 10
114.1153428534156
 20
-141.3679429442587
 10
114.066422497525
 20
-141.5117756807679
 10
114.066422497525
 20
-141.5117756807679
 10
114.8450140771915
 20
-141.5117756807679
 10
114.8450140771915
 20
-141.5117756807679
 10
114.8450140771915
 20
-141.5117756807679
 10
114.8450140771915
 20
-141.7169311169145
 10
114.8450140771915
 20
-141.7169311169145
 10
114.8450140771915
 20
-141.7169311169145
 10
113.816997584393
 20
-141.7169311169145
 10
113.816997584393
 20
-141.7169311169145
 10
113.8486924628572
 20
-141.3593302055456
 10
113.914149277077
 20
-141.2811265380304
 10
114.2993109523279
 20
-140.9827812690078
 10
114.555281546882
 20
-140.7839992595089
 10
114.6207383611018
 20
-140.7163031332237
 10
114.6207383611018
 20
-140.5788438233622
 10
114.6207383611018
 20
-140.4603325386696
 10
114.54873586546
 20
-140.3292466554558
 10
114.3520209132522
 20
-140.3292466554558
 10
114.0919162041159
 20
-140.3292466554558
 10
114.0836479749513
 20
-140.5597235434191
 10
114.0791693508205
 20
-140.6761677708205
 10
114.0791693508205
 20
-140.6761677708205
 10
113.8548936347307
 20
-140.6761677708205
 10
113.8548936347307
 20
-140.6761677708205
 10
113.8635063734438
 20
-140.5492160021891
 10
113.8741861694481
 20
-140.4370781441442
 10
113.9544568942544
 20
-140.3185668594516
 10
114.0643554402339
 20
-140.1578531550647
 10
114.2507351059859
 20
-140.123918964535
 10
114.3668348238388
 20
-140.123918964535
 10
114.6441650104014
 20
-140.123918964535
 10
114.8515597586135
 20
-140.3080593182216
 10
114.8515597586135
 20
-140.5809108806534
 10
114.8515597586135
 20
-140.8093207113254
 10
114.735115531212
 20
-140.9088839708491
 10
114.4260904661851
 20
-141.1352267442301
 97
        0
 97
        1
330
12B
 75
     2
 76
     1
 98
        1
 10
0.0
 20
0.0
450
        0
451
        0
460
0.0
461
0.0
452
        0
462
0.0
453
        0
470

  0
SPLINE
  5
12D
330
127
100
AcDbEntity
  8
レイヤー 1
100
AcDbSpline
210
0.0
220
0.0
230
1.0
 70
    11
 71
     3
 72
    26
 73
    22
 74
     0
 42
0.0000000001
 43
0.0000000001
 40
0.0
 40
0.0
 40
0.0
 40
0.0
 40
1.0
 40
1.0
 40
1.0
 40
2.0
 40
2.0
 40
2.0
 40
3.0
 40
3.0
 40
3.0
 40
4.0
 40
4.0
 40
4.0
 40
5.0
 40
5.0
 40
5.0
 40
6.0
 40
6.0
 40
6.0
 40
7.0
 40
7.0
 40
7.0
 40
7.0
 10
115.4613416595027
 20
-141.7169311169145
 30
0.0
 10
115.4613416595027
 20
-141.7169311169145
 30
0.0
 10
115.4613416595027
 20
-140.6126057591177
 30
0.0
 10
115.4613416595027
 20
-140.6126057591177
 30
0.0
 10
115.4613416595027
 20
-140.6126057591177
 30
0.0
 10
115.1313015120158
 20
-140.6126057591177
 30
0.0
 10
115.1313015120158
 20
-140.6126057591177
 30
0.0
 10
115.1313015120158
 20
-140.6126057591177
 30
0.0
 10
115.1313015120158
 20
-140.4646389080262
 30
0.0
 10
115.1313015120158
 20
-140.4646389080262
 30
0.0
 10
115.4634087167939
 20
-140.4498249974396
 30
0.0
 10
115.5099175058447
 20
-140.2868719809873
 30
0.0
 10
115.5395453270179
 20
-140.1726670656513
 30
0.0
 10
115.5395453270179
 20
-140.1726670656513
 30
0.0
 10
115.6856173755925
 20
-140.1726670656513
 30
0.0
 10
115.6856173755925
 20
-140.1726670656513
 30
0.0
 10
115.6856173755925
 20
-140.1726670656513
 30
0.0
 10
115.6856173755925
 20
-141.7169311169145
 30
0.0
 10
115.6856173755925
 20
-141.7169311169145
 30
0.0
 10
115.6856173755925
 20
-141.7169311169145
 30
0.0
 10
115.4613416595027
 20
-141.7169311169145
 30
0.0
 10
115.4613416595027
 20
-141.7169311169145
 30
0.0
  0
HATCH
  5
12E
330
127
100
AcDbEntity
  8
レイヤー 1
 62
   250
420
  2299925
440
 33554687
100
AcDbHatch
 10
0.0
 20
0.0
 30
0.0
210
0.0
220
0.0
230
1.0
  2
SOLID
 70
     1
 71
     1
 91
        1
 92
        1
 93
        1
 72
     4
 94
        3
 73
     0
 74
     0
 95
       26
 96
       22
 40
0.0
 40
0.0
 40
0.0
 40
0.0
 40
1.0
 40
1.0
 40
1.0
 40
2.0
 40
2.0
 40
2.0
 40
3.0
 40
3.0
 40
3.0
 40
4.0
 40
4.0
 40
4.0
 40
5.0
 40
5.0
 40
5.0
 40
6.0
 40
6.0
 40
6.0
 40
7.0
 40
7.0
 40
7.0
 40
7.0
 10
115.4613416595027
 20
-141.7169311169145
 10
115.4613416595027
 20
-141.7169311169145
 10
115.4613416595027
 20
-140.6126057591177
 10
115.4613416595027
 20
-140.6126057591177
 10
115.4613416595027
 20
-140.6126057591177
 10
115.1313015120158
 20
-140.6126057591177
 10
115.1313015120158
 20
-140.6126057591177
 10
115.1313015120158
 20
-140.6126057591177
 10
115.1313015120158
 20
-140.4646389080262
 10
115.1313015120158
 20
-140.4646389080262
 10
115.4634087167939
 20
-140.4498249974396
 10
115.5099175058447
 20
-140.2868719809873
 10
115.5395453270179
 20
-140.1726670656513
 10
115.5395453270179
 20
-140.1726670656513
 10
115.6856173755925
 20
-140.1726670656513
 10
115.6856173755925
 20
-140.1726670656513
 10
115.6856173755925
 20
-140.1726670656513
 10
115.6856173755925
 20
-141.7169311169145
 10
115.6856173755925
 20
-141.7169311169145
 10
115.6856173755925
 20
-141.7169311169145
 10
115.4613416595027
 20
-141.7169311169145
 10
115.4613416595027
 20
-141.7169311169145
 97
        0
 97
        1
330
12D
 75
     2
 76
     1
 98
        1
 10
0.0
 20
0.0
450
        0
451
        0
460
0.0
461
0.0
452
        0
462
0.0
453
        0
470

  0
ENDBLK
  5
12A
330
127
100
AcDbEntity
  8
0
100
AcDbBlockEnd
  0
BLOCK
  5
133
330
131
100
AcDbEntity
  8
0
100
AcDbBlockBegin
  2
Block_10
 70
     0
 10
0.0
 20
0.0
 30
0.0
  3
Block_10
  1

  0
SPLINE
  5
135
330
131
100
AcDbEntity
  8
レイヤー 1
100
AcDbSpline
210
0.0
220
0.0
230
1.0
 70
     9
 71
     3
 72
    53
 73
    49
 74
     0
 42
0.0000000001
 43
0.0000000001
 40
0.0
 40
0.0
 40
0.0
 40
0.0
 40
1.0
 40
1.0
 40
1.0
 40
2.0
 40
2.0
 40
2.0
 40
3.0
 40
3.0
 40
3.0
 40
4.0
 40
4.0
 40
4.0
 40
5.0
 40
5.0
 40
5.0
 40
6.0
 40
6.0
 40
6.0
 40
7.0
 40
7.0
 40
7.0
 40
8.0
 40
8.0
 40
8.0
 40
9.0
 40
9.0
 40
9.0
 40
10.0
 40
10.0
 40
10.0
 40
11.0
 40
11.0
 40
11.0
 40
12.0
 40
12.0
 40
12.0
 40
13.0
 40
13.0
 40
13.0
 40
14.0
 40
14.0
 40
14.0
 40
15.0
 40
15.0
 40
15.0
 40
16.0
 40
16.0
 40
16.0
 40
16.0
 10
75.00834145260208
 20
-150.4735025665483
 30
0.0
 10
75.00834145260208
 20
-150.5517062340634
 30
0.0
 10
74.99146048472436
 20
-150.6533365508783
 30
0.0
 10
74.9278984730215
 20
-150.7549668676932
 30
0.0
 10
74.81782767226777
 20
-150.9282551706013
 30
0.0
 10
74.68674178905401
 20
-150.9496147626098
 30
0.0
 10
74.57891030036569
 20
-150.9685627877787
 30
0.0
 10
74.57891030036569
 20
-150.9685627877787
 30
0.0
 10
74.57891030036569
 20
-150.74635412898
 30
0.0
 10
74.57891030036569
 20
-150.74635412898
 30
0.0
 10
74.7776923098646
 20
-150.6915771107646
 30
0.0
 10
74.80732013103775
 20
-150.5644530873589
 30
0.0
 10
74.80732013103775
 20
-150.4714355092571
 30
0.0
 10
74.80732013103775
 20
-150.3319091421045
 30
0.0
 10
74.70792912628829
 20
-150.1796359216565
 30
0.0
 10
74.47521292625967
 20
-150.1796359216565
 30
0.0
 10
74.21924233170561
 20
-150.1796359216565
 30
0.0
 10
74.1494791481293
 20
-150.3594699059865
 30
0.0
 10
74.1494791481293
 20
-150.4800482479702
 30
0.0
 10
74.1494791481293
 20
-150.5117431264345
 30
0.0
 10
74.1494791481293
 20
-150.6533365508783
 30
0.0
 10
74.2784979740519
 20
-150.7422200143978
 30
0.0
 10
74.2784979740519
 20
-150.7422200143978
 30
0.0
 10
74.25937769410876
 20
-150.9179198841455
 30
0.0
 10
74.25937769410876
 20
-150.9179198841455
 30
0.0
 10
74.25937769410876
 20
-150.9179198841455
 30
0.0
 10
73.4132622429314
 20
-150.7973415421617
 30
0.0
 10
73.4132622429314
 20
-150.7973415421617
 30
0.0
 10
73.4132622429314
 20
-150.7973415421617
 30
0.0
 10
73.4132622429314
 20
-150.0187499624953
 30
0.0
 10
73.4132622429314
 20
-150.0187499624953
 30
0.0
 10
73.4132622429314
 20
-150.0187499624953
 30
0.0
 10
73.60791013784802
 20
-150.0187499624953
 30
0.0
 10
73.60791013784802
 20
-150.0187499624953
 30
0.0
 10
73.60791013784802
 20
-150.0187499624953
 30
0.0
 10
73.60791013784802
 20
-150.6343885257094
 30
0.0
 10
73.60791013784802
 20
-150.6343885257094
 30
0.0
 10
73.60791013784802
 20
-150.6343885257094
 30
0.0
 10
74.0309678634367
 20
-150.6998453399292
 30
0.0
 10
74.0309678634367
 20
-150.6998453399292
 30
0.0
 10
73.99703367290699
 20
-150.6385226402917
 30
0.0
 10
73.95689831050383
 20
-150.5561848581943
 30
0.0
 10
73.95689831050383
 20
-150.4376735735017
 30
0.0
 10
73.95689831050383
 20
-150.1837700362388
 30
0.0
 10
74.14310572148159
 20
-149.9467474668536
 30
0.0
 10
74.45609264631653
 20
-149.9467474668536
 30
0.0
 10
74.77355819528231
 20
-149.9467474668536
 30
0.0
 10
75.00834145260208
 20
-150.1710231829433
 30
0.0
 10
75.00834145260208
 20
-150.4735025665483
 30
0.0
  0
HATCH
  5
136
330
131
100
AcDbEntity
  8
レイヤー 1
 62
   250
420
  2299925
440
 33554687
100
AcDbHatch
 10
0.0
 20
0.0
 30
0.0
210
0.0
220
0.0
230
1.0
  2
SOLID
 70
     1
 71
     1
 91
        1
 92
        1
 93
        1
 72
     4
 94
        3
 73
     0
 74
     0
 95
       53
 96
       49
 40
0.0
 40
0.0
 40
0.0
 40
0.0
 40
1.0
 40
1.0
 40
1.0
 40
2.0
 40
2.0
 40
2.0
 40
3.0
 40
3.0
 40
3.0
 40
4.0
 40
4.0
 40
4.0
 40
5.0
 40
5.0
 40
5.0
 40
6.0
 40
6.0
 40
6.0
 40
7.0
 40
7.0
 40
7.0
 40
8.0
 40
8.0
 40
8.0
 40
9.0
 40
9.0
 40
9.0
 40
10.0
 40
10.0
 40
10.0
 40
11.0
 40
11.0
 40
11.0
 40
12.0
 40
12.0
 40
12.0
 40
13.0
 40
13.0
 40
13.0
 40
14.0
 40
14.0
 40
14.0
 40
15.0
 40
15.0
 40
15.0
 40
16.0
 40
16.0
 40
16.0
 40
16.0
 10
75.00834145260208
 20
-150.4735025665483
 10
75.00834145260208
 20
-150.5517062340634
 10
74.99146048472436
 20
-150.6533365508783
 10
74.9278984730215
 20
-150.7549668676932
 10
74.81782767226777
 20
-150.9282551706013
 10
74.68674178905401
 20
-150.9496147626098
 10
74.57891030036569
 20
-150.9685627877787
 10
74.57891030036569
 20
-150.9685627877787
 10
74.57891030036569
 20
-150.74635412898
 10
74.57891030036569
 20
-150.74635412898
 10
74.7776923098646
 20
-150.6915771107646
 10
74.80732013103775
 20
-150.5644530873589
 10
74.80732013103775
 20
-150.4714355092571
 10
74.80732013103775
 20
-150.3319091421045
 10
74.70792912628829
 20
-150.1796359216565
 10
74.47521292625967
 20
-150.1796359216565
 10
74.21924233170561
 20
-150.1796359216565
 10
74.1494791481293
 20
-150.3594699059865
 10
74.1494791481293
 20
-150.4800482479702
 10
74.1494791481293
 20
-150.5117431264345
 10
74.1494791481293
 20
-150.6533365508783
 10
74.2784979740519
 20
-150.7422200143978
 10
74.2784979740519
 20
-150.7422200143978
 10
74.25937769410876
 20
-150.9179198841455
 10
74.25937769410876
 20
-150.9179198841455
 10
74.25937769410876
 20
-150.9179198841455
 10
73.4132622429314
 20
-150.7973415421617
 10
73.4132622429314
 20
-150.7973415421617
 10
73.4132622429314
 20
-150.7973415421617
 10
73.4132622429314
 20
-150.0187499624953
 10
73.4132622429314
 20
-150.0187499624953
 10
73.4132622429314
 20
-150.0187499624953
 10
73.60791013784802
 20
-150.0187499624953
 10
73.60791013784802
 20
-150.0187499624953
 10
73.60791013784802
 20
-150.0187499624953
 10
73.60791013784802
 20
-150.6343885257094
 10
73.60791013784802
 20
-150.6343885257094
 10
73.60791013784802
 20
-150.6343885257094
 10
74.0309678634367
 20
-150.6998453399292
 10
74.0309678634367
 20
-150.6998453399292
 10
73.99703367290699
 20
-150.6385226402917
 10
73.95689831050383
 20
-150.5561848581943
 10
73.95689831050383
 20
-150.4376735735017
 10
73.95689831050383
 20
-150.1837700362388
 10
74.14310572148159
 20
-149.9467474668536
 10
74.45609264631653
 20
-149.9467474668536
 10
74.77355819528231
 20
-149.9467474668536
 10
75.00834145260208
 20
-150.1710231829433
 10
75.00834145260208
 20
-150.4735025665483
 97
        0
 97
        1
330
135
 75
     2
 76
     1
 98
        1
 10
0.0
 20
0.0
450
        0
451
        0
460
0.0
461
0.0
452
        0
462
0.0
453
        0
470

  0
ENDBLK
  5
134
330
131
100
AcDbEntity
  8
0
100
AcDbBlockEnd
  0
BLOCK
  5
13D
330
13B
100
AcDbEntity
  8
0
100
AcDbBlockBegin
  2
Block_11
 70
     0
 10
0.0
 20
0.0
 30
0.0
  3
Block_11
  1

  0
INSERT
  5
140
330
13B
100
AcDbEntity
  8
レイヤー 1
100
AcDbBlockReference
  2
Block_12
 10
0.0
 20
0.0
 30
0.0
  0
INSERT
  5
147
330
13B
100
AcDbEntity
  8
レイヤー 1
100
AcDbBlockReference
  2
Block_13
 10
0.0
 20
0.0
 30
0.0
  0
ENDBLK
  5
13E
330
13B
100
AcDbEntity
  8
0
100
AcDbBlockEnd
  0
BLOCK
  5
141
330
13F
100
AcDbEntity
  8
0
100
AcDbBlockBegin
  2
Block_12
 70
     0
 10
0.0
 20
0.0
 30
0.0
  3
Block_12
  1

  0
LINE
  5
143
330
13F
100
AcDbEntity
  8
レイヤー 1
 62
    18
420
        0
370
     9
100
AcDbLine
 10
120.244458363301
 20
-148.5021633939853
 30
0.0
 11
121.0557766759359
 21
-149.0868220049499
 31
0.0
  0
LINE
  5
144
330
13F
100
AcDbEntity
  8
レイヤー 1
 62
    18
420
        0
370
     9
100
AcDbLine
 10
120.244458363301
 20
-148.5021633939853
 30
0.0
 11
122.8220996864288
 21
-151.6592775598627
 31
0.0
  0
LINE
  5
145
330
13F
100
AcDbEntity
  8
レイヤー 1
 62
    18
420
        0
370
     9
100
AcDbLine
 10
120.244458363301
 20
-148.5021633939853
 30
0.0
 11
120.6547741861663
 21
-149.4142703382014
 31
0.0
  0
ENDBLK
  5
142
330
13F
100
AcDbEntity
  8
0
100
AcDbBlockEnd
  0
BLOCK
  5
148
330
146
100
AcDbEntity
  8
0
100
AcDbBlockBegin
  2
Block_13
 70
     0
 10
0.0
 20
0.0
 30
0.0
  3
Block_13
  1

  0
INSERT
  5
14B
330
146
100
AcDbEntity
  8
レイヤー 1
100
AcDbBlockReference
  2
Block_14
 10
0.0
 20
0.0
 30
0.0
  0
ENDBLK
  5
149
330
146
100
AcDbEntity
  8
0
100
AcDbBlockEnd
  0
BLOCK
  5
14C
330
14A
100
AcDbEntity
  8
0
100
AcDbBlockBegin
  2
Block_14
 70
     0
 10
0.0
 20
0.0
 30
0.0
  3
Block_14
  1

  0
SPLINE
  5
14E
330
14A
100
AcDbEntity
  8
レイヤー 1
100
AcDbSpline
210
0.0
220
0.0
230
1.0
 70
     9
 71
     3
 72
    17
 73
    13
 74
     0
 42
0.0000000001
 43
0.0000000001
 40
0.0
 40
0.0
 40
0.0
 40
0.0
 40
1.0
 40
1.0
 40
1.0
 40
2.0
 40
2.0
 40
2.0
 40
3.0
 40
3.0
 40
3.0
 40
4.0
 40
4.0
 40
4.0
 40
4.0
 10
124.4885253595028
 20
-152.1057888074597
 30
0.0
 10
124.4716443916251
 20
-152.1354166286328
 30
0.0
 10
124.421001487992
 20
-152.2284342067345
 30
0.0
 10
124.4103216919877
 20
-152.2473822319034
 30
0.0
 10
124.600835472322
 20
-152.3066378742497
 30
0.0
 10
124.621850554782
 20
-152.3131835556717
 30
0.0
 10
124.6938530504237
 20
-152.3403998100052
 30
0.0
 10
124.7486300686392
 20
-152.2539279133254
 30
0.0
 10
124.7720567179389
 20
-152.1798583603925
 30
0.0
 10
124.7868706285255
 20
-152.1057888074597
 30
0.0
 10
124.7868706285255
 20
-152.1057888074597
 30
0.0
 10
124.4885253595028
 20
-152.1057888074597
 30
0.0
 10
124.4885253595028
 20
-152.1057888074597
 30
0.0
  0
SPLINE
  5
14F
330
14A
100
AcDbEntity
  8
レイヤー 1
100
AcDbSpline
210
0.0
220
0.0
230
1.0
 70
    11
 71
     3
 72
    20
 73
    16
 74
     0
 42
0.0000000001
 43
0.0000000001
 40
0.0
 40
0.0
 40
0.0
 40
0.0
 40
1.0
 40
1.0
 40
1.0
 40
2.0
 40
2.0
 40
2.0
 40
3.0
 40
3.0
 40
3.0
 40
4.0
 40
4.0
 40
4.0
 40
5.0
 40
5.0
 40
5.0
 40
5.0
 10
124.4251356025742
 20
-151.2551947321515
 30
0.0
 10
124.4251356025742
 20
-151.2551947321515
 30
0.0
 10
124.39344072411
 20
-151.2551947321515
 30
0.0
 10
124.39344072411
 20
-151.2551947321515
 30
0.0
 10
124.4399495131608
 20
-151.3547579916752
 30
0.0
 10
124.4716443916251
 20
-151.4350287164815
 30
0.0
 10
124.5054063273806
 20
-151.5621527398872
 30
0.0
 10
124.5054063273806
 20
-151.5621527398872
 30
0.0
 10
124.7128010755926
 20
-151.5621527398872
 30
0.0
 10
124.7128010755926
 20
-151.5621527398872
 30
0.0
 10
124.7444959540569
 20
-151.4691351617855
 30
0.0
 10
124.7679226033566
 20
-151.3843858128483
 30
0.0
 10
124.7910047431078
 20
-151.2551947321515
 30
0.0
 10
124.7910047431078
 20
-151.2551947321515
 30
0.0
 10
124.4251356025742
 20
-151.2551947321515
 30
0.0
 10
124.4251356025742
 20
-151.2551947321515
 30
0.0
  0
SPLINE
  5
150
330
14A
100
AcDbEntity
  8
レイヤー 1
100
AcDbSpline
210
0.0
220
0.0
230
1.0
 70
     9
 71
     3
 72
   242
 73
   238
 74
     0
 42
0.0000000001
 43
0.0000000001
 40
0.0
 40
0.0
 40
0.0
 40
0.0
 40
1.0
 40
1.0
 40
1.0
 40
2.0
 40
2.0
 40
2.0
 40
3.0
 40
3.0
 40
3.0
 40
4.0
 40
4.0
 40
4.0
 40
5.0
 40
5.0
 40
5.0
 40
6.0
 40
6.0
 40
6.0
 40
7.0
 40
7.0
 40
7.0
 40
8.0
 40
8.0
 40
8.0
 40
9.0
 40
9.0
 40
9.0
 40
10.0
 40
10.0
 40
10.0
 40
11.0
 40
11.0
 40
11.0
 40
12.0
 40
12.0
 40
12.0
 40
13.0
 40
13.0
 40
13.0
 40
14.0
 40
14.0
 40
14.0
 40
15.0
 40
15.0
 40
15.0
 40
16.0
 40
16.0
 40
16.0
 40
17.0
 40
17.0
 40
17.0
 40
18.0
 40
18.0
 40
18.0
 40
19.0
 40
19.0
 40
19.0
 40
20.0
 40
20.0
 40
20.0
 40
21.0
 40
21.0
 40
21.0
 40
22.0
 40
22.0
 40
22.0
 40
23.0
 40
23.0
 40
23.0
 40
24.0
 40
24.0
 40
24.0
 40
25.0
 40
25.0
 40
25.0
 40
26.0
 40
26.0
 40
26.0
 40
27.0
 40
27.0
 40
27.0
 40
28.0
 40
28.0
 40
28.0
 40
29.0
 40
29.0
 40
29.0
 40
30.0
 40
30.0
 40
30.0
 40
31.0
 40
31.0
 40
31.0
 40
32.0
 40
32.0
 40
32.0
 40
33.0
 40
33.0
 40
33.0
 40
34.0
 40
34.0
 40
34.0
 40
35.0
 40
35.0
 40
35.0
 40
36.0
 40
36.0
 40
36.0
 40
37.0
 40
37.0
 40
37.0
 40
38.0
 40
38.0
 40
38.0
 40
39.0
 40
39.0
 40
39.0
 40
40.0
 40
40.0
 40
40.0
 40
41.0
 40
41.0
 40
41.0
 40
42.0
 40
42.0
 40
42.0
 40
43.0
 40
43.0
 40
43.0
 40
44.0
 40
44.0
 40
44.0
 40
45.0
 40
45.0
 40
45.0
 40
46.0
 40
46.0
 40
46.0
 40
47.0
 40
47.0
 40
47.0
 40
48.0
 40
48.0
 40
48.0
 40
49.0
 40
49.0
 40
49.0
 40
50.0
 40
50.0
 40
50.0
 40
51.0
 40
51.0
 40
51.0
 40
52.0
 40
52.0
 40
52.0
 40
53.0
 40
53.0
 40
53.0
 40
54.0
 40
54.0
 40
54.0
 40
55.0
 40
55.0
 40
55.0
 40
56.0
 40
56.0
 40
56.0
 40
57.0
 40
57.0
 40
57.0
 40
58.0
 40
58.0
 40
58.0
 40
59.0
 40
59.0
 40
59.0
 40
60.0
 40
60.0
 40
60.0
 40
61.0
 40
61.0
 40
61.0
 40
62.0
 40
62.0
 40
62.0
 40
63.0
 40
63.0
 40
63.0
 40
64.0
 40
64.0
 40
64.0
 40
65.0
 40
65.0
 40
65.0
 40
66.0
 40
66.0
 40
66.0
 40
67.0
 40
67.0
 40
67.0
 40
68.0
 40
68.0
 40
68.0
 40
69.0
 40
69.0
 40
69.0
 40
70.0
 40
70.0
 40
70.0
 40
71.0
 40
71.0
 40
71.0
 40
72.0
 40
72.0
 40
72.0
 40
73.0
 40
73.0
 40
73.0
 40
74.0
 40
74.0
 40
74.0
 40
75.0
 40
75.0
 40
75.0
 40
76.0
 40
76.0
 40
76.0
 40
77.0
 40
77.0
 40
77.0
 40
78.0
 40
78.0
 40
78.0
 40
79.0
 40
79.0
 40
79.0
 40
79.0
 10
125.0535210190838
 20
-151.7206271322087
 30
0.0
 10
125.0535210190838
 20
-151.7206271322087
 30
0.0
 10
124.7996174818209
 20
-151.7206271322087
 30
0.0
 10
124.7996174818209
 20
-151.7206271322087
 30
0.0
 10
124.7996174818209
 20
-151.7206271322087
 30
0.0
 10
124.5222872952583
 20
-151.7206271322087
 30
0.0
 10
124.5222872952583
 20
-151.7206271322087
 30
0.0
 10
124.5222872952583
 20
-151.7206271322087
 30
0.0
 10
124.649411318664
 20
-151.7630018066773
 30
0.0
 10
124.649411318664
 20
-151.7630018066773
 30
0.0
 10
124.6600911146683
 20
-151.7671359212596
 30
0.0
 10
124.6724934584152
 20
-151.7736816026816
 30
0.0
 10
124.6724934584152
 20
-151.786428455977
 30
0.0
 10
124.6724934584152
 20
-151.807443538437
 30
0.0
 10
124.6407985799509
 20
-151.8136447103105
 30
0.0
 10
124.6197834974909
 20
-151.8181233344413
 30
0.0
 10
124.6091037014866
 20
-151.8412054741925
 30
0.0
 10
124.5794758803134
 20
-151.9070067979607
 30
0.0
 10
124.5605278551446
 20
-151.9514485297204
 30
0.0
 10
124.5605278551446
 20
-151.9514485297204
 30
0.0
 10
124.8313123602852
 20
-151.9514485297204
 30
0.0
 10
124.8313123602852
 20
-151.9514485297204
 30
0.0
 10
124.9222628810958
 20
-151.9514485297204
 30
0.0
 10
125.1189778333036
 20
-151.9469699055896
 30
0.0
 10
125.2605712577473
 20
-151.938701676425
 30
0.0
 10
125.2605712577473
 20
-151.938701676425
 30
0.0
 10
125.2605712577473
 20
-152.1164686034639
 30
0.0
 10
125.2605712577473
 20
-152.1164686034639
 30
0.0
 10
125.1782334756499
 20
-152.1119899793331
 30
0.0
 10
125.1572183931898
 20
-152.1119899793331
 30
0.0
 10
124.9773844088598
 20
-152.1078558647508
 30
0.0
 10
124.9456895303955
 20
-152.26219614249
 30
0.0
 10
124.9012477986358
 20
-152.3428113768448
 30
0.0
 10
124.8568060668761
 20
-152.4124023056469
 30
0.0
 10
124.9773844088598
 20
-152.4716579479932
 30
0.0
 10
125.083148840257
 20
-152.5395263290526
 30
0.0
 10
125.186846214363
 20
-152.6218641111501
 30
0.0
 10
125.186846214363
 20
-152.6218641111501
 30
0.0
 10
125.0683349296704
 20
-152.7889512421847
 30
0.0
 10
125.0683349296704
 20
-152.7889512421847
 30
0.0
 10
125.0449082803707
 20
-152.7700032170158
 30
0.0
 10
125.0321614270753
 20
-152.7613904783027
 30
0.0
 10
124.9201958238046
 20
-152.6769856389141
 30
0.0
 10
124.8716199774626
 20
-152.6387450790278
 30
0.0
 10
124.8123643351163
 20
-152.6029160859812
 30
0.0
 10
124.7317491007615
 20
-152.5584743542215
 30
0.0
 10
124.5202202379671
 20
-152.744509510425
 30
0.0
 10
124.3152370565948
 20
-152.7679361597247
 30
0.0
 10
124.0251600167368
 20
-152.7975639808978
 30
0.0
 10
124.0251600167368
 20
-152.7975639808978
 30
0.0
 10
123.9214626426307
 20
-152.6177299965678
 30
0.0
 10
123.9214626426307
 20
-152.6177299965678
 30
0.0
 10
124.2391004463708
 20
-152.6135958819855
 30
0.0
 10
124.41445580657
 20
-152.5881021753946
 30
0.0
 10
124.566729027018
 20
-152.4782036294152
 30
0.0
 10
124.4482177423254
 20
-152.4272162162335
 30
0.0
 10
124.3596787883545
 20
-152.3996554523515
 30
0.0
 10
124.3235052857594
 20
-152.3872531086046
 30
0.0
 10
124.3045572605905
 20
-152.4144693629381
 30
0.0
 10
124.2897433500039
 20
-152.4337618976554
 30
0.0
 10
124.2621825861219
 20
-152.4675238334109
 30
0.0
 10
124.2621825861219
 20
-152.4675238334109
 30
0.0
 10
124.0654676339142
 20
-152.3848415417649
 30
0.0
 10
124.0654676339142
 20
-152.3848415417649
 30
0.0
 10
124.1481499255602
 20
-152.3045708169586
 30
0.0
 10
124.2094726251976
 20
-152.2094861815657
 30
0.0
 10
124.2663167007042
 20
-152.1078558647508
 30
0.0
 10
124.0761474299184
 20
-152.1119899793331
 30
0.0
 10
124.0547878379099
 20
-152.1119899793331
 30
0.0
 10
123.9724500558124
 20
-152.1164686034639
 30
0.0
 10
123.9724500558124
 20
-152.1164686034639
 30
0.0
 10
123.9724500558124
 20
-151.938701676425
 30
0.0
 10
123.9724500558124
 20
-151.938701676425
 30
0.0
 10
124.111976422965
 20
-151.9449028482985
 30
0.0
 10
124.3214382284682
 20
-151.9490369628808
 30
0.0
 10
124.3469319350591
 20
-151.9490369628808
 30
0.0
 10
124.3638129029368
 20
-151.9152750271253
 30
0.0
 10
124.4189344307008
 20
-151.7946966851416
 30
0.0
 10
124.4378824558697
 20
-151.7206271322087
 30
0.0
 10
124.4189344307008
 20
-151.7206271322087
 30
0.0
 10
124.2411675036619
 20
-151.7271728136307
 30
0.0
 10
124.0465196087453
 20
-151.7399196669261
 30
0.0
 10
124.0465196087453
 20
-151.7399196669261
 30
0.0
 10
124.0465196087453
 20
-151.8729003526568
 30
0.0
 10
124.0465196087453
 20
-151.8729003526568
 30
0.0
 10
123.9979437624033
 20
-151.8983940592476
 30
0.0
 10
123.938688120057
 20
-151.9300889377119
 30
0.0
 10
123.8053629247778
 20
-151.9958902614802
 30
0.0
 10
123.8053629247778
 20
-151.9958902614802
 30
0.0
 10
123.8053629247778
 20
-152.1416178005063
 30
0.0
 10
123.8053629247778
 20
-152.1416178005063
 30
0.0
 10
123.8053629247778
 20
-152.1416178005063
 30
0.0
 10
123.8053629247778
 20
-152.6091172578547
 30
0.0
 10
123.8053629247778
 20
-152.6091172578547
 30
0.0
 10
123.8053629247778
 20
-152.7362412812604
 30
0.0
 10
123.7691894221827
 20
-152.7954969236067
 30
0.0
 10
123.4856580637466
 20
-152.7868841848935
 30
0.0
 10
123.4856580637466
 20
-152.7868841848935
 30
0.0
 10
123.3823051991891
 20
-152.5794894366815
 30
0.0
 10
123.3823051991891
 20
-152.5794894366815
 30
0.0
 10
123.4456949561177
 20
-152.5922362899769
 30
0.0
 10
123.4942708024597
 20
-152.5963704045592
 30
0.0
 10
123.5345784196372
 20
-152.5963704045592
 30
0.0
 10
123.6107150298612
 20
-152.5963704045592
 30
0.0
 10
123.6210503163169
 20
-152.573288264808
 30
0.0
 10
123.6210503163169
 20
-152.5078314505883
 30
0.0
 10
123.6210503163169
 20
-152.5078314505883
 30
0.0
 10
123.6210503163169
 20
-152.0782280435776
 30
0.0
 10
123.6210503163169
 20
-152.0782280435776
 30
0.0
 10
123.5238986236329
 20
-152.1185356607551
 30
0.0
 10
123.5070176557552
 20
-152.1247368326285
 30
0.0
 10
123.4605088667043
 20
-152.1436848577974
 30
0.0
 10
123.456374752122
 20
-152.165044449806
 30
0.0
 10
123.4518961279912
 20
-152.1946722709791
 30
0.0
 10
123.4329481028223
 20
-152.1946722709791
 30
0.0
 10
123.4243353641092
 20
-152.1946722709791
 30
0.0
 10
123.4140000776534
 20
-152.1905381563968
 30
0.0
 10
123.4074543962314
 20
-152.1671115070971
 30
0.0
 10
123.4074543962314
 20
-152.1671115070971
 30
0.0
 10
123.3547444353071
 20
-151.9745306694716
 30
0.0
 10
123.3547444353071
 20
-151.9745306694716
 30
0.0
 10
123.5004719743332
 20
-151.9280218804208
 30
0.0
 10
123.5662732981015
 20
-151.9049397406696
 30
0.0
 10
123.6210503163169
 20
-151.883580148661
 30
0.0
 10
123.6210503163169
 20
-151.883580148661
 30
0.0
 10
123.6210503163169
 20
-151.4712022190766
 30
0.0
 10
123.6210503163169
 20
-151.4712022190766
 30
0.0
 10
123.6210503163169
 20
-151.4712022190766
 30
0.0
 10
123.5683403553926
 20
-151.4712022190766
 30
0.0
 10
123.5683403553926
 20
-151.4712022190766
 30
0.0
 10
123.5683403553926
 20
-151.4712022190766
 30
0.0
 10
123.4901366878774
 20
-151.4712022190766
 30
0.0
 10
123.4901366878774
 20
-151.4712022190766
 30
0.0
 10
123.422268306818
 20
-151.4712022190766
 30
0.0
 10
123.4140000776534
 20
-151.4712022190766
 30
0.0
 10
123.3778265750583
 20
-151.4774033909501
 30
0.0
 10
123.3778265750583
 20
-151.4774033909501
 30
0.0
 10
123.3778265750583
 20
-151.2827554960334
 30
0.0
 10
123.3778265750583
 20
-151.2827554960334
 30
0.0
 10
123.4053873389403
 20
-151.2893011774554
 30
0.0
 10
123.4140000776534
 20
-151.2893011774554
 30
0.0
 10
123.4835910064555
 20
-151.2893011774554
 30
0.0
 10
123.4835910064555
 20
-151.2893011774554
 30
0.0
 10
123.6169162017346
 20
-151.2893011774554
 30
0.0
 10
123.6169162017346
 20
-151.2893011774554
 30
0.0
 10
123.6169162017346
 20
-151.2193657391049
 30
0.0
 10
123.6169162017346
 20
-151.1366834474589
 30
0.0
 10
123.6148491444435
 20
-151.1325493328766
 30
0.0
 10
123.6065809152789
 20
-150.9527153485465
 30
0.0
 10
123.6065809152789
 20
-150.9337673233777
 30
0.0
 10
123.6041693484392
 20
-150.8872585343268
 30
0.0
 10
123.6041693484392
 20
-150.8872585343268
 30
0.0
 10
123.8201768353644
 20
-150.8955267634914
 30
0.0
 10
123.8201768353644
 20
-150.8955267634914
 30
0.0
 10
123.8305121218201
 20
-150.8955267634914
 30
0.0
 10
123.8518717138287
 20
-150.897938330331
 30
0.0
 10
123.8518717138287
 20
-150.9148192982088
 30
0.0
 10
123.8518717138287
 20
-150.9337673233777
 30
0.0
 10
123.8370578032421
 20
-150.9444471193819
 30
0.0
 10
123.8115640966513
 20
-150.9633951445508
 30
0.0
 10
123.8115640966513
 20
-151.014038048184
 30
0.0
 10
123.8053629247778
 20
-151.2424478788561
 30
0.0
 10
123.807429982069
 20
-151.2893011774554
 30
0.0
 10
123.9362765532173
 20
-151.2893011774554
 30
0.0
 10
123.9490234065127
 20
-151.2893011774554
 30
0.0
 10
124.0465196087453
 20
-151.2806884387423
 30
0.0
 10
124.0465196087453
 20
-151.2806884387423
 30
0.0
 10
124.0465196087453
 20
-151.4753363336589
 30
0.0
 10
124.0465196087453
 20
-151.4753363336589
 30
0.0
 10
124.008279048859
 20
-151.4732692763678
 30
0.0
 10
123.9407551773481
 20
-151.4691351617855
 30
0.0
 10
123.8053629247778
 20
-151.4712022190766
 30
0.0
 10
123.8053629247778
 20
-151.4712022190766
 30
0.0
 10
123.8053629247778
 20
-151.8095105957282
 30
0.0
 10
123.8053629247778
 20
-151.8095105957282
 30
0.0
 10
123.8601399429933
 20
-151.786428455977
 30
0.0
 10
123.9259412667615
 20
-151.758867692095
 30
0.0
 10
123.9745171131036
 20
-151.7354410427953
 30
0.0
 10
123.9745171131036
 20
-151.7354410427953
 30
0.0
 10
123.9745171131036
 20
-151.5576741157564
 30
0.0
 10
123.9745171131036
 20
-151.5576741157564
 30
0.0
 10
124.0888942832139
 20
-151.5704209690518
 30
0.0
 10
124.2070610583579
 20
-151.5704209690518
 30
0.0
 10
124.3235052857594
 20
-151.5704209690518
 30
0.0
 10
124.3004231460082
 20
-151.4753363336589
 30
0.0
 10
124.2728623821262
 20
-151.3926540420129
 30
0.0
 10
124.2094726251976
 20
-151.2596733562823
 30
0.0
 10
124.1650308934379
 20
-151.2617404135734
 30
0.0
 10
124.0823486017919
 20
-151.2658745281557
 30
0.0
 10
124.0444525514541
 20
-151.2679415854469
 30
0.0
 10
124.0444525514541
 20
-151.2679415854469
 30
0.0
 10
124.0444525514541
 20
-151.0881076011168
 30
0.0
 10
124.0444525514541
 20
-151.0881076011168
 30
0.0
 10
124.1691650080202
 20
-151.09672033983
 30
0.0
 10
124.3424533109283
 20
-151.1008544544123
 30
0.0
 10
124.4251356025742
 20
-151.1008544544123
 30
0.0
 10
124.4251356025742
 20
-151.1008544544123
 30
0.0
 10
124.5074733846717
 20
-151.1008544544123
 30
0.0
 10
124.5074733846717
 20
-151.1008544544123
 30
0.0
 10
124.5074733846717
 20
-150.9379014379599
 30
0.0
 10
124.5074733846717
 20
-150.9275661515042
 30
0.0
 10
124.5054063273806
 20
-150.8724446237402
 30
0.0
 10
124.5054063273806
 20
-150.8724446237402
 30
0.0
 10
124.7296820434703
 20
-150.897938330331
 30
0.0
 10
124.7296820434703
 20
-150.897938330331
 30
0.0
 10
124.7338161580526
 20
-150.897938330331
 30
0.0
 10
124.7551757500612
 20
-150.9000053876222
 30
0.0
 10
124.7551757500612
 20
-150.9168863554999
 30
0.0
 10
124.7551757500612
 20
-150.9317002660865
 30
0.0
 10
124.7444959540569
 20
-150.9399684952511
 30
0.0
 10
124.7169351901749
 20
-150.9547824058377
 30
0.0
 10
124.7107340183015
 20
-151.0205837296059
 30
0.0
 10
124.7086669610103
 20
-151.041598812066
 30
0.0
 10
124.7086669610103
 20
-151.1008544544123
 30
0.0
 10
124.7086669610103
 20
-151.1008544544123
 30
0.0
 10
124.8037515964032
 20
-151.1008544544123
 30
0.0
 10
124.8037515964032
 20
-151.1008544544123
 30
0.0
 10
124.8864338880492
 20
-151.1008544544123
 30
0.0
 10
125.0597221909573
 20
-151.09672033983
 30
0.0
 10
125.1844346475233
 20
-151.0881076011168
 30
0.0
 10
125.1844346475233
 20
-151.0881076011168
 30
0.0
 10
125.1844346475233
 20
-151.2679415854469
 30
0.0
 10
125.1844346475233
 20
-151.2679415854469
 30
0.0
 10
125.1548068263502
 20
-151.2658745281557
 30
0.0
 10
125.0366400512061
 20
-151.2617404135734
 30
0.0
 10
124.9963324340287
 20
-151.2596733562823
 30
0.0
 10
124.9815185234421
 20
-151.3103162599155
 30
0.0
 10
124.9477565876867
 20
-151.4222818631861
 30
0.0
 10
124.8819552639184
 20
-151.5621527398872
 30
0.0
 10
124.924329938387
 20
-151.5621527398872
 30
0.0
 10
125.2016601249496
 20
-151.5428602051698
 30
0.0
 10
125.262982824587
 20
-151.5407931478787
 30
0.0
 10
125.262982824587
 20
-151.5407931478787
 30
0.0
 10
125.262982824587
 20
-151.7251057563395
 30
0.0
 10
125.262982824587
 20
-151.7251057563395
 30
0.0
 10
125.2333550034139
 20
-151.7251057563395
 30
0.0
 10
125.2164740355361
 20
-151.7206271322087
 30
0.0
 10
125.0535210190838
 20
-151.7206271322087
 30
0.0
  0
HATCH
  5
151
330
14A
100
AcDbEntity
  8
レイヤー 1
 62
    18
420
        0
440
 33554687
100
AcDbHatch
 10
0.0
 20
0.0
 30
0.0
210
0.0
220
0.0
230
1.0
  2
SOLID
 70
     1
 71
     1
 91
        3
 92
        1
 93
        1
 72
     4
 94
        3
 73
     0
 74
     0
 95
       17
 96
       13
 40
0.0
 40
0.0
 40
0.0
 40
0.0
 40
1.0
 40
1.0
 40
1.0
 40
2.0
 40
2.0
 40
2.0
 40
3.0
 40
3.0
 40
3.0
 40
4.0
 40
4.0
 40
4.0
 40
4.0
 10
124.4885253595028
 20
-152.1057888074597
 10
124.4716443916251
 20
-152.1354166286328
 10
124.421001487992
 20
-152.2284342067345
 10
124.4103216919877
 20
-152.2473822319034
 10
124.600835472322
 20
-152.3066378742497
 10
124.621850554782
 20
-152.3131835556717
 10
124.6938530504237
 20
-152.3403998100052
 10
124.7486300686392
 20
-152.2539279133254
 10
124.7720567179389
 20
-152.1798583603925
 10
124.7868706285255
 20
-152.1057888074597
 10
124.7868706285255
 20
-152.1057888074597
 10
124.4885253595028
 20
-152.1057888074597
 10
124.4885253595028
 20
-152.1057888074597
 97
        0
 97
        1
330
14E
 92
        1
 93
        1
 72
     4
 94
        3
 73
     0
 74
     0
 95
       20
 96
       16
 40
0.0
 40
0.0
 40
0.0
 40
0.0
 40
1.0
 40
1.0
 40
1.0
 40
2.0
 40
2.0
 40
2.0
 40
3.0
 40
3.0
 40
3.0
 40
4.0
 40
4.0
 40
4.0
 40
5.0
 40
5.0
 40
5.0
 40
5.0
 10
124.4251356025742
 20
-151.2551947321515
 10
124.4251356025742
 20
-151.2551947321515
 10
124.39344072411
 20
-151.2551947321515
 10
124.39344072411
 20
-151.2551947321515
 10
124.4399495131608
 20
-151.3547579916752
 10
124.4716443916251
 20
-151.4350287164815
 10
124.5054063273806
 20
-151.5621527398872
 10
124.5054063273806
 20
-151.5621527398872
 10
124.7128010755926
 20
-151.5621527398872
 10
124.7128010755926
 20
-151.5621527398872
 10
124.7444959540569
 20
-151.4691351617855
 10
124.7679226033566
 20
-151.3843858128483
 10
124.7910047431078
 20
-151.2551947321515
 10
124.7910047431078
 20
-151.2551947321515
 10
124.4251356025742
 20
-151.2551947321515
 10
124.4251356025742
 20
-151.2551947321515
 97
        0
 97
        1
330
14F
 92
        1
 93
        1
 72
     4
 94
        3
 73
     0
 74
     0
 95
      242
 96
      238
 40
0.0
 40
0.0
 40
0.0
 40
0.0
 40
1.0
 40
1.0
 40
1.0
 40
2.0
 40
2.0
 40
2.0
 40
3.0
 40
3.0
 40
3.0
 40
4.0
 40
4.0
 40
4.0
 40
5.0
 40
5.0
 40
5.0
 40
6.0
 40
6.0
 40
6.0
 40
7.0
 40
7.0
 40
7.0
 40
8.0
 40
8.0
 40
8.0
 40
9.0
 40
9.0
 40
9.0
 40
10.0
 40
10.0
 40
10.0
 40
11.0
 40
11.0
 40
11.0
 40
12.0
 40
12.0
 40
12.0
 40
13.0
 40
13.0
 40
13.0
 40
14.0
 40
14.0
 40
14.0
 40
15.0
 40
15.0
 40
15.0
 40
16.0
 40
16.0
 40
16.0
 40
17.0
 40
17.0
 40
17.0
 40
18.0
 40
18.0
 40
18.0
 40
19.0
 40
19.0
 40
19.0
 40
20.0
 40
20.0
 40
20.0
 40
21.0
 40
21.0
 40
21.0
 40
22.0
 40
22.0
 40
22.0
 40
23.0
 40
23.0
 40
23.0
 40
24.0
 40
24.0
 40
24.0
 40
25.0
 40
25.0
 40
25.0
 40
26.0
 40
26.0
 40
26.0
 40
27.0
 40
27.0
 40
27.0
 40
28.0
 40
28.0
 40
28.0
 40
29.0
 40
29.0
 40
29.0
 40
30.0
 40
30.0
 40
30.0
 40
31.0
 40
31.0
 40
31.0
 40
32.0
 40
32.0
 40
32.0
 40
33.0
 40
33.0
 40
33.0
 40
34.0
 40
34.0
 40
34.0
 40
35.0
 40
35.0
 40
35.0
 40
36.0
 40
36.0
 40
36.0
 40
37.0
 40
37.0
 40
37.0
 40
38.0
 40
38.0
 40
38.0
 40
39.0
 40
39.0
 40
39.0
 40
40.0
 40
40.0
 40
40.0
 40
41.0
 40
41.0
 40
41.0
 40
42.0
 40
42.0
 40
42.0
 40
43.0
 40
43.0
 40
43.0
 40
44.0
 40
44.0
 40
44.0
 40
45.0
 40
45.0
 40
45.0
 40
46.0
 40
46.0
 40
46.0
 40
47.0
 40
47.0
 40
47.0
 40
48.0
 40
48.0
 40
48.0
 40
49.0
 40
49.0
 40
49.0
 40
50.0
 40
50.0
 40
50.0
 40
51.0
 40
51.0
 40
51.0
 40
52.0
 40
52.0
 40
52.0
 40
53.0
 40
53.0
 40
53.0
 40
54.0
 40
54.0
 40
54.0
 40
55.0
 40
55.0
 40
55.0
 40
56.0
 40
56.0
 40
56.0
 40
57.0
 40
57.0
 40
57.0
 40
58.0
 40
58.0
 40
58.0
 40
59.0
 40
59.0
 40
59.0
 40
60.0
 40
60.0
 40
60.0
 40
61.0
 40
61.0
 40
61.0
 40
62.0
 40
62.0
 40
62.0
 40
63.0
 40
63.0
 40
63.0
 40
64.0
 40
64.0
 40
64.0
 40
65.0
 40
65.0
 40
65.0
 40
66.0
 40
66.0
 40
66.0
 40
67.0
 40
67.0
 40
67.0
 40
68.0
 40
68.0
 40
68.0
 40
69.0
 40
69.0
 40
69.0
 40
70.0
 40
70.0
 40
70.0
 40
71.0
 40
71.0
 40
71.0
 40
72.0
 40
72.0
 40
72.0
 40
73.0
 40
73.0
 40
73.0
 40
74.0
 40
74.0
 40
74.0
 40
75.0
 40
75.0
 40
75.0
 40
76.0
 40
76.0
 40
76.0
 40
77.0
 40
77.0
 40
77.0
 40
78.0
 40
78.0
 40
78.0
 40
79.0
 40
79.0
 40
79.0
 40
79.0
 10
125.0535210190838
 20
-151.7206271322087
 10
125.0535210190838
 20
-151.7206271322087
 10
124.7996174818209
 20
-151.7206271322087
 10
124.7996174818209
 20
-151.7206271322087
 10
124.7996174818209
 20
-151.7206271322087
 10
124.5222872952583
 20
-151.7206271322087
 10
124.5222872952583
 20
-151.7206271322087
 10
124.5222872952583
 20
-151.7206271322087
 10
124.649411318664
 20
-151.7630018066773
 10
124.649411318664
 20
-151.7630018066773
 10
124.6600911146683
 20
-151.7671359212596
 10
124.6724934584152
 20
-151.7736816026816
 10
124.6724934584152
 20
-151.786428455977
 10
124.6724934584152
 20
-151.807443538437
 10
124.6407985799509
 20
-151.8136447103105
 10
124.6197834974909
 20
-151.8181233344413
 10
124.6091037014866
 20
-151.8412054741925
 10
124.5794758803134
 20
-151.9070067979607
 10
124.5605278551446
 20
-151.9514485297204
 10
124.5605278551446
 20
-151.9514485297204
 10
124.8313123602852
 20
-151.9514485297204
 10
124.8313123602852
 20
-151.9514485297204
 10
124.9222628810958
 20
-151.9514485297204
 10
125.1189778333036
 20
-151.9469699055896
 10
125.2605712577473
 20
-151.938701676425
 10
125.2605712577473
 20
-151.938701676425
 10
125.2605712577473
 20
-152.1164686034639
 10
125.2605712577473
 20
-152.1164686034639
 10
125.1782334756499
 20
-152.1119899793331
 10
125.1572183931898
 20
-152.1119899793331
 10
124.9773844088598
 20
-152.1078558647508
 10
124.9456895303955
 20
-152.26219614249
 10
124.9012477986358
 20
-152.3428113768448
 10
124.8568060668761
 20
-152.4124023056469
 10
124.9773844088598
 20
-152.4716579479932
 10
125.083148840257
 20
-152.5395263290526
 10
125.186846214363
 20
-152.6218641111501
 10
125.186846214363
 20
-152.6218641111501
 10
125.0683349296704
 20
-152.7889512421847
 10
125.0683349296704
 20
-152.7889512421847
 10
125.0449082803707
 20
-152.7700032170158
 10
125.0321614270753
 20
-152.7613904783027
 10
124.9201958238046
 20
-152.6769856389141
 10
124.8716199774626
 20
-152.6387450790278
 10
124.8123643351163
 20
-152.6029160859812
 10
124.7317491007615
 20
-152.5584743542215
 10
124.5202202379671
 20
-152.744509510425
 10
124.3152370565948
 20
-152.7679361597247
 10
124.0251600167368
 20
-152.7975639808978
 10
124.0251600167368
 20
-152.7975639808978
 10
123.9214626426307
 20
-152.6177299965678
 10
123.9214626426307
 20
-152.6177299965678
 10
124.2391004463708
 20
-152.6135958819855
 10
124.41445580657
 20
-152.5881021753946
 10
124.566729027018
 20
-152.4782036294152
 10
124.4482177423254
 20
-152.4272162162335
 10
124.3596787883545
 20
-152.3996554523515
 10
124.3235052857594
 20
-152.3872531086046
 10
124.3045572605905
 20
-152.4144693629381
 10
124.2897433500039
 20
-152.4337618976554
 10
124.2621825861219
 20
-152.4675238334109
 10
124.2621825861219
 20
-152.4675238334109
 10
124.0654676339142
 20
-152.3848415417649
 10
124.0654676339142
 20
-152.3848415417649
 10
124.1481499255602
 20
-152.3045708169586
 10
124.2094726251976
 20
-152.2094861815657
 10
124.2663167007042
 20
-152.1078558647508
 10
124.0761474299184
 20
-152.1119899793331
 10
124.0547878379099
 20
-152.1119899793331
 10
123.9724500558124
 20
-152.1164686034639
 10
123.9724500558124
 20
-152.1164686034639
 10
123.9724500558124
 20
-151.938701676425
 10
123.9724500558124
 20
-151.938701676425
 10
124.111976422965
 20
-151.9449028482985
 10
124.3214382284682
 20
-151.9490369628808
 10
124.3469319350591
 20
-151.9490369628808
 10
124.3638129029368
 20
-151.9152750271253
 10
124.4189344307008
 20
-151.7946966851416
 10
124.4378824558697
 20
-151.7206271322087
 10
124.4189344307008
 20
-151.7206271322087
 10
124.2411675036619
 20
-151.7271728136307
 10
124.0465196087453
 20
-151.7399196669261
 10
124.0465196087453
 20
-151.7399196669261
 10
124.0465196087453
 20
-151.8729003526568
 10
124.0465196087453
 20
-151.8729003526568
 10
123.9979437624033
 20
-151.8983940592476
 10
123.938688120057
 20
-151.9300889377119
 10
123.8053629247778
 20
-151.9958902614802
 10
123.8053629247778
 20
-151.9958902614802
 10
123.8053629247778
 20
-152.1416178005063
 10
123.8053629247778
 20
-152.1416178005063
 10
123.8053629247778
 20
-152.1416178005063
 10
123.8053629247778
 20
-152.6091172578547
 10
123.8053629247778
 20
-152.6091172578547
 10
123.8053629247778
 20
-152.7362412812604
 10
123.7691894221827
 20
-152.7954969236067
 10
123.4856580637466
 20
-152.7868841848935
 10
123.4856580637466
 20
-152.7868841848935
 10
123.3823051991891
 20
-152.5794894366815
 10
123.3823051991891
 20
-152.5794894366815
 10
123.4456949561177
 20
-152.5922362899769
 10
123.4942708024597
 20
-152.5963704045592
 10
123.5345784196372
 20
-152.5963704045592
 10
123.6107150298612
 20
-152.5963704045592
 10
123.6210503163169
 20
-152.573288264808
 10
123.6210503163169
 20
-152.5078314505883
 10
123.6210503163169
 20
-152.5078314505883
 10
123.6210503163169
 20
-152.0782280435776
 10
123.6210503163169
 20
-152.0782280435776
 10
123.5238986236329
 20
-152.1185356607551
 10
123.5070176557552
 20
-152.1247368326285
 10
123.4605088667043
 20
-152.1436848577974
 10
123.456374752122
 20
-152.165044449806
 10
123.4518961279912
 20
-152.1946722709791
 10
123.4329481028223
 20
-152.1946722709791
 10
123.4243353641092
 20
-152.1946722709791
 10
123.4140000776534
 20
-152.1905381563968
 10
123.4074543962314
 20
-152.1671115070971
 10
123.4074543962314
 20
-152.1671115070971
 10
123.3547444353071
 20
-151.9745306694716
 10
123.3547444353071
 20
-151.9745306694716
 10
123.5004719743332
 20
-151.9280218804208
 10
123.5662732981015
 20
-151.9049397406696
 10
123.6210503163169
 20
-151.883580148661
 10
123.6210503163169
 20
-151.883580148661
 10
123.6210503163169
 20
-151.4712022190766
 10
123.6210503163169
 20
-151.4712022190766
 10
123.6210503163169
 20
-151.4712022190766
 10
123.5683403553926
 20
-151.4712022190766
 10
123.5683403553926
 20
-151.4712022190766
 10
123.5683403553926
 20
-151.4712022190766
 10
123.4901366878774
 20
-151.4712022190766
 10
123.4901366878774
 20
-151.4712022190766
 10
123.422268306818
 20
-151.4712022190766
 10
123.4140000776534
 20
-151.4712022190766
 10
123.3778265750583
 20
-151.4774033909501
 10
123.3778265750583
 20
-151.4774033909501
 10
123.3778265750583
 20
-151.2827554960334
 10
123.3778265750583
 20
-151.2827554960334
 10
123.4053873389403
 20
-151.2893011774554
 10
123.4140000776534
 20
-151.2893011774554
 10
123.4835910064555
 20
-151.2893011774554
 10
123.4835910064555
 20
-151.2893011774554
 10
123.6169162017346
 20
-151.2893011774554
 10
123.6169162017346
 20
-151.2893011774554
 10
123.6169162017346
 20
-151.2193657391049
 10
123.6169162017346
 20
-151.1366834474589
 10
123.6148491444435
 20
-151.1325493328766
 10
123.6065809152789
 20
-150.9527153485465
 10
123.6065809152789
 20
-150.9337673233777
 10
123.6041693484392
 20
-150.8872585343268
 10
123.6041693484392
 20
-150.8872585343268
 10
123.8201768353644
 20
-150.8955267634914
 10
123.8201768353644
 20
-150.8955267634914
 10
123.8305121218201
 20
-150.8955267634914
 10
123.8518717138287
 20
-150.897938330331
 10
123.8518717138287
 20
-150.9148192982088
 10
123.8518717138287
 20
-150.9337673233777
 10
123.8370578032421
 20
-150.9444471193819
 10
123.8115640966513
 20
-150.9633951445508
 10
123.8115640966513
 20
-151.014038048184
 10
123.8053629247778
 20
-151.2424478788561
 10
123.807429982069
 20
-151.2893011774554
 10
123.9362765532173
 20
-151.2893011774554
 10
123.9490234065127
 20
-151.2893011774554
 10
124.0465196087453
 20
-151.2806884387423
 10
124.0465196087453
 20
-151.2806884387423
 10
124.0465196087453
 20
-151.4753363336589
 10
124.0465196087453
 20
-151.4753363336589
 10
124.008279048859
 20
-151.4732692763678
 10
123.9407551773481
 20
-151.4691351617855
 10
123.8053629247778
 20
-151.4712022190766
 10
123.8053629247778
 20
-151.4712022190766
 10
123.8053629247778
 20
-151.8095105957282
 10
123.8053629247778
 20
-151.8095105957282
 10
123.8601399429933
 20
-151.786428455977
 10
123.9259412667615
 20
-151.758867692095
 10
123.9745171131036
 20
-151.7354410427953
 10
123.9745171131036
 20
-151.7354410427953
 10
123.9745171131036
 20
-151.5576741157564
 10
123.9745171131036
 20
-151.5576741157564
 10
124.0888942832139
 20
-151.5704209690518
 10
124.2070610583579
 20
-151.5704209690518
 10
124.3235052857594
 20
-151.5704209690518
 10
124.3004231460082
 20
-151.4753363336589
 10
124.2728623821262
 20
-151.3926540420129
 10
124.2094726251976
 20
-151.2596733562823
 10
124.1650308934379
 20
-151.2617404135734
 10
124.0823486017919
 20
-151.2658745281557
 10
124.0444525514541
 20
-151.2679415854469
 10
124.0444525514541
 20
-151.2679415854469
 10
124.0444525514541
 20
-151.0881076011168
 10
124.0444525514541
 20
-151.0881076011168
 10
124.1691650080202
 20
-151.09672033983
 10
124.3424533109283
 20
-151.1008544544123
 10
124.4251356025742
 20
-151.1008544544123
 10
124.4251356025742
 20
-151.1008544544123
 10
124.5074733846717
 20
-151.1008544544123
 10
124.5074733846717
 20
-151.1008544544123
 10
124.5074733846717
 20
-150.9379014379599
 10
124.5074733846717
 20
-150.9275661515042
 10
124.5054063273806
 20
-150.8724446237402
 10
124.5054063273806
 20
-150.8724446237402
 10
124.7296820434703
 20
-150.897938330331
 10
124.7296820434703
 20
-150.897938330331
 10
124.7338161580526
 20
-150.897938330331
 10
124.7551757500612
 20
-150.9000053876222
 10
124.7551757500612
 20
-150.9168863554999
 10
124.7551757500612
 20
-150.9317002660865
 10
124.7444959540569
 20
-150.9399684952511
 10
124.7169351901749
 20
-150.9547824058377
 10
124.7107340183015
 20
-151.0205837296059
 10
124.7086669610103
 20
-151.041598812066
 10
124.7086669610103
 20
-151.1008544544123
 10
124.7086669610103
 20
-151.1008544544123
 10
124.8037515964032
 20
-151.1008544544123
 10
124.8037515964032
 20
-151.1008544544123
 10
124.8864338880492
 20
-151.1008544544123
 10
125.0597221909573
 20
-151.09672033983
 10
125.1844346475233
 20
-151.0881076011168
 10
125.1844346475233
 20
-151.0881076011168
 10
125.1844346475233
 20
-151.2679415854469
 10
125.1844346475233
 20
-151.2679415854469
 10
125.1548068263502
 20
-151.2658745281557
 10
125.0366400512061
 20
-151.2617404135734
 10
124.9963324340287
 20
-151.2596733562823
 10
124.9815185234421
 20
-151.3103162599155
 10
124.9477565876867
 20
-151.4222818631861
 10
124.8819552639184
 20
-151.5621527398872
 10
124.924329938387
 20
-151.5621527398872
 10
125.2016601249496
 20
-151.5428602051698
 10
125.262982824587
 20
-151.5407931478787
 10
125.262982824587
 20
-151.5407931478787
 10
125.262982824587
 20
-151.7251057563395
 10
125.262982824587
 20
-151.7251057563395
 10
125.2333550034139
 20
-151.7251057563395
 10
125.2164740355361
 20
-151.7206271322087
 10
125.0535210190838
 20
-151.7206271322087
 97
        0
 97
        1
330
150
 75
     2
 76
     1
 98
        1
 10
0.0
 20
0.0
450
        0
451
        0
460
0.0
461
0.0
452
        0
462
0.0
453
        0
470

  0
SPLINE
  5
152
330
14A
100
AcDbEntity
  8
レイヤー 1
100
AcDbSpline
210
0.0
220
0.0
230
1.0
 70
    11
 71
     3
 72
    17
 73
    13
 74
     0
 42
0.0000000001
 43
0.0000000001
 40
0.0
 40
0.0
 40
0.0
 40
0.0
 40
1.0
 40
1.0
 40
1.0
 40
2.0
 40
2.0
 40
2.0
 40
3.0
 40
3.0
 40
3.0
 40
4.0
 40
4.0
 40
4.0
 40
4.0
 10
126.9097384665364
 20
-152.5202337943352
 30
0.0
 10
126.9097384665364
 20
-152.5202337943352
 30
0.0
 10
126.2031493825117
 20
-152.5202337943352
 30
0.0
 10
126.2031493825117
 20
-152.5202337943352
 30
0.0
 10
126.2031493825117
 20
-152.5202337943352
 30
0.0
 10
126.2031493825117
 20
-152.6346109644455
 30
0.0
 10
126.2031493825117
 20
-152.6346109644455
 30
0.0
 10
126.2031493825117
 20
-152.6346109644455
 30
0.0
 10
126.9097384665364
 20
-152.6346109644455
 30
0.0
 10
126.9097384665364
 20
-152.6346109644455
 30
0.0
 10
126.9097384665364
 20
-152.6346109644455
 30
0.0
 10
126.9097384665364
 20
-152.5202337943352
 30
0.0
 10
126.9097384665364
 20
-152.5202337943352
 30
0.0
  0
SPLINE
  5
153
330
14A
100
AcDbEntity
  8
レイヤー 1
100
AcDbSpline
210
0.0
220
0.0
230
1.0
 70
    11
 71
     3
 72
    17
 73
    13
 74
     0
 42
0.0000000001
 43
0.0000000001
 40
0.0
 40
0.0
 40
0.0
 40
0.0
 40
1.0
 40
1.0
 40
1.0
 40
2.0
 40
2.0
 40
2.0
 40
3.0
 40
3.0
 40
3.0
 40
4.0
 40
4.0
 40
4.0
 40
4.0
 10
126.9097384665364
 20
-152.2770100530766
 30
0.0
 10
126.9097384665364
 20
-152.2770100530766
 30
0.0
 10
126.2031493825117
 20
-152.2770100530766
 30
0.0
 10
126.2031493825117
 20
-152.2770100530766
 30
0.0
 10
126.2031493825117
 20
-152.2770100530766
 30
0.0
 10
126.2031493825117
 20
-152.3913872231869
 30
0.0
 10
126.2031493825117
 20
-152.3913872231869
 30
0.0
 10
126.2031493825117
 20
-152.3913872231869
 30
0.0
 10
126.9097384665364
 20
-152.3913872231869
 30
0.0
 10
126.9097384665364
 20
-152.3913872231869
 30
0.0
 10
126.9097384665364
 20
-152.3913872231869
 30
0.0
 10
126.9097384665364
 20
-152.2770100530766
 30
0.0
 10
126.9097384665364
 20
-152.2770100530766
 30
0.0
  0
SPLINE
  5
154
330
14A
100
AcDbEntity
  8
レイヤー 1
100
AcDbSpline
210
0.0
220
0.0
230
1.0
 70
    11
 71
     3
 72
    17
 73
    13
 74
     0
 42
0.0000000001
 43
0.0000000001
 40
0.0
 40
0.0
 40
0.0
 40
0.0
 40
1.0
 40
1.0
 40
1.0
 40
2.0
 40
2.0
 40
2.0
 40
3.0
 40
3.0
 40
3.0
 40
4.0
 40
4.0
 40
4.0
 40
4.0
 10
126.9097384665364
 20
-152.0444661078222
 30
0.0
 10
126.9097384665364
 20
-152.0444661078222
 30
0.0
 10
126.2031493825117
 20
-152.0444661078222
 30
0.0
 10
126.2031493825117
 20
-152.0444661078222
 30
0.0
 10
126.2031493825117
 20
-152.0444661078222
 30
0.0
 10
126.2031493825117
 20
-152.1522975965105
 30
0.0
 10
126.2031493825117
 20
-152.1522975965105
 30
0.0
 10
126.2031493825117
 20
-152.1522975965105
 30
0.0
 10
126.9097384665364
 20
-152.1522975965105
 30
0.0
 10
126.9097384665364
 20
-152.1522975965105
 30
0.0
 10
126.9097384665364
 20
-152.1522975965105
 30
0.0
 10
126.9097384665364
 20
-152.0444661078222
 30
0.0
 10
126.9097384665364
 20
-152.0444661078222
 30
0.0
  0
SPLINE
  5
155
330
14A
100
AcDbEntity
  8
レイヤー 1
100
AcDbSpline
210
0.0
220
0.0
230
1.0
 70
     9
 71
     3
 72
   203
 73
   199
 74
     0
 42
0.0000000001
 43
0.0000000001
 40
0.0
 40
0.0
 40
0.0
 40
0.0
 40
1.0
 40
1.0
 40
1.0
 40
2.0
 40
2.0
 40
2.0
 40
3.0
 40
3.0
 40
3.0
 40
4.0
 40
4.0
 40
4.0
 40
5.0
 40
5.0
 40
5.0
 40
6.0
 40
6.0
 40
6.0
 40
7.0
 40
7.0
 40
7.0
 40
8.0
 40
8.0
 40
8.0
 40
9.0
 40
9.0
 40
9.0
 40
10.0
 40
10.0
 40
10.0
 40
11.0
 40
11.0
 40
11.0
 40
12.0
 40
12.0
 40
12.0
 40
13.0
 40
13.0
 40
13.0
 40
14.0
 40
14.0
 40
14.0
 40
15.0
 40
15.0
 40
15.0
 40
16.0
 40
16.0
 40
16.0
 40
17.0
 40
17.0
 40
17.0
 40
18.0
 40
18.0
 40
18.0
 40
19.0
 40
19.0
 40
19.0
 40
20.0
 40
20.0
 40
20.0
 40
21.0
 40
21.0
 40
21.0
 40
22.0
 40
22.0
 40
22.0
 40
23.0
 40
23.0
 40
23.0
 40
24.0
 40
24.0
 40
24.0
 40
25.0
 40
25.0
 40
25.0
 40
26.0
 40
26.0
 40
26.0
 40
27.0
 40
27.0
 40
27.0
 40
28.0
 40
28.0
 40
28.0
 40
29.0
 40
29.0
 40
29.0
 40
30.0
 40
30.0
 40
30.0
 40
31.0
 40
31.0
 40
31.0
 40
32.0
 40
32.0
 40
32.0
 40
33.0
 40
33.0
 40
33.0
 40
34.0
 40
34.0
 40
34.0
 40
35.0
 40
35.0
 40
35.0
 40
36.0
 40
36.0
 40
36.0
 40
37.0
 40
37.0
 40
37.0
 40
38.0
 40
38.0
 40
38.0
 40
39.0
 40
39.0
 40
39.0
 40
40.0
 40
40.0
 40
40.0
 40
41.0
 40
41.0
 40
41.0
 40
42.0
 40
42.0
 40
42.0
 40
43.0
 40
43.0
 40
43.0
 40
44.0
 40
44.0
 40
44.0
 40
45.0
 40
45.0
 40
45.0
 40
46.0
 40
46.0
 40
46.0
 40
47.0
 40
47.0
 40
47.0
 40
48.0
 40
48.0
 40
48.0
 40
49.0
 40
49.0
 40
49.0
 40
50.0
 40
50.0
 40
50.0
 40
51.0
 40
51.0
 40
51.0
 40
52.0
 40
52.0
 40
52.0
 40
53.0
 40
53.0
 40
53.0
 40
54.0
 40
54.0
 40
54.0
 40
55.0
 40
55.0
 40
55.0
 40
56.0
 40
56.0
 40
56.0
 40
57.0
 40
57.0
 40
57.0
 40
58.0
 40
58.0
 40
58.0
 40
59.0
 40
59.0
 40
59.0
 40
60.0
 40
60.0
 40
60.0
 40
61.0
 40
61.0
 40
61.0
 40
62.0
 40
62.0
 40
62.0
 40
63.0
 40
63.0
 40
63.0
 40
64.0
 40
64.0
 40
64.0
 40
65.0
 40
65.0
 40
65.0
 40
66.0
 40
66.0
 40
66.0
 40
66.0
 10
126.744718392793
 20
-151.7884955132682
 30
0.0
 10
126.744718392793
 20
-151.7884955132682
 30
0.0
 10
126.186268414634
 20
-151.7884955132682
 30
0.0
 10
126.186268414634
 20
-151.7884955132682
 30
0.0
 10
126.1759331281782
 20
-151.8329372450279
 30
0.0
 10
126.1673203894651
 20
-151.8646321234922
 30
0.0
 10
126.1545735361697
 20
-151.9025281738299
 30
0.0
 10
126.1800672427605
 20
-151.9025281738299
 30
0.0
 10
126.1948811533471
 20
-151.9049397406696
 30
0.0
 10
126.2010823252206
 20
-151.9049397406696
 30
0.0
 10
126.2010823252206
 20
-151.9049397406696
 30
0.0
 10
126.3895290482637
 20
-151.9049397406696
 30
0.0
 10
126.3895290482637
 20
-151.9049397406696
 30
0.0
 10
126.3895290482637
 20
-151.9049397406696
 30
0.0
 10
126.7640109275104
 20
-151.9049397406696
 30
0.0
 10
126.7640109275104
 20
-151.9049397406696
 30
0.0
 10
126.8146538311435
 20
-151.9049397406696
 30
0.0
 10
127.0981851895796
 20
-151.8921928873742
 30
0.0
 10
127.1298800680439
 20
-151.8921928873742
 30
0.0
 10
127.1278130107527
 20
-151.9197536512562
 30
0.0
 10
127.1257459534616
 20
-151.938701676425
 30
0.0
 10
127.1257459534616
 20
-151.9683294975982
 30
0.0
 10
127.1236788961704
 20
-152.0000243760625
 30
0.0
 10
127.1236788961704
 20
-152.1354166286328
 30
0.0
 10
127.1236788961704
 20
-152.1629773925148
 30
0.0
 10
127.1236788961704
 20
-152.1629773925148
 30
0.0
 10
127.1236788961704
 20
-152.4082681910646
 30
0.0
 10
127.1236788961704
 20
-152.4082681910646
 30
0.0
 10
127.1236788961704
 20
-152.4527099228243
 30
0.0
 10
127.1278130107527
 20
-152.6494248750321
 30
0.0
 10
127.1319471253351
 20
-152.8016980954801
 30
0.0
 10
127.1319471253351
 20
-152.8016980954801
 30
0.0
 10
126.9056043519541
 20
-152.8016980954801
 30
0.0
 10
126.9056043519541
 20
-152.8016980954801
 30
0.0
 10
126.9056043519541
 20
-152.8016980954801
 30
0.0
 10
126.9076714092453
 20
-152.7679361597247
 30
0.0
 10
126.9076714092453
 20
-152.7679361597247
 30
0.0
 10
126.9076714092453
 20
-152.7679361597247
 30
0.0
 10
126.2055609493514
 20
-152.7679361597247
 30
0.0
 10
126.2055609493514
 20
-152.7679361597247
 30
0.0
 10
126.2055609493514
 20
-152.7679361597247
 30
0.0
 10
126.2076280066425
 20
-152.8016980954801
 30
0.0
 10
126.2076280066425
 20
-152.8016980954801
 30
0.0
 10
126.2076280066425
 20
-152.8016980954801
 30
0.0
 10
125.9895534624262
 20
-152.8016980954801
 30
0.0
 10
125.9895534624262
 20
-152.8016980954801
 30
0.0
 10
125.994032086557
 20
-152.7465765677161
 30
0.0
 10
125.994032086557
 20
-152.7341742239692
 30
0.0
 10
126.0002332584305
 20
-152.6197970538589
 30
0.0
 10
126.0023003157216
 20
-152.5922362899769
 30
0.0
 10
126.0043673730128
 20
-152.4589110946978
 30
0.0
 10
126.0043673730128
 20
-152.4399630695289
 30
0.0
 10
126.0043673730128
 20
-152.4399630695289
 30
0.0
 10
126.0043673730128
 20
-152.2370469454477
 30
0.0
 10
126.0043673730128
 20
-152.2370469454477
 30
0.0
 10
125.8648410058602
 20
-152.4864718585798
 30
0.0
 10
125.6956868175344
 20
-152.6177299965678
 30
0.0
 10
125.5899223861372
 20
-152.6831868107875
 30
0.0
 10
125.5899223861372
 20
-152.6831868107875
 30
0.0
 10
125.4162895736806
 20
-152.5436604436349
 30
0.0
 10
125.4162895736806
 20
-152.5436604436349
 30
0.0
 10
125.5051730372001
 20
-152.4930175400017
 30
0.0
 10
125.6491780284835
 20
-152.4062011337735
 30
0.0
 10
125.786637338345
 20
-152.2115532388568
 30
0.0
 10
125.8775878591556
 20
-152.0844292154511
 30
0.0
 10
125.9430446733753
 20
-151.9407687337162
 30
0.0
 10
125.9768066091308
 20
-151.7884955132682
 30
0.0
 10
125.7483967784587
 20
-151.7905625705593
 30
0.0
 10
125.5685627941287
 20
-151.7967637424328
 30
0.0
 10
125.4734781587358
 20
-151.7988307997239
 30
0.0
 10
125.4734781587358
 20
-151.7988307997239
 30
0.0
 10
125.4734781587358
 20
-151.6214083822335
 30
0.0
 10
125.4734781587358
 20
-151.6214083822335
 30
0.0
 10
125.6701931109436
 20
-151.627609554107
 30
0.0
 10
125.9537244693796
 20
-151.6317436686893
 30
0.0
 10
126.1039306325365
 20
-151.6317436686893
 30
0.0
 10
126.1039306325365
 20
-151.6317436686893
 30
0.0
 10
126.317526552622
 20
-151.6317436686893
 30
0.0
 10
126.317526552622
 20
-151.6317436686893
 30
0.0
 10
126.317526552622
 20
-151.6317436686893
 30
0.0
 10
126.317526552622
 20
-151.5239121800009
 30
0.0
 10
126.317526552622
 20
-151.5239121800009
 30
0.0
 10
126.317526552622
 20
-151.5239121800009
 30
0.0
 10
126.1714545040474
 20
-151.5239121800009
 30
0.0
 10
126.1714545040474
 20
-151.5239121800009
 30
0.0
 10
126.0023003157216
 20
-151.5239121800009
 30
0.0
 10
125.8331461273959
 20
-151.5280462945832
 30
0.0
 10
125.6660589963612
 20
-151.5345919760052
 30
0.0
 10
125.6660589963612
 20
-151.5345919760052
 30
0.0
 10
125.6660589963612
 20
-151.3633707303883
 30
0.0
 10
125.6660589963612
 20
-151.3633707303883
 30
0.0
 10
125.8203992741004
 20
-151.373706016844
 30
0.0
 10
126.0064344303039
 20
-151.373706016844
 30
0.0
 10
126.1714545040474
 20
-151.373706016844
 30
0.0
 10
126.1714545040474
 20
-151.373706016844
 30
0.0
 10
126.317526552622
 20
-151.373706016844
 30
0.0
 10
126.317526552622
 20
-151.373706016844
 30
0.0
 10
126.317526552622
 20
-151.373706016844
 30
0.0
 10
126.317526552622
 20
-151.2551947321515
 30
0.0
 10
126.317526552622
 20
-151.2551947321515
 30
0.0
 10
126.317526552622
 20
-151.2551947321515
 30
0.0
 10
126.186268414634
 20
-151.2551947321515
 30
0.0
 10
126.186268414634
 20
-151.2551947321515
 30
0.0
 10
126.1397596255831
 20
-151.2551947321515
 30
0.0
 10
125.9368435015019
 20
-151.2638074708646
 30
0.0
 10
125.8944688270333
 20
-151.2638074708646
 30
0.0
 10
125.6912081934036
 20
-151.2679415854469
 30
0.0
 10
125.6150715831795
 20
-151.270008642738
 30
0.0
 10
125.5368679156644
 20
-151.2720757000292
 30
0.0
 10
125.5368679156644
 20
-151.2720757000292
 30
0.0
 10
125.5368679156644
 20
-151.0881076011168
 30
0.0
 10
125.5368679156644
 20
-151.0881076011168
 30
0.0
 10
125.6512450857747
 20
-151.09672033983
 30
0.0
 10
125.6956868175344
 20
-151.09672033983
 30
0.0
 10
126.0784369259457
 20
-151.1049885689946
 30
0.0
 10
126.0150471690171
 20
-151.0099039336017
 30
0.0
 10
125.9874864051351
 20
-150.9823431697197
 30
0.0
 10
125.9516574120885
 20
-150.9465141766731
 30
0.0
 10
125.9516574120885
 20
-150.9465141766731
 30
0.0
 10
126.1270127722877
 20
-150.8638318850271
 30
0.0
 10
126.1270127722877
 20
-150.8638318850271
 30
0.0
 10
126.1673203894651
 20
-150.9000053876222
 30
0.0
 10
126.2117621212248
 20
-150.9423800620908
 30
0.0
 10
126.2858316741577
 20
-151.0522786080703
 30
0.0
 10
126.2858316741577
 20
-151.0522786080703
 30
0.0
 10
126.1714545040474
 20
-151.1074001358343
 30
0.0
 10
126.1714545040474
 20
-151.1074001358343
 30
0.0
 10
126.1714545040474
 20
-151.1074001358343
 30
0.0
 10
126.1821343000517
 20
-151.1074001358343
 30
0.0
 10
126.1821343000517
 20
-151.1074001358343
 30
0.0
 10
126.1821343000517
 20
-151.1074001358343
 30
0.0
 10
126.7047552851641
 20
-151.1074001358343
 30
0.0
 10
126.7047552851641
 20
-151.1074001358343
 30
0.0
 10
126.7047552851641
 20
-151.1074001358343
 30
0.0
 10
126.6093261402227
 20
-151.0629584040745
 30
0.0
 10
126.6093261402227
 20
-151.0629584040745
 30
0.0
 10
126.6368869041047
 20
-151.0247178441882
 30
0.0
 10
126.6940754891598
 20
-150.9444471193819
 30
0.0
 10
126.7088893997464
 20
-150.8703775664491
 30
0.0
 10
126.7088893997464
 20
-150.8703775664491
 30
0.0
 10
126.9224853198319
 20
-150.9337673233777
 30
0.0
 10
126.9224853198319
 20
-150.9337673233777
 30
0.0
 10
126.931098058545
 20
-150.9358343806688
 30
0.0
 10
126.952113141005
 20
-150.9465141766731
 30
0.0
 10
126.952113141005
 20
-150.9675292591331
 30
0.0
 10
126.952113141005
 20
-151.0057698190194
 30
0.0
 10
126.8866563267853
 20
-151.0057698190194
 30
0.0
 10
126.8677083016164
 20
-151.0057698190194
 30
0.0
 10
126.8570285056121
 20
-151.0247178441882
 30
0.0
 10
126.8336018563124
 20
-151.0650254613657
 30
0.0
 10
126.8039740351393
 20
-151.1049885689946
 30
0.0
 10
127.2039496209768
 20
-151.0987873971211
 30
0.0
 10
127.2335774421499
 20
-151.09672033983
 30
0.0
 10
127.3097140523739
 20
-151.090174658408
 30
0.0
 10
127.3097140523739
 20
-151.090174658408
 30
0.0
 10
127.3097140523739
 20
-151.2720757000292
 30
0.0
 10
127.3097140523739
 20
-151.2720757000292
 30
0.0
 10
127.2907660272051
 20
-151.2720757000292
 30
0.0
 10
127.2652723206142
 20
-151.270008642738
 30
0.0
 10
127.0451307191068
 20
-151.2617404135734
 30
0.0
 10
126.9944878154736
 20
-151.2596733562823
 30
0.0
 10
126.7743462139661
 20
-151.2551947321515
 30
0.0
 10
126.7299044822064
 20
-151.2551947321515
 30
0.0
 10
126.7299044822064
 20
-151.2551947321515
 30
0.0
 10
126.5142415048298
 20
-151.2551947321515
 30
0.0
 10
126.5142415048298
 20
-151.2551947321515
 30
0.0
 10
126.5142415048298
 20
-151.2551947321515
 30
0.0
 10
126.5142415048298
 20
-151.373706016844
 30
0.0
 10
126.5142415048298
 20
-151.373706016844
 30
0.0
 10
126.5142415048298
 20
-151.373706016844
 30
0.0
 10
126.6878743172863
 20
-151.373706016844
 30
0.0
 10
126.6878743172863
 20
-151.373706016844
 30
0.0
 10
126.8504828241901
 20
-151.373706016844
 30
0.0
 10
127.0409966045245
 20
-151.373706016844
 30
0.0
 10
127.1977484491033
 20
-151.3633707303883
 30
0.0
 10
127.1977484491033
 20
-151.3633707303883
 30
0.0
 10
127.1977484491033
 20
-151.5345919760052
 30
0.0
 10
127.1977484491033
 20
-151.5345919760052
 30
0.0
 10
126.9882866436001
 20
-151.5259792372921
 30
0.0
 10
126.7915716913924
 20
-151.5239121800009
 30
0.0
 10
126.6878743172863
 20
-151.5239121800009
 30
0.0
 10
126.6878743172863
 20
-151.5239121800009
 30
0.0
 10
126.5142415048298
 20
-151.5239121800009
 30
0.0
 10
126.5142415048298
 20
-151.5239121800009
 30
0.0
 10
126.5142415048298
 20
-151.5239121800009
 30
0.0
 10
126.5142415048298
 20
-151.6317436686893
 30
0.0
 10
126.5142415048298
 20
-151.6317436686893
 30
0.0
 10
126.5142415048298
 20
-151.6317436686893
 30
0.0
 10
126.744718392793
 20
-151.6317436686893
 30
0.0
 10
126.744718392793
 20
-151.6317436686893
 30
0.0
 10
126.8780435880721
 20
-151.6317436686893
 30
0.0
 10
127.1657090610905
 20
-151.627609554107
 30
0.0
 10
127.3751708665937
 20
-151.6214083822335
 30
0.0
 10
127.3751708665937
 20
-151.6214083822335
 30
0.0
 10
127.3751708665937
 20
-151.7988307997239
 30
0.0
 10
127.3751708665937
 20
-151.7988307997239
 30
0.0
 10
127.1829345385167
 20
-151.7926296278504
 30
0.0
 10
126.8697753589075
 20
-151.7884955132682
 30
0.0
 10
126.744718392793
 20
-151.7884955132682
 30
0.0
  0
HATCH
  5
156
330
14A
100
AcDbEntity
  8
レイヤー 1
 62
    18
420
        0
440
 33554687
100
AcDbHatch
 10
0.0
 20
0.0
 30
0.0
210
0.0
220
0.0
230
1.0
  2
SOLID
 70
     1
 71
     1
 91
        4
 92
        1
 93
        1
 72
     4
 94
        3
 73
     0
 74
     0
 95
       17
 96
       13
 40
0.0
 40
0.0
 40
0.0
 40
0.0
 40
1.0
 40
1.0
 40
1.0
 40
2.0
 40
2.0
 40
2.0
 40
3.0
 40
3.0
 40
3.0
 40
4.0
 40
4.0
 40
4.0
 40
4.0
 10
126.9097384665364
 20
-152.5202337943352
 10
126.9097384665364
 20
-152.5202337943352
 10
126.2031493825117
 20
-152.5202337943352
 10
126.2031493825117
 20
-152.5202337943352
 10
126.2031493825117
 20
-152.5202337943352
 10
126.2031493825117
 20
-152.6346109644455
 10
126.2031493825117
 20
-152.6346109644455
 10
126.2031493825117
 20
-152.6346109644455
 10
126.9097384665364
 20
-152.6346109644455
 10
126.9097384665364
 20
-152.6346109644455
 10
126.9097384665364
 20
-152.6346109644455
 10
126.9097384665364
 20
-152.5202337943352
 10
126.9097384665364
 20
-152.5202337943352
 97
        0
 97
        1
330
152
 92
        1
 93
        1
 72
     4
 94
        3
 73
     0
 74
     0
 95
       17
 96
       13
 40
0.0
 40
0.0
 40
0.0
 40
0.0
 40
1.0
 40
1.0
 40
1.0
 40
2.0
 40
2.0
 40
2.0
 40
3.0
 40
3.0
 40
3.0
 40
4.0
 40
4.0
 40
4.0
 40
4.0
 10
126.9097384665364
 20
-152.2770100530766
 10
126.9097384665364
 20
-152.2770100530766
 10
126.2031493825117
 20
-152.2770100530766
 10
126.2031493825117
 20
-152.2770100530766
 10
126.2031493825117
 20
-152.2770100530766
 10
126.2031493825117
 20
-152.3913872231869
 10
126.2031493825117
 20
-152.3913872231869
 10
126.2031493825117
 20
-152.3913872231869
 10
126.9097384665364
 20
-152.3913872231869
 10
126.9097384665364
 20
-152.3913872231869
 10
126.9097384665364
 20
-152.3913872231869
 10
126.9097384665364
 20
-152.2770100530766
 10
126.9097384665364
 20
-152.2770100530766
 97
        0
 97
        1
330
153
 92
        1
 93
        1
 72
     4
 94
        3
 73
     0
 74
     0
 95
       17
 96
       13
 40
0.0
 40
0.0
 40
0.0
 40
0.0
 40
1.0
 40
1.0
 40
1.0
 40
2.0
 40
2.0
 40
2.0
 40
3.0
 40
3.0
 40
3.0
 40
4.0
 40
4.0
 40
4.0
 40
4.0
 10
126.9097384665364
 20
-152.0444661078222
 10
126.9097384665364
 20
-152.0444661078222
 10
126.2031493825117
 20
-152.0444661078222
 10
126.2031493825117
 20
-152.0444661078222
 10
126.2031493825117
 20
-152.0444661078222
 10
126.2031493825117
 20
-152.1522975965105
 10
126.2031493825117
 20
-152.1522975965105
 10
126.2031493825117
 20
-152.1522975965105
 10
126.9097384665364
 20
-152.1522975965105
 10
126.9097384665364
 20
-152.1522975965105
 10
126.9097384665364
 20
-152.1522975965105
 10
126.9097384665364
 20
-152.0444661078222
 10
126.9097384665364
 20
-152.0444661078222
 97
        0
 97
        1
330
154
 92
        1
 93
        1
 72
     4
 94
        3
 73
     0
 74
     0
 95
      203
 96
      199
 40
0.0
 40
0.0
 40
0.0
 40
0.0
 40
1.0
 40
1.0
 40
1.0
 40
2.0
 40
2.0
 40
2.0
 40
3.0
 40
3.0
 40
3.0
 40
4.0
 40
4.0
 40
4.0
 40
5.0
 40
5.0
 40
5.0
 40
6.0
 40
6.0
 40
6.0
 40
7.0
 40
7.0
 40
7.0
 40
8.0
 40
8.0
 40
8.0
 40
9.0
 40
9.0
 40
9.0
 40
10.0
 40
10.0
 40
10.0
 40
11.0
 40
11.0
 40
11.0
 40
12.0
 40
12.0
 40
12.0
 40
13.0
 40
13.0
 40
13.0
 40
14.0
 40
14.0
 40
14.0
 40
15.0
 40
15.0
 40
15.0
 40
16.0
 40
16.0
 40
16.0
 40
17.0
 40
17.0
 40
17.0
 40
18.0
 40
18.0
 40
18.0
 40
19.0
 40
19.0
 40
19.0
 40
20.0
 40
20.0
 40
20.0
 40
21.0
 40
21.0
 40
21.0
 40
22.0
 40
22.0
 40
22.0
 40
23.0
 40
23.0
 40
23.0
 40
24.0
 40
24.0
 40
24.0
 40
25.0
 40
25.0
 40
25.0
 40
26.0
 40
26.0
 40
26.0
 40
27.0
 40
27.0
 40
27.0
 40
28.0
 40
28.0
 40
28.0
 40
29.0
 40
29.0
 40
29.0
 40
30.0
 40
30.0
 40
30.0
 40
31.0
 40
31.0
 40
31.0
 40
32.0
 40
32.0
 40
32.0
 40
33.0
 40
33.0
 40
33.0
 40
34.0
 40
34.0
 40
34.0
 40
35.0
 40
35.0
 40
35.0
 40
36.0
 40
36.0
 40
36.0
 40
37.0
 40
37.0
 40
37.0
 40
38.0
 40
38.0
 40
38.0
 40
39.0
 40
39.0
 40
39.0
 40
40.0
 40
40.0
 40
40.0
 40
41.0
 40
41.0
 40
41.0
 40
42.0
 40
42.0
 40
42.0
 40
43.0
 40
43.0
 40
43.0
 40
44.0
 40
44.0
 40
44.0
 40
45.0
 40
45.0
 40
45.0
 40
46.0
 40
46.0
 40
46.0
 40
47.0
 40
47.0
 40
47.0
 40
48.0
 40
48.0
 40
48.0
 40
49.0
 40
49.0
 40
49.0
 40
50.0
 40
50.0
 40
50.0
 40
51.0
 40
51.0
 40
51.0
 40
52.0
 40
52.0
 40
52.0
 40
53.0
 40
53.0
 40
53.0
 40
54.0
 40
54.0
 40
54.0
 40
55.0
 40
55.0
 40
55.0
 40
56.0
 40
56.0
 40
56.0
 40
57.0
 40
57.0
 40
57.0
 40
58.0
 40
58.0
 40
58.0
 40
59.0
 40
59.0
 40
59.0
 40
60.0
 40
60.0
 40
60.0
 40
61.0
 40
61.0
 40
61.0
 40
62.0
 40
62.0
 40
62.0
 40
63.0
 40
63.0
 40
63.0
 40
64.0
 40
64.0
 40
64.0
 40
65.0
 40
65.0
 40
65.0
 40
66.0
 40
66.0
 40
66.0
 40
66.0
 10
126.744718392793
 20
-151.7884955132682
 10
126.744718392793
 20
-151.7884955132682
 10
126.186268414634
 20
-151.7884955132682
 10
126.186268414634
 20
-151.7884955132682
 10
126.1759331281782
 20
-151.8329372450279
 10
126.1673203894651
 20
-151.8646321234922
 10
126.1545735361697
 20
-151.9025281738299
 10
126.1800672427605
 20
-151.9025281738299
 10
126.1948811533471
 20
-151.9049397406696
 10
126.2010823252206
 20
-151.9049397406696
 10
126.2010823252206
 20
-151.9049397406696
 10
126.3895290482637
 20
-151.9049397406696
 10
126.3895290482637
 20
-151.9049397406696
 10
126.3895290482637
 20
-151.9049397406696
 10
126.7640109275104
 20
-151.9049397406696
 10
126.7640109275104
 20
-151.9049397406696
 10
126.8146538311435
 20
-151.9049397406696
 10
127.0981851895796
 20
-151.8921928873742
 10
127.1298800680439
 20
-151.8921928873742
 10
127.1278130107527
 20
-151.9197536512562
 10
127.1257459534616
 20
-151.938701676425
 10
127.1257459534616
 20
-151.9683294975982
 10
127.1236788961704
 20
-152.0000243760625
 10
127.1236788961704
 20
-152.1354166286328
 10
127.1236788961704
 20
-152.1629773925148
 10
127.1236788961704
 20
-152.1629773925148
 10
127.1236788961704
 20
-152.4082681910646
 10
127.1236788961704
 20
-152.4082681910646
 10
127.1236788961704
 20
-152.4527099228243
 10
127.1278130107527
 20
-152.6494248750321
 10
127.1319471253351
 20
-152.8016980954801
 10
127.1319471253351
 20
-152.8016980954801
 10
126.9056043519541
 20
-152.8016980954801
 10
126.9056043519541
 20
-152.8016980954801
 10
126.9056043519541
 20
-152.8016980954801
 10
126.9076714092453
 20
-152.7679361597247
 10
126.9076714092453
 20
-152.7679361597247
 10
126.9076714092453
 20
-152.7679361597247
 10
126.2055609493514
 20
-152.7679361597247
 10
126.2055609493514
 20
-152.7679361597247
 10
126.2055609493514
 20
-152.7679361597247
 10
126.2076280066425
 20
-152.8016980954801
 10
126.2076280066425
 20
-152.8016980954801
 10
126.2076280066425
 20
-152.8016980954801
 10
125.9895534624262
 20
-152.8016980954801
 10
125.9895534624262
 20
-152.8016980954801
 10
125.994032086557
 20
-152.7465765677161
 10
125.994032086557
 20
-152.7341742239692
 10
126.0002332584305
 20
-152.6197970538589
 10
126.0023003157216
 20
-152.5922362899769
 10
126.0043673730128
 20
-152.4589110946978
 10
126.0043673730128
 20
-152.4399630695289
 10
126.0043673730128
 20
-152.4399630695289
 10
126.0043673730128
 20
-152.2370469454477
 10
126.0043673730128
 20
-152.2370469454477
 10
125.8648410058602
 20
-152.4864718585798
 10
125.6956868175344
 20
-152.6177299965678
 10
125.5899223861372
 20
-152.6831868107875
 10
125.5899223861372
 20
-152.6831868107875
 10
125.4162895736806
 20
-152.5436604436349
 10
125.4162895736806
 20
-152.5436604436349
 10
125.5051730372001
 20
-152.4930175400017
 10
125.6491780284835
 20
-152.4062011337735
 10
125.786637338345
 20
-152.2115532388568
 10
125.8775878591556
 20
-152.0844292154511
 10
125.9430446733753
 20
-151.9407687337162
 10
125.9768066091308
 20
-151.7884955132682
 10
125.7483967784587
 20
-151.7905625705593
 10
125.5685627941287
 20
-151.7967637424328
 10
125.4734781587358
 20
-151.7988307997239
 10
125.4734781587358
 20
-151.7988307997239
 10
125.4734781587358
 20
-151.6214083822335
 10
125.4734781587358
 20
-151.6214083822335
 10
125.6701931109436
 20
-151.627609554107
 10
125.9537244693796
 20
-151.6317436686893
 10
126.1039306325365
 20
-151.6317436686893
 10
126.1039306325365
 20
-151.6317436686893
 10
126.317526552622
 20
-151.6317436686893
 10
126.317526552622
 20
-151.6317436686893
 10
126.317526552622
 20
-151.6317436686893
 10
126.317526552622
 20
-151.5239121800009
 10
126.317526552622
 20
-151.5239121800009
 10
126.317526552622
 20
-151.5239121800009
 10
126.1714545040474
 20
-151.5239121800009
 10
126.1714545040474
 20
-151.5239121800009
 10
126.0023003157216
 20
-151.5239121800009
 10
125.8331461273959
 20
-151.5280462945832
 10
125.6660589963612
 20
-151.5345919760052
 10
125.6660589963612
 20
-151.5345919760052
 10
125.6660589963612
 20
-151.3633707303883
 10
125.6660589963612
 20
-151.3633707303883
 10
125.8203992741004
 20
-151.373706016844
 10
126.0064344303039
 20
-151.373706016844
 10
126.1714545040474
 20
-151.373706016844
 10
126.1714545040474
 20
-151.373706016844
 10
126.317526552622
 20
-151.373706016844
 10
126.317526552622
 20
-151.373706016844
 10
126.317526552622
 20
-151.373706016844
 10
126.317526552622
 20
-151.2551947321515
 10
126.317526552622
 20
-151.2551947321515
 10
126.317526552622
 20
-151.2551947321515
 10
126.186268414634
 20
-151.2551947321515
 10
126.186268414634
 20
-151.2551947321515
 10
126.1397596255831
 20
-151.2551947321515
 10
125.9368435015019
 20
-151.2638074708646
 10
125.8944688270333
 20
-151.2638074708646
 10
125.6912081934036
 20
-151.2679415854469
 10
125.6150715831795
 20
-151.270008642738
 10
125.5368679156644
 20
-151.2720757000292
 10
125.5368679156644
 20
-151.2720757000292
 10
125.5368679156644
 20
-151.0881076011168
 10
125.5368679156644
 20
-151.0881076011168
 10
125.6512450857747
 20
-151.09672033983
 10
125.6956868175344
 20
-151.09672033983
 10
126.0784369259457
 20
-151.1049885689946
 10
126.0150471690171
 20
-151.0099039336017
 10
125.9874864051351
 20
-150.9823431697197
 10
125.9516574120885
 20
-150.9465141766731
 10
125.9516574120885
 20
-150.9465141766731
 10
126.1270127722877
 20
-150.8638318850271
 10
126.1270127722877
 20
-150.8638318850271
 10
126.1673203894651
 20
-150.9000053876222
 10
126.2117621212248
 20
-150.9423800620908
 10
126.2858316741577
 20
-151.0522786080703
 10
126.2858316741577
 20
-151.0522786080703
 10
126.1714545040474
 20
-151.1074001358343
 10
126.1714545040474
 20
-151.1074001358343
 10
126.1714545040474
 20
-151.1074001358343
 10
126.1821343000517
 20
-151.1074001358343
 10
126.1821343000517
 20
-151.1074001358343
 10
126.1821343000517
 20
-151.1074001358343
 10
126.7047552851641
 20
-151.1074001358343
 10
126.7047552851641
 20
-151.1074001358343
 10
126.7047552851641
 20
-151.1074001358343
 10
126.6093261402227
 20
-151.0629584040745
 10
126.6093261402227
 20
-151.0629584040745
 10
126.6368869041047
 20
-151.0247178441882
 10
126.6940754891598
 20
-150.9444471193819
 10
126.7088893997464
 20
-150.8703775664491
 10
126.7088893997464
 20
-150.8703775664491
 10
126.9224853198319
 20
-150.9337673233777
 10
126.9224853198319
 20
-150.9337673233777
 10
126.931098058545
 20
-150.9358343806688
 10
126.952113141005
 20
-150.9465141766731
 10
126.952113141005
 20
-150.9675292591331
 10
126.952113141005
 20
-151.0057698190194
 10
126.8866563267853
 20
-151.0057698190194
 10
126.8677083016164
 20
-151.0057698190194
 10
126.8570285056121
 20
-151.0247178441882
 10
126.8336018563124
 20
-151.0650254613657
 10
126.8039740351393
 20
-151.1049885689946
 10
127.2039496209768
 20
-151.0987873971211
 10
127.2335774421499
 20
-151.09672033983
 10
127.3097140523739
 20
-151.090174658408
 10
127.3097140523739
 20
-151.090174658408
 10
127.3097140523739
 20
-151.2720757000292
 10
127.3097140523739
 20
-151.2720757000292
 10
127.2907660272051
 20
-151.2720757000292
 10
127.2652723206142
 20
-151.270008642738
 10
127.0451307191068
 20
-151.2617404135734
 10
126.9944878154736
 20
-151.2596733562823
 10
126.7743462139661
 20
-151.2551947321515
 10
126.7299044822064
 20
-151.2551947321515
 10
126.7299044822064
 20
-151.2551947321515
 10
126.5142415048298
 20
-151.2551947321515
 10
126.5142415048298
 20
-151.2551947321515
 10
126.5142415048298
 20
-151.2551947321515
 10
126.5142415048298
 20
-151.373706016844
 10
126.5142415048298
 20
-151.373706016844
 10
126.5142415048298
 20
-151.373706016844
 10
126.6878743172863
 20
-151.373706016844
 10
126.6878743172863
 20
-151.373706016844
 10
126.8504828241901
 20
-151.373706016844
 10
127.0409966045245
 20
-151.373706016844
 10
127.1977484491033
 20
-151.3633707303883
 10
127.1977484491033
 20
-151.3633707303883
 10
127.1977484491033
 20
-151.5345919760052
 10
127.1977484491033
 20
-151.5345919760052
 10
126.9882866436001
 20
-151.5259792372921
 10
126.7915716913924
 20
-151.5239121800009
 10
126.6878743172863
 20
-151.5239121800009
 10
126.6878743172863
 20
-151.5239121800009
 10
126.5142415048298
 20
-151.5239121800009
 10
126.5142415048298
 20
-151.5239121800009
 10
126.5142415048298
 20
-151.5239121800009
 10
126.5142415048298
 20
-151.6317436686893
 10
126.5142415048298
 20
-151.6317436686893
 10
126.5142415048298
 20
-151.6317436686893
 10
126.744718392793
 20
-151.6317436686893
 10
126.744718392793
 20
-151.6317436686893
 10
126.8780435880721
 20
-151.6317436686893
 10
127.1657090610905
 20
-151.627609554107
 10
127.3751708665937
 20
-151.6214083822335
 10
127.3751708665937
 20
-151.6214083822335
 10
127.3751708665937
 20
-151.7988307997239
 10
127.3751708665937
 20
-151.7988307997239
 10
127.1829345385167
 20
-151.7926296278504
 10
126.8697753589075
 20
-151.7884955132682
 10
126.744718392793
 20
-151.7884955132682
 97
        0
 97
        1
330
155
 75
     2
 76
     1
 98
        1
 10
0.0
 20
0.0
450
        0
451
        0
460
0.0
461
0.0
452
        0
462
0.0
453
        0
470

  0
SPLINE
  5
157
330
14A
100
AcDbEntity
  8
レイヤー 1
100
AcDbSpline
210
0.0
220
0.0
230
1.0
 70
     9
 71
     3
 72
    29
 73
    25
 74
     0
 42
0.0000000001
 43
0.0000000001
 40
0.0
 40
0.0
 40
0.0
 40
0.0
 40
1.0
 40
1.0
 40
1.0
 40
2.0
 40
2.0
 40
2.0
 40
3.0
 40
3.0
 40
3.0
 40
4.0
 40
4.0
 40
4.0
 40
5.0
 40
5.0
 40
5.0
 40
6.0
 40
6.0
 40
6.0
 40
7.0
 40
7.0
 40
7.0
 40
8.0
 40
8.0
 40
8.0
 40
8.0
 10
128.620228374963
 20
-151.2362467069826
 30
0.0
 10
128.620228374963
 20
-151.2362467069826
 30
0.0
 10
128.2671060877249
 20
-151.2362467069826
 30
0.0
 10
128.2671060877249
 20
-151.2362467069826
 30
0.0
 10
128.1547959749057
 20
-151.2362467069826
 30
0.0
 10
128.0152696077531
 20
-151.2424478788561
 30
0.0
 10
127.9074381190648
 20
-151.2551947321515
 30
0.0
 10
127.9074381190648
 20
-151.2551947321515
 30
0.0
 10
127.9074381190648
 20
-151.0205837296059
 30
0.0
 10
127.9074381190648
 20
-151.0205837296059
 30
0.0
 10
128.0259494037574
 20
-151.0353976401925
 30
0.0
 10
128.2099175026697
 20
-151.0395317547748
 30
0.0
 10
128.2671060877249
 20
-151.0395317547748
 30
0.0
 10
128.2671060877249
 20
-151.0395317547748
 30
0.0
 10
128.620228374963
 20
-151.0395317547748
 30
0.0
 10
128.620228374963
 20
-151.0395317547748
 30
0.0
 10
128.6395209096804
 20
-151.0395317547748
 30
0.0
 10
128.8424370337616
 20
-151.0395317547748
 30
0.0
 10
128.9840304582054
 20
-151.0205837296059
 30
0.0
 10
128.9840304582054
 20
-151.0205837296059
 30
0.0
 10
128.9840304582054
 20
-151.2551947321515
 30
0.0
 10
128.9840304582054
 20
-151.2551947321515
 30
0.0
 10
128.827623123175
 20
-151.2362467069826
 30
0.0
 10
128.6371093428407
 20
-151.2362467069826
 30
0.0
 10
128.620228374963
 20
-151.2362467069826
 30
0.0
  0
SPLINE
  5
158
330
14A
100
AcDbEntity
  8
レイヤー 1
100
AcDbSpline
210
0.0
220
0.0
230
1.0
 70
     9
 71
     3
 72
    47
 73
    43
 74
     0
 42
0.0000000001
 43
0.0000000001
 40
0.0
 40
0.0
 40
0.0
 40
0.0
 40
1.0
 40
1.0
 40
1.0
 40
2.0
 40
2.0
 40
2.0
 40
3.0
 40
3.0
 40
3.0
 40
4.0
 40
4.0
 40
4.0
 40
5.0
 40
5.0
 40
5.0
 40
6.0
 40
6.0
 40
6.0
 40
7.0
 40
7.0
 40
7.0
 40
8.0
 40
8.0
 40
8.0
 40
9.0
 40
9.0
 40
9.0
 40
10.0
 40
10.0
 40
10.0
 40
11.0
 40
11.0
 40
11.0
 40
12.0
 40
12.0
 40
12.0
 40
13.0
 40
13.0
 40
13.0
 40
14.0
 40
14.0
 40
14.0
 40
14.0
 10
128.7218586917779
 20
-151.7650688639684
 30
0.0
 10
128.7218586917779
 20
-151.7650688639684
 30
0.0
 10
128.620228374963
 20
-151.7650688639684
 30
0.0
 10
128.620228374963
 20
-151.7650688639684
 30
0.0
 10
128.620228374963
 20
-151.8518852701967
 30
0.0
 10
128.599213292503
 20
-152.24118106003
 30
0.0
 10
128.4024983402952
 20
-152.4613226615374
 30
0.0
 10
128.2502251198471
 20
-152.6304768498632
 30
0.0
 10
128.0428303716351
 20
-152.7000677786652
 30
0.0
 10
127.958081022698
 20
-152.7276285425473
 30
0.0
 10
127.958081022698
 20
-152.7276285425473
 30
0.0
 10
127.7634331277814
 20
-152.5605414115126
 30
0.0
 10
127.7634331277814
 20
-152.5605414115126
 30
0.0
 10
127.8609293300139
 20
-152.5477945582172
 30
0.0
 10
128.0362846902131
 20
-152.524712418466
 30
0.0
 10
128.2247314132563
 20
-152.3362656954229
 30
0.0
 10
128.2988009661892
 20
-152.2642631997811
 30
0.0
 10
128.4024983402952
 20
-152.1247368326285
 30
0.0
 10
128.4024983402952
 20
-151.7650688639684
 30
0.0
 10
128.4024983402952
 20
-151.7650688639684
 30
0.0
 10
128.1716769427835
 20
-151.7650688639684
 30
0.0
 10
128.1716769427835
 20
-151.7650688639684
 30
0.0
 10
127.98564178658
 20
-151.7650688639684
 30
0.0
 10
127.7996066303765
 20
-151.7695474880992
 30
0.0
 10
127.6132269646244
 20
-151.7840168891373
 30
0.0
 10
127.6132269646244
 20
-151.7840168891373
 30
0.0
 10
127.6132269646244
 20
-151.5642197971784
 30
0.0
 10
127.6132269646244
 20
-151.5642197971784
 30
0.0
 10
127.8016736876676
 20
-151.579033707765
 30
0.0
 10
128.0872721033949
 20
-151.5831678223472
 30
0.0
 10
128.1716769427835
 20
-151.5831678223472
 30
0.0
 10
128.1716769427835
 20
-151.5831678223472
 30
0.0
 10
128.7218586917779
 20
-151.5831678223472
 30
0.0
 10
128.7218586917779
 20
-151.5831678223472
 30
0.0
 10
128.7408067169467
 20
-151.5831678223472
 30
0.0
 10
129.0581000111382
 20
-151.5831678223472
 30
0.0
 10
129.2868543513588
 20
-151.5642197971784
 30
0.0
 10
129.2868543513588
 20
-151.5642197971784
 30
0.0
 10
129.2868543513588
 20
-151.7840168891373
 30
0.0
 10
129.2868543513588
 20
-151.7840168891373
 30
0.0
 10
129.0984076283157
 20
-151.7695474880992
 30
0.0
 10
128.910305414821
 20
-151.7650688639684
 30
0.0
 10
128.7218586917779
 20
-151.7650688639684
 30
0.0
  0
HATCH
  5
159
330
14A
100
AcDbEntity
  8
レイヤー 1
 62
    18
420
        0
440
 33554687
100
AcDbHatch
 10
0.0
 20
0.0
 30
0.0
210
0.0
220
0.0
230
1.0
  2
SOLID
 70
     1
 71
     1
 91
        2
 92
        1
 93
        1
 72
     4
 94
        3
 73
     0
 74
     0
 95
       29
 96
       25
 40
0.0
 40
0.0
 40
0.0
 40
0.0
 40
1.0
 40
1.0
 40
1.0
 40
2.0
 40
2.0
 40
2.0
 40
3.0
 40
3.0
 40
3.0
 40
4.0
 40
4.0
 40
4.0
 40
5.0
 40
5.0
 40
5.0
 40
6.0
 40
6.0
 40
6.0
 40
7.0
 40
7.0
 40
7.0
 40
8.0
 40
8.0
 40
8.0
 40
8.0
 10
128.620228374963
 20
-151.2362467069826
 10
128.620228374963
 20
-151.2362467069826
 10
128.2671060877249
 20
-151.2362467069826
 10
128.2671060877249
 20
-151.2362467069826
 10
128.1547959749057
 20
-151.2362467069826
 10
128.0152696077531
 20
-151.2424478788561
 10
127.9074381190648
 20
-151.2551947321515
 10
127.9074381190648
 20
-151.2551947321515
 10
127.9074381190648
 20
-151.0205837296059
 10
127.9074381190648
 20
-151.0205837296059
 10
128.0259494037574
 20
-151.0353976401925
 10
128.2099175026697
 20
-151.0395317547748
 10
128.2671060877249
 20
-151.0395317547748
 10
128.2671060877249
 20
-151.0395317547748
 10
128.620228374963
 20
-151.0395317547748
 10
128.620228374963
 20
-151.0395317547748
 10
128.6395209096804
 20
-151.0395317547748
 10
128.8424370337616
 20
-151.0395317547748
 10
128.9840304582054
 20
-151.0205837296059
 10
128.9840304582054
 20
-151.0205837296059
 10
128.9840304582054
 20
-151.2551947321515
 10
128.9840304582054
 20
-151.2551947321515
 10
128.827623123175
 20
-151.2362467069826
 10
128.6371093428407
 20
-151.2362467069826
 10
128.620228374963
 20
-151.2362467069826
 97
        0
 97
        1
330
157
 92
        1
 93
        1
 72
     4
 94
        3
 73
     0
 74
     0
 95
       47
 96
       43
 40
0.0
 40
0.0
 40
0.0
 40
0.0
 40
1.0
 40
1.0
 40
1.0
 40
2.0
 40
2.0
 40
2.0
 40
3.0
 40
3.0
 40
3.0
 40
4.0
 40
4.0
 40
4.0
 40
5.0
 40
5.0
 40
5.0
 40
6.0
 40
6.0
 40
6.0
 40
7.0
 40
7.0
 40
7.0
 40
8.0
 40
8.0
 40
8.0
 40
9.0
 40
9.0
 40
9.0
 40
10.0
 40
10.0
 40
10.0
 40
11.0
 40
11.0
 40
11.0
 40
12.0
 40
12.0
 40
12.0
 40
13.0
 40
13.0
 40
13.0
 40
14.0
 40
14.0
 40
14.0
 40
14.0
 10
128.7218586917779
 20
-151.7650688639684
 10
128.7218586917779
 20
-151.7650688639684
 10
128.620228374963
 20
-151.7650688639684
 10
128.620228374963
 20
-151.7650688639684
 10
128.620228374963
 20
-151.8518852701967
 10
128.599213292503
 20
-152.24118106003
 10
128.4024983402952
 20
-152.4613226615374
 10
128.2502251198471
 20
-152.6304768498632
 10
128.0428303716351
 20
-152.7000677786652
 10
127.958081022698
 20
-152.7276285425473
 10
127.958081022698
 20
-152.7276285425473
 10
127.7634331277814
 20
-152.5605414115126
 10
127.7634331277814
 20
-152.5605414115126
 10
127.8609293300139
 20
-152.5477945582172
 10
128.0362846902131
 20
-152.524712418466
 10
128.2247314132563
 20
-152.3362656954229
 10
128.2988009661892
 20
-152.2642631997811
 10
128.4024983402952
 20
-152.1247368326285
 10
128.4024983402952
 20
-151.7650688639684
 10
128.4024983402952
 20
-151.7650688639684
 10
128.1716769427835
 20
-151.7650688639684
 10
128.1716769427835
 20
-151.7650688639684
 10
127.98564178658
 20
-151.7650688639684
 10
127.7996066303765
 20
-151.7695474880992
 10
127.6132269646244
 20
-151.7840168891373
 10
127.6132269646244
 20
-151.7840168891373
 10
127.6132269646244
 20
-151.5642197971784
 10
127.6132269646244
 20
-151.5642197971784
 10
127.8016736876676
 20
-151.579033707765
 10
128.0872721033949
 20
-151.5831678223472
 10
128.1716769427835
 20
-151.5831678223472
 10
128.1716769427835
 20
-151.5831678223472
 10
128.7218586917779
 20
-151.5831678223472
 10
128.7218586917779
 20
-151.5831678223472
 10
128.7408067169467
 20
-151.5831678223472
 10
129.0581000111382
 20
-151.5831678223472
 10
129.2868543513588
 20
-151.5642197971784
 10
129.2868543513588
 20
-151.5642197971784
 10
129.2868543513588
 20
-151.7840168891373
 10
129.2868543513588
 20
-151.7840168891373
 10
129.0984076283157
 20
-151.7695474880992
 10
128.910305414821
 20
-151.7650688639684
 10
128.7218586917779
 20
-151.7650688639684
 97
        0
 97
        1
330
158
 75
     2
 76
     1
 98
        1
 10
0.0
 20
0.0
450
        0
451
        0
460
0.0
461
0.0
452
        0
462
0.0
453
        0
470

  0
SPLINE
  5
15A
330
14A
100
AcDbEntity
  8
レイヤー 1
100
AcDbSpline
210
0.0
220
0.0
230
1.0
 70
     9
 71
     3
 72
    29
 73
    25
 74
     0
 42
0.0000000001
 43
0.0000000001
 40
0.0
 40
0.0
 40
0.0
 40
0.0
 40
1.0
 40
1.0
 40
1.0
 40
2.0
 40
2.0
 40
2.0
 40
3.0
 40
3.0
 40
3.0
 40
4.0
 40
4.0
 40
4.0
 40
5.0
 40
5.0
 40
5.0
 40
6.0
 40
6.0
 40
6.0
 40
7.0
 40
7.0
 40
7.0
 40
8.0
 40
8.0
 40
8.0
 40
8.0
 10
130.5677408527747
 20
-151.9280218804208
 30
0.0
 10
130.5677408527747
 20
-151.9280218804208
 30
0.0
 10
130.0833604275486
 20
-151.9280218804208
 30
0.0
 10
130.0833604275486
 20
-151.9280218804208
 30
0.0
 10
130.0557996636666
 20
-151.9280218804208
 30
0.0
 10
129.7385063694751
 20
-151.9280218804208
 30
0.0
 10
129.5269775066807
 20
-151.9535155870116
 30
0.0
 10
129.5269775066807
 20
-151.9535155870116
 30
0.0
 10
129.5269775066807
 20
-151.7226941894999
 30
0.0
 10
129.5269775066807
 20
-151.7226941894999
 30
0.0
 10
129.6854518990022
 20
-151.7461208387996
 30
0.0
 10
129.8759656793365
 20
-151.7481878960907
 30
0.0
 10
130.0833604275486
 20
-151.7481878960907
 30
0.0
 10
130.0833604275486
 20
-151.7481878960907
 30
0.0
 10
130.5677408527747
 20
-151.7481878960907
 30
0.0
 10
130.5677408527747
 20
-151.7481878960907
 30
0.0
 10
130.7537760089782
 20
-151.7481878960907
 30
0.0
 10
130.9398111651817
 20
-151.7461208387996
 30
0.0
 10
131.1241237736426
 20
-151.7226941894999
 30
0.0
 10
131.1241237736426
 20
-151.7226941894999
 30
0.0
 10
131.1241237736426
 20
-151.9535155870116
 30
0.0
 10
131.1241237736426
 20
-151.9535155870116
 30
0.0
 10
130.9398111651817
 20
-151.9300889377119
 30
0.0
 10
130.6924533093408
 20
-151.9280218804208
 30
0.0
 10
130.5677408527747
 20
-151.9280218804208
 30
0.0
  0
HATCH
  5
15B
330
14A
100
AcDbEntity
  8
レイヤー 1
 62
    18
420
        0
440
 33554687
100
AcDbHatch
 10
0.0
 20
0.0
 30
0.0
210
0.0
220
0.0
230
1.0
  2
SOLID
 70
     1
 71
     1
 91
        1
 92
        1
 93
        1
 72
     4
 94
        3
 73
     0
 74
     0
 95
       29
 96
       25
 40
0.0
 40
0.0
 40
0.0
 40
0.0
 40
1.0
 40
1.0
 40
1.0
 40
2.0
 40
2.0
 40
2.0
 40
3.0
 40
3.0
 40
3.0
 40
4.0
 40
4.0
 40
4.0
 40
5.0
 40
5.0
 40
5.0
 40
6.0
 40
6.0
 40
6.0
 40
7.0
 40
7.0
 40
7.0
 40
8.0
 40
8.0
 40
8.0
 40
8.0
 10
130.5677408527747
 20
-151.9280218804208
 10
130.5677408527747
 20
-151.9280218804208
 10
130.0833604275486
 20
-151.9280218804208
 10
130.0833604275486
 20
-151.9280218804208
 10
130.0557996636666
 20
-151.9280218804208
 10
129.7385063694751
 20
-151.9280218804208
 10
129.5269775066807
 20
-151.9535155870116
 10
129.5269775066807
 20
-151.9535155870116
 10
129.5269775066807
 20
-151.7226941894999
 10
129.5269775066807
 20
-151.7226941894999
 10
129.6854518990022
 20
-151.7461208387996
 10
129.8759656793365
 20
-151.7481878960907
 10
130.0833604275486
 20
-151.7481878960907
 10
130.0833604275486
 20
-151.7481878960907
 10
130.5677408527747
 20
-151.7481878960907
 10
130.5677408527747
 20
-151.7481878960907
 10
130.7537760089782
 20
-151.7481878960907
 10
130.9398111651817
 20
-151.7461208387996
 10
131.1241237736426
 20
-151.7226941894999
 10
131.1241237736426
 20
-151.7226941894999
 10
131.1241237736426
 20
-151.9535155870116
 10
131.1241237736426
 20
-151.9535155870116
 10
130.9398111651817
 20
-151.9300889377119
 10
130.6924533093408
 20
-151.9280218804208
 10
130.5677408527747
 20
-151.9280218804208
 97
        0
 97
        1
330
15A
 75
     2
 76
     1
 98
        1
 10
0.0
 20
0.0
450
        0
451
        0
460
0.0
461
0.0
452
        0
462
0.0
453
        0
470

  0
SPLINE
  5
15C
330
14A
100
AcDbEntity
  8
レイヤー 1
100
AcDbSpline
210
0.0
220
0.0
230
1.0
 70
     9
 71
     3
 72
    47
 73
    43
 74
     0
 42
0.0000000001
 43
0.0000000001
 40
0.0
 40
0.0
 40
0.0
 40
0.0
 40
1.0
 40
1.0
 40
1.0
 40
2.0
 40
2.0
 40
2.0
 40
3.0
 40
3.0
 40
3.0
 40
4.0
 40
4.0
 40
4.0
 40
5.0
 40
5.0
 40
5.0
 40
6.0
 40
6.0
 40
6.0
 40
7.0
 40
7.0
 40
7.0
 40
8.0
 40
8.0
 40
8.0
 40
9.0
 40
9.0
 40
9.0
 40
10.0
 40
10.0
 40
10.0
 40
11.0
 40
11.0
 40
11.0
 40
12.0
 40
12.0
 40
12.0
 40
13.0
 40
13.0
 40
13.0
 40
14.0
 40
14.0
 40
14.0
 40
14.0
 10
132.7877603834697
 20
-151.3337429092151
 30
0.0
 10
132.7181694546677
 20
-151.6127956435204
 30
0.0
 10
132.6416883348951
 20
-151.9173420844165
 30
0.0
 10
132.3288736648344
 20
-152.2494492891946
 30
0.0
 10
132.0918510954492
 20
-152.4992187118752
 30
0.0
 10
131.8465602968994
 20
-152.5987819713989
 30
0.0
 10
131.7407958655023
 20
-152.6408121363189
 30
0.0
 10
131.7407958655023
 20
-152.6408121363189
 30
0.0
 10
131.5461479705857
 20
-152.4589110946978
 30
0.0
 10
131.5461479705857
 20
-152.4589110946978
 30
0.0
 10
131.7321831267892
 20
-152.4124023056469
 30
0.0
 10
132.0939181527404
 20
-152.3193847275451
 30
0.0
 10
132.3901963644719
 20
-151.8243245063147
 30
0.0
 10
132.5507378140845
 20
-151.5576741157564
 30
0.0
 10
132.56348466738
 20
-151.3843858128483
 30
0.0
 10
132.5720974060931
 20
-151.2934352920377
 30
0.0
 10
132.5720974060931
 20
-151.2934352920377
 30
0.0
 10
132.0663573888584
 20
-151.2934352920377
 30
0.0
 10
132.0663573888584
 20
-151.2934352920377
 30
0.0
 10
131.9478461041658
 20
-151.2934352920377
 30
0.0
 10
131.5268554358683
 20
-151.3123833172066
 30
0.0
 10
131.3745822154202
 20
-151.3230631132109
 30
0.0
 10
131.3745822154202
 20
-151.3230631132109
 30
0.0
 10
131.3745822154202
 20
-151.1136013077077
 30
0.0
 10
131.3745822154202
 20
-151.1136013077077
 30
0.0
 10
131.5165201494125
 20
-151.1263481610031
 30
0.0
 10
131.7935058264266
 20
-151.1304822755854
 30
0.0
 10
131.9099500538281
 20
-151.1304822755854
 30
0.0
 10
131.9099500538281
 20
-151.1304822755854
 30
0.0
 10
132.2651393983573
 20
-151.1304822755854
 30
0.0
 10
132.2651393983573
 20
-151.1304822755854
 30
0.0
 10
132.2927001622393
 20
-151.1304822755854
 30
0.0
 10
132.4535861214005
 20
-151.1284152182943
 30
0.0
 10
132.56348466738
 20
-151.1136013077077
 30
0.0
 10
132.6206732524351
 20
-151.1074001358343
 30
0.0
 10
132.6375542203128
 20
-151.0881076011168
 30
0.0
 10
132.6609808696125
 20
-151.0650254613657
 30
0.0
 10
132.6609808696125
 20
-151.0650254613657
 30
0.0
 10
132.8490830831072
 20
-151.2152316245226
 30
0.0
 10
132.8490830831072
 20
-151.2152316245226
 30
0.0
 10
132.8342691725206
 20
-151.2448594456957
 30
0.0
 10
132.8239338860648
 20
-151.2638074708646
 30
0.0
 10
132.7877603834697
 20
-151.3337429092151
 30
0.0
  0
HATCH
  5
15D
330
14A
100
AcDbEntity
  8
レイヤー 1
 62
    18
420
        0
440
 33554687
100
AcDbHatch
 10
0.0
 20
0.0
 30
0.0
210
0.0
220
0.0
230
1.0
  2
SOLID
 70
     1
 71
     1
 91
        1
 92
        1
 93
        1
 72
     4
 94
        3
 73
     0
 74
     0
 95
       47
 96
       43
 40
0.0
 40
0.0
 40
0.0
 40
0.0
 40
1.0
 40
1.0
 40
1.0
 40
2.0
 40
2.0
 40
2.0
 40
3.0
 40
3.0
 40
3.0
 40
4.0
 40
4.0
 40
4.0
 40
5.0
 40
5.0
 40
5.0
 40
6.0
 40
6.0
 40
6.0
 40
7.0
 40
7.0
 40
7.0
 40
8.0
 40
8.0
 40
8.0
 40
9.0
 40
9.0
 40
9.0
 40
10.0
 40
10.0
 40
10.0
 40
11.0
 40
11.0
 40
11.0
 40
12.0
 40
12.0
 40
12.0
 40
13.0
 40
13.0
 40
13.0
 40
14.0
 40
14.0
 40
14.0
 40
14.0
 10
132.7877603834697
 20
-151.3337429092151
 10
132.7181694546677
 20
-151.6127956435204
 10
132.6416883348951
 20
-151.9173420844165
 10
132.3288736648344
 20
-152.2494492891946
 10
132.0918510954492
 20
-152.4992187118752
 10
131.8465602968994
 20
-152.5987819713989
 10
131.7407958655023
 20
-152.6408121363189
 10
131.7407958655023
 20
-152.6408121363189
 10
131.5461479705857
 20
-152.4589110946978
 10
131.5461479705857
 20
-152.4589110946978
 10
131.7321831267892
 20
-152.4124023056469
 10
132.0939181527404
 20
-152.3193847275451
 10
132.3901963644719
 20
-151.8243245063147
 10
132.5507378140845
 20
-151.5576741157564
 10
132.56348466738
 20
-151.3843858128483
 10
132.5720974060931
 20
-151.2934352920377
 10
132.5720974060931
 20
-151.2934352920377
 10
132.0663573888584
 20
-151.2934352920377
 10
132.0663573888584
 20
-151.2934352920377
 10
131.9478461041658
 20
-151.2934352920377
 10
131.5268554358683
 20
-151.3123833172066
 10
131.3745822154202
 20
-151.3230631132109
 10
131.3745822154202
 20
-151.3230631132109
 10
131.3745822154202
 20
-151.1136013077077
 10
131.3745822154202
 20
-151.1136013077077
 10
131.5165201494125
 20
-151.1263481610031
 10
131.7935058264266
 20
-151.1304822755854
 10
131.9099500538281
 20
-151.1304822755854
 10
131.9099500538281
 20
-151.1304822755854
 10
132.2651393983573
 20
-151.1304822755854
 10
132.2651393983573
 20
-151.1304822755854
 10
132.2927001622393
 20
-151.1304822755854
 10
132.4535861214005
 20
-151.1284152182943
 10
132.56348466738
 20
-151.1136013077077
 10
132.6206732524351
 20
-151.1074001358343
 10
132.6375542203128
 20
-151.0881076011168
 10
132.6609808696125
 20
-151.0650254613657
 10
132.6609808696125
 20
-151.0650254613657
 10
132.8490830831072
 20
-151.2152316245226
 10
132.8490830831072
 20
-151.2152316245226
 10
132.8342691725206
 20
-151.2448594456957
 10
132.8239338860648
 20
-151.2638074708646
 10
132.7877603834697
 20
-151.3337429092151
 97
        0
 97
        1
330
15C
 75
     2
 76
     1
 98
        1
 10
0.0
 20
0.0
450
        0
451
        0
460
0.0
461
0.0
452
        0
462
0.0
453
        0
470

  0
SPLINE
  5
15E
330
14A
100
AcDbEntity
  8
レイヤー 1
100
AcDbSpline
210
0.0
220
0.0
230
1.0
 70
    11
 71
     3
 72
    17
 73
    13
 74
     0
 42
0.0000000001
 43
0.0000000001
 40
0.0
 40
0.0
 40
0.0
 40
0.0
 40
1.0
 40
1.0
 40
1.0
 40
2.0
 40
2.0
 40
2.0
 40
3.0
 40
3.0
 40
3.0
 40
4.0
 40
4.0
 40
4.0
 40
4.0
 10
133.1780897019485
 20
-151.1156683649988
 30
0.0
 10
133.1780897019485
 20
-151.1749240073451
 30
0.0
 10
133.2245984909994
 20
-151.221432796396
 30
0.0
 10
133.2838541333457
 20
-151.221432796396
 30
0.0
 10
133.343109775692
 20
-151.221432796396
 30
0.0
 10
133.391685622034
 20
-151.1749240073451
 30
0.0
 10
133.391685622034
 20
-151.1156683649988
 30
0.0
 10
133.391685622034
 20
-151.0564127226525
 30
0.0
 10
133.343109775692
 20
-151.0078368763105
 30
0.0
 10
133.2838541333457
 20
-151.0078368763105
 30
0.0
 10
133.2245984909994
 20
-151.0078368763105
 30
0.0
 10
133.1780897019485
 20
-151.0564127226525
 30
0.0
 10
133.1780897019485
 20
-151.1156683649988
 30
0.0
  0
SPLINE
  5
15F
330
14A
100
AcDbEntity
  8
レイヤー 1
100
AcDbSpline
210
0.0
220
0.0
230
1.0
 70
     9
 71
     3
 72
    17
 73
    13
 74
     0
 42
0.0000000001
 43
0.0000000001
 40
0.0
 40
0.0
 40
0.0
 40
0.0
 40
1.0
 40
1.0
 40
1.0
 40
2.0
 40
2.0
 40
2.0
 40
3.0
 40
3.0
 40
3.0
 40
4.0
 40
4.0
 40
4.0
 40
4.0
 10
133.4933159388489
 20
-151.1156683649988
 30
0.0
 10
133.4933159388489
 20
-151.2300455351091
 30
0.0
 10
133.4002983607471
 20
-151.325130170502
 30
0.0
 10
133.2838541333457
 20
-151.325130170502
 30
0.0
 10
133.1694769632354
 20
-151.325130170502
 30
0.0
 10
133.0743923278425
 20
-151.2300455351091
 30
0.0
 10
133.0743923278425
 20
-151.1156683649988
 30
0.0
 10
133.0743923278425
 20
-150.9992241375974
 30
0.0
 10
133.1694769632354
 20
-150.9062065594956
 30
0.0
 10
133.2838541333457
 20
-150.9062065594956
 30
0.0
 10
133.398231303456
 20
-150.9062065594956
 30
0.0
 10
133.4933159388489
 20
-150.9992241375974
 30
0.0
 10
133.4933159388489
 20
-151.1156683649988
 30
0.0
  0
HATCH
  5
160
330
14A
100
AcDbEntity
  8
レイヤー 1
 62
    18
420
        0
440
 33554687
100
AcDbHatch
 10
0.0
 20
0.0
 30
0.0
210
0.0
220
0.0
230
1.0
  2
SOLID
 70
     1
 71
     1
 91
        2
 92
        1
 93
        1
 72
     4
 94
        3
 73
     0
 74
     0
 95
       17
 96
       13
 40
0.0
 40
0.0
 40
0.0
 40
0.0
 40
1.0
 40
1.0
 40
1.0
 40
2.0
 40
2.0
 40
2.0
 40
3.0
 40
3.0
 40
3.0
 40
4.0
 40
4.0
 40
4.0
 40
4.0
 10
133.1780897019485
 20
-151.1156683649988
 10
133.1780897019485
 20
-151.1749240073451
 10
133.2245984909994
 20
-151.221432796396
 10
133.2838541333457
 20
-151.221432796396
 10
133.343109775692
 20
-151.221432796396
 10
133.391685622034
 20
-151.1749240073451
 10
133.391685622034
 20
-151.1156683649988
 10
133.391685622034
 20
-151.0564127226525
 10
133.343109775692
 20
-151.0078368763105
 10
133.2838541333457
 20
-151.0078368763105
 10
133.2245984909994
 20
-151.0078368763105
 10
133.1780897019485
 20
-151.0564127226525
 10
133.1780897019485
 20
-151.1156683649988
 97
        0
 97
        1
330
15E
 92
        1
 93
        1
 72
     4
 94
        3
 73
     0
 74
     0
 95
       17
 96
       13
 40
0.0
 40
0.0
 40
0.0
 40
0.0
 40
1.0
 40
1.0
 40
1.0
 40
2.0
 40
2.0
 40
2.0
 40
3.0
 40
3.0
 40
3.0
 40
4.0
 40
4.0
 40
4.0
 40
4.0
 10
133.4933159388489
 20
-151.1156683649988
 10
133.4933159388489
 20
-151.2300455351091
 10
133.4002983607471
 20
-151.325130170502
 10
133.2838541333457
 20
-151.325130170502
 10
133.1694769632354
 20
-151.325130170502
 10
133.0743923278425
 20
-151.2300455351091
 10
133.0743923278425
 20
-151.1156683649988
 10
133.0743923278425
 20
-150.9992241375974
 10
133.1694769632354
 20
-150.9062065594956
 10
133.2838541333457
 20
-150.9062065594956
 10
133.398231303456
 20
-150.9062065594956
 10
133.4933159388489
 20
-150.9992241375974
 10
133.4933159388489
 20
-151.1156683649988
 97
        0
 97
        1
330
15F
 75
     2
 76
     1
 98
        1
 10
0.0
 20
0.0
450
        0
451
        0
460
0.0
461
0.0
452
        0
462
0.0
453
        0
470

  0
ENDBLK
  5
14D
330
14A
100
AcDbEntity
  8
0
100
AcDbBlockEnd
  0
ENDSEC
  0
SECTION
  2
ENTITIES
  0
LINE
  5
79
330
70
100
AcDbEntity
  8
レイヤー 1
 62
   250
420
  2299925
370
    25
100
AcDbLine
 10
106.2484237203696
 20
-152.7015947818241
 30
0.0
 11
99.748916663964
 21
-152.7015947818241
 31
0.0
  0
LINE
  5
7A
330
70
100
AcDbEntity
  8
レイヤー 1
 62
   250
420
  2299925
370
    25
100
AcDbLine
 10
80.4985770904493
 20
-147.192370060979
 30
0.0
 11
80.4985770904493
 21
-147.6925736719652
 31
0.0
  0
LINE
  5
7B
330
70
100
AcDbEntity
  8
レイヤー 1
 62
   250
420
  2299925
370
    25
100
AcDbLine
 10
100.5895155314074
 20
-147.6925736719652
 30
0.0
 11
80.4985770904493
 21
-147.6925736719652
 31
0.0
  0
LINE
  5
7C
330
70
100
AcDbEntity
  8
レイヤー 1
 62
   250
420
  2299925
370
    25
100
AcDbLine
 10
105.3657737428882
 20
-151.7508939487282
 30
0.0
 11
100.6315313636688
 21
-151.7508939487282
 31
0.0
  0
LINE
  5
7D
330
70
100
AcDbEntity
  8
レイヤー 1
 62
   250
420
  2299925
370
    25
100
AcDbLine
 10
99.748916663964
 20
-152.6922814484928
 30
0.0
 11
100.5895155314074
 21
-147.6925736719652
 31
0.0
  0
LINE
  5
7E
330
70
100
AcDbEntity
  8
レイヤー 1
 62
   250
420
  2299925
370
    25
100
AcDbLine
 10
100.6315313636688
 20
-151.6923328376314
 30
0.0
 11
101.4997174526307
 21
-146.4302995056145
 31
0.0
  0
LINE
  5
7F
330
70
100
AcDbEntity
  8
レイヤー 1
 62
   250
420
  2299925
370
    25
100
AcDbLine
 10
80.4985770904493
 20
-147.192370060979
 30
0.0
 11
81.01257431254314
 21
-147.574428394217
 31
0.0
  0
LINE
  5
80
330
70
100
AcDbEntity
  8
レイヤー 1
 62
   250
420
  2299925
370
    25
100
AcDbLine
 10
81.01257431254314
 20
-147.574428394217
 30
0.0
 11
81.49764375686633
 21
-147.1568806165435
 31
0.0
  0
LINE
  5
81
330
70
100
AcDbEntity
  8
レイヤー 1
 62
   250
420
  2299925
370
    25
100
AcDbLine
 10
82.01167378314542
 20
-147.5389389497815
 30
0.0
 11
82.49741597883822
 21
-147.1210383943303
 31
0.0
  0
LINE
  5
82
330
70
100
AcDbEntity
  8
レイヤー 1
 62
   250
420
  2299925
370
    25
100
AcDbLine
 10
81.49764375686633
 20
-147.1568806165435
 30
0.0
 11
82.01167378314542
 21
-147.5389389497815
 31
0.0
  0
LINE
  5
83
330
70
100
AcDbEntity
  8
レイヤー 1
 62
   250
420
  2299925
370
    25
100
AcDbLine
 10
82.49741597883822
 20
-147.1210383943303
 30
0.0
 11
83.01141320093238
 21
-147.5030967275676
 31
0.0
  0
LINE
  5
84
330
70
100
AcDbEntity
  8
レイヤー 1
 62
   250
420
  2299925
370
    25
100
AcDbLine
 10
83.01141320093238
 20
-147.5030967275676
 30
0.0
 11
83.49648264525555
 21
-147.0855489498948
 31
0.0
  0
LINE
  5
85
330
70
100
AcDbEntity
  8
レイヤー 1
 62
   250
420
  2299925
370
    25
100
AcDbLine
 10
83.49648264525555
 20
-147.0855489498948
 30
0.0
 11
84.01051262103937
 21
-147.4672897831325
 31
0.0
  0
LINE
  5
86
330
70
100
AcDbEntity
  8
レイヤー 1
 62
   250
420
  2299925
370
    25
100
AcDbLine
 10
84.01051262103937
 20
-147.4672897831325
 30
0.0
 11
84.49593483087776
 21
-147.049742005459
 31
0.0
  0
LINE
  5
87
330
70
100
AcDbEntity
  8
レイヤー 1
 62
   250
420
  2299925
370
    25
100
AcDbLine
 10
84.49593483087776
 20
-147.049742005459
 30
0.0
 11
85.0099320399868
 21
-147.4314475609193
 31
0.0
  0
LINE
  5
88
330
70
100
AcDbEntity
  8
レイヤー 1
 62
   250
420
  2299925
370
    25
100
AcDbLine
 10
85.0099320399868
 20
-147.4314475609193
 30
0.0
 11
85.49535424982488
 21
-147.0138997832458
 31
0.0
  0
LINE
  5
89
330
70
100
AcDbEntity
  8
レイヤー 1
 62
   250
420
  2299925
370
    25
100
AcDbLine
 10
85.49535424982488
 20
-147.0138997832458
 30
0.0
 11
86.00935145893394
 21
-147.3959581164838
 31
0.0
  0
LINE
  5
8A
330
70
100
AcDbEntity
  8
レイヤー 1
 62
   250
420
  2299925
370
    25
100
AcDbLine
 10
86.00935145893394
 20
-147.3959581164838
 30
0.0
 11
86.49477366877201
 21
-146.9784103388103
 31
0.0
  0
LINE
  5
8B
330
70
100
AcDbEntity
  8
レイヤー 1
 62
   250
420
  2299925
370
    25
100
AcDbLine
 10
86.49477366877201
 20
-146.9784103388103
 30
0.0
 11
87.0084181001123
 21
-147.3604686720483
 31
0.0
  0
LINE
  5
8C
330
70
100
AcDbEntity
  8
レイヤー 1
 62
   250
420
  2299925
370
    25
100
AcDbLine
 10
87.0084181001123
 20
-147.3604686720483
 30
0.0
 11
87.49419308771914
 21
-146.942568116597
 31
0.0
  0
LINE
  5
8D
330
70
100
AcDbEntity
  8
レイヤー 1
 62
   250
420
  2299925
370
    25
100
AcDbLine
 10
88.00819029682854
 20
-147.3246617276126
 30
0.0
 11
88.49325972889749
 21
-146.9071139499391
 31
0.0
  0
LINE
  5
8E
330
70
100
AcDbEntity
  8
レイヤー 1
 62
   250
420
  2299925
370
    25
100
AcDbLine
 10
87.49419308771914
 20
-146.942568116597
 30
0.0
 11
88.00819029682854
 21
-147.3246617276126
 31
0.0
  0
LINE
  5
8F
330
70
100
AcDbEntity
  8
レイヤー 1
 62
   250
420
  2299925
370
    25
100
AcDbLine
 10
88.49325972889749
 20
-146.9071139499391
 30
0.0
 11
89.00725693800657
 21
-147.2888195053993
 31
0.0
  0
LINE
  5
90
330
70
100
AcDbEntity
  8
レイヤー 1
 62
   250
420
  2299925
370
    25
100
AcDbLine
 10
89.00725693800657
 20
-147.2888195053993
 30
0.0
 11
89.49303192561341
 21
-146.8712717277265
 31
0.0
  0
LINE
  5
91
330
70
100
AcDbEntity
  8
レイヤー 1
 62
   250
420
  2299925
370
    25
100
AcDbLine
 10
90.00653524584619
 20
-147.2529772831861
 30
0.0
 11
90.49192217790738
 21
-146.8354295055126
 31
0.0
  0
LINE
  5
92
330
70
100
AcDbEntity
  8
レイヤー 1
 62
   250
420
  2299925
370
    25
100
AcDbLine
 10
89.49303192561341
 20
-146.8712717277265
 30
0.0
 11
90.00653524584619
 21
-147.2529772831861
 31
0.0
  0
LINE
  5
93
330
70
100
AcDbEntity
  8
レイヤー 1
 62
   250
420
  2299925
370
    25
100
AcDbLine
 10
91.00595466479331
 20
-147.2174878387506
 30
0.0
 11
91.49134159685482
 21
-146.7999753388546
 31
0.0
  0
LINE
  5
94
330
70
100
AcDbEntity
  8
レイヤー 1
 62
   250
420
  2299925
370
    25
100
AcDbLine
 10
90.49192217790738
 20
-146.8354295055126
 30
0.0
 11
91.00595466479331
 21
-147.2174878387506
 31
0.0
  0
LINE
  5
95
330
70
100
AcDbEntity
  8
レイヤー 1
 62
   250
420
  2299925
370
    25
100
AcDbLine
 10
91.49134159685482
 20
-146.7999753388546
 30
0.0
 11
92.00537408374044
 21
-147.1820336720926
 31
0.0
  0
LINE
  5
96
330
70
100
AcDbEntity
  8
レイヤー 1
 62
   250
420
  2299925
370
    25
100
AcDbLine
 10
92.00537408374044
 20
-147.1820336720926
 30
0.0
 11
92.49076101580163
 21
-146.764133116642
 31
0.0
  0
LINE
  5
97
330
70
100
AcDbEntity
  8
レイヤー 1
 62
   250
420
  2299925
370
    25
100
AcDbLine
 10
92.49076101580163
 20
-146.764133116642
 30
0.0
 11
93.00408794715002
 21
-147.1461914498794
 31
0.0
  0
LINE
  5
98
330
70
100
AcDbEntity
  8
レイヤー 1
 62
   250
420
  2299925
370
    25
100
AcDbLine
 10
93.00408794715002
 20
-147.1461914498794
 30
0.0
 11
93.48986293475688
 21
-146.7286436722059
 31
0.0
  0
LINE
  5
99
330
70
100
AcDbEntity
  8
レイヤー 1
 62
   250
420
  2299925
370
    25
100
AcDbLine
 10
93.48986293475688
 20
-146.7286436722059
 30
0.0
 11
94.00456569940349
 21
-147.1103492276661
 31
0.0
  0
LINE
  5
9A
330
70
100
AcDbEntity
  8
レイヤー 1
 62
   250
420
  2299925
370
    25
100
AcDbLine
 10
94.00456569940349
 20
-147.1103492276661
 30
0.0
 11
94.48963513147276
 21
-146.6928014499933
 31
0.0
  0
LINE
  5
9B
330
70
100
AcDbEntity
  8
レイヤー 1
 62
   250
420
  2299925
370
    25
100
AcDbLine
 10
94.48963513147276
 20
-146.6928014499933
 30
0.0
 11
95.00363234058182
 21
-147.074542283231
 31
0.0
  0
LINE
  5
9C
330
70
100
AcDbEntity
  8
レイヤー 1
 62
   250
420
  2299925
370
    25
100
AcDbLine
 10
95.00363234058182
 20
-147.074542283231
 30
0.0
 11
95.4893720504118
 21
-146.6569945055575
 31
0.0
  0
LINE
  5
9D
330
70
100
AcDbEntity
  8
レイヤー 1
 62
   250
420
  2299925
370
    25
100
AcDbLine
 10
95.4893720504118
 20
-146.6569945055575
 30
0.0
 11
96.00269898176019
 21
-147.0390528387949
 31
0.0
  0
LINE
  5
9E
330
70
100
AcDbEntity
  8
レイヤー 1
 62
   250
420
  2299925
370
    25
100
AcDbLine
 10
96.00269898176019
 20
-147.0390528387949
 30
0.0
 11
96.48847396936703
 21
-146.6215050611214
 31
0.0
  0
LINE
  5
9F
330
70
100
AcDbEntity
  8
レイヤー 1
 62
   250
420
  2299925
370
    25
100
AcDbLine
 10
96.48847396936703
 20
-146.6215050611214
 30
0.0
 11
97.00247117847609
 21
-147.0035633943601
 31
0.0
  0
LINE
  5
A0
330
70
100
AcDbEntity
  8
レイヤー 1
 62
   250
420
  2299925
370
    25
100
AcDbLine
 10
97.00247117847609
 20
-147.0035633943601
 30
0.0
 11
97.4875406105454
 21
-146.5856628389088
 31
0.0
  0
LINE
  5
A1
330
70
100
AcDbEntity
  8
レイヤー 1
 62
   250
420
  2299925
370
    25
100
AcDbLine
 10
97.4875406105454
 20
-146.5856628389088
 30
0.0
 11
98.00153781965445
 21
-146.9677211721462
 31
0.0
  0
LINE
  5
A2
330
70
100
AcDbEntity
  8
レイヤー 1
 62
   250
420
  2299925
370
    25
100
AcDbLine
 10
98.00153781965445
 20
-146.9677211721462
 30
0.0
 11
98.48731280726129
 21
-146.5501733944727
 31
0.0
  0
LINE
  5
A3
330
70
100
AcDbEntity
  8
レイヤー 1
 62
   250
420
  2299925
370
    25
100
AcDbLine
 10
98.48731280726129
 20
-146.5501733944727
 30
0.0
 11
99.00131001637035
 21
-146.9319142277105
 31
0.0
  0
LINE
  5
A4
330
70
100
AcDbEntity
  8
レイヤー 1
 62
   250
420
  2299925
370
    25
100
AcDbLine
 10
99.00131001637035
 20
-146.9319142277105
 30
0.0
 11
99.48637944843932
 21
-146.5143664500376
 31
0.0
  0
LINE
  5
A5
330
70
100
AcDbEntity
  8
レイヤー 1
 62
   250
420
  2299925
370
    25
100
AcDbLine
 10
99.48637944843932
 20
-146.5143664500376
 30
0.0
 11
100.0004119353256
 21
-146.8960720054979
 31
0.0
  0
LINE
  5
A6
330
70
100
AcDbEntity
  8
レイヤー 1
 62
   250
420
  2299925
370
    25
100
AcDbLine
 10
100.0004119353256
 20
-146.8960720054979
 30
0.0
 11
100.4861516451559
 21
-146.4785242278244
 31
0.0
  0
LINE
  5
A7
330
70
100
AcDbEntity
  8
レイヤー 1
 62
   250
420
  2299925
370
    25
100
AcDbLine
 10
100.4861516451559
 20
-146.4785242278244
 30
0.0
 11
101.4997174526307
 21
-146.4302995056145
 31
0.0
  0
LINE
  5
A8
330
70
100
AcDbEntity
  8
レイヤー 1
 62
   250
420
  2299925
370
    25
100
AcDbLine
 10
115.5047159705865
 20
-146.8354295055126
 30
0.0
 11
114.9906801640028
 21
-147.2174878387506
 31
0.0
  0
LINE
  5
A9
330
70
100
AcDbEntity
  8
レイヤー 1
 62
   250
420
  2299925
370
    25
100
AcDbLine
 10
120.501460413782
 20
-147.0138997832458
 30
0.0
 11
119.9874631916888
 21
-147.3959581164838
 31
0.0
  0
LINE
  5
AA
330
70
100
AcDbEntity
  8
レイヤー 1
 62
   250
420
  2299925
370
    25
100
AcDbLine
 10
115.9904523607186
 20
-147.2529772831861
 30
0.0
 11
115.5047159705865
 21
-146.8354295055126
 31
0.0
  0
LINE
  5
AB
330
70
100
AcDbEntity
  8
レイヤー 1
 62
   250
420
  2299925
370
    25
100
AcDbLine
 10
116.9895576368816
 20
-147.2888195053993
 30
0.0
 11
116.5044881925584
 21
-146.8712717277265
 31
0.0
  0
LINE
  5
AC
330
70
100
AcDbEntity
  8
レイヤー 1
 62
   250
420
  2299925
370
    25
100
AcDbLine
 10
114.9906801640028
 20
-147.2174878387506
 30
0.0
 11
114.5056107319335
 21
-146.7999753388546
 31
0.0
  0
LINE
  5
AD
330
70
100
AcDbEntity
  8
レイヤー 1
 62
   250
420
  2299925
370
    25
100
AcDbLine
 10
116.5044881925584
 20
-146.8712717277265
 30
0.0
 11
115.9904523607186
 21
-147.2529772831861
 31
0.0
  0
LINE
  5
AE
330
70
100
AcDbEntity
  8
レイヤー 1
 62
   250
420
  2299925
370
    25
100
AcDbLine
 10
124.499169921421
 20
-147.1568806165435
 30
0.0
 11
123.9851409684666
 21
-147.5389389497815
 31
0.0
  0
LINE
  5
AF
330
70
100
AcDbEntity
  8
レイヤー 1
 62
   250
420
  2299925
370
    25
100
AcDbLine
 10
117.503554858976
 20
-146.9071139499391
 30
0.0
 11
116.9895576368816
 21
-147.2888195053993
 31
0.0
  0
LINE
  5
B0
330
70
100
AcDbEntity
  8
レイヤー 1
 62
   250
420
  2299925
370
    25
100
AcDbLine
 10
118.5033270809479
 20
-146.942568116597
 30
0.0
 11
117.9892911986129
 21
-147.3246617276126
 31
0.0
  0
LINE
  5
B1
330
70
100
AcDbEntity
  8
レイヤー 1
 62
   250
420
  2299925
370
    25
100
AcDbLine
 10
117.9892911986129
 20
-147.3246617276126
 30
0.0
 11
117.503554858976
 21
-146.9071139499391
 31
0.0
  0
LINE
  5
B2
330
70
100
AcDbEntity
  8
レイヤー 1
 62
   250
420
  2299925
370
    25
100
AcDbLine
 10
118.9883965252711
 20
-147.3604686720483
 30
0.0
 11
118.5033270809479
 21
-146.942568116597
 31
0.0
  0
LINE
  5
B3
330
70
100
AcDbEntity
  8
レイヤー 1
 62
   250
420
  2299925
370
    25
100
AcDbLine
 10
123.9851409684666
 20
-147.5389389497815
 30
0.0
 11
123.5000715241434
 21
-147.1210383943303
 31
0.0
  0
LINE
  5
B4
330
70
100
AcDbEntity
  8
レイヤー 1
 62
   250
420
  2299925
370
    25
100
AcDbLine
 10
119.5023937473656
 20
-146.9784103388103
 30
0.0
 11
118.9883965252711
 21
-147.3604686720483
 31
0.0
  0
LINE
  5
B5
330
70
100
AcDbEntity
  8
レイヤー 1
 62
   250
420
  2299925
370
    25
100
AcDbLine
 10
119.9874631916888
 20
-147.3959581164838
 30
0.0
 11
119.5023937473656
 21
-146.9784103388103
 31
0.0
  0
LINE
  5
B6
330
70
100
AcDbEntity
  8
レイヤー 1
 62
   250
420
  2299925
370
    25
100
AcDbLine
 10
124.9842393534903
 20
-147.574428394217
 30
0.0
 11
124.499169921421
 21
-147.1568806165435
 31
0.0
  0
LINE
  5
B7
330
70
100
AcDbEntity
  8
レイヤー 1
 62
   250
420
  2299925
370
    25
100
AcDbLine
 10
121.5012326357539
 20
-147.049742005459
 30
0.0
 11
120.9872354136607
 21
-147.4314475609193
 31
0.0
  0
LINE
  5
B8
330
70
100
AcDbEntity
  8
レイヤー 1
 62
   250
420
  2299925
370
    25
100
AcDbLine
 10
122.5003310835267
 20
-147.0855489498948
 30
0.0
 11
121.9863020800771
 21
-147.4672897831325
 31
0.0
  0
LINE
  5
B9
330
70
100
AcDbEntity
  8
レイヤー 1
 62
   250
420
  2299925
370
    25
100
AcDbLine
 10
121.9863020800771
 20
-147.4672897831325
 30
0.0
 11
121.5012326357539
 21
-147.049742005459
 31
0.0
  0
LINE
  5
BA
330
70
100
AcDbEntity
  8
レイヤー 1
 62
   250
420
  2299925
370
    25
100
AcDbLine
 10
125.4982372003429
 20
-147.192370060979
 30
0.0
 11
124.9842399912339
 21
-147.574428394217
 31
0.0
  0
LINE
  5
BB
330
70
100
AcDbEntity
  8
レイヤー 1
 62
   250
420
  2299925
370
    25
100
AcDbLine
 10
120.9872354136607
 20
-147.4314475609193
 30
0.0
 11
120.501460413782
 21
-147.0138997832458
 31
0.0
  0
LINE
  5
BC
330
70
100
AcDbEntity
  8
レイヤー 1
 62
   250
420
  2299925
370
    25
100
AcDbLine
 10
105.3657737428882
 20
-151.6923328376314
 30
0.0
 11
104.4969526539426
 21
-146.4302995056145
 31
0.0
  0
LINE
  5
BD
330
70
100
AcDbEntity
  8
レイヤー 1
 62
   250
420
  2299925
370
    25
100
AcDbLine
 10
123.5000715241434
 20
-147.1210383943303
 30
0.0
 11
122.9860743020502
 21
-147.5030967275676
 31
0.0
  0
LINE
  5
BE
330
70
100
AcDbEntity
  8
レイヤー 1
 62
   250
420
  2299925
370
    25
100
AcDbLine
 10
122.9860743020502
 20
-147.5030967275676
 30
0.0
 11
122.5003310835267
 21
-147.0855489498948
 31
0.0
  0
LINE
  5
BF
330
70
100
AcDbEntity
  8
レイヤー 1
 62
   250
420
  2299925
370
    25
100
AcDbLine
 10
106.2484237203696
 20
-152.6922814484928
 30
0.0
 11
105.4078248529265
 21
-147.6925736719652
 31
0.0
  0
LINE
  5
C0
330
70
100
AcDbEntity
  8
レイヤー 1
 62
   250
420
  2299925
370
    25
100
AcDbLine
 10
125.4982372003429
 20
-147.192370060979
 30
0.0
 11
125.4982372003429
 21
-147.6925736719652
 31
0.0
  0
LINE
  5
C1
330
70
100
AcDbEntity
  8
レイヤー 1
 62
   250
420
  2299925
370
    25
100
AcDbLine
 10
105.4078248529265
 20
-147.6925736719652
 30
0.0
 11
125.4982365625993
 21
-147.6925736719652
 31
0.0
  0
LINE
  5
C2
330
70
100
AcDbEntity
  8
レイヤー 1
 62
   250
420
  2299925
370
    25
100
AcDbLine
 10
114.5056107319335
 20
-146.7999753388546
 30
0.0
 11
113.9916135228244
 21
-147.1820336720926
 31
0.0
  0
LINE
  5
C3
330
70
100
AcDbEntity
  8
レイヤー 1
 62
   250
420
  2299925
370
    25
100
AcDbLine
 10
113.9916135228244
 20
-147.1820336720926
 30
0.0
 11
113.5058770821969
 21
-146.764133116642
 31
0.0
  0
LINE
  5
C4
330
70
100
AcDbEntity
  8
レイヤー 1
 62
   250
420
  2299925
370
    25
100
AcDbLine
 10
113.5058770821969
 20
-146.764133116642
 30
0.0
 11
112.992546881646
 21
-147.1461914498794
 31
0.0
  0
LINE
  5
C5
330
70
100
AcDbEntity
  8
レイヤー 1
 62
   250
420
  2299925
370
    25
100
AcDbLine
 10
112.992546881646
 20
-147.1461914498794
 30
0.0
 11
112.5067718940392
 21
-146.7286436722059
 31
0.0
  0
LINE
  5
C6
330
70
100
AcDbEntity
  8
レイヤー 1
 62
   250
420
  2299925
370
    25
100
AcDbLine
 10
112.5067718940392
 20
-146.7286436722059
 30
0.0
 11
111.9927746849301
 21
-147.1103492276661
 31
0.0
  0
LINE
  5
C7
330
70
100
AcDbEntity
  8
レイヤー 1
 62
   250
420
  2299925
370
    25
100
AcDbLine
 10
111.9927746849301
 20
-147.1103492276661
 30
0.0
 11
111.5077052528608
 21
-146.6928014499933
 31
0.0
  0
LINE
  5
C8
330
70
100
AcDbEntity
  8
レイヤー 1
 62
   250
420
  2299925
370
    25
100
AcDbLine
 10
111.5077052528608
 20
-146.6928014499933
 30
0.0
 11
110.9937080437518
 21
-147.074542283231
 31
0.0
  0
LINE
  5
C9
330
70
100
AcDbEntity
  8
レイヤー 1
 62
   250
420
  2299925
370
    25
100
AcDbLine
 10
110.9937080437518
 20
-147.074542283231
 30
0.0
 11
110.5079330561449
 21
-146.6569945055575
 31
0.0
  0
LINE
  5
CA
330
70
100
AcDbEntity
  8
レイヤー 1
 62
   250
420
  2299925
370
    25
100
AcDbLine
 10
110.5079330561449
 20
-146.6569945055575
 30
0.0
 11
109.9939358470359
 21
-147.0390528387949
 31
0.0
  0
LINE
  5
CB
330
70
100
AcDbEntity
  8
レイヤー 1
 62
   250
420
  2299925
370
    25
100
AcDbLine
 10
109.9939358470359
 20
-147.0390528387949
 30
0.0
 11
109.5088664149666
 21
-146.6215050611214
 31
0.0
  0
LINE
  5
CC
330
70
100
AcDbEntity
  8
レイヤー 1
 62
   250
420
  2299925
370
    25
100
AcDbLine
 10
109.5088664149666
 20
-146.6215050611214
 30
0.0
 11
108.9948692058575
 21
-147.0035633943601
 31
0.0
  0
LINE
  5
CD
330
70
100
AcDbEntity
  8
レイヤー 1
 62
   250
420
  2299925
370
    25
100
AcDbLine
 10
108.9948692058575
 20
-147.0035633943601
 30
0.0
 11
108.5090942182507
 21
-146.5856628389088
 31
0.0
  0
LINE
  5
CE
330
70
100
AcDbEntity
  8
レイヤー 1
 62
   250
420
  2299925
370
    25
100
AcDbLine
 10
108.5090942182507
 20
-146.5856628389088
 30
0.0
 11
107.9950970091416
 21
-146.9677211721462
 31
0.0
  0
LINE
  5
CF
330
70
100
AcDbEntity
  8
レイヤー 1
 62
   250
420
  2299925
370
    25
100
AcDbLine
 10
107.9950970091416
 20
-146.9677211721462
 30
0.0
 11
107.5100275770723
 21
-146.5501733944727
 31
0.0
  0
LINE
  5
D0
330
70
100
AcDbEntity
  8
レイヤー 1
 62
   250
420
  2299925
370
    25
100
AcDbLine
 10
107.5100275770723
 20
-146.5501733944727
 30
0.0
 11
106.9959950901864
 21
-146.9319142277105
 31
0.0
  0
LINE
  5
D1
330
70
100
AcDbEntity
  8
レイヤー 1
 62
   250
420
  2299925
370
    25
100
AcDbLine
 10
106.9959950901864
 20
-146.9319142277105
 30
0.0
 11
106.5109256581171
 21
-146.5143664500376
 31
0.0
  0
LINE
  5
D2
330
70
100
AcDbEntity
  8
レイヤー 1
 62
   250
420
  2299925
370
    25
100
AcDbLine
 10
106.5109256581171
 20
-146.5143664500376
 30
0.0
 11
105.996928449008
 21
-146.8960720054979
 31
0.0
  0
LINE
  5
D3
330
70
100
AcDbEntity
  8
レイヤー 1
 62
   250
420
  2299925
370
    25
100
AcDbLine
 10
105.996928449008
 20
-146.8960720054979
 30
0.0
 11
105.5111887391781
 21
-146.4785242278244
 31
0.0
  0
LINE
  5
D4
330
70
100
AcDbEntity
  8
レイヤー 1
 62
   250
420
  2299925
370
    25
100
AcDbLine
 10
105.5111887391781
 20
-146.4785242278244
 30
0.0
 11
104.4969526539426
 21
-146.4302995056145
 31
0.0
  0
SPLINE
  5
D5
330
70
100
AcDbEntity
  8
レイヤー 1
 62
   250
420
  2299925
370
     9
100
AcDbSpline
210
0.0
220
0.0
230
1.0
 70
     9
 71
     3
 72
    17
 73
    13
 74
     0
 42
0.0000000001
 43
0.0000000001
 40
0.0
 40
0.0
 40
0.0
 40
0.0
 40
1.0
 40
1.0
 40
1.0
 40
2.0
 40
2.0
 40
2.0
 40
3.0
 40
3.0
 40
3.0
 40
4.0
 40
4.0
 40
4.0
 40
4.0
 10
80.59848131919897
 20
-142.4303639510587
 30
0.0
 10
80.59848131919897
 20
-142.3750836732949
 30
0.0
 10
80.55367854256452
 20
-142.3302808955282
 30
0.0
 10
80.4985770904493
 20
-142.3302808955282
 30
0.0
 10
80.44343548982118
 20
-142.3302808955282
 30
0.0
 10
80.39866799096328
 20
-142.3750836732949
 30
0.0
 10
80.39866799096328
 20
-142.4303639510587
 30
0.0
 10
80.39866799096328
 20
-142.4856795066
 30
0.0
 10
80.44343548982118
 20
-142.5302706176997
 30
0.0
 10
80.4985770904493
 20
-142.5302706176997
 30
0.0
 10
80.55367854256452
 20
-142.5302706176997
 30
0.0
 10
80.59848131919897
 20
-142.4856795066
 30
0.0
 10
80.59848131919897
 20
-142.4303639510587
 30
0.0
  0
SPLINE
  5
D6
330
70
100
AcDbEntity
  8
レイヤー 1
 62
   250
420
  2299925
370
     9
100
AcDbSpline
210
0.0
220
0.0
230
1.0
 70
     9
 71
     3
 72
    17
 73
    13
 74
     0
 42
0.0000000001
 43
0.0000000001
 40
0.0
 40
0.0
 40
0.0
 40
0.0
 40
1.0
 40
1.0
 40
1.0
 40
2.0
 40
2.0
 40
2.0
 40
3.0
 40
3.0
 40
3.0
 40
4.0
 40
4.0
 40
4.0
 40
4.0
 10
76.59872225457466
 20
-147.192370060979
 30
0.0
 10
76.59872225457466
 20
-147.1372308943266
 30
0.0
 10
76.55395475571677
 20
-147.0924633943373
 30
0.0
 10
76.49846281268804
 20
-147.0924633943373
 30
0.0
 10
76.44335892520496
 20
-147.0924633943373
 30
0.0
 10
76.39855614857021
 20
-147.1372308943266
 30
0.0
 10
76.39855614857021
 20
-147.192370060979
 30
0.0
 10
76.39855614857021
 20
-147.2474739498546
 30
0.0
 10
76.44335892520496
 20
-147.2922767276206
 30
0.0
 10
76.49846281268804
 20
-147.2922767276206
 30
0.0
 10
76.55395475571677
 20
-147.2922767276206
 30
0.0
 10
76.59872225457466
 20
-147.2474739498546
 30
0.0
 10
76.59872225457466
 20
-147.192370060979
 30
0.0
  0
SPLINE
  5
D7
330
70
100
AcDbEntity
  8
レイヤー 1
 62
   250
420
  2299925
370
     9
100
AcDbSpline
210
0.0
220
0.0
230
1.0
 70
     9
 71
     3
 72
    17
 73
    13
 74
     0
 42
0.0000000001
 43
0.0000000001
 40
0.0
 40
0.0
 40
0.0
 40
0.0
 40
1.0
 40
1.0
 40
1.0
 40
2.0
 40
2.0
 40
2.0
 40
3.0
 40
3.0
 40
3.0
 40
4.0
 40
4.0
 40
4.0
 40
4.0
 10
76.59872225457466
 20
-147.6925736719652
 30
0.0
 10
76.59872225457466
 20
-147.6374697830896
 30
0.0
 10
76.55395475571677
 20
-147.5926670053235
 30
0.0
 10
76.49846281268804
 20
-147.5926670053235
 30
0.0
 10
76.44335892520496
 20
-147.5926670053235
 30
0.0
 10
76.39855614857021
 20
-147.6374697830896
 30
0.0
 10
76.39855614857021
 20
-147.6925736719652
 30
0.0
 10
76.39855614857021
 20
-147.7477128386176
 30
0.0
 10
76.44335892520496
 20
-147.7924803386068
 30
0.0
 10
76.49846281268804
 20
-147.7924803386068
 30
0.0
 10
76.55395475571677
 20
-147.7924803386068
 30
0.0
 10
76.59872225457466
 20
-147.7477128386176
 30
0.0
 10
76.59872225457466
 20
-147.6925736719652
 30
0.0
  0
SPLINE
  5
D8
330
70
100
AcDbEntity
  8
レイヤー 1
 62
   250
420
  2299925
370
     9
100
AcDbSpline
210
0.0
220
0.0
230
1.0
 70
     9
 71
     3
 72
    17
 73
    13
 74
     0
 42
0.0000000001
 43
0.0000000001
 40
0.0
 40
0.0
 40
0.0
 40
0.0
 40
1.0
 40
1.0
 40
1.0
 40
2.0
 40
2.0
 40
2.0
 40
3.0
 40
3.0
 40
3.0
 40
4.0
 40
4.0
 40
4.0
 40
4.0
 10
76.59872225457466
 20
-152.7641070040307
 30
0.0
 10
76.59872225457466
 20
-152.7090031151551
 30
0.0
 10
76.55395475571677
 20
-152.6642003373884
 30
0.0
 10
76.49846281268804
 20
-152.6642003373884
 30
0.0
 10
76.44335892520496
 20
-152.6642003373884
 30
0.0
 10
76.39855614857021
 20
-152.7090031151551
 30
0.0
 10
76.39855614857021
 20
-152.7641070040307
 30
0.0
 10
76.39855614857021
 20
-152.8192461706831
 30
0.0
 10
76.44335892520496
 20
-152.8640136706723
 30
0.0
 10
76.49846281268804
 20
-152.8640136706723
 30
0.0
 10
76.55395475571677
 20
-152.8640136706723
 30
0.0
 10
76.59872225457466
 20
-152.8192461706831
 30
0.0
 10
76.59872225457466
 20
-152.7641070040307
 30
0.0
  0
SPLINE
  5
D9
330
70
100
AcDbEntity
  8
レイヤー 1
 62
   250
420
  2299925
370
     9
100
AcDbSpline
210
0.0
220
0.0
230
1.0
 70
     9
 71
     3
 72
    17
 73
    13
 74
     0
 42
0.0000000001
 43
0.0000000001
 40
0.0
 40
0.0
 40
0.0
 40
0.0
 40
1.0
 40
1.0
 40
1.0
 40
2.0
 40
2.0
 40
2.0
 40
3.0
 40
3.0
 40
3.0
 40
4.0
 40
4.0
 40
4.0
 40
4.0
 10
99.88911054927624
 20
-156.737160891926
 30
0.0
 10
99.88911054927624
 20
-156.6820570030511
 30
0.0
 10
99.84434305041835
 20
-156.6372542252844
 30
0.0
 10
99.7892038851584
 20
-156.6372542252844
 30
0.0
 10
99.73339444213777
 20
-156.6372542252844
 30
0.0
 10
99.68862986342955
 20
-156.6820570030511
 30
0.0
 10
99.68862986342955
 20
-156.737160891926
 30
0.0
 10
99.68862986342955
 20
-156.7923000585791
 30
0.0
 10
99.73339444213777
 20
-156.8370675585677
 30
0.0
 10
99.7892038851584
 20
-156.8370675585677
 30
0.0
 10
99.84434305041835
 20
-156.8370675585677
 30
0.0
 10
99.88911054927624
 20
-156.7923000585791
 30
0.0
 10
99.88911054927624
 20
-156.737160891926
 30
0.0
  0
SPLINE
  5
DA
330
70
100
AcDbEntity
  8
レイヤー 1
 62
   250
420
  2299925
370
     9
100
AcDbSpline
210
0.0
220
0.0
230
1.0
 70
     9
 71
     3
 72
    17
 73
    13
 74
     0
 42
0.0000000001
 43
0.0000000001
 40
0.0
 40
0.0
 40
0.0
 40
0.0
 40
1.0
 40
1.0
 40
1.0
 40
2.0
 40
2.0
 40
2.0
 40
3.0
 40
3.0
 40
3.0
 40
4.0
 40
4.0
 40
4.0
 40
4.0
 10
106.3886528834588
 20
-156.737160891926
 30
0.0
 10
106.3886528834588
 20
-156.6820570030511
 30
0.0
 10
106.343850106824
 20
-156.6372542252844
 30
0.0
 10
106.2887493062239
 20
-156.6372542252844
 30
0.0
 10
106.233607054081
 20
-156.6372542252844
 30
0.0
 10
106.1888395552231
 20
-156.6820570030511
 30
0.0
 10
106.1888395552231
 20
-156.737160891926
 30
0.0
 10
106.1888395552231
 20
-156.7923000585791
 30
0.0
 10
106.233607054081
 20
-156.8370675585677
 30
0.0
 10
106.2887493062239
 20
-156.8370675585677
 30
0.0
 10
106.343850106824
 20
-156.8370675585677
 30
0.0
 10
106.3886528834588
 20
-156.7923000585791
 30
0.0
 10
106.3886528834588
 20
-156.737160891926
 30
0.0
  0
SPLINE
  5
DB
330
70
100
AcDbEntity
  8
レイヤー 1
 62
   250
420
  2299925
370
     9
100
AcDbSpline
210
0.0
220
0.0
230
1.0
 70
     9
 71
     3
 72
    17
 73
    13
 74
     0
 42
0.0000000001
 43
0.0000000001
 40
0.0
 40
0.0
 40
0.0
 40
0.0
 40
1.0
 40
1.0
 40
1.0
 40
2.0
 40
2.0
 40
2.0
 40
3.0
 40
3.0
 40
3.0
 40
4.0
 40
4.0
 40
4.0
 40
4.0
 10
125.5959774105578
 20
-142.4303639510587
 30
0.0
 10
125.5959774105578
 20
-142.3750836732949
 30
0.0
 10
125.551174633923
 20
-142.3302808955282
 30
0.0
 10
125.4953651909024
 20
-142.3302808955282
 30
0.0
 10
125.4402613034193
 20
-142.3302808955282
 30
0.0
 10
125.3954585267845
 20
-142.3750836732949
 30
0.0
 10
125.3954585267845
 20
-142.4303639510587
 30
0.0
 10
125.3954585267845
 20
-142.4856795066
 30
0.0
 10
125.4402613034193
 20
-142.5302706176997
 30
0.0
 10
125.4953651909024
 20
-142.5302706176997
 30
0.0
 10
125.551174633923
 20
-142.5302706176997
 30
0.0
 10
125.5959774105578
 20
-142.4856795066
 30
0.0
 10
125.5959774105578
 20
-142.4303639510587
 30
0.0
  0
SPLINE
  5
DC
330
70
100
AcDbEntity
  8
レイヤー 1
 62
   250
420
  2299925
370
     9
100
AcDbSpline
210
0.0
220
0.0
230
1.0
 70
     9
 71
     3
 72
    17
 73
    13
 74
     0
 42
0.0000000001
 43
0.0000000001
 40
0.0
 40
0.0
 40
0.0
 40
0.0
 40
1.0
 40
1.0
 40
1.0
 40
2.0
 40
2.0
 40
2.0
 40
3.0
 40
3.0
 40
3.0
 40
4.0
 40
4.0
 40
4.0
 40
4.0
 10
104.5975326399804
 20
-142.4303639510587
 30
0.0
 10
104.5975326399804
 20
-142.3750836732949
 30
0.0
 10
104.5527620969632
 20
-142.3302808955282
 30
0.0
 10
104.4969526539426
 20
-142.3302808955282
 30
0.0
 10
104.4418134886826
 20
-142.3302808955282
 30
0.0
 10
104.3970107120479
 20
-142.3750836732949
 30
0.0
 10
104.3970107120479
 20
-142.4303639510587
 30
0.0
 10
104.3970107120479
 20
-142.4856795066
 30
0.0
 10
104.4418134886826
 20
-142.5302706176997
 30
0.0
 10
104.4969526539426
 20
-142.5302706176997
 30
0.0
 10
104.5527620969632
 20
-142.5302706176997
 30
0.0
 10
104.5975326399804
 20
-142.4856795066
 30
0.0
 10
104.5975326399804
 20
-142.4303639510587
 30
0.0
  0
SPLINE
  5
DD
330
70
100
AcDbEntity
  8
レイヤー 1
 62
   250
420
  2299925
370
     9
100
AcDbSpline
210
0.0
220
0.0
230
1.0
 70
     9
 71
     3
 72
    17
 73
    13
 74
     0
 42
0.0000000001
 43
0.0000000001
 40
0.0
 40
0.0
 40
0.0
 40
0.0
 40
1.0
 40
1.0
 40
1.0
 40
2.0
 40
2.0
 40
2.0
 40
3.0
 40
3.0
 40
3.0
 40
4.0
 40
4.0
 40
4.0
 40
4.0
 10
101.5996270851738
 20
-142.4303639510587
 30
0.0
 10
101.5996270851738
 20
-142.3750836732949
 30
0.0
 10
101.5548243074077
 20
-142.3302808955282
 30
0.0
 10
101.4997174526307
 20
-142.3302808955282
 30
0.0
 10
101.4445782873707
 20
-142.3302808955282
 30
0.0
 10
101.3998107885128
 20
-142.3750836732949
 30
0.0
 10
101.3998107885128
 20
-142.4303639510587
 30
0.0
 10
101.3998107885128
 20
-142.4856795066
 30
0.0
 10
101.4445782873707
 20
-142.5302706176997
 30
0.0
 10
101.4997174526307
 20
-142.5302706176997
 30
0.0
 10
101.5548243074077
 20
-142.5302706176997
 30
0.0
 10
101.5996270851738
 20
-142.4856795066
 30
0.0
 10
101.5996270851738
 20
-142.4303639510587
 30
0.0
  0
LINE
  5
DE
330
70
100
AcDbEntity
  8
レイヤー 1
 62
   250
420
  2299925
370
     9
100
AcDbLine
 10
101.4997174526307
 20
-142.4303639510587
 30
0.0
 11
104.4969526539426
 21
-142.4303639510587
 31
0.0
  0
LINE
  5
DF
330
70
100
AcDbEntity
  8
レイヤー 1
 62
   250
420
  2299925
370
     9
100
AcDbLine
 10
101.4997174526307
 20
-143.8904053395824
 30
0.0
 11
101.4997174526307
 21
-141.4304153401973
 31
0.0
  0
LINE
  5
E0
330
70
100
AcDbEntity
  8
レイヤー 1
 62
   250
420
  2299925
370
     9
100
AcDbLine
 10
104.4969526539426
 20
-143.8904053395824
 30
0.0
 11
104.4969526539426
 21
-141.4304153401973
 31
0.0
  0
INSERT
  5
E2
330
70
100
AcDbEntity
  8
レイヤー 1
100
AcDbBlockReference
  2
Block_0
 10
0.0
 20
0.0
 30
0.0
  0
INSERT
  5
E8
330
70
100
AcDbEntity
  8
レイヤー 1
100
AcDbBlockReference
  2
Block_1
 10
0.0
 20
0.0
 30
0.0
  0
LINE
  5
ED
330
70
100
AcDbEntity
  8
レイヤー 1
 62
   250
420
  2299925
370
     9
100
AcDbLine
 10
106.2887493062239
 20
-156.737160891926
 30
0.0
 11
99.7892038851584
 21
-156.737160891926
 31
0.0
  0
LINE
  5
EE
330
70
100
AcDbEntity
  8
レイヤー 1
 62
   250
420
  2299925
370
     9
100
AcDbLine
 10
111.0563966532636
 20
-150.0378403380459
 30
0.0
 11
104.5568895968579
 21
-150.0378403380459
 31
0.0
  0
LINE
  5
EF
330
70
100
AcDbEntity
  8
レイヤー 1
 62
   250
420
  2299925
370
     9
100
AcDbLine
 10
106.2887493062239
 20
-155.2771195034023
 30
0.0
 11
106.2887493062239
 21
-157.7369331138986
 31
0.0
  0
LINE
  5
F0
330
70
100
AcDbEntity
  8
レイヤー 1
 62
   250
420
  2299925
370
     9
100
AcDbLine
 10
99.7892038851584
 20
-155.2771195034023
 30
0.0
 11
99.7892038851584
 21
-157.7369331138986
 31
0.0
  0
INSERT
  5
F2
330
70
100
AcDbEntity
  8
レイヤー 1
100
AcDbBlockReference
  2
Block_2
 10
0.0
 20
0.0
 30
0.0
  0
LINE
  5
100
330
70
100
AcDbEntity
  8
レイヤー 1
 62
   250
420
  2299925
370
     9
100
AcDbLine
 10
76.49846281268804
 20
-147.192370060979
 30
0.0
 11
76.49846281268804
 21
-145.3401103392198
 31
0.0
  0
LINE
  5
101
330
70
100
AcDbEntity
  8
レイヤー 1
 62
   250
420
  2299925
370
     9
100
AcDbLine
 10
76.49846281268804
 20
-147.192370060979
 30
0.0
 11
76.49846281268804
 21
-147.6925736719652
 31
0.0
  0
LINE
  5
102
330
70
100
AcDbEntity
  8
レイヤー 1
 62
   250
420
  2299925
370
     9
100
AcDbLine
 10
77.95850416432817
 20
-147.192370060979
 30
0.0
 11
75.49837311598023
 21
-147.192370060979
 31
0.0
  0
LINE
  5
103
330
70
100
AcDbEntity
  8
レイヤー 1
 62
   250
420
  2299925
370
     9
100
AcDbLine
 10
77.95850416432817
 20
-147.6925736719652
 30
0.0
 11
75.49837311598023
 21
-147.6925736719652
 31
0.0
  0
INSERT
  5
105
330
70
100
AcDbEntity
  8
レイヤー 1
100
AcDbBlockReference
  2
Block_4
 10
0.0
 20
0.0
 30
0.0
  0
LINE
  5
113
330
70
100
AcDbEntity
  8
レイヤー 1
 62
   250
420
  2299925
370
     9
100
AcDbLine
 10
80.4985770904493
 20
-142.4303639510587
 30
0.0
 11
101.4997174526307
 21
-142.4303639510587
 31
0.0
  0
LINE
  5
114
330
70
100
AcDbEntity
  8
レイヤー 1
 62
   250
420
  2299925
370
     9
100
AcDbLine
 10
80.4985770904493
 20
-144.6524758949469
 30
0.0
 11
80.4985770904493
 21
-141.4304153401973
 31
0.0
  0
INSERT
  5
116
330
70
100
AcDbEntity
  8
レイヤー 1
100
AcDbBlockReference
  2
Block_6
 10
0.0
 20
0.0
 30
0.0
  0
LINE
  5
121
330
70
100
AcDbEntity
  8
レイヤー 1
 62
   250
420
  2299925
370
     9
100
AcDbLine
 10
104.4969526539426
 20
-142.4303639510587
 30
0.0
 11
125.4982365625993
 21
-142.4303639510587
 31
0.0
  0
LINE
  5
122
330
70
100
AcDbEntity
  8
レイヤー 1
 62
   250
420
  2299925
370
     9
100
AcDbLine
 10
125.4953651909024
 20
-144.6524758949469
 30
0.0
 11
125.4953651909024
 21
-141.4304153401973
 31
0.0
  0
INSERT
  5
124
330
70
100
AcDbEntity
  8
レイヤー 1
100
AcDbBlockReference
  2
Block_8
 10
0.0
 20
0.0
 30
0.0
  0
LINE
  5
12F
330
70
100
AcDbEntity
  8
レイヤー 1
 62
   250
420
  2299925
370
     9
100
AcDbLine
 10
76.49846281268804
 20
-147.6925736719652
 30
0.0
 11
76.49846281268804
 21
-152.6926342262706
 31
0.0
  0
LINE
  5
130
330
70
100
AcDbEntity
  8
レイヤー 1
 62
   250
420
  2299925
370
     9
100
AcDbLine
 10
97.20849339544225
 20
-152.7641070040307
 30
0.0
 11
75.49837311598023
 21
-152.7641070040307
 31
0.0
  0
INSERT
  5
132
330
70
100
AcDbEntity
  8
レイヤー 1
100
AcDbBlockReference
  2
Block_10
 10
0.0
 20
0.0
 30
0.0
  0
LINE
  5
137
330
70
100
AcDbEntity
  8
レイヤー 1
  6
AI-Linetype-0
 62
   154
420
    23468
370
    25
100
AcDbLine
 10
80.4985770904493
 20
-148.1869564496189
 30
0.0
 11
90.49848384440663
 21
-148.1869564496189
 31
0.0
  0
LINE
  5
139
330
70
100
AcDbEntity
  8
レイヤー 1
  6
AI-Linetype-1
 62
   154
420
    23468
370
    25
100
AcDbLine
 10
114.9982648860315
 20
-148.1869564496189
 30
0.0
 11
125.4982365625993
 21
-148.1869564496189
 31
0.0
  0
INSERT
  5
13C
330
70
100
AcDbEntity
  8
レイヤー 1
100
AcDbBlockReference
  2
Block_11
 10
0.0
 20
0.0
 30
0.0
  0
ENDSEC
  0
SECTION
  2
OBJECTS
  0
DICTIONARY
  5
C
330
0
100
AcDbDictionary
281
     1
  3
ACAD_COLOR
350
63
  3
ACAD_DETAILVIEWSTYLE
350
6A
  3
ACAD_GROUP
350
D
  3
ACAD_LAYOUT
350
62
  3
ACAD_MATERIAL
350
10
  3
ACAD_MLEADERSTYLE
350
66
  3
ACAD_MLINESTYLE
350
5F
  3
ACAD_PLOTSETTINGS
350
61
  3
ACAD_PLOTSTYLENAME
350
E
  3
ACAD_SCALELIST
350
42
  3
ACAD_SECTIONVIEWSTYLE
350
68
  3
ACAD_TABLESTYLE
350
64
  3
ACAD_VISUALSTYLE
350
29
  3
ACDB_RECOMPOSE_DATA
350
169
  3
AcDbVariableDictionary
350
161
  0
DICTIONARY
  5
63
102
{ACAD_REACTORS
330
C
102
}
330
C
100
AcDbDictionary
281
     1
  0
DICTIONARY
  5
6A
102
{ACAD_REACTORS
330
C
102
}
330
C
100
AcDbDictionary
281
     1
  3
Imperial24
350
6B
  0
DICTIONARY
  5
D
102
{ACAD_REACTORS
330
C
102
}
330
C
100
AcDbDictionary
281
     1
  0
DICTIONARY
  5
62
102
{ACAD_REACTORS
330
C
102
}
330
C
100
AcDbDictionary
281
     1
  3
Layout1
350
6F
  3
Layout2
350
77
  3
Model
350
73
  0
DICTIONARY
  5
10
102
{ACAD_REACTORS
330
C
102
}
330
C
100
AcDbDictionary
281
     1
  3
ByBlock
350
19
  3
ByLayer
350
11
  3
Global
350
21
  0
DICTIONARY
  5
66
102
{ACAD_REACTORS
330
C
102
}
330
C
100
AcDbDictionary
281
     1
  3
Standard
350
67
  0
DICTIONARY
  5
5F
102
{ACAD_REACTORS
330
C
102
}
330
C
100
AcDbDictionary
281
     1
  3
Standard
350
60
  0
DICTIONARY
  5
61
102
{ACAD_REACTORS
330
C
102
}
330
C
100
AcDbDictionary
281
     1
  0
ACDBDICTIONARYWDFLT
  5
E
102
{ACAD_REACTORS
330
C
102
}
330
C
100
AcDbDictionary
281
     1
  3
Normal
350
F
100
AcDbDictionaryWithDefault
340
F
  0
DICTIONARY
  5
42
102
{ACAD_REACTORS
330
C
102
}
330
C
100
AcDbDictionary
281
     1
  3
A0
350
43
  3
A1
350
44
  3
A2
350
45
  3
A3
350
46
  3
A4
350
47
  3
A5
350
48
  3
A6
350
49
  3
A7
350
4A
  3
A8
350
4B
  3
A9
350
4C
  3
B0
350
4D
  3
B1
350
4E
  3
B2
350
4F
  3
B3
350
50
  3
B4
350
51
  3
B5
350
52
  3
B6
350
53
  0
DICTIONARY
  5
68
102
{ACAD_REACTORS
330
C
102
}
330
C
100
AcDbDictionary
281
     1
  3
Imperial24
350
69
  0
DICTIONARY
  5
64
102
{ACAD_REACTORS
330
C
102
}
330
C
100
AcDbDictionary
281
     1
  3
Standard
350
65
  0
DICTIONARY
  5
29
102
{ACAD_REACTORS
330
C
102
}
330
C
100
AcDbDictionary
281
     1
  3
2dWireframe
350
2F
  3
Basic
350
2E
  3
Brighten
350
35
  3
ColorChange
350
39
  3
Conceptual
350
32
  3
Dim
350
34
  3
EdgeColorOff
350
41
  3
Facepattern
350
38
  3
Flat
350
2A
  3
FlatWithEdges
350
2B
  3
Gouraud
350
2C
  3
GouraudWithEdges
350
2D
  3
Hidden
350
31
  3
JitterOff
350
3F
  3
Linepattern
350
37
  3
OverhangOff
350
40
  3
Realistic
350
33
  3
Shaded
350
3E
  3
Shaded with edges
350
3D
  3
Shades of Gray
350
3A
  3
Sketchy
350
3B
  3
Thicken
350
36
  3
Wireframe
350
30
  3
X-Ray
350
3C
  0
XRECORD
  5
169
102
{ACAD_REACTORS
330
C
102
}
330
C
100
AcDbXrecord
280
     1
 90
        1
330
65
  0
DICTIONARY
  5
161
102
{ACAD_REACTORS
330
C
102
}
330
C
100
AcDbDictionary
281
     1
  3
CANNOSCALE
350
166
  3
CMLEADERSTYLE
350
163
  3
CTABLESTYLE
350
162
  3
CVIEWDETAILSTYLE
350
164
  3
CVIEWSECTIONSTYLE
350
165
  0
ACDBDETAILVIEWSTYLE
  5
6B
102
{ACAD_XDICTIONARY
360
19E
102
}
102
{ACAD_REACTORS
330
6A
102
}
330
6A
100
AcDbModelDocViewStyle
 70
     0
  3
Imperial24
290
     0
100
AcDbDetailViewStyle
 70
     0
 71
     0
 90
        3
 71
     1
340
55
 62
   256
 40
0.24
340
0
 62
   256
 40
0.24
300

 40
0.36
280
     3
 71
     2
340
5D
 90
       25
 62
   256
 71
     3
340
55
 62
   256
 40
0.24
 90
        1
 40
0.75
 90
        1
300
%<\AcVar ViewType \f "%tc1">% %<\AcVar ViewDetailId>%\PSCALE %<\AcVar ViewScale \f "%sn">%
 71
     4
340
5D
 90
       25
 62
   256
340
5D
 90
       25
 62
   256
280
     0
  0
LAYOUT
  5
6F
102
{ACAD_REACTORS
330
62
102
}
330
62
100
AcDbPlotSettings
  1

  2

  4

  6

 40
0.0
 41
0.0
 42
0.0
 43
0.0
 44
0.0
 45
0.0
 46
0.0
 47
0.0
 48
0.0
 49
0.0
140
0.0
141
0.0
142
1.0
143
1.0
 70
   688
 72
     0
 73
     0
 74
     5
  7

 75
    16
147
1.0
 76
     0
 77
     2
 78
   300
148
0.0
149
0.0
100
AcDbLayout
  1
Layout1
 70
     1
 71
     1
 10
0.0
 20
0.0
 11
12.0
 21
9.0
 12
0.0
 22
0.0
 32
0.0
 14
0.0
 24
0.0
 34
0.0
 15
0.0
 25
0.0
 35
0.0
146
0.0
 13
0.0
 23
0.0
 33
0.0
 16
1.0
 26
0.0
 36
0.0
 17
0.0
 27
1.0
 37
0.0
 76
     0
330
6C
  0
LAYOUT
  5
77
102
{ACAD_REACTORS
330
62
102
}
330
62
100
AcDbPlotSettings
  1

  2

  4

  6

 40
0.0
 41
0.0
 42
0.0
 43
0.0
 44
0.0
 45
0.0
 46
0.0
 47
0.0
 48
0.0
 49
0.0
140
0.0
141
0.0
142
1.0
143
1.0
 70
   688
 72
     0
 73
     0
 74
     5
  7

 75
    16
147
1.0
 76
     0
 77
     2
 78
   300
148
0.0
149
0.0
100
AcDbLayout
  1
Layout2
 70
     1
 71
     2
 10
0.0
 20
0.0
 11
12.0
 21
9.0
 12
0.0
 22
0.0
 32
0.0
 14
0.0
 24
0.0
 34
0.0
 15
0.0
 25
0.0
 35
0.0
146
0.0
 13
0.0
 23
0.0
 33
0.0
 16
1.0
 26
0.0
 36
0.0
 17
0.0
 27
1.0
 37
0.0
 76
     0
330
74
  0
LAYOUT
  5
73
102
{ACAD_REACTORS
330
62
102
}
330
62
100
AcDbPlotSettings
  1

  2

  4

  6

 40
0.0
 41
0.0
 42
0.0
 43
0.0
 44
0.0
 45
0.0
 46
0.0
 47
0.0
 48
0.0
 49
0.0
140
0.0
141
0.0
142
1.0
143
1.0
 70
  1712
 72
     0
 73
     0
 74
     0
  7

 75
     0
147
1.0
 76
     0
 77
     2
 78
   300
148
0.0
149
0.0
100
AcDbLayout
  1
Model
 70
     1
 71
     0
 10
0.0
 20
0.0
 11
12.0
 21
9.0
 12
0.0
 22
0.0
 32
0.0
 14
0.0
 24
0.0
 34
0.0
 15
0.0
 25
0.0
 35
0.0
146
0.0
 13
0.0
 23
0.0
 33
0.0
 16
1.0
 26
0.0
 36
0.0
 17
0.0
 27
1.0
 37
0.0
 76
     0
330
70
  0
MATERIAL
  5
19
102
{ACAD_XDICTIONARY
360
1A
102
}
102
{ACAD_REACTORS
330
10
102
}
330
10
100
AcDbMaterial
  1
ByBlock
 72
     0
 43
0.0208333333333333
 43
0.0
 43
0.0
 43
0.0
 43
0.0
 43
0.0208333333333333
 43
0.0
 43
0.0
 43
0.0
 43
0.0
 43
1.0
 43
0.0
 43
0.0
 43
0.0
 43
0.0
 43
1.0
 77
     0
 47
0.0208333333333333
 47
0.0
 47
0.0
 47
0.0
 47
0.0
 47
0.0208333333333333
 47
0.0
 47
0.0
 47
0.0
 47
0.0
 47
1.0
 47
0.0
 47
0.0
 47
0.0
 47
0.0
 47
1.0
171
     0
 49
0.0208333333333333
 49
0.0
 49
0.0
 49
0.0
 49
0.0
 49
0.0208333333333333
 49
0.0
 49
0.0
 49
0.0
 49
0.0
 49
1.0
 49
0.0
 49
0.0
 49
0.0
 49
0.0
 49
1.0
175
     0
142
0.0208333333333333
142
0.0
142
0.0
142
0.0
142
0.0
142
0.0208333333333333
142
0.0
142
0.0
142
0.0
142
0.0
142
1.0
142
0.0
142
0.0
142
0.0
142
0.0
142
1.0
179
     0
144
0.0208333333333333
144
0.0
144
0.0
144
0.0
144
0.0
144
0.0208333333333333
144
0.0
144
0.0
144
0.0
144
0.0
144
1.0
144
0.0
144
0.0
144
0.0
144
0.0
144
1.0
147
0.0208333333333333
147
0.0
147
0.0
147
0.0
147
0.0
147
0.0208333333333333
147
0.0
147
0.0
147
0.0
147
0.0
147
1.0
147
0.0
147
0.0
147
0.0
147
0.0
147
1.0
  0
MATERIAL
  5
11
102
{ACAD_XDICTIONARY
360
12
102
}
102
{ACAD_REACTORS
330
10
102
}
330
10
100
AcDbMaterial
  1
ByLayer
 72
     0
 43
0.0208333333333333
 43
0.0
 43
0.0
 43
0.0
 43
0.0
 43
0.0208333333333333
 43
0.0
 43
0.0
 43
0.0
 43
0.0
 43
1.0
 43
0.0
 43
0.0
 43
0.0
 43
0.0
 43
1.0
 77
     0
 47
0.0208333333333333
 47
0.0
 47
0.0
 47
0.0
 47
0.0
 47
0.0208333333333333
 47
0.0
 47
0.0
 47
0.0
 47
0.0
 47
1.0
 47
0.0
 47
0.0
 47
0.0
 47
0.0
 47
1.0
171
     0
 49
0.0208333333333333
 49
0.0
 49
0.0
 49
0.0
 49
0.0
 49
0.0208333333333333
 49
0.0
 49
0.0
 49
0.0
 49
0.0
 49
1.0
 49
0.0
 49
0.0
 49
0.0
 49
0.0
 49
1.0
175
     0
142
0.0208333333333333
142
0.0
142
0.0
142
0.0
142
0.0
142
0.0208333333333333
142
0.0
142
0.0
142
0.0
142
0.0
142
1.0
142
0.0
142
0.0
142
0.0
142
0.0
142
1.0
179
     0
144
0.0208333333333333
144
0.0
144
0.0
144
0.0
144
0.0
144
0.0208333333333333
144
0.0
144
0.0
144
0.0
144
0.0
144
1.0
144
0.0
144
0.0
144
0.0
144
0.0
144
1.0
147
0.0208333333333333
147
0.0
147
0.0
147
0.0
147
0.0
147
0.0208333333333333
147
0.0
147
0.0
147
0.0
147
0.0
147
1.0
147
0.0
147
0.0
147
0.0
147
0.0
147
1.0
  0
MATERIAL
  5
21
102
{ACAD_XDICTIONARY
360
22
102
}
102
{ACAD_REACTORS
330
10
102
}
330
10
100
AcDbMaterial
  1
Global
 72
     0
 43
0.0208333333333333
 43
0.0
 43
0.0
 43
0.0
 43
0.0
 43
0.0208333333333333
 43
0.0
 43
0.0
 43
0.0
 43
0.0
 43
1.0
 43
0.0
 43
0.0
 43
0.0
 43
0.0
 43
1.0
 77
     0
 47
0.0208333333333333
 47
0.0
 47
0.0
 47
0.0
 47
0.0
 47
0.0208333333333333
 47
0.0
 47
0.0
 47
0.0
 47
0.0
 47
1.0
 47
0.0
 47
0.0
 47
0.0
 47
0.0
 47
1.0
171
     0
 49
0.0208333333333333
 49
0.0
 49
0.0
 49
0.0
 49
0.0
 49
0.0208333333333333
 49
0.0
 49
0.0
 49
0.0
 49
0.0
 49
1.0
 49
0.0
 49
0.0
 49
0.0
 49
0.0
 49
1.0
175
     0
142
0.0208333333333333
142
0.0
142
0.0
142
0.0
142
0.0
142
0.0208333333333333
142
0.0
142
0.0
142
0.0
142
0.0
142
1.0
142
0.0
142
0.0
142
0.0
142
0.0
142
1.0
179
     0
144
0.0208333333333333
144
0.0
144
0.0
144
0.0
144
0.0
144
0.0208333333333333
144
0.0
144
0.0
144
0.0
144
0.0
144
1.0
144
0.0
144
0.0
144
0.0
144
0.0
144
1.0
147
0.0208333333333333
147
0.0
147
0.0
147
0.0
147
0.0
147
0.0208333333333333
147
0.0
147
0.0
147
0.0
147
0.0
147
1.0
147
0.0
147
0.0
147
0.0
147
0.0
147
1.0
  0
MLEADERSTYLE
  5
67
102
{ACAD_XDICTIONARY
360
19A
102
}
102
{ACAD_REACTORS
330
66
102
}
330
66
100
AcDbMLeaderStyle
179
     2
170
     2
171
     1
172
     0
 90
        2
 40
0.0
 41
0.0
173
     1
 91
-1056964608
340
5B
 92
       -2
290
     1
 42
0.09
291
     1
 43
0.36
  3
Standard
 44
0.18
300

342
55
174
     1
178
     6
175
     1
176
     0
 93
-1056964608
 45
0.18
292
     0
297
     0
 46
0.18
 94
-1056964608
 47
1.0
 49
1.0
140
1.0
293
     1
141
0.0
294
     1
177
     0
142
1.0
295
     0
296
     0
143
0.125
271
     0
272
     9
273
     9
  0
MLINESTYLE
  5
60
102
{ACAD_REACTORS
330
5F
102
}
330
5F
100
AcDbMlineStyle
  2
STANDARD
 70
     0
  3

 62
   256
 51
90.0
 52
90.0
 71
     2
 49
0.5
 62
   256
  6
BYLAYER
 49
-0.5
 62
   256
  6
BYLAYER
  0
ACDBPLACEHOLDER
  5
F
102
{ACAD_REACTORS
330
E
102
}
330
E
  0
SCALE
  5
43
102
{ACAD_REACTORS
330
42
102
}
330
42
100
AcDbScale
 70
     0
300
1:1
140
1.0
141
1.0
290
     1
  0
SCALE
  5
44
102
{ACAD_REACTORS
330
42
102
}
330
42
100
AcDbScale
 70
     0
300
1/128" = 1'-0"
140
0.0078125
141
12.0
290
     0
  0
SCALE
  5
45
102
{ACAD_REACTORS
330
42
102
}
330
42
100
AcDbScale
 70
     0
300
1/64" = 1'-0"
140
0.015625
141
12.0
290
     0
  0
SCALE
  5
46
102
{ACAD_REACTORS
330
42
102
}
330
42
100
AcDbScale
 70
     0
300
1/32" = 1'-0"
140
0.03125
141
12.0
290
     0
  0
SCALE
  5
47
102
{ACAD_REACTORS
330
42
102
}
330
42
100
AcDbScale
 70
     0
300
1/16" = 1'-0"
140
0.0625
141
12.0
290
     0
  0
SCALE
  5
48
102
{ACAD_REACTORS
330
42
102
}
330
42
100
AcDbScale
 70
     0
300
3/32" = 1'-0"
140
0.09375
141
12.0
290
     0
  0
SCALE
  5
49
102
{ACAD_REACTORS
330
42
102
}
330
42
100
AcDbScale
 70
     0
300
1/8" = 1'-0"
140
0.125
141
12.0
290
     0
  0
SCALE
  5
4A
102
{ACAD_REACTORS
330
42
102
}
330
42
100
AcDbScale
 70
     0
300
3/16" = 1'-0"
140
0.1875
141
12.0
290
     0
  0
SCALE
  5
4B
102
{ACAD_REACTORS
330
42
102
}
330
42
100
AcDbScale
 70
     0
300
1/4" = 1'-0"
140
0.25
141
12.0
290
     0
  0
SCALE
  5
4C
102
{ACAD_REACTORS
330
42
102
}
330
42
100
AcDbScale
 70
     0
300
3/8" = 1'-0"
140
0.375
141
12.0
290
     0
  0
SCALE
  5
4D
102
{ACAD_REACTORS
330
42
102
}
330
42
100
AcDbScale
 70
     0
300
1/2" = 1'-0"
140
0.5
141
12.0
290
     0
  0
SCALE
  5
4E
102
{ACAD_REACTORS
330
42
102
}
330
42
100
AcDbScale
 70
     0
300
3/4" = 1'-0"
140
0.75
141
12.0
290
     0
  0
SCALE
  5
4F
102
{ACAD_REACTORS
330
42
102
}
330
42
100
AcDbScale
 70
     0
300
1" = 1'-0"
140
1.0
141
12.0
290
     0
  0
SCALE
  5
50
102
{ACAD_REACTORS
330
42
102
}
330
42
100
AcDbScale
 70
     0
300
1-1/2" = 1'-0"
140
1.5
141
12.0
290
     0
  0
SCALE
  5
51
102
{ACAD_REACTORS
330
42
102
}
330
42
100
AcDbScale
 70
     0
300
3" = 1'-0"
140
3.0
141
12.0
290
     0
  0
SCALE
  5
52
102
{ACAD_REACTORS
330
42
102
}
330
42
100
AcDbScale
 70
     0
300
6" = 1'-0"
140
6.0
141
12.0
290
     0
  0
SCALE
  5
53
102
{ACAD_REACTORS
330
42
102
}
330
42
100
AcDbScale
 70
     0
300
1'-0" = 1'-0"
140
12.0
141
12.0
290
     0
  0
ACDBSECTIONVIEWSTYLE
  5
69
102
{ACAD_XDICTIONARY
360
19C
102
}
102
{ACAD_REACTORS
330
68
102
}
330
68
100
AcDbModelDocViewStyle
 70
     0
  3
Imperial24
290
     0
100
AcDbSectionViewStyle
 70
     0
 71
     0
 90
       78
 71
     1
340
55
 62
   256
 40
0.24
340
0
340
0
 62
   256
 40
0.24
300
I, O, Q, S, X, Z
 40
0.48
 90
        3
 40
0.18
 90
        1
 71
     2
340
5D
 90
       25
 62
   256
340
5D
 90
       50
 62
   256
 40
0.24
 40
0.0
 40
0.24
 71
     3
340
55
 62
   256
 40
0.24
 90
        1
 40
0.75
 90
        1
300
%<\AcVar ViewType \f "%tc1">% %<\AcVar ViewSectionStartId>%-%<\AcVar ViewSectionEndId>%\PSCALE %<\AcVar ViewScale \f "%sn">%
 71
     4
 62
   256
 62
   257
300
ANSI31
 40
1.0
 90
        0
290
     0
290
     0
 90
        6
 40
0.0
 40
1.570796326794896
 40
0.2617993877991494
 40
1.308996938995747
 40
-0.2617993877991494
 40
1.832595714594046
  0
TABLESTYLE
  5
65
102
{ACAD_XDICTIONARY
360
167
102
}
102
{ACAD_REACTORS
330
64
102
}
330
64
100
AcDbTableStyle
280
     0
  3
Standard
 70
     0
 71
     0
 40
0.06
 41
0.06
280
     0
281
     0
  7
Standard
140
0.18
170
     2
 62
     0
 63
     7
283
     0
 90
      512
 91
        0
  1

274
    -2
284
     1
 64
     0
275
    -2
285
     1
 65
     0
276
    -2
286
     1
 66
     0
277
    -2
287
     1
 67
     0
278
    -2
288
     1
 68
     0
279
    -2
289
     1
 69
     0
  7
Standard
140
0.25
170
     5
 62
     0
 63
     7
283
     0
 90
      512
 91
        0
  1

274
    -2
284
     1
 64
     0
275
    -2
285
     1
 65
     0
276
    -2
286
     1
 66
     0
277
    -2
287
     1
 67
     0
278
    -2
288
     1
 68
     0
279
    -2
289
     1
 69
     0
  7
Standard
140
0.18
170
     5
 62
     0
 63
     7
283
     0
 90
      512
 91
        0
  1

274
    -2
284
     1
 64
     0
275
    -2
285
     1
 65
     0
276
    -2
286
     1
 66
     0
277
    -2
287
     1
 67
     0
278
    -2
288
     1
 68
     0
279
    -2
289
     1
 69
     0
  0
VISUALSTYLE
  5
2F
102
{ACAD_XDICTIONARY
360
174
102
}
102
{ACAD_REACTORS
330
29
102
}
330
29
100
AcDbVisualStyle
  2
2dWireframe
 70
     4
177
     2
291
     0
 71
     0
176
     1
 72
     2
176
     1
 73
     0
176
     1
 90
        0
176
     1
 40
0.6
176
     1
 41
30.0
176
     1
 63
     7
421
 16777215
176
     1
 74
     1
176
     1
 91
        4
176
     1
 64
     7
176
     1
 65
   257
176
     1
 75
     1
176
     1
175
     1
176
     1
 42
1.0
176
     1
 92
        0
176
     1
 66
   257
176
     1
 43
1.0
176
     1
 76
     1
176
     1
 77
     6
176
     1
 78
     2
176
     1
 67
     7
176
     1
 79
     5
176
     1
170
     0
176
     1
171
     0
176
     1
290
     0
176
     1
 93
        1
176
     1
 44
0.0
176
     1
173
     0
176
     1
1001
ACAD
1000
AcDbSavedByObjectVersion
1070
     0
  0
VISUALSTYLE
  5
2E
102
{ACAD_XDICTIONARY
360
172
102
}
102
{ACAD_REACTORS
330
29
102
}
330
29
100
AcDbVisualStyle
  2
Basic
 70
     7
177
     2
291
     1
 71
     1
176
     1
 72
     0
176
     1
 73
     1
176
     1
 90
        0
176
     1
 40
0.6
176
     1
 41
30.0
176
     1
 63
     7
421
 16777215
176
     1
 74
     0
176
     1
 91
        4
176
     1
 64
     7
176
     1
 65
   257
176
     1
 75
     1
176
     1
175
     1
176
     1
 42
1.0
176
     1
 92
        8
176
     1
 66
     7
176
     1
 43
1.0
176
     1
 76
     1
176
     1
 77
     6
176
     1
 78
     2
176
     1
 67
     7
176
     1
 79
     5
176
     1
170
     0
176
     1
171
     0
176
     1
290
     0
176
     1
 93
        1
176
     1
 44
0.0
176
     1
173
     0
176
     1
1001
ACAD
1000
AcDbSavedByObjectVersion
1070
     0
  0
VISUALSTYLE
  5
35
102
{ACAD_XDICTIONARY
360
180
102
}
102
{ACAD_REACTORS
330
29
102
}
330
29
100
AcDbVisualStyle
  2
Brighten
 70
    12
177
     2
291
     1
 71
     2
176
     1
 72
     2
176
     1
 73
     0
176
     1
 90
        0
176
     1
 40
0.6
176
     1
 41
30.0
176
     1
 63
     7
421
 16777215
176
     1
 74
     1
176
     1
 91
        4
176
     1
 64
     7
176
     1
 65
   257
176
     1
 75
     1
176
     1
175
     1
176
     1
 42
1.0
176
     1
 92
        8
176
     1
 66
     7
176
     1
 43
1.0
176
     1
 76
     1
176
     1
 77
     6
176
     1
 78
     2
176
     1
 67
     7
176
     1
 79
     5
176
     1
170
     0
176
     1
171
     0
176
     1
290
     0
176
     1
 93
        1
176
     1
 44
50.0
176
     1
173
     0
176
     1
1001
ACAD
1000
AcDbSavedByObjectVersion
1070
     0
  0
VISUALSTYLE
  5
39
102
{ACAD_XDICTIONARY
360
188
102
}
102
{ACAD_REACTORS
330
29
102
}
330
29
100
AcDbVisualStyle
  2
ColorChange
 70
    16
177
     2
291
     1
 71
     2
176
     1
 72
     2
176
     1
 73
     3
176
     1
 90
        0
176
     1
 40
0.6
176
     1
 41
30.0
176
     1
 63
     8
421
  8421504
176
     1
 74
     1
176
     1
 91
        4
176
     1
 64
     7
176
     1
 65
   257
176
     1
 75
     1
176
     1
175
     1
176
     1
 42
1.0
176
     1
 92
        8
176
     1
 66
     8
424
  8421504
176
     1
 43
1.0
176
     1
 76
     1
176
     1
 77
     6
176
     1
 78
     2
176
     1
 67
     7
176
     1
 79
     5
176
     1
170
     0
176
     1
171
     0
176
     1
290
     0
176
     1
 93
        1
176
     1
 44
0.0
176
     1
173
     0
176
     1
1001
ACAD
1000
AcDbSavedByObjectVersion
1070
     0
  0
VISUALSTYLE
  5
32
102
{ACAD_XDICTIONARY
360
17A
102
}
102
{ACAD_REACTORS
330
29
102
}
330
29
100
AcDbVisualStyle
  2
Conceptual
 70
     9
177
     2
291
     0
 71
     3
176
     1
 72
     2
176
     1
 73
     0
176
     1
 90
        0
176
     1
 40
0.6
176
     1
 41
30.0
176
     1
 63
     7
421
 16777215
176
     1
 74
     2
176
     1
 91
        2
176
     1
 64
     7
176
     1
 65
   257
176
     1
 75
     1
176
     1
175
     1
176
     1
 42
179.0
176
     1
 92
        8
176
     1
 66
     7
176
     1
 43
1.0
176
     1
 76
     1
176
     1
 77
     6
176
     1
 78
     2
176
     1
 67
     7
176
     1
 79
     3
176
     1
170
     0
176
     1
171
     0
176
     1
290
     0
176
     1
 93
        1
176
     1
 44
0.0
176
     1
173
     0
176
     1
1001
ACAD
1000
AcDbSavedByObjectVersion
1070
     0
  0
VISUALSTYLE
  5
34
102
{ACAD_XDICTIONARY
360
17E
102
}
102
{ACAD_REACTORS
330
29
102
}
330
29
100
AcDbVisualStyle
  2
Dim
 70
    11
177
     2
291
     1
 71
     2
176
     1
 72
     2
176
     1
 73
     0
176
     1
 90
        0
176
     1
 40
0.6
176
     1
 41
30.0
176
     1
 63
     7
421
 16777215
176
     1
 74
     1
176
     1
 91
        4
176
     1
 64
     7
176
     1
 65
   257
176
     1
 75
     1
176
     1
175
     1
176
     1
 42
1.0
176
     1
 92
        8
176
     1
 66
     7
176
     1
 43
1.0
176
     1
 76
     1
176
     1
 77
     6
176
     1
 78
     2
176
     1
 67
     7
176
     1
 79
     5
176
     1
170
     0
176
     1
171
     0
176
     1
290
     0
176
     1
 93
        1
176
     1
 44
-50.0
176
     1
173
     0
176
     1
1001
ACAD
1000
AcDbSavedByObjectVersion
1070
     0
  0
VISUALSTYLE
  5
41
102
{ACAD_XDICTIONARY
360
198
102
}
102
{ACAD_REACTORS
330
29
102
}
330
29
100
AcDbVisualStyle
  2
EdgeColorOff
 70
    22
177
     2
291
     1
 71
     2
176
     0
 72
     2
176
     0
 73
     0
176
     0
 90
        0
176
     0
 40
0.6
176
     0
 41
30.0
176
     0
 63
     7
421
 16777215
176
     0
 74
     1
176
     0
 91
        4
176
     0
 64
     7
176
     0
 65
   257
176
     0
 75
     1
176
     0
175
     1
176
     0
 42
1.0
176
     0
 92
        8
176
     2
 66
     7
176
     0
 43
1.0
176
     0
 76
     1
176
     0
 77
     6
176
     0
 78
     2
176
     0
 67
     7
176
     0
 79
     5
176
     0
170
     0
176
     0
171
     0
176
     0
290
     0
176
     0
 93
        1
176
     0
 44
0.0
176
     0
173
     0
176
     0
1001
ACAD
1000
AcDbSavedByObjectVersion
1070
     0
  0
VISUALSTYLE
  5
38
102
{ACAD_XDICTIONARY
360
186
102
}
102
{ACAD_REACTORS
330
29
102
}
330
29
100
AcDbVisualStyle
  2
Facepattern
 70
    15
177
     2
291
     1
 71
     2
176
     1
 72
     2
176
     1
 73
     0
176
     1
 90
        0
176
     1
 40
0.6
176
     1
 41
30.0
176
     1
 63
     7
421
 16777215
176
     1
 74
     1
176
     1
 91
        4
176
     1
 64
     7
176
     1
 65
   257
176
     1
 75
     1
176
     1
175
     1
176
     1
 42
1.0
176
     1
 92
        8
176
     1
 66
     7
176
     1
 43
1.0
176
     1
 76
     1
176
     1
 77
     6
176
     1
 78
     2
176
     1
 67
     7
176
     1
 79
     5
176
     1
170
     0
176
     1
171
     0
176
     1
290
     0
176
     1
 93
        1
176
     1
 44
0.0
176
     1
173
     0
176
     1
1001
ACAD
1000
AcDbSavedByObjectVersion
1070
     0
  0
VISUALSTYLE
  5
2A
102
{ACAD_XDICTIONARY
360
16A
102
}
102
{ACAD_REACTORS
330
29
102
}
330
29
100
AcDbVisualStyle
  2
Flat
 70
     0
177
     2
291
     1
 71
     2
176
     1
 72
     1
176
     1
 73
     1
176
     1
 90
        2
176
     1
 40
0.6
176
     1
 41
30.0
176
     1
 63
     7
421
 16777215
176
     1
 74
     0
176
     1
 91
        0
176
     1
 64
     7
176
     1
 65
   257
176
     1
 75
     1
176
     1
175
     1
176
     1
 42
1.0
176
     1
 92
        8
176
     1
 66
     7
176
     1
 43
1.0
176
     1
 76
     1
176
     1
 77
     6
176
     1
 78
     2
176
     1
 67
     7
176
     1
 79
     5
176
     1
170
     0
176
     1
171
     0
176
     1
290
     0
176
     1
 93
       13
176
     1
 44
0.0
176
     1
173
     0
176
     1
1001
ACAD
1000
AcDbSavedByObjectVersion
1070
     0
  0
VISUALSTYLE
  5
2B
102
{ACAD_XDICTIONARY
360
16C
102
}
102
{ACAD_REACTORS
330
29
102
}
330
29
100
AcDbVisualStyle
  2
FlatWithEdges
 70
     1
177
     2
291
     1
 71
     2
176
     1
 72
     1
176
     1
 73
     1
176
     1
 90
        2
176
     1
 40
0.6
176
     1
 41
30.0
176
     1
 63
     7
421
 16777215
176
     1
 74
     1
176
     1
 91
        0
176
     1
 64
     7
176
     1
 65
   257
176
     1
 75
     1
176
     1
175
     1
176
     1
 42
1.0
176
     1
 92
        0
176
     1
 66
   257
176
     1
 43
1.0
176
     1
 76
     1
176
     1
 77
     6
176
     1
 78
     2
176
     1
 67
     7
176
     1
 79
     5
176
     1
170
     0
176
     1
171
     0
176
     1
290
     0
176
     1
 93
       13
176
     1
 44
0.0
176
     1
173
     0
176
     1
1001
ACAD
1000
AcDbSavedByObjectVersion
1070
     0
  0
VISUALSTYLE
  5
2C
102
{ACAD_XDICTIONARY
360
16E
102
}
102
{ACAD_REACTORS
330
29
102
}
330
29
100
AcDbVisualStyle
  2
Gouraud
 70
     2
177
     2
291
     1
 71
     2
176
     1
 72
     2
176
     1
 73
     1
176
     1
 90
        2
176
     1
 40
0.6
176
     1
 41
30.0
176
     1
 63
     7
421
 16777215
176
     1
 74
     0
176
     1
 91
        0
176
     1
 64
     7
176
     1
 65
   257
176
     1
 75
     1
176
     1
175
     1
176
     1
 42
1.0
176
     1
 92
        0
176
     1
 66
     7
176
     1
 43
1.0
176
     1
 76
     1
176
     1
 77
     6
176
     1
 78
     2
176
     1
 67
     7
176
     1
 79
     5
176
     1
170
     0
176
     1
171
     0
176
     1
290
     0
176
     1
 93
       13
176
     1
 44
0.0
176
     1
173
     0
176
     1
1001
ACAD
1000
AcDbSavedByObjectVersion
1070
     0
  0
VISUALSTYLE
  5
2D
102
{ACAD_XDICTIONARY
360
170
102
}
102
{ACAD_REACTORS
330
29
102
}
330
29
100
AcDbVisualStyle
  2
GouraudWithEdges
 70
     3
177
     2
291
     1
 71
     2
176
     1
 72
     2
176
     1
 73
     1
176
     1
 90
        2
176
     1
 40
0.6
176
     1
 41
30.0
176
     1
 63
     7
421
 16777215
176
     1
 74
     1
176
     1
 91
        0
176
     1
 64
     7
176
     1
 65
   257
176
     1
 75
     1
176
     1
175
     1
176
     1
 42
1.0
176
     1
 92
        0
176
     1
 66
   257
176
     1
 43
1.0
176
     1
 76
     1
176
     1
 77
     6
176
     1
 78
     2
176
     1
 67
     7
176
     1
 79
     5
176
     1
170
     0
176
     1
171
     0
176
     1
290
     0
176
     1
 93
       13
176
     1
 44
0.0
176
     1
173
     0
176
     1
1001
ACAD
1000
AcDbSavedByObjectVersion
1070
     0
  0
VISUALSTYLE
  5
31
102
{ACAD_XDICTIONARY
360
178
102
}
102
{ACAD_REACTORS
330
29
102
}
330
29
100
AcDbVisualStyle
  2
Hidden
 70
     6
177
     2
291
     0
 71
     1
176
     1
 72
     2
176
     1
 73
     2
176
     1
 90
        0
176
     1
 40
0.6
176
     1
 41
30.0
176
     1
 63
     7
421
 16777215
176
     1
 74
     2
176
     1
 91
        2
176
     1
 64
     7
176
     1
 65
   257
176
     1
 75
     2
176
     1
175
     1
176
     1
 42
40.0
176
     1
 92
        0
176
     1
 66
   257
176
     1
 43
1.0
176
     1
 76
     1
176
     1
 77
     6
176
     1
 78
     2
176
     1
 67
     7
176
     1
 79
     3
176
     1
170
     0
176
     1
171
     0
176
     1
290
     0
176
     1
 93
        1
176
     1
 44
0.0
176
     1
173
     0
176
     1
1001
ACAD
1000
AcDbSavedByObjectVersion
1070
     0
  0
VISUALSTYLE
  5
3F
102
{ACAD_XDICTIONARY
360
194
102
}
102
{ACAD_REACTORS
330
29
102
}
330
29
100
AcDbVisualStyle
  2
JitterOff
 70
    20
177
     2
291
     1
 71
     2
176
     0
 72
     2
176
     0
 73
     0
176
     0
 90
        0
176
     0
 40
0.6
176
     0
 41
30.0
176
     0
 63
     7
421
 16777215
176
     0
 74
     1
176
     0
 91
        4
176
     0
 64
     7
176
     0
 65
   257
176
     0
 75
     1
176
     0
175
     1
176
     0
 42
1.0
176
     0
 92
       10
176
     2
 66
     7
176
     0
 43
1.0
176
     0
 76
     1
176
     0
 77
     6
176
     0
 78
     2
176
     0
 67
     7
176
     0
 79
     5
176
     0
170
     0
176
     0
171
     0
176
     0
290
     0
176
     0
 93
        1
176
     0
 44
0.0
176
     0
173
     0
176
     0
1001
ACAD
1000
AcDbSavedByObjectVersion
1070
     0
  0
VISUALSTYLE
  5
37
102
{ACAD_XDICTIONARY
360
184
102
}
102
{ACAD_REACTORS
330
29
102
}
330
29
100
AcDbVisualStyle
  2
Linepattern
 70
    14
177
     2
291
     1
 71
     2
176
     1
 72
     2
176
     1
 73
     0
176
     1
 90
        0
176
     1
 40
0.6
176
     1
 41
30.0
176
     1
 63
     7
421
 16777215
176
     1
 74
     1
176
     1
 91
        4
176
     1
 64
     7
176
     1
 65
   257
176
     1
 75
     7
176
     1
175
     7
176
     1
 42
1.0
176
     1
 92
        8
176
     1
 66
     7
176
     1
 43
1.0
176
     1
 76
     1
176
     1
 77
     6
176
     1
 78
     2
176
     1
 67
     7
176
     1
 79
     5
176
     1
170
     0
176
     1
171
     0
176
     1
290
     0
176
     1
 93
        1
176
     1
 44
0.0
176
     1
173
     0
176
     1
1001
ACAD
1000
AcDbSavedByObjectVersion
1070
     0
  0
VISUALSTYLE
  5
40
102
{ACAD_XDICTIONARY
360
196
102
}
102
{ACAD_REACTORS
330
29
102
}
330
29
100
AcDbVisualStyle
  2
OverhangOff
 70
    21
177
     2
291
     1
 71
     2
176
     0
 72
     2
176
     0
 73
     0
176
     0
 90
        0
176
     0
 40
0.6
176
     0
 41
30.0
176
     0
 63
     7
421
 16777215
176
     0
 74
     1
176
     0
 91
        4
176
     0
 64
     7
176
     0
 65
   257
176
     0
 75
     1
176
     0
175
     1
176
     0
 42
1.0
176
     0
 92
        9
176
     2
 66
     7
176
     0
 43
1.0
176
     0
 76
     1
176
     0
 77
     6
176
     0
 78
     2
176
     0
 67
     7
176
     0
 79
     5
176
     0
170
     0
176
     0
171
     0
176
     0
290
     0
176
     0
 93
        1
176
     0
 44
0.0
176
     0
173
     0
176
     0
1001
ACAD
1000
AcDbSavedByObjectVersion
1070
     0
  0
VISUALSTYLE
  5
33
102
{ACAD_XDICTIONARY
360
17C
102
}
102
{ACAD_REACTORS
330
29
102
}
330
29
100
AcDbVisualStyle
  2
Realistic
 70
     8
177
     2
291
     0
 71
     2
176
     1
 72
     3
176
     1
 73
     0
176
     1
 90
        2
176
     1
 40
0.6
176
     1
 41
30.0
176
     1
 63
     7
421
 16777215
176
     1
 74
     0
176
     1
 91
        0
176
     1
 64
     7
176
     1
 65
   257
176
     1
 75
     1
176
     1
175
     1
176
     1
 42
1.0
176
     1
 92
        8
176
     1
 66
   257
176
     1
 43
1.0
176
     1
 76
     1
176
     1
 77
     6
176
     1
 78
     2
176
     1
 67
     7
176
     1
 79
     3
176
     1
170
     0
176
     1
171
     0
176
     1
290
     0
176
     1
 93
       13
176
     1
 44
0.0
176
     1
173
     0
176
     1
1001
ACAD
1000
AcDbSavedByObjectVersion
1070
     0
  0
VISUALSTYLE
  5
3E
102
{ACAD_XDICTIONARY
360
192
102
}
102
{ACAD_REACTORS
330
29
102
}
330
29
100
AcDbVisualStyle
  2
Shaded
 70
    27
177
     2
291
     0
 71
     2
176
     1
 72
     2
176
     1
 73
     1
176
     1
 90
        2
176
     1
 40
0.6
176
     1
 41
30.0
176
     1
 63
     7
421
 16777215
176
     1
 74
     0
176
     1
 91
        4
176
     1
 64
     7
176
     1
 65
   257
176
     1
 75
     1
176
     1
175
     1
176
     1
 42
1.0
176
     1
 92
        8
176
     1
 66
   257
176
     1
 43
1.0
176
     1
 76
     1
176
     1
 77
     6
176
     1
 78
     2
176
     1
 67
     8
425
  7895160
176
     1
 79
     3
176
     1
170
     0
176
     1
171
     0
176
     1
290
     0
176
     1
 93
        5
176
     1
 44
0.0
176
     1
173
     0
176
     1
1001
ACAD
1000
AcDbSavedByObjectVersion
1070
     0
  0
VISUALSTYLE
  5
3D
102
{ACAD_XDICTIONARY
360
190
102
}
102
{ACAD_REACTORS
330
29
102
}
330
29
100
AcDbVisualStyle
  2
Shaded with edges
 70
    26
177
     2
291
     0
 71
     2
176
     1
 72
     2
176
     1
 73
     1
176
     1
 90
        2
176
     1
 40
0.6
176
     1
 41
30.0
176
     1
 63
     7
421
 16777215
176
     1
 74
     1
176
     1
 91
        2
176
     1
 64
     7
176
     1
 65
   257
176
     1
 75
     2
176
     1
175
     1
176
     1
 42
1.0
176
     1
 92
        8
176
     1
 66
   257
176
     1
 43
1.0
176
     1
 76
     1
176
     1
 77
     6
176
     1
 78
     2
176
     1
 67
     7
176
     1
 79
     3
176
     1
170
     0
176
     1
171
     0
176
     1
290
     0
176
     1
 93
        5
176
     1
 44
0.0
176
     1
173
     0
176
     1
1001
ACAD
1000
AcDbSavedByObjectVersion
1070
     0
  0
VISUALSTYLE
  5
3A
102
{ACAD_XDICTIONARY
360
18A
102
}
102
{ACAD_REACTORS
330
29
102
}
330
29
100
AcDbVisualStyle
  2
Shades of Gray
 70
    23
177
     2
291
     0
 71
     2
176
     1
 72
     2
176
     1
 73
     3
176
     1
 90
        0
176
     1
 40
0.6
176
     1
 41
30.0
176
     1
 63
     7
421
 16777215
176
     1
 74
     2
176
     1
 91
        2
176
     1
 64
     7
176
     1
 65
     7
176
     1
 75
     1
176
     1
175
     1
176
     1
 42
40.0
176
     1
 92
        8
176
     1
 66
     7
176
     1
 43
1.0
176
     1
 76
     1
176
     1
 77
     6
176
     1
 78
     2
176
     1
 67
     7
176
     1
 79
     3
176
     1
170
     0
176
     1
171
     0
176
     1
290
     0
176
     1
 93
        1
176
     1
 44
0.0
176
     1
173
     0
176
     1
1001
ACAD
1000
AcDbSavedByObjectVersion
1070
     0
  0
VISUALSTYLE
  5
3B
102
{ACAD_XDICTIONARY
360
18C
102
}
102
{ACAD_REACTORS
330
29
102
}
330
29
100
AcDbVisualStyle
  2
Sketchy
 70
    24
177
     2
291
     0
 71
     1
176
     1
 72
     2
176
     1
 73
     2
176
     1
 90
        0
176
     1
 40
0.6
176
     1
 41
30.0
176
     1
 63
     7
421
 16777215
176
     1
 74
     2
176
     1
 91
        2
176
     1
 64
     7
176
     1
 65
     7
176
     1
 75
     1
176
     1
175
     1
176
     1
 42
40.0
176
     1
 92
       11
176
     1
 66
     7
176
     1
 43
1.0
176
     1
 76
     1
176
     1
 77
     6
176
     1
 78
     2
176
     1
 67
     7
176
     1
 79
     6
176
     1
170
     0
176
     1
171
     0
176
     1
290
     0
176
     1
 93
        1
176
     1
 44
0.0
176
     1
173
     0
176
     1
1001
ACAD
1000
AcDbSavedByObjectVersion
1070
     0
  0
VISUALSTYLE
  5
36
102
{ACAD_XDICTIONARY
360
182
102
}
102
{ACAD_REACTORS
330
29
102
}
330
29
100
AcDbVisualStyle
  2
Thicken
 70
    13
177
     2
291
     1
 71
     2
176
     1
 72
     2
176
     1
 73
     0
176
     1
 90
        0
176
     1
 40
0.6
176
     1
 41
30.0
176
     1
 63
     7
421
 16777215
176
     1
 74
     1
176
     1
 91
        4
176
     1
 64
     7
176
     1
 65
   257
176
     1
 75
     1
176
     1
175
     1
176
     1
 42
1.0
176
     1
 92
       12
176
     1
 66
     7
176
     1
 43
1.0
176
     1
 76
     1
176
     1
 77
     6
176
     1
 78
     2
176
     1
 67
     7
176
     1
 79
     5
176
     1
170
     0
176
     1
171
     0
176
     1
290
     0
176
     1
 93
        1
176
     1
 44
0.0
176
     1
173
     0
176
     1
1001
ACAD
1000
AcDbSavedByObjectVersion
1070
     0
  0
VISUALSTYLE
  5
30
102
{ACAD_XDICTIONARY
360
176
102
}
102
{ACAD_REACTORS
330
29
102
}
330
29
100
AcDbVisualStyle
  2
Wireframe
 70
     5
177
     2
291
     0
 71
     0
176
     1
 72
     2
176
     1
 73
     0
176
     1
 90
        0
176
     1
 40
0.6
176
     1
 41
30.0
176
     1
 63
     7
421
 16777215
176
     1
 74
     1
176
     1
 91
        4
176
     1
 64
     7
176
     1
 65
   257
176
     1
 75
     1
176
     1
175
     1
176
     1
 42
1.0
176
     1
 92
        0
176
     1
 66
   257
176
     1
 43
1.0
176
     1
 76
     1
176
     1
 77
     6
176
     1
 78
     2
176
     1
 67
     7
176
     1
 79
     3
176
     1
170
     0
176
     1
171
     0
176
     1
290
     0
176
     1
 93
        1
176
     1
 44
0.0
176
     1
173
     0
176
     1
1001
ACAD
1000
AcDbSavedByObjectVersion
1070
     0
  0
VISUALSTYLE
  5
3C
102
{ACAD_XDICTIONARY
360
18E
102
}
102
{ACAD_REACTORS
330
29
102
}
330
29
100
AcDbVisualStyle
  2
X-Ray
 70
    25
177
     2
291
     0
 71
     2
176
     1
 72
     2
176
     1
 73
     1
176
     1
 90
        1
176
     1
 40
0.5
176
     1
 41
30.0
176
     1
 63
     7
421
 16777215
176
     1
 74
     1
176
     1
 91
        0
176
     1
 64
     7
176
     1
 65
   257
176
     1
 75
     1
176
     1
175
     1
176
     1
 42
1.0
176
     1
 92
        8
176
     1
 66
     7
176
     1
 43
1.0
176
     1
 76
     1
176
     1
 77
     6
176
     1
 78
     2
176
     1
 67
     7
176
     1
 79
     3
176
     1
170
     0
176
     1
171
     0
176
     1
290
     0
176
     1
 93
       13
176
     1
 44
0.0
176
     1
173
     0
176
     1
1001
ACAD
1000
AcDbSavedByObjectVersion
1070
     0
  0
DICTIONARYVAR
  5
166
102
{ACAD_REACTORS
330
161
102
}
330
161
100
DictionaryVariables
280
     0
  1
1:1
  0
DICTIONARYVAR
  5
163
102
{ACAD_REACTORS
330
161
102
}
330
161
100
DictionaryVariables
280
     0
  1
STANDARD
  0
DICTIONARYVAR
  5
162
102
{ACAD_REACTORS
330
161
102
}
330
161
100
DictionaryVariables
280
     0
  1
STANDARD
  0
DICTIONARYVAR
  5
164
102
{ACAD_REACTORS
330
161
102
}
330
161
100
DictionaryVariables
280
     0
  1
Imperial24
  0
DICTIONARYVAR
  5
165
102
{ACAD_REACTORS
330
161
102
}
330
161
100
DictionaryVariables
280
     0
  1
Imperial24
  0
DICTIONARY
  5
19E
330
6B
100
AcDbDictionary
280
     1
281
     1
  3
ACAD_XREC_ROUNDTRIP
360
19F
  0
DICTIONARY
  5
1A
330
19
100
AcDbDictionary
280
     1
281
     1
  3
BUMPTILE
360
1C
  3
DIFFUSETILE
360
1B
  3
OPACITYTILE
360
1F
  3
REFLECTIONTILE
360
1E
  3
REFRACTIONTILE
360
20
  3
SPECULARTILE
360
1D
  0
DICTIONARY
  5
12
330
11
100
AcDbDictionary
280
     1
281
     1
  3
BUMPTILE
360
14
  3
DIFFUSETILE
360
13
  3
OPACITYTILE
360
17
  3
REFLECTIONTILE
360
16
  3
REFRACTIONTILE
360
18
  3
SPECULARTILE
360
15
  0
DICTIONARY
  5
22
330
21
100
AcDbDictionary
280
     1
281
     1
  3
BUMPTILE
360
24
  3
DIFFUSETILE
360
23
  3
OPACITYTILE
360
27
  3
REFLECTIONTILE
360
26
  3
REFRACTIONTILE
360
28
  3
SPECULARTILE
360
25
  0
DICTIONARY
  5
19A
330
67
100
AcDbDictionary
280
     1
281
     1
  3
ACAD_XREC_ROUNDTRIP
360
19B
  0
DICTIONARY
  5
19C
330
69
100
AcDbDictionary
280
     1
281
     1
  3
ACAD_XREC_ROUNDTRIP
360
19D
  0
DICTIONARY
  5
167
330
65
100
AcDbDictionary
280
     1
281
     1
  3
ACAD_ROUNDTRIP_2008_TABLESTYLE_CELLSTYLEMAP
360
168
  0
DICTIONARY
  5
174
330
2F
100
AcDbDictionary
280
     1
281
     1
  3
ACAD_XREC_ROUNDTRIP
360
175
  0
DICTIONARY
  5
172
330
2E
100
AcDbDictionary
280
     1
281
     1
  3
ACAD_XREC_ROUNDTRIP
360
173
  0
DICTIONARY
  5
180
330
35
100
AcDbDictionary
280
     1
281
     1
  3
ACAD_XREC_ROUNDTRIP
360
181
  0
DICTIONARY
  5
188
330
39
100
AcDbDictionary
280
     1
281
     1
  3
ACAD_XREC_ROUNDTRIP
360
189
  0
DICTIONARY
  5
17A
330
32
100
AcDbDictionary
280
     1
281
     1
  3
ACAD_XREC_ROUNDTRIP
360
17B
  0
DICTIONARY
  5
17E
330
34
100
AcDbDictionary
280
     1
281
     1
  3
ACAD_XREC_ROUNDTRIP
360
17F
  0
DICTIONARY
  5
198
330
41
100
AcDbDictionary
280
     1
281
     1
  3
ACAD_XREC_ROUNDTRIP
360
199
  0
DICTIONARY
  5
186
330
38
100
AcDbDictionary
280
     1
281
     1
  3
ACAD_XREC_ROUNDTRIP
360
187
  0
DICTIONARY
  5
16A
330
2A
100
AcDbDictionary
280
     1
281
     1
  3
ACAD_XREC_ROUNDTRIP
360
16B
  0
DICTIONARY
  5
16C
330
2B
100
AcDbDictionary
280
     1
281
     1
  3
ACAD_XREC_ROUNDTRIP
360
16D
  0
DICTIONARY
  5
16E
330
2C
100
AcDbDictionary
280
     1
281
     1
  3
ACAD_XREC_ROUNDTRIP
360
16F
  0
DICTIONARY
  5
170
330
2D
100
AcDbDictionary
280
     1
281
     1
  3
ACAD_XREC_ROUNDTRIP
360
171
  0
DICTIONARY
  5
178
330
31
100
AcDbDictionary
280
     1
281
     1
  3
ACAD_XREC_ROUNDTRIP
360
179
  0
DICTIONARY
  5
194
330
3F
100
AcDbDictionary
280
     1
281
     1
  3
ACAD_XREC_ROUNDTRIP
360
195
  0
DICTIONARY
  5
184
330
37
100
AcDbDictionary
280
     1
281
     1
  3
ACAD_XREC_ROUNDTRIP
360
185
  0
DICTIONARY
  5
196
330
40
100
AcDbDictionary
280
     1
281
     1
  3
ACAD_XREC_ROUNDTRIP
360
197
  0
DICTIONARY
  5
17C
330
33
100
AcDbDictionary
280
     1
281
     1
  3
ACAD_XREC_ROUNDTRIP
360
17D
  0
DICTIONARY
  5
192
330
3E
100
AcDbDictionary
280
     1
281
     1
  3
ACAD_XREC_ROUNDTRIP
360
193
  0
DICTIONARY
  5
190
330
3D
100
AcDbDictionary
280
     1
281
     1
  3
ACAD_XREC_ROUNDTRIP
360
191
  0
DICTIONARY
  5
18A
330
3A
100
AcDbDictionary
280
     1
281
     1
  3
ACAD_XREC_ROUNDTRIP
360
18B
  0
DICTIONARY
  5
18C
330
3B
100
AcDbDictionary
280
     1
281
     1
  3
ACAD_XREC_ROUNDTRIP
360
18D
  0
DICTIONARY
  5
182
330
36
100
AcDbDictionary
280
     1
281
     1
  3
ACAD_XREC_ROUNDTRIP
360
183
  0
DICTIONARY
  5
176
330
30
100
AcDbDictionary
280
     1
281
     1
  3
ACAD_XREC_ROUNDTRIP
360
177
  0
DICTIONARY
  5
18E
330
3C
100
AcDbDictionary
280
     1
281
     1
  3
ACAD_XREC_ROUNDTRIP
360
18F
  0
XRECORD
  5
19F
102
{ACAD_REACTORS
330
19E
102
}
330
19E
100
AcDbXrecord
280
     1
102
DISPLAYNAME
  1
Imperial24
102
FLAGS
 90
        0
  0
XRECORD
  5
1C
102
{ACAD_REACTORS
330
1A
102
}
330
1A
100
AcDbXrecord
280
     1
270
     1
271
     1
  0
XRECORD
  5
1B
102
{ACAD_REACTORS
330
1A
102
}
330
1A
100
AcDbXrecord
280
     1
270
     1
271
     1
  0
XRECORD
  5
1F
102
{ACAD_REACTORS
330
1A
102
}
330
1A
100
AcDbXrecord
280
     1
270
     1
271
     1
  0
XRECORD
  5
1E
102
{ACAD_REACTORS
330
1A
102
}
330
1A
100
AcDbXrecord
280
     1
270
     1
271
     1
  0
XRECORD
  5
20
102
{ACAD_REACTORS
330
1A
102
}
330
1A
100
AcDbXrecord
280
     1
270
     1
271
     1
  0
XRECORD
  5
1D
102
{ACAD_REACTORS
330
1A
102
}
330
1A
100
AcDbXrecord
280
     1
270
     1
271
     1
  0
XRECORD
  5
14
102
{ACAD_REACTORS
330
12
102
}
330
12
100
AcDbXrecord
280
     1
270
     1
271
     1
  0
XRECORD
  5
13
102
{ACAD_REACTORS
330
12
102
}
330
12
100
AcDbXrecord
280
     1
270
     1
271
     1
  0
XRECORD
  5
17
102
{ACAD_REACTORS
330
12
102
}
330
12
100
AcDbXrecord
280
     1
270
     1
271
     1
  0
XRECORD
  5
16
102
{ACAD_REACTORS
330
12
102
}
330
12
100
AcDbXrecord
280
     1
270
     1
271
     1
  0
XRECORD
  5
18
102
{ACAD_REACTORS
330
12
102
}
330
12
100
AcDbXrecord
280
     1
270
     1
271
     1
  0
XRECORD
  5
15
102
{ACAD_REACTORS
330
12
102
}
330
12
100
AcDbXrecord
280
     1
270
     1
271
     1
  0
XRECORD
  5
24
102
{ACAD_REACTORS
330
22
102
}
330
22
100
AcDbXrecord
280
     1
270
     1
271
     1
  0
XRECORD
  5
23
102
{ACAD_REACTORS
330
22
102
}
330
22
100
AcDbXrecord
280
     1
270
     1
271
     1
  0
XRECORD
  5
27
102
{ACAD_REACTORS
330
22
102
}
330
22
100
AcDbXrecord
280
     1
270
     1
271
     1
  0
XRECORD
  5
26
102
{ACAD_REACTORS
330
22
102
}
330
22
100
AcDbXrecord
280
     1
270
     1
271
     1
  0
XRECORD
  5
28
102
{ACAD_REACTORS
330
22
102
}
330
22
100
AcDbXrecord
280
     1
270
     1
271
     1
  0
XRECORD
  5
25
102
{ACAD_REACTORS
330
22
102
}
330
22
100
AcDbXrecord
280
     1
270
     1
271
     1
  0
XRECORD
  5
19B
102
{ACAD_REACTORS
330
19A
102
}
330
19A
100
AcDbXrecord
280
     1
102
ACAD_ROUNDTRIP_2012_MLEADER_STYLE
298
     1
  0
XRECORD
  5
19D
102
{ACAD_REACTORS
330
19C
102
}
330
19C
100
AcDbXrecord
280
     1
102
DISPLAYNAME
  1
Imperial24
102
FLAGS
 90
        0
  0
CELLSTYLEMAP
  5
168
102
{ACAD_REACTORS
330
167
102
}
330
167
100
AcDbCellStyleMap
 90
        3
300
CELLSTYLE
  1
TABLEFORMAT_BEGIN
 90
        5
170
     1
 91
        0
 92
    32768
 62
   257
 93
        1
300
CONTENTFORMAT
  1
CONTENTFORMAT_BEGIN
 90
        0
 91
        0
 92
      512
 93
        0
300

 40
0.0
140
1.0
 94
        5
 62
     0
340
55
144
0.25
309
CONTENTFORMAT_END
171
     0
 94
        0
309
TABLEFORMAT_END
  1
CELLSTYLE_BEGIN
 90
        1
 91
        1
300
_TITLE
309
CELLSTYLE_END
300
CELLSTYLE
  1
TABLEFORMAT_BEGIN
 90
        5
170
     1
 91
        0
 92
        0
 62
   257
 93
        1
300
CONTENTFORMAT
  1
CONTENTFORMAT_BEGIN
 90
        0
 91
        0
 92
      512
 93
        0
300

 40
0.0
140
1.0
 94
        5
 62
     0
340
55
144
0.18
309
CONTENTFORMAT_END
171
     0
 94
        0
309
TABLEFORMAT_END
  1
CELLSTYLE_BEGIN
 90
        2
 91
        1
300
_HEADER
309
CELLSTYLE_END
300
CELLSTYLE
  1
TABLEFORMAT_BEGIN
 90
        5
170
     1
 91
        0
 92
        0
 62
   257
 93
        1
300
CONTENTFORMAT
  1
CONTENTFORMAT_BEGIN
 90
        0
 91
        0
 92
      512
 93
        0
300

 40
0.0
140
1.0
 94
        2
 62
     0
340
55
144
0.18
309
CONTENTFORMAT_END
171
     0
 94
        0
309
TABLEFORMAT_END
  1
CELLSTYLE_BEGIN
 90
        3
 91
        2
300
_DATA
309
CELLSTYLE_END
  0
XRECORD
  5
175
102
{ACAD_REACTORS
330
174
102
}
330
174
100
AcDbXrecord
280
     1
102
RTVSPost2010Prop28
280
     1
102
RTVSPost2010PropOp28
 70
     1
102
RTVSPost2010Prop29
280
     1
102
RTVSPost2010PropOp29
 70
     1
102
RTVSPost2010Prop30
280
     0
102
RTVSPost2010PropOp30
 70
     1
102
RTVSPost2010Prop31
280
     0
102
RTVSPost2010PropOp31
 70
     1
102
RTVSPost2010Prop32
280
     0
102
RTVSPost2010PropOp32
 70
     1
102
RTVSPost2010Prop33
280
     0
102
RTVSPost2010PropOp33
 70
     1
102
RTVSPost2010Prop34
280
     0
102
RTVSPost2010PropOp34
 70
     1
102
RTVSPost2010Prop35
280
     0
102
RTVSPost2010PropOp35
 70
     1
102
RTVSPost2010Prop36
280
     0
102
RTVSPost2010PropOp36
 70
     1
102
RTVSPost2010Prop37
 90
       50
102
RTVSPost2010PropOp37
 70
     1
102
RTVSPost2010Prop38
140
0.0
102
RTVSPost2010PropOp38
 70
     1
102
RTVSPost2010Prop39
140
1.0
102
RTVSPost2010PropOp39
 70
     1
102
RTVSPost2010Prop40
 90
        0
102
RTVSPost2010PropOp40
 70
     1
102
RTVSPost2010Prop41ColorIndex
 90
       18
102
RTVSPost2010Prop41ColorRGB
 90
        0
102
RTVSPost2010PropOp41
 70
     1
102
RTVSPost2010Prop42
 90
       50
102
RTVSPost2010PropOp42
 70
     1
102
RTVSPost2010Prop43
 90
        3
102
RTVSPost2010PropOp43
 70
     1
102
RTVSPost2010Prop44ColorIndex
 90
        5
102
RTVSPost2010Prop44ColorRGB
 90
      255
102
RTVSPost2010PropOp44
 70
     1
102
RTVSPost2010Prop45
280
     0
102
RTVSPost2010PropOp45
 70
     1
102
RTVSPost2010Prop46
 90
       50
102
RTVSPost2010PropOp46
 70
     1
102
RTVSPost2010Prop47
 90
       50
102
RTVSPost2010PropOp47
 70
     1
102
RTVSPost2010Prop48
 90
       50
102
RTVSPost2010PropOp48
 70
     1
102
RTVSPost2010Prop49
280
     0
102
RTVSPost2010PropOp49
 70
     1
102
RTVSPost2010Prop50
 90
       50
102
RTVSPost2010PropOp50
 70
     1
102
RTVSPost2010Prop51ColorIndex
 90
      256
102
RTVSPost2010Prop51ColorRGB
 90
-16777216
102
RTVSPost2010PropOp51
 70
     0
102
RTVSPost2010Prop52
140
1.0
102
RTVSPost2010PropOp52
 70
     0
102
RTVSPost2010Prop53
 90
        2
102
RTVSPost2010PropOp53
 70
     1
102
RTVSPost2010Prop54
  1
strokes_ogs.tif
102
RTVSPost2010PropOp54
 70
     1
102
RTVSPost2010Prop55
280
     0
102
RTVSPost2010PropOp55
 70
     1
102
RTVSPost2010Prop56
140
1.0
102
RTVSPost2010PropOp56
 70
     1
102
RTVSPost2010Prop57
140
1.0
102
RTVSPost2010PropOp57
 70
     1
  0
XRECORD
  5
173
102
{ACAD_REACTORS
330
172
102
}
330
172
100
AcDbXrecord
280
     1
102
RTVSPost2010Prop28
280
     0
102
RTVSPost2010PropOp28
 70
     1
102
RTVSPost2010Prop29
280
     1
102
RTVSPost2010PropOp29
 70
     1
102
RTVSPost2010Prop30
280
     1
102
RTVSPost2010PropOp30
 70
     1
102
RTVSPost2010Prop31
280
     0
102
RTVSPost2010PropOp31
 70
     1
102
RTVSPost2010Prop32
280
     0
102
RTVSPost2010PropOp32
 70
     1
102
RTVSPost2010Prop33
280
     0
102
RTVSPost2010PropOp33
 70
     1
102
RTVSPost2010Prop34
280
     0
102
RTVSPost2010PropOp34
 70
     1
102
RTVSPost2010Prop35
280
     0
102
RTVSPost2010PropOp35
 70
     1
102
RTVSPost2010Prop36
280
     0
102
RTVSPost2010PropOp36
 70
     1
102
RTVSPost2010Prop37
 90
       50
102
RTVSPost2010PropOp37
 70
     1
102
RTVSPost2010Prop38
140
0.0
102
RTVSPost2010PropOp38
 70
     1
102
RTVSPost2010Prop39
140
1.0
102
RTVSPost2010PropOp39
 70
     1
102
RTVSPost2010Prop40
 90
        0
102
RTVSPost2010PropOp40
 70
     1
102
RTVSPost2010Prop41ColorIndex
 90
       18
102
RTVSPost2010Prop41ColorRGB
 90
        0
102
RTVSPost2010PropOp41
 70
     1
102
RTVSPost2010Prop42
 90
       50
102
RTVSPost2010PropOp42
 70
     1
102
RTVSPost2010Prop43
 90
        3
102
RTVSPost2010PropOp43
 70
     1
102
RTVSPost2010Prop44ColorIndex
 90
        5
102
RTVSPost2010Prop44ColorRGB
 90
      255
102
RTVSPost2010PropOp44
 70
     1
102
RTVSPost2010Prop45
280
     0
102
RTVSPost2010PropOp45
 70
     1
102
RTVSPost2010Prop46
 90
       50
102
RTVSPost2010PropOp46
 70
     1
102
RTVSPost2010Prop47
 90
       50
102
RTVSPost2010PropOp47
 70
     1
102
RTVSPost2010Prop48
 90
       50
102
RTVSPost2010PropOp48
 70
     1
102
RTVSPost2010Prop49
280
     0
102
RTVSPost2010PropOp49
 70
     1
102
RTVSPost2010Prop50
 90
       50
102
RTVSPost2010PropOp50
 70
     1
102
RTVSPost2010Prop51ColorIndex
 90
      256
102
RTVSPost2010Prop51ColorRGB
 90
-16777216
102
RTVSPost2010PropOp51
 70
     0
102
RTVSPost2010Prop52
140
1.0
102
RTVSPost2010PropOp52
 70
     0
102
RTVSPost2010Prop53
 90
        2
102
RTVSPost2010PropOp53
 70
     1
102
RTVSPost2010Prop54
  1
strokes_ogs.tif
102
RTVSPost2010PropOp54
 70
     1
102
RTVSPost2010Prop55
280
     0
102
RTVSPost2010PropOp55
 70
     1
102
RTVSPost2010Prop56
140
1.0
102
RTVSPost2010PropOp56
 70
     1
102
RTVSPost2010Prop57
140
1.0
102
RTVSPost2010PropOp57
 70
     1
  0
XRECORD
  5
181
102
{ACAD_REACTORS
330
180
102
}
330
180
100
AcDbXrecord
280
     1
102
RTVSPost2010Prop28
280
     0
102
RTVSPost2010PropOp28
 70
     1
102
RTVSPost2010Prop29
280
     1
102
RTVSPost2010PropOp29
 70
     1
102
RTVSPost2010Prop30
280
     1
102
RTVSPost2010PropOp30
 70
     1
102
RTVSPost2010Prop31
280
     0
102
RTVSPost2010PropOp31
 70
     1
102
RTVSPost2010Prop32
280
     0
102
RTVSPost2010PropOp32
 70
     1
102
RTVSPost2010Prop33
280
     0
102
RTVSPost2010PropOp33
 70
     1
102
RTVSPost2010Prop34
280
     0
102
RTVSPost2010PropOp34
 70
     1
102
RTVSPost2010Prop35
280
     0
102
RTVSPost2010PropOp35
 70
     1
102
RTVSPost2010Prop36
280
     0
102
RTVSPost2010PropOp36
 70
     1
102
RTVSPost2010Prop37
 90
       50
102
RTVSPost2010PropOp37
 70
     1
102
RTVSPost2010Prop38
140
0.0
102
RTVSPost2010PropOp38
 70
     1
102
RTVSPost2010Prop39
140
1.0
102
RTVSPost2010PropOp39
 70
     1
102
RTVSPost2010Prop40
 90
        0
102
RTVSPost2010PropOp40
 70
     1
102
RTVSPost2010Prop41ColorIndex
 90
       18
102
RTVSPost2010Prop41ColorRGB
 90
        0
102
RTVSPost2010PropOp41
 70
     1
102
RTVSPost2010Prop42
 90
       50
102
RTVSPost2010PropOp42
 70
     1
102
RTVSPost2010Prop43
 90
        3
102
RTVSPost2010PropOp43
 70
     1
102
RTVSPost2010Prop44ColorIndex
 90
        5
102
RTVSPost2010Prop44ColorRGB
 90
      255
102
RTVSPost2010PropOp44
 70
     1
102
RTVSPost2010Prop45
280
     0
102
RTVSPost2010PropOp45
 70
     1
102
RTVSPost2010Prop46
 90
       50
102
RTVSPost2010PropOp46
 70
     1
102
RTVSPost2010Prop47
 90
       50
102
RTVSPost2010PropOp47
 70
     1
102
RTVSPost2010Prop48
 90
       50
102
RTVSPost2010PropOp48
 70
     1
102
RTVSPost2010Prop49
280
     0
102
RTVSPost2010PropOp49
 70
     1
102
RTVSPost2010Prop50
 90
       50
102
RTVSPost2010PropOp50
 70
     1
102
RTVSPost2010Prop51ColorIndex
 90
      256
102
RTVSPost2010Prop51ColorRGB
 90
-16777216
102
RTVSPost2010PropOp51
 70
     0
102
RTVSPost2010Prop52
140
1.0
102
RTVSPost2010PropOp52
 70
     0
102
RTVSPost2010Prop53
 90
        2
102
RTVSPost2010PropOp53
 70
     1
102
RTVSPost2010Prop54
  1
strokes_ogs.tif
102
RTVSPost2010PropOp54
 70
     1
102
RTVSPost2010Prop55
280
     0
102
RTVSPost2010PropOp55
 70
     1
102
RTVSPost2010Prop56
140
1.0
102
RTVSPost2010PropOp56
 70
     1
102
RTVSPost2010Prop57
140
1.0
102
RTVSPost2010PropOp57
 70
     1
  0
XRECORD
  5
189
102
{ACAD_REACTORS
330
188
102
}
330
188
100
AcDbXrecord
280
     1
102
RTVSPost2010Prop28
280
     0
102
RTVSPost2010PropOp28
 70
     1
102
RTVSPost2010Prop29
280
     1
102
RTVSPost2010PropOp29
 70
     1
102
RTVSPost2010Prop30
280
     1
102
RTVSPost2010PropOp30
 70
     1
102
RTVSPost2010Prop31
280
     0
102
RTVSPost2010PropOp31
 70
     1
102
RTVSPost2010Prop32
280
     0
102
RTVSPost2010PropOp32
 70
     1
102
RTVSPost2010Prop33
280
     0
102
RTVSPost2010PropOp33
 70
     1
102
RTVSPost2010Prop34
280
     0
102
RTVSPost2010PropOp34
 70
     1
102
RTVSPost2010Prop35
280
     0
102
RTVSPost2010PropOp35
 70
     1
102
RTVSPost2010Prop36
280
     0
102
RTVSPost2010PropOp36
 70
     1
102
RTVSPost2010Prop37
 90
       50
102
RTVSPost2010PropOp37
 70
     1
102
RTVSPost2010Prop38
140
0.0
102
RTVSPost2010PropOp38
 70
     1
102
RTVSPost2010Prop39
140
1.0
102
RTVSPost2010PropOp39
 70
     1
102
RTVSPost2010Prop40
 90
        0
102
RTVSPost2010PropOp40
 70
     1
102
RTVSPost2010Prop41ColorIndex
 90
       18
102
RTVSPost2010Prop41ColorRGB
 90
        0
102
RTVSPost2010PropOp41
 70
     1
102
RTVSPost2010Prop42
 90
       50
102
RTVSPost2010PropOp42
 70
     1
102
RTVSPost2010Prop43
 90
        3
102
RTVSPost2010PropOp43
 70
     1
102
RTVSPost2010Prop44ColorIndex
 90
        5
102
RTVSPost2010Prop44ColorRGB
 90
      255
102
RTVSPost2010PropOp44
 70
     1
102
RTVSPost2010Prop45
280
     0
102
RTVSPost2010PropOp45
 70
     1
102
RTVSPost2010Prop46
 90
       50
102
RTVSPost2010PropOp46
 70
     1
102
RTVSPost2010Prop47
 90
       50
102
RTVSPost2010PropOp47
 70
     1
102
RTVSPost2010Prop48
 90
       50
102
RTVSPost2010PropOp48
 70
     1
102
RTVSPost2010Prop49
280
     0
102
RTVSPost2010PropOp49
 70
     1
102
RTVSPost2010Prop50
 90
       50
102
RTVSPost2010PropOp50
 70
     1
102
RTVSPost2010Prop51ColorIndex
 90
      256
102
RTVSPost2010Prop51ColorRGB
 90
-16777216
102
RTVSPost2010PropOp51
 70
     0
102
RTVSPost2010Prop52
140
1.0
102
RTVSPost2010PropOp52
 70
     0
102
RTVSPost2010Prop53
 90
        2
102
RTVSPost2010PropOp53
 70
     1
102
RTVSPost2010Prop54
  1
strokes_ogs.tif
102
RTVSPost2010PropOp54
 70
     1
102
RTVSPost2010Prop55
280
     0
102
RTVSPost2010PropOp55
 70
     1
102
RTVSPost2010Prop56
140
1.0
102
RTVSPost2010PropOp56
 70
     1
102
RTVSPost2010Prop57
140
1.0
102
RTVSPost2010PropOp57
 70
     1
  0
XRECORD
  5
17B
102
{ACAD_REACTORS
330
17A
102
}
330
17A
100
AcDbXrecord
280
     1
102
RTVSPost2010Prop28
280
     0
102
RTVSPost2010PropOp28
 70
     1
102
RTVSPost2010Prop29
280
     1
102
RTVSPost2010PropOp29
 70
     1
102
RTVSPost2010Prop30
280
     1
102
RTVSPost2010PropOp30
 70
     1
102
RTVSPost2010Prop31
280
     0
102
RTVSPost2010PropOp31
 70
     1
102
RTVSPost2010Prop32
280
     0
102
RTVSPost2010PropOp32
 70
     1
102
RTVSPost2010Prop33
280
     0
102
RTVSPost2010PropOp33
 70
     1
102
RTVSPost2010Prop34
280
     0
102
RTVSPost2010PropOp34
 70
     1
102
RTVSPost2010Prop35
280
     0
102
RTVSPost2010PropOp35
 70
     1
102
RTVSPost2010Prop36
280
     0
102
RTVSPost2010PropOp36
 70
     1
102
RTVSPost2010Prop37
 90
       50
102
RTVSPost2010PropOp37
 70
     1
102
RTVSPost2010Prop38
140
0.0
102
RTVSPost2010PropOp38
 70
     1
102
RTVSPost2010Prop39
140
1.0
102
RTVSPost2010PropOp39
 70
     1
102
RTVSPost2010Prop40
 90
        0
102
RTVSPost2010PropOp40
 70
     1
102
RTVSPost2010Prop41ColorIndex
 90
       18
102
RTVSPost2010Prop41ColorRGB
 90
        0
102
RTVSPost2010PropOp41
 70
     1
102
RTVSPost2010Prop42
 90
       50
102
RTVSPost2010PropOp42
 70
     1
102
RTVSPost2010Prop43
 90
        3
102
RTVSPost2010PropOp43
 70
     1
102
RTVSPost2010Prop44ColorIndex
 90
        5
102
RTVSPost2010Prop44ColorRGB
 90
      255
102
RTVSPost2010PropOp44
 70
     1
102
RTVSPost2010Prop45
280
     0
102
RTVSPost2010PropOp45
 70
     1
102
RTVSPost2010Prop46
 90
       50
102
RTVSPost2010PropOp46
 70
     1
102
RTVSPost2010Prop47
 90
       50
102
RTVSPost2010PropOp47
 70
     1
102
RTVSPost2010Prop48
 90
       50
102
RTVSPost2010PropOp48
 70
     1
102
RTVSPost2010Prop49
280
     0
102
RTVSPost2010PropOp49
 70
     1
102
RTVSPost2010Prop50
 90
       50
102
RTVSPost2010PropOp50
 70
     1
102
RTVSPost2010Prop51ColorIndex
 90
      256
102
RTVSPost2010Prop51ColorRGB
 90
-16777216
102
RTVSPost2010PropOp51
 70
     0
102
RTVSPost2010Prop52
140
1.0
102
RTVSPost2010PropOp52
 70
     0
102
RTVSPost2010Prop53
 90
        2
102
RTVSPost2010PropOp53
 70
     1
102
RTVSPost2010Prop54
  1
strokes_ogs.tif
102
RTVSPost2010PropOp54
 70
     1
102
RTVSPost2010Prop55
280
     0
102
RTVSPost2010PropOp55
 70
     1
102
RTVSPost2010Prop56
140
1.0
102
RTVSPost2010PropOp56
 70
     1
102
RTVSPost2010Prop57
140
1.0
102
RTVSPost2010PropOp57
 70
     1
  0
XRECORD
  5
17F
102
{ACAD_REACTORS
330
17E
102
}
330
17E
100
AcDbXrecord
280
     1
102
RTVSPost2010Prop28
280
     0
102
RTVSPost2010PropOp28
 70
     1
102
RTVSPost2010Prop29
280
     1
102
RTVSPost2010PropOp29
 70
     1
102
RTVSPost2010Prop30
280
     1
102
RTVSPost2010PropOp30
 70
     1
102
RTVSPost2010Prop31
280
     0
102
RTVSPost2010PropOp31
 70
     1
102
RTVSPost2010Prop32
280
     0
102
RTVSPost2010PropOp32
 70
     1
102
RTVSPost2010Prop33
280
     0
102
RTVSPost2010PropOp33
 70
     1
102
RTVSPost2010Prop34
280
     0
102
RTVSPost2010PropOp34
 70
     1
102
RTVSPost2010Prop35
280
     0
102
RTVSPost2010PropOp35
 70
     1
102
RTVSPost2010Prop36
280
     0
102
RTVSPost2010PropOp36
 70
     1
102
RTVSPost2010Prop37
 90
       50
102
RTVSPost2010PropOp37
 70
     1
102
RTVSPost2010Prop38
140
0.0
102
RTVSPost2010PropOp38
 70
     1
102
RTVSPost2010Prop39
140
1.0
102
RTVSPost2010PropOp39
 70
     1
102
RTVSPost2010Prop40
 90
        0
102
RTVSPost2010PropOp40
 70
     1
102
RTVSPost2010Prop41ColorIndex
 90
       18
102
RTVSPost2010Prop41ColorRGB
 90
        0
102
RTVSPost2010PropOp41
 70
     1
102
RTVSPost2010Prop42
 90
       50
102
RTVSPost2010PropOp42
 70
     1
102
RTVSPost2010Prop43
 90
        3
102
RTVSPost2010PropOp43
 70
     1
102
RTVSPost2010Prop44ColorIndex
 90
        5
102
RTVSPost2010Prop44ColorRGB
 90
      255
102
RTVSPost2010PropOp44
 70
     1
102
RTVSPost2010Prop45
280
     0
102
RTVSPost2010PropOp45
 70
     1
102
RTVSPost2010Prop46
 90
       50
102
RTVSPost2010PropOp46
 70
     1
102
RTVSPost2010Prop47
 90
       50
102
RTVSPost2010PropOp47
 70
     1
102
RTVSPost2010Prop48
 90
       50
102
RTVSPost2010PropOp48
 70
     1
102
RTVSPost2010Prop49
280
     0
102
RTVSPost2010PropOp49
 70
     1
102
RTVSPost2010Prop50
 90
       50
102
RTVSPost2010PropOp50
 70
     1
102
RTVSPost2010Prop51ColorIndex
 90
      256
102
RTVSPost2010Prop51ColorRGB
 90
-16777216
102
RTVSPost2010PropOp51
 70
     0
102
RTVSPost2010Prop52
140
1.0
102
RTVSPost2010PropOp52
 70
     0
102
RTVSPost2010Prop53
 90
        2
102
RTVSPost2010PropOp53
 70
     1
102
RTVSPost2010Prop54
  1
strokes_ogs.tif
102
RTVSPost2010PropOp54
 70
     1
102
RTVSPost2010Prop55
280
     0
102
RTVSPost2010PropOp55
 70
     1
102
RTVSPost2010Prop56
140
1.0
102
RTVSPost2010PropOp56
 70
     1
102
RTVSPost2010Prop57
140
1.0
102
RTVSPost2010PropOp57
 70
     1
  0
XRECORD
  5
199
102
{ACAD_REACTORS
330
198
102
}
330
198
100
AcDbXrecord
280
     1
102
RTVSPost2010Prop28
280
     0
102
RTVSPost2010PropOp28
 70
     0
102
RTVSPost2010Prop29
280
     1
102
RTVSPost2010PropOp29
 70
     0
102
RTVSPost2010Prop30
280
     1
102
RTVSPost2010PropOp30
 70
     0
102
RTVSPost2010Prop31
280
     0
102
RTVSPost2010PropOp31
 70
     0
102
RTVSPost2010Prop32
280
     0
102
RTVSPost2010PropOp32
 70
     0
102
RTVSPost2010Prop33
280
     0
102
RTVSPost2010PropOp33
 70
     0
102
RTVSPost2010Prop34
280
     0
102
RTVSPost2010PropOp34
 70
     0
102
RTVSPost2010Prop35
280
     0
102
RTVSPost2010PropOp35
 70
     0
102
RTVSPost2010Prop36
280
     0
102
RTVSPost2010PropOp36
 70
     0
102
RTVSPost2010Prop37
 90
       50
102
RTVSPost2010PropOp37
 70
     0
102
RTVSPost2010Prop38
140
0.0
102
RTVSPost2010PropOp38
 70
     0
102
RTVSPost2010Prop39
140
1.0
102
RTVSPost2010PropOp39
 70
     0
102
RTVSPost2010Prop40
 90
        0
102
RTVSPost2010PropOp40
 70
     0
102
RTVSPost2010Prop41ColorIndex
 90
       18
102
RTVSPost2010Prop41ColorRGB
 90
        0
102
RTVSPost2010PropOp41
 70
     0
102
RTVSPost2010Prop42
 90
       50
102
RTVSPost2010PropOp42
 70
     0
102
RTVSPost2010Prop43
 90
        3
102
RTVSPost2010PropOp43
 70
     0
102
RTVSPost2010Prop44ColorIndex
 90
        5
102
RTVSPost2010Prop44ColorRGB
 90
      255
102
RTVSPost2010PropOp44
 70
     0
102
RTVSPost2010Prop45
280
     0
102
RTVSPost2010PropOp45
 70
     0
102
RTVSPost2010Prop46
 90
       50
102
RTVSPost2010PropOp46
 70
     0
102
RTVSPost2010Prop47
 90
       50
102
RTVSPost2010PropOp47
 70
     0
102
RTVSPost2010Prop48
 90
       50
102
RTVSPost2010PropOp48
 70
     0
102
RTVSPost2010Prop49
280
     0
102
RTVSPost2010PropOp49
 70
     0
102
RTVSPost2010Prop50
 90
       50
102
RTVSPost2010PropOp50
 70
     0
102
RTVSPost2010Prop51ColorIndex
 90
      256
102
RTVSPost2010Prop51ColorRGB
 90
-16777216
102
RTVSPost2010PropOp51
 70
     0
102
RTVSPost2010Prop52
140
1.0
102
RTVSPost2010PropOp52
 70
     0
102
RTVSPost2010Prop53
 90
        2
102
RTVSPost2010PropOp53
 70
     0
102
RTVSPost2010Prop54
  1
strokes_ogs.tif
102
RTVSPost2010PropOp54
 70
     0
102
RTVSPost2010Prop55
280
     0
102
RTVSPost2010PropOp55
 70
     0
102
RTVSPost2010Prop56
140
1.0
102
RTVSPost2010PropOp56
 70
     0
102
RTVSPost2010Prop57
140
1.0
102
RTVSPost2010PropOp57
 70
     0
  0
XRECORD
  5
187
102
{ACAD_REACTORS
330
186
102
}
330
186
100
AcDbXrecord
280
     1
102
RTVSPost2010Prop28
280
     0
102
RTVSPost2010PropOp28
 70
     1
102
RTVSPost2010Prop29
280
     1
102
RTVSPost2010PropOp29
 70
     1
102
RTVSPost2010Prop30
280
     1
102
RTVSPost2010PropOp30
 70
     1
102
RTVSPost2010Prop31
280
     0
102
RTVSPost2010PropOp31
 70
     1
102
RTVSPost2010Prop32
280
     0
102
RTVSPost2010PropOp32
 70
     1
102
RTVSPost2010Prop33
280
     0
102
RTVSPost2010PropOp33
 70
     1
102
RTVSPost2010Prop34
280
     0
102
RTVSPost2010PropOp34
 70
     1
102
RTVSPost2010Prop35
280
     0
102
RTVSPost2010PropOp35
 70
     1
102
RTVSPost2010Prop36
280
     0
102
RTVSPost2010PropOp36
 70
     1
102
RTVSPost2010Prop37
 90
       50
102
RTVSPost2010PropOp37
 70
     1
102
RTVSPost2010Prop38
140
0.0
102
RTVSPost2010PropOp38
 70
     1
102
RTVSPost2010Prop39
140
1.0
102
RTVSPost2010PropOp39
 70
     1
102
RTVSPost2010Prop40
 90
        0
102
RTVSPost2010PropOp40
 70
     1
102
RTVSPost2010Prop41ColorIndex
 90
       18
102
RTVSPost2010Prop41ColorRGB
 90
        0
102
RTVSPost2010PropOp41
 70
     1
102
RTVSPost2010Prop42
 90
       50
102
RTVSPost2010PropOp42
 70
     1
102
RTVSPost2010Prop43
 90
        3
102
RTVSPost2010PropOp43
 70
     1
102
RTVSPost2010Prop44ColorIndex
 90
        5
102
RTVSPost2010Prop44ColorRGB
 90
      255
102
RTVSPost2010PropOp44
 70
     1
102
RTVSPost2010Prop45
280
     0
102
RTVSPost2010PropOp45
 70
     1
102
RTVSPost2010Prop46
 90
       50
102
RTVSPost2010PropOp46
 70
     1
102
RTVSPost2010Prop47
 90
       50
102
RTVSPost2010PropOp47
 70
     1
102
RTVSPost2010Prop48
 90
       50
102
RTVSPost2010PropOp48
 70
     1
102
RTVSPost2010Prop49
280
     0
102
RTVSPost2010PropOp49
 70
     1
102
RTVSPost2010Prop50
 90
       50
102
RTVSPost2010PropOp50
 70
     1
102
RTVSPost2010Prop51ColorIndex
 90
      256
102
RTVSPost2010Prop51ColorRGB
 90
-16777216
102
RTVSPost2010PropOp51
 70
     0
102
RTVSPost2010Prop52
140
1.0
102
RTVSPost2010PropOp52
 70
     0
102
RTVSPost2010Prop53
 90
        2
102
RTVSPost2010PropOp53
 70
     1
102
RTVSPost2010Prop54
  1
strokes_ogs.tif
102
RTVSPost2010PropOp54
 70
     1
102
RTVSPost2010Prop55
280
     0
102
RTVSPost2010PropOp55
 70
     1
102
RTVSPost2010Prop56
140
1.0
102
RTVSPost2010PropOp56
 70
     1
102
RTVSPost2010Prop57
140
1.0
102
RTVSPost2010PropOp57
 70
     1
  0
XRECORD
  5
16B
102
{ACAD_REACTORS
330
16A
102
}
330
16A
100
AcDbXrecord
280
     1
102
RTVSPost2010Prop28
280
     0
102
RTVSPost2010PropOp28
 70
     1
102
RTVSPost2010Prop29
280
     1
102
RTVSPost2010PropOp29
 70
     1
102
RTVSPost2010Prop30
280
     1
102
RTVSPost2010PropOp30
 70
     1
102
RTVSPost2010Prop31
280
     0
102
RTVSPost2010PropOp31
 70
     1
102
RTVSPost2010Prop32
280
     0
102
RTVSPost2010PropOp32
 70
     1
102
RTVSPost2010Prop33
280
     0
102
RTVSPost2010PropOp33
 70
     1
102
RTVSPost2010Prop34
280
     0
102
RTVSPost2010PropOp34
 70
     1
102
RTVSPost2010Prop35
280
     0
102
RTVSPost2010PropOp35
 70
     1
102
RTVSPost2010Prop36
280
     0
102
RTVSPost2010PropOp36
 70
     1
102
RTVSPost2010Prop37
 90
       50
102
RTVSPost2010PropOp37
 70
     1
102
RTVSPost2010Prop38
140
0.0
102
RTVSPost2010PropOp38
 70
     1
102
RTVSPost2010Prop39
140
1.0
102
RTVSPost2010PropOp39
 70
     1
102
RTVSPost2010Prop40
 90
        0
102
RTVSPost2010PropOp40
 70
     1
102
RTVSPost2010Prop41ColorIndex
 90
       18
102
RTVSPost2010Prop41ColorRGB
 90
        0
102
RTVSPost2010PropOp41
 70
     1
102
RTVSPost2010Prop42
 90
       50
102
RTVSPost2010PropOp42
 70
     1
102
RTVSPost2010Prop43
 90
        3
102
RTVSPost2010PropOp43
 70
     1
102
RTVSPost2010Prop44ColorIndex
 90
        5
102
RTVSPost2010Prop44ColorRGB
 90
      255
102
RTVSPost2010PropOp44
 70
     1
102
RTVSPost2010Prop45
280
     0
102
RTVSPost2010PropOp45
 70
     1
102
RTVSPost2010Prop46
 90
       50
102
RTVSPost2010PropOp46
 70
     1
102
RTVSPost2010Prop47
 90
       50
102
RTVSPost2010PropOp47
 70
     1
102
RTVSPost2010Prop48
 90
       50
102
RTVSPost2010PropOp48
 70
     1
102
RTVSPost2010Prop49
280
     0
102
RTVSPost2010PropOp49
 70
     1
102
RTVSPost2010Prop50
 90
       50
102
RTVSPost2010PropOp50
 70
     1
102
RTVSPost2010Prop51ColorIndex
 90
      256
102
RTVSPost2010Prop51ColorRGB
 90
-16777216
102
RTVSPost2010PropOp51
 70
     0
102
RTVSPost2010Prop52
140
1.0
102
RTVSPost2010PropOp52
 70
     0
102
RTVSPost2010Prop53
 90
        2
102
RTVSPost2010PropOp53
 70
     1
102
RTVSPost2010Prop54
  1
strokes_ogs.tif
102
RTVSPost2010PropOp54
 70
     1
102
RTVSPost2010Prop55
280
     0
102
RTVSPost2010PropOp55
 70
     1
102
RTVSPost2010Prop56
140
1.0
102
RTVSPost2010PropOp56
 70
     1
102
RTVSPost2010Prop57
140
1.0
102
RTVSPost2010PropOp57
 70
     1
  0
XRECORD
  5
16D
102
{ACAD_REACTORS
330
16C
102
}
330
16C
100
AcDbXrecord
280
     1
102
RTVSPost2010Prop28
280
     0
102
RTVSPost2010PropOp28
 70
     1
102
RTVSPost2010Prop29
280
     1
102
RTVSPost2010PropOp29
 70
     1
102
RTVSPost2010Prop30
280
     1
102
RTVSPost2010PropOp30
 70
     1
102
RTVSPost2010Prop31
280
     0
102
RTVSPost2010PropOp31
 70
     1
102
RTVSPost2010Prop32
280
     0
102
RTVSPost2010PropOp32
 70
     1
102
RTVSPost2010Prop33
280
     0
102
RTVSPost2010PropOp33
 70
     1
102
RTVSPost2010Prop34
280
     0
102
RTVSPost2010PropOp34
 70
     1
102
RTVSPost2010Prop35
280
     0
102
RTVSPost2010PropOp35
 70
     1
102
RTVSPost2010Prop36
280
     0
102
RTVSPost2010PropOp36
 70
     1
102
RTVSPost2010Prop37
 90
       50
102
RTVSPost2010PropOp37
 70
     1
102
RTVSPost2010Prop38
140
0.0
102
RTVSPost2010PropOp38
 70
     1
102
RTVSPost2010Prop39
140
1.0
102
RTVSPost2010PropOp39
 70
     1
102
RTVSPost2010Prop40
 90
        0
102
RTVSPost2010PropOp40
 70
     1
102
RTVSPost2010Prop41ColorIndex
 90
       18
102
RTVSPost2010Prop41ColorRGB
 90
        0
102
RTVSPost2010PropOp41
 70
     1
102
RTVSPost2010Prop42
 90
       50
102
RTVSPost2010PropOp42
 70
     1
102
RTVSPost2010Prop43
 90
        3
102
RTVSPost2010PropOp43
 70
     1
102
RTVSPost2010Prop44ColorIndex
 90
        5
102
RTVSPost2010Prop44ColorRGB
 90
      255
102
RTVSPost2010PropOp44
 70
     1
102
RTVSPost2010Prop45
280
     0
102
RTVSPost2010PropOp45
 70
     1
102
RTVSPost2010Prop46
 90
       50
102
RTVSPost2010PropOp46
 70
     1
102
RTVSPost2010Prop47
 90
       50
102
RTVSPost2010PropOp47
 70
     1
102
RTVSPost2010Prop48
 90
       50
102
RTVSPost2010PropOp48
 70
     1
102
RTVSPost2010Prop49
280
     0
102
RTVSPost2010PropOp49
 70
     1
102
RTVSPost2010Prop50
 90
       50
102
RTVSPost2010PropOp50
 70
     1
102
RTVSPost2010Prop51ColorIndex
 90
      256
102
RTVSPost2010Prop51ColorRGB
 90
-16777216
102
RTVSPost2010PropOp51
 70
     0
102
RTVSPost2010Prop52
140
1.0
102
RTVSPost2010PropOp52
 70
     0
102
RTVSPost2010Prop53
 90
        2
102
RTVSPost2010PropOp53
 70
     1
102
RTVSPost2010Prop54
  1
strokes_ogs.tif
102
RTVSPost2010PropOp54
 70
     1
102
RTVSPost2010Prop55
280
     0
102
RTVSPost2010PropOp55
 70
     1
102
RTVSPost2010Prop56
140
1.0
102
RTVSPost2010PropOp56
 70
     1
102
RTVSPost2010Prop57
140
1.0
102
RTVSPost2010PropOp57
 70
     1
  0
XRECORD
  5
16F
102
{ACAD_REACTORS
330
16E
102
}
330
16E
100
AcDbXrecord
280
     1
102
RTVSPost2010Prop28
280
     0
102
RTVSPost2010PropOp28
 70
     1
102
RTVSPost2010Prop29
280
     1
102
RTVSPost2010PropOp29
 70
     1
102
RTVSPost2010Prop30
280
     1
102
RTVSPost2010PropOp30
 70
     1
102
RTVSPost2010Prop31
280
     0
102
RTVSPost2010PropOp31
 70
     1
102
RTVSPost2010Prop32
280
     0
102
RTVSPost2010PropOp32
 70
     1
102
RTVSPost2010Prop33
280
     0
102
RTVSPost2010PropOp33
 70
     1
102
RTVSPost2010Prop34
280
     0
102
RTVSPost2010PropOp34
 70
     1
102
RTVSPost2010Prop35
280
     0
102
RTVSPost2010PropOp35
 70
     1
102
RTVSPost2010Prop36
280
     0
102
RTVSPost2010PropOp36
 70
     1
102
RTVSPost2010Prop37
 90
       50
102
RTVSPost2010PropOp37
 70
     1
102
RTVSPost2010Prop38
140
0.0
102
RTVSPost2010PropOp38
 70
     1
102
RTVSPost2010Prop39
140
1.0
102
RTVSPost2010PropOp39
 70
     1
102
RTVSPost2010Prop40
 90
        0
102
RTVSPost2010PropOp40
 70
     1
102
RTVSPost2010Prop41ColorIndex
 90
       18
102
RTVSPost2010Prop41ColorRGB
 90
        0
102
RTVSPost2010PropOp41
 70
     1
102
RTVSPost2010Prop42
 90
       50
102
RTVSPost2010PropOp42
 70
     1
102
RTVSPost2010Prop43
 90
        3
102
RTVSPost2010PropOp43
 70
     1
102
RTVSPost2010Prop44ColorIndex
 90
        5
102
RTVSPost2010Prop44ColorRGB
 90
      255
102
RTVSPost2010PropOp44
 70
     1
102
RTVSPost2010Prop45
280
     0
102
RTVSPost2010PropOp45
 70
     1
102
RTVSPost2010Prop46
 90
       50
102
RTVSPost2010PropOp46
 70
     1
102
RTVSPost2010Prop47
 90
       50
102
RTVSPost2010PropOp47
 70
     1
102
RTVSPost2010Prop48
 90
       50
102
RTVSPost2010PropOp48
 70
     1
102
RTVSPost2010Prop49
280
     0
102
RTVSPost2010PropOp49
 70
     1
102
RTVSPost2010Prop50
 90
       50
102
RTVSPost2010PropOp50
 70
     1
102
RTVSPost2010Prop51ColorIndex
 90
      256
102
RTVSPost2010Prop51ColorRGB
 90
-16777216
102
RTVSPost2010PropOp51
 70
     0
102
RTVSPost2010Prop52
140
1.0
102
RTVSPost2010PropOp52
 70
     0
102
RTVSPost2010Prop53
 90
        2
102
RTVSPost2010PropOp53
 70
     1
102
RTVSPost2010Prop54
  1
strokes_ogs.tif
102
RTVSPost2010PropOp54
 70
     1
102
RTVSPost2010Prop55
280
     0
102
RTVSPost2010PropOp55
 70
     1
102
RTVSPost2010Prop56
140
1.0
102
RTVSPost2010PropOp56
 70
     1
102
RTVSPost2010Prop57
140
1.0
102
RTVSPost2010PropOp57
 70
     1
  0
XRECORD
  5
171
102
{ACAD_REACTORS
330
170
102
}
330
170
100
AcDbXrecord
280
     1
102
RTVSPost2010Prop28
280
     0
102
RTVSPost2010PropOp28
 70
     1
102
RTVSPost2010Prop29
280
     1
102
RTVSPost2010PropOp29
 70
     1
102
RTVSPost2010Prop30
280
     1
102
RTVSPost2010PropOp30
 70
     1
102
RTVSPost2010Prop31
280
     0
102
RTVSPost2010PropOp31
 70
     1
102
RTVSPost2010Prop32
280
     0
102
RTVSPost2010PropOp32
 70
     1
102
RTVSPost2010Prop33
280
     0
102
RTVSPost2010PropOp33
 70
     1
102
RTVSPost2010Prop34
280
     0
102
RTVSPost2010PropOp34
 70
     1
102
RTVSPost2010Prop35
280
     0
102
RTVSPost2010PropOp35
 70
     1
102
RTVSPost2010Prop36
280
     0
102
RTVSPost2010PropOp36
 70
     1
102
RTVSPost2010Prop37
 90
       50
102
RTVSPost2010PropOp37
 70
     1
102
RTVSPost2010Prop38
140
0.0
102
RTVSPost2010PropOp38
 70
     1
102
RTVSPost2010Prop39
140
1.0
102
RTVSPost2010PropOp39
 70
     1
102
RTVSPost2010Prop40
 90
        0
102
RTVSPost2010PropOp40
 70
     1
102
RTVSPost2010Prop41ColorIndex
 90
       18
102
RTVSPost2010Prop41ColorRGB
 90
        0
102
RTVSPost2010PropOp41
 70
     1
102
RTVSPost2010Prop42
 90
       50
102
RTVSPost2010PropOp42
 70
     1
102
RTVSPost2010Prop43
 90
        3
102
RTVSPost2010PropOp43
 70
     1
102
RTVSPost2010Prop44ColorIndex
 90
        5
102
RTVSPost2010Prop44ColorRGB
 90
      255
102
RTVSPost2010PropOp44
 70
     1
102
RTVSPost2010Prop45
280
     0
102
RTVSPost2010PropOp45
 70
     1
102
RTVSPost2010Prop46
 90
       50
102
RTVSPost2010PropOp46
 70
     1
102
RTVSPost2010Prop47
 90
       50
102
RTVSPost2010PropOp47
 70
     1
102
RTVSPost2010Prop48
 90
       50
102
RTVSPost2010PropOp48
 70
     1
102
RTVSPost2010Prop49
280
     0
102
RTVSPost2010PropOp49
 70
     1
102
RTVSPost2010Prop50
 90
       50
102
RTVSPost2010PropOp50
 70
     1
102
RTVSPost2010Prop51ColorIndex
 90
      256
102
RTVSPost2010Prop51ColorRGB
 90
-16777216
102
RTVSPost2010PropOp51
 70
     0
102
RTVSPost2010Prop52
140
1.0
102
RTVSPost2010PropOp52
 70
     0
102
RTVSPost2010Prop53
 90
        2
102
RTVSPost2010PropOp53
 70
     1
102
RTVSPost2010Prop54
  1
strokes_ogs.tif
102
RTVSPost2010PropOp54
 70
     1
102
RTVSPost2010Prop55
280
     0
102
RTVSPost2010PropOp55
 70
     1
102
RTVSPost2010Prop56
140
1.0
102
RTVSPost2010PropOp56
 70
     1
102
RTVSPost2010Prop57
140
1.0
102
RTVSPost2010PropOp57
 70
     1
  0
XRECORD
  5
179
102
{ACAD_REACTORS
330
178
102
}
330
178
100
AcDbXrecord
280
     1
102
RTVSPost2010Prop28
280
     0
102
RTVSPost2010PropOp28
 70
     1
102
RTVSPost2010Prop29
280
     1
102
RTVSPost2010PropOp29
 70
     1
102
RTVSPost2010Prop30
280
     1
102
RTVSPost2010PropOp30
 70
     1
102
RTVSPost2010Prop31
280
     0
102
RTVSPost2010PropOp31
 70
     1
102
RTVSPost2010Prop32
280
     0
102
RTVSPost2010PropOp32
 70
     1
102
RTVSPost2010Prop33
280
     0
102
RTVSPost2010PropOp33
 70
     1
102
RTVSPost2010Prop34
280
     0
102
RTVSPost2010PropOp34
 70
     1
102
RTVSPost2010Prop35
280
     0
102
RTVSPost2010PropOp35
 70
     1
102
RTVSPost2010Prop36
280
     0
102
RTVSPost2010PropOp36
 70
     1
102
RTVSPost2010Prop37
 90
       50
102
RTVSPost2010PropOp37
 70
     1
102
RTVSPost2010Prop38
140
0.0
102
RTVSPost2010PropOp38
 70
     1
102
RTVSPost2010Prop39
140
1.0
102
RTVSPost2010PropOp39
 70
     1
102
RTVSPost2010Prop40
 90
        0
102
RTVSPost2010PropOp40
 70
     1
102
RTVSPost2010Prop41ColorIndex
 90
       18
102
RTVSPost2010Prop41ColorRGB
 90
        0
102
RTVSPost2010PropOp41
 70
     1
102
RTVSPost2010Prop42
 90
       50
102
RTVSPost2010PropOp42
 70
     1
102
RTVSPost2010Prop43
 90
        3
102
RTVSPost2010PropOp43
 70
     1
102
RTVSPost2010Prop44ColorIndex
 90
        5
102
RTVSPost2010Prop44ColorRGB
 90
      255
102
RTVSPost2010PropOp44
 70
     1
102
RTVSPost2010Prop45
280
     0
102
RTVSPost2010PropOp45
 70
     1
102
RTVSPost2010Prop46
 90
       50
102
RTVSPost2010PropOp46
 70
     1
102
RTVSPost2010Prop47
 90
       50
102
RTVSPost2010PropOp47
 70
     1
102
RTVSPost2010Prop48
 90
       50
102
RTVSPost2010PropOp48
 70
     1
102
RTVSPost2010Prop49
280
     0
102
RTVSPost2010PropOp49
 70
     1
102
RTVSPost2010Prop50
 90
       50
102
RTVSPost2010PropOp50
 70
     1
102
RTVSPost2010Prop51ColorIndex
 90
      256
102
RTVSPost2010Prop51ColorRGB
 90
-16777216
102
RTVSPost2010PropOp51
 70
     0
102
RTVSPost2010Prop52
140
1.0
102
RTVSPost2010PropOp52
 70
     0
102
RTVSPost2010Prop53
 90
        2
102
RTVSPost2010PropOp53
 70
     1
102
RTVSPost2010Prop54
  1
strokes_ogs.tif
102
RTVSPost2010PropOp54
 70
     1
102
RTVSPost2010Prop55
280
     0
102
RTVSPost2010PropOp55
 70
     1
102
RTVSPost2010Prop56
140
1.0
102
RTVSPost2010PropOp56
 70
     1
102
RTVSPost2010Prop57
140
1.0
102
RTVSPost2010PropOp57
 70
     1
  0
XRECORD
  5
195
102
{ACAD_REACTORS
330
194
102
}
330
194
100
AcDbXrecord
280
     1
102
RTVSPost2010Prop28
280
     0
102
RTVSPost2010PropOp28
 70
     0
102
RTVSPost2010Prop29
280
     1
102
RTVSPost2010PropOp29
 70
     0
102
RTVSPost2010Prop30
280
     1
102
RTVSPost2010PropOp30
 70
     0
102
RTVSPost2010Prop31
280
     0
102
RTVSPost2010PropOp31
 70
     0
102
RTVSPost2010Prop32
280
     0
102
RTVSPost2010PropOp32
 70
     0
102
RTVSPost2010Prop33
280
     0
102
RTVSPost2010PropOp33
 70
     0
102
RTVSPost2010Prop34
280
     0
102
RTVSPost2010PropOp34
 70
     0
102
RTVSPost2010Prop35
280
     0
102
RTVSPost2010PropOp35
 70
     0
102
RTVSPost2010Prop36
280
     0
102
RTVSPost2010PropOp36
 70
     0
102
RTVSPost2010Prop37
 90
       50
102
RTVSPost2010PropOp37
 70
     0
102
RTVSPost2010Prop38
140
0.0
102
RTVSPost2010PropOp38
 70
     0
102
RTVSPost2010Prop39
140
1.0
102
RTVSPost2010PropOp39
 70
     0
102
RTVSPost2010Prop40
 90
        0
102
RTVSPost2010PropOp40
 70
     0
102
RTVSPost2010Prop41ColorIndex
 90
       18
102
RTVSPost2010Prop41ColorRGB
 90
        0
102
RTVSPost2010PropOp41
 70
     0
102
RTVSPost2010Prop42
 90
       50
102
RTVSPost2010PropOp42
 70
     0
102
RTVSPost2010Prop43
 90
        3
102
RTVSPost2010PropOp43
 70
     0
102
RTVSPost2010Prop44ColorIndex
 90
        5
102
RTVSPost2010Prop44ColorRGB
 90
      255
102
RTVSPost2010PropOp44
 70
     0
102
RTVSPost2010Prop45
280
     0
102
RTVSPost2010PropOp45
 70
     0
102
RTVSPost2010Prop46
 90
       50
102
RTVSPost2010PropOp46
 70
     0
102
RTVSPost2010Prop47
 90
       50
102
RTVSPost2010PropOp47
 70
     0
102
RTVSPost2010Prop48
 90
       50
102
RTVSPost2010PropOp48
 70
     0
102
RTVSPost2010Prop49
280
     0
102
RTVSPost2010PropOp49
 70
     0
102
RTVSPost2010Prop50
 90
       50
102
RTVSPost2010PropOp50
 70
     0
102
RTVSPost2010Prop51ColorIndex
 90
      256
102
RTVSPost2010Prop51ColorRGB
 90
-16777216
102
RTVSPost2010PropOp51
 70
     0
102
RTVSPost2010Prop52
140
1.0
102
RTVSPost2010PropOp52
 70
     0
102
RTVSPost2010Prop53
 90
        2
102
RTVSPost2010PropOp53
 70
     0
102
RTVSPost2010Prop54
  1
strokes_ogs.tif
102
RTVSPost2010PropOp54
 70
     0
102
RTVSPost2010Prop55
280
     0
102
RTVSPost2010PropOp55
 70
     0
102
RTVSPost2010Prop56
140
1.0
102
RTVSPost2010PropOp56
 70
     0
102
RTVSPost2010Prop57
140
1.0
102
RTVSPost2010PropOp57
 70
     0
  0
XRECORD
  5
185
102
{ACAD_REACTORS
330
184
102
}
330
184
100
AcDbXrecord
280
     1
102
RTVSPost2010Prop28
280
     0
102
RTVSPost2010PropOp28
 70
     1
102
RTVSPost2010Prop29
280
     1
102
RTVSPost2010PropOp29
 70
     1
102
RTVSPost2010Prop30
280
     1
102
RTVSPost2010PropOp30
 70
     1
102
RTVSPost2010Prop31
280
     0
102
RTVSPost2010PropOp31
 70
     1
102
RTVSPost2010Prop32
280
     0
102
RTVSPost2010PropOp32
 70
     1
102
RTVSPost2010Prop33
280
     0
102
RTVSPost2010PropOp33
 70
     1
102
RTVSPost2010Prop34
280
     0
102
RTVSPost2010PropOp34
 70
     1
102
RTVSPost2010Prop35
280
     0
102
RTVSPost2010PropOp35
 70
     1
102
RTVSPost2010Prop36
280
     0
102
RTVSPost2010PropOp36
 70
     1
102
RTVSPost2010Prop37
 90
       50
102
RTVSPost2010PropOp37
 70
     1
102
RTVSPost2010Prop38
140
0.0
102
RTVSPost2010PropOp38
 70
     1
102
RTVSPost2010Prop39
140
1.0
102
RTVSPost2010PropOp39
 70
     1
102
RTVSPost2010Prop40
 90
        0
102
RTVSPost2010PropOp40
 70
     1
102
RTVSPost2010Prop41ColorIndex
 90
       18
102
RTVSPost2010Prop41ColorRGB
 90
        0
102
RTVSPost2010PropOp41
 70
     1
102
RTVSPost2010Prop42
 90
       50
102
RTVSPost2010PropOp42
 70
     1
102
RTVSPost2010Prop43
 90
        3
102
RTVSPost2010PropOp43
 70
     1
102
RTVSPost2010Prop44ColorIndex
 90
        5
102
RTVSPost2010Prop44ColorRGB
 90
      255
102
RTVSPost2010PropOp44
 70
     1
102
RTVSPost2010Prop45
280
     0
102
RTVSPost2010PropOp45
 70
     1
102
RTVSPost2010Prop46
 90
       50
102
RTVSPost2010PropOp46
 70
     1
102
RTVSPost2010Prop47
 90
       50
102
RTVSPost2010PropOp47
 70
     1
102
RTVSPost2010Prop48
 90
       50
102
RTVSPost2010PropOp48
 70
     1
102
RTVSPost2010Prop49
280
     0
102
RTVSPost2010PropOp49
 70
     1
102
RTVSPost2010Prop50
 90
       50
102
RTVSPost2010PropOp50
 70
     1
102
RTVSPost2010Prop51ColorIndex
 90
      256
102
RTVSPost2010Prop51ColorRGB
 90
-16777216
102
RTVSPost2010PropOp51
 70
     0
102
RTVSPost2010Prop52
140
1.0
102
RTVSPost2010PropOp52
 70
     0
102
RTVSPost2010Prop53
 90
        2
102
RTVSPost2010PropOp53
 70
     1
102
RTVSPost2010Prop54
  1
strokes_ogs.tif
102
RTVSPost2010PropOp54
 70
     1
102
RTVSPost2010Prop55
280
     0
102
RTVSPost2010PropOp55
 70
     1
102
RTVSPost2010Prop56
140
1.0
102
RTVSPost2010PropOp56
 70
     1
102
RTVSPost2010Prop57
140
1.0
102
RTVSPost2010PropOp57
 70
     1
  0
XRECORD
  5
197
102
{ACAD_REACTORS
330
196
102
}
330
196
100
AcDbXrecord
280
     1
102
RTVSPost2010Prop28
280
     0
102
RTVSPost2010PropOp28
 70
     0
102
RTVSPost2010Prop29
280
     1
102
RTVSPost2010PropOp29
 70
     0
102
RTVSPost2010Prop30
280
     1
102
RTVSPost2010PropOp30
 70
     0
102
RTVSPost2010Prop31
280
     0
102
RTVSPost2010PropOp31
 70
     0
102
RTVSPost2010Prop32
280
     0
102
RTVSPost2010PropOp32
 70
     0
102
RTVSPost2010Prop33
280
     0
102
RTVSPost2010PropOp33
 70
     0
102
RTVSPost2010Prop34
280
     0
102
RTVSPost2010PropOp34
 70
     0
102
RTVSPost2010Prop35
280
     0
102
RTVSPost2010PropOp35
 70
     0
102
RTVSPost2010Prop36
280
     0
102
RTVSPost2010PropOp36
 70
     0
102
RTVSPost2010Prop37
 90
       50
102
RTVSPost2010PropOp37
 70
     0
102
RTVSPost2010Prop38
140
0.0
102
RTVSPost2010PropOp38
 70
     0
102
RTVSPost2010Prop39
140
1.0
102
RTVSPost2010PropOp39
 70
     0
102
RTVSPost2010Prop40
 90
        0
102
RTVSPost2010PropOp40
 70
     0
102
RTVSPost2010Prop41ColorIndex
 90
       18
102
RTVSPost2010Prop41ColorRGB
 90
        0
102
RTVSPost2010PropOp41
 70
     0
102
RTVSPost2010Prop42
 90
       50
102
RTVSPost2010PropOp42
 70
     0
102
RTVSPost2010Prop43
 90
        3
102
RTVSPost2010PropOp43
 70
     0
102
RTVSPost2010Prop44ColorIndex
 90
        5
102
RTVSPost2010Prop44ColorRGB
 90
      255
102
RTVSPost2010PropOp44
 70
     0
102
RTVSPost2010Prop45
280
     0
102
RTVSPost2010PropOp45
 70
     0
102
RTVSPost2010Prop46
 90
       50
102
RTVSPost2010PropOp46
 70
     0
102
RTVSPost2010Prop47
 90
       50
102
RTVSPost2010PropOp47
 70
     0
102
RTVSPost2010Prop48
 90
       50
102
RTVSPost2010PropOp48
 70
     0
102
RTVSPost2010Prop49
280
     0
102
RTVSPost2010PropOp49
 70
     0
102
RTVSPost2010Prop50
 90
       50
102
RTVSPost2010PropOp50
 70
     0
102
RTVSPost2010Prop51ColorIndex
 90
      256
102
RTVSPost2010Prop51ColorRGB
 90
-16777216
102
RTVSPost2010PropOp51
 70
     0
102
RTVSPost2010Prop52
140
1.0
102
RTVSPost2010PropOp52
 70
     0
102
RTVSPost2010Prop53
 90
        2
102
RTVSPost2010PropOp53
 70
     0
102
RTVSPost2010Prop54
  1
strokes_ogs.tif
102
RTVSPost2010PropOp54
 70
     0
102
RTVSPost2010Prop55
280
     0
102
RTVSPost2010PropOp55
 70
     0
102
RTVSPost2010Prop56
140
1.0
102
RTVSPost2010PropOp56
 70
     0
102
RTVSPost2010Prop57
140
1.0
102
RTVSPost2010PropOp57
 70
     0
  0
XRECORD
  5
17D
102
{ACAD_REACTORS
330
17C
102
}
330
17C
100
AcDbXrecord
280
     1
102
RTVSPost2010Prop28
280
     0
102
RTVSPost2010PropOp28
 70
     1
102
RTVSPost2010Prop29
280
     1
102
RTVSPost2010PropOp29
 70
     1
102
RTVSPost2010Prop30
280
     1
102
RTVSPost2010PropOp30
 70
     1
102
RTVSPost2010Prop31
280
     0
102
RTVSPost2010PropOp31
 70
     1
102
RTVSPost2010Prop32
280
     0
102
RTVSPost2010PropOp32
 70
     1
102
RTVSPost2010Prop33
280
     0
102
RTVSPost2010PropOp33
 70
     1
102
RTVSPost2010Prop34
280
     0
102
RTVSPost2010PropOp34
 70
     1
102
RTVSPost2010Prop35
280
     0
102
RTVSPost2010PropOp35
 70
     1
102
RTVSPost2010Prop36
280
     0
102
RTVSPost2010PropOp36
 70
     1
102
RTVSPost2010Prop37
 90
       50
102
RTVSPost2010PropOp37
 70
     1
102
RTVSPost2010Prop38
140
0.0
102
RTVSPost2010PropOp38
 70
     1
102
RTVSPost2010Prop39
140
1.0
102
RTVSPost2010PropOp39
 70
     1
102
RTVSPost2010Prop40
 90
        0
102
RTVSPost2010PropOp40
 70
     1
102
RTVSPost2010Prop41ColorIndex
 90
       18
102
RTVSPost2010Prop41ColorRGB
 90
        0
102
RTVSPost2010PropOp41
 70
     1
102
RTVSPost2010Prop42
 90
       50
102
RTVSPost2010PropOp42
 70
     1
102
RTVSPost2010Prop43
 90
        3
102
RTVSPost2010PropOp43
 70
     1
102
RTVSPost2010Prop44ColorIndex
 90
        5
102
RTVSPost2010Prop44ColorRGB
 90
      255
102
RTVSPost2010PropOp44
 70
     1
102
RTVSPost2010Prop45
280
     0
102
RTVSPost2010PropOp45
 70
     1
102
RTVSPost2010Prop46
 90
       50
102
RTVSPost2010PropOp46
 70
     1
102
RTVSPost2010Prop47
 90
       50
102
RTVSPost2010PropOp47
 70
     1
102
RTVSPost2010Prop48
 90
       50
102
RTVSPost2010PropOp48
 70
     1
102
RTVSPost2010Prop49
280
     0
102
RTVSPost2010PropOp49
 70
     1
102
RTVSPost2010Prop50
 90
       50
102
RTVSPost2010PropOp50
 70
     1
102
RTVSPost2010Prop51ColorIndex
 90
      256
102
RTVSPost2010Prop51ColorRGB
 90
-16777216
102
RTVSPost2010PropOp51
 70
     0
102
RTVSPost2010Prop52
140
1.0
102
RTVSPost2010PropOp52
 70
     0
102
RTVSPost2010Prop53
 90
        2
102
RTVSPost2010PropOp53
 70
     1
102
RTVSPost2010Prop54
  1
strokes_ogs.tif
102
RTVSPost2010PropOp54
 70
     1
102
RTVSPost2010Prop55
280
     0
102
RTVSPost2010PropOp55
 70
     1
102
RTVSPost2010Prop56
140
1.0
102
RTVSPost2010PropOp56
 70
     1
102
RTVSPost2010Prop57
140
1.0
102
RTVSPost2010PropOp57
 70
     1
  0
XRECORD
  5
193
102
{ACAD_REACTORS
330
192
102
}
330
192
100
AcDbXrecord
280
     1
102
RTVSPost2010Prop28
280
     0
102
RTVSPost2010PropOp28
 70
     1
102
RTVSPost2010Prop29
280
     1
102
RTVSPost2010PropOp29
 70
     1
102
RTVSPost2010Prop30
280
     1
102
RTVSPost2010PropOp30
 70
     1
102
RTVSPost2010Prop31
280
     0
102
RTVSPost2010PropOp31
 70
     1
102
RTVSPost2010Prop32
280
     0
102
RTVSPost2010PropOp32
 70
     1
102
RTVSPost2010Prop33
280
     0
102
RTVSPost2010PropOp33
 70
     1
102
RTVSPost2010Prop34
280
     0
102
RTVSPost2010PropOp34
 70
     1
102
RTVSPost2010Prop35
280
     0
102
RTVSPost2010PropOp35
 70
     1
102
RTVSPost2010Prop36
280
     0
102
RTVSPost2010PropOp36
 70
     1
102
RTVSPost2010Prop37
 90
       50
102
RTVSPost2010PropOp37
 70
     1
102
RTVSPost2010Prop38
140
0.0
102
RTVSPost2010PropOp38
 70
     1
102
RTVSPost2010Prop39
140
1.0
102
RTVSPost2010PropOp39
 70
     1
102
RTVSPost2010Prop40
 90
        0
102
RTVSPost2010PropOp40
 70
     1
102
RTVSPost2010Prop41ColorIndex
 90
       18
102
RTVSPost2010Prop41ColorRGB
 90
        0
102
RTVSPost2010PropOp41
 70
     1
102
RTVSPost2010Prop42
 90
       50
102
RTVSPost2010PropOp42
 70
     1
102
RTVSPost2010Prop43
 90
        3
102
RTVSPost2010PropOp43
 70
     1
102
RTVSPost2010Prop44ColorIndex
 90
        5
102
RTVSPost2010Prop44ColorRGB
 90
      255
102
RTVSPost2010PropOp44
 70
     1
102
RTVSPost2010Prop45
280
     0
102
RTVSPost2010PropOp45
 70
     1
102
RTVSPost2010Prop46
 90
       50
102
RTVSPost2010PropOp46
 70
     1
102
RTVSPost2010Prop47
 90
       50
102
RTVSPost2010PropOp47
 70
     1
102
RTVSPost2010Prop48
 90
       50
102
RTVSPost2010PropOp48
 70
     1
102
RTVSPost2010Prop49
280
     0
102
RTVSPost2010PropOp49
 70
     1
102
RTVSPost2010Prop50
 90
       50
102
RTVSPost2010PropOp50
 70
     1
102
RTVSPost2010Prop51ColorIndex
 90
      256
102
RTVSPost2010Prop51ColorRGB
 90
-16777216
102
RTVSPost2010PropOp51
 70
     0
102
RTVSPost2010Prop52
140
1.0
102
RTVSPost2010PropOp52
 70
     0
102
RTVSPost2010Prop53
 90
        2
102
RTVSPost2010PropOp53
 70
     1
102
RTVSPost2010Prop54
  1
strokes_ogs.tif
102
RTVSPost2010PropOp54
 70
     1
102
RTVSPost2010Prop55
280
     0
102
RTVSPost2010PropOp55
 70
     1
102
RTVSPost2010Prop56
140
1.0
102
RTVSPost2010PropOp56
 70
     1
102
RTVSPost2010Prop57
140
1.0
102
RTVSPost2010PropOp57
 70
     1
  0
XRECORD
  5
191
102
{ACAD_REACTORS
330
190
102
}
330
190
100
AcDbXrecord
280
     1
102
RTVSPost2010Prop28
280
     0
102
RTVSPost2010PropOp28
 70
     1
102
RTVSPost2010Prop29
280
     1
102
RTVSPost2010PropOp29
 70
     1
102
RTVSPost2010Prop30
280
     1
102
RTVSPost2010PropOp30
 70
     1
102
RTVSPost2010Prop31
280
     0
102
RTVSPost2010PropOp31
 70
     1
102
RTVSPost2010Prop32
280
     0
102
RTVSPost2010PropOp32
 70
     1
102
RTVSPost2010Prop33
280
     0
102
RTVSPost2010PropOp33
 70
     1
102
RTVSPost2010Prop34
280
     0
102
RTVSPost2010PropOp34
 70
     1
102
RTVSPost2010Prop35
280
     0
102
RTVSPost2010PropOp35
 70
     1
102
RTVSPost2010Prop36
280
     0
102
RTVSPost2010PropOp36
 70
     1
102
RTVSPost2010Prop37
 90
       50
102
RTVSPost2010PropOp37
 70
     1
102
RTVSPost2010Prop38
140
0.0
102
RTVSPost2010PropOp38
 70
     1
102
RTVSPost2010Prop39
140
1.0
102
RTVSPost2010PropOp39
 70
     1
102
RTVSPost2010Prop40
 90
        0
102
RTVSPost2010PropOp40
 70
     1
102
RTVSPost2010Prop41ColorIndex
 90
       18
102
RTVSPost2010Prop41ColorRGB
 90
        0
102
RTVSPost2010PropOp41
 70
     1
102
RTVSPost2010Prop42
 90
       50
102
RTVSPost2010PropOp42
 70
     1
102
RTVSPost2010Prop43
 90
        3
102
RTVSPost2010PropOp43
 70
     1
102
RTVSPost2010Prop44ColorIndex
 90
        5
102
RTVSPost2010Prop44ColorRGB
 90
      255
102
RTVSPost2010PropOp44
 70
     1
102
RTVSPost2010Prop45
280
     0
102
RTVSPost2010PropOp45
 70
     1
102
RTVSPost2010Prop46
 90
       50
102
RTVSPost2010PropOp46
 70
     1
102
RTVSPost2010Prop47
 90
       50
102
RTVSPost2010PropOp47
 70
     1
102
RTVSPost2010Prop48
 90
       50
102
RTVSPost2010PropOp48
 70
     1
102
RTVSPost2010Prop49
280
     0
102
RTVSPost2010PropOp49
 70
     1
102
RTVSPost2010Prop50
 90
       50
102
RTVSPost2010PropOp50
 70
     1
102
RTVSPost2010Prop51ColorIndex
 90
      256
102
RTVSPost2010Prop51ColorRGB
 90
-16777216
102
RTVSPost2010PropOp51
 70
     0
102
RTVSPost2010Prop52
140
1.0
102
RTVSPost2010PropOp52
 70
     0
102
RTVSPost2010Prop53
 90
        2
102
RTVSPost2010PropOp53
 70
     1
102
RTVSPost2010Prop54
  1
strokes_ogs.tif
102
RTVSPost2010PropOp54
 70
     1
102
RTVSPost2010Prop55
280
     0
102
RTVSPost2010PropOp55
 70
     1
102
RTVSPost2010Prop56
140
1.0
102
RTVSPost2010PropOp56
 70
     1
102
RTVSPost2010Prop57
140
1.0
102
RTVSPost2010PropOp57
 70
     1
  0
XRECORD
  5
18B
102
{ACAD_REACTORS
330
18A
102
}
330
18A
100
AcDbXrecord
280
     1
102
RTVSPost2010Prop28
280
     0
102
RTVSPost2010PropOp28
 70
     1
102
RTVSPost2010Prop29
280
     1
102
RTVSPost2010PropOp29
 70
     1
102
RTVSPost2010Prop30
280
     1
102
RTVSPost2010PropOp30
 70
     1
102
RTVSPost2010Prop31
280
     0
102
RTVSPost2010PropOp31
 70
     1
102
RTVSPost2010Prop32
280
     0
102
RTVSPost2010PropOp32
 70
     1
102
RTVSPost2010Prop33
280
     0
102
RTVSPost2010PropOp33
 70
     1
102
RTVSPost2010Prop34
280
     0
102
RTVSPost2010PropOp34
 70
     1
102
RTVSPost2010Prop35
280
     0
102
RTVSPost2010PropOp35
 70
     1
102
RTVSPost2010Prop36
280
     0
102
RTVSPost2010PropOp36
 70
     1
102
RTVSPost2010Prop37
 90
       50
102
RTVSPost2010PropOp37
 70
     1
102
RTVSPost2010Prop38
140
0.0
102
RTVSPost2010PropOp38
 70
     1
102
RTVSPost2010Prop39
140
1.0
102
RTVSPost2010PropOp39
 70
     1
102
RTVSPost2010Prop40
 90
        0
102
RTVSPost2010PropOp40
 70
     1
102
RTVSPost2010Prop41ColorIndex
 90
       18
102
RTVSPost2010Prop41ColorRGB
 90
        0
102
RTVSPost2010PropOp41
 70
     1
102
RTVSPost2010Prop42
 90
       50
102
RTVSPost2010PropOp42
 70
     1
102
RTVSPost2010Prop43
 90
        3
102
RTVSPost2010PropOp43
 70
     1
102
RTVSPost2010Prop44ColorIndex
 90
        5
102
RTVSPost2010Prop44ColorRGB
 90
      255
102
RTVSPost2010PropOp44
 70
     1
102
RTVSPost2010Prop45
280
     0
102
RTVSPost2010PropOp45
 70
     1
102
RTVSPost2010Prop46
 90
       50
102
RTVSPost2010PropOp46
 70
     1
102
RTVSPost2010Prop47
 90
       50
102
RTVSPost2010PropOp47
 70
     1
102
RTVSPost2010Prop48
 90
       50
102
RTVSPost2010PropOp48
 70
     1
102
RTVSPost2010Prop49
280
     0
102
RTVSPost2010PropOp49
 70
     1
102
RTVSPost2010Prop50
 90
       50
102
RTVSPost2010PropOp50
 70
     1
102
RTVSPost2010Prop51ColorIndex
 90
      256
102
RTVSPost2010Prop51ColorRGB
 90
-16777216
102
RTVSPost2010PropOp51
 70
     0
102
RTVSPost2010Prop52
140
1.0
102
RTVSPost2010PropOp52
 70
     0
102
RTVSPost2010Prop53
 90
        2
102
RTVSPost2010PropOp53
 70
     1
102
RTVSPost2010Prop54
  1
strokes_ogs.tif
102
RTVSPost2010PropOp54
 70
     1
102
RTVSPost2010Prop55
280
     0
102
RTVSPost2010PropOp55
 70
     1
102
RTVSPost2010Prop56
140
1.0
102
RTVSPost2010PropOp56
 70
     1
102
RTVSPost2010Prop57
140
1.0
102
RTVSPost2010PropOp57
 70
     1
  0
XRECORD
  5
18D
102
{ACAD_REACTORS
330
18C
102
}
330
18C
100
AcDbXrecord
280
     1
102
RTVSPost2010Prop28
280
     0
102
RTVSPost2010PropOp28
 70
     1
102
RTVSPost2010Prop29
280
     1
102
RTVSPost2010PropOp29
 70
     1
102
RTVSPost2010Prop30
280
     1
102
RTVSPost2010PropOp30
 70
     1
102
RTVSPost2010Prop31
280
     0
102
RTVSPost2010PropOp31
 70
     1
102
RTVSPost2010Prop32
280
     0
102
RTVSPost2010PropOp32
 70
     1
102
RTVSPost2010Prop33
280
     0
102
RTVSPost2010PropOp33
 70
     1
102
RTVSPost2010Prop34
280
     0
102
RTVSPost2010PropOp34
 70
     1
102
RTVSPost2010Prop35
280
     0
102
RTVSPost2010PropOp35
 70
     1
102
RTVSPost2010Prop36
280
     0
102
RTVSPost2010PropOp36
 70
     1
102
RTVSPost2010Prop37
 90
       50
102
RTVSPost2010PropOp37
 70
     1
102
RTVSPost2010Prop38
140
0.0
102
RTVSPost2010PropOp38
 70
     1
102
RTVSPost2010Prop39
140
1.0
102
RTVSPost2010PropOp39
 70
     1
102
RTVSPost2010Prop40
 90
        0
102
RTVSPost2010PropOp40
 70
     1
102
RTVSPost2010Prop41ColorIndex
 90
       18
102
RTVSPost2010Prop41ColorRGB
 90
        0
102
RTVSPost2010PropOp41
 70
     1
102
RTVSPost2010Prop42
 90
       50
102
RTVSPost2010PropOp42
 70
     1
102
RTVSPost2010Prop43
 90
        3
102
RTVSPost2010PropOp43
 70
     1
102
RTVSPost2010Prop44ColorIndex
 90
        5
102
RTVSPost2010Prop44ColorRGB
 90
      255
102
RTVSPost2010PropOp44
 70
     1
102
RTVSPost2010Prop45
280
     0
102
RTVSPost2010PropOp45
 70
     1
102
RTVSPost2010Prop46
 90
       50
102
RTVSPost2010PropOp46
 70
     1
102
RTVSPost2010Prop47
 90
       50
102
RTVSPost2010PropOp47
 70
     1
102
RTVSPost2010Prop48
 90
       50
102
RTVSPost2010PropOp48
 70
     1
102
RTVSPost2010Prop49
280
     0
102
RTVSPost2010PropOp49
 70
     1
102
RTVSPost2010Prop50
 90
       50
102
RTVSPost2010PropOp50
 70
     1
102
RTVSPost2010Prop51ColorIndex
 90
      256
102
RTVSPost2010Prop51ColorRGB
 90
-16777216
102
RTVSPost2010PropOp51
 70
     0
102
RTVSPost2010Prop52
140
1.0
102
RTVSPost2010PropOp52
 70
     0
102
RTVSPost2010Prop53
 90
        2
102
RTVSPost2010PropOp53
 70
     1
102
RTVSPost2010Prop54
  1
strokes_ogs.tif
102
RTVSPost2010PropOp54
 70
     1
102
RTVSPost2010Prop55
280
     0
102
RTVSPost2010PropOp55
 70
     1
102
RTVSPost2010Prop56
140
1.0
102
RTVSPost2010PropOp56
 70
     1
102
RTVSPost2010Prop57
140
1.0
102
RTVSPost2010PropOp57
 70
     1
  0
XRECORD
  5
183
102
{ACAD_REACTORS
330
182
102
}
330
182
100
AcDbXrecord
280
     1
102
RTVSPost2010Prop28
280
     0
102
RTVSPost2010PropOp28
 70
     1
102
RTVSPost2010Prop29
280
     1
102
RTVSPost2010PropOp29
 70
     1
102
RTVSPost2010Prop30
280
     1
102
RTVSPost2010PropOp30
 70
     1
102
RTVSPost2010Prop31
280
     0
102
RTVSPost2010PropOp31
 70
     1
102
RTVSPost2010Prop32
280
     0
102
RTVSPost2010PropOp32
 70
     1
102
RTVSPost2010Prop33
280
     0
102
RTVSPost2010PropOp33
 70
     1
102
RTVSPost2010Prop34
280
     0
102
RTVSPost2010PropOp34
 70
     1
102
RTVSPost2010Prop35
280
     0
102
RTVSPost2010PropOp35
 70
     1
102
RTVSPost2010Prop36
280
     0
102
RTVSPost2010PropOp36
 70
     1
102
RTVSPost2010Prop37
 90
       50
102
RTVSPost2010PropOp37
 70
     1
102
RTVSPost2010Prop38
140
0.0
102
RTVSPost2010PropOp38
 70
     1
102
RTVSPost2010Prop39
140
1.0
102
RTVSPost2010PropOp39
 70
     1
102
RTVSPost2010Prop40
 90
        0
102
RTVSPost2010PropOp40
 70
     1
102
RTVSPost2010Prop41ColorIndex
 90
       18
102
RTVSPost2010Prop41ColorRGB
 90
        0
102
RTVSPost2010PropOp41
 70
     1
102
RTVSPost2010Prop42
 90
       50
102
RTVSPost2010PropOp42
 70
     1
102
RTVSPost2010Prop43
 90
        3
102
RTVSPost2010PropOp43
 70
     1
102
RTVSPost2010Prop44ColorIndex
 90
        5
102
RTVSPost2010Prop44ColorRGB
 90
      255
102
RTVSPost2010PropOp44
 70
     1
102
RTVSPost2010Prop45
280
     0
102
RTVSPost2010PropOp45
 70
     1
102
RTVSPost2010Prop46
 90
       50
102
RTVSPost2010PropOp46
 70
     1
102
RTVSPost2010Prop47
 90
       50
102
RTVSPost2010PropOp47
 70
     1
102
RTVSPost2010Prop48
 90
       50
102
RTVSPost2010PropOp48
 70
     1
102
RTVSPost2010Prop49
280
     0
102
RTVSPost2010PropOp49
 70
     1
102
RTVSPost2010Prop50
 90
       50
102
RTVSPost2010PropOp50
 70
     1
102
RTVSPost2010Prop51ColorIndex
 90
      256
102
RTVSPost2010Prop51ColorRGB
 90
-16777216
102
RTVSPost2010PropOp51
 70
     0
102
RTVSPost2010Prop52
140
1.0
102
RTVSPost2010PropOp52
 70
     0
102
RTVSPost2010Prop53
 90
        2
102
RTVSPost2010PropOp53
 70
     1
102
RTVSPost2010Prop54
  1
strokes_ogs.tif
102
RTVSPost2010PropOp54
 70
     1
102
RTVSPost2010Prop55
280
     0
102
RTVSPost2010PropOp55
 70
     1
102
RTVSPost2010Prop56
140
1.0
102
RTVSPost2010PropOp56
 70
     1
102
RTVSPost2010Prop57
140
1.0
102
RTVSPost2010PropOp57
 70
     1
  0
XRECORD
  5
177
102
{ACAD_REACTORS
330
176
102
}
330
176
100
AcDbXrecord
280
     1
102
RTVSPost2010Prop28
280
     0
102
RTVSPost2010PropOp28
 70
     1
102
RTVSPost2010Prop29
280
     1
102
RTVSPost2010PropOp29
 70
     1
102
RTVSPost2010Prop30
280
     1
102
RTVSPost2010PropOp30
 70
     1
102
RTVSPost2010Prop31
280
     0
102
RTVSPost2010PropOp31
 70
     1
102
RTVSPost2010Prop32
280
     0
102
RTVSPost2010PropOp32
 70
     1
102
RTVSPost2010Prop33
280
     0
102
RTVSPost2010PropOp33
 70
     1
102
RTVSPost2010Prop34
280
     0
102
RTVSPost2010PropOp34
 70
     1
102
RTVSPost2010Prop35
280
     0
102
RTVSPost2010PropOp35
 70
     1
102
RTVSPost2010Prop36
280
     0
102
RTVSPost2010PropOp36
 70
     1
102
RTVSPost2010Prop37
 90
       50
102
RTVSPost2010PropOp37
 70
     1
102
RTVSPost2010Prop38
140
0.0
102
RTVSPost2010PropOp38
 70
     1
102
RTVSPost2010Prop39
140
1.0
102
RTVSPost2010PropOp39
 70
     1
102
RTVSPost2010Prop40
 90
        0
102
RTVSPost2010PropOp40
 70
     1
102
RTVSPost2010Prop41ColorIndex
 90
       18
102
RTVSPost2010Prop41ColorRGB
 90
        0
102
RTVSPost2010PropOp41
 70
     1
102
RTVSPost2010Prop42
 90
       50
102
RTVSPost2010PropOp42
 70
     1
102
RTVSPost2010Prop43
 90
        3
102
RTVSPost2010PropOp43
 70
     1
102
RTVSPost2010Prop44ColorIndex
 90
        5
102
RTVSPost2010Prop44ColorRGB
 90
      255
102
RTVSPost2010PropOp44
 70
     1
102
RTVSPost2010Prop45
280
     0
102
RTVSPost2010PropOp45
 70
     1
102
RTVSPost2010Prop46
 90
       50
102
RTVSPost2010PropOp46
 70
     1
102
RTVSPost2010Prop47
 90
       50
102
RTVSPost2010PropOp47
 70
     1
102
RTVSPost2010Prop48
 90
       50
102
RTVSPost2010PropOp48
 70
     1
102
RTVSPost2010Prop49
280
     0
102
RTVSPost2010PropOp49
 70
     1
102
RTVSPost2010Prop50
 90
       50
102
RTVSPost2010PropOp50
 70
     1
102
RTVSPost2010Prop51ColorIndex
 90
      256
102
RTVSPost2010Prop51ColorRGB
 90
-16777216
102
RTVSPost2010PropOp51
 70
     0
102
RTVSPost2010Prop52
140
1.0
102
RTVSPost2010PropOp52
 70
     0
102
RTVSPost2010Prop53
 90
        2
102
RTVSPost2010PropOp53
 70
     1
102
RTVSPost2010Prop54
  1
strokes_ogs.tif
102
RTVSPost2010PropOp54
 70
     1
102
RTVSPost2010Prop55
280
     0
102
RTVSPost2010PropOp55
 70
     1
102
RTVSPost2010Prop56
140
1.0
102
RTVSPost2010PropOp56
 70
     1
102
RTVSPost2010Prop57
140
1.0
102
RTVSPost2010PropOp57
 70
     1
  0
XRECORD
  5
18F
102
{ACAD_REACTORS
330
18E
102
}
330
18E
100
AcDbXrecord
280
     1
102
RTVSPost2010Prop28
280
     0
102
RTVSPost2010PropOp28
 70
     1
102
RTVSPost2010Prop29
280
     1
102
RTVSPost2010PropOp29
 70
     1
102
RTVSPost2010Prop30
280
     1
102
RTVSPost2010PropOp30
 70
     1
102
RTVSPost2010Prop31
280
     0
102
RTVSPost2010PropOp31
 70
     1
102
RTVSPost2010Prop32
280
     0
102
RTVSPost2010PropOp32
 70
     1
102
RTVSPost2010Prop33
280
     0
102
RTVSPost2010PropOp33
 70
     1
102
RTVSPost2010Prop34
280
     0
102
RTVSPost2010PropOp34
 70
     1
102
RTVSPost2010Prop35
280
     0
102
RTVSPost2010PropOp35
 70
     1
102
RTVSPost2010Prop36
280
     0
102
RTVSPost2010PropOp36
 70
     1
102
RTVSPost2010Prop37
 90
       50
102
RTVSPost2010PropOp37
 70
     1
102
RTVSPost2010Prop38
140
0.0
102
RTVSPost2010PropOp38
 70
     1
102
RTVSPost2010Prop39
140
1.0
102
RTVSPost2010PropOp39
 70
     1
102
RTVSPost2010Prop40
 90
        0
102
RTVSPost2010PropOp40
 70
     1
102
RTVSPost2010Prop41ColorIndex
 90
       18
102
RTVSPost2010Prop41ColorRGB
 90
        0
102
RTVSPost2010PropOp41
 70
     1
102
RTVSPost2010Prop42
 90
       50
102
RTVSPost2010PropOp42
 70
     1
102
RTVSPost2010Prop43
 90
        3
102
RTVSPost2010PropOp43
 70
     1
102
RTVSPost2010Prop44ColorIndex
 90
        5
102
RTVSPost2010Prop44ColorRGB
 90
      255
102
RTVSPost2010PropOp44
 70
     1
102
RTVSPost2010Prop45
280
     0
102
RTVSPost2010PropOp45
 70
     1
102
RTVSPost2010Prop46
 90
       50
102
RTVSPost2010PropOp46
 70
     1
102
RTVSPost2010Prop47
 90
       50
102
RTVSPost2010PropOp47
 70
     1
102
RTVSPost2010Prop48
 90
       50
102
RTVSPost2010PropOp48
 70
     1
102
RTVSPost2010Prop49
280
     0
102
RTVSPost2010PropOp49
 70
     1
102
RTVSPost2010Prop50
 90
       50
102
RTVSPost2010PropOp50
 70
     1
102
RTVSPost2010Prop51ColorIndex
 90
      256
102
RTVSPost2010Prop51ColorRGB
 90
-16777216
102
RTVSPost2010PropOp51
 70
     0
102
RTVSPost2010Prop52
140
1.0
102
RTVSPost2010PropOp52
 70
     0
102
RTVSPost2010Prop53
 90
        2
102
RTVSPost2010PropOp53
 70
     1
102
RTVSPost2010Prop54
  1
strokes_ogs.tif
102
RTVSPost2010PropOp54
 70
     1
102
RTVSPost2010Prop55
280
     0
102
RTVSPost2010PropOp55
 70
     1
102
RTVSPost2010Prop56
140
1.0
102
RTVSPost2010PropOp56
 70
     1
102
RTVSPost2010Prop57
140
1.0
102
RTVSPost2010PropOp57
 70
     1
  0
ENDSEC
  0
EOF
