  0
SECTION
  2
HEADER
  9
$ACADVER
  1
AC1024
  9
$ACADMAINTVER
 70
     6
  9
$DWGCODEPAGE
  3
UNDEFINED
  9
$INSBASE
 10
0.0
 20
0.0
 30
0.0
  9
$EXTMIN
 10
1.000000000000000E+20
 20
1.000000000000000E+20
 30
1.000000000000000E+20
  9
$EXTMAX
 10
-1.000000000000000E+20
 20
-1.000000000000000E+20
 30
-1.000000000000000E+20
  9
$LIMMIN
 10
0.0
 20
0.0
  9
$LIMMAX
 10
12.0
 20
9.0
  9
$ORTHOMODE
 70
     0
  9
$REGENMODE
 70
     1
  9
$FILLMODE
 70
     1
  9
$QTEXTMODE
 70
     0
  9
$MIRRTEXT
 70
     1
  9
$LTSCALE
 40
1.0
  9
$ATTMODE
 70
     1
  9
$TEXTSIZE
 40
0.2
  9
$TRACEWID
 40
0.05
  9
$TEXTSTYLE
  7
Standard
  9
$CLAYER
  8
0
  9
$CELTYPE
  6
ByLayer
  9
$CECOLOR
 62
   256
  9
$CELTSCALE
 40
1.0
  9
$DISPSILH
 70
     0
  9
$DIMSCALE
 40
1.0
  9
$DIMASZ
 40
0.18
  9
$DIMEXO
 40
0.0625
  9
$DIMDLI
 40
0.38
  9
$DIMRND
 40
0.0
  9
$DIMDLE
 40
0.0
  9
$DIMEXE
 40
0.18
  9
$DIMTP
 40
0.0
  9
$DIMTM
 40
0.0
  9
$DIMTXT
 40
0.18
  9
$DIMCEN
 40
0.09
  9
$DIMTSZ
 40
0.0
  9
$DIMTOL
 70
     0
  9
$DIMLIM
 70
     0
  9
$DIMTIH
 70
     1
  9
$DIMTOH
 70
     1
  9
$DIMSE1
 70
     0
  9
$DIMSE2
 70
     0
  9
$DIMTAD
 70
     0
  9
$DIMZIN
 70
     0
  9
$DIMBLK
  1

  9
$DIMASO
 70
     1
  9
$DIMSHO
 70
     1
  9
$DIMPOST
  1

  9
$DIMAPOST
  1

  9
$DIMALT
 70
     0
  9
$DIMALTD
 70
     2
  9
$DIMALTF
 40
25.4
  9
$DIMLFAC
 40
1.0
  9
$DIMTOFL
 70
     0
  9
$DIMTVP
 40
0.0
  9
$DIMTIX
 70
     0
  9
$DIMSOXD
 70
     0
  9
$DIMSAH
 70
     0
  9
$DIMBLK1
  1

  9
$DIMBLK2
  1

  9
$DIMSTYLE
  2
Standard
  9
$DIMCLRD
 70
     0
  9
$DIMCLRE
 70
     0
  9
$DIMCLRT
 70
     0
  9
$DIMTFAC
 40
1.0
  9
$DIMGAP
 40
0.09
  9
$DIMJUST
 70
     0
  9
$DIMSD1
 70
     0
  9
$DIMSD2
 70
     0
  9
$DIMTOLJ
 70
     1
  9
$DIMTZIN
 70
     0
  9
$DIMALTZ
 70
     0
  9
$DIMALTTZ
 70
     0
  9
$DIMUPT
 70
     0
  9
$DIMDEC
 70
     4
  9
$DIMTDEC
 70
     4
  9
$DIMALTU
 70
     2
  9
$DIMALTTD
 70
     2
  9
$DIMTXSTY
  7
Standard
  9
$DIMAUNIT
 70
     0
  9
$DIMADEC
 70
     0
  9
$DIMALTRND
 40
0.0
  9
$DIMAZIN
 70
     0
  9
$DIMDSEP
 70
    46
  9
$DIMATFIT
 70
     3
  9
$DIMFRAC
 70
     0
  9
$DIMLDRBLK
  1

  9
$DIMLUNIT
 70
     2
  9
$DIMLWD
 70
    -2
  9
$DIMLWE
 70
    -2
  9
$DIMTMOVE
 70
     0
  9
$DIMFXL
 40
1.0
  9
$DIMFXLON
 70
     0
  9
$DIMJOGANG
 40
0.7853981633974483
  9
$DIMTFILL
 70
     0
  9
$DIMTFILLCLR
 70
     0
  9
$DIMARCSYM
 70
     0
  9
$DIMLTYPE
  6

  9
$DIMLTEX1
  6

  9
$DIMLTEX2
  6

  9
$DIMTXTDIRECTION
 70
     0
  9
$LUNITS
 70
     2
  9
$LUPREC
 70
     4
  9
$SKETCHINC
 40
0.1
  9
$FILLETRAD
 40
0.5
  9
$AUNITS
 70
     0
  9
$AUPREC
 70
     0
  9
$MENU
  1
.
  9
$ELEVATION
 40
0.0
  9
$PELEVATION
 40
0.0
  9
$THICKNESS
 40
0.0
  9
$LIMCHECK
 70
     0
  9
$CHAMFERA
 40
0.5
  9
$CHAMFERB
 40
0.5
  9
$CHAMFERC
 40
1.0
  9
$CHAMFERD
 40
0.0
  9
$SKPOLY
 70
     0
  9
$TDCREATE
 40
2457917.597523148
  9
$TDUCREATE
 40
2457917.222523148
  9
$TDUPDATE
 40
2457917.597523148
  9
$TDUUPDATE
 40
2457917.222523148
  9
$TDINDWG
 40
0.0000000116
  9
$TDUSRTIMER
 40
0.0000000116
  9
$USRTIMER
 70
     1
  9
$ANGBASE
 50
0.0
  9
$ANGDIR
 70
     0
  9
$PDMODE
 70
     0
  9
$PDSIZE
 40
0.0
  9
$PLINEWID
 40
0.0
  9
$SPLFRAME
 70
     0
  9
$SPLINETYPE
 70
     6
  9
$SPLINESEGS
 70
     8
  9
$HANDSEED
  5
1D3
  9
$SURFTAB1
 70
     6
  9
$SURFTAB2
 70
     6
  9
$SURFTYPE
 70
     6
  9
$SURFU
 70
     6
  9
$SURFV
 70
     6
  9
$UCSBASE
  2

  9
$UCSNAME
  2

  9
$UCSORG
 10
0.0
 20
0.0
 30
0.0
  9
$UCSXDIR
 10
1.0
 20
0.0
 30
0.0
  9
$UCSYDIR
 10
0.0
 20
1.0
 30
0.0
  9
$UCSORTHOREF
  2

  9
$UCSORTHOVIEW
 70
     0
  9
$UCSORGTOP
 10
0.0
 20
0.0
 30
0.0
  9
$UCSORGBOTTOM
 10
0.0
 20
0.0
 30
0.0
  9
$UCSORGLEFT
 10
0.0
 20
0.0
 30
0.0
  9
$UCSORGRIGHT
 10
0.0
 20
0.0
 30
0.0
  9
$UCSORGFRONT
 10
0.0
 20
0.0
 30
0.0
  9
$UCSORGBACK
 10
0.0
 20
0.0
 30
0.0
  9
$PUCSBASE
  2

  9
$PUCSNAME
  2

  9
$PUCSORG
 10
0.0
 20
0.0
 30
0.0
  9
$PUCSXDIR
 10
1.0
 20
0.0
 30
0.0
  9
$PUCSYDIR
 10
0.0
 20
1.0
 30
0.0
  9
$PUCSORTHOREF
  2

  9
$PUCSORTHOVIEW
 70
     0
  9
$PUCSORGTOP
 10
0.0
 20
0.0
 30
0.0
  9
$PUCSORGBOTTOM
 10
0.0
 20
0.0
 30
0.0
  9
$PUCSORGLEFT
 10
0.0
 20
0.0
 30
0.0
  9
$PUCSORGRIGHT
 10
0.0
 20
0.0
 30
0.0
  9
$PUCSORGFRONT
 10
0.0
 20
0.0
 30
0.0
  9
$PUCSORGBACK
 10
0.0
 20
0.0
 30
0.0
  9
$USERI1
 70
     0
  9
$USERI2
 70
     0
  9
$USERI3
 70
     0
  9
$USERI4
 70
     0
  9
$USERI5
 70
     0
  9
$USERR1
 40
0.0
  9
$USERR2
 40
0.0
  9
$USERR3
 40
0.0
  9
$USERR4
 40
0.0
  9
$USERR5
 40
0.0
  9
$WORLDVIEW
 70
     1
  9
$SHADEDGE
 70
     3
  9
$SHADEDIF
 70
    70
  9
$TILEMODE
 70
     1
  9
$MAXACTVP
 70
    64
  9
$PINSBASE
 10
0.0
 20
0.0
 30
0.0
  9
$PLIMCHECK
 70
     0
  9
$PEXTMIN
 10
1.000000000000000E+20
 20
1.000000000000000E+20
 30
1.000000000000000E+20
  9
$PEXTMAX
 10
-1.000000000000000E+20
 20
-1.000000000000000E+20
 30
-1.000000000000000E+20
  9
$PLIMMIN
 10
0.0
 20
0.0
  9
$PLIMMAX
 10
12.0
 20
9.0
  9
$UNITMODE
 70
     0
  9
$VISRETAIN
 70
     1
  9
$PLINEGEN
 70
     0
  9
$PSLTSCALE
 70
     1
  9
$TREEDEPTH
 70
  3020
  9
$CMLSTYLE
  2
Standard
  9
$CMLJUST
 70
     0
  9
$CMLSCALE
 40
1.0
  9
$PROXYGRAPHICS
 70
     1
  9
$MEASUREMENT
 70
     0
  9
$CELWEIGHT
370
    -1
  9
$ENDCAPS
280
     0
  9
$JOINSTYLE
280
     0
  9
$LWDISPLAY
290
     1
  9
$INSUNITS
 70
     1
  9
$HYPERLINKBASE
  1

  9
$STYLESHEET
  1

  9
$XEDIT
290
     1
  9
$CEPSNTYPE
380
     0
  9
$PSTYLEMODE
290
     1
  9
$FINGERPRINTGUID
  2
{DECF4839-6F87-DE43-A020-573931335C52}
  9
$VERSIONGUID
  2
{FAEB1C32-E019-11D5-929B-00C0DF256EC4}
  9
$EXTNAMES
290
     1
  9
$PSVPSCALE
 40
0.0
  9
$OLESTARTUP
290
     0
  9
$SORTENTS
280
   127
  9
$INDEXCTL
280
     0
  9
$HIDETEXT
280
     1
  9
$XCLIPFRAME
280
     2
  9
$HALOGAP
280
     0
  9
$OBSCOLOR
 70
   257
  9
$OBSLTYPE
280
     0
  9
$INTERSECTIONDISPLAY
280
     0
  9
$INTERSECTIONCOLOR
 70
   257
  9
$DIMASSOC
280
     2
  9
$PROJECTNAME
  1

  9
$CAMERADISPLAY
290
     0
  9
$LENSLENGTH
 40
50.0
  9
$CAMERAHEIGHT
 40
0.0
  9
$STEPSPERSEC
 40
2.0
  9
$STEPSIZE
 40
6.0
  9
$3DDWFPREC
 40
2.0
  9
$PSOLWIDTH
 40
0.25
  9
$PSOLHEIGHT
 40
4.0
  9
$LOFTANG1
 40
1.570796326794897
  9
$LOFTANG2
 40
1.570796326794897
  9
$LOFTMAG1
 40
0.0
  9
$LOFTMAG2
 40
0.0
  9
$LOFTPARAM
 70
     7
  9
$LOFTNORMALS
280
     1
  9
$LATITUDE
 40
37.795
  9
$LONGITUDE
 40
-122.394
  9
$NORTHDIRECTION
 40
0.0
  9
$TIMEZONE
 70
 -8000
  9
$LIGHTGLYPHDISPLAY
280
     1
  9
$TILEMODELIGHTSYNCH
280
     1
  9
$CMATERIAL
347
3C
  9
$SOLIDHIST
280
     1
  9
$SHOWHIST
280
     1
  9
$DWFFRAME
280
     2
  9
$DGNFRAME
280
     2
  9
$REALWORLDSCALE
290
     1
  9
$INTERFERECOLOR
 62
   256
  9
$CSHADOW
280
     0
  9
$SHADOWPLANELOCATION
 40
0.0
  0
ENDSEC
  0
SECTION
  2
CLASSES
  0
CLASS
  1
ACDBDICTIONARYWDFLT
  2
AcDbDictionaryWithDefault
  3
ObjectDBX Classes
 90
        0
 91
        4
280
     0
281
     0
  0
CLASS
  1
VISUALSTYLE
  2
AcDbVisualStyle
  3
ObjectDBX Classes
 90
     4095
 91
        4
280
     0
281
     0
  0
CLASS
  1
MATERIAL
  2
AcDbMaterial
  3
ObjectDBX Classes
 90
     1153
 91
        4
280
     0
281
     0
  0
CLASS
  1
SUN
  2
AcDbSun
  3
SCENEOE
 90
     1024
 91
        4
280
     0
281
     0
  0
ENDSEC
  0
SECTION
  2
TABLES
  0
TABLE
  2
VPORT
  5
8
330
0
100
AcDbSymbolTable
 70
     1
  0
VPORT
  5
29
330
8
100
AcDbSymbolTableRecord
100
AcDbViewportTableRecord
  2
*Active
 70
     0
 10
0.0
 20
0.0
 11
1.0
 21
1.0
 12
0.0
 22
0.0
 13
0.0
 23
0.0
 14
0.5
 24
0.5
 15
0.5
 25
0.5
 16
0.0
 26
0.0
 36
1.0
 17
91.00082462281999
 27
-128.4993055234307
 37
0.0
 40
256.9986110468615
 41
0.7081814508812795
 42
50.0
 43
0.0
 44
0.0
 50
0.0
 51
0.0
 71
     0
 72
   100
 73
     1
 74
     3
 75
     0
 76
     0
 77
     0
 78
     0
281
     0
 65
     1
110
0.0
120
0.0
130
0.0
111
1.0
121
0.0
131
0.0
112
0.0
122
1.0
132
0.0
 79
     0
146
0.0
 60
     3
 61
     5
292
     1
282
     1
141
0.0
142
0.0
 63
   250
361
3F
  0
ENDTAB
  0
TABLE
  2
LTYPE
  5
5
330
0
100
AcDbSymbolTable
 70
     2
  0
LTYPE
  5
14
330
5
100
AcDbSymbolTableRecord
100
AcDbLinetypeTableRecord
  2
ByBlock
 70
     0
  3

 72
    65
 73
     0
 40
0.0
  0
LTYPE
  5
15
330
5
100
AcDbSymbolTableRecord
100
AcDbLinetypeTableRecord
  2
ByLayer
 70
     0
  3

 72
    65
 73
     0
 40
0.0
  0
LTYPE
  5
16
330
5
100
AcDbSymbolTableRecord
100
AcDbLinetypeTableRecord
  2
Continuous
 70
     0
  3
Solid line
 72
    65
 73
     0
 40
0.0
  0
LTYPE
  5
44
330
5
100
AcDbSymbolTableRecord
100
AcDbLinetypeTableRecord
  2
AI-Linetype-1
 70
     0
  3
Adobe Illustrator Linetype No. 1
 72
    65
 73
     2
 40
1.411111110758333
 49
0.7055555553791667
 74
     0
 49
-0.7055555553791667
 74
     0
  0
ENDTAB
  0
TABLE
  2
LAYER
  5
2
330
0
100
AcDbSymbolTable
 70
     2
  0
LAYER
  5
10
330
2
100
AcDbSymbolTableRecord
100
AcDbLayerTableRecord
  2
0
 70
     0
 62
     7
  6
Continuous
370
    -3
390
F
347
3E
  0
LAYER
  5
40
330
2
100
AcDbSymbolTableRecord
100
AcDbLayerTableRecord
  2
_U+30EC_U+30A4_U+30E4_U+30FC 1
 70
     0
 62
     7
  6
Continuous
370
    -3
390
F
347
3E
  0
ENDTAB
  0
TABLE
  2
STYLE
  5
3
330
0
100
AcDbSymbolTable
 70
     1
  0
STYLE
  5
11
330
3
100
AcDbSymbolTableRecord
100
AcDbTextStyleTableRecord
  2
Standard
 70
     0
 40
0.0
 41
1.0
 50
0.0
 71
     0
 42
0.2
  3
txt
  4

  0
ENDTAB
  0
TABLE
  2
VIEW
  5
6
330
0
100
AcDbSymbolTable
 70
     0
  0
ENDTAB
  0
TABLE
  2
UCS
  5
7
330
0
100
AcDbSymbolTable
 70
     0
  0
ENDTAB
  0
TABLE
  2
APPID
  5
9
330
0
100
AcDbSymbolTable
 70
     1
  0
APPID
  5
12
330
9
100
AcDbSymbolTableRecord
100
AcDbRegAppTableRecord
  2
ACAD
 70
     0
  0
ENDTAB
  0
TABLE
  2
DIMSTYLE
  5
A
330
0
100
AcDbSymbolTable
 70
     1
100
AcDbDimStyleTable
  0
DIMSTYLE
105
27
330
A
100
AcDbSymbolTableRecord
100
AcDbDimStyleTableRecord
  2
Standard
 70
     0
178
     0
340
11
  0
ENDTAB
  0
TABLE
  2
BLOCK_RECORD
  5
1
330
0
100
AcDbSymbolTable
 70
    10
  0
BLOCK_RECORD
  5
1F
330
1
100
AcDbSymbolTableRecord
100
AcDbBlockTableRecord
  2
*Model_Space
340
22
 70
     0
280
     1
281
     0
  0
BLOCK_RECORD
  5
1B
330
1
100
AcDbSymbolTableRecord
100
AcDbBlockTableRecord
  2
*Paper_Space
340
1E
 70
     0
280
     1
281
     0
  0
BLOCK_RECORD
  5
23
330
1
100
AcDbSymbolTableRecord
100
AcDbBlockTableRecord
  2
*Paper_Space0
340
26
 70
     0
280
     1
281
     0
  0
BLOCK_RECORD
  5
11C
330
1
100
AcDbSymbolTableRecord
100
AcDbBlockTableRecord
  2
block 2
340
0
102
{BLKREFS
331
11D
102
}
 70
     0
280
     1
281
     0
  0
BLOCK_RECORD
  5
135
330
1
100
AcDbSymbolTableRecord
100
AcDbBlockTableRecord
  2
block 3
340
0
102
{BLKREFS
331
136
102
}
 70
     0
280
     1
281
     0
  0
BLOCK_RECORD
  5
145
330
1
100
AcDbSymbolTableRecord
100
AcDbBlockTableRecord
  2
block 4
340
0
102
{BLKREFS
331
146
102
}
 70
     0
280
     1
281
     0
  0
BLOCK_RECORD
  5
159
330
1
100
AcDbSymbolTableRecord
100
AcDbBlockTableRecord
  2
block 5
340
0
102
{BLKREFS
331
15A
102
}
 70
     0
280
     1
281
     0
  0
BLOCK_RECORD
  5
16D
330
1
100
AcDbSymbolTableRecord
100
AcDbBlockTableRecord
  2
block 6
340
0
102
{BLKREFS
331
16E
102
}
 70
     0
280
     1
281
     0
  0
BLOCK_RECORD
  5
18E
330
1
100
AcDbSymbolTableRecord
100
AcDbBlockTableRecord
  2
block 7
340
0
102
{BLKREFS
331
18F
102
}
 70
     0
280
     1
281
     0
  0
BLOCK_RECORD
  5
194
330
1
100
AcDbSymbolTableRecord
100
AcDbBlockTableRecord
  2
block 8
340
0
102
{BLKREFS
331
195
102
}
 70
     0
280
     1
281
     0
  0
BLOCK_RECORD
  5
198
330
1
100
AcDbSymbolTableRecord
100
AcDbBlockTableRecord
  2
block 9
340
0
102
{BLKREFS
331
199
102
}
 70
     0
280
     1
281
     0
  0
BLOCK_RECORD
  5
1A8
330
1
100
AcDbSymbolTableRecord
100
AcDbBlockTableRecord
  2
block 10
340
0
102
{BLKREFS
331
1A9
102
}
 70
     0
280
     1
281
     0
  0
ENDTAB
  0
ENDSEC
  0
SECTION
  2
BLOCKS
  0
BLOCK
  5
20
330
1F
100
AcDbEntity
  8
0
100
AcDbBlockBegin
  2
*Model_Space
 70
     0
 10
0.0
 20
0.0
 30
0.0
  3
*Model_Space
  1

  0
ENDBLK
  5
21
330
1F
100
AcDbEntity
  8
0
100
AcDbBlockEnd
  0
BLOCK
  5
1C
330
1B
100
AcDbEntity
 67
     1
  8
0
100
AcDbBlockBegin
  2
*Paper_Space
 70
     0
 10
0.0
 20
0.0
 30
0.0
  3
*Paper_Space
  1

  0
ENDBLK
  5
1D
330
1B
100
AcDbEntity
 67
     1
  8
0
100
AcDbBlockEnd
  0
BLOCK
  5
24
330
23
100
AcDbEntity
  8
0
100
AcDbBlockBegin
  2
*Paper_Space0
 70
     0
 10
0.0
 20
0.0
 30
0.0
  3
*Paper_Space0
  1

  0
ENDBLK
  5
25
330
23
100
AcDbEntity
  8
0
100
AcDbBlockEnd
  0
BLOCK
  5
11E
330
11C
100
AcDbEntity
  8
0
100
AcDbBlockBegin
  2
block 2
 70
     0
 10
0.0
 20
0.0
 30
0.0
  3
block 2
  1

  0
SPLINE
  5
120
330
11C
100
AcDbEntity
  8
_U+30EC_U+30A4_U+30E4_U+30FC 1
370
     0
100
AcDbSpline
210
0.0
220
0.0
230
1.0
 70
    11
 71
     3
 72
    29
 73
    25
 74
     0
 42
0.0000000001
 43
0.0000000001
 12
1.0
 22
0.0
 32
0.0
 13
1.0
 23
0.0
 33
0.0
 40
0.0
 40
0.0
 40
0.0
 40
0.0
 40
1.0
 40
1.0
 40
1.0
 40
2.0
 40
2.0
 40
2.0
 40
3.0
 40
3.0
 40
3.0
 40
4.0
 40
4.0
 40
4.0
 40
5.0
 40
5.0
 40
5.0
 40
6.0
 40
6.0
 40
6.0
 40
7.0
 40
7.0
 40
7.0
 40
8.0
 40
8.0
 40
8.0
 40
8.0
 10
77.65727537121069
 20
-126.2565483625331
 30
0.0
 10
77.86673717671387
 20
-126.3647243607699
 30
0.0
 10
77.885857456657
 20
-126.538012663678
 30
0.0
 10
77.885857456657
 20
-126.6544568910794
 30
0.0
 10
77.885857456657
 20
-126.8153428502406
 30
0.0
 10
77.83934866760615
 20
-126.9569362746844
 30
0.0
 10
77.65727537121069
 20
-127.0520209100773
 30
0.0
 10
77.46279973106833
 20
-127.1557182841833
 30
0.0
 10
77.22577716168314
 20
-127.1750108189007
 30
0.0
 10
77.06282414523082
 20
-127.1750108189007
 30
0.0
 10
76.91899140872164
 20
-127.1750108189007
 30
0.0
 10
76.66732718352415
 20
-127.1577853414745
 30
0.0
 10
76.46837291925097
 20
-127.0520209100773
 30
0.0
 10
76.26528454039548
 20
-126.944189421389
 30
0.0
 10
76.24203014587005
 20
-126.7833034622278
 30
0.0
 10
76.24203014587005
 20
-126.6544568910794
 30
0.0
 10
76.24203014587005
 20
-126.4956379892094
 30
0.0
 10
76.28647187762978
 20
-126.3519775074745
 30
0.0
 10
76.46837291925097
 20
-126.2565483625331
 30
0.0
 10
76.66095375687644
 20
-126.1573296125579
 30
0.0
 10
76.8893635875485
 20
-126.1339029632582
 30
0.0
 10
77.06282414523082
 20
-126.1339029632582
 30
0.0
 10
77.23421764562201
 20
-126.1339029632582
 30
0.0
 10
77.46486678835949
 20
-126.1552625552667
 30
0.0
 10
77.65727537121069
 20
-126.2565483625331
 30
0.0
  0
SPLINE
  5
121
330
11C
100
AcDbEntity
  8
_U+30EC_U+30A4_U+30E4_U+30FC 1
370
     0
100
AcDbSpline
210
0.0
220
0.0
230
1.0
 70
    11
 71
     3
 72
    17
 73
    13
 74
     0
 42
0.0000000001
 43
0.0000000001
 12
1.0
 22
0.0
 32
0.0
 13
1.0
 23
0.0
 33
0.0
 40
0.0
 40
0.0
 40
0.0
 40
0.0
 40
1.0
 40
1.0
 40
1.0
 40
2.0
 40
2.0
 40
2.0
 40
3.0
 40
3.0
 40
3.0
 40
4.0
 40
4.0
 40
4.0
 40
4.0
 10
76.43461098349552
 20
-126.6544568910794
 30
0.0
 10
76.43461098349552
 20
-126.9042263137601
 30
0.0
 10
76.71797008715731
 20
-126.9507351028109
 30
0.0
 10
77.06282414523082
 20
-126.9507351028109
 30
0.0
 10
77.38235675148775
 20
-126.9507351028109
 30
0.0
 10
77.6912095617404
 20
-126.9145616002158
 30
0.0
 10
77.6912095617404
 20
-126.6544568910794
 30
0.0
 10
77.6912095617404
 20
-126.40675452569
 30
0.0
 10
77.40974526059549
 20
-126.358178679348
 30
0.0
 10
77.06282414523082
 20
-126.358178679348
 30
0.0
 10
76.74346379374816
 20
-126.358178679348
 30
0.0
 10
76.43461098349552
 20
-126.3964192392342
 30
0.0
 10
76.43461098349552
 20
-126.6544568910794
 30
0.0
  0
HATCH
  5
122
330
11C
100
AcDbEntity
  8
_U+30EC_U+30A4_U+30E4_U+30FC 1
 62
   179
420
  2234388
100
AcDbHatch
 10
0.0
 20
0.0
 30
0.0
210
0.0
220
0.0
230
1.0
  2
SOLID
 70
     1
 71
     0
 91
        2
 92
        1
 93
        1
 72
     4
 94
        3
 73
     0
 74
     1
 95
       29
 96
       25
 40
0.0
 40
0.0
 40
0.0
 40
0.0
 40
1.0
 40
1.0
 40
1.0
 40
2.0
 40
2.0
 40
2.0
 40
3.0
 40
3.0
 40
3.0
 40
4.0
 40
4.0
 40
4.0
 40
5.0
 40
5.0
 40
5.0
 40
6.0
 40
6.0
 40
6.0
 40
7.0
 40
7.0
 40
7.0
 40
8.0
 40
8.0
 40
8.0
 40
8.0
 10
77.65727537121069
 20
-126.2565483625331
 10
77.86673717671387
 20
-126.3647243607699
 10
77.885857456657
 20
-126.538012663678
 10
77.885857456657
 20
-126.6544568910794
 10
77.885857456657
 20
-126.8153428502406
 10
77.83934866760615
 20
-126.9569362746844
 10
77.65727537121069
 20
-127.0520209100773
 10
77.46279973106833
 20
-127.1557182841833
 10
77.22577716168314
 20
-127.1750108189007
 10
77.06282414523082
 20
-127.1750108189007
 10
76.91899140872164
 20
-127.1750108189007
 10
76.66732718352415
 20
-127.1577853414745
 10
76.46837291925097
 20
-127.0520209100773
 10
76.26528454039548
 20
-126.944189421389
 10
76.24203014587005
 20
-126.7833034622278
 10
76.24203014587005
 20
-126.6544568910794
 10
76.24203014587005
 20
-126.4956379892094
 10
76.28647187762978
 20
-126.3519775074745
 10
76.46837291925097
 20
-126.2565483625331
 10
76.66095375687644
 20
-126.1573296125579
 10
76.8893635875485
 20
-126.1339029632582
 10
77.06282414523082
 20
-126.1339029632582
 10
77.23421764562201
 20
-126.1339029632582
 10
77.46486678835949
 20
-126.1552625552667
 10
77.65727537121069
 20
-126.2565483625331
 97
        0
 97
        0
 92
        1
 93
        1
 72
     4
 94
        3
 73
     0
 74
     1
 95
       17
 96
       13
 40
0.0
 40
0.0
 40
0.0
 40
0.0
 40
1.0
 40
1.0
 40
1.0
 40
2.0
 40
2.0
 40
2.0
 40
3.0
 40
3.0
 40
3.0
 40
4.0
 40
4.0
 40
4.0
 40
4.0
 10
76.43461098349552
 20
-126.6544568910794
 10
76.43461098349552
 20
-126.9042263137601
 10
76.71797008715731
 20
-126.9507351028109
 10
77.06282414523082
 20
-126.9507351028109
 10
77.38235675148775
 20
-126.9507351028109
 10
77.6912095617404
 20
-126.9145616002158
 10
77.6912095617404
 20
-126.6544568910794
 10
77.6912095617404
 20
-126.40675452569
 10
77.40974526059549
 20
-126.358178679348
 10
77.06282414523082
 20
-126.358178679348
 10
76.74346379374816
 20
-126.358178679348
 10
76.43461098349552
 20
-126.3964192392342
 10
76.43461098349552
 20
-126.6544568910794
 97
        0
 97
        0
 75
     2
 76
     1
 98
        0
  0
POLYLINE
  5
123
330
11C
100
AcDbEntity
  8
_U+30EC_U+30A4_U+30E4_U+30FC 1
370
     0
100
AcDb2dPolyline
 66
     1
 10
0.0
 20
0.0
 30
0.0
  0
VERTEX
  5
124
330
123
100
AcDbEntity
  8
_U+30EC_U+30A4_U+30E4_U+30FC 1
370
     0
100
AcDbVertex
100
AcDb2dVertex
 10
77.83504229824958
 20
-125.9175509667845
 30
0.0
  0
VERTEX
  5
125
330
123
100
AcDbEntity
  8
_U+30EC_U+30A4_U+30E4_U+30FC 1
370
     0
100
AcDbVertex
100
AcDb2dVertex
 10
77.58337807305207
 20
-125.9175509667845
 30
0.0
  0
VERTEX
  5
126
330
123
100
AcDbEntity
  8
_U+30EC_U+30A4_U+30E4_U+30FC 1
370
     0
100
AcDbVertex
100
AcDb2dVertex
 10
77.58337807305207
 20
-125.6657144868127
 30
0.0
  0
VERTEX
  5
127
330
123
100
AcDbEntity
  8
_U+30EC_U+30A4_U+30E4_U+30FC 1
370
     0
100
AcDbVertex
100
AcDb2dVertex
 10
77.83504229824958
 20
-125.6657144868127
 30
0.0
  0
VERTEX
  5
128
330
123
100
AcDbEntity
  8
_U+30EC_U+30A4_U+30E4_U+30FC 1
370
     0
100
AcDbVertex
100
AcDb2dVertex
 10
77.83504229824958
 20
-125.9175509667845
 30
0.0
  0
SEQEND
  5
129
330
123
100
AcDbEntity
  8
_U+30EC_U+30A4_U+30E4_U+30FC 1
370
     0
  0
HATCH
  5
12A
330
11C
100
AcDbEntity
  8
_U+30EC_U+30A4_U+30E4_U+30FC 1
 62
   179
420
  2234388
100
AcDbHatch
 10
0.0
 20
0.0
 30
0.0
210
0.0
220
0.0
230
1.0
  2
SOLID
 70
     1
 71
     0
 91
        1
 92
        1
 93
        4
 72
     1
 10
77.83504229824958
 20
-125.9175509667845
 11
77.58337807305207
 21
-125.9175509667845
 72
     1
 10
77.58337807305207
 20
-125.9175509667845
 11
77.58337807305207
 21
-125.6657144868127
 72
     1
 10
77.58337807305207
 20
-125.6657144868127
 11
77.83504229824958
 21
-125.6657144868127
 72
     1
 10
77.83504229824958
 20
-125.6657144868127
 11
77.83504229824958
 21
-125.9175509667845
 97
        0
 75
     2
 76
     1
 98
        0
  0
SPLINE
  5
12B
330
11C
100
AcDbEntity
  8
_U+30EC_U+30A4_U+30E4_U+30FC 1
370
     0
100
AcDbSpline
210
0.0
220
0.0
230
1.0
 70
    11
 71
     3
 72
    53
 73
    49
 74
     0
 42
0.0000000001
 43
0.0000000001
 12
1.0
 22
0.0
 32
0.0
 13
1.0
 23
0.0
 33
0.0
 40
0.0
 40
0.0
 40
0.0
 40
0.0
 40
1.0
 40
1.0
 40
1.0
 40
2.0
 40
2.0
 40
2.0
 40
3.0
 40
3.0
 40
3.0
 40
4.0
 40
4.0
 40
4.0
 40
5.0
 40
5.0
 40
5.0
 40
6.0
 40
6.0
 40
6.0
 40
7.0
 40
7.0
 40
7.0
 40
8.0
 40
8.0
 40
8.0
 40
9.0
 40
9.0
 40
9.0
 40
10.0
 40
10.0
 40
10.0
 40
11.0
 40
11.0
 40
11.0
 40
12.0
 40
12.0
 40
12.0
 40
13.0
 40
13.0
 40
13.0
 40
14.0
 40
14.0
 40
14.0
 40
15.0
 40
15.0
 40
15.0
 40
16.0
 40
16.0
 40
16.0
 40
16.0
 10
77.885857456657
 20
-124.9484456067837
 30
0.0
 10
77.885857456657
 20
-125.0266492742989
 30
0.0
 10
77.86897648877928
 20
-125.1282795911138
 30
0.0
 10
77.80541447707643
 20
-125.2299099079286
 30
0.0
 10
77.6953436763227
 20
-125.4031982108367
 30
0.0
 10
77.56425779310894
 20
-125.4245578028453
 30
0.0
 10
77.45642630442062
 20
-125.4435058280141
 30
0.0
 10
77.45642630442062
 20
-125.4435058280141
 30
0.0
 10
77.45642630442062
 20
-125.2212971692155
 30
0.0
 10
77.45642630442062
 20
-125.2212971692155
 30
0.0
 10
77.65520831391953
 20
-125.166520151
 30
0.0
 10
77.68483613509268
 20
-125.0393961275943
 30
0.0
 10
77.68483613509268
 20
-124.9463785494926
 30
0.0
 10
77.68483613509268
 20
-124.80685218234
 30
0.0
 10
77.58544513034323
 20
-124.6545789618919
 30
0.0
 10
77.3527289303146
 20
-124.6545789618919
 30
0.0
 10
77.09675833576054
 20
-124.6545789618919
 30
0.0
 10
77.02699515218423
 20
-124.834412946222
 30
0.0
 10
77.02699515218423
 20
-124.9549912882057
 30
0.0
 10
77.02699515218423
 20
-124.98668616667
 30
0.0
 10
77.02699515218423
 20
-125.1282795911138
 30
0.0
 10
77.15601397810683
 20
-125.2171630546332
 30
0.0
 10
77.15601397810683
 20
-125.2171630546332
 30
0.0
 10
77.1368936981637
 20
-125.3928629243809
 30
0.0
 10
77.1368936981637
 20
-125.3928629243809
 30
0.0
 10
77.1368936981637
 20
-125.3928629243809
 30
0.0
 10
76.29077824698633
 20
-125.2722845823972
 30
0.0
 10
76.29077824698633
 20
-125.2722845823972
 30
0.0
 10
76.29077824698633
 20
-125.2722845823972
 30
0.0
 10
76.29077824698633
 20
-124.4936930027308
 30
0.0
 10
76.29077824698633
 20
-124.4936930027308
 30
0.0
 10
76.29077824698633
 20
-124.4936930027308
 30
0.0
 10
76.48542614190295
 20
-124.4936930027308
 30
0.0
 10
76.48542614190295
 20
-124.4936930027308
 30
0.0
 10
76.48542614190295
 20
-124.4936930027308
 30
0.0
 10
76.48542614190295
 20
-125.1093315659449
 30
0.0
 10
76.48542614190295
 20
-125.1093315659449
 30
0.0
 10
76.48542614190295
 20
-125.1093315659449
 30
0.0
 10
76.90848386749163
 20
-125.1747883801646
 30
0.0
 10
76.90848386749163
 20
-125.1747883801646
 30
0.0
 10
76.87454967696192
 20
-125.1134656805272
 30
0.0
 10
76.83441431455876
 20
-125.0311278984297
 30
0.0
 10
76.83441431455876
 20
-124.9126166137371
 30
0.0
 10
76.83441431455876
 20
-124.6587130764742
 30
0.0
 10
77.02062172553651
 20
-124.421690507089
 30
0.0
 10
77.33360865037146
 20
-124.421690507089
 30
0.0
 10
77.65107419933723
 20
-124.421690507089
 30
0.0
 10
77.885857456657
 20
-124.6459662231788
 30
0.0
 10
77.885857456657
 20
-124.9484456067837
 30
0.0
  0
HATCH
  5
12C
330
11C
100
AcDbEntity
  8
_U+30EC_U+30A4_U+30E4_U+30FC 1
 62
   179
420
  2234388
100
AcDbHatch
 10
0.0
 20
0.0
 30
0.0
210
0.0
220
0.0
230
1.0
  2
SOLID
 70
     1
 71
     0
 91
        1
 92
        1
 93
        1
 72
     4
 94
        3
 73
     0
 74
     1
 95
       53
 96
       49
 40
0.0
 40
0.0
 40
0.0
 40
0.0
 40
1.0
 40
1.0
 40
1.0
 40
2.0
 40
2.0
 40
2.0
 40
3.0
 40
3.0
 40
3.0
 40
4.0
 40
4.0
 40
4.0
 40
5.0
 40
5.0
 40
5.0
 40
6.0
 40
6.0
 40
6.0
 40
7.0
 40
7.0
 40
7.0
 40
8.0
 40
8.0
 40
8.0
 40
9.0
 40
9.0
 40
9.0
 40
10.0
 40
10.0
 40
10.0
 40
11.0
 40
11.0
 40
11.0
 40
12.0
 40
12.0
 40
12.0
 40
13.0
 40
13.0
 40
13.0
 40
14.0
 40
14.0
 40
14.0
 40
15.0
 40
15.0
 40
15.0
 40
16.0
 40
16.0
 40
16.0
 40
16.0
 10
77.885857456657
 20
-124.9484456067837
 10
77.885857456657
 20
-125.0266492742989
 10
77.86897648877928
 20
-125.1282795911138
 10
77.80541447707643
 20
-125.2299099079286
 10
77.6953436763227
 20
-125.4031982108367
 10
77.56425779310894
 20
-125.4245578028453
 10
77.45642630442062
 20
-125.4435058280141
 10
77.45642630442062
 20
-125.4435058280141
 10
77.45642630442062
 20
-125.2212971692155
 10
77.45642630442062
 20
-125.2212971692155
 10
77.65520831391953
 20
-125.166520151
 10
77.68483613509268
 20
-125.0393961275943
 10
77.68483613509268
 20
-124.9463785494926
 10
77.68483613509268
 20
-124.80685218234
 10
77.58544513034323
 20
-124.6545789618919
 10
77.3527289303146
 20
-124.6545789618919
 10
77.09675833576054
 20
-124.6545789618919
 10
77.02699515218423
 20
-124.834412946222
 10
77.02699515218423
 20
-124.9549912882057
 10
77.02699515218423
 20
-124.98668616667
 10
77.02699515218423
 20
-125.1282795911138
 10
77.15601397810683
 20
-125.2171630546332
 10
77.15601397810683
 20
-125.2171630546332
 10
77.1368936981637
 20
-125.3928629243809
 10
77.1368936981637
 20
-125.3928629243809
 10
77.1368936981637
 20
-125.3928629243809
 10
76.29077824698633
 20
-125.2722845823972
 10
76.29077824698633
 20
-125.2722845823972
 10
76.29077824698633
 20
-125.2722845823972
 10
76.29077824698633
 20
-124.4936930027308
 10
76.29077824698633
 20
-124.4936930027308
 10
76.29077824698633
 20
-124.4936930027308
 10
76.48542614190295
 20
-124.4936930027308
 10
76.48542614190295
 20
-124.4936930027308
 10
76.48542614190295
 20
-124.4936930027308
 10
76.48542614190295
 20
-125.1093315659449
 10
76.48542614190295
 20
-125.1093315659449
 10
76.48542614190295
 20
-125.1093315659449
 10
76.90848386749163
 20
-125.1747883801646
 10
76.90848386749163
 20
-125.1747883801646
 10
76.87454967696192
 20
-125.1134656805272
 10
76.83441431455876
 20
-125.0311278984297
 10
76.83441431455876
 20
-124.9126166137371
 10
76.83441431455876
 20
-124.6587130764742
 10
77.02062172553651
 20
-124.421690507089
 10
77.33360865037146
 20
-124.421690507089
 10
77.65107419933723
 20
-124.421690507089
 10
77.885857456657
 20
-124.6459662231788
 10
77.885857456657
 20
-124.9484456067837
 97
        0
 97
        0
 75
     2
 76
     1
 98
        0
  0
ENDBLK
  5
11F
330
11C
100
AcDbEntity
  8
0
100
AcDbBlockEnd
  0
BLOCK
  5
137
330
135
100
AcDbEntity
  8
0
100
AcDbBlockBegin
  2
block 3
 70
     0
 10
0.0
 20
0.0
 30
0.0
  3
block 3
  1

  0
SPLINE
  5
139
330
135
100
AcDbEntity
  8
_U+30EC_U+30A4_U+30E4_U+30FC 1
370
     0
100
AcDbSpline
210
0.0
220
0.0
230
1.0
 70
    11
 71
     3
 72
    44
 73
    40
 74
     0
 42
0.0000000001
 43
0.0000000001
 12
1.0
 22
0.0
 32
0.0
 13
1.0
 23
0.0
 33
0.0
 40
0.0
 40
0.0
 40
0.0
 40
0.0
 40
1.0
 40
1.0
 40
1.0
 40
2.0
 40
2.0
 40
2.0
 40
3.0
 40
3.0
 40
3.0
 40
4.0
 40
4.0
 40
4.0
 40
5.0
 40
5.0
 40
5.0
 40
6.0
 40
6.0
 40
6.0
 40
7.0
 40
7.0
 40
7.0
 40
8.0
 40
8.0
 40
8.0
 40
9.0
 40
9.0
 40
9.0
 40
10.0
 40
10.0
 40
10.0
 40
11.0
 40
11.0
 40
11.0
 40
12.0
 40
12.0
 40
12.0
 40
13.0
 40
13.0
 40
13.0
 40
13.0
 10
91.43765731221004
 20
-119.4421494927089
 30
0.0
 10
91.21992727754224
 20
-119.6007961398047
 30
0.0
 10
91.12673744466623
 20
-119.6748656927375
 30
0.0
 10
91.07816159832421
 20
-119.8186984292467
 30
0.0
 10
91.07816159832421
 20
-119.8186984292467
 30
0.0
 10
91.85658092321641
 20
-119.8186984292467
 30
0.0
 10
91.85658092321641
 20
-119.8186984292467
 30
0.0
 10
91.85658092321641
 20
-119.8186984292467
 30
0.0
 10
91.85658092321641
 20
-120.0238538653933
 30
0.0
 10
91.85658092321641
 20
-120.0238538653933
 30
0.0
 10
91.85658092321641
 20
-120.0238538653933
 30
0.0
 10
90.82856443041786
 20
-120.0238538653933
 30
0.0
 10
90.82856443041786
 20
-120.0238538653933
 30
0.0
 10
90.86025930888216
 20
-119.6662529540244
 30
0.0
 10
90.92588837787618
 20
-119.5880492865092
 30
0.0
 10
91.31087779835283
 20
-119.2897040174866
 30
0.0
 10
91.5668483929069
 20
-119.0909220079877
 30
0.0
 10
91.63230520712665
 20
-119.0232258817025
 30
0.0
 10
91.63230520712665
 20
-118.8857665718411
 30
0.0
 10
91.63230520712665
 20
-118.7672552871485
 30
0.0
 10
91.56030271148492
 20
-118.6359971491604
 30
0.0
 10
91.36376001405142
 20
-118.6359971491604
 30
0.0
 10
91.1034830501408
 20
-118.6359971491604
 30
0.0
 10
91.09504256620194
 20
-118.8666462918979
 30
0.0
 10
91.09073619684537
 20
-118.9830905192994
 30
0.0
 10
91.09073619684537
 20
-118.9830905192994
 30
0.0
 10
90.86663273552988
 20
-118.9830905192994
 30
0.0
 10
90.86663273552988
 20
-118.9830905192994
 30
0.0
 10
90.87507321946873
 20
-118.8561387506679
 30
0.0
 10
90.88558076069874
 20
-118.744000892623
 30
0.0
 10
90.96602374027933
 20
-118.6254896079304
 30
0.0
 10
91.0759222862588
 20
-118.4647759035435
 30
0.0
 10
91.26212969723656
 20
-118.4308417130138
 30
0.0
 10
91.37840166986373
 20
-118.4308417130138
 30
0.0
 10
91.65573185642634
 20
-118.4308417130138
 30
0.0
 10
91.86278209508987
 20
-118.6149820667004
 30
0.0
 10
91.86278209508987
 20
-118.8878336291322
 30
0.0
 10
91.86278209508987
 20
-119.1162434598043
 30
0.0
 10
91.74668237723695
 20
-119.215806719328
 30
0.0
 10
91.43765731221004
 20
-119.4421494927089
 30
0.0
  0
HATCH
  5
13A
330
135
100
AcDbEntity
  8
_U+30EC_U+30A4_U+30E4_U+30FC 1
 62
   179
420
  2234388
100
AcDbHatch
 10
0.0
 20
0.0
 30
0.0
210
0.0
220
0.0
230
1.0
  2
SOLID
 70
     1
 71
     0
 91
        1
 92
        1
 93
        1
 72
     4
 94
        3
 73
     0
 74
     1
 95
       44
 96
       40
 40
0.0
 40
0.0
 40
0.0
 40
0.0
 40
1.0
 40
1.0
 40
1.0
 40
2.0
 40
2.0
 40
2.0
 40
3.0
 40
3.0
 40
3.0
 40
4.0
 40
4.0
 40
4.0
 40
5.0
 40
5.0
 40
5.0
 40
6.0
 40
6.0
 40
6.0
 40
7.0
 40
7.0
 40
7.0
 40
8.0
 40
8.0
 40
8.0
 40
9.0
 40
9.0
 40
9.0
 40
10.0
 40
10.0
 40
10.0
 40
11.0
 40
11.0
 40
11.0
 40
12.0
 40
12.0
 40
12.0
 40
13.0
 40
13.0
 40
13.0
 40
13.0
 10
91.43765731221004
 20
-119.4421494927089
 10
91.21992727754224
 20
-119.6007961398047
 10
91.12673744466623
 20
-119.6748656927375
 10
91.07816159832421
 20
-119.8186984292467
 10
91.07816159832421
 20
-119.8186984292467
 10
91.85658092321641
 20
-119.8186984292467
 10
91.85658092321641
 20
-119.8186984292467
 10
91.85658092321641
 20
-119.8186984292467
 10
91.85658092321641
 20
-120.0238538653933
 10
91.85658092321641
 20
-120.0238538653933
 10
91.85658092321641
 20
-120.0238538653933
 10
90.82856443041786
 20
-120.0238538653933
 10
90.82856443041786
 20
-120.0238538653933
 10
90.86025930888216
 20
-119.6662529540244
 10
90.92588837787618
 20
-119.5880492865092
 10
91.31087779835283
 20
-119.2897040174866
 10
91.5668483929069
 20
-119.0909220079877
 10
91.63230520712665
 20
-119.0232258817025
 10
91.63230520712665
 20
-118.8857665718411
 10
91.63230520712665
 20
-118.7672552871485
 10
91.56030271148492
 20
-118.6359971491604
 10
91.36376001405142
 20
-118.6359971491604
 10
91.1034830501408
 20
-118.6359971491604
 10
91.09504256620194
 20
-118.8666462918979
 10
91.09073619684537
 20
-118.9830905192994
 10
91.09073619684537
 20
-118.9830905192994
 10
90.86663273552988
 20
-118.9830905192994
 10
90.86663273552988
 20
-118.9830905192994
 10
90.87507321946873
 20
-118.8561387506679
 10
90.88558076069874
 20
-118.744000892623
 10
90.96602374027933
 20
-118.6254896079304
 10
91.0759222862588
 20
-118.4647759035435
 10
91.26212969723656
 20
-118.4308417130138
 10
91.37840166986373
 20
-118.4308417130138
 10
91.65573185642634
 20
-118.4308417130138
 10
91.86278209508987
 20
-118.6149820667004
 10
91.86278209508987
 20
-118.8878336291322
 10
91.86278209508987
 20
-119.1162434598043
 10
91.74668237723695
 20
-119.215806719328
 10
91.43765731221004
 20
-119.4421494927089
 97
        0
 97
        0
 75
     2
 76
     1
 98
        0
  0
SPLINE
  5
13B
330
135
100
AcDbEntity
  8
_U+30EC_U+30A4_U+30E4_U+30FC 1
370
     0
100
AcDbSpline
210
0.0
220
0.0
230
1.0
 70
    11
 71
     3
 72
    26
 73
    22
 74
     0
 42
0.0000000001
 43
0.0000000001
 12
1.0
 22
0.0
 32
0.0
 13
1.0
 23
0.0
 33
0.0
 40
0.0
 40
0.0
 40
0.0
 40
0.0
 40
1.0
 40
1.0
 40
1.0
 40
2.0
 40
2.0
 40
2.0
 40
3.0
 40
3.0
 40
3.0
 40
4.0
 40
4.0
 40
4.0
 40
5.0
 40
5.0
 40
5.0
 40
6.0
 40
6.0
 40
6.0
 40
7.0
 40
7.0
 40
7.0
 40
7.0
 10
92.47290850552761
 20
-120.0238538653933
 30
0.0
 10
92.47290850552761
 20
-120.0238538653933
 30
0.0
 10
92.47290850552761
 20
-118.9195285075965
 30
0.0
 10
92.47290850552761
 20
-118.9195285075965
 30
0.0
 10
92.47290850552761
 20
-118.9195285075965
 30
0.0
 10
92.14286835804067
 20
-118.9195285075965
 30
0.0
 10
92.14286835804067
 20
-118.9195285075965
 30
0.0
 10
92.14286835804067
 20
-118.9195285075965
 30
0.0
 10
92.14286835804067
 20
-118.7713894017308
 30
0.0
 10
92.14286835804067
 20
-118.7713894017308
 30
0.0
 10
92.47497556281876
 20
-118.7567477459185
 30
0.0
 10
92.52148435186963
 20
-118.5937947294661
 30
0.0
 10
92.55111217304278
 20
-118.4795898141301
 30
0.0
 10
92.55111217304278
 20
-118.4795898141301
 30
0.0
 10
92.69718422161738
 20
-118.4795898141301
 30
0.0
 10
92.69718422161738
 20
-118.4795898141301
 30
0.0
 10
92.69718422161738
 20
-118.4795898141301
 30
0.0
 10
92.69718422161738
 20
-120.0238538653933
 30
0.0
 10
92.69718422161738
 20
-120.0238538653933
 30
0.0
 10
92.69718422161738
 20
-120.0238538653933
 30
0.0
 10
92.47290850552761
 20
-120.0238538653933
 30
0.0
 10
92.47290850552761
 20
-120.0238538653933
 30
0.0
  0
HATCH
  5
13C
330
135
100
AcDbEntity
  8
_U+30EC_U+30A4_U+30E4_U+30FC 1
 62
   179
420
  2234388
100
AcDbHatch
 10
0.0
 20
0.0
 30
0.0
210
0.0
220
0.0
230
1.0
  2
SOLID
 70
     1
 71
     0
 91
        1
 92
        1
 93
        1
 72
     4
 94
        3
 73
     0
 74
     1
 95
       26
 96
       22
 40
0.0
 40
0.0
 40
0.0
 40
0.0
 40
1.0
 40
1.0
 40
1.0
 40
2.0
 40
2.0
 40
2.0
 40
3.0
 40
3.0
 40
3.0
 40
4.0
 40
4.0
 40
4.0
 40
5.0
 40
5.0
 40
5.0
 40
6.0
 40
6.0
 40
6.0
 40
7.0
 40
7.0
 40
7.0
 40
7.0
 10
92.47290850552761
 20
-120.0238538653933
 10
92.47290850552761
 20
-120.0238538653933
 10
92.47290850552761
 20
-118.9195285075965
 10
92.47290850552761
 20
-118.9195285075965
 10
92.47290850552761
 20
-118.9195285075965
 10
92.14286835804067
 20
-118.9195285075965
 10
92.14286835804067
 20
-118.9195285075965
 10
92.14286835804067
 20
-118.9195285075965
 10
92.14286835804067
 20
-118.7713894017308
 10
92.14286835804067
 20
-118.7713894017308
 10
92.47497556281876
 20
-118.7567477459185
 10
92.52148435186963
 20
-118.5937947294661
 10
92.55111217304278
 20
-118.4795898141301
 10
92.55111217304278
 20
-118.4795898141301
 10
92.69718422161738
 20
-118.4795898141301
 10
92.69718422161738
 20
-118.4795898141301
 10
92.69718422161738
 20
-118.4795898141301
 10
92.69718422161738
 20
-120.0238538653933
 10
92.69718422161738
 20
-120.0238538653933
 10
92.69718422161738
 20
-120.0238538653933
 10
92.47290850552761
 20
-120.0238538653933
 10
92.47290850552761
 20
-120.0238538653933
 97
        0
 97
        0
 75
     2
 76
     1
 98
        0
  0
ENDBLK
  5
138
330
135
100
AcDbEntity
  8
0
100
AcDbBlockEnd
  0
BLOCK
  5
147
330
145
100
AcDbEntity
  8
0
100
AcDbBlockBegin
  2
block 4
 70
     0
 10
0.0
 20
0.0
 30
0.0
  3
block 4
  1

  0
SPLINE
  5
149
330
145
100
AcDbEntity
  8
_U+30EC_U+30A4_U+30E4_U+30FC 1
370
     0
100
AcDbSpline
210
0.0
220
0.0
230
1.0
 70
    11
 71
     3
 72
    29
 73
    25
 74
     0
 42
0.0000000001
 43
0.0000000001
 12
1.0
 22
0.0
 32
0.0
 13
1.0
 23
0.0
 33
0.0
 40
0.0
 40
0.0
 40
0.0
 40
0.0
 40
1.0
 40
1.0
 40
1.0
 40
2.0
 40
2.0
 40
2.0
 40
3.0
 40
3.0
 40
3.0
 40
4.0
 40
4.0
 40
4.0
 40
5.0
 40
5.0
 40
5.0
 40
6.0
 40
6.0
 40
6.0
 40
7.0
 40
7.0
 40
7.0
 40
8.0
 40
8.0
 40
8.0
 40
8.0
 10
78.6165622090785
 20
-129.9972330404174
 30
0.0
 10
78.6165622090785
 20
-130.2638834309757
 30
0.0
 10
78.47893064444277
 20
-130.5174424586901
 30
0.0
 10
78.12994247178696
 20
-130.5174424586901
 30
0.0
 10
77.8739718772329
 20
-130.5174424586901
 30
0.0
 10
77.77871498706574
 20
-130.3758490342463
 30
0.0
 10
77.7173922874283
 20
-130.2700846028492
 30
0.0
 10
77.658136645082
 20
-130.3947970594152
 30
0.0
 10
77.54393172974596
 20
-130.4709336696392
 30
0.0
 10
77.38321802535906
 20
-130.4709336696392
 30
0.0
 10
77.10812715086186
 20
-130.4709336696392
 30
0.0
 10
76.97273489829155
 20
-130.2721516601403
 30
0.0
 10
76.97273489829155
 20
-129.9972330404174
 30
0.0
 10
76.97273489829155
 20
-129.7137016819813
 30
0.0
 10
77.11656763480072
 20
-129.523187901647
 30
0.0
 10
77.38321802535906
 20
-129.523187901647
 30
0.0
 10
77.54393172974596
 20
-129.523187901647
 30
0.0
 10
77.658136645082
 20
-129.6017360787107
 30
0.0
 10
77.7173922874283
 20
-129.7264485352767
 30
0.0
 10
77.76820744583573
 20
-129.6375650717573
 30
0.0
 10
77.86346433600289
 20
-129.4787461698873
 30
0.0
 10
78.12580835720466
 20
-129.4787461698873
 30
0.0
 10
78.50011798167706
 20
-129.4787461698873
 30
0.0
 10
78.6165622090785
 20
-129.758143413741
 30
0.0
 10
78.6165622090785
 20
-129.9972330404174
 30
0.0
  0
SPLINE
  5
14A
330
145
100
AcDbEntity
  8
_U+30EC_U+30A4_U+30E4_U+30FC 1
370
     0
100
AcDbSpline
210
0.0
220
0.0
230
1.0
 70
    11
 71
     3
 72
    17
 73
    13
 74
     0
 42
0.0000000001
 43
0.0000000001
 12
1.0
 22
0.0
 32
0.0
 13
1.0
 23
0.0
 33
0.0
 40
0.0
 40
0.0
 40
0.0
 40
0.0
 40
1.0
 40
1.0
 40
1.0
 40
2.0
 40
2.0
 40
2.0
 40
3.0
 40
3.0
 40
3.0
 40
4.0
 40
4.0
 40
4.0
 40
4.0
 10
77.165315735917
 20
-129.9972330404174
 30
0.0
 10
77.165315735917
 20
-130.1622531141608
 30
0.0
 10
77.2604003713099
 20
-130.2466579535495
 30
0.0
 10
77.39579262388023
 20
-130.2466579535495
 30
0.0
 10
77.51861027792938
 20
-130.2466579535495
 30
0.0
 10
77.63712156262197
 20
-130.1749999674562
 30
0.0
 10
77.63712156262197
 20
-129.9972330404174
 30
0.0
 10
77.63712156262197
 20
-129.8194661133785
 30
0.0
 10
77.51861027792938
 20
-129.7474636177367
 30
0.0
 10
77.39579262388023
 20
-129.7474636177367
 30
0.0
 10
77.2604003713099
 20
-129.7474636177367
 30
0.0
 10
77.165315735917
 20
-129.8342800239651
 30
0.0
 10
77.165315735917
 20
-129.9972330404174
 30
0.0
  0
SPLINE
  5
14B
330
145
100
AcDbEntity
  8
_U+30EC_U+30A4_U+30E4_U+30FC 1
370
     0
100
AcDbSpline
210
0.0
220
0.0
230
1.0
 70
    11
 71
     3
 72
    17
 73
    13
 74
     0
 42
0.0000000001
 43
0.0000000001
 12
1.0
 22
0.0
 32
0.0
 13
1.0
 23
0.0
 33
0.0
 40
0.0
 40
0.0
 40
0.0
 40
0.0
 40
1.0
 40
1.0
 40
1.0
 40
2.0
 40
2.0
 40
2.0
 40
3.0
 40
3.0
 40
3.0
 40
4.0
 40
4.0
 40
4.0
 40
4.0
 10
77.82539603089087
 20
-129.9972330404174
 30
0.0
 10
77.82539603089087
 20
-130.1408935221523
 30
0.0
 10
77.91204018234491
 20
-130.2935112521488
 30
0.0
 10
78.1151285612004
 20
-130.2935112521488
 30
0.0
 10
78.32028399734702
 20
-130.2935112521488
 30
0.0
 10
78.42191431416188
 20
-130.1663872287431
 30
0.0
 10
78.42191431416188
 20
-129.9972330404174
 30
0.0
 10
78.42191431416188
 20
-129.8111978842139
 30
0.0
 10
78.299268914887
 20
-129.7009548286859
 30
0.0
 10
78.1215019878481
 20
-129.7009548286859
 30
0.0
 10
77.89929332904948
 20
-129.7009548286859
 30
0.0
 10
77.82539603089087
 20
-129.8639078451382
 30
0.0
 10
77.82539603089087
 20
-129.9972330404174
 30
0.0
  0
HATCH
  5
14C
330
145
100
AcDbEntity
  8
_U+30EC_U+30A4_U+30E4_U+30FC 1
 62
   179
420
  2234388
100
AcDbHatch
 10
0.0
 20
0.0
 30
0.0
210
0.0
220
0.0
230
1.0
  2
SOLID
 70
     1
 71
     0
 91
        3
 92
        1
 93
        1
 72
     4
 94
        3
 73
     0
 74
     1
 95
       29
 96
       25
 40
0.0
 40
0.0
 40
0.0
 40
0.0
 40
1.0
 40
1.0
 40
1.0
 40
2.0
 40
2.0
 40
2.0
 40
3.0
 40
3.0
 40
3.0
 40
4.0
 40
4.0
 40
4.0
 40
5.0
 40
5.0
 40
5.0
 40
6.0
 40
6.0
 40
6.0
 40
7.0
 40
7.0
 40
7.0
 40
8.0
 40
8.0
 40
8.0
 40
8.0
 10
78.6165622090785
 20
-129.9972330404174
 10
78.6165622090785
 20
-130.2638834309757
 10
78.47893064444277
 20
-130.5174424586901
 10
78.12994247178696
 20
-130.5174424586901
 10
77.8739718772329
 20
-130.5174424586901
 10
77.77871498706574
 20
-130.3758490342463
 10
77.7173922874283
 20
-130.2700846028492
 10
77.658136645082
 20
-130.3947970594152
 10
77.54393172974596
 20
-130.4709336696392
 10
77.38321802535906
 20
-130.4709336696392
 10
77.10812715086186
 20
-130.4709336696392
 10
76.97273489829155
 20
-130.2721516601403
 10
76.97273489829155
 20
-129.9972330404174
 10
76.97273489829155
 20
-129.7137016819813
 10
77.11656763480072
 20
-129.523187901647
 10
77.38321802535906
 20
-129.523187901647
 10
77.54393172974596
 20
-129.523187901647
 10
77.658136645082
 20
-129.6017360787107
 10
77.7173922874283
 20
-129.7264485352767
 10
77.76820744583573
 20
-129.6375650717573
 10
77.86346433600289
 20
-129.4787461698873
 10
78.12580835720466
 20
-129.4787461698873
 10
78.50011798167706
 20
-129.4787461698873
 10
78.6165622090785
 20
-129.758143413741
 10
78.6165622090785
 20
-129.9972330404174
 97
        0
 97
        0
 92
        1
 93
        1
 72
     4
 94
        3
 73
     0
 74
     1
 95
       17
 96
       13
 40
0.0
 40
0.0
 40
0.0
 40
0.0
 40
1.0
 40
1.0
 40
1.0
 40
2.0
 40
2.0
 40
2.0
 40
3.0
 40
3.0
 40
3.0
 40
4.0
 40
4.0
 40
4.0
 40
4.0
 10
77.165315735917
 20
-129.9972330404174
 10
77.165315735917
 20
-130.1622531141608
 10
77.2604003713099
 20
-130.2466579535495
 10
77.39579262388023
 20
-130.2466579535495
 10
77.51861027792938
 20
-130.2466579535495
 10
77.63712156262197
 20
-130.1749999674562
 10
77.63712156262197
 20
-129.9972330404174
 10
77.63712156262197
 20
-129.8194661133785
 10
77.51861027792938
 20
-129.7474636177367
 10
77.39579262388023
 20
-129.7474636177367
 10
77.2604003713099
 20
-129.7474636177367
 10
77.165315735917
 20
-129.8342800239651
 10
77.165315735917
 20
-129.9972330404174
 97
        0
 97
        0
 92
        1
 93
        1
 72
     4
 94
        3
 73
     0
 74
     1
 95
       17
 96
       13
 40
0.0
 40
0.0
 40
0.0
 40
0.0
 40
1.0
 40
1.0
 40
1.0
 40
2.0
 40
2.0
 40
2.0
 40
3.0
 40
3.0
 40
3.0
 40
4.0
 40
4.0
 40
4.0
 40
4.0
 10
77.82539603089087
 20
-129.9972330404174
 10
77.82539603089087
 20
-130.1408935221523
 10
77.91204018234491
 20
-130.2935112521488
 10
78.1151285612004
 20
-130.2935112521488
 10
78.32028399734702
 20
-130.2935112521488
 10
78.42191431416188
 20
-130.1663872287431
 10
78.42191431416188
 20
-129.9972330404174
 10
78.42191431416188
 20
-129.8111978842139
 10
78.299268914887
 20
-129.7009548286859
 10
78.1215019878481
 20
-129.7009548286859
 10
77.89929332904948
 20
-129.7009548286859
 10
77.82539603089087
 20
-129.8639078451382
 10
77.82539603089087
 20
-129.9972330404174
 97
        0
 97
        0
 75
     2
 76
     1
 98
        0
  0
ENDBLK
  5
148
330
145
100
AcDbEntity
  8
0
100
AcDbBlockEnd
  0
BLOCK
  5
15B
330
159
100
AcDbEntity
  8
0
100
AcDbBlockBegin
  2
block 5
 70
     0
 10
0.0
 20
0.0
 30
0.0
  3
block 5
  1

  0
SPLINE
  5
15D
330
159
100
AcDbEntity
  8
_U+30EC_U+30A4_U+30E4_U+30FC 1
370
     0
100
AcDbSpline
210
0.0
220
0.0
230
1.0
 70
    11
 71
     3
 72
    62
 73
    58
 74
     0
 42
0.0000000001
 43
0.0000000001
 12
1.0
 22
0.0
 32
0.0
 13
1.0
 23
0.0
 33
0.0
 40
0.0
 40
0.0
 40
0.0
 40
0.0
 40
1.0
 40
1.0
 40
1.0
 40
2.0
 40
2.0
 40
2.0
 40
3.0
 40
3.0
 40
3.0
 40
4.0
 40
4.0
 40
4.0
 40
5.0
 40
5.0
 40
5.0
 40
6.0
 40
6.0
 40
6.0
 40
7.0
 40
7.0
 40
7.0
 40
8.0
 40
8.0
 40
8.0
 40
9.0
 40
9.0
 40
9.0
 40
10.0
 40
10.0
 40
10.0
 40
11.0
 40
11.0
 40
11.0
 40
12.0
 40
12.0
 40
12.0
 40
13.0
 40
13.0
 40
13.0
 40
14.0
 40
14.0
 40
14.0
 40
15.0
 40
15.0
 40
15.0
 40
16.0
 40
16.0
 40
16.0
 40
17.0
 40
17.0
 40
17.0
 40
18.0
 40
18.0
 40
18.0
 40
19.0
 40
19.0
 40
19.0
 40
19.0
 10
103.9561007769624
 20
-120.0746690238008
 30
0.0
 10
103.860671632021
 20
-120.0746690238008
 30
0.0
 10
103.6429415973532
 20
-120.0534816865665
 30
0.0
 10
103.5178846312386
 20
-119.8672742755887
 30
0.0
 10
103.4438150783057
 20
-119.7551364175439
 30
0.0
 10
103.4396809637234
 20
-119.6557454127944
 30
0.0
 10
103.4355468491411
 20
-119.5711683186315
 30
0.0
 10
103.4355468491411
 20
-119.5711683186315
 30
0.0
 10
103.6556884506486
 20
-119.5711683186315
 30
0.0
 10
103.6556884506486
 20
-119.5711683186315
 30
0.0
 10
103.6577555079397
 20
-119.6452378715644
 30
0.0
 10
103.6680907943955
 20
-119.8800211288842
 30
0.0
 10
103.9516221528315
 20
-119.8800211288842
 30
0.0
 10
104.089081462693
 20
-119.8800211288842
 30
0.0
 10
104.2416991926896
 20
-119.8102579453079
 30
0.0
 10
104.2416991926896
 20
-119.5816758598615
 30
0.0
 10
104.2416991926896
 20
-119.4654038872343
 30
0.0
 10
104.2034586328033
 20
-119.4166557861181
 30
0.0
 10
104.171763754339
 20
-119.3849609076538
 30
0.0
 10
104.0976942014061
 20
-119.3108913547209
 30
0.0
 10
103.9812499740047
 20
-119.2983167561997
 30
0.0
 10
103.9264729557892
 20
-119.2983167561997
 30
0.0
 10
103.9071804210718
 20
-119.2983167561997
 30
0.0
 10
103.8713514280252
 20
-119.3003838134909
 30
0.0
 10
103.8437906641432
 20
-119.3045179280732
 30
0.0
 10
103.8437906641432
 20
-119.3045179280732
 30
0.0
 10
103.8437906641432
 20
-119.1100422879308
 30
0.0
 10
103.8437906641432
 20
-119.1100422879308
 30
0.0
 10
103.8820312240295
 20
-119.1162434598043
 30
0.0
 10
103.9240613889495
 20
-119.1184827718697
 30
0.0
 10
103.9306070703715
 20
-119.1184827718697
 30
0.0
 10
103.9960638845913
 20
-119.1184827718697
 30
0.0
 10
104.1948458940902
 20
-119.0972954346354
 30
0.0
 10
104.1948458940902
 20
-118.8602728652502
 30
0.0
 10
104.1948458940902
 20
-118.6826781929856
 30
0.0
 10
104.0639322656507
 20
-118.6275566652216
 30
0.0
 10
103.9536892101227
 20
-118.6275566652216
 30
0.0
 10
103.689450386404
 20
-118.6275566652216
 30
0.0
 10
103.6808376476909
 20
-118.8602728652502
 30
0.0
 10
103.6767035331086
 20
-118.9322753608919
 30
0.0
 10
103.6767035331086
 20
-118.9322753608919
 30
0.0
 10
103.4734428994789
 20
-118.9322753608919
 30
0.0
 10
103.4734428994789
 20
-118.9322753608919
 30
0.0
 10
103.482055638192
 20
-118.8073906495516
 30
0.0
 10
103.509616402074
 20
-118.4308417130138
 30
0.0
 10
103.9664360634181
 20
-118.4308417130138
 30
0.0
 10
104.1907117795079
 20
-118.4308417130138
 30
0.0
 10
104.4318684634754
 20
-118.5577934816453
 30
0.0
 10
104.4318684634754
 20
-118.8538994386025
 30
0.0
 10
104.4318684634754
 20
-119.0401068495803
 30
0.0
 10
104.3367838280825
 20
-119.122616886452
 30
0.0
 10
104.2372205685588
 20
-119.1839395860894
 30
0.0
 10
104.2985432681962
 20
-119.2115003499714
 30
0.0
 10
104.4804443098174
 20
-119.291943329552
 30
0.0
 10
104.4804443098174
 20
-119.5691012613404
 30
0.0
 10
104.4804443098174
 20
-119.9075818927662
 30
0.0
 10
104.2330864539765
 20
-120.0746690238008
 30
0.0
 10
103.9561007769624
 20
-120.0746690238008
 30
0.0
  0
HATCH
  5
15E
330
159
100
AcDbEntity
  8
_U+30EC_U+30A4_U+30E4_U+30FC 1
 62
   179
420
  2234388
100
AcDbHatch
 10
0.0
 20
0.0
 30
0.0
210
0.0
220
0.0
230
1.0
  2
SOLID
 70
     1
 71
     0
 91
        1
 92
        1
 93
        1
 72
     4
 94
        3
 73
     0
 74
     1
 95
       62
 96
       58
 40
0.0
 40
0.0
 40
0.0
 40
0.0
 40
1.0
 40
1.0
 40
1.0
 40
2.0
 40
2.0
 40
2.0
 40
3.0
 40
3.0
 40
3.0
 40
4.0
 40
4.0
 40
4.0
 40
5.0
 40
5.0
 40
5.0
 40
6.0
 40
6.0
 40
6.0
 40
7.0
 40
7.0
 40
7.0
 40
8.0
 40
8.0
 40
8.0
 40
9.0
 40
9.0
 40
9.0
 40
10.0
 40
10.0
 40
10.0
 40
11.0
 40
11.0
 40
11.0
 40
12.0
 40
12.0
 40
12.0
 40
13.0
 40
13.0
 40
13.0
 40
14.0
 40
14.0
 40
14.0
 40
15.0
 40
15.0
 40
15.0
 40
16.0
 40
16.0
 40
16.0
 40
17.0
 40
17.0
 40
17.0
 40
18.0
 40
18.0
 40
18.0
 40
19.0
 40
19.0
 40
19.0
 40
19.0
 10
103.9561007769624
 20
-120.0746690238008
 10
103.860671632021
 20
-120.0746690238008
 10
103.6429415973532
 20
-120.0534816865665
 10
103.5178846312386
 20
-119.8672742755887
 10
103.4438150783057
 20
-119.7551364175439
 10
103.4396809637234
 20
-119.6557454127944
 10
103.4355468491411
 20
-119.5711683186315
 10
103.4355468491411
 20
-119.5711683186315
 10
103.6556884506486
 20
-119.5711683186315
 10
103.6556884506486
 20
-119.5711683186315
 10
103.6577555079397
 20
-119.6452378715644
 10
103.6680907943955
 20
-119.8800211288842
 10
103.9516221528315
 20
-119.8800211288842
 10
104.089081462693
 20
-119.8800211288842
 10
104.2416991926896
 20
-119.8102579453079
 10
104.2416991926896
 20
-119.5816758598615
 10
104.2416991926896
 20
-119.4654038872343
 10
104.2034586328033
 20
-119.4166557861181
 10
104.171763754339
 20
-119.3849609076538
 10
104.0976942014061
 20
-119.3108913547209
 10
103.9812499740047
 20
-119.2983167561997
 10
103.9264729557892
 20
-119.2983167561997
 10
103.9071804210718
 20
-119.2983167561997
 10
103.8713514280252
 20
-119.3003838134909
 10
103.8437906641432
 20
-119.3045179280732
 10
103.8437906641432
 20
-119.3045179280732
 10
103.8437906641432
 20
-119.1100422879308
 10
103.8437906641432
 20
-119.1100422879308
 10
103.8820312240295
 20
-119.1162434598043
 10
103.9240613889495
 20
-119.1184827718697
 10
103.9306070703715
 20
-119.1184827718697
 10
103.9960638845913
 20
-119.1184827718697
 10
104.1948458940902
 20
-119.0972954346354
 10
104.1948458940902
 20
-118.8602728652502
 10
104.1948458940902
 20
-118.6826781929856
 10
104.0639322656507
 20
-118.6275566652216
 10
103.9536892101227
 20
-118.6275566652216
 10
103.689450386404
 20
-118.6275566652216
 10
103.6808376476909
 20
-118.8602728652502
 10
103.6767035331086
 20
-118.9322753608919
 10
103.6767035331086
 20
-118.9322753608919
 10
103.4734428994789
 20
-118.9322753608919
 10
103.4734428994789
 20
-118.9322753608919
 10
103.482055638192
 20
-118.8073906495516
 10
103.509616402074
 20
-118.4308417130138
 10
103.9664360634181
 20
-118.4308417130138
 10
104.1907117795079
 20
-118.4308417130138
 10
104.4318684634754
 20
-118.5577934816453
 10
104.4318684634754
 20
-118.8538994386025
 10
104.4318684634754
 20
-119.0401068495803
 10
104.3367838280825
 20
-119.122616886452
 10
104.2372205685588
 20
-119.1839395860894
 10
104.2985432681962
 20
-119.2115003499714
 10
104.4804443098174
 20
-119.291943329552
 10
104.4804443098174
 20
-119.5691012613404
 10
104.4804443098174
 20
-119.9075818927662
 10
104.2330864539765
 20
-120.0746690238008
 10
103.9561007769624
 20
-120.0746690238008
 97
        0
 97
        0
 75
     2
 76
     1
 98
        0
  0
ENDBLK
  5
15C
330
159
100
AcDbEntity
  8
0
100
AcDbBlockEnd
  0
BLOCK
  5
16F
330
16D
100
AcDbEntity
  8
0
100
AcDbBlockBegin
  2
block 6
 70
     0
 10
0.0
 20
0.0
 30
0.0
  3
block 6
  1

  0
POLYLINE
  5
171
330
16D
100
AcDbEntity
  8
_U+30EC_U+30A4_U+30E4_U+30FC 1
370
     0
100
AcDb2dPolyline
 66
     1
 10
0.0
 20
0.0
 30
0.0
  0
VERTEX
  5
172
330
171
100
AcDbEntity
  8
_U+30EC_U+30A4_U+30E4_U+30FC 1
370
     0
100
AcDbVertex
100
AcDb2dVertex
 10
104.1428249522629
 20
-137.0524440846605
 30
0.0
  0
VERTEX
  5
173
330
171
100
AcDbEntity
  8
_U+30EC_U+30A4_U+30E4_U+30FC 1
370
     0
100
AcDbVertex
100
AcDb2dVertex
 10
104.1428249522629
 20
-137.3993652000252
 30
0.0
  0
VERTEX
  5
174
330
171
100
AcDbEntity
  8
_U+30EC_U+30A4_U+30E4_U+30FC 1
370
     0
100
AcDbVertex
100
AcDb2dVertex
 10
103.9250949175951
 20
-137.3993652000252
 30
0.0
  0
VERTEX
  5
175
330
171
100
AcDbEntity
  8
_U+30EC_U+30A4_U+30E4_U+30FC 1
370
     0
100
AcDbVertex
100
AcDb2dVertex
 10
103.9250949175951
 20
-137.0524440846605
 30
0.0
  0
VERTEX
  5
176
330
171
100
AcDbEntity
  8
_U+30EC_U+30A4_U+30E4_U+30FC 1
370
     0
100
AcDbVertex
100
AcDb2dVertex
 10
103.2691487372036
 20
-137.0524440846605
 30
0.0
  0
VERTEX
  5
177
330
171
100
AcDbEntity
  8
_U+30EC_U+30A4_U+30E4_U+30FC 1
370
     0
100
AcDbVertex
100
AcDb2dVertex
 10
103.2691487372036
 20
-136.8281683685707
 30
0.0
  0
VERTEX
  5
178
330
171
100
AcDbEntity
  8
_U+30EC_U+30A4_U+30E4_U+30FC 1
370
     0
100
AcDbVertex
100
AcDb2dVertex
 10
103.9481770573463
 20
-135.8549288939877
 30
0.0
  0
VERTEX
  5
179
330
171
100
AcDbEntity
  8
_U+30EC_U+30A4_U+30E4_U+30FC 1
370
     0
100
AcDbVertex
100
AcDb2dVertex
 10
104.1428249522629
 20
-135.8549288939877
 30
0.0
  0
VERTEX
  5
17A
330
171
100
AcDbEntity
  8
_U+30EC_U+30A4_U+30E4_U+30FC 1
370
     0
100
AcDbVertex
100
AcDb2dVertex
 10
104.1428249522629
 20
-136.8536620751616
 30
0.0
  0
VERTEX
  5
17B
330
171
100
AcDbEntity
  8
_U+30EC_U+30A4_U+30E4_U+30FC 1
370
     0
100
AcDbVertex
100
AcDb2dVertex
 10
104.350219700475
 20
-136.8536620751616
 30
0.0
  0
VERTEX
  5
17C
330
171
100
AcDbEntity
  8
_U+30EC_U+30A4_U+30E4_U+30FC 1
370
     0
100
AcDbVertex
100
AcDb2dVertex
 10
104.350219700475
 20
-137.0524440846605
 30
0.0
  0
VERTEX
  5
17D
330
171
100
AcDbEntity
  8
_U+30EC_U+30A4_U+30E4_U+30FC 1
370
     0
100
AcDbVertex
100
AcDb2dVertex
 10
104.1428249522629
 20
-137.0524440846605
 30
0.0
  0
SEQEND
  5
17E
330
171
100
AcDbEntity
  8
_U+30EC_U+30A4_U+30E4_U+30FC 1
370
     0
  0
POLYLINE
  5
17F
330
16D
100
AcDbEntity
  8
_U+30EC_U+30A4_U+30E4_U+30FC 1
370
     0
100
AcDb2dPolyline
 66
     1
 10
0.0
 20
0.0
 30
0.0
  0
VERTEX
  5
180
330
17F
100
AcDbEntity
  8
_U+30EC_U+30A4_U+30E4_U+30FC 1
370
     0
100
AcDbVertex
100
AcDb2dVertex
 10
103.9250949175951
 20
-136.19771589477
 30
0.0
  0
VERTEX
  5
181
330
17F
100
AcDbEntity
  8
_U+30EC_U+30A4_U+30E4_U+30FC 1
370
     0
100
AcDbVertex
100
AcDb2dVertex
 10
103.4679307467025
 20
-136.8536620751616
 30
0.0
  0
VERTEX
  5
182
330
17F
100
AcDbEntity
  8
_U+30EC_U+30A4_U+30E4_U+30FC 1
370
     0
100
AcDbVertex
100
AcDb2dVertex
 10
103.9250949175951
 20
-136.8536620751616
 30
0.0
  0
VERTEX
  5
183
330
17F
100
AcDbEntity
  8
_U+30EC_U+30A4_U+30E4_U+30FC 1
370
     0
100
AcDbVertex
100
AcDb2dVertex
 10
103.9250949175951
 20
-136.19771589477
 30
0.0
  0
SEQEND
  5
184
330
17F
100
AcDbEntity
  8
_U+30EC_U+30A4_U+30E4_U+30FC 1
370
     0
  0
HATCH
  5
185
330
16D
100
AcDbEntity
  8
_U+30EC_U+30A4_U+30E4_U+30FC 1
 62
   179
420
  2234388
100
AcDbHatch
 10
0.0
 20
0.0
 30
0.0
210
0.0
220
0.0
230
1.0
  2
SOLID
 70
     1
 71
     0
 91
        2
 92
        1
 93
       11
 72
     1
 10
104.1428249522629
 20
-137.0524440846605
 11
104.1428249522629
 21
-137.3993652000252
 72
     1
 10
104.1428249522629
 20
-137.3993652000252
 11
103.9250949175951
 21
-137.3993652000252
 72
     1
 10
103.9250949175951
 20
-137.3993652000252
 11
103.9250949175951
 21
-137.0524440846605
 72
     1
 10
103.9250949175951
 20
-137.0524440846605
 11
103.2691487372036
 21
-137.0524440846605
 72
     1
 10
103.2691487372036
 20
-137.0524440846605
 11
103.2691487372036
 21
-136.8281683685707
 72
     1
 10
103.2691487372036
 20
-136.8281683685707
 11
103.9481770573463
 21
-135.8549288939877
 72
     1
 10
103.9481770573463
 20
-135.8549288939877
 11
104.1428249522629
 21
-135.8549288939877
 72
     1
 10
104.1428249522629
 20
-135.8549288939877
 11
104.1428249522629
 21
-136.8536620751616
 72
     1
 10
104.1428249522629
 20
-136.8536620751616
 11
104.350219700475
 21
-136.8536620751616
 72
     1
 10
104.350219700475
 20
-136.8536620751616
 11
104.350219700475
 21
-137.0524440846605
 72
     1
 10
104.350219700475
 20
-137.0524440846605
 11
104.1428249522629
 21
-137.0524440846605
 97
        0
 92
        1
 93
        3
 72
     1
 10
103.9250949175951
 20
-136.19771589477
 11
103.4679307467025
 21
-136.8536620751616
 72
     1
 10
103.4679307467025
 20
-136.8536620751616
 11
103.9250949175951
 21
-136.8536620751616
 72
     1
 10
103.9250949175951
 20
-136.8536620751616
 11
103.9250949175951
 21
-136.19771589477
 97
        0
 75
     2
 76
     1
 98
        0
  0
ENDBLK
  5
170
330
16D
100
AcDbEntity
  8
0
100
AcDbBlockEnd
  0
BLOCK
  5
190
330
18E
100
AcDbEntity
  8
0
100
AcDbBlockBegin
  2
block 7
 70
     0
 10
0.0
 20
0.0
 30
0.0
  3
block 7
  1

  0
SPLINE
  5
192
330
18E
100
AcDbEntity
  8
_U+30EC_U+30A4_U+30E4_U+30FC 1
370
     0
100
AcDbSpline
210
0.0
220
0.0
230
1.0
 70
    11
 71
     3
 72
    26
 73
    22
 74
     0
 42
0.0000000001
 43
0.0000000001
 12
1.0
 22
0.0
 32
0.0
 13
1.0
 23
0.0
 33
0.0
 40
0.0
 40
0.0
 40
0.0
 40
0.0
 40
1.0
 40
1.0
 40
1.0
 40
2.0
 40
2.0
 40
2.0
 40
3.0
 40
3.0
 40
3.0
 40
4.0
 40
4.0
 40
4.0
 40
5.0
 40
5.0
 40
5.0
 40
6.0
 40
6.0
 40
6.0
 40
7.0
 40
7.0
 40
7.0
 40
7.0
 10
98.45393877746986
 20
-130.4354491861411
 30
0.0
 10
98.45393877746986
 20
-130.4354491861411
 30
0.0
 10
98.45393877746986
 20
-129.33095157357
 30
0.0
 10
98.45393877746986
 20
-129.33095157357
 30
0.0
 10
98.45393877746986
 20
-129.33095157357
 30
0.0
 10
98.12389862998292
 20
-129.33095157357
 30
0.0
 10
98.12389862998292
 20
-129.33095157357
 30
0.0
 10
98.12389862998292
 20
-129.33095157357
 30
0.0
 10
98.12389862998292
 20
-129.1828124677043
 30
0.0
 10
98.12389862998292
 20
-129.1828124677043
 30
0.0
 10
98.456005834761
 20
-129.1683430666663
 30
0.0
 10
98.50251462381188
 20
-129.0053900502139
 30
0.0
 10
98.53214244498503
 20
-128.8910128801036
 30
0.0
 10
98.53214244498503
 20
-128.8910128801036
 30
0.0
 10
98.67821449355962
 20
-128.8910128801036
 30
0.0
 10
98.67821449355962
 20
-128.8910128801036
 30
0.0
 10
98.67821449355962
 20
-128.8910128801036
 30
0.0
 10
98.67821449355962
 20
-130.4354491861411
 30
0.0
 10
98.67821449355962
 20
-130.4354491861411
 30
0.0
 10
98.67821449355962
 20
-130.4354491861411
 30
0.0
 10
98.45393877746986
 20
-130.4354491861411
 30
0.0
 10
98.45393877746986
 20
-130.4354491861411
 30
0.0
  0
HATCH
  5
193
330
18E
100
AcDbEntity
  8
_U+30EC_U+30A4_U+30E4_U+30FC 1
 62
   179
420
  2234388
100
AcDbHatch
 10
0.0
 20
0.0
 30
0.0
210
0.0
220
0.0
230
1.0
  2
SOLID
 70
     1
 71
     0
 91
        1
 92
        1
 93
        1
 72
     4
 94
        3
 73
     0
 74
     1
 95
       26
 96
       22
 40
0.0
 40
0.0
 40
0.0
 40
0.0
 40
1.0
 40
1.0
 40
1.0
 40
2.0
 40
2.0
 40
2.0
 40
3.0
 40
3.0
 40
3.0
 40
4.0
 40
4.0
 40
4.0
 40
5.0
 40
5.0
 40
5.0
 40
6.0
 40
6.0
 40
6.0
 40
7.0
 40
7.0
 40
7.0
 40
7.0
 10
98.45393877746986
 20
-130.4354491861411
 10
98.45393877746986
 20
-130.4354491861411
 10
98.45393877746986
 20
-129.33095157357
 10
98.45393877746986
 20
-129.33095157357
 10
98.45393877746986
 20
-129.33095157357
 10
98.12389862998292
 20
-129.33095157357
 10
98.12389862998292
 20
-129.33095157357
 10
98.12389862998292
 20
-129.33095157357
 10
98.12389862998292
 20
-129.1828124677043
 10
98.12389862998292
 20
-129.1828124677043
 10
98.456005834761
 20
-129.1683430666663
 10
98.50251462381188
 20
-129.0053900502139
 10
98.53214244498503
 20
-128.8910128801036
 10
98.53214244498503
 20
-128.8910128801036
 10
98.67821449355962
 20
-128.8910128801036
 10
98.67821449355962
 20
-128.8910128801036
 10
98.67821449355962
 20
-128.8910128801036
 10
98.67821449355962
 20
-130.4354491861411
 10
98.67821449355962
 20
-130.4354491861411
 10
98.67821449355962
 20
-130.4354491861411
 10
98.45393877746986
 20
-130.4354491861411
 10
98.45393877746986
 20
-130.4354491861411
 97
        0
 97
        0
 75
     2
 76
     1
 98
        0
  0
ENDBLK
  5
191
330
18E
100
AcDbEntity
  8
0
100
AcDbBlockEnd
  0
BLOCK
  5
196
330
194
100
AcDbEntity
  8
0
100
AcDbBlockBegin
  2
block 8
 70
     0
 10
0.0
 20
0.0
 30
0.0
  3
block 8
  1

  0
INSERT
  5
199
330
194
100
AcDbEntity
  8
_U+30EC_U+30A4_U+30E4_U+30FC 1
100
AcDbBlockReference
  2
block 9
 10
0.0
 20
0.0
 30
0.0
  0
INSERT
  5
1A9
330
194
100
AcDbEntity
  8
_U+30EC_U+30A4_U+30E4_U+30FC 1
100
AcDbBlockReference
  2
block 10
 10
0.0
 20
0.0
 30
0.0
  0
ENDBLK
  5
197
330
194
100
AcDbEntity
  8
0
100
AcDbBlockEnd
  0
BLOCK
  5
19A
330
198
100
AcDbEntity
  8
0
100
AcDbBlockBegin
  2
block 9
 70
     0
 10
0.0
 20
0.0
 30
0.0
  3
block 9
  1

  0
POLYLINE
  5
19C
330
198
100
AcDbEntity
  8
_U+30EC_U+30A4_U+30E4_U+30FC 1
 62
     7
420
 16777215
370
     9
100
AcDb2dPolyline
 66
     1
 10
0.0
 20
0.0
 30
0.0
  0
VERTEX
  5
19D
330
19C
100
AcDbEntity
  8
_U+30EC_U+30A4_U+30E4_U+30FC 1
 62
     7
420
 16777215
370
     9
100
AcDbVertex
100
AcDb2dVertex
 10
86.56164556940622
 20
-126.9024921904967
 30
0.0
  0
VERTEX
  5
19E
330
19C
100
AcDbEntity
  8
_U+30EC_U+30A4_U+30E4_U+30FC 1
 62
     7
420
 16777215
370
     9
100
AcDbVertex
100
AcDb2dVertex
 10
87.11042666651676
 20
-127.7386460791763
 30
0.0
  0
SEQEND
  5
19F
330
19C
100
AcDbEntity
  8
_U+30EC_U+30A4_U+30E4_U+30FC 1
 62
     7
420
 16777215
370
     9
  0
POLYLINE
  5
1A0
330
198
100
AcDbEntity
  8
_U+30EC_U+30A4_U+30E4_U+30FC 1
 62
     7
420
 16777215
370
     9
100
AcDb2dPolyline
 66
     1
 10
0.0
 20
0.0
 30
0.0
  0
VERTEX
  5
1A1
330
1A0
100
AcDbEntity
  8
_U+30EC_U+30A4_U+30E4_U+30FC 1
 62
     7
420
 16777215
370
     9
100
AcDbVertex
100
AcDb2dVertex
 10
86.56164556940622
 20
-126.9024921904967
 30
0.0
  0
VERTEX
  5
1A2
330
1A0
100
AcDbEntity
  8
_U+30EC_U+30A4_U+30E4_U+30FC 1
 62
     7
420
 16777215
370
     9
100
AcDbVertex
100
AcDb2dVertex
 10
87.84028859234087
 20
-130.7723938561958
 30
0.0
  0
SEQEND
  5
1A3
330
1A0
100
AcDbEntity
  8
_U+30EC_U+30A4_U+30E4_U+30FC 1
 62
     7
420
 16777215
370
     9
  0
POLYLINE
  5
1A4
330
198
100
AcDbEntity
  8
_U+30EC_U+30A4_U+30E4_U+30FC 1
 62
     7
420
 16777215
370
     9
100
AcDb2dPolyline
 66
     1
 10
0.0
 20
0.0
 30
0.0
  0
VERTEX
  5
1A5
330
1A4
100
AcDbEntity
  8
_U+30EC_U+30A4_U+30E4_U+30FC 1
 62
     7
420
 16777215
370
     9
100
AcDbVertex
100
AcDb2dVertex
 10
86.56164556940622
 20
-126.9024921904967
 30
0.0
  0
VERTEX
  5
1A6
330
1A4
100
AcDbEntity
  8
_U+30EC_U+30A4_U+30E4_U+30FC 1
 62
     7
420
 16777215
370
     9
100
AcDbVertex
100
AcDb2dVertex
 10
86.61900723460947
 20
-127.900888579136
 30
0.0
  0
SEQEND
  5
1A7
330
1A4
100
AcDbEntity
  8
_U+30EC_U+30A4_U+30E4_U+30FC 1
 62
     7
420
 16777215
370
     9
  0
ENDBLK
  5
19B
330
198
100
AcDbEntity
  8
0
100
AcDbBlockEnd
  0
BLOCK
  5
1AA
330
1A8
100
AcDbEntity
  8
0
100
AcDbBlockBegin
  2
block 10
 70
     0
 10
0.0
 20
0.0
 30
0.0
  3
block 10
  1

  0
SPLINE
  5
1AC
330
1A8
100
AcDbEntity
  8
_U+30EC_U+30A4_U+30E4_U+30FC 1
370
     0
100
AcDbSpline
210
0.0
220
0.0
230
1.0
 70
    11
 71
     3
 72
   242
 73
   238
 74
     0
 42
0.0000000001
 43
0.0000000001
 12
1.0
 22
0.0
 32
0.0
 13
1.0
 23
0.0
 33
0.0
 40
0.0
 40
0.0
 40
0.0
 40
0.0
 40
1.0
 40
1.0
 40
1.0
 40
2.0
 40
2.0
 40
2.0
 40
3.0
 40
3.0
 40
3.0
 40
4.0
 40
4.0
 40
4.0
 40
5.0
 40
5.0
 40
5.0
 40
6.0
 40
6.0
 40
6.0
 40
7.0
 40
7.0
 40
7.0
 40
8.0
 40
8.0
 40
8.0
 40
9.0
 40
9.0
 40
9.0
 40
10.0
 40
10.0
 40
10.0
 40
11.0
 40
11.0
 40
11.0
 40
12.0
 40
12.0
 40
12.0
 40
13.0
 40
13.0
 40
13.0
 40
14.0
 40
14.0
 40
14.0
 40
15.0
 40
15.0
 40
15.0
 40
16.0
 40
16.0
 40
16.0
 40
17.0
 40
17.0
 40
17.0
 40
18.0
 40
18.0
 40
18.0
 40
19.0
 40
19.0
 40
19.0
 40
20.0
 40
20.0
 40
20.0
 40
21.0
 40
21.0
 40
21.0
 40
22.0
 40
22.0
 40
22.0
 40
23.0
 40
23.0
 40
23.0
 40
24.0
 40
24.0
 40
24.0
 40
25.0
 40
25.0
 40
25.0
 40
26.0
 40
26.0
 40
26.0
 40
27.0
 40
27.0
 40
27.0
 40
28.0
 40
28.0
 40
28.0
 40
29.0
 40
29.0
 40
29.0
 40
30.0
 40
30.0
 40
30.0
 40
31.0
 40
31.0
 40
31.0
 40
32.0
 40
32.0
 40
32.0
 40
33.0
 40
33.0
 40
33.0
 40
34.0
 40
34.0
 40
34.0
 40
35.0
 40
35.0
 40
35.0
 40
36.0
 40
36.0
 40
36.0
 40
37.0
 40
37.0
 40
37.0
 40
38.0
 40
38.0
 40
38.0
 40
39.0
 40
39.0
 40
39.0
 40
40.0
 40
40.0
 40
40.0
 40
41.0
 40
41.0
 40
41.0
 40
42.0
 40
42.0
 40
42.0
 40
43.0
 40
43.0
 40
43.0
 40
44.0
 40
44.0
 40
44.0
 40
45.0
 40
45.0
 40
45.0
 40
46.0
 40
46.0
 40
46.0
 40
47.0
 40
47.0
 40
47.0
 40
48.0
 40
48.0
 40
48.0
 40
49.0
 40
49.0
 40
49.0
 40
50.0
 40
50.0
 40
50.0
 40
51.0
 40
51.0
 40
51.0
 40
52.0
 40
52.0
 40
52.0
 40
53.0
 40
53.0
 40
53.0
 40
54.0
 40
54.0
 40
54.0
 40
55.0
 40
55.0
 40
55.0
 40
56.0
 40
56.0
 40
56.0
 40
57.0
 40
57.0
 40
57.0
 40
58.0
 40
58.0
 40
58.0
 40
59.0
 40
59.0
 40
59.0
 40
60.0
 40
60.0
 40
60.0
 40
61.0
 40
61.0
 40
61.0
 40
62.0
 40
62.0
 40
62.0
 40
63.0
 40
63.0
 40
63.0
 40
64.0
 40
64.0
 40
64.0
 40
65.0
 40
65.0
 40
65.0
 40
66.0
 40
66.0
 40
66.0
 40
67.0
 40
67.0
 40
67.0
 40
68.0
 40
68.0
 40
68.0
 40
69.0
 40
69.0
 40
69.0
 40
70.0
 40
70.0
 40
70.0
 40
71.0
 40
71.0
 40
71.0
 40
72.0
 40
72.0
 40
72.0
 40
73.0
 40
73.0
 40
73.0
 40
74.0
 40
74.0
 40
74.0
 40
75.0
 40
75.0
 40
75.0
 40
76.0
 40
76.0
 40
76.0
 40
77.0
 40
77.0
 40
77.0
 40
78.0
 40
78.0
 40
78.0
 40
79.0
 40
79.0
 40
79.0
 40
79.0
 10
84.71420896319646
 20
-131.8682643984565
 30
0.0
 10
84.71420896319646
 20
-131.8682643984565
 30
0.0
 10
84.4604776807078
 20
-131.8682643984565
 30
0.0
 10
84.4604776807078
 20
-131.8682643984565
 30
0.0
 10
84.4604776807078
 20
-131.8682643984565
 30
0.0
 10
84.18331974891944
 20
-131.8682643984565
 30
0.0
 10
84.18331974891944
 20
-131.8682643984565
 30
0.0
 10
84.18331974891944
 20
-131.8682643984565
 30
0.0
 10
84.3102715175509
 20
-131.9106390729251
 30
0.0
 10
84.3102715175509
 20
-131.9106390729251
 30
0.0
 10
84.32077905878091
 20
-131.9147731875074
 30
0.0
 10
84.33352591207634
 20
-131.9213188689294
 30
0.0
 10
84.33352591207634
 20
-131.9340657222248
 30
0.0
 10
84.33352591207634
 20
-131.9550808046849
 30
0.0
 10
84.30183103361205
 20
-131.9612819765583
 30
0.0
 10
84.28064369637777
 20
-131.9657606006891
 30
0.0
 10
84.26996390037348
 20
-131.9888427404403
 30
0.0
 10
84.24033607920033
 20
-132.0546440642086
 30
0.0
 10
84.22138805403146
 20
-132.0990857959683
 30
0.0
 10
84.22138805403146
 20
-132.0990857959683
 30
0.0
 10
84.4921725591721
 20
-132.0990857959683
 30
0.0
 10
84.4921725591721
 20
-132.0990857959683
 30
0.0
 10
84.5831230799827
 20
-132.0990857959683
 30
0.0
 10
84.77983803219045
 20
-132.0946071718375
 30
0.0
 10
84.9216037114085
 20
-132.0863389426729
 30
0.0
 10
84.9216037114085
 20
-132.0863389426729
 30
0.0
 10
84.9216037114085
 20
-132.2641058697118
 30
0.0
 10
84.9216037114085
 20
-132.2641058697118
 30
0.0
 10
84.83909367453676
 20
-132.2596272455809
 30
0.0
 10
84.81790633730247
 20
-132.2596272455809
 30
0.0
 10
84.63807235297243
 20
-132.2554931309986
 30
0.0
 10
84.60637747450814
 20
-132.4098334087378
 30
0.0
 10
84.5619357427484
 20
-132.4904486430927
 30
0.0
 10
84.51749401098868
 20
-132.5600395718947
 30
0.0
 10
84.63807235297243
 20
-132.619295214241
 30
0.0
 10
84.7438367843696
 20
-132.6871635953004
 30
0.0
 10
84.84753415847563
 20
-132.7695013773979
 30
0.0
 10
84.84753415847563
 20
-132.7695013773979
 30
0.0
 10
84.72902287378302
 20
-132.9365885084325
 30
0.0
 10
84.72902287378302
 20
-132.9365885084325
 30
0.0
 10
84.70576847925759
 20
-132.9176404832637
 30
0.0
 10
84.69319388073643
 20
-132.9090277445505
 30
0.0
 10
84.58105602269154
 20
-132.8246229051619
 30
0.0
 10
84.53230792157527
 20
-132.7863823452756
 30
0.0
 10
84.47305227922897
 20
-132.750553352229
 30
0.0
 10
84.39278155442264
 20
-132.7061116204693
 30
0.0
 10
84.1812526916283
 20
-132.8921467766728
 30
0.0
 10
83.9759250007074
 20
-132.9155734259725
 30
0.0
 10
83.6861924703979
 20
-132.9452012471457
 30
0.0
 10
83.6861924703979
 20
-132.9452012471457
 30
0.0
 10
83.58249509629188
 20
-132.7653672628156
 30
0.0
 10
83.58249509629188
 20
-132.7653672628156
 30
0.0
 10
83.8997883904834
 20
-132.7612331482333
 30
0.0
 10
84.07531600545687
 20
-132.7357394416425
 30
0.0
 10
84.22776148067918
 20
-132.625840895663
 30
0.0
 10
84.10925019598658
 20
-132.5748534824813
 30
0.0
 10
84.02036673246714
 20
-132.5472927185993
 30
0.0
 10
83.98436548464628
 20
-132.5348903748524
 30
0.0
 10
83.9654174594774
 20
-132.5621066291859
 30
0.0
 10
83.95060354889083
 20
-132.5813991639033
 30
0.0
 10
83.92304278500883
 20
-132.6151610996587
 30
0.0
 10
83.92304278500883
 20
-132.6151610996587
 30
0.0
 10
83.72632783280106
 20
-132.5324788080127
 30
0.0
 10
83.72632783280106
 20
-132.5324788080127
 30
0.0
 10
83.8088378696728
 20
-132.4522080832064
 30
0.0
 10
83.87016056931024
 20
-132.3571234478135
 30
0.0
 10
83.92734915436539
 20
-132.2554931309986
 30
0.0
 10
83.73683537403107
 20
-132.2596272455809
 30
0.0
 10
83.71582029157105
 20
-132.2596272455809
 30
0.0
 10
83.63331025469931
 20
-132.2641058697118
 30
0.0
 10
83.63331025469931
 20
-132.2641058697118
 30
0.0
 10
83.63331025469931
 20
-132.0863389426729
 30
0.0
 10
83.63331025469931
 20
-132.0863389426729
 30
0.0
 10
83.77283662185194
 20
-132.0925401145463
 30
0.0
 10
83.98229842735512
 20
-132.0966742291286
 30
0.0
 10
84.00761987917171
 20
-132.0966742291286
 30
0.0
 10
84.0246731018237
 20
-132.0629122933732
 30
0.0
 10
84.07962237481343
 20
-131.9423339513894
 30
0.0
 10
84.09874265475656
 20
-131.8682643984565
 30
0.0
 10
84.07962237481343
 20
-131.8682643984565
 30
0.0
 10
83.90185544777454
 20
-131.8748100798785
 30
0.0
 10
83.70720755285792
 20
-131.887556933174
 30
0.0
 10
83.70720755285792
 20
-131.887556933174
 30
0.0
 10
83.70720755285792
 20
-132.0205376189046
 30
0.0
 10
83.70720755285792
 20
-132.0205376189046
 30
0.0
 10
83.6586317065159
 20
-132.0460313254954
 30
0.0
 10
83.5993760641696
 20
-132.0777262039597
 30
0.0
 10
83.46605086889043
 20
-132.143527527728
 30
0.0
 10
83.46605086889043
 20
-132.143527527728
 30
0.0
 10
83.46605086889043
 20
-132.2892550667541
 30
0.0
 10
83.46605086889043
 20
-132.2892550667541
 30
0.0
 10
83.46605086889043
 20
-132.2892550667541
 30
0.0
 10
83.46605086889043
 20
-132.7567545241025
 30
0.0
 10
83.46605086889043
 20
-132.7567545241025
 30
0.0
 10
83.46605086889043
 20
-132.8838785475082
 30
0.0
 10
83.43022187584384
 20
-132.9431341898545
 30
0.0
 10
83.14669051740778
 20
-132.9345214511414
 30
0.0
 10
83.14669051740778
 20
-132.9345214511414
 30
0.0
 10
83.04299314330176
 20
-132.7271267029293
 30
0.0
 10
83.04299314330176
 20
-132.7271267029293
 30
0.0
 10
83.10655515500461
 20
-132.7398735562248
 30
0.0
 10
83.15513100134663
 20
-132.7443521803556
 30
0.0
 10
83.1952663637498
 20
-132.7443521803556
 30
0.0
 10
83.27157522874808
 20
-132.7443521803556
 30
0.0
 10
83.28208276997809
 20
-132.7209255310559
 30
0.0
 10
83.28208276997809
 20
-132.6554687168361
 30
0.0
 10
83.28208276997809
 20
-132.6554687168361
 30
0.0
 10
83.28208276997809
 20
-132.2258653098255
 30
0.0
 10
83.28208276997809
 20
-132.2258653098255
 30
0.0
 10
83.18475882251978
 20
-132.2661729270029
 30
0.0
 10
83.16787785464206
 20
-132.2723740988764
 30
0.0
 10
83.1213690655912
 20
-132.2913221240452
 30
0.0
 10
83.11706269623463
 20
-132.3126817160538
 30
0.0
 10
83.11275632687807
 20
-132.3423095372269
 30
0.0
 10
83.09380830170919
 20
-132.3423095372269
 30
0.0
 10
83.08536781777033
 20
-132.3423095372269
 30
0.0
 10
83.07468802176605
 20
-132.3378309130961
 30
0.0
 10
83.06848684989261
 20
-132.3147487733449
 30
0.0
 10
83.06848684989261
 20
-132.3147487733449
 30
0.0
 10
83.01560463419402
 20
-132.1221679357195
 30
0.0
 10
83.01560463419402
 20
-132.1221679357195
 30
0.0
 10
83.16150442799434
 20
-132.0756591466686
 30
0.0
 10
83.22713349698836
 20
-132.0525770069174
 30
0.0
 10
83.28208276997809
 20
-132.0312174149089
 30
0.0
 10
83.28208276997809
 20
-132.0312174149089
 30
0.0
 10
83.28208276997809
 20
-131.6188394853245
 30
0.0
 10
83.28208276997809
 20
-131.6188394853245
 30
0.0
 10
83.28208276997809
 20
-131.6188394853245
 30
0.0
 10
83.22920055427952
 20
-131.6188394853245
 30
0.0
 10
83.22920055427952
 20
-131.6188394853245
 30
0.0
 10
83.22920055427952
 20
-131.6188394853245
 30
0.0
 10
83.15099688676433
 20
-131.6188394853245
 30
0.0
 10
83.15099688676433
 20
-131.6188394853245
 30
0.0
 10
83.08330076047918
 20
-131.6188394853245
 30
0.0
 10
83.07468802176605
 20
-131.6188394853245
 30
0.0
 10
83.03885902871946
 20
-131.6250406571979
 30
0.0
 10
83.03885902871946
 20
-131.6250406571979
 30
0.0
 10
83.03885902871946
 20
-131.4303927622813
 30
0.0
 10
83.03885902871946
 20
-131.4303927622813
 30
0.0
 10
83.0662475378272
 20
-131.4369384437033
 30
0.0
 10
83.07468802176605
 20
-131.4369384437033
 30
0.0
 10
83.14462346011662
 20
-131.4369384437033
 30
0.0
 10
83.14462346011662
 20
-131.4369384437033
 30
0.0
 10
83.27777640062153
 20
-131.4369384437033
 30
0.0
 10
83.27777640062153
 20
-131.4369384437033
 30
0.0
 10
83.27777640062153
 20
-131.3670030053527
 30
0.0
 10
83.27777640062153
 20
-131.2843207137067
 30
0.0
 10
83.27570934333038
 20
-131.2801865991244
 30
0.0
 10
83.26726885939152
 20
-131.1003526147944
 30
0.0
 10
83.26726885939152
 20
-131.0814045896255
 30
0.0
 10
83.26520180210036
 20
-131.0348958005746
 30
0.0
 10
83.26520180210036
 20
-131.0348958005746
 30
0.0
 10
83.48086477947702
 20
-131.0431640297392
 30
0.0
 10
83.48086477947702
 20
-131.0431640297392
 30
0.0
 10
83.49154457548129
 20
-131.0431640297392
 30
0.0
 10
83.51273191271557
 20
-131.0455755965789
 30
0.0
 10
83.51273191271557
 20
-131.0624565644566
 30
0.0
 10
83.51273191271557
 20
-131.0814045896255
 30
0.0
 10
83.497918002129
 20
-131.0920843856298
 30
0.0
 10
83.47242429553815
 20
-131.1110324107986
 30
0.0
 10
83.47242429553815
 20
-131.1616753144318
 30
0.0
 10
83.46605086889043
 20
-131.3904296546524
 30
0.0
 10
83.46829018095585
 20
-131.4369384437033
 30
0.0
 10
83.59730900687846
 20
-131.4369384437033
 30
0.0
 10
83.61005586017387
 20
-131.4369384437033
 30
0.0
 10
83.70720755285792
 20
-131.4283257049902
 30
0.0
 10
83.70720755285792
 20
-131.4283257049902
 30
0.0
 10
83.70720755285792
 20
-131.6229735999068
 30
0.0
 10
83.70720755285792
 20
-131.6229735999068
 30
0.0
 10
83.66913924774592
 20
-131.6209065426156
 30
0.0
 10
83.60144312146076
 20
-131.6167724280333
 30
0.0
 10
83.46605086889043
 20
-131.6188394853245
 30
0.0
 10
83.46605086889043
 20
-131.6188394853245
 30
0.0
 10
83.46605086889043
 20
-131.957147861976
 30
0.0
 10
83.46605086889043
 20
-131.957147861976
 30
0.0
 10
83.52117239665444
 20
-131.9340657222248
 30
0.0
 10
83.58662921087418
 20
-131.9065049583428
 30
0.0
 10
83.63537731199047
 20
-131.8830783090431
 30
0.0
 10
83.63537731199047
 20
-131.8830783090431
 30
0.0
 10
83.63537731199047
 20
-131.7053113820042
 30
0.0
 10
83.63537731199047
 20
-131.7053113820042
 30
0.0
 10
83.7495822273265
 20
-131.7180582352997
 30
0.0
 10
83.86809351201909
 20
-131.7180582352997
 30
0.0
 10
83.98436548464628
 20
-131.7180582352997
 30
0.0
 10
83.96111109012084
 20
-131.6229735999068
 30
0.0
 10
83.9337225810131
 20
-131.5402913082608
 30
0.0
 10
83.87016056931024
 20
-131.4073106225301
 30
0.0
 10
83.82571883755053
 20
-131.4093776798213
 30
0.0
 10
83.74320880067879
 20
-131.4135117944036
 30
0.0
 10
83.70514049556678
 20
-131.4155788516947
 30
0.0
 10
83.70514049556678
 20
-131.4155788516947
 30
0.0
 10
83.70514049556678
 20
-131.2357448673647
 30
0.0
 10
83.70514049556678
 20
-131.2357448673647
 30
0.0
 10
83.83002520690708
 20
-131.2443576060778
 30
0.0
 10
84.00348576458941
 20
-131.2484917206601
 30
0.0
 10
84.08599580146114
 20
-131.2484917206601
 30
0.0
 10
84.08599580146114
 20
-131.2484917206601
 30
0.0
 10
84.16850583833288
 20
-131.2484917206601
 30
0.0
 10
84.16850583833288
 20
-131.2484917206601
 30
0.0
 10
84.16850583833288
 20
-131.0855387042078
 30
0.0
 10
84.16850583833288
 20
-131.075203417752
 30
0.0
 10
84.16643878104173
 20
-131.020081889988
 30
0.0
 10
84.16643878104173
 20
-131.020081889988
 30
0.0
 10
84.39054224235723
 20
-131.0455755965789
 30
0.0
 10
84.39054224235723
 20
-131.0455755965789
 30
0.0
 10
84.3948486117138
 20
-131.0455755965789
 30
0.0
 10
84.41603594894808
 20
-131.04764265387
 30
0.0
 10
84.41603594894808
 20
-131.0645236217478
 30
0.0
 10
84.41603594894808
 20
-131.0793375323343
 30
0.0
 10
84.40535615294381
 20
-131.0876057614989
 30
0.0
 10
84.37796764383607
 20
-131.1024196720855
 30
0.0
 10
84.37159421718836
 20
-131.1682209958538
 30
0.0
 10
84.3695271598972
 20
-131.1892360783138
 30
0.0
 10
84.3695271598972
 20
-131.2484917206601
 30
0.0
 10
84.3695271598972
 20
-131.2484917206601
 30
0.0
 10
84.4646117952901
 20
-131.2484917206601
 30
0.0
 10
84.4646117952901
 20
-131.2484917206601
 30
0.0
 10
84.54712183216184
 20
-131.2484917206601
 30
0.0
 10
84.72058238984417
 20
-131.2443576060778
 30
0.0
 10
84.84546710118447
 20
-131.2357448673647
 30
0.0
 10
84.84546710118447
 20
-131.2357448673647
 30
0.0
 10
84.84546710118447
 20
-131.4155788516947
 30
0.0
 10
84.84546710118447
 20
-131.4155788516947
 30
0.0
 10
84.81583928001132
 20
-131.4135117944036
 30
0.0
 10
84.69732799531873
 20
-131.4093776798213
 30
0.0
 10
84.65719263291557
 20
-131.4073106225301
 30
0.0
 10
84.642378722329
 20
-131.4579535261633
 30
0.0
 10
84.60844453179928
 20
-131.5699191294339
 30
0.0
 10
84.54298771757954
 20
-131.7097900061351
 30
0.0
 10
84.58519013727384
 20
-131.7097900061351
 30
0.0
 10
84.8623480690622
 20
-131.6904974714177
 30
0.0
 10
84.92367076869964
 20
-131.6884304141265
 30
0.0
 10
84.92367076869964
 20
-131.6884304141265
 30
0.0
 10
84.92367076869964
 20
-131.8727430225874
 30
0.0
 10
84.92367076869964
 20
-131.8727430225874
 30
0.0
 10
84.89404294752649
 20
-131.8727430225874
 30
0.0
 10
84.87716197964878
 20
-131.8682643984565
 30
0.0
 10
84.71420896319646
 20
-131.8682643984565
 30
0.0
  0
SPLINE
  5
1AD
330
1A8
100
AcDbEntity
  8
_U+30EC_U+30A4_U+30E4_U+30FC 1
370
     0
100
AcDbSpline
210
0.0
220
0.0
230
1.0
 70
    11
 71
     3
 72
    20
 73
    16
 74
     0
 42
0.0000000001
 43
0.0000000001
 12
1.0
 22
0.0
 32
0.0
 13
1.0
 23
0.0
 33
0.0
 40
0.0
 40
0.0
 40
0.0
 40
0.0
 40
1.0
 40
1.0
 40
1.0
 40
2.0
 40
2.0
 40
2.0
 40
3.0
 40
3.0
 40
3.0
 40
4.0
 40
4.0
 40
4.0
 40
5.0
 40
5.0
 40
5.0
 40
5.0
 10
84.08599580146114
 20
-131.4028319983993
 30
0.0
 10
84.08599580146114
 20
-131.4028319983993
 30
0.0
 10
84.05430092299684
 20
-131.4028319983993
 30
0.0
 10
84.05430092299684
 20
-131.4028319983993
 30
0.0
 10
84.10080971204772
 20
-131.502395257923
 30
0.0
 10
84.13250459051201
 20
-131.5826659827293
 30
0.0
 10
84.16643878104173
 20
-131.7097900061351
 30
0.0
 10
84.16643878104173
 20
-131.7097900061351
 30
0.0
 10
84.3736612744795
 20
-131.7097900061351
 30
0.0
 10
84.3736612744795
 20
-131.7097900061351
 30
0.0
 10
84.40535615294381
 20
-131.6167724280333
 30
0.0
 10
84.42861054746923
 20
-131.5320230790962
 30
0.0
 10
84.45203719676894
 20
-131.4028319983993
 30
0.0
 10
84.45203719676894
 20
-131.4028319983993
 30
0.0
 10
84.08599580146114
 20
-131.4028319983993
 30
0.0
 10
84.08599580146114
 20
-131.4028319983993
 30
0.0
  0
SPLINE
  5
1AE
330
1A8
100
AcDbEntity
  8
_U+30EC_U+30A4_U+30E4_U+30FC 1
370
     0
100
AcDbSpline
210
0.0
220
0.0
230
1.0
 70
    11
 71
     3
 72
    17
 73
    13
 74
     0
 42
0.0000000001
 43
0.0000000001
 12
1.0
 22
0.0
 32
0.0
 13
1.0
 23
0.0
 33
0.0
 40
0.0
 40
0.0
 40
0.0
 40
0.0
 40
1.0
 40
1.0
 40
1.0
 40
2.0
 40
2.0
 40
2.0
 40
3.0
 40
3.0
 40
3.0
 40
4.0
 40
4.0
 40
4.0
 40
4.0
 10
84.14938555838974
 20
-132.2534260737075
 30
0.0
 10
84.13250459051201
 20
-132.2830538948806
 30
0.0
 10
84.08168943210458
 20
-132.3760714729824
 30
0.0
 10
84.07118189087457
 20
-132.3950194981512
 30
0.0
 10
84.26152341643463
 20
-132.4542751404975
 30
0.0
 10
84.28271075366891
 20
-132.4608208219195
 30
0.0
 10
84.35471324931063
 20
-132.488037076253
 30
0.0
 10
84.40966252230037
 20
-132.4015651795732
 30
0.0
 10
84.4329169168258
 20
-132.3274956266403
 30
0.0
 10
84.44773082741237
 20
-132.2534260737075
 30
0.0
 10
84.44773082741237
 20
-132.2534260737075
 30
0.0
 10
84.14938555838974
 20
-132.2534260737075
 30
0.0
 10
84.14938555838974
 20
-132.2534260737075
 30
0.0
  0
HATCH
  5
1AF
330
1A8
100
AcDbEntity
  8
_U+30EC_U+30A4_U+30E4_U+30FC 1
 62
     7
420
 16777215
100
AcDbHatch
 10
0.0
 20
0.0
 30
0.0
210
0.0
220
0.0
230
1.0
  2
SOLID
 70
     1
 71
     0
 91
        3
 92
        1
 93
        1
 72
     4
 94
        3
 73
     0
 74
     1
 95
      242
 96
      238
 40
0.0
 40
0.0
 40
0.0
 40
0.0
 40
1.0
 40
1.0
 40
1.0
 40
2.0
 40
2.0
 40
2.0
 40
3.0
 40
3.0
 40
3.0
 40
4.0
 40
4.0
 40
4.0
 40
5.0
 40
5.0
 40
5.0
 40
6.0
 40
6.0
 40
6.0
 40
7.0
 40
7.0
 40
7.0
 40
8.0
 40
8.0
 40
8.0
 40
9.0
 40
9.0
 40
9.0
 40
10.0
 40
10.0
 40
10.0
 40
11.0
 40
11.0
 40
11.0
 40
12.0
 40
12.0
 40
12.0
 40
13.0
 40
13.0
 40
13.0
 40
14.0
 40
14.0
 40
14.0
 40
15.0
 40
15.0
 40
15.0
 40
16.0
 40
16.0
 40
16.0
 40
17.0
 40
17.0
 40
17.0
 40
18.0
 40
18.0
 40
18.0
 40
19.0
 40
19.0
 40
19.0
 40
20.0
 40
20.0
 40
20.0
 40
21.0
 40
21.0
 40
21.0
 40
22.0
 40
22.0
 40
22.0
 40
23.0
 40
23.0
 40
23.0
 40
24.0
 40
24.0
 40
24.0
 40
25.0
 40
25.0
 40
25.0
 40
26.0
 40
26.0
 40
26.0
 40
27.0
 40
27.0
 40
27.0
 40
28.0
 40
28.0
 40
28.0
 40
29.0
 40
29.0
 40
29.0
 40
30.0
 40
30.0
 40
30.0
 40
31.0
 40
31.0
 40
31.0
 40
32.0
 40
32.0
 40
32.0
 40
33.0
 40
33.0
 40
33.0
 40
34.0
 40
34.0
 40
34.0
 40
35.0
 40
35.0
 40
35.0
 40
36.0
 40
36.0
 40
36.0
 40
37.0
 40
37.0
 40
37.0
 40
38.0
 40
38.0
 40
38.0
 40
39.0
 40
39.0
 40
39.0
 40
40.0
 40
40.0
 40
40.0
 40
41.0
 40
41.0
 40
41.0
 40
42.0
 40
42.0
 40
42.0
 40
43.0
 40
43.0
 40
43.0
 40
44.0
 40
44.0
 40
44.0
 40
45.0
 40
45.0
 40
45.0
 40
46.0
 40
46.0
 40
46.0
 40
47.0
 40
47.0
 40
47.0
 40
48.0
 40
48.0
 40
48.0
 40
49.0
 40
49.0
 40
49.0
 40
50.0
 40
50.0
 40
50.0
 40
51.0
 40
51.0
 40
51.0
 40
52.0
 40
52.0
 40
52.0
 40
53.0
 40
53.0
 40
53.0
 40
54.0
 40
54.0
 40
54.0
 40
55.0
 40
55.0
 40
55.0
 40
56.0
 40
56.0
 40
56.0
 40
57.0
 40
57.0
 40
57.0
 40
58.0
 40
58.0
 40
58.0
 40
59.0
 40
59.0
 40
59.0
 40
60.0
 40
60.0
 40
60.0
 40
61.0
 40
61.0
 40
61.0
 40
62.0
 40
62.0
 40
62.0
 40
63.0
 40
63.0
 40
63.0
 40
64.0
 40
64.0
 40
64.0
 40
65.0
 40
65.0
 40
65.0
 40
66.0
 40
66.0
 40
66.0
 40
67.0
 40
67.0
 40
67.0
 40
68.0
 40
68.0
 40
68.0
 40
69.0
 40
69.0
 40
69.0
 40
70.0
 40
70.0
 40
70.0
 40
71.0
 40
71.0
 40
71.0
 40
72.0
 40
72.0
 40
72.0
 40
73.0
 40
73.0
 40
73.0
 40
74.0
 40
74.0
 40
74.0
 40
75.0
 40
75.0
 40
75.0
 40
76.0
 40
76.0
 40
76.0
 40
77.0
 40
77.0
 40
77.0
 40
78.0
 40
78.0
 40
78.0
 40
79.0
 40
79.0
 40
79.0
 40
79.0
 10
84.71420896319646
 20
-131.8682643984565
 10
84.71420896319646
 20
-131.8682643984565
 10
84.4604776807078
 20
-131.8682643984565
 10
84.4604776807078
 20
-131.8682643984565
 10
84.4604776807078
 20
-131.8682643984565
 10
84.18331974891944
 20
-131.8682643984565
 10
84.18331974891944
 20
-131.8682643984565
 10
84.18331974891944
 20
-131.8682643984565
 10
84.3102715175509
 20
-131.9106390729251
 10
84.3102715175509
 20
-131.9106390729251
 10
84.32077905878091
 20
-131.9147731875074
 10
84.33352591207634
 20
-131.9213188689294
 10
84.33352591207634
 20
-131.9340657222248
 10
84.33352591207634
 20
-131.9550808046849
 10
84.30183103361205
 20
-131.9612819765583
 10
84.28064369637777
 20
-131.9657606006891
 10
84.26996390037348
 20
-131.9888427404403
 10
84.24033607920033
 20
-132.0546440642086
 10
84.22138805403146
 20
-132.0990857959683
 10
84.22138805403146
 20
-132.0990857959683
 10
84.4921725591721
 20
-132.0990857959683
 10
84.4921725591721
 20
-132.0990857959683
 10
84.5831230799827
 20
-132.0990857959683
 10
84.77983803219045
 20
-132.0946071718375
 10
84.9216037114085
 20
-132.0863389426729
 10
84.9216037114085
 20
-132.0863389426729
 10
84.9216037114085
 20
-132.2641058697118
 10
84.9216037114085
 20
-132.2641058697118
 10
84.83909367453676
 20
-132.2596272455809
 10
84.81790633730247
 20
-132.2596272455809
 10
84.63807235297243
 20
-132.2554931309986
 10
84.60637747450814
 20
-132.4098334087378
 10
84.5619357427484
 20
-132.4904486430927
 10
84.51749401098868
 20
-132.5600395718947
 10
84.63807235297243
 20
-132.619295214241
 10
84.7438367843696
 20
-132.6871635953004
 10
84.84753415847563
 20
-132.7695013773979
 10
84.84753415847563
 20
-132.7695013773979
 10
84.72902287378302
 20
-132.9365885084325
 10
84.72902287378302
 20
-132.9365885084325
 10
84.70576847925759
 20
-132.9176404832637
 10
84.69319388073643
 20
-132.9090277445505
 10
84.58105602269154
 20
-132.8246229051619
 10
84.53230792157527
 20
-132.7863823452756
 10
84.47305227922897
 20
-132.750553352229
 10
84.39278155442264
 20
-132.7061116204693
 10
84.1812526916283
 20
-132.8921467766728
 10
83.9759250007074
 20
-132.9155734259725
 10
83.6861924703979
 20
-132.9452012471457
 10
83.6861924703979
 20
-132.9452012471457
 10
83.58249509629188
 20
-132.7653672628156
 10
83.58249509629188
 20
-132.7653672628156
 10
83.8997883904834
 20
-132.7612331482333
 10
84.07531600545687
 20
-132.7357394416425
 10
84.22776148067918
 20
-132.625840895663
 10
84.10925019598658
 20
-132.5748534824813
 10
84.02036673246714
 20
-132.5472927185993
 10
83.98436548464628
 20
-132.5348903748524
 10
83.9654174594774
 20
-132.5621066291859
 10
83.95060354889083
 20
-132.5813991639033
 10
83.92304278500883
 20
-132.6151610996587
 10
83.92304278500883
 20
-132.6151610996587
 10
83.72632783280106
 20
-132.5324788080127
 10
83.72632783280106
 20
-132.5324788080127
 10
83.8088378696728
 20
-132.4522080832064
 10
83.87016056931024
 20
-132.3571234478135
 10
83.92734915436539
 20
-132.2554931309986
 10
83.73683537403107
 20
-132.2596272455809
 10
83.71582029157105
 20
-132.2596272455809
 10
83.63331025469931
 20
-132.2641058697118
 10
83.63331025469931
 20
-132.2641058697118
 10
83.63331025469931
 20
-132.0863389426729
 10
83.63331025469931
 20
-132.0863389426729
 10
83.77283662185194
 20
-132.0925401145463
 10
83.98229842735512
 20
-132.0966742291286
 10
84.00761987917171
 20
-132.0966742291286
 10
84.0246731018237
 20
-132.0629122933732
 10
84.07962237481343
 20
-131.9423339513894
 10
84.09874265475656
 20
-131.8682643984565
 10
84.07962237481343
 20
-131.8682643984565
 10
83.90185544777454
 20
-131.8748100798785
 10
83.70720755285792
 20
-131.887556933174
 10
83.70720755285792
 20
-131.887556933174
 10
83.70720755285792
 20
-132.0205376189046
 10
83.70720755285792
 20
-132.0205376189046
 10
83.6586317065159
 20
-132.0460313254954
 10
83.5993760641696
 20
-132.0777262039597
 10
83.46605086889043
 20
-132.143527527728
 10
83.46605086889043
 20
-132.143527527728
 10
83.46605086889043
 20
-132.2892550667541
 10
83.46605086889043
 20
-132.2892550667541
 10
83.46605086889043
 20
-132.2892550667541
 10
83.46605086889043
 20
-132.7567545241025
 10
83.46605086889043
 20
-132.7567545241025
 10
83.46605086889043
 20
-132.8838785475082
 10
83.43022187584384
 20
-132.9431341898545
 10
83.14669051740778
 20
-132.9345214511414
 10
83.14669051740778
 20
-132.9345214511414
 10
83.04299314330176
 20
-132.7271267029293
 10
83.04299314330176
 20
-132.7271267029293
 10
83.10655515500461
 20
-132.7398735562248
 10
83.15513100134663
 20
-132.7443521803556
 10
83.1952663637498
 20
-132.7443521803556
 10
83.27157522874808
 20
-132.7443521803556
 10
83.28208276997809
 20
-132.7209255310559
 10
83.28208276997809
 20
-132.6554687168361
 10
83.28208276997809
 20
-132.6554687168361
 10
83.28208276997809
 20
-132.2258653098255
 10
83.28208276997809
 20
-132.2258653098255
 10
83.18475882251978
 20
-132.2661729270029
 10
83.16787785464206
 20
-132.2723740988764
 10
83.1213690655912
 20
-132.2913221240452
 10
83.11706269623463
 20
-132.3126817160538
 10
83.11275632687807
 20
-132.3423095372269
 10
83.09380830170919
 20
-132.3423095372269
 10
83.08536781777033
 20
-132.3423095372269
 10
83.07468802176605
 20
-132.3378309130961
 10
83.06848684989261
 20
-132.3147487733449
 10
83.06848684989261
 20
-132.3147487733449
 10
83.01560463419402
 20
-132.1221679357195
 10
83.01560463419402
 20
-132.1221679357195
 10
83.16150442799434
 20
-132.0756591466686
 10
83.22713349698836
 20
-132.0525770069174
 10
83.28208276997809
 20
-132.0312174149089
 10
83.28208276997809
 20
-132.0312174149089
 10
83.28208276997809
 20
-131.6188394853245
 10
83.28208276997809
 20
-131.6188394853245
 10
83.28208276997809
 20
-131.6188394853245
 10
83.22920055427952
 20
-131.6188394853245
 10
83.22920055427952
 20
-131.6188394853245
 10
83.22920055427952
 20
-131.6188394853245
 10
83.15099688676433
 20
-131.6188394853245
 10
83.15099688676433
 20
-131.6188394853245
 10
83.08330076047918
 20
-131.6188394853245
 10
83.07468802176605
 20
-131.6188394853245
 10
83.03885902871946
 20
-131.6250406571979
 10
83.03885902871946
 20
-131.6250406571979
 10
83.03885902871946
 20
-131.4303927622813
 10
83.03885902871946
 20
-131.4303927622813
 10
83.0662475378272
 20
-131.4369384437033
 10
83.07468802176605
 20
-131.4369384437033
 10
83.14462346011662
 20
-131.4369384437033
 10
83.14462346011662
 20
-131.4369384437033
 10
83.27777640062153
 20
-131.4369384437033
 10
83.27777640062153
 20
-131.4369384437033
 10
83.27777640062153
 20
-131.3670030053527
 10
83.27777640062153
 20
-131.2843207137067
 10
83.27570934333038
 20
-131.2801865991244
 10
83.26726885939152
 20
-131.1003526147944
 10
83.26726885939152
 20
-131.0814045896255
 10
83.26520180210036
 20
-131.0348958005746
 10
83.26520180210036
 20
-131.0348958005746
 10
83.48086477947702
 20
-131.0431640297392
 10
83.48086477947702
 20
-131.0431640297392
 10
83.49154457548129
 20
-131.0431640297392
 10
83.51273191271557
 20
-131.0455755965789
 10
83.51273191271557
 20
-131.0624565644566
 10
83.51273191271557
 20
-131.0814045896255
 10
83.497918002129
 20
-131.0920843856298
 10
83.47242429553815
 20
-131.1110324107986
 10
83.47242429553815
 20
-131.1616753144318
 10
83.46605086889043
 20
-131.3904296546524
 10
83.46829018095585
 20
-131.4369384437033
 10
83.59730900687846
 20
-131.4369384437033
 10
83.61005586017387
 20
-131.4369384437033
 10
83.70720755285792
 20
-131.4283257049902
 10
83.70720755285792
 20
-131.4283257049902
 10
83.70720755285792
 20
-131.6229735999068
 10
83.70720755285792
 20
-131.6229735999068
 10
83.66913924774592
 20
-131.6209065426156
 10
83.60144312146076
 20
-131.6167724280333
 10
83.46605086889043
 20
-131.6188394853245
 10
83.46605086889043
 20
-131.6188394853245
 10
83.46605086889043
 20
-131.957147861976
 10
83.46605086889043
 20
-131.957147861976
 10
83.52117239665444
 20
-131.9340657222248
 10
83.58662921087418
 20
-131.9065049583428
 10
83.63537731199047
 20
-131.8830783090431
 10
83.63537731199047
 20
-131.8830783090431
 10
83.63537731199047
 20
-131.7053113820042
 10
83.63537731199047
 20
-131.7053113820042
 10
83.7495822273265
 20
-131.7180582352997
 10
83.86809351201909
 20
-131.7180582352997
 10
83.98436548464628
 20
-131.7180582352997
 10
83.96111109012084
 20
-131.6229735999068
 10
83.9337225810131
 20
-131.5402913082608
 10
83.87016056931024
 20
-131.4073106225301
 10
83.82571883755053
 20
-131.4093776798213
 10
83.74320880067879
 20
-131.4135117944036
 10
83.70514049556678
 20
-131.4155788516947
 10
83.70514049556678
 20
-131.4155788516947
 10
83.70514049556678
 20
-131.2357448673647
 10
83.70514049556678
 20
-131.2357448673647
 10
83.83002520690708
 20
-131.2443576060778
 10
84.00348576458941
 20
-131.2484917206601
 10
84.08599580146114
 20
-131.2484917206601
 10
84.08599580146114
 20
-131.2484917206601
 10
84.16850583833288
 20
-131.2484917206601
 10
84.16850583833288
 20
-131.2484917206601
 10
84.16850583833288
 20
-131.0855387042078
 10
84.16850583833288
 20
-131.075203417752
 10
84.16643878104173
 20
-131.020081889988
 10
84.16643878104173
 20
-131.020081889988
 10
84.39054224235723
 20
-131.0455755965789
 10
84.39054224235723
 20
-131.0455755965789
 10
84.3948486117138
 20
-131.0455755965789
 10
84.41603594894808
 20
-131.04764265387
 10
84.41603594894808
 20
-131.0645236217478
 10
84.41603594894808
 20
-131.0793375323343
 10
84.40535615294381
 20
-131.0876057614989
 10
84.37796764383607
 20
-131.1024196720855
 10
84.37159421718836
 20
-131.1682209958538
 10
84.3695271598972
 20
-131.1892360783138
 10
84.3695271598972
 20
-131.2484917206601
 10
84.3695271598972
 20
-131.2484917206601
 10
84.4646117952901
 20
-131.2484917206601
 10
84.4646117952901
 20
-131.2484917206601
 10
84.54712183216184
 20
-131.2484917206601
 10
84.72058238984417
 20
-131.2443576060778
 10
84.84546710118447
 20
-131.2357448673647
 10
84.84546710118447
 20
-131.2357448673647
 10
84.84546710118447
 20
-131.4155788516947
 10
84.84546710118447
 20
-131.4155788516947
 10
84.81583928001132
 20
-131.4135117944036
 10
84.69732799531873
 20
-131.4093776798213
 10
84.65719263291557
 20
-131.4073106225301
 10
84.642378722329
 20
-131.4579535261633
 10
84.60844453179928
 20
-131.5699191294339
 10
84.54298771757954
 20
-131.7097900061351
 10
84.58519013727384
 20
-131.7097900061351
 10
84.8623480690622
 20
-131.6904974714177
 10
84.92367076869964
 20
-131.6884304141265
 10
84.92367076869964
 20
-131.6884304141265
 10
84.92367076869964
 20
-131.8727430225874
 10
84.92367076869964
 20
-131.8727430225874
 10
84.89404294752649
 20
-131.8727430225874
 10
84.87716197964878
 20
-131.8682643984565
 10
84.71420896319646
 20
-131.8682643984565
 97
        0
 97
        0
 92
        1
 93
        1
 72
     4
 94
        3
 73
     0
 74
     1
 95
       20
 96
       16
 40
0.0
 40
0.0
 40
0.0
 40
0.0
 40
1.0
 40
1.0
 40
1.0
 40
2.0
 40
2.0
 40
2.0
 40
3.0
 40
3.0
 40
3.0
 40
4.0
 40
4.0
 40
4.0
 40
5.0
 40
5.0
 40
5.0
 40
5.0
 10
84.08599580146114
 20
-131.4028319983993
 10
84.08599580146114
 20
-131.4028319983993
 10
84.05430092299684
 20
-131.4028319983993
 10
84.05430092299684
 20
-131.4028319983993
 10
84.10080971204772
 20
-131.502395257923
 10
84.13250459051201
 20
-131.5826659827293
 10
84.16643878104173
 20
-131.7097900061351
 10
84.16643878104173
 20
-131.7097900061351
 10
84.3736612744795
 20
-131.7097900061351
 10
84.3736612744795
 20
-131.7097900061351
 10
84.40535615294381
 20
-131.6167724280333
 10
84.42861054746923
 20
-131.5320230790962
 10
84.45203719676894
 20
-131.4028319983993
 10
84.45203719676894
 20
-131.4028319983993
 10
84.08599580146114
 20
-131.4028319983993
 10
84.08599580146114
 20
-131.4028319983993
 97
        0
 97
        0
 92
        1
 93
        1
 72
     4
 94
        3
 73
     0
 74
     1
 95
       17
 96
       13
 40
0.0
 40
0.0
 40
0.0
 40
0.0
 40
1.0
 40
1.0
 40
1.0
 40
2.0
 40
2.0
 40
2.0
 40
3.0
 40
3.0
 40
3.0
 40
4.0
 40
4.0
 40
4.0
 40
4.0
 10
84.14938555838974
 20
-132.2534260737075
 10
84.13250459051201
 20
-132.2830538948806
 10
84.08168943210458
 20
-132.3760714729824
 10
84.07118189087457
 20
-132.3950194981512
 10
84.26152341643463
 20
-132.4542751404975
 10
84.28271075366891
 20
-132.4608208219195
 10
84.35471324931063
 20
-132.488037076253
 10
84.40966252230037
 20
-132.4015651795732
 10
84.4329169168258
 20
-132.3274956266403
 10
84.44773082741237
 20
-132.2534260737075
 10
84.44773082741237
 20
-132.2534260737075
 10
84.14938555838974
 20
-132.2534260737075
 10
84.14938555838974
 20
-132.2534260737075
 97
        0
 97
        0
 75
     2
 76
     1
 98
        0
  0
SPLINE
  5
1B0
330
1A8
100
AcDbEntity
  8
_U+30EC_U+30A4_U+30E4_U+30FC 1
370
     0
100
AcDbSpline
210
0.0
220
0.0
230
1.0
 70
    11
 71
     3
 72
   203
 73
   199
 74
     0
 42
0.0000000001
 43
0.0000000001
 12
1.0
 22
0.0
 32
0.0
 13
1.0
 23
0.0
 33
0.0
 40
0.0
 40
0.0
 40
0.0
 40
0.0
 40
1.0
 40
1.0
 40
1.0
 40
2.0
 40
2.0
 40
2.0
 40
3.0
 40
3.0
 40
3.0
 40
4.0
 40
4.0
 40
4.0
 40
5.0
 40
5.0
 40
5.0
 40
6.0
 40
6.0
 40
6.0
 40
7.0
 40
7.0
 40
7.0
 40
8.0
 40
8.0
 40
8.0
 40
9.0
 40
9.0
 40
9.0
 40
10.0
 40
10.0
 40
10.0
 40
11.0
 40
11.0
 40
11.0
 40
12.0
 40
12.0
 40
12.0
 40
13.0
 40
13.0
 40
13.0
 40
14.0
 40
14.0
 40
14.0
 40
15.0
 40
15.0
 40
15.0
 40
16.0
 40
16.0
 40
16.0
 40
17.0
 40
17.0
 40
17.0
 40
18.0
 40
18.0
 40
18.0
 40
19.0
 40
19.0
 40
19.0
 40
20.0
 40
20.0
 40
20.0
 40
21.0
 40
21.0
 40
21.0
 40
22.0
 40
22.0
 40
22.0
 40
23.0
 40
23.0
 40
23.0
 40
24.0
 40
24.0
 40
24.0
 40
25.0
 40
25.0
 40
25.0
 40
26.0
 40
26.0
 40
26.0
 40
27.0
 40
27.0
 40
27.0
 40
28.0
 40
28.0
 40
28.0
 40
29.0
 40
29.0
 40
29.0
 40
30.0
 40
30.0
 40
30.0
 40
31.0
 40
31.0
 40
31.0
 40
32.0
 40
32.0
 40
32.0
 40
33.0
 40
33.0
 40
33.0
 40
34.0
 40
34.0
 40
34.0
 40
35.0
 40
35.0
 40
35.0
 40
36.0
 40
36.0
 40
36.0
 40
37.0
 40
37.0
 40
37.0
 40
38.0
 40
38.0
 40
38.0
 40
39.0
 40
39.0
 40
39.0
 40
40.0
 40
40.0
 40
40.0
 40
41.0
 40
41.0
 40
41.0
 40
42.0
 40
42.0
 40
42.0
 40
43.0
 40
43.0
 40
43.0
 40
44.0
 40
44.0
 40
44.0
 40
45.0
 40
45.0
 40
45.0
 40
46.0
 40
46.0
 40
46.0
 40
47.0
 40
47.0
 40
47.0
 40
48.0
 40
48.0
 40
48.0
 40
49.0
 40
49.0
 40
49.0
 40
50.0
 40
50.0
 40
50.0
 40
51.0
 40
51.0
 40
51.0
 40
52.0
 40
52.0
 40
52.0
 40
53.0
 40
53.0
 40
53.0
 40
54.0
 40
54.0
 40
54.0
 40
55.0
 40
55.0
 40
55.0
 40
56.0
 40
56.0
 40
56.0
 40
57.0
 40
57.0
 40
57.0
 40
58.0
 40
58.0
 40
58.0
 40
59.0
 40
59.0
 40
59.0
 40
60.0
 40
60.0
 40
60.0
 40
61.0
 40
61.0
 40
61.0
 40
62.0
 40
62.0
 40
62.0
 40
63.0
 40
63.0
 40
63.0
 40
64.0
 40
64.0
 40
64.0
 40
65.0
 40
65.0
 40
65.0
 40
66.0
 40
66.0
 40
66.0
 40
66.0
 10
86.40575084645413
 20
-131.936132779516
 30
0.0
 10
86.40575084645413
 20
-131.936132779516
 30
0.0
 10
85.84730086829512
 20
-131.936132779516
 30
0.0
 10
85.84730086829512
 20
-131.936132779516
 30
0.0
 10
85.83662107229085
 20
-131.9805745112757
 30
0.0
 10
85.82818058835198
 20
-132.01226938974
 30
0.0
 10
85.81543373505656
 20
-132.0501654400777
 30
0.0
 10
85.84092744164741
 20
-132.0501654400777
 30
0.0
 10
85.85574135223399
 20
-132.0525770069174
 30
0.0
 10
85.8621147788817
 20
-132.0525770069174
 30
0.0
 10
85.8621147788817
 20
-132.0525770069174
 30
0.0
 10
86.0503892471506
 20
-132.0525770069174
 30
0.0
 10
86.0503892471506
 20
-132.0525770069174
 30
0.0
 10
86.0503892471506
 20
-132.0525770069174
 30
0.0
 10
86.424698871623
 20
-132.0525770069174
 30
0.0
 10
86.424698871623
 20
-132.0525770069174
 30
0.0
 10
86.47551403003042
 20
-132.0525770069174
 30
0.0
 10
86.75904538846649
 20
-132.039830153622
 30
0.0
 10
86.7907402669308
 20
-132.039830153622
 30
0.0
 10
86.78867320963964
 20
-132.0670464079555
 30
0.0
 10
86.78643389757423
 20
-132.0863389426729
 30
0.0
 10
86.78643389757423
 20
-132.115966763846
 30
0.0
 10
86.78436684028308
 20
-132.1476616423103
 30
0.0
 10
86.78436684028308
 20
-132.2830538948806
 30
0.0
 10
86.78436684028308
 20
-132.3106146587626
 30
0.0
 10
86.78436684028308
 20
-132.3106146587626
 30
0.0
 10
86.78436684028308
 20
-132.5559054573124
 30
0.0
 10
86.78436684028308
 20
-132.5559054573124
 30
0.0
 10
86.78436684028308
 20
-132.6003471890722
 30
0.0
 10
86.78867320963964
 20
-132.7970621412799
 30
0.0
 10
86.79280732422194
 20
-132.9493353617279
 30
0.0
 10
86.79280732422194
 20
-132.9493353617279
 30
0.0
 10
86.56646455084103
 20
-132.9493353617279
 30
0.0
 10
86.56646455084103
 20
-132.9493353617279
 30
0.0
 10
86.56646455084103
 20
-132.9493353617279
 30
0.0
 10
86.56870386290645
 20
-132.9155734259725
 30
0.0
 10
86.56870386290645
 20
-132.9155734259725
 30
0.0
 10
86.56870386290645
 20
-132.9155734259725
 30
0.0
 10
85.866248893464
 20
-132.9155734259725
 30
0.0
 10
85.866248893464
 20
-132.9155734259725
 30
0.0
 10
85.866248893464
 20
-132.9155734259725
 30
0.0
 10
85.86831595075515
 20
-132.9493353617279
 30
0.0
 10
85.86831595075515
 20
-132.9493353617279
 30
0.0
 10
85.86831595075515
 20
-132.9493353617279
 30
0.0
 10
85.6504136613131
 20
-132.9493353617279
 30
0.0
 10
85.6504136613131
 20
-132.9493353617279
 30
0.0
 10
85.65472003066965
 20
-132.894213833964
 30
0.0
 10
85.65472003066965
 20
-132.881811490217
 30
0.0
 10
85.66109345731736
 20
-132.7674343201068
 30
0.0
 10
85.66316051460852
 20
-132.7398735562248
 30
0.0
 10
85.66522757189966
 20
-132.6065483609456
 30
0.0
 10
85.66522757189966
 20
-132.5876003357767
 30
0.0
 10
85.66522757189966
 20
-132.5876003357767
 30
0.0
 10
85.66522757189966
 20
-132.3846842116955
 30
0.0
 10
85.66522757189966
 20
-132.3846842116955
 30
0.0
 10
85.52570120474705
 20
-132.6341091248276
 30
0.0
 10
85.35637476164702
 20
-132.7653672628156
 30
0.0
 10
85.25061033024986
 20
-132.8308240770353
 30
0.0
 10
85.25061033024986
 20
-132.8308240770353
 30
0.0
 10
85.07714977256752
 20
-132.6912977098827
 30
0.0
 10
85.07714977256752
 20
-132.6912977098827
 30
0.0
 10
85.16603323608697
 20
-132.6406548062496
 30
0.0
 10
85.30986597259614
 20
-132.5538384000213
 30
0.0
 10
85.44732528245761
 20
-132.3591905051047
 30
0.0
 10
85.53844805804248
 20
-132.2320664816989
 30
0.0
 10
85.60390487226222
 20
-132.088405999964
 30
0.0
 10
85.63783906279194
 20
-131.936132779516
 30
0.0
 10
85.4092569773456
 20
-131.9381998368071
 30
0.0
 10
85.22942299301556
 20
-131.9444010086806
 30
0.0
 10
85.13433835762267
 20
-131.9464680659717
 30
0.0
 10
85.13433835762267
 20
-131.9464680659717
 30
0.0
 10
85.13433835762267
 20
-131.7690456484814
 30
0.0
 10
85.13433835762267
 20
-131.7690456484814
 30
0.0
 10
85.33105330983044
 20
-131.7752468203548
 30
0.0
 10
85.6145846682665
 20
-131.7793809349371
 30
0.0
 10
85.76479083142338
 20
-131.7793809349371
 30
0.0
 10
85.76479083142338
 20
-131.7793809349371
 30
0.0
 10
85.97838675150888
 20
-131.7793809349371
 30
0.0
 10
85.97838675150888
 20
-131.7793809349371
 30
0.0
 10
85.97838675150888
 20
-131.7793809349371
 30
0.0
 10
85.97838675150888
 20
-131.6715494462488
 30
0.0
 10
85.97838675150888
 20
-131.6715494462488
 30
0.0
 10
85.97838675150888
 20
-131.6715494462488
 30
0.0
 10
85.83248695770855
 20
-131.6715494462488
 30
0.0
 10
85.83248695770855
 20
-131.6715494462488
 30
0.0
 10
85.66316051460852
 20
-131.6715494462488
 30
0.0
 10
85.49400632628276
 20
-131.6756835608311
 30
0.0
 10
85.32674694047387
 20
-131.6822292422531
 30
0.0
 10
85.32674694047387
 20
-131.6822292422531
 30
0.0
 10
85.32674694047387
 20
-131.5110079966362
 30
0.0
 10
85.32674694047387
 20
-131.5110079966362
 30
0.0
 10
85.48125947298733
 20
-131.5213432830919
 30
0.0
 10
85.66746688396508
 20
-131.5213432830919
 30
0.0
 10
85.83248695770855
 20
-131.5213432830919
 30
0.0
 10
85.83248695770855
 20
-131.5213432830919
 30
0.0
 10
85.97838675150888
 20
-131.5213432830919
 30
0.0
 10
85.97838675150888
 20
-131.5213432830919
 30
0.0
 10
85.97838675150888
 20
-131.5213432830919
 30
0.0
 10
85.97838675150888
 20
-131.4028319983993
 30
0.0
 10
85.97838675150888
 20
-131.4028319983993
 30
0.0
 10
85.97838675150888
 20
-131.4028319983993
 30
0.0
 10
85.84730086829512
 20
-131.4028319983993
 30
0.0
 10
85.84730086829512
 20
-131.4028319983993
 30
0.0
 10
85.80061982446999
 20
-131.4028319983993
 30
0.0
 10
85.59753144561451
 20
-131.4114447371124
 30
0.0
 10
85.5553290259202
 20
-131.4114447371124
 30
0.0
 10
85.35224064706472
 20
-131.4155788516947
 30
0.0
 10
85.2761040368407
 20
-131.4176459089859
 30
0.0
 10
85.19772811455127
 20
-131.419712966277
 30
0.0
 10
85.19772811455127
 20
-131.419712966277
 30
0.0
 10
85.19772811455127
 20
-131.2357448673647
 30
0.0
 10
85.19772811455127
 20
-131.2357448673647
 30
0.0
 10
85.3119330298873
 20
-131.2443576060778
 30
0.0
 10
85.35637476164702
 20
-131.2443576060778
 30
0.0
 10
85.73929712483255
 20
-131.2526258352424
 30
0.0
 10
85.67590736790395
 20
-131.1575411998495
 30
0.0
 10
85.64834660402194
 20
-131.1299804359675
 30
0.0
 10
85.61234535620109
 20
-131.0941514429209
 30
0.0
 10
85.61234535620109
 20
-131.0941514429209
 30
0.0
 10
85.78804522594882
 20
-131.0114691512749
 30
0.0
 10
85.78804522594882
 20
-131.0114691512749
 30
0.0
 10
85.82818058835198
 20
-131.04764265387
 30
0.0
 10
85.87262232011172
 20
-131.0900173283386
 30
0.0
 10
85.94669187304459
 20
-131.1999158743181
 30
0.0
 10
85.94669187304459
 20
-131.1999158743181
 30
0.0
 10
85.83248695770855
 20
-131.2546928925336
 30
0.0
 10
85.83248695770855
 20
-131.2546928925336
 30
0.0
 10
85.83248695770855
 20
-131.2546928925336
 30
0.0
 10
85.84299449893857
 20
-131.2546928925336
 30
0.0
 10
85.84299449893857
 20
-131.2546928925336
 30
0.0
 10
85.84299449893857
 20
-131.2546928925336
 30
0.0
 10
86.36544322927669
 20
-131.2546928925336
 30
0.0
 10
86.36544322927669
 20
-131.2546928925336
 30
0.0
 10
86.36544322927669
 20
-131.2546928925336
 30
0.0
 10
86.2703585938838
 20
-131.2105956703224
 30
0.0
 10
86.2703585938838
 20
-131.2105956703224
 30
0.0
 10
86.2979193577658
 20
-131.1723551104361
 30
0.0
 10
86.35493568804668
 20
-131.0920843856298
 30
0.0
 10
86.36974959863326
 20
-131.0180148326969
 30
0.0
 10
86.36974959863326
 20
-131.0180148326969
 30
0.0
 10
86.58334551871874
 20
-131.0814045896255
 30
0.0
 10
86.58334551871874
 20
-131.0814045896255
 30
0.0
 10
86.59195825743187
 20
-131.0834716469166
 30
0.0
 10
86.6129733398919
 20
-131.0941514429209
 30
0.0
 10
86.6129733398919
 20
-131.1151665253809
 30
0.0
 10
86.6129733398919
 20
-131.1534070852672
 30
0.0
 10
86.54751652567215
 20
-131.1534070852672
 30
0.0
 10
86.52839624572901
 20
-131.1534070852672
 30
0.0
 10
86.517888704499
 20
-131.1723551104361
 30
0.0
 10
86.49463430997356
 20
-131.2126627276135
 30
0.0
 10
86.46500648880041
 20
-131.2526258352424
 30
0.0
 10
86.86480981986367
 20
-131.2464246633689
 30
0.0
 10
86.89443764103682
 20
-131.2443576060778
 30
0.0
 10
86.97057425126083
 20
-131.2378119246558
 30
0.0
 10
86.97057425126083
 20
-131.2378119246558
 30
0.0
 10
86.97057425126083
 20
-131.419712966277
 30
0.0
 10
86.97057425126083
 20
-131.419712966277
 30
0.0
 10
86.95145397131769
 20
-131.419712966277
 30
0.0
 10
86.92613251950111
 20
-131.4176459089859
 30
0.0
 10
86.7061631727679
 20
-131.4093776798213
 30
0.0
 10
86.65534801436047
 20
-131.4073106225301
 30
0.0
 10
86.43537866762728
 20
-131.4028319983993
 30
0.0
 10
86.39093693586754
 20
-131.4028319983993
 30
0.0
 10
86.39093693586754
 20
-131.4028319983993
 30
0.0
 10
86.17510170371665
 20
-131.4028319983993
 30
0.0
 10
86.17510170371665
 20
-131.4028319983993
 30
0.0
 10
86.17510170371665
 20
-131.4028319983993
 30
0.0
 10
86.17510170371665
 20
-131.5213432830919
 30
0.0
 10
86.17510170371665
 20
-131.5213432830919
 30
0.0
 10
86.17510170371665
 20
-131.5213432830919
 30
0.0
 10
86.34856226139897
 20
-131.5213432830919
 30
0.0
 10
86.34856226139897
 20
-131.5213432830919
 30
0.0
 10
86.51151527785129
 20
-131.5213432830919
 30
0.0
 10
86.70185680341135
 20
-131.5213432830919
 30
0.0
 10
86.85843639321595
 20
-131.5110079966362
 30
0.0
 10
86.85843639321595
 20
-131.5110079966362
 30
0.0
 10
86.85843639321595
 20
-131.6822292422531
 30
0.0
 10
86.85843639321595
 20
-131.6822292422531
 30
0.0
 10
86.64897458771276
 20
-131.6736165035399
 30
0.0
 10
86.452259635505
 20
-131.6715494462488
 30
0.0
 10
86.34856226139897
 20
-131.6715494462488
 30
0.0
 10
86.34856226139897
 20
-131.6715494462488
 30
0.0
 10
86.17510170371665
 20
-131.6715494462488
 30
0.0
 10
86.17510170371665
 20
-131.6715494462488
 30
0.0
 10
86.17510170371665
 20
-131.6715494462488
 30
0.0
 10
86.17510170371665
 20
-131.7793809349371
 30
0.0
 10
86.17510170371665
 20
-131.7793809349371
 30
0.0
 10
86.17510170371665
 20
-131.7793809349371
 30
0.0
 10
86.40575084645413
 20
-131.7793809349371
 30
0.0
 10
86.40575084645413
 20
-131.7793809349371
 30
0.0
 10
86.5390760417333
 20
-131.7793809349371
 30
0.0
 10
86.82674151475165
 20
-131.7752468203548
 30
0.0
 10
87.03620332025484
 20
-131.7690456484814
 30
0.0
 10
87.03620332025484
 20
-131.7690456484814
 30
0.0
 10
87.03620332025484
 20
-131.9464680659717
 30
0.0
 10
87.03620332025484
 20
-131.9464680659717
 30
0.0
 10
86.84362248262937
 20
-131.9402668940983
 30
0.0
 10
86.53046330302017
 20
-131.936132779516
 30
0.0
 10
86.40575084645413
 20
-131.936132779516
 30
0.0
  0
POLYLINE
  5
1B1
330
1A8
100
AcDbEntity
  8
_U+30EC_U+30A4_U+30E4_U+30FC 1
370
     0
100
AcDb2dPolyline
 66
     1
 10
0.0
 20
0.0
 30
0.0
  0
VERTEX
  5
1B2
330
1B1
100
AcDbEntity
  8
_U+30EC_U+30A4_U+30E4_U+30FC 1
370
     0
100
AcDbVertex
100
AcDb2dVertex
 10
86.57077092019759
 20
-132.19210337407
 30
0.0
  0
VERTEX
  5
1B3
330
1B1
100
AcDbEntity
  8
_U+30EC_U+30A4_U+30E4_U+30FC 1
370
     0
100
AcDbVertex
100
AcDb2dVertex
 10
85.86418183617285
 20
-132.19210337407
 30
0.0
  0
VERTEX
  5
1B4
330
1B1
100
AcDbEntity
  8
_U+30EC_U+30A4_U+30E4_U+30FC 1
370
     0
100
AcDbVertex
100
AcDb2dVertex
 10
85.86418183617285
 20
-132.2999348627584
 30
0.0
  0
VERTEX
  5
1B5
330
1B1
100
AcDbEntity
  8
_U+30EC_U+30A4_U+30E4_U+30FC 1
370
     0
100
AcDbVertex
100
AcDb2dVertex
 10
86.57077092019759
 20
-132.2999348627584
 30
0.0
  0
VERTEX
  5
1B6
330
1B1
100
AcDbEntity
  8
_U+30EC_U+30A4_U+30E4_U+30FC 1
370
     0
100
AcDbVertex
100
AcDb2dVertex
 10
86.57077092019759
 20
-132.19210337407
 30
0.0
  0
SEQEND
  5
1B7
330
1B1
100
AcDbEntity
  8
_U+30EC_U+30A4_U+30E4_U+30FC 1
370
     0
  0
POLYLINE
  5
1B8
330
1A8
100
AcDbEntity
  8
_U+30EC_U+30A4_U+30E4_U+30FC 1
370
     0
100
AcDb2dPolyline
 66
     1
 10
0.0
 20
0.0
 30
0.0
  0
VERTEX
  5
1B9
330
1B8
100
AcDbEntity
  8
_U+30EC_U+30A4_U+30E4_U+30FC 1
370
     0
100
AcDbVertex
100
AcDb2dVertex
 10
86.57077092019759
 20
-132.4246473193244
 30
0.0
  0
VERTEX
  5
1BA
330
1B8
100
AcDbEntity
  8
_U+30EC_U+30A4_U+30E4_U+30FC 1
370
     0
100
AcDbVertex
100
AcDb2dVertex
 10
85.86418183617285
 20
-132.4246473193244
 30
0.0
  0
VERTEX
  5
1BB
330
1B8
100
AcDbEntity
  8
_U+30EC_U+30A4_U+30E4_U+30FC 1
370
     0
100
AcDbVertex
100
AcDb2dVertex
 10
85.86418183617285
 20
-132.5390244894347
 30
0.0
  0
VERTEX
  5
1BC
330
1B8
100
AcDbEntity
  8
_U+30EC_U+30A4_U+30E4_U+30FC 1
370
     0
100
AcDbVertex
100
AcDb2dVertex
 10
86.57077092019759
 20
-132.5390244894347
 30
0.0
  0
VERTEX
  5
1BD
330
1B8
100
AcDbEntity
  8
_U+30EC_U+30A4_U+30E4_U+30FC 1
370
     0
100
AcDbVertex
100
AcDb2dVertex
 10
86.57077092019759
 20
-132.4246473193244
 30
0.0
  0
SEQEND
  5
1BE
330
1B8
100
AcDbEntity
  8
_U+30EC_U+30A4_U+30E4_U+30FC 1
370
     0
  0
POLYLINE
  5
1BF
330
1A8
100
AcDbEntity
  8
_U+30EC_U+30A4_U+30E4_U+30FC 1
370
     0
100
AcDb2dPolyline
 66
     1
 10
0.0
 20
0.0
 30
0.0
  0
VERTEX
  5
1C0
330
1BF
100
AcDbEntity
  8
_U+30EC_U+30A4_U+30E4_U+30FC 1
370
     0
100
AcDbVertex
100
AcDb2dVertex
 10
86.57077092019759
 20
-132.667871060583
 30
0.0
  0
VERTEX
  5
1C1
330
1BF
100
AcDbEntity
  8
_U+30EC_U+30A4_U+30E4_U+30FC 1
370
     0
100
AcDbVertex
100
AcDb2dVertex
 10
85.86418183617285
 20
-132.667871060583
 30
0.0
  0
VERTEX
  5
1C2
330
1BF
100
AcDbEntity
  8
_U+30EC_U+30A4_U+30E4_U+30FC 1
370
     0
100
AcDbVertex
100
AcDb2dVertex
 10
85.86418183617285
 20
-132.7822482306933
 30
0.0
  0
VERTEX
  5
1C3
330
1BF
100
AcDbEntity
  8
_U+30EC_U+30A4_U+30E4_U+30FC 1
370
     0
100
AcDbVertex
100
AcDb2dVertex
 10
86.57077092019759
 20
-132.7822482306933
 30
0.0
  0
VERTEX
  5
1C4
330
1BF
100
AcDbEntity
  8
_U+30EC_U+30A4_U+30E4_U+30FC 1
370
     0
100
AcDbVertex
100
AcDb2dVertex
 10
86.57077092019759
 20
-132.667871060583
 30
0.0
  0
SEQEND
  5
1C5
330
1BF
100
AcDbEntity
  8
_U+30EC_U+30A4_U+30E4_U+30FC 1
370
     0
  0
HATCH
  5
1C6
330
1A8
100
AcDbEntity
  8
_U+30EC_U+30A4_U+30E4_U+30FC 1
 62
     7
420
 16777215
100
AcDbHatch
 10
0.0
 20
0.0
 30
0.0
210
0.0
220
0.0
230
1.0
  2
SOLID
 70
     1
 71
     0
 91
        4
 92
        1
 93
        1
 72
     4
 94
        3
 73
     0
 74
     1
 95
      203
 96
      199
 40
0.0
 40
0.0
 40
0.0
 40
0.0
 40
1.0
 40
1.0
 40
1.0
 40
2.0
 40
2.0
 40
2.0
 40
3.0
 40
3.0
 40
3.0
 40
4.0
 40
4.0
 40
4.0
 40
5.0
 40
5.0
 40
5.0
 40
6.0
 40
6.0
 40
6.0
 40
7.0
 40
7.0
 40
7.0
 40
8.0
 40
8.0
 40
8.0
 40
9.0
 40
9.0
 40
9.0
 40
10.0
 40
10.0
 40
10.0
 40
11.0
 40
11.0
 40
11.0
 40
12.0
 40
12.0
 40
12.0
 40
13.0
 40
13.0
 40
13.0
 40
14.0
 40
14.0
 40
14.0
 40
15.0
 40
15.0
 40
15.0
 40
16.0
 40
16.0
 40
16.0
 40
17.0
 40
17.0
 40
17.0
 40
18.0
 40
18.0
 40
18.0
 40
19.0
 40
19.0
 40
19.0
 40
20.0
 40
20.0
 40
20.0
 40
21.0
 40
21.0
 40
21.0
 40
22.0
 40
22.0
 40
22.0
 40
23.0
 40
23.0
 40
23.0
 40
24.0
 40
24.0
 40
24.0
 40
25.0
 40
25.0
 40
25.0
 40
26.0
 40
26.0
 40
26.0
 40
27.0
 40
27.0
 40
27.0
 40
28.0
 40
28.0
 40
28.0
 40
29.0
 40
29.0
 40
29.0
 40
30.0
 40
30.0
 40
30.0
 40
31.0
 40
31.0
 40
31.0
 40
32.0
 40
32.0
 40
32.0
 40
33.0
 40
33.0
 40
33.0
 40
34.0
 40
34.0
 40
34.0
 40
35.0
 40
35.0
 40
35.0
 40
36.0
 40
36.0
 40
36.0
 40
37.0
 40
37.0
 40
37.0
 40
38.0
 40
38.0
 40
38.0
 40
39.0
 40
39.0
 40
39.0
 40
40.0
 40
40.0
 40
40.0
 40
41.0
 40
41.0
 40
41.0
 40
42.0
 40
42.0
 40
42.0
 40
43.0
 40
43.0
 40
43.0
 40
44.0
 40
44.0
 40
44.0
 40
45.0
 40
45.0
 40
45.0
 40
46.0
 40
46.0
 40
46.0
 40
47.0
 40
47.0
 40
47.0
 40
48.0
 40
48.0
 40
48.0
 40
49.0
 40
49.0
 40
49.0
 40
50.0
 40
50.0
 40
50.0
 40
51.0
 40
51.0
 40
51.0
 40
52.0
 40
52.0
 40
52.0
 40
53.0
 40
53.0
 40
53.0
 40
54.0
 40
54.0
 40
54.0
 40
55.0
 40
55.0
 40
55.0
 40
56.0
 40
56.0
 40
56.0
 40
57.0
 40
57.0
 40
57.0
 40
58.0
 40
58.0
 40
58.0
 40
59.0
 40
59.0
 40
59.0
 40
60.0
 40
60.0
 40
60.0
 40
61.0
 40
61.0
 40
61.0
 40
62.0
 40
62.0
 40
62.0
 40
63.0
 40
63.0
 40
63.0
 40
64.0
 40
64.0
 40
64.0
 40
65.0
 40
65.0
 40
65.0
 40
66.0
 40
66.0
 40
66.0
 40
66.0
 10
86.40575084645413
 20
-131.936132779516
 10
86.40575084645413
 20
-131.936132779516
 10
85.84730086829512
 20
-131.936132779516
 10
85.84730086829512
 20
-131.936132779516
 10
85.83662107229085
 20
-131.9805745112757
 10
85.82818058835198
 20
-132.01226938974
 10
85.81543373505656
 20
-132.0501654400777
 10
85.84092744164741
 20
-132.0501654400777
 10
85.85574135223399
 20
-132.0525770069174
 10
85.8621147788817
 20
-132.0525770069174
 10
85.8621147788817
 20
-132.0525770069174
 10
86.0503892471506
 20
-132.0525770069174
 10
86.0503892471506
 20
-132.0525770069174
 10
86.0503892471506
 20
-132.0525770069174
 10
86.424698871623
 20
-132.0525770069174
 10
86.424698871623
 20
-132.0525770069174
 10
86.47551403003042
 20
-132.0525770069174
 10
86.75904538846649
 20
-132.039830153622
 10
86.7907402669308
 20
-132.039830153622
 10
86.78867320963964
 20
-132.0670464079555
 10
86.78643389757423
 20
-132.0863389426729
 10
86.78643389757423
 20
-132.115966763846
 10
86.78436684028308
 20
-132.1476616423103
 10
86.78436684028308
 20
-132.2830538948806
 10
86.78436684028308
 20
-132.3106146587626
 10
86.78436684028308
 20
-132.3106146587626
 10
86.78436684028308
 20
-132.5559054573124
 10
86.78436684028308
 20
-132.5559054573124
 10
86.78436684028308
 20
-132.6003471890722
 10
86.78867320963964
 20
-132.7970621412799
 10
86.79280732422194
 20
-132.9493353617279
 10
86.79280732422194
 20
-132.9493353617279
 10
86.56646455084103
 20
-132.9493353617279
 10
86.56646455084103
 20
-132.9493353617279
 10
86.56646455084103
 20
-132.9493353617279
 10
86.56870386290645
 20
-132.9155734259725
 10
86.56870386290645
 20
-132.9155734259725
 10
86.56870386290645
 20
-132.9155734259725
 10
85.866248893464
 20
-132.9155734259725
 10
85.866248893464
 20
-132.9155734259725
 10
85.866248893464
 20
-132.9155734259725
 10
85.86831595075515
 20
-132.9493353617279
 10
85.86831595075515
 20
-132.9493353617279
 10
85.86831595075515
 20
-132.9493353617279
 10
85.6504136613131
 20
-132.9493353617279
 10
85.6504136613131
 20
-132.9493353617279
 10
85.65472003066965
 20
-132.894213833964
 10
85.65472003066965
 20
-132.881811490217
 10
85.66109345731736
 20
-132.7674343201068
 10
85.66316051460852
 20
-132.7398735562248
 10
85.66522757189966
 20
-132.6065483609456
 10
85.66522757189966
 20
-132.5876003357767
 10
85.66522757189966
 20
-132.5876003357767
 10
85.66522757189966
 20
-132.3846842116955
 10
85.66522757189966
 20
-132.3846842116955
 10
85.52570120474705
 20
-132.6341091248276
 10
85.35637476164702
 20
-132.7653672628156
 10
85.25061033024986
 20
-132.8308240770353
 10
85.25061033024986
 20
-132.8308240770353
 10
85.07714977256752
 20
-132.6912977098827
 10
85.07714977256752
 20
-132.6912977098827
 10
85.16603323608697
 20
-132.6406548062496
 10
85.30986597259614
 20
-132.5538384000213
 10
85.44732528245761
 20
-132.3591905051047
 10
85.53844805804248
 20
-132.2320664816989
 10
85.60390487226222
 20
-132.088405999964
 10
85.63783906279194
 20
-131.936132779516
 10
85.4092569773456
 20
-131.9381998368071
 10
85.22942299301556
 20
-131.9444010086806
 10
85.13433835762267
 20
-131.9464680659717
 10
85.13433835762267
 20
-131.9464680659717
 10
85.13433835762267
 20
-131.7690456484814
 10
85.13433835762267
 20
-131.7690456484814
 10
85.33105330983044
 20
-131.7752468203548
 10
85.6145846682665
 20
-131.7793809349371
 10
85.76479083142338
 20
-131.7793809349371
 10
85.76479083142338
 20
-131.7793809349371
 10
85.97838675150888
 20
-131.7793809349371
 10
85.97838675150888
 20
-131.7793809349371
 10
85.97838675150888
 20
-131.7793809349371
 10
85.97838675150888
 20
-131.6715494462488
 10
85.97838675150888
 20
-131.6715494462488
 10
85.97838675150888
 20
-131.6715494462488
 10
85.83248695770855
 20
-131.6715494462488
 10
85.83248695770855
 20
-131.6715494462488
 10
85.66316051460852
 20
-131.6715494462488
 10
85.49400632628276
 20
-131.6756835608311
 10
85.32674694047387
 20
-131.6822292422531
 10
85.32674694047387
 20
-131.6822292422531
 10
85.32674694047387
 20
-131.5110079966362
 10
85.32674694047387
 20
-131.5110079966362
 10
85.48125947298733
 20
-131.5213432830919
 10
85.66746688396508
 20
-131.5213432830919
 10
85.83248695770855
 20
-131.5213432830919
 10
85.83248695770855
 20
-131.5213432830919
 10
85.97838675150888
 20
-131.5213432830919
 10
85.97838675150888
 20
-131.5213432830919
 10
85.97838675150888
 20
-131.5213432830919
 10
85.97838675150888
 20
-131.4028319983993
 10
85.97838675150888
 20
-131.4028319983993
 10
85.97838675150888
 20
-131.4028319983993
 10
85.84730086829512
 20
-131.4028319983993
 10
85.84730086829512
 20
-131.4028319983993
 10
85.80061982446999
 20
-131.4028319983993
 10
85.59753144561451
 20
-131.4114447371124
 10
85.5553290259202
 20
-131.4114447371124
 10
85.35224064706472
 20
-131.4155788516947
 10
85.2761040368407
 20
-131.4176459089859
 10
85.19772811455127
 20
-131.419712966277
 10
85.19772811455127
 20
-131.419712966277
 10
85.19772811455127
 20
-131.2357448673647
 10
85.19772811455127
 20
-131.2357448673647
 10
85.3119330298873
 20
-131.2443576060778
 10
85.35637476164702
 20
-131.2443576060778
 10
85.73929712483255
 20
-131.2526258352424
 10
85.67590736790395
 20
-131.1575411998495
 10
85.64834660402194
 20
-131.1299804359675
 10
85.61234535620109
 20
-131.0941514429209
 10
85.61234535620109
 20
-131.0941514429209
 10
85.78804522594882
 20
-131.0114691512749
 10
85.78804522594882
 20
-131.0114691512749
 10
85.82818058835198
 20
-131.04764265387
 10
85.87262232011172
 20
-131.0900173283386
 10
85.94669187304459
 20
-131.1999158743181
 10
85.94669187304459
 20
-131.1999158743181
 10
85.83248695770855
 20
-131.2546928925336
 10
85.83248695770855
 20
-131.2546928925336
 10
85.83248695770855
 20
-131.2546928925336
 10
85.84299449893857
 20
-131.2546928925336
 10
85.84299449893857
 20
-131.2546928925336
 10
85.84299449893857
 20
-131.2546928925336
 10
86.36544322927669
 20
-131.2546928925336
 10
86.36544322927669
 20
-131.2546928925336
 10
86.36544322927669
 20
-131.2546928925336
 10
86.2703585938838
 20
-131.2105956703224
 10
86.2703585938838
 20
-131.2105956703224
 10
86.2979193577658
 20
-131.1723551104361
 10
86.35493568804668
 20
-131.0920843856298
 10
86.36974959863326
 20
-131.0180148326969
 10
86.36974959863326
 20
-131.0180148326969
 10
86.58334551871874
 20
-131.0814045896255
 10
86.58334551871874
 20
-131.0814045896255
 10
86.59195825743187
 20
-131.0834716469166
 10
86.6129733398919
 20
-131.0941514429209
 10
86.6129733398919
 20
-131.1151665253809
 10
86.6129733398919
 20
-131.1534070852672
 10
86.54751652567215
 20
-131.1534070852672
 10
86.52839624572901
 20
-131.1534070852672
 10
86.517888704499
 20
-131.1723551104361
 10
86.49463430997356
 20
-131.2126627276135
 10
86.46500648880041
 20
-131.2526258352424
 10
86.86480981986367
 20
-131.2464246633689
 10
86.89443764103682
 20
-131.2443576060778
 10
86.97057425126083
 20
-131.2378119246558
 10
86.97057425126083
 20
-131.2378119246558
 10
86.97057425126083
 20
-131.419712966277
 10
86.97057425126083
 20
-131.419712966277
 10
86.95145397131769
 20
-131.419712966277
 10
86.92613251950111
 20
-131.4176459089859
 10
86.7061631727679
 20
-131.4093776798213
 10
86.65534801436047
 20
-131.4073106225301
 10
86.43537866762728
 20
-131.4028319983993
 10
86.39093693586754
 20
-131.4028319983993
 10
86.39093693586754
 20
-131.4028319983993
 10
86.17510170371665
 20
-131.4028319983993
 10
86.17510170371665
 20
-131.4028319983993
 10
86.17510170371665
 20
-131.4028319983993
 10
86.17510170371665
 20
-131.5213432830919
 10
86.17510170371665
 20
-131.5213432830919
 10
86.17510170371665
 20
-131.5213432830919
 10
86.34856226139897
 20
-131.5213432830919
 10
86.34856226139897
 20
-131.5213432830919
 10
86.51151527785129
 20
-131.5213432830919
 10
86.70185680341135
 20
-131.5213432830919
 10
86.85843639321595
 20
-131.5110079966362
 10
86.85843639321595
 20
-131.5110079966362
 10
86.85843639321595
 20
-131.6822292422531
 10
86.85843639321595
 20
-131.6822292422531
 10
86.64897458771276
 20
-131.6736165035399
 10
86.452259635505
 20
-131.6715494462488
 10
86.34856226139897
 20
-131.6715494462488
 10
86.34856226139897
 20
-131.6715494462488
 10
86.17510170371665
 20
-131.6715494462488
 10
86.17510170371665
 20
-131.6715494462488
 10
86.17510170371665
 20
-131.6715494462488
 10
86.17510170371665
 20
-131.7793809349371
 10
86.17510170371665
 20
-131.7793809349371
 10
86.17510170371665
 20
-131.7793809349371
 10
86.40575084645413
 20
-131.7793809349371
 10
86.40575084645413
 20
-131.7793809349371
 10
86.5390760417333
 20
-131.7793809349371
 10
86.82674151475165
 20
-131.7752468203548
 10
87.03620332025484
 20
-131.7690456484814
 10
87.03620332025484
 20
-131.7690456484814
 10
87.03620332025484
 20
-131.9464680659717
 10
87.03620332025484
 20
-131.9464680659717
 10
86.84362248262937
 20
-131.9402668940983
 10
86.53046330302017
 20
-131.936132779516
 10
86.40575084645413
 20
-131.936132779516
 97
        0
 97
        0
 92
        1
 93
        4
 72
     1
 10
86.57077092019759
 20
-132.19210337407
 11
85.86418183617285
 21
-132.19210337407
 72
     1
 10
85.86418183617285
 20
-132.19210337407
 11
85.86418183617285
 21
-132.2999348627584
 72
     1
 10
85.86418183617285
 20
-132.2999348627584
 11
86.57077092019759
 21
-132.2999348627584
 72
     1
 10
86.57077092019759
 20
-132.2999348627584
 11
86.57077092019759
 21
-132.19210337407
 97
        0
 92
        1
 93
        4
 72
     1
 10
86.57077092019759
 20
-132.4246473193244
 11
85.86418183617285
 21
-132.4246473193244
 72
     1
 10
85.86418183617285
 20
-132.4246473193244
 11
85.86418183617285
 21
-132.5390244894347
 72
     1
 10
85.86418183617285
 20
-132.5390244894347
 11
86.57077092019759
 21
-132.5390244894347
 72
     1
 10
86.57077092019759
 20
-132.5390244894347
 11
86.57077092019759
 21
-132.4246473193244
 97
        0
 92
        1
 93
        4
 72
     1
 10
86.57077092019759
 20
-132.667871060583
 11
85.86418183617285
 21
-132.667871060583
 72
     1
 10
85.86418183617285
 20
-132.667871060583
 11
85.86418183617285
 21
-132.7822482306933
 72
     1
 10
85.86418183617285
 20
-132.7822482306933
 11
86.57077092019759
 21
-132.7822482306933
 72
     1
 10
86.57077092019759
 20
-132.7822482306933
 11
86.57077092019759
 21
-132.667871060583
 97
        0
 75
     2
 76
     1
 98
        0
  0
SPLINE
  5
1C7
330
1A8
100
AcDbEntity
  8
_U+30EC_U+30A4_U+30E4_U+30FC 1
370
     0
100
AcDbSpline
210
0.0
220
0.0
230
1.0
 70
    11
 71
     3
 72
    47
 73
    43
 74
     0
 42
0.0000000001
 43
0.0000000001
 12
1.0
 22
0.0
 32
0.0
 13
1.0
 23
0.0
 33
0.0
 40
0.0
 40
0.0
 40
0.0
 40
0.0
 40
1.0
 40
1.0
 40
1.0
 40
2.0
 40
2.0
 40
2.0
 40
3.0
 40
3.0
 40
3.0
 40
4.0
 40
4.0
 40
4.0
 40
5.0
 40
5.0
 40
5.0
 40
6.0
 40
6.0
 40
6.0
 40
7.0
 40
7.0
 40
7.0
 40
8.0
 40
8.0
 40
8.0
 40
9.0
 40
9.0
 40
9.0
 40
10.0
 40
10.0
 40
10.0
 40
11.0
 40
11.0
 40
11.0
 40
12.0
 40
12.0
 40
12.0
 40
13.0
 40
13.0
 40
13.0
 40
14.0
 40
14.0
 40
14.0
 40
14.0
 10
88.38271889066475
 20
-131.9127061302163
 30
0.0
 10
88.38271889066475
 20
-131.9127061302163
 30
0.0
 10
88.28126082862413
 20
-131.9127061302163
 30
0.0
 10
88.28126082862413
 20
-131.9127061302163
 30
0.0
 10
88.28126082862413
 20
-131.9995225364446
 30
0.0
 10
88.26007349138985
 20
-132.3888183262778
 30
0.0
 10
88.06335853918208
 20
-132.6086154182368
 30
0.0
 10
87.91091306395978
 20
-132.778114116111
 30
0.0
 10
87.703690570522
 20
-132.8477050449131
 30
0.0
 10
87.61911347635912
 20
-132.8752658087951
 30
0.0
 10
87.61911347635912
 20
-132.8752658087951
 30
0.0
 10
87.4244655814425
 20
-132.7081786777605
 30
0.0
 10
87.4244655814425
 20
-132.7081786777605
 30
0.0
 10
87.52178952890081
 20
-132.695431824465
 30
0.0
 10
87.69731714387429
 20
-132.6723496847139
 30
0.0
 10
87.88559161214319
 20
-132.4839029616707
 30
0.0
 10
87.95966116507606
 20
-132.411900466029
 30
0.0
 10
88.06335853918208
 20
-132.2723740988764
 30
0.0
 10
88.06335853918208
 20
-131.9127061302163
 30
0.0
 10
88.06335853918208
 20
-131.9127061302163
 30
0.0
 10
87.8327093964446
 20
-131.9127061302163
 30
0.0
 10
87.8327093964446
 20
-131.9127061302163
 30
0.0
 10
87.64650198546686
 20
-131.9127061302163
 30
0.0
 10
87.4602945744891
 20
-131.9171847543471
 30
0.0
 10
87.27425941828561
 20
-131.9319986649337
 30
0.0
 10
87.27425941828561
 20
-131.9319986649337
 30
0.0
 10
87.27425941828561
 20
-131.7118570634262
 30
0.0
 10
87.27425941828561
 20
-131.7118570634262
 30
0.0
 10
87.46253388655451
 20
-131.7266709740128
 30
0.0
 10
87.74813230228172
 20
-131.7308050885951
 30
0.0
 10
87.8327093964446
 20
-131.7308050885951
 30
0.0
 10
87.8327093964446
 20
-131.7308050885951
 30
0.0
 10
88.38271889066475
 20
-131.7308050885951
 30
0.0
 10
88.38271889066475
 20
-131.7308050885951
 30
0.0
 10
88.40183917060787
 20
-131.7308050885951
 30
0.0
 10
88.71913246479939
 20
-131.7308050885951
 30
0.0
 10
88.94754229547145
 20
-131.7118570634262
 30
0.0
 10
88.94754229547145
 20
-131.7118570634262
 30
0.0
 10
88.94754229547145
 20
-131.9319986649337
 30
0.0
 10
88.94754229547145
 20
-131.9319986649337
 30
0.0
 10
88.75926782720255
 20
-131.9171847543471
 30
0.0
 10
88.57099335893365
 20
-131.9127061302163
 30
0.0
 10
88.38271889066475
 20
-131.9127061302163
 30
0.0
  0
SPLINE
  5
1C8
330
1A8
100
AcDbEntity
  8
_U+30EC_U+30A4_U+30E4_U+30FC 1
370
     0
100
AcDbSpline
210
0.0
220
0.0
230
1.0
 70
    11
 71
     3
 72
    29
 73
    25
 74
     0
 42
0.0000000001
 43
0.0000000001
 12
1.0
 22
0.0
 32
0.0
 13
1.0
 23
0.0
 33
0.0
 40
0.0
 40
0.0
 40
0.0
 40
0.0
 40
1.0
 40
1.0
 40
1.0
 40
2.0
 40
2.0
 40
2.0
 40
3.0
 40
3.0
 40
3.0
 40
4.0
 40
4.0
 40
4.0
 40
5.0
 40
5.0
 40
5.0
 40
6.0
 40
6.0
 40
6.0
 40
7.0
 40
7.0
 40
7.0
 40
8.0
 40
8.0
 40
8.0
 40
8.0
 10
88.28126082862413
 20
-131.3838839732304
 30
0.0
 10
88.28126082862413
 20
-131.3838839732304
 30
0.0
 10
87.92796628661176
 20
-131.3838839732304
 30
0.0
 10
87.92796628661176
 20
-131.3838839732304
 30
0.0
 10
87.81582842856687
 20
-131.3838839732304
 30
0.0
 10
87.67612980664
 20
-131.3904296546524
 30
0.0
 10
87.56829831795167
 20
-131.4028319983993
 30
0.0
 10
87.56829831795167
 20
-131.4028319983993
 30
0.0
 10
87.56829831795167
 20
-131.1682209958538
 30
0.0
 10
87.56829831795167
 20
-131.1682209958538
 30
0.0
 10
87.68680960264427
 20
-131.1830349064404
 30
0.0
 10
87.87077770155662
 20
-131.1871690210227
 30
0.0
 10
87.92796628661176
 20
-131.1871690210227
 30
0.0
 10
87.92796628661176
 20
-131.1871690210227
 30
0.0
 10
88.28126082862413
 20
-131.1871690210227
 30
0.0
 10
88.28126082862413
 20
-131.1871690210227
 30
0.0
 10
88.30020885379301
 20
-131.1871690210227
 30
0.0
 10
88.50329723264849
 20
-131.1871690210227
 30
0.0
 10
88.64506291186652
 20
-131.1682209958538
 30
0.0
 10
88.64506291186652
 20
-131.1682209958538
 30
0.0
 10
88.64506291186652
 20
-131.4028319983993
 30
0.0
 10
88.64506291186652
 20
-131.4028319983993
 30
0.0
 10
88.48848332206191
 20
-131.3838839732304
 30
0.0
 10
88.29814179650185
 20
-131.3838839732304
 30
0.0
 10
88.28126082862413
 20
-131.3838839732304
 30
0.0
  0
HATCH
  5
1C9
330
1A8
100
AcDbEntity
  8
_U+30EC_U+30A4_U+30E4_U+30FC 1
 62
     7
420
 16777215
100
AcDbHatch
 10
0.0
 20
0.0
 30
0.0
210
0.0
220
0.0
230
1.0
  2
SOLID
 70
     1
 71
     0
 91
        2
 92
        1
 93
        1
 72
     4
 94
        3
 73
     0
 74
     1
 95
       47
 96
       43
 40
0.0
 40
0.0
 40
0.0
 40
0.0
 40
1.0
 40
1.0
 40
1.0
 40
2.0
 40
2.0
 40
2.0
 40
3.0
 40
3.0
 40
3.0
 40
4.0
 40
4.0
 40
4.0
 40
5.0
 40
5.0
 40
5.0
 40
6.0
 40
6.0
 40
6.0
 40
7.0
 40
7.0
 40
7.0
 40
8.0
 40
8.0
 40
8.0
 40
9.0
 40
9.0
 40
9.0
 40
10.0
 40
10.0
 40
10.0
 40
11.0
 40
11.0
 40
11.0
 40
12.0
 40
12.0
 40
12.0
 40
13.0
 40
13.0
 40
13.0
 40
14.0
 40
14.0
 40
14.0
 40
14.0
 10
88.38271889066475
 20
-131.9127061302163
 10
88.38271889066475
 20
-131.9127061302163
 10
88.28126082862413
 20
-131.9127061302163
 10
88.28126082862413
 20
-131.9127061302163
 10
88.28126082862413
 20
-131.9995225364446
 10
88.26007349138985
 20
-132.3888183262778
 10
88.06335853918208
 20
-132.6086154182368
 10
87.91091306395978
 20
-132.778114116111
 10
87.703690570522
 20
-132.8477050449131
 10
87.61911347635912
 20
-132.8752658087951
 10
87.61911347635912
 20
-132.8752658087951
 10
87.4244655814425
 20
-132.7081786777605
 10
87.4244655814425
 20
-132.7081786777605
 10
87.52178952890081
 20
-132.695431824465
 10
87.69731714387429
 20
-132.6723496847139
 10
87.88559161214319
 20
-132.4839029616707
 10
87.95966116507606
 20
-132.411900466029
 10
88.06335853918208
 20
-132.2723740988764
 10
88.06335853918208
 20
-131.9127061302163
 10
88.06335853918208
 20
-131.9127061302163
 10
87.8327093964446
 20
-131.9127061302163
 10
87.8327093964446
 20
-131.9127061302163
 10
87.64650198546686
 20
-131.9127061302163
 10
87.4602945744891
 20
-131.9171847543471
 10
87.27425941828561
 20
-131.9319986649337
 10
87.27425941828561
 20
-131.9319986649337
 10
87.27425941828561
 20
-131.7118570634262
 10
87.27425941828561
 20
-131.7118570634262
 10
87.46253388655451
 20
-131.7266709740128
 10
87.74813230228172
 20
-131.7308050885951
 10
87.8327093964446
 20
-131.7308050885951
 10
87.8327093964446
 20
-131.7308050885951
 10
88.38271889066475
 20
-131.7308050885951
 10
88.38271889066475
 20
-131.7308050885951
 10
88.40183917060787
 20
-131.7308050885951
 10
88.71913246479939
 20
-131.7308050885951
 10
88.94754229547145
 20
-131.7118570634262
 10
88.94754229547145
 20
-131.7118570634262
 10
88.94754229547145
 20
-131.9319986649337
 10
88.94754229547145
 20
-131.9319986649337
 10
88.75926782720255
 20
-131.9171847543471
 10
88.57099335893365
 20
-131.9127061302163
 10
88.38271889066475
 20
-131.9127061302163
 97
        0
 97
        0
 92
        1
 93
        1
 72
     4
 94
        3
 73
     0
 74
     1
 95
       29
 96
       25
 40
0.0
 40
0.0
 40
0.0
 40
0.0
 40
1.0
 40
1.0
 40
1.0
 40
2.0
 40
2.0
 40
2.0
 40
3.0
 40
3.0
 40
3.0
 40
4.0
 40
4.0
 40
4.0
 40
5.0
 40
5.0
 40
5.0
 40
6.0
 40
6.0
 40
6.0
 40
7.0
 40
7.0
 40
7.0
 40
8.0
 40
8.0
 40
8.0
 40
8.0
 10
88.28126082862413
 20
-131.3838839732304
 10
88.28126082862413
 20
-131.3838839732304
 10
87.92796628661176
 20
-131.3838839732304
 10
87.92796628661176
 20
-131.3838839732304
 10
87.81582842856687
 20
-131.3838839732304
 10
87.67612980664
 20
-131.3904296546524
 10
87.56829831795167
 20
-131.4028319983993
 10
87.56829831795167
 20
-131.4028319983993
 10
87.56829831795167
 20
-131.1682209958538
 10
87.56829831795167
 20
-131.1682209958538
 10
87.68680960264427
 20
-131.1830349064404
 10
87.87077770155662
 20
-131.1871690210227
 10
87.92796628661176
 20
-131.1871690210227
 10
87.92796628661176
 20
-131.1871690210227
 10
88.28126082862413
 20
-131.1871690210227
 10
88.28126082862413
 20
-131.1871690210227
 10
88.30020885379301
 20
-131.1871690210227
 10
88.50329723264849
 20
-131.1871690210227
 10
88.64506291186652
 20
-131.1682209958538
 10
88.64506291186652
 20
-131.1682209958538
 10
88.64506291186652
 20
-131.4028319983993
 10
88.64506291186652
 20
-131.4028319983993
 10
88.48848332206191
 20
-131.3838839732304
 10
88.29814179650185
 20
-131.3838839732304
 10
88.28126082862413
 20
-131.3838839732304
 97
        0
 97
        0
 75
     2
 76
     1
 98
        0
  0
SPLINE
  5
1CA
330
1A8
100
AcDbEntity
  8
_U+30EC_U+30A4_U+30E4_U+30FC 1
370
     0
100
AcDbSpline
210
0.0
220
0.0
230
1.0
 70
    11
 71
     3
 72
    29
 73
    25
 74
     0
 42
0.0000000001
 43
0.0000000001
 12
1.0
 22
0.0
 32
0.0
 13
1.0
 23
0.0
 33
0.0
 40
0.0
 40
0.0
 40
0.0
 40
0.0
 40
1.0
 40
1.0
 40
1.0
 40
2.0
 40
2.0
 40
2.0
 40
3.0
 40
3.0
 40
3.0
 40
4.0
 40
4.0
 40
4.0
 40
5.0
 40
5.0
 40
5.0
 40
6.0
 40
6.0
 40
6.0
 40
7.0
 40
7.0
 40
7.0
 40
8.0
 40
8.0
 40
8.0
 40
8.0
 10
90.22842879688734
 20
-132.0756591466686
 30
0.0
 10
90.22842879688734
 20
-132.0756591466686
 30
0.0
 10
89.74404837166121
 20
-132.0756591466686
 30
0.0
 10
89.74404837166121
 20
-132.0756591466686
 30
0.0
 10
89.71648760777921
 20
-132.0756591466686
 30
0.0
 10
89.3991943135877
 20
-132.0756591466686
 30
0.0
 10
89.18766545079336
 20
-132.1011528532594
 30
0.0
 10
89.18766545079336
 20
-132.1011528532594
 30
0.0
 10
89.18766545079336
 20
-131.8703314557477
 30
0.0
 10
89.18766545079336
 20
-131.8703314557477
 30
0.0
 10
89.34631209788913
 20
-131.8937581050474
 30
0.0
 10
89.53665362344917
 20
-131.8958251623386
 30
0.0
 10
89.74404837166121
 20
-131.8958251623386
 30
0.0
 10
89.74404837166121
 20
-131.8958251623386
 30
0.0
 10
90.22842879688734
 20
-131.8958251623386
 30
0.0
 10
90.22842879688734
 20
-131.8958251623386
 30
0.0
 10
90.4146362078651
 20
-131.8958251623386
 30
0.0
 10
90.60084361884284
 20
-131.8937581050474
 30
0.0
 10
90.78481171775519
 20
-131.8703314557477
 30
0.0
 10
90.78481171775519
 20
-131.8703314557477
 30
0.0
 10
90.78481171775519
 20
-132.1011528532594
 30
0.0
 10
90.78481171775519
 20
-132.1011528532594
 30
0.0
 10
90.60084361884284
 20
-132.0777262039597
 30
0.0
 10
90.35331350822764
 20
-132.0756591466686
 30
0.0
 10
90.22842879688734
 20
-132.0756591466686
 30
0.0
  0
HATCH
  5
1CB
330
1A8
100
AcDbEntity
  8
_U+30EC_U+30A4_U+30E4_U+30FC 1
 62
     7
420
 16777215
100
AcDbHatch
 10
0.0
 20
0.0
 30
0.0
210
0.0
220
0.0
230
1.0
  2
SOLID
 70
     1
 71
     0
 91
        1
 92
        1
 93
        1
 72
     4
 94
        3
 73
     0
 74
     1
 95
       29
 96
       25
 40
0.0
 40
0.0
 40
0.0
 40
0.0
 40
1.0
 40
1.0
 40
1.0
 40
2.0
 40
2.0
 40
2.0
 40
3.0
 40
3.0
 40
3.0
 40
4.0
 40
4.0
 40
4.0
 40
5.0
 40
5.0
 40
5.0
 40
6.0
 40
6.0
 40
6.0
 40
7.0
 40
7.0
 40
7.0
 40
8.0
 40
8.0
 40
8.0
 40
8.0
 10
90.22842879688734
 20
-132.0756591466686
 10
90.22842879688734
 20
-132.0756591466686
 10
89.74404837166121
 20
-132.0756591466686
 10
89.74404837166121
 20
-132.0756591466686
 10
89.71648760777921
 20
-132.0756591466686
 10
89.3991943135877
 20
-132.0756591466686
 10
89.18766545079336
 20
-132.1011528532594
 10
89.18766545079336
 20
-132.1011528532594
 10
89.18766545079336
 20
-131.8703314557477
 10
89.18766545079336
 20
-131.8703314557477
 10
89.34631209788913
 20
-131.8937581050474
 10
89.53665362344917
 20
-131.8958251623386
 10
89.74404837166121
 20
-131.8958251623386
 10
89.74404837166121
 20
-131.8958251623386
 10
90.22842879688734
 20
-131.8958251623386
 10
90.22842879688734
 20
-131.8958251623386
 10
90.4146362078651
 20
-131.8958251623386
 10
90.60084361884284
 20
-131.8937581050474
 10
90.78481171775519
 20
-131.8703314557477
 10
90.78481171775519
 20
-131.8703314557477
 10
90.78481171775519
 20
-132.1011528532594
 10
90.78481171775519
 20
-132.1011528532594
 10
90.60084361884284
 20
-132.0777262039597
 10
90.35331350822764
 20
-132.0756591466686
 10
90.22842879688734
 20
-132.0756591466686
 97
        0
 97
        0
 75
     2
 76
     1
 98
        0
  0
SPLINE
  5
1CC
330
1A8
100
AcDbEntity
  8
_U+30EC_U+30A4_U+30E4_U+30FC 1
370
     0
100
AcDbSpline
210
0.0
220
0.0
230
1.0
 70
    11
 71
     3
 72
    47
 73
    43
 74
     0
 42
0.0000000001
 43
0.0000000001
 12
1.0
 22
0.0
 32
0.0
 13
1.0
 23
0.0
 33
0.0
 40
0.0
 40
0.0
 40
0.0
 40
0.0
 40
1.0
 40
1.0
 40
1.0
 40
2.0
 40
2.0
 40
2.0
 40
3.0
 40
3.0
 40
3.0
 40
4.0
 40
4.0
 40
4.0
 40
5.0
 40
5.0
 40
5.0
 40
6.0
 40
6.0
 40
6.0
 40
7.0
 40
7.0
 40
7.0
 40
8.0
 40
8.0
 40
8.0
 40
9.0
 40
9.0
 40
9.0
 40
10.0
 40
10.0
 40
10.0
 40
11.0
 40
11.0
 40
11.0
 40
12.0
 40
12.0
 40
12.0
 40
13.0
 40
13.0
 40
13.0
 40
14.0
 40
14.0
 40
14.0
 40
14.0
 10
92.44879283713087
 20
-131.481380175463
 30
0.0
 10
92.37885739878028
 20
-131.7604329097682
 30
0.0
 10
92.30272078855627
 20
-132.0649793506643
 30
0.0
 10
91.98956160894706
 20
-132.3970865554424
 30
0.0
 10
91.75253903956187
 20
-132.646855978123
 30
0.0
 10
91.50724824101208
 20
-132.7464192376467
 30
0.0
 10
91.40148380961492
 20
-132.7884494025668
 30
0.0
 10
91.40148380961492
 20
-132.7884494025668
 30
0.0
 10
91.20683591469829
 20
-132.6065483609456
 30
0.0
 10
91.20683591469829
 20
-132.6065483609456
 30
0.0
 10
91.39287107090179
 20
-132.5600395718947
 30
0.0
 10
91.75495060640155
 20
-132.467021993793
 30
0.0
 10
92.0508843085845
 20
-131.9719617725626
 30
0.0
 10
92.21177026774568
 20
-131.7053113820042
 30
0.0
 10
92.2245171210411
 20
-131.5320230790962
 30
0.0
 10
92.2327853502057
 20
-131.4410725582856
 30
0.0
 10
92.2327853502057
 20
-131.4410725582856
 30
0.0
 10
91.72738984251954
 20
-131.4410725582856
 30
0.0
 10
91.72738984251954
 20
-131.4410725582856
 30
0.0
 10
91.60887855782696
 20
-131.4410725582856
 30
0.0
 10
91.18788788952942
 20
-131.4600205834545
 30
0.0
 10
91.03544241430711
 20
-131.4707003794587
 30
0.0
 10
91.03544241430711
 20
-131.4707003794587
 30
0.0
 10
91.03544241430711
 20
-131.2612385739555
 30
0.0
 10
91.03544241430711
 20
-131.2612385739555
 30
0.0
 10
91.17720809352515
 20
-131.2739854272509
 30
0.0
 10
91.45453828008776
 20
-131.2781195418333
 30
0.0
 10
91.57063799794068
 20
-131.2781195418333
 30
0.0
 10
91.57063799794068
 20
-131.2781195418333
 30
0.0
 10
91.92617185201846
 20
-131.2781195418333
 30
0.0
 10
91.92617185201846
 20
-131.2781195418333
 30
0.0
 10
91.95373261590046
 20
-131.2781195418333
 30
0.0
 10
92.1142740655131
 20
-131.2760524845421
 30
0.0
 10
92.2245171210411
 20
-131.2612385739555
 30
0.0
 10
92.28170570609625
 20
-131.2546928925336
 30
0.0
 10
92.29858667397397
 20
-131.2357448673647
 30
0.0
 10
92.32166881372514
 20
-131.2126627276135
 30
0.0
 10
92.32166881372514
 20
-131.2126627276135
 30
0.0
 10
92.51011553676831
 20
-131.3628688907704
 30
0.0
 10
92.51011553676831
 20
-131.3628688907704
 30
0.0
 10
92.49530162618173
 20
-131.3924967119436
 30
0.0
 10
92.48462183017746
 20
-131.4114447371124
 30
0.0
 10
92.44879283713087
 20
-131.481380175463
 30
0.0
  0
HATCH
  5
1CD
330
1A8
100
AcDbEntity
  8
_U+30EC_U+30A4_U+30E4_U+30FC 1
 62
     7
420
 16777215
100
AcDbHatch
 10
0.0
 20
0.0
 30
0.0
210
0.0
220
0.0
230
1.0
  2
SOLID
 70
     1
 71
     0
 91
        1
 92
        1
 93
        1
 72
     4
 94
        3
 73
     0
 74
     1
 95
       47
 96
       43
 40
0.0
 40
0.0
 40
0.0
 40
0.0
 40
1.0
 40
1.0
 40
1.0
 40
2.0
 40
2.0
 40
2.0
 40
3.0
 40
3.0
 40
3.0
 40
4.0
 40
4.0
 40
4.0
 40
5.0
 40
5.0
 40
5.0
 40
6.0
 40
6.0
 40
6.0
 40
7.0
 40
7.0
 40
7.0
 40
8.0
 40
8.0
 40
8.0
 40
9.0
 40
9.0
 40
9.0
 40
10.0
 40
10.0
 40
10.0
 40
11.0
 40
11.0
 40
11.0
 40
12.0
 40
12.0
 40
12.0
 40
13.0
 40
13.0
 40
13.0
 40
14.0
 40
14.0
 40
14.0
 40
14.0
 10
92.44879283713087
 20
-131.481380175463
 10
92.37885739878028
 20
-131.7604329097682
 10
92.30272078855627
 20
-132.0649793506643
 10
91.98956160894706
 20
-132.3970865554424
 10
91.75253903956187
 20
-132.646855978123
 10
91.50724824101208
 20
-132.7464192376467
 10
91.40148380961492
 20
-132.7884494025668
 10
91.40148380961492
 20
-132.7884494025668
 10
91.20683591469829
 20
-132.6065483609456
 10
91.20683591469829
 20
-132.6065483609456
 10
91.39287107090179
 20
-132.5600395718947
 10
91.75495060640155
 20
-132.467021993793
 10
92.0508843085845
 20
-131.9719617725626
 10
92.21177026774568
 20
-131.7053113820042
 10
92.2245171210411
 20
-131.5320230790962
 10
92.2327853502057
 20
-131.4410725582856
 10
92.2327853502057
 20
-131.4410725582856
 10
91.72738984251954
 20
-131.4410725582856
 10
91.72738984251954
 20
-131.4410725582856
 10
91.60887855782696
 20
-131.4410725582856
 10
91.18788788952942
 20
-131.4600205834545
 10
91.03544241430711
 20
-131.4707003794587
 10
91.03544241430711
 20
-131.4707003794587
 10
91.03544241430711
 20
-131.2612385739555
 10
91.03544241430711
 20
-131.2612385739555
 10
91.17720809352515
 20
-131.2739854272509
 10
91.45453828008776
 20
-131.2781195418333
 10
91.57063799794068
 20
-131.2781195418333
 10
91.57063799794068
 20
-131.2781195418333
 10
91.92617185201846
 20
-131.2781195418333
 10
91.92617185201846
 20
-131.2781195418333
 10
91.95373261590046
 20
-131.2781195418333
 10
92.1142740655131
 20
-131.2760524845421
 10
92.2245171210411
 20
-131.2612385739555
 10
92.28170570609625
 20
-131.2546928925336
 10
92.29858667397397
 20
-131.2357448673647
 10
92.32166881372514
 20
-131.2126627276135
 10
92.32166881372514
 20
-131.2126627276135
 10
92.51011553676831
 20
-131.3628688907704
 10
92.51011553676831
 20
-131.3628688907704
 10
92.49530162618173
 20
-131.3924967119436
 10
92.48462183017746
 20
-131.4114447371124
 10
92.44879283713087
 20
-131.481380175463
 97
        0
 97
        0
 75
     2
 76
     1
 98
        0
  0
SPLINE
  5
1CE
330
1A8
100
AcDbEntity
  8
_U+30EC_U+30A4_U+30E4_U+30FC 1
370
     0
100
AcDbSpline
210
0.0
220
0.0
230
1.0
 70
    11
 71
     3
 72
    17
 73
    13
 74
     0
 42
0.0000000001
 43
0.0000000001
 12
1.0
 22
0.0
 32
0.0
 13
1.0
 23
0.0
 33
0.0
 40
0.0
 40
0.0
 40
0.0
 40
0.0
 40
1.0
 40
1.0
 40
1.0
 40
2.0
 40
2.0
 40
2.0
 40
3.0
 40
3.0
 40
3.0
 40
4.0
 40
4.0
 40
4.0
 40
4.0
 10
93.1540038829615
 20
-131.2633056312467
 30
0.0
 10
93.1540038829615
 20
-131.377682801357
 30
0.0
 10
93.06098630485975
 20
-131.4727674367499
 30
0.0
 10
92.94454207745831
 20
-131.4727674367499
 30
0.0
 10
92.83050941689655
 20
-131.4727674367499
 30
0.0
 10
92.73542478150365
 20
-131.377682801357
 30
0.0
 10
92.73542478150365
 20
-131.2633056312467
 30
0.0
 10
92.73542478150365
 20
-131.1468614038452
 30
0.0
 10
92.83050941689655
 20
-131.0538438257435
 30
0.0
 10
92.94454207745831
 20
-131.0538438257435
 30
0.0
 10
93.05891924756861
 20
-131.0538438257435
 30
0.0
 10
93.1540038829615
 20
-131.1468614038452
 30
0.0
 10
93.1540038829615
 20
-131.2633056312467
 30
0.0
  0
SPLINE
  5
1CF
330
1A8
100
AcDbEntity
  8
_U+30EC_U+30A4_U+30E4_U+30FC 1
370
     0
100
AcDbSpline
210
0.0
220
0.0
230
1.0
 70
    11
 71
     3
 72
    17
 73
    13
 74
     0
 42
0.0000000001
 43
0.0000000001
 12
1.0
 22
0.0
 32
0.0
 13
1.0
 23
0.0
 33
0.0
 40
0.0
 40
0.0
 40
0.0
 40
0.0
 40
1.0
 40
1.0
 40
1.0
 40
2.0
 40
2.0
 40
2.0
 40
3.0
 40
3.0
 40
3.0
 40
4.0
 40
4.0
 40
4.0
 40
4.0
 10
92.83877764606115
 20
-131.2633056312467
 30
0.0
 10
92.83877764606115
 20
-131.322561273593
 30
0.0
 10
92.88563094466055
 20
-131.3690700626439
 30
0.0
 10
92.94454207745831
 20
-131.3690700626439
 30
0.0
 10
93.00379771980461
 20
-131.3690700626439
 30
0.0
 10
93.05271807569515
 20
-131.322561273593
 30
0.0
 10
93.05271807569515
 20
-131.2633056312467
 30
0.0
 10
93.05271807569515
 20
-131.2040499889004
 30
0.0
 10
93.00379771980461
 20
-131.1554741425583
 30
0.0
 10
92.94454207745831
 20
-131.1554741425583
 30
0.0
 10
92.88563094466055
 20
-131.1554741425583
 30
0.0
 10
92.83877764606115
 20
-131.2040499889004
 30
0.0
 10
92.83877764606115
 20
-131.2633056312467
 30
0.0
  0
HATCH
  5
1D0
330
1A8
100
AcDbEntity
  8
_U+30EC_U+30A4_U+30E4_U+30FC 1
 62
     7
420
 16777215
100
AcDbHatch
 10
0.0
 20
0.0
 30
0.0
210
0.0
220
0.0
230
1.0
  2
SOLID
 70
     1
 71
     0
 91
        2
 92
        1
 93
        1
 72
     4
 94
        3
 73
     0
 74
     1
 95
       17
 96
       13
 40
0.0
 40
0.0
 40
0.0
 40
0.0
 40
1.0
 40
1.0
 40
1.0
 40
2.0
 40
2.0
 40
2.0
 40
3.0
 40
3.0
 40
3.0
 40
4.0
 40
4.0
 40
4.0
 40
4.0
 10
93.1540038829615
 20
-131.2633056312467
 10
93.1540038829615
 20
-131.377682801357
 10
93.06098630485975
 20
-131.4727674367499
 10
92.94454207745831
 20
-131.4727674367499
 10
92.83050941689655
 20
-131.4727674367499
 10
92.73542478150365
 20
-131.377682801357
 10
92.73542478150365
 20
-131.2633056312467
 10
92.73542478150365
 20
-131.1468614038452
 10
92.83050941689655
 20
-131.0538438257435
 10
92.94454207745831
 20
-131.0538438257435
 10
93.05891924756861
 20
-131.0538438257435
 10
93.1540038829615
 20
-131.1468614038452
 10
93.1540038829615
 20
-131.2633056312467
 97
        0
 97
        0
 92
        1
 93
        1
 72
     4
 94
        3
 73
     0
 74
     1
 95
       17
 96
       13
 40
0.0
 40
0.0
 40
0.0
 40
0.0
 40
1.0
 40
1.0
 40
1.0
 40
2.0
 40
2.0
 40
2.0
 40
3.0
 40
3.0
 40
3.0
 40
4.0
 40
4.0
 40
4.0
 40
4.0
 10
92.83877764606115
 20
-131.2633056312467
 10
92.83877764606115
 20
-131.322561273593
 10
92.88563094466055
 20
-131.3690700626439
 10
92.94454207745831
 20
-131.3690700626439
 10
93.00379771980461
 20
-131.3690700626439
 10
93.05271807569515
 20
-131.322561273593
 10
93.05271807569515
 20
-131.2633056312467
 10
93.05271807569515
 20
-131.2040499889004
 10
93.00379771980461
 20
-131.1554741425583
 10
92.94454207745831
 20
-131.1554741425583
 10
92.88563094466055
 20
-131.1554741425583
 10
92.83877764606115
 20
-131.2040499889004
 10
92.83877764606115
 20
-131.2633056312467
 97
        0
 97
        0
 75
     2
 76
     1
 98
        0
  0
ENDBLK
  5
1AB
330
1A8
100
AcDbEntity
  8
0
100
AcDbBlockEnd
  0
ENDSEC
  0
SECTION
  2
ENTITIES
  0
POLYLINE
  5
41
330
1F
100
AcDbEntity
  8
_U+30EC_U+30A4_U+30E4_U+30FC 1
  6
AI-Linetype-1
 62
   154
420
    23468
370
    25
100
AcDb2dPolyline
 66
     1
 10
0.0
 20
0.0
 30
0.0
  0
VERTEX
  5
42
330
41
100
AcDbEntity
  8
_U+30EC_U+30A4_U+30E4_U+30FC 1
  6
AI-Linetype-1
 62
   154
420
    23468
370
    25
100
AcDbVertex
100
AcDb2dVertex
 10
81.50888014275745
 20
-126.7898502460804
 30
0.0
  0
VERTEX
  5
43
330
41
100
AcDbEntity
  8
_U+30EC_U+30A4_U+30E4_U+30FC 1
  6
AI-Linetype-1
 62
   154
420
    23468
370
    25
100
AcDbVertex
100
AcDb2dVertex
 10
91.50861294319857
 20
-126.7898502460804
 30
0.0
  0
SEQEND
  5
45
330
41
100
AcDbEntity
  8
_U+30EC_U+30A4_U+30E4_U+30FC 1
  6
AI-Linetype-1
 62
   154
420
    23468
370
    25
  0
POLYLINE
  5
46
330
1F
100
AcDbEntity
  8
_U+30EC_U+30A4_U+30E4_U+30FC 1
 62
   179
420
  2234388
370
    25
100
AcDb2dPolyline
 66
     1
 10
0.0
 20
0.0
 30
0.0
  0
VERTEX
  5
47
330
46
100
AcDbEntity
  8
_U+30EC_U+30A4_U+30E4_U+30FC 1
 62
   179
420
  2234388
370
    25
100
AcDbVertex
100
AcDb2dVertex
 10
105.5691027513856
 20
-133.9993932998335
 30
0.0
  0
VERTEX
  5
48
330
46
100
AcDbEntity
  8
_U+30EC_U+30A4_U+30E4_U+30FC 1
 62
   179
420
  2234388
370
    25
100
AcDbVertex
100
AcDb2dVertex
 10
101.509404076946
 20
-133.9993932998335
 30
0.0
  0
SEQEND
  5
49
330
46
100
AcDbEntity
  8
_U+30EC_U+30A4_U+30E4_U+30FC 1
 62
   179
420
  2234388
370
    25
  0
POLYLINE
  5
4A
330
1F
100
AcDbEntity
  8
_U+30EC_U+30A4_U+30E4_U+30FC 1
 62
   179
420
  2234388
370
    25
100
AcDb2dPolyline
 66
     1
 10
0.0
 20
0.0
 30
0.0
  0
VERTEX
  5
4B
330
4A
100
AcDbEntity
  8
_U+30EC_U+30A4_U+30E4_U+30FC 1
 62
   179
420
  2234388
370
    25
100
AcDbVertex
100
AcDb2dVertex
 10
81.50888014275745
 20
-125.4993185797364
 30
0.0
  0
VERTEX
  5
4C
330
4A
100
AcDbEntity
  8
_U+30EC_U+30A4_U+30E4_U+30FC 1
 62
   179
420
  2234388
370
    25
100
AcDbVertex
100
AcDb2dVertex
 10
81.50888014275745
 20
-125.9995574685001
 30
0.0
  0
SEQEND
  5
4D
330
4A
100
AcDbEntity
  8
_U+30EC_U+30A4_U+30E4_U+30FC 1
 62
   179
420
  2234388
370
    25
  0
POLYLINE
  5
4E
330
1F
100
AcDbEntity
  8
_U+30EC_U+30A4_U+30E4_U+30FC 1
 62
   179
420
  2234388
370
    25
100
AcDb2dPolyline
 66
     1
 10
0.0
 20
0.0
 30
0.0
  0
VERTEX
  5
4F
330
4E
100
AcDbEntity
  8
_U+30EC_U+30A4_U+30E4_U+30FC 1
 62
   179
420
  2234388
370
    25
100
AcDbVertex
100
AcDb2dVertex
 10
101.509404076946
 20
-125.9995574685001
 30
0.0
  0
VERTEX
  5
50
330
4E
100
AcDbEntity
  8
_U+30EC_U+30A4_U+30E4_U+30FC 1
 62
   179
420
  2234388
370
    25
100
AcDbVertex
100
AcDb2dVertex
 10
81.50888014275745
 20
-125.9995574685001
 30
0.0
  0
SEQEND
  5
51
330
4E
100
AcDbEntity
  8
_U+30EC_U+30A4_U+30E4_U+30FC 1
 62
   179
420
  2234388
370
    25
  0
POLYLINE
  5
52
330
1F
100
AcDbEntity
  8
_U+30EC_U+30A4_U+30E4_U+30FC 1
 62
   179
420
  2234388
370
    25
100
AcDb2dPolyline
 66
     1
 10
0.0
 20
0.0
 30
0.0
  0
VERTEX
  5
53
330
52
100
AcDbEntity
  8
_U+30EC_U+30A4_U+30E4_U+30FC 1
 62
   179
420
  2234388
370
    25
100
AcDbVertex
100
AcDb2dVertex
 10
81.50888014275745
 20
-125.4993185797364
 30
0.0
  0
VERTEX
  5
54
330
52
100
AcDbEntity
  8
_U+30EC_U+30A4_U+30E4_U+30FC 1
 62
   179
420
  2234388
370
    25
100
AcDbVertex
100
AcDb2dVertex
 10
82.0225598518746
 20
-125.8813769129741
 30
0.0
  0
SEQEND
  5
55
330
52
100
AcDbEntity
  8
_U+30EC_U+30A4_U+30E4_U+30FC 1
 62
   179
420
  2234388
370
    25
  0
POLYLINE
  5
56
330
1F
100
AcDbEntity
  8
_U+30EC_U+30A4_U+30E4_U+30FC 1
 62
   179
420
  2234388
370
    25
100
AcDb2dPolyline
 66
     1
 10
0.0
 20
0.0
 30
0.0
  0
VERTEX
  5
57
330
56
100
AcDbEntity
  8
_U+30EC_U+30A4_U+30E4_U+30FC 1
 62
   179
420
  2234388
370
    25
100
AcDbVertex
100
AcDb2dVertex
 10
82.0225598518746
 20
-125.8813769129741
 30
0.0
  0
VERTEX
  5
58
330
56
100
AcDbEntity
  8
_U+30EC_U+30A4_U+30E4_U+30FC 1
 62
   179
420
  2234388
370
    25
100
AcDbVertex
100
AcDb2dVertex
 10
82.50798206171268
 20
-125.4638291353006
 30
0.0
  0
SEQEND
  5
59
330
56
100
AcDbEntity
  8
_U+30EC_U+30A4_U+30E4_U+30FC 1
 62
   179
420
  2234388
370
    25
  0
POLYLINE
  5
5A
330
1F
100
AcDbEntity
  8
_U+30EC_U+30A4_U+30E4_U+30FC 1
 62
   179
420
  2234388
370
    25
100
AcDb2dPolyline
 66
     1
 10
0.0
 20
0.0
 30
0.0
  0
VERTEX
  5
5B
330
5A
100
AcDbEntity
  8
_U+30EC_U+30A4_U+30E4_U+30FC 1
 62
   179
420
  2234388
370
    25
100
AcDbVertex
100
AcDb2dVertex
 10
83.02197927082175
 20
-125.8458874685386
 30
0.0
  0
VERTEX
  5
5C
330
5A
100
AcDbEntity
  8
_U+30EC_U+30A4_U+30E4_U+30FC 1
 62
   179
420
  2234388
370
    25
100
AcDbVertex
100
AcDb2dVertex
 10
83.50740148065981
 20
-125.4279869130873
 30
0.0
  0
SEQEND
  5
5D
330
5A
100
AcDbEntity
  8
_U+30EC_U+30A4_U+30E4_U+30FC 1
 62
   179
420
  2234388
370
    25
  0
POLYLINE
  5
5E
330
1F
100
AcDbEntity
  8
_U+30EC_U+30A4_U+30E4_U+30FC 1
 62
   179
420
  2234388
370
    25
100
AcDb2dPolyline
 66
     1
 10
0.0
 20
0.0
 30
0.0
  0
VERTEX
  5
5F
330
5E
100
AcDbEntity
  8
_U+30EC_U+30A4_U+30E4_U+30FC 1
 62
   179
420
  2234388
370
    25
100
AcDbVertex
100
AcDb2dVertex
 10
82.50798206171268
 20
-125.4638291353006
 30
0.0
  0
VERTEX
  5
60
330
5E
100
AcDbEntity
  8
_U+30EC_U+30A4_U+30E4_U+30FC 1
 62
   179
420
  2234388
370
    25
100
AcDbVertex
100
AcDb2dVertex
 10
83.02197927082175
 20
-125.8458874685386
 30
0.0
  0
SEQEND
  5
61
330
5E
100
AcDbEntity
  8
_U+30EC_U+30A4_U+30E4_U+30FC 1
 62
   179
420
  2234388
370
    25
  0
POLYLINE
  5
62
330
1F
100
AcDbEntity
  8
_U+30EC_U+30A4_U+30E4_U+30FC 1
 62
   179
420
  2234388
370
    25
100
AcDb2dPolyline
 66
     1
 10
0.0
 20
0.0
 30
0.0
  0
VERTEX
  5
63
330
62
100
AcDbEntity
  8
_U+30EC_U+30A4_U+30E4_U+30FC 1
 62
   179
420
  2234388
370
    25
100
AcDbVertex
100
AcDb2dVertex
 10
83.50740148065981
 20
-125.4279869130873
 30
0.0
  0
VERTEX
  5
64
330
62
100
AcDbEntity
  8
_U+30EC_U+30A4_U+30E4_U+30FC 1
 62
   179
420
  2234388
370
    25
100
AcDbVertex
100
AcDb2dVertex
 10
84.02139868976887
 20
-125.8100805241032
 30
0.0
  0
SEQEND
  5
65
330
62
100
AcDbEntity
  8
_U+30EC_U+30A4_U+30E4_U+30FC 1
 62
   179
420
  2234388
370
    25
  0
POLYLINE
  5
66
330
1F
100
AcDbEntity
  8
_U+30EC_U+30A4_U+30E4_U+30FC 1
 62
   179
420
  2234388
370
    25
100
AcDb2dPolyline
 66
     1
 10
0.0
 20
0.0
 30
0.0
  0
VERTEX
  5
67
330
66
100
AcDbEntity
  8
_U+30EC_U+30A4_U+30E4_U+30FC 1
 62
   179
420
  2234388
370
    25
100
AcDbVertex
100
AcDb2dVertex
 10
84.02139868976887
 20
-125.8100805241032
 30
0.0
  0
VERTEX
  5
68
330
66
100
AcDbEntity
  8
_U+30EC_U+30A4_U+30E4_U+30FC 1
 62
   179
420
  2234388
370
    25
100
AcDbVertex
100
AcDb2dVertex
 10
84.50682089960694
 20
-125.3925327464297
 30
0.0
  0
SEQEND
  5
69
330
66
100
AcDbEntity
  8
_U+30EC_U+30A4_U+30E4_U+30FC 1
 62
   179
420
  2234388
370
    25
  0
POLYLINE
  5
6A
330
1F
100
AcDbEntity
  8
_U+30EC_U+30A4_U+30E4_U+30FC 1
 62
   179
420
  2234388
370
    25
100
AcDb2dPolyline
 66
     1
 10
0.0
 20
0.0
 30
0.0
  0
VERTEX
  5
6B
330
6A
100
AcDbEntity
  8
_U+30EC_U+30A4_U+30E4_U+30FC 1
 62
   179
420
  2234388
370
    25
100
AcDbVertex
100
AcDb2dVertex
 10
84.50682089960694
 20
-125.3925327464297
 30
0.0
  0
VERTEX
  5
6C
330
6A
100
AcDbEntity
  8
_U+30EC_U+30A4_U+30E4_U+30FC 1
 62
   179
420
  2234388
370
    25
100
AcDbVertex
100
AcDb2dVertex
 10
85.020818108716
 20
-125.7742383018899
 30
0.0
  0
SEQEND
  5
6D
330
6A
100
AcDbEntity
  8
_U+30EC_U+30A4_U+30E4_U+30FC 1
 62
   179
420
  2234388
370
    25
  0
POLYLINE
  5
6E
330
1F
100
AcDbEntity
  8
_U+30EC_U+30A4_U+30E4_U+30FC 1
 62
   179
420
  2234388
370
    25
100
AcDb2dPolyline
 66
     1
 10
0.0
 20
0.0
 30
0.0
  0
VERTEX
  5
6F
330
6E
100
AcDbEntity
  8
_U+30EC_U+30A4_U+30E4_U+30FC 1
 62
   179
420
  2234388
370
    25
100
AcDbVertex
100
AcDb2dVertex
 10
85.020818108716
 20
-125.7742383018899
 30
0.0
  0
VERTEX
  5
70
330
6E
100
AcDbEntity
  8
_U+30EC_U+30A4_U+30E4_U+30FC 1
 62
   179
420
  2234388
370
    25
100
AcDbVertex
100
AcDb2dVertex
 10
85.5058875407853
 20
-125.3566905242164
 30
0.0
  0
SEQEND
  5
71
330
6E
100
AcDbEntity
  8
_U+30EC_U+30A4_U+30E4_U+30FC 1
 62
   179
420
  2234388
370
    25
  0
POLYLINE
  5
72
330
1F
100
AcDbEntity
  8
_U+30EC_U+30A4_U+30E4_U+30FC 1
 62
   179
420
  2234388
370
    25
100
AcDb2dPolyline
 66
     1
 10
0.0
 20
0.0
 30
0.0
  0
VERTEX
  5
73
330
72
100
AcDbEntity
  8
_U+30EC_U+30A4_U+30E4_U+30FC 1
 62
   179
420
  2234388
370
    25
100
AcDbVertex
100
AcDb2dVertex
 10
85.5058875407853
 20
-125.3566905242164
 30
0.0
  0
VERTEX
  5
74
330
72
100
AcDbEntity
  8
_U+30EC_U+30A4_U+30E4_U+30FC 1
 62
   179
420
  2234388
370
    25
100
AcDbVertex
100
AcDb2dVertex
 10
86.01988474989436
 20
-125.7383960796767
 30
0.0
  0
SEQEND
  5
75
330
72
100
AcDbEntity
  8
_U+30EC_U+30A4_U+30E4_U+30FC 1
 62
   179
420
  2234388
370
    25
  0
POLYLINE
  5
76
330
1F
100
AcDbEntity
  8
_U+30EC_U+30A4_U+30E4_U+30FC 1
 62
   179
420
  2234388
370
    25
100
AcDb2dPolyline
 66
     1
 10
0.0
 20
0.0
 30
0.0
  0
VERTEX
  5
77
330
76
100
AcDbEntity
  8
_U+30EC_U+30A4_U+30E4_U+30FC 1
 62
   179
420
  2234388
370
    25
100
AcDbVertex
100
AcDb2dVertex
 10
86.01988474989436
 20
-125.7383960796767
 30
0.0
  0
VERTEX
  5
78
330
76
100
AcDbEntity
  8
_U+30EC_U+30A4_U+30E4_U+30FC 1
 62
   179
420
  2234388
370
    25
100
AcDbVertex
100
AcDb2dVertex
 10
86.5056597375012
 20
-125.3208483020032
 30
0.0
  0
SEQEND
  5
79
330
76
100
AcDbEntity
  8
_U+30EC_U+30A4_U+30E4_U+30FC 1
 62
   179
420
  2234388
370
    25
  0
POLYLINE
  5
7A
330
1F
100
AcDbEntity
  8
_U+30EC_U+30A4_U+30E4_U+30FC 1
 62
   179
420
  2234388
370
    25
100
AcDb2dPolyline
 66
     1
 10
0.0
 20
0.0
 30
0.0
  0
VERTEX
  5
7B
330
7A
100
AcDbEntity
  8
_U+30EC_U+30A4_U+30E4_U+30FC 1
 62
   179
420
  2234388
370
    25
100
AcDbVertex
100
AcDb2dVertex
 10
86.5056597375012
 20
-125.3208483020032
 30
0.0
  0
VERTEX
  5
7C
330
7A
100
AcDbEntity
  8
_U+30EC_U+30A4_U+30E4_U+30FC 1
 62
   179
420
  2234388
370
    25
100
AcDbVertex
100
AcDb2dVertex
 10
87.01965694661027
 20
-125.7029066352409
 30
0.0
  0
SEQEND
  5
7D
330
7A
100
AcDbEntity
  8
_U+30EC_U+30A4_U+30E4_U+30FC 1
 62
   179
420
  2234388
370
    25
  0
POLYLINE
  5
7E
330
1F
100
AcDbEntity
  8
_U+30EC_U+30A4_U+30E4_U+30FC 1
 62
   179
420
  2234388
370
    25
100
AcDb2dPolyline
 66
     1
 10
0.0
 20
0.0
 30
0.0
  0
VERTEX
  5
7F
330
7E
100
AcDbEntity
  8
_U+30EC_U+30A4_U+30E4_U+30FC 1
 62
   179
420
  2234388
370
    25
100
AcDbVertex
100
AcDb2dVertex
 10
87.01965694661027
 20
-125.7029066352409
 30
0.0
  0
VERTEX
  5
80
330
7E
100
AcDbEntity
  8
_U+30EC_U+30A4_U+30E4_U+30FC 1
 62
   179
420
  2234388
370
    25
100
AcDbVertex
100
AcDb2dVertex
 10
87.50472637867955
 20
-125.2853588575677
 30
0.0
  0
SEQEND
  5
81
330
7E
100
AcDbEntity
  8
_U+30EC_U+30A4_U+30E4_U+30FC 1
 62
   179
420
  2234388
370
    25
  0
POLYLINE
  5
82
330
1F
100
AcDbEntity
  8
_U+30EC_U+30A4_U+30E4_U+30FC 1
 62
   179
420
  2234388
370
    25
100
AcDb2dPolyline
 66
     1
 10
0.0
 20
0.0
 30
0.0
  0
VERTEX
  5
83
330
82
100
AcDbEntity
  8
_U+30EC_U+30A4_U+30E4_U+30FC 1
 62
   179
420
  2234388
370
    25
100
AcDbVertex
100
AcDb2dVertex
 10
87.50472637867955
 20
-125.2853588575677
 30
0.0
  0
VERTEX
  5
84
330
82
100
AcDbEntity
  8
_U+30EC_U+30A4_U+30E4_U+30FC 1
 62
   179
420
  2234388
370
    25
100
AcDbVertex
100
AcDb2dVertex
 10
88.01876108910656
 20
-125.6674524685832
 30
0.0
  0
SEQEND
  5
85
330
82
100
AcDbEntity
  8
_U+30EC_U+30A4_U+30E4_U+30FC 1
 62
   179
420
  2234388
370
    25
  0
POLYLINE
  5
86
330
1F
100
AcDbEntity
  8
_U+30EC_U+30A4_U+30E4_U+30FC 1
 62
   179
420
  2234388
370
    25
100
AcDb2dPolyline
 66
     1
 10
0.0
 20
0.0
 30
0.0
  0
VERTEX
  5
87
330
86
100
AcDbEntity
  8
_U+30EC_U+30A4_U+30E4_U+30FC 1
 62
   179
420
  2234388
370
    25
100
AcDbVertex
100
AcDb2dVertex
 10
88.01876108910656
 20
-125.6674524685832
 30
0.0
  0
VERTEX
  5
88
330
86
100
AcDbEntity
  8
_U+30EC_U+30A4_U+30E4_U+30FC 1
 62
   179
420
  2234388
370
    25
100
AcDbVertex
100
AcDb2dVertex
 10
88.50414579762669
 20
-125.249551913132
 30
0.0
  0
SEQEND
  5
89
330
86
100
AcDbEntity
  8
_U+30EC_U+30A4_U+30E4_U+30FC 1
 62
   179
420
  2234388
370
    25
  0
POLYLINE
  5
8A
330
1F
100
AcDbEntity
  8
_U+30EC_U+30A4_U+30E4_U+30FC 1
 62
   179
420
  2234388
370
    25
100
AcDb2dPolyline
 66
     1
 10
0.0
 20
0.0
 30
0.0
  0
VERTEX
  5
8B
330
8A
100
AcDbEntity
  8
_U+30EC_U+30A4_U+30E4_U+30FC 1
 62
   179
420
  2234388
370
    25
100
AcDbVertex
100
AcDb2dVertex
 10
89.01818053330102
 20
-125.63161024637
 30
0.0
  0
VERTEX
  5
8C
330
8A
100
AcDbEntity
  8
_U+30EC_U+30A4_U+30E4_U+30FC 1
 62
   179
420
  2234388
370
    25
100
AcDbVertex
100
AcDb2dVertex
 10
89.50356521657382
 20
-125.2140624686965
 30
0.0
  0
SEQEND
  5
8D
330
8A
100
AcDbEntity
  8
_U+30EC_U+30A4_U+30E4_U+30FC 1
 62
   179
420
  2234388
370
    25
  0
POLYLINE
  5
8E
330
1F
100
AcDbEntity
  8
_U+30EC_U+30A4_U+30E4_U+30FC 1
 62
   179
420
  2234388
370
    25
100
AcDb2dPolyline
 66
     1
 10
0.0
 20
0.0
 30
0.0
  0
VERTEX
  5
8F
330
8E
100
AcDbEntity
  8
_U+30EC_U+30A4_U+30E4_U+30FC 1
 62
   179
420
  2234388
370
    25
100
AcDbVertex
100
AcDb2dVertex
 10
88.50414579762669
 20
-125.249551913132
 30
0.0
  0
VERTEX
  5
90
330
8E
100
AcDbEntity
  8
_U+30EC_U+30A4_U+30E4_U+30FC 1
 62
   179
420
  2234388
370
    25
100
AcDbVertex
100
AcDb2dVertex
 10
89.01818053330102
 20
-125.63161024637
 30
0.0
  0
SEQEND
  5
91
330
8E
100
AcDbEntity
  8
_U+30EC_U+30A4_U+30E4_U+30FC 1
 62
   179
420
  2234388
370
    25
  0
POLYLINE
  5
92
330
1F
100
AcDbEntity
  8
_U+30EC_U+30A4_U+30E4_U+30FC 1
 62
   179
420
  2234388
370
    25
100
AcDb2dPolyline
 66
     1
 10
0.0
 20
0.0
 30
0.0
  0
VERTEX
  5
93
330
92
100
AcDbEntity
  8
_U+30EC_U+30A4_U+30E4_U+30FC 1
 62
   179
420
  2234388
370
    25
100
AcDbVertex
100
AcDb2dVertex
 10
89.50356521657382
 20
-125.2140624686965
 30
0.0
  0
VERTEX
  5
94
330
92
100
AcDbEntity
  8
_U+30EC_U+30A4_U+30E4_U+30FC 1
 62
   179
420
  2234388
370
    25
100
AcDbVertex
100
AcDb2dVertex
 10
90.0175999774955
 20
-125.5957680241567
 30
0.0
  0
SEQEND
  5
95
330
92
100
AcDbEntity
  8
_U+30EC_U+30A4_U+30E4_U+30FC 1
 62
   179
420
  2234388
370
    25
  0
POLYLINE
  5
96
330
1F
100
AcDbEntity
  8
_U+30EC_U+30A4_U+30E4_U+30FC 1
 62
   179
420
  2234388
370
    25
100
AcDb2dPolyline
 66
     1
 10
0.0
 20
0.0
 30
0.0
  0
VERTEX
  5
97
330
96
100
AcDbEntity
  8
_U+30EC_U+30A4_U+30E4_U+30FC 1
 62
   179
420
  2234388
370
    25
100
AcDbVertex
100
AcDb2dVertex
 10
90.0175999774955
 20
-125.5957680241567
 30
0.0
  0
VERTEX
  5
98
330
96
100
AcDbEntity
  8
_U+30EC_U+30A4_U+30E4_U+30FC 1
 62
   179
420
  2234388
370
    25
100
AcDbVertex
100
AcDb2dVertex
 10
90.50298463552095
 20
-125.1782202464832
 30
0.0
  0
SEQEND
  5
99
330
96
100
AcDbEntity
  8
_U+30EC_U+30A4_U+30E4_U+30FC 1
 62
   179
420
  2234388
370
    25
  0
POLYLINE
  5
9A
330
1F
100
AcDbEntity
  8
_U+30EC_U+30A4_U+30E4_U+30FC 1
 62
   179
420
  2234388
370
    25
100
AcDb2dPolyline
 66
     1
 10
0.0
 20
0.0
 30
0.0
  0
VERTEX
  5
9B
330
9A
100
AcDbEntity
  8
_U+30EC_U+30A4_U+30E4_U+30FC 1
 62
   179
420
  2234388
370
    25
100
AcDbVertex
100
AcDb2dVertex
 10
91.0166666439125
 20
-125.559961079721
 30
0.0
  0
VERTEX
  5
9C
330
9A
100
AcDbEntity
  8
_U+30EC_U+30A4_U+30E4_U+30FC 1
 62
   179
420
  2234388
370
    25
100
AcDbVertex
100
AcDb2dVertex
 10
91.5024416437912
 20
-125.1424133020478
 30
0.0
  0
SEQEND
  5
9D
330
9A
100
AcDbEntity
  8
_U+30EC_U+30A4_U+30E4_U+30FC 1
 62
   179
420
  2234388
370
    25
  0
POLYLINE
  5
9E
330
1F
100
AcDbEntity
  8
_U+30EC_U+30A4_U+30E4_U+30FC 1
 62
   179
420
  2234388
370
    25
100
AcDb2dPolyline
 66
     1
 10
0.0
 20
0.0
 30
0.0
  0
VERTEX
  5
9F
330
9E
100
AcDbEntity
  8
_U+30EC_U+30A4_U+30E4_U+30FC 1
 62
   179
420
  2234388
370
    25
100
AcDbVertex
100
AcDb2dVertex
 10
90.50298463552095
 20
-125.1782202464832
 30
0.0
  0
VERTEX
  5
A0
330
9E
100
AcDbEntity
  8
_U+30EC_U+30A4_U+30E4_U+30FC 1
 62
   179
420
  2234388
370
    25
100
AcDbVertex
100
AcDb2dVertex
 10
91.0166666439125
 20
-125.559961079721
 30
0.0
  0
SEQEND
  5
A1
330
9E
100
AcDbEntity
  8
_U+30EC_U+30A4_U+30E4_U+30FC 1
 62
   179
420
  2234388
370
    25
  0
POLYLINE
  5
A2
330
1F
100
AcDbEntity
  8
_U+30EC_U+30A4_U+30E4_U+30FC 1
 62
   179
420
  2234388
370
    25
100
AcDb2dPolyline
 66
     1
 10
0.0
 20
0.0
 30
0.0
  0
VERTEX
  5
A3
330
A2
100
AcDbEntity
  8
_U+30EC_U+30A4_U+30E4_U+30FC 1
 62
   179
420
  2234388
370
    25
100
AcDbVertex
100
AcDb2dVertex
 10
92.01643886588505
 20
-125.5244716352855
 30
0.0
  0
VERTEX
  5
A4
330
A2
100
AcDbEntity
  8
_U+30EC_U+30A4_U+30E4_U+30FC 1
 62
   179
420
  2234388
370
    25
100
AcDbVertex
100
AcDb2dVertex
 10
92.50150831020822
 20
-125.106923857612
 30
0.0
  0
SEQEND
  5
A5
330
A2
100
AcDbEntity
  8
_U+30EC_U+30A4_U+30E4_U+30FC 1
 62
   179
420
  2234388
370
    25
  0
POLYLINE
  5
A6
330
1F
100
AcDbEntity
  8
_U+30EC_U+30A4_U+30E4_U+30FC 1
 62
   179
420
  2234388
370
    25
100
AcDb2dPolyline
 66
     1
 10
0.0
 20
0.0
 30
0.0
  0
VERTEX
  5
A7
330
A6
100
AcDbEntity
  8
_U+30EC_U+30A4_U+30E4_U+30FC 1
 62
   179
420
  2234388
370
    25
100
AcDbVertex
100
AcDb2dVertex
 10
91.5024416437912
 20
-125.1424133020478
 30
0.0
  0
VERTEX
  5
A8
330
A6
100
AcDbEntity
  8
_U+30EC_U+30A4_U+30E4_U+30FC 1
 62
   179
420
  2234388
370
    25
100
AcDbVertex
100
AcDb2dVertex
 10
92.01643886588505
 20
-125.5244716352855
 30
0.0
  0
SEQEND
  5
A9
330
A6
100
AcDbEntity
  8
_U+30EC_U+30A4_U+30E4_U+30FC 1
 62
   179
420
  2234388
370
    25
  0
POLYLINE
  5
AA
330
1F
100
AcDbEntity
  8
_U+30EC_U+30A4_U+30E4_U+30FC 1
 62
   179
420
  2234388
370
    25
100
AcDb2dPolyline
 66
     1
 10
0.0
 20
0.0
 30
0.0
  0
VERTEX
  5
AB
330
AA
100
AcDbEntity
  8
_U+30EC_U+30A4_U+30E4_U+30FC 1
 62
   179
420
  2234388
370
    25
100
AcDbVertex
100
AcDb2dVertex
 10
92.50150831020822
 20
-125.106923857612
 30
0.0
  0
VERTEX
  5
AC
330
AA
100
AcDbEntity
  8
_U+30EC_U+30A4_U+30E4_U+30FC 1
 62
   179
420
  2234388
370
    25
100
AcDbVertex
100
AcDb2dVertex
 10
93.01550553230142
 20
-125.48898219085
 30
0.0
  0
SEQEND
  5
AD
330
AA
100
AcDbEntity
  8
_U+30EC_U+30A4_U+30E4_U+30FC 1
 62
   179
420
  2234388
370
    25
  0
POLYLINE
  5
AE
330
1F
100
AcDbEntity
  8
_U+30EC_U+30A4_U+30E4_U+30FC 1
 62
   179
420
  2234388
370
    25
100
AcDb2dPolyline
 66
     1
 10
0.0
 20
0.0
 30
0.0
  0
VERTEX
  5
AF
330
AE
100
AcDbEntity
  8
_U+30EC_U+30A4_U+30E4_U+30FC 1
 62
   179
420
  2234388
370
    25
100
AcDbVertex
100
AcDb2dVertex
 10
93.01550553230142
 20
-125.48898219085
 30
0.0
  0
VERTEX
  5
B0
330
AE
100
AcDbEntity
  8
_U+30EC_U+30A4_U+30E4_U+30FC 1
 62
   179
420
  2234388
370
    25
100
AcDbVertex
100
AcDb2dVertex
 10
93.50128053218012
 20
-125.0710816353988
 30
0.0
  0
SEQEND
  5
B1
330
AE
100
AcDbEntity
  8
_U+30EC_U+30A4_U+30E4_U+30FC 1
 62
   179
420
  2234388
370
    25
  0
POLYLINE
  5
B2
330
1F
100
AcDbEntity
  8
_U+30EC_U+30A4_U+30E4_U+30FC 1
 62
   179
420
  2234388
370
    25
100
AcDb2dPolyline
 66
     1
 10
0.0
 20
0.0
 30
0.0
  0
VERTEX
  5
B3
330
B2
100
AcDbEntity
  8
_U+30EC_U+30A4_U+30E4_U+30FC 1
 62
   179
420
  2234388
370
    25
100
AcDbVertex
100
AcDb2dVertex
 10
93.50128053218012
 20
-125.0710816353988
 30
0.0
  0
VERTEX
  5
B4
330
B2
100
AcDbEntity
  8
_U+30EC_U+30A4_U+30E4_U+30FC 1
 62
   179
420
  2234388
370
    25
100
AcDbVertex
100
AcDb2dVertex
 10
94.01527775427397
 20
-125.4531399686368
 30
0.0
  0
SEQEND
  5
B5
330
B2
100
AcDbEntity
  8
_U+30EC_U+30A4_U+30E4_U+30FC 1
 62
   179
420
  2234388
370
    25
  0
POLYLINE
  5
B6
330
1F
100
AcDbEntity
  8
_U+30EC_U+30A4_U+30E4_U+30FC 1
 62
   179
420
  2234388
370
    25
100
AcDb2dPolyline
 66
     1
 10
0.0
 20
0.0
 30
0.0
  0
VERTEX
  5
B7
330
B6
100
AcDbEntity
  8
_U+30EC_U+30A4_U+30E4_U+30FC 1
 62
   179
420
  2234388
370
    25
100
AcDbVertex
100
AcDb2dVertex
 10
94.01527775427397
 20
-125.4531399686368
 30
0.0
  0
VERTEX
  5
B8
330
B6
100
AcDbEntity
  8
_U+30EC_U+30A4_U+30E4_U+30FC 1
 62
   179
420
  2234388
370
    25
100
AcDbVertex
100
AcDb2dVertex
 10
94.50034719859714
 20
-125.0355921909633
 30
0.0
  0
SEQEND
  5
B9
330
B6
100
AcDbEntity
  8
_U+30EC_U+30A4_U+30E4_U+30FC 1
 62
   179
420
  2234388
370
    25
  0
POLYLINE
  5
BA
330
1F
100
AcDbEntity
  8
_U+30EC_U+30A4_U+30E4_U+30FC 1
 62
   179
420
  2234388
370
    25
100
AcDb2dPolyline
 66
     1
 10
0.0
 20
0.0
 30
0.0
  0
VERTEX
  5
BB
330
BA
100
AcDbEntity
  8
_U+30EC_U+30A4_U+30E4_U+30FC 1
 62
   179
420
  2234388
370
    25
100
AcDbVertex
100
AcDb2dVertex
 10
94.50034719859714
 20
-125.0355921909633
 30
0.0
  0
VERTEX
  5
BC
330
BA
100
AcDbEntity
  8
_U+30EC_U+30A4_U+30E4_U+30FC 1
 62
   179
420
  2234388
370
    25
100
AcDbVertex
100
AcDb2dVertex
 10
95.01434442069097
 20
-125.4173330242014
 30
0.0
  0
SEQEND
  5
BD
330
BA
100
AcDbEntity
  8
_U+30EC_U+30A4_U+30E4_U+30FC 1
 62
   179
420
  2234388
370
    25
  0
POLYLINE
  5
BE
330
1F
100
AcDbEntity
  8
_U+30EC_U+30A4_U+30E4_U+30FC 1
 62
   179
420
  2234388
370
    25
100
AcDb2dPolyline
 66
     1
 10
0.0
 20
0.0
 30
0.0
  0
VERTEX
  5
BF
330
BE
100
AcDbEntity
  8
_U+30EC_U+30A4_U+30E4_U+30FC 1
 62
   179
420
  2234388
370
    25
100
AcDbVertex
100
AcDb2dVertex
 10
95.01434442069097
 20
-125.4173330242014
 30
0.0
  0
VERTEX
  5
C0
330
BE
100
AcDbEntity
  8
_U+30EC_U+30A4_U+30E4_U+30FC 1
 62
   179
420
  2234388
370
    25
100
AcDbVertex
100
AcDb2dVertex
 10
95.50011942056967
 20
-124.9997852465279
 30
0.0
  0
SEQEND
  5
C1
330
BE
100
AcDbEntity
  8
_U+30EC_U+30A4_U+30E4_U+30FC 1
 62
   179
420
  2234388
370
    25
  0
POLYLINE
  5
C2
330
1F
100
AcDbEntity
  8
_U+30EC_U+30A4_U+30E4_U+30FC 1
 62
   179
420
  2234388
370
    25
100
AcDb2dPolyline
 66
     1
 10
0.0
 20
0.0
 30
0.0
  0
VERTEX
  5
C3
330
C2
100
AcDbEntity
  8
_U+30EC_U+30A4_U+30E4_U+30FC 1
 62
   179
420
  2234388
370
    25
100
AcDbVertex
100
AcDb2dVertex
 10
95.50011942056967
 20
-124.9997852465279
 30
0.0
  0
VERTEX
  5
C4
330
C2
100
AcDbEntity
  8
_U+30EC_U+30A4_U+30E4_U+30FC 1
 62
   179
420
  2234388
370
    25
100
AcDbVertex
100
AcDb2dVertex
 10
96.01411664266288
 20
-125.3814908019878
 30
0.0
  0
SEQEND
  5
C5
330
C2
100
AcDbEntity
  8
_U+30EC_U+30A4_U+30E4_U+30FC 1
 62
   179
420
  2234388
370
    25
  0
POLYLINE
  5
C6
330
1F
100
AcDbEntity
  8
_U+30EC_U+30A4_U+30E4_U+30FC 1
 62
   179
420
  2234388
370
    25
100
AcDb2dPolyline
 66
     1
 10
0.0
 20
0.0
 30
0.0
  0
VERTEX
  5
C7
330
C6
100
AcDbEntity
  8
_U+30EC_U+30A4_U+30E4_U+30FC 1
 62
   179
420
  2234388
370
    25
100
AcDbVertex
100
AcDb2dVertex
 10
96.01411664266288
 20
-125.3814908019878
 30
0.0
  0
VERTEX
  5
C8
330
C6
100
AcDbEntity
  8
_U+30EC_U+30A4_U+30E4_U+30FC 1
 62
   179
420
  2234388
370
    25
100
AcDbVertex
100
AcDb2dVertex
 10
96.49883330920893
 20
-124.9639430243146
 30
0.0
  0
SEQEND
  5
C9
330
C6
100
AcDbEntity
  8
_U+30EC_U+30A4_U+30E4_U+30FC 1
 62
   179
420
  2234388
370
    25
  0
POLYLINE
  5
CA
330
1F
100
AcDbEntity
  8
_U+30EC_U+30A4_U+30E4_U+30FC 1
 62
   179
420
  2234388
370
    25
100
AcDb2dPolyline
 66
     1
 10
0.0
 20
0.0
 30
0.0
  0
VERTEX
  5
CB
330
CA
100
AcDbEntity
  8
_U+30EC_U+30A4_U+30E4_U+30FC 1
 62
   179
420
  2234388
370
    25
100
AcDbVertex
100
AcDb2dVertex
 10
96.49883330920893
 20
-124.9639430243146
 30
0.0
  0
VERTEX
  5
CC
330
CA
100
AcDbEntity
  8
_U+30EC_U+30A4_U+30E4_U+30FC 1
 62
   179
420
  2234388
370
    25
100
AcDbVertex
100
AcDb2dVertex
 10
97.012863358329
 20
-125.3460013575523
 30
0.0
  0
SEQEND
  5
CD
330
CA
100
AcDbEntity
  8
_U+30EC_U+30A4_U+30E4_U+30FC 1
 62
   179
420
  2234388
370
    25
  0
POLYLINE
  5
CE
330
1F
100
AcDbEntity
  8
_U+30EC_U+30A4_U+30E4_U+30FC 1
 62
   179
420
  2234388
370
    25
100
AcDb2dPolyline
 66
     1
 10
0.0
 20
0.0
 30
0.0
  0
VERTEX
  5
CF
330
CE
100
AcDbEntity
  8
_U+30EC_U+30A4_U+30E4_U+30FC 1
 62
   179
420
  2234388
370
    25
100
AcDbVertex
100
AcDb2dVertex
 10
97.012863358329
 20
-125.3460013575523
 30
0.0
  0
VERTEX
  5
D0
330
CE
100
AcDbEntity
  8
_U+30EC_U+30A4_U+30E4_U+30FC 1
 62
   179
420
  2234388
370
    25
100
AcDbVertex
100
AcDb2dVertex
 10
97.49793279039828
 20
-124.9284535798791
 30
0.0
  0
SEQEND
  5
D1
330
CE
100
AcDbEntity
  8
_U+30EC_U+30A4_U+30E4_U+30FC 1
 62
   179
420
  2234388
370
    25
  0
POLYLINE
  5
D2
330
1F
100
AcDbEntity
  8
_U+30EC_U+30A4_U+30E4_U+30FC 1
 62
   179
420
  2234388
370
    25
100
AcDb2dPolyline
 66
     1
 10
0.0
 20
0.0
 30
0.0
  0
VERTEX
  5
D3
330
D2
100
AcDbEntity
  8
_U+30EC_U+30A4_U+30E4_U+30FC 1
 62
   179
420
  2234388
370
    25
100
AcDbVertex
100
AcDb2dVertex
 10
97.49793279039828
 20
-124.9284535798791
 30
0.0
  0
VERTEX
  5
D4
330
D2
100
AcDbEntity
  8
_U+30EC_U+30A4_U+30E4_U+30FC 1
 62
   179
420
  2234388
370
    25
100
AcDbVertex
100
AcDb2dVertex
 10
98.01192999950734
 20
-125.3105119131168
 30
0.0
  0
SEQEND
  5
D5
330
D2
100
AcDbEntity
  8
_U+30EC_U+30A4_U+30E4_U+30FC 1
 62
   179
420
  2234388
370
    25
  0
POLYLINE
  5
D6
330
1F
100
AcDbEntity
  8
_U+30EC_U+30A4_U+30E4_U+30FC 1
 62
   179
420
  2234388
370
    25
100
AcDb2dPolyline
 66
     1
 10
0.0
 20
0.0
 30
0.0
  0
VERTEX
  5
D7
330
D6
100
AcDbEntity
  8
_U+30EC_U+30A4_U+30E4_U+30FC 1
 62
   179
420
  2234388
370
    25
100
AcDbVertex
100
AcDb2dVertex
 10
98.01192999950734
 20
-125.3105119131168
 30
0.0
  0
VERTEX
  5
D8
330
D6
100
AcDbEntity
  8
_U+30EC_U+30A4_U+30E4_U+30FC 1
 62
   179
420
  2234388
370
    25
100
AcDbVertex
100
AcDb2dVertex
 10
98.49770498711419
 20
-124.8926466354434
 30
0.0
  0
SEQEND
  5
D9
330
D6
100
AcDbEntity
  8
_U+30EC_U+30A4_U+30E4_U+30FC 1
 62
   179
420
  2234388
370
    25
  0
POLYLINE
  5
DA
330
1F
100
AcDbEntity
  8
_U+30EC_U+30A4_U+30E4_U+30FC 1
 62
   179
420
  2234388
370
    25
100
AcDb2dPolyline
 66
     1
 10
0.0
 20
0.0
 30
0.0
  0
VERTEX
  5
DB
330
DA
100
AcDbEntity
  8
_U+30EC_U+30A4_U+30E4_U+30FC 1
 62
   179
420
  2234388
370
    25
100
AcDbVertex
100
AcDb2dVertex
 10
98.49770498711419
 20
-124.8926466354434
 30
0.0
  0
VERTEX
  5
DC
330
DA
100
AcDbEntity
  8
_U+30EC_U+30A4_U+30E4_U+30FC 1
 62
   179
420
  2234388
370
    25
100
AcDbVertex
100
AcDb2dVertex
 10
99.01170219622325
 20
-125.2747049686814
 30
0.0
  0
SEQEND
  5
DD
330
DA
100
AcDbEntity
  8
_U+30EC_U+30A4_U+30E4_U+30FC 1
 62
   179
420
  2234388
370
    25
  0
POLYLINE
  5
DE
330
1F
100
AcDbEntity
  8
_U+30EC_U+30A4_U+30E4_U+30FC 1
 62
   179
420
  2234388
370
    25
100
AcDb2dPolyline
 66
     1
 10
0.0
 20
0.0
 30
0.0
  0
VERTEX
  5
DF
330
DE
100
AcDbEntity
  8
_U+30EC_U+30A4_U+30E4_U+30FC 1
 62
   179
420
  2234388
370
    25
100
AcDbVertex
100
AcDb2dVertex
 10
99.01170219622325
 20
-125.2747049686814
 30
0.0
  0
VERTEX
  5
E0
330
DE
100
AcDbEntity
  8
_U+30EC_U+30A4_U+30E4_U+30FC 1
 62
   179
420
  2234388
370
    25
100
AcDbVertex
100
AcDb2dVertex
 10
99.49677162829255
 20
-124.8571571910079
 30
0.0
  0
SEQEND
  5
E1
330
DE
100
AcDbEntity
  8
_U+30EC_U+30A4_U+30E4_U+30FC 1
 62
   179
420
  2234388
370
    25
  0
POLYLINE
  5
E2
330
1F
100
AcDbEntity
  8
_U+30EC_U+30A4_U+30E4_U+30FC 1
 62
   179
420
  2234388
370
    25
100
AcDb2dPolyline
 66
     1
 10
0.0
 20
0.0
 30
0.0
  0
VERTEX
  5
E3
330
E2
100
AcDbEntity
  8
_U+30EC_U+30A4_U+30E4_U+30FC 1
 62
   179
420
  2234388
370
    25
100
AcDbVertex
100
AcDb2dVertex
 10
99.49677162829255
 20
-124.8571571910079
 30
0.0
  0
VERTEX
  5
E4
330
E2
100
AcDbEntity
  8
_U+30EC_U+30A4_U+30E4_U+30FC 1
 62
   179
420
  2234388
370
    25
100
AcDbVertex
100
AcDb2dVertex
 10
100.0107688374016
 20
-125.2388627464682
 30
0.0
  0
SEQEND
  5
E5
330
E2
100
AcDbEntity
  8
_U+30EC_U+30A4_U+30E4_U+30FC 1
 62
   179
420
  2234388
370
    25
  0
POLYLINE
  5
E6
330
1F
100
AcDbEntity
  8
_U+30EC_U+30A4_U+30E4_U+30FC 1
 62
   179
420
  2234388
370
    25
100
AcDb2dPolyline
 66
     1
 10
0.0
 20
0.0
 30
0.0
  0
VERTEX
  5
E7
330
E6
100
AcDbEntity
  8
_U+30EC_U+30A4_U+30E4_U+30FC 1
 62
   179
420
  2234388
370
    25
100
AcDbVertex
100
AcDb2dVertex
 10
100.0107688374016
 20
-125.2388627464682
 30
0.0
  0
VERTEX
  5
E8
330
E6
100
AcDbEntity
  8
_U+30EC_U+30A4_U+30E4_U+30FC 1
 62
   179
420
  2234388
370
    25
100
AcDbVertex
100
AcDb2dVertex
 10
100.4958382694709
 20
-124.8213149687947
 30
0.0
  0
SEQEND
  5
E9
330
E6
100
AcDbEntity
  8
_U+30EC_U+30A4_U+30E4_U+30FC 1
 62
   179
420
  2234388
370
    25
  0
POLYLINE
  5
EA
330
1F
100
AcDbEntity
  8
_U+30EC_U+30A4_U+30E4_U+30FC 1
 62
   179
420
  2234388
370
    25
100
AcDb2dPolyline
 66
     1
 10
0.0
 20
0.0
 30
0.0
  0
VERTEX
  5
EB
330
EA
100
AcDbEntity
  8
_U+30EC_U+30A4_U+30E4_U+30FC 1
 62
   179
420
  2234388
370
    25
100
AcDbVertex
100
AcDb2dVertex
 10
100.4958382694709
 20
-124.8213149687947
 30
0.0
  0
VERTEX
  5
EC
330
EA
100
AcDbEntity
  8
_U+30EC_U+30A4_U+30E4_U+30FC 1
 62
   179
420
  2234388
370
    25
100
AcDbVertex
100
AcDb2dVertex
 10
101.00983547858
 20
-125.2030558020325
 30
0.0
  0
SEQEND
  5
ED
330
EA
100
AcDbEntity
  8
_U+30EC_U+30A4_U+30E4_U+30FC 1
 62
   179
420
  2234388
370
    25
  0
POLYLINE
  5
EE
330
1F
100
AcDbEntity
  8
_U+30EC_U+30A4_U+30E4_U+30FC 1
 62
   179
420
  2234388
370
    25
100
AcDb2dPolyline
 66
     1
 10
0.0
 20
0.0
 30
0.0
  0
VERTEX
  5
EF
330
EE
100
AcDbEntity
  8
_U+30EC_U+30A4_U+30E4_U+30FC 1
 62
   179
420
  2234388
370
    25
100
AcDbVertex
100
AcDb2dVertex
 10
101.00983547858
 20
-125.2030558020325
 30
0.0
  0
VERTEX
  5
F0
330
EE
100
AcDbEntity
  8
_U+30EC_U+30A4_U+30E4_U+30FC 1
 62
   179
420
  2234388
370
    25
100
AcDbVertex
100
AcDb2dVertex
 10
101.4956104661868
 20
-124.7855080243593
 30
0.0
  0
SEQEND
  5
F1
330
EE
100
AcDbEntity
  8
_U+30EC_U+30A4_U+30E4_U+30FC 1
 62
   179
420
  2234388
370
    25
  0
POLYLINE
  5
F2
330
1F
100
AcDbEntity
  8
_U+30EC_U+30A4_U+30E4_U+30FC 1
 62
   179
420
  2234388
370
    25
100
AcDb2dPolyline
 66
     1
 10
0.0
 20
0.0
 30
0.0
  0
VERTEX
  5
F3
330
F2
100
AcDbEntity
  8
_U+30EC_U+30A4_U+30E4_U+30FC 1
 62
   179
420
  2234388
370
    25
100
AcDbVertex
100
AcDb2dVertex
 10
101.4956104661868
 20
-124.7855080243593
 30
0.0
  0
VERTEX
  5
F4
330
F2
100
AcDbEntity
  8
_U+30EC_U+30A4_U+30E4_U+30FC 1
 62
   179
420
  2234388
370
    25
100
AcDbVertex
100
AcDb2dVertex
 10
102.0096076752959
 20
-125.167566357597
 30
0.0
  0
SEQEND
  5
F5
330
F2
100
AcDbEntity
  8
_U+30EC_U+30A4_U+30E4_U+30FC 1
 62
   179
420
  2234388
370
    25
  0
POLYLINE
  5
F6
330
1F
100
AcDbEntity
  8
_U+30EC_U+30A4_U+30E4_U+30FC 1
 62
   179
420
  2234388
370
    25
100
AcDb2dPolyline
 66
     1
 10
0.0
 20
0.0
 30
0.0
  0
VERTEX
  5
F7
330
F6
100
AcDbEntity
  8
_U+30EC_U+30A4_U+30E4_U+30FC 1
 62
   179
420
  2234388
370
    25
100
AcDbVertex
100
AcDb2dVertex
 10
102.0096076752959
 20
-125.167566357597
 30
0.0
  0
VERTEX
  5
F8
330
F6
100
AcDbEntity
  8
_U+30EC_U+30A4_U+30E4_U+30FC 1
 62
   179
420
  2234388
370
    25
100
AcDbVertex
100
AcDb2dVertex
 10
102.5098465514226
 20
-124.7372480243713
 30
0.0
  0
SEQEND
  5
F9
330
F6
100
AcDbEntity
  8
_U+30EC_U+30A4_U+30E4_U+30FC 1
 62
   179
420
  2234388
370
    25
  0
POLYLINE
  5
FA
330
1F
100
AcDbEntity
  8
_U+30EC_U+30A4_U+30E4_U+30FC 1
 62
   179
420
  2234388
370
    25
100
AcDb2dPolyline
 66
     1
 10
0.0
 20
0.0
 30
0.0
  0
VERTEX
  5
FB
330
FA
100
AcDbEntity
  8
_U+30EC_U+30A4_U+30E4_U+30FC 1
 62
   179
420
  2234388
370
    25
100
AcDbVertex
100
AcDb2dVertex
 10
102.5098465514226
 20
-124.7372480243713
 30
0.0
  0
VERTEX
  5
FC
330
FA
100
AcDbEntity
  8
_U+30EC_U+30A4_U+30E4_U+30FC 1
 62
   179
420
  2234388
370
    25
100
AcDbVertex
100
AcDb2dVertex
 10
102.5098465514226
 20
-132.9993035778613
 30
0.0
  0
SEQEND
  5
FD
330
FA
100
AcDbEntity
  8
_U+30EC_U+30A4_U+30E4_U+30FC 1
 62
   179
420
  2234388
370
    25
  0
POLYLINE
  5
FE
330
1F
100
AcDbEntity
  8
_U+30EC_U+30A4_U+30E4_U+30FC 1
 62
   179
420
  2234388
370
    25
100
AcDb2dPolyline
 66
     1
 10
0.0
 20
0.0
 30
0.0
  0
VERTEX
  5
FF
330
FE
100
AcDbEntity
  8
_U+30EC_U+30A4_U+30E4_U+30FC 1
 62
   179
420
  2234388
370
    25
100
AcDbVertex
100
AcDb2dVertex
 10
101.509404076946
 20
-125.9995574685001
 30
0.0
  0
VERTEX
  5
100
330
FE
100
AcDbEntity
  8
_U+30EC_U+30A4_U+30E4_U+30FC 1
 62
   179
420
  2234388
370
    25
100
AcDbVertex
100
AcDb2dVertex
 10
101.509404076946
 20
-133.9993932998335
 30
0.0
  0
SEQEND
  5
101
330
FE
100
AcDbEntity
  8
_U+30EC_U+30A4_U+30E4_U+30FC 1
 62
   179
420
  2234388
370
    25
  0
POLYLINE
  5
102
330
1F
100
AcDbEntity
  8
_U+30EC_U+30A4_U+30E4_U+30FC 1
 62
   179
420
  2234388
370
    25
100
AcDb2dPolyline
 66
     1
 10
0.0
 20
0.0
 30
0.0
  0
VERTEX
  5
103
330
102
100
AcDbEntity
  8
_U+30EC_U+30A4_U+30E4_U+30FC 1
 62
   179
420
  2234388
370
    25
100
AcDbVertex
100
AcDb2dVertex
 10
105.5098360847338
 20
-132.9993035778613
 30
0.0
  0
VERTEX
  5
104
330
102
100
AcDbEntity
  8
_U+30EC_U+30A4_U+30E4_U+30FC 1
 62
   179
420
  2234388
370
    25
100
AcDbVertex
100
AcDb2dVertex
 10
102.5098465514226
 20
-132.9993035778613
 30
0.0
  0
SEQEND
  5
105
330
102
100
AcDbEntity
  8
_U+30EC_U+30A4_U+30E4_U+30FC 1
 62
   179
420
  2234388
370
    25
  0
SPLINE
  5
106
330
1F
100
AcDbEntity
  8
_U+30EC_U+30A4_U+30E4_U+30FC 1
 62
   179
420
  2234388
370
     9
100
AcDbSpline
210
0.0
220
0.0
230
1.0
 70
    11
 71
     3
 72
    17
 73
    13
 74
     0
 42
0.0000000001
 43
0.0000000001
 12
1.0
 22
0.0
 32
0.0
 13
1.0
 23
0.0
 33
0.0
 40
0.0
 40
0.0
 40
0.0
 40
0.0
 40
1.0
 40
1.0
 40
1.0
 40
2.0
 40
2.0
 40
2.0
 40
3.0
 40
3.0
 40
3.0
 40
4.0
 40
4.0
 40
4.0
 40
4.0
 10
81.60878886848681
 20
-120.7374888587044
 30
0.0
 10
81.60878886848681
 20
-120.6820321920517
 30
0.0
 10
81.5640193080174
 20
-120.6372646920628
 30
0.0
 10
81.50888014275745
 20
-120.6372646920628
 30
0.0
 10
81.4534234775056
 20
-120.6372646920628
 30
0.0
 10
81.40862070087084
 20
-120.6820321920517
 30
0.0
 10
81.40862070087084
 20
-120.7374888587044
 30
0.0
 10
81.40862070087084
 20
-120.7926280253575
 30
0.0
 10
81.4534234775056
 20
-120.8374308031239
 30
0.0
 10
81.50888014275745
 20
-120.8374308031239
 30
0.0
 10
81.5640193080174
 20
-120.8374308031239
 30
0.0
 10
81.60878886848681
 20
-120.7926280253575
 30
0.0
 10
81.60878886848681
 20
-120.7374888587044
 30
0.0
  0
SPLINE
  5
107
330
1F
100
AcDbEntity
  8
_U+30EC_U+30A4_U+30E4_U+30FC 1
 62
   179
420
  2234388
370
     9
100
AcDbSpline
210
0.0
220
0.0
230
1.0
 70
    11
 71
     3
 72
    17
 73
    13
 74
     0
 42
0.0000000001
 43
0.0000000001
 12
1.0
 22
0.0
 32
0.0
 13
1.0
 23
0.0
 33
0.0
 40
0.0
 40
0.0
 40
0.0
 40
0.0
 40
1.0
 40
1.0
 40
1.0
 40
2.0
 40
2.0
 40
2.0
 40
3.0
 40
3.0
 40
3.0
 40
4.0
 40
4.0
 40
4.0
 40
4.0
 10
79.3791254748698
 20
-125.4993185797364
 30
0.0
 10
79.3791254748698
 20
-125.4441794130833
 30
0.0
 10
79.3343579760119
 20
-125.3994119130948
 30
0.0
 10
79.27886603298317
 20
-125.3994119130948
 30
0.0
 10
79.2237621455001
 20
-125.3994119130948
 30
0.0
 10
79.17895936886535
 20
-125.4441794130833
 30
0.0
 10
79.17895936886535
 20
-125.4993185797364
 30
0.0
 10
79.17895936886535
 20
-125.5544224686113
 30
0.0
 10
79.2237621455001
 20
-125.599225246378
 30
0.0
 10
79.27886603298317
 20
-125.599225246378
 30
0.0
 10
79.3343579760119
 20
-125.599225246378
 30
0.0
 10
79.3791254748698
 20
-125.5544224686113
 30
0.0
 10
79.3791254748698
 20
-125.4993185797364
 30
0.0
  0
SPLINE
  5
108
330
1F
100
AcDbEntity
  8
_U+30EC_U+30A4_U+30E4_U+30FC 1
 62
   179
420
  2234388
370
     9
100
AcDbSpline
210
0.0
220
0.0
230
1.0
 70
    11
 71
     3
 72
    17
 73
    13
 74
     0
 42
0.0000000001
 43
0.0000000001
 12
1.0
 22
0.0
 32
0.0
 13
1.0
 23
0.0
 33
0.0
 40
0.0
 40
0.0
 40
0.0
 40
0.0
 40
1.0
 40
1.0
 40
1.0
 40
2.0
 40
2.0
 40
2.0
 40
3.0
 40
3.0
 40
3.0
 40
4.0
 40
4.0
 40
4.0
 40
4.0
 10
79.3791254748698
 20
-125.9995574685001
 30
0.0
 10
79.3791254748698
 20
-125.9444183018473
 30
0.0
 10
79.3343579760119
 20
-125.8996508018585
 30
0.0
 10
79.27886603298317
 20
-125.8996508018585
 30
0.0
 10
79.2237621455001
 20
-125.8996508018585
 30
0.0
 10
79.17895936886535
 20
-125.9444183018473
 30
0.0
 10
79.17895936886535
 20
-125.9995574685001
 30
0.0
 10
79.17895936886535
 20
-126.0546613573753
 30
0.0
 10
79.2237621455001
 20
-126.0994641351417
 30
0.0
 10
79.27886603298317
 20
-126.0994641351417
 30
0.0
 10
79.3343579760119
 20
-126.0994641351417
 30
0.0
 10
79.3791254748698
 20
-126.0546613573753
 30
0.0
 10
79.3791254748698
 20
-125.9995574685001
 30
0.0
  0
SPLINE
  5
109
330
1F
100
AcDbEntity
  8
_U+30EC_U+30A4_U+30E4_U+30FC 1
 62
   179
420
  2234388
370
     9
100
AcDbSpline
210
0.0
220
0.0
230
1.0
 70
    11
 71
     3
 72
    17
 73
    13
 74
     0
 42
0.0000000001
 43
0.0000000001
 12
1.0
 22
0.0
 32
0.0
 13
1.0
 23
0.0
 33
0.0
 40
0.0
 40
0.0
 40
0.0
 40
0.0
 40
1.0
 40
1.0
 40
1.0
 40
2.0
 40
2.0
 40
2.0
 40
3.0
 40
3.0
 40
3.0
 40
4.0
 40
4.0
 40
4.0
 40
4.0
 10
79.3791254748698
 20
-133.9993932998335
 30
0.0
 10
79.3791254748698
 20
-133.9442894109586
 30
0.0
 10
79.3343579760119
 20
-133.8994866331918
 30
0.0
 10
79.27886603298317
 20
-133.8994866331918
 30
0.0
 10
79.2237621455001
 20
-133.8994866331918
 30
0.0
 10
79.17895936886535
 20
-133.9442894109586
 30
0.0
 10
79.17895936886535
 20
-133.9993932998335
 30
0.0
 10
79.17895936886535
 20
-134.0545324664866
 30
0.0
 10
79.2237621455001
 20
-134.0992999664751
 30
0.0
 10
79.27886603298317
 20
-134.0992999664751
 30
0.0
 10
79.3343579760119
 20
-134.0992999664751
 30
0.0
 10
79.3791254748698
 20
-134.0545324664866
 30
0.0
 10
79.3791254748698
 20
-133.9993932998335
 30
0.0
  0
SPLINE
  5
10A
330
1F
100
AcDbEntity
  8
_U+30EC_U+30A4_U+30E4_U+30FC 1
 62
   179
420
  2234388
370
     9
100
AcDbSpline
210
0.0
220
0.0
230
1.0
 70
    11
 71
     3
 72
    17
 73
    13
 74
     0
 42
0.0000000001
 43
0.0000000001
 12
1.0
 22
0.0
 32
0.0
 13
1.0
 23
0.0
 33
0.0
 40
0.0
 40
0.0
 40
0.0
 40
0.0
 40
1.0
 40
1.0
 40
1.0
 40
2.0
 40
2.0
 40
2.0
 40
3.0
 40
3.0
 40
3.0
 40
4.0
 40
4.0
 40
4.0
 40
4.0
 10
102.6097532155404
 20
-120.7374888587044
 30
0.0
 10
102.6097532155404
 20
-120.6820321920517
 30
0.0
 10
102.5649857166826
 20
-120.6372646920628
 30
0.0
 10
102.5098465514226
 20
-120.6372646920628
 30
0.0
 10
102.454037108402
 20
-120.6372646920628
 30
0.0
 10
102.4092343317672
 20
-120.6820321920517
 30
0.0
 10
102.4092343317672
 20
-120.7374888587044
 30
0.0
 10
102.4092343317672
 20
-120.7926280253575
 30
0.0
 10
102.454037108402
 20
-120.8374308031239
 30
0.0
 10
102.5098465514226
 20
-120.8374308031239
 30
0.0
 10
102.5649857166826
 20
-120.8374308031239
 30
0.0
 10
102.6097532155404
 20
-120.7926280253575
 30
0.0
 10
102.6097532155404
 20
-120.7374888587044
 30
0.0
  0
SPLINE
  5
10B
330
1F
100
AcDbEntity
  8
_U+30EC_U+30A4_U+30E4_U+30FC 1
 62
   179
420
  2234388
370
     9
100
AcDbSpline
210
0.0
220
0.0
230
1.0
 70
    11
 71
     3
 72
    17
 73
    13
 74
     0
 42
0.0000000001
 43
0.0000000001
 12
1.0
 22
0.0
 32
0.0
 13
1.0
 23
0.0
 33
0.0
 40
0.0
 40
0.0
 40
0.0
 40
0.0
 40
1.0
 40
1.0
 40
1.0
 40
2.0
 40
2.0
 40
2.0
 40
3.0
 40
3.0
 40
3.0
 40
4.0
 40
4.0
 40
4.0
 40
4.0
 10
105.6276638624818
 20
-120.7374888587044
 30
0.0
 10
105.6276638624818
 20
-120.6820321920517
 30
0.0
 10
105.5828610847157
 20
-120.6372646920628
 30
0.0
 10
105.5277545299849
 20
-120.6372646920628
 30
0.0
 10
105.472615364725
 20
-120.6372646920628
 30
0.0
 10
105.4278478658671
 20
-120.6820321920517
 30
0.0
 10
105.4278478658671
 20
-120.7374888587044
 30
0.0
 10
105.4278478658671
 20
-120.7926280253575
 30
0.0
 10
105.472615364725
 20
-120.8374308031239
 30
0.0
 10
105.5277545299849
 20
-120.8374308031239
 30
0.0
 10
105.5828610847157
 20
-120.8374308031239
 30
0.0
 10
105.6276638624818
 20
-120.7926280253575
 30
0.0
 10
105.6276638624818
 20
-120.7374888587044
 30
0.0
  0
POLYLINE
  5
10C
330
1F
100
AcDbEntity
  8
_U+30EC_U+30A4_U+30E4_U+30FC 1
 62
   179
420
  2234388
370
     9
100
AcDb2dPolyline
 66
     1
 10
0.0
 20
0.0
 30
0.0
  0
VERTEX
  5
10D
330
10C
100
AcDbEntity
  8
_U+30EC_U+30A4_U+30E4_U+30FC 1
 62
   179
420
  2234388
370
     9
100
AcDbVertex
100
AcDb2dVertex
 10
79.27886603298317
 20
-125.4993185797364
 30
0.0
  0
VERTEX
  5
10E
330
10C
100
AcDbEntity
  8
_U+30EC_U+30A4_U+30E4_U+30FC 1
 62
   179
420
  2234388
370
     9
100
AcDbVertex
100
AcDb2dVertex
 10
79.27886603298317
 20
-120.2417655254952
 30
0.0
  0
SEQEND
  5
10F
330
10C
100
AcDbEntity
  8
_U+30EC_U+30A4_U+30E4_U+30FC 1
 62
   179
420
  2234388
370
     9
  0
POLYLINE
  5
110
330
1F
100
AcDbEntity
  8
_U+30EC_U+30A4_U+30E4_U+30FC 1
 62
   179
420
  2234388
370
     9
100
AcDb2dPolyline
 66
     1
 10
0.0
 20
0.0
 30
0.0
  0
VERTEX
  5
111
330
110
100
AcDbEntity
  8
_U+30EC_U+30A4_U+30E4_U+30FC 1
 62
   179
420
  2234388
370
     9
100
AcDbVertex
100
AcDb2dVertex
 10
79.27886603298317
 20
-125.4993185797364
 30
0.0
  0
VERTEX
  5
112
330
110
100
AcDbEntity
  8
_U+30EC_U+30A4_U+30E4_U+30FC 1
 62
   179
420
  2234388
370
     9
100
AcDbVertex
100
AcDb2dVertex
 10
79.27886603298317
 20
-125.9995574685001
 30
0.0
  0
SEQEND
  5
113
330
110
100
AcDbEntity
  8
_U+30EC_U+30A4_U+30E4_U+30FC 1
 62
   179
420
  2234388
370
     9
  0
POLYLINE
  5
114
330
1F
100
AcDbEntity
  8
_U+30EC_U+30A4_U+30E4_U+30FC 1
 62
   179
420
  2234388
370
     9
100
AcDb2dPolyline
 66
     1
 10
0.0
 20
0.0
 30
0.0
  0
VERTEX
  5
115
330
114
100
AcDbEntity
  8
_U+30EC_U+30A4_U+30E4_U+30FC 1
 62
   179
420
  2234388
370
     9
100
AcDbVertex
100
AcDb2dVertex
 10
80.73890738462332
 20
-125.4993185797364
 30
0.0
  0
VERTEX
  5
116
330
114
100
AcDbEntity
  8
_U+30EC_U+30A4_U+30E4_U+30FC 1
 62
   179
420
  2234388
370
     9
100
AcDbVertex
100
AcDb2dVertex
 10
78.27912911404415
 20
-125.4993185797364
 30
0.0
  0
SEQEND
  5
117
330
114
100
AcDbEntity
  8
_U+30EC_U+30A4_U+30E4_U+30FC 1
 62
   179
420
  2234388
370
     9
  0
POLYLINE
  5
118
330
1F
100
AcDbEntity
  8
_U+30EC_U+30A4_U+30E4_U+30FC 1
 62
   179
420
  2234388
370
     9
100
AcDb2dPolyline
 66
     1
 10
0.0
 20
0.0
 30
0.0
  0
VERTEX
  5
119
330
118
100
AcDbEntity
  8
_U+30EC_U+30A4_U+30E4_U+30FC 1
 62
   179
420
  2234388
370
     9
100
AcDbVertex
100
AcDb2dVertex
 10
80.73890738462332
 20
-125.9995574685001
 30
0.0
  0
VERTEX
  5
11A
330
118
100
AcDbEntity
  8
_U+30EC_U+30A4_U+30E4_U+30FC 1
 62
   179
420
  2234388
370
     9
100
AcDbVertex
100
AcDb2dVertex
 10
78.27912911404415
 20
-125.9995574685001
 30
0.0
  0
SEQEND
  5
11B
330
118
100
AcDbEntity
  8
_U+30EC_U+30A4_U+30E4_U+30FC 1
 62
   179
420
  2234388
370
     9
  0
INSERT
  5
11D
330
1F
100
AcDbEntity
  8
_U+30EC_U+30A4_U+30E4_U+30FC 1
100
AcDbBlockReference
  2
block 2
 10
0.0
 20
0.0
 30
0.0
  0
POLYLINE
  5
12D
330
1F
100
AcDbEntity
  8
_U+30EC_U+30A4_U+30E4_U+30FC 1
 62
   179
420
  2234388
370
     9
100
AcDb2dPolyline
 66
     1
 10
0.0
 20
0.0
 30
0.0
  0
VERTEX
  5
12E
330
12D
100
AcDbEntity
  8
_U+30EC_U+30A4_U+30E4_U+30FC 1
 62
   179
420
  2234388
370
     9
100
AcDbVertex
100
AcDb2dVertex
 10
81.50888014275745
 20
-120.7374888587044
 30
0.0
  0
VERTEX
  5
12F
330
12D
100
AcDbEntity
  8
_U+30EC_U+30A4_U+30E4_U+30FC 1
 62
   179
420
  2234388
370
     9
100
AcDbVertex
100
AcDb2dVertex
 10
102.5098465514226
 20
-120.7374888587044
 30
0.0
  0
SEQEND
  5
130
330
12D
100
AcDbEntity
  8
_U+30EC_U+30A4_U+30E4_U+30FC 1
 62
   179
420
  2234388
370
     9
  0
POLYLINE
  5
131
330
1F
100
AcDbEntity
  8
_U+30EC_U+30A4_U+30E4_U+30FC 1
 62
   179
420
  2234388
370
     9
100
AcDb2dPolyline
 66
     1
 10
0.0
 20
0.0
 30
0.0
  0
VERTEX
  5
132
330
131
100
AcDbEntity
  8
_U+30EC_U+30A4_U+30E4_U+30FC 1
 62
   179
420
  2234388
370
     9
100
AcDbVertex
100
AcDb2dVertex
 10
81.50888014275745
 20
-122.9596008025935
 30
0.0
  0
VERTEX
  5
133
330
131
100
AcDbEntity
  8
_U+30EC_U+30A4_U+30E4_U+30FC 1
 62
   179
420
  2234388
370
     9
100
AcDbVertex
100
AcDb2dVertex
 10
81.50888014275745
 20
-119.7373991367322
 30
0.0
  0
SEQEND
  5
134
330
131
100
AcDbEntity
  8
_U+30EC_U+30A4_U+30E4_U+30FC 1
 62
   179
420
  2234388
370
     9
  0
INSERT
  5
136
330
1F
100
AcDbEntity
  8
_U+30EC_U+30A4_U+30E4_U+30FC 1
100
AcDbBlockReference
  2
block 3
 10
0.0
 20
0.0
 30
0.0
  0
POLYLINE
  5
13D
330
1F
100
AcDbEntity
  8
_U+30EC_U+30A4_U+30E4_U+30FC 1
 62
   179
420
  2234388
370
     9
100
AcDb2dPolyline
 66
     1
 10
0.0
 20
0.0
 30
0.0
  0
VERTEX
  5
13E
330
13D
100
AcDbEntity
  8
_U+30EC_U+30A4_U+30E4_U+30FC 1
 62
   179
420
  2234388
370
     9
100
AcDbVertex
100
AcDb2dVertex
 10
79.27886603298317
 20
-125.9995574685001
 30
0.0
  0
VERTEX
  5
13F
330
13D
100
AcDbEntity
  8
_U+30EC_U+30A4_U+30E4_U+30FC 1
 62
   179
420
  2234388
370
     9
100
AcDbVertex
100
AcDb2dVertex
 10
79.27886603298317
 20
-133.9993932998335
 30
0.0
  0
SEQEND
  5
140
330
13D
100
AcDbEntity
  8
_U+30EC_U+30A4_U+30E4_U+30FC 1
 62
   179
420
  2234388
370
     9
  0
POLYLINE
  5
141
330
1F
100
AcDbEntity
  8
_U+30EC_U+30A4_U+30E4_U+30FC 1
 62
   179
420
  2234388
370
     9
100
AcDb2dPolyline
 66
     1
 10
0.0
 20
0.0
 30
0.0
  0
VERTEX
  5
142
330
141
100
AcDbEntity
  8
_U+30EC_U+30A4_U+30E4_U+30FC 1
 62
   179
420
  2234388
370
     9
100
AcDbVertex
100
AcDb2dVertex
 10
100.7404543743413
 20
-133.9993932998335
 30
0.0
  0
VERTEX
  5
143
330
141
100
AcDbEntity
  8
_U+30EC_U+30A4_U+30E4_U+30FC 1
 62
   179
420
  2234388
370
     9
100
AcDbVertex
100
AcDb2dVertex
 10
78.27912911404415
 20
-133.9993932998335
 30
0.0
  0
SEQEND
  5
144
330
141
100
AcDbEntity
  8
_U+30EC_U+30A4_U+30E4_U+30FC 1
 62
   179
420
  2234388
370
     9
  0
INSERT
  5
146
330
1F
100
AcDbEntity
  8
_U+30EC_U+30A4_U+30E4_U+30FC 1
100
AcDbBlockReference
  2
block 4
 10
0.0
 20
0.0
 30
0.0
  0
POLYLINE
  5
14D
330
1F
100
AcDbEntity
  8
_U+30EC_U+30A4_U+30E4_U+30FC 1
 62
   179
420
  2234388
370
     9
100
AcDb2dPolyline
 66
     1
 10
0.0
 20
0.0
 30
0.0
  0
VERTEX
  5
14E
330
14D
100
AcDbEntity
  8
_U+30EC_U+30A4_U+30E4_U+30FC 1
 62
   179
420
  2234388
370
     9
100
AcDbVertex
100
AcDb2dVertex
 10
105.5277545299849
 20
-132.4246638557829
 30
0.0
  0
VERTEX
  5
14F
330
14D
100
AcDbEntity
  8
_U+30EC_U+30A4_U+30E4_U+30FC 1
 62
   179
420
  2234388
370
     9
100
AcDbVertex
100
AcDb2dVertex
 10
105.5277545299849
 20
-119.7373991367322
 30
0.0
  0
SEQEND
  5
150
330
14D
100
AcDbEntity
  8
_U+30EC_U+30A4_U+30E4_U+30FC 1
 62
   179
420
  2234388
370
     9
  0
POLYLINE
  5
151
330
1F
100
AcDbEntity
  8
_U+30EC_U+30A4_U+30E4_U+30FC 1
 62
   179
420
  2234388
370
     9
100
AcDb2dPolyline
 66
     1
 10
0.0
 20
0.0
 30
0.0
  0
VERTEX
  5
152
330
151
100
AcDbEntity
  8
_U+30EC_U+30A4_U+30E4_U+30FC 1
 62
   179
420
  2234388
370
     9
100
AcDbVertex
100
AcDb2dVertex
 10
102.5098465514226
 20
-120.7374888587044
 30
0.0
  0
VERTEX
  5
153
330
151
100
AcDbEntity
  8
_U+30EC_U+30A4_U+30E4_U+30FC 1
 62
   179
420
  2234388
370
     9
100
AcDbVertex
100
AcDb2dVertex
 10
105.5098360847338
 20
-120.7374888587044
 30
0.0
  0
SEQEND
  5
154
330
151
100
AcDbEntity
  8
_U+30EC_U+30A4_U+30E4_U+30FC 1
 62
   179
420
  2234388
370
     9
  0
POLYLINE
  5
155
330
1F
100
AcDbEntity
  8
_U+30EC_U+30A4_U+30E4_U+30FC 1
 62
   179
420
  2234388
370
     9
100
AcDb2dPolyline
 66
     1
 10
0.0
 20
0.0
 30
0.0
  0
VERTEX
  5
156
330
155
100
AcDbEntity
  8
_U+30EC_U+30A4_U+30E4_U+30FC 1
 62
   179
420
  2234388
370
     9
100
AcDbVertex
100
AcDb2dVertex
 10
102.5098465514226
 20
-122.1975302472284
 30
0.0
  0
VERTEX
  5
157
330
155
100
AcDbEntity
  8
_U+30EC_U+30A4_U+30E4_U+30FC 1
 62
   179
420
  2234388
370
     9
100
AcDbVertex
100
AcDb2dVertex
 10
102.5098465514226
 20
-119.7373991367322
 30
0.0
  0
SEQEND
  5
158
330
155
100
AcDbEntity
  8
_U+30EC_U+30A4_U+30E4_U+30FC 1
 62
   179
420
  2234388
370
     9
  0
INSERT
  5
15A
330
1F
100
AcDbEntity
  8
_U+30EC_U+30A4_U+30E4_U+30FC 1
100
AcDbBlockReference
  2
block 5
 10
0.0
 20
0.0
 30
0.0
  0
SPLINE
  5
15F
330
1F
100
AcDbEntity
  8
_U+30EC_U+30A4_U+30E4_U+30FC 1
 62
   179
420
  2234388
370
     9
100
AcDbSpline
210
0.0
220
0.0
230
1.0
 70
    11
 71
     3
 72
    17
 73
    13
 74
     0
 42
0.0000000001
 43
0.0000000001
 12
1.0
 22
0.0
 32
0.0
 13
1.0
 23
0.0
 33
0.0
 40
0.0
 40
0.0
 40
0.0
 40
0.0
 40
1.0
 40
1.0
 40
1.0
 40
2.0
 40
2.0
 40
2.0
 40
3.0
 40
3.0
 40
3.0
 40
4.0
 40
4.0
 40
4.0
 40
4.0
 10
101.8228824022818
 20
-138.1128527432496
 30
0.0
 10
101.8228824022818
 20
-138.0577135765966
 30
0.0
 10
101.7395210155197
 20
-138.012946076608
 30
0.0
 10
101.6368626848054
 20
-138.012946076608
 30
0.0
 10
101.5355801873893
 20
-138.012946076608
 30
0.0
 10
101.4522188006272
 20
-138.0577135765966
 30
0.0
 10
101.4522188006272
 20
-138.1128527432496
 30
0.0
 10
101.4522188006272
 20
-138.1679566321246
 30
0.0
 10
101.5355801873893
 20
-138.2127594098913
 30
0.0
 10
101.6368626848054
 20
-138.2127594098913
 30
0.0
 10
101.7395210155197
 20
-138.2127594098913
 30
0.0
 10
101.8228824022818
 20
-138.1679566321246
 30
0.0
 10
101.8228824022818
 20
-138.1128527432496
 30
0.0
  0
SPLINE
  5
160
330
1F
100
AcDbEntity
  8
_U+30EC_U+30A4_U+30E4_U+30FC 1
 62
   179
420
  2234388
370
     9
100
AcDbSpline
210
0.0
220
0.0
230
1.0
 70
    11
 71
     3
 72
    17
 73
    13
 74
     0
 42
0.0000000001
 43
0.0000000001
 12
1.0
 22
0.0
 32
0.0
 13
1.0
 23
0.0
 33
0.0
 40
0.0
 40
0.0
 40
0.0
 40
0.0
 40
1.0
 40
1.0
 40
1.0
 40
2.0
 40
2.0
 40
2.0
 40
3.0
 40
3.0
 40
3.0
 40
4.0
 40
4.0
 40
4.0
 40
4.0
 10
105.9297800752839
 20
-138.1128527432496
 30
0.0
 10
105.9297800752839
 20
-138.0577135765966
 30
0.0
 10
105.8464186885218
 20
-138.012946076608
 30
0.0
 10
105.7451388624526
 20
-138.012946076608
 30
0.0
 10
105.6411020270932
 20
-138.012946076608
 30
0.0
 10
105.5594339736211
 20
-138.0577135765966
 30
0.0
 10
105.5594339736211
 20
-138.1128527432496
 30
0.0
 10
105.5594339736211
 20
-138.1679566321246
 30
0.0
 10
105.6411020270932
 20
-138.2127594098913
 30
0.0
 10
105.7451388624526
 20
-138.2127594098913
 30
0.0
 10
105.8464186885218
 20
-138.2127594098913
 30
0.0
 10
105.9297800752839
 20
-138.1679566321246
 30
0.0
 10
105.9297800752839
 20
-138.1128527432496
 30
0.0
  0
POLYLINE
  5
161
330
1F
100
AcDbEntity
  8
_U+30EC_U+30A4_U+30E4_U+30FC 1
 62
   179
420
  2234388
370
     9
100
AcDb2dPolyline
 66
     1
 10
0.0
 20
0.0
 30
0.0
  0
VERTEX
  5
162
330
161
100
AcDbEntity
  8
_U+30EC_U+30A4_U+30E4_U+30FC 1
 62
   179
420
  2234388
370
     9
100
AcDbVertex
100
AcDb2dVertex
 10
105.6362689716609
 20
-138.1128527432496
 30
0.0
  0
VERTEX
  5
163
330
161
100
AcDbEntity
  8
_U+30EC_U+30A4_U+30E4_U+30FC 1
 62
   179
420
  2234388
370
     9
100
AcDbVertex
100
AcDb2dVertex
 10
101.6368626848054
 20
-138.1128527432496
 30
0.0
  0
SEQEND
  5
164
330
161
100
AcDbEntity
  8
_U+30EC_U+30A4_U+30E4_U+30FC 1
 62
   179
420
  2234388
370
     9
  0
POLYLINE
  5
165
330
1F
100
AcDbEntity
  8
_U+30EC_U+30A4_U+30E4_U+30FC 1
 62
   179
420
  2234388
370
     9
100
AcDb2dPolyline
 66
     1
 10
0.0
 20
0.0
 30
0.0
  0
VERTEX
  5
166
330
165
100
AcDbEntity
  8
_U+30EC_U+30A4_U+30E4_U+30FC 1
 62
   179
420
  2234388
370
     9
100
AcDbVertex
100
AcDb2dVertex
 10
105.7451388624526
 20
-136.6528113547259
 30
0.0
  0
VERTEX
  5
167
330
165
100
AcDbEntity
  8
_U+30EC_U+30A4_U+30E4_U+30FC 1
 62
   179
420
  2234388
370
     9
100
AcDbVertex
100
AcDb2dVertex
 10
105.7451388624526
 20
-139.1129424652218
 30
0.0
  0
SEQEND
  5
168
330
165
100
AcDbEntity
  8
_U+30EC_U+30A4_U+30E4_U+30FC 1
 62
   179
420
  2234388
370
     9
  0
POLYLINE
  5
169
330
1F
100
AcDbEntity
  8
_U+30EC_U+30A4_U+30E4_U+30FC 1
 62
   179
420
  2234388
370
     9
100
AcDb2dPolyline
 66
     1
 10
0.0
 20
0.0
 30
0.0
  0
VERTEX
  5
16A
330
169
100
AcDbEntity
  8
_U+30EC_U+30A4_U+30E4_U+30FC 1
 62
   179
420
  2234388
370
     9
100
AcDbVertex
100
AcDb2dVertex
 10
101.6368626848054
 20
-136.6528113547259
 30
0.0
  0
VERTEX
  5
16B
330
169
100
AcDbEntity
  8
_U+30EC_U+30A4_U+30E4_U+30FC 1
 62
   179
420
  2234388
370
     9
100
AcDbVertex
100
AcDb2dVertex
 10
101.6368626848054
 20
-139.1129424652218
 30
0.0
  0
SEQEND
  5
16C
330
169
100
AcDbEntity
  8
_U+30EC_U+30A4_U+30E4_U+30FC 1
 62
   179
420
  2234388
370
     9
  0
INSERT
  5
16E
330
1F
100
AcDbEntity
  8
_U+30EC_U+30A4_U+30E4_U+30FC 1
100
AcDbBlockReference
  2
block 6
 10
0.0
 20
0.0
 30
0.0
  0
POLYLINE
  5
186
330
1F
100
AcDbEntity
  8
_U+30EC_U+30A4_U+30E4_U+30FC 1
 62
   179
420
  2234388
370
    25
100
AcDb2dPolyline
 66
     1
 10
0.0
 20
0.0
 30
0.0
  0
VERTEX
  5
187
330
186
100
AcDbEntity
  8
_U+30EC_U+30A4_U+30E4_U+30FC 1
 62
   179
420
  2234388
370
    25
100
AcDbVertex
100
AcDb2dVertex
 10
105.625579805267
 20
-132.9993035778613
 30
0.0
  0
VERTEX
  5
188
330
186
100
AcDbEntity
  8
_U+30EC_U+30A4_U+30E4_U+30FC 1
 62
   179
420
  2234388
370
    25
100
AcDbVertex
100
AcDb2dVertex
 10
105.625579805267
 20
-133.9993932998335
 30
0.0
  0
SEQEND
  5
189
330
186
100
AcDbEntity
  8
_U+30EC_U+30A4_U+30E4_U+30FC 1
 62
   179
420
  2234388
370
    25
  0
POLYLINE
  5
18A
330
1F
100
AcDbEntity
  8
_U+30EC_U+30A4_U+30E4_U+30FC 1
 62
   179
420
  2234388
370
     9
100
AcDb2dPolyline
 66
     1
 10
0.0
 20
0.0
 30
0.0
  0
VERTEX
  5
18B
330
18A
100
AcDbEntity
  8
_U+30EC_U+30A4_U+30E4_U+30FC 1
 62
   179
420
  2234388
370
     9
100
AcDbVertex
100
AcDb2dVertex
 10
96.49265726048945
 20
-131.2030296894215
 30
0.0
  0
VERTEX
  5
18C
330
18A
100
AcDbEntity
  8
_U+30EC_U+30A4_U+30E4_U+30FC 1
 62
   179
420
  2234388
370
     9
100
AcDbVertex
100
AcDb2dVertex
 10
104.4921401119612
 20
-131.2030296894215
 30
0.0
  0
SEQEND
  5
18D
330
18A
100
AcDbEntity
  8
_U+30EC_U+30A4_U+30E4_U+30FC 1
 62
   179
420
  2234388
370
     9
  0
INSERT
  5
18F
330
1F
100
AcDbEntity
  8
_U+30EC_U+30A4_U+30E4_U+30FC 1
100
AcDbBlockReference
  2
block 7
 10
0.0
 20
0.0
 30
0.0
  0
INSERT
  5
195
330
1F
100
AcDbEntity
  8
_U+30EC_U+30A4_U+30E4_U+30FC 1
100
AcDbBlockReference
  2
block 8
 10
0.0
 20
0.0
 30
0.0
  0
ENDSEC
  0
SECTION
  2
OBJECTS
  0
DICTIONARY
  5
C
330
0
100
AcDbDictionary
281
     1
  3
ACAD_GROUP
350
D
  3
ACAD_LAYOUT
350
1A
  3
ACAD_MATERIAL
350
3B
  3
ACAD_MLEADERSTYLE
350
1D2
  3
ACAD_MLINESTYLE
350
17
  3
ACAD_PLOTSETTINGS
350
19
  3
ACAD_PLOTSTYLENAME
350
E
  3
ACAD_TABLESTYLE
350
1D1
  3
ACAD_VISUALSTYLE
350
2A
  0
SUN
  5
3F
330
29
100
AcDbSun
 90
        1
290
     0
 63
     7
421
 16777215
 40
1.0
291
     1
 91
  2455826
 92
 54000000
292
     0
 70
     2
 71
   256
280
     1
  0
DICTIONARY
  5
D
102
{ACAD_REACTORS
330
C
102
}
330
C
100
AcDbDictionary
281
     1
  0
DICTIONARY
  5
1A
102
{ACAD_REACTORS
330
C
102
}
330
C
100
AcDbDictionary
281
     1
  3
Layout1
350
1E
  3
Layout2
350
26
  3
Model
350
22
  0
DICTIONARY
  5
3B
102
{ACAD_REACTORS
330
C
102
}
330
C
100
AcDbDictionary
281
     1
  3
ByBlock
350
3D
  3
ByLayer
350
3C
  3
Global
350
3E
  0
DICTIONARY
  5
1D2
102
{ACAD_REACTORS
330
C
102
}
330
C
100
AcDbDictionary
281
     1
  0
DICTIONARY
  5
17
102
{ACAD_REACTORS
330
C
102
}
330
C
100
AcDbDictionary
281
     1
  3
Standard
350
18
  0
DICTIONARY
  5
19
102
{ACAD_REACTORS
330
C
102
}
330
C
100
AcDbDictionary
281
     1
  0
ACDBDICTIONARYWDFLT
  5
E
102
{ACAD_REACTORS
330
C
102
}
330
C
100
AcDbDictionary
281
     1
  3
Normal
350
F
100
AcDbDictionaryWithDefault
340
F
  0
DICTIONARY
  5
1D1
102
{ACAD_REACTORS
330
C
102
}
330
C
100
AcDbDictionary
281
     1
  0
DICTIONARY
  5
2A
102
{ACAD_REACTORS
330
C
102
}
330
C
100
AcDbDictionary
281
     1
  3
2dWireframe
350
2F
  3
3D Hidden
350
31
  3
3dWireframe
350
30
  3
Basic
350
32
  3
Brighten
350
36
  3
ColorChange
350
3A
  3
Conceptual
350
34
  3
Dim
350
35
  3
Facepattern
350
39
  3
Flat
350
2B
  3
FlatWithEdges
350
2C
  3
Gouraud
350
2D
  3
GouraudWithEdges
350
2E
  3
Linepattern
350
38
  3
Realistic
350
33
  3
Thicken
350
37
  0
LAYOUT
  5
1E
102
{ACAD_REACTORS
330
1A
102
}
330
1A
100
AcDbPlotSettings
  1

  2
none_device
  4

  6

 40
0.0
 41
0.0
 42
0.0
 43
0.0
 44
0.0
 45
0.0
 46
0.0
 47
0.0
 48
0.0
 49
0.0
140
0.0
141
0.0
142
1.0
143
1.0
 70
   688
 72
     0
 73
     0
 74
     5
  7

 75
    16
 76
     0
 77
     2
 78
   300
147
1.0
148
0.0
149
0.0
100
AcDbLayout
  1
Layout1
 70
     1
 71
     1
 10
0.0
 20
0.0
 11
12.0
 21
9.0
 12
0.0
 22
0.0
 32
0.0
 14
1.000000000000000E+20
 24
1.000000000000000E+20
 34
1.000000000000000E+20
 15
-1.000000000000000E+20
 25
-1.000000000000000E+20
 35
-1.000000000000000E+20
146
0.0
 13
0.0
 23
0.0
 33
0.0
 16
1.0
 26
0.0
 36
0.0
 17
0.0
 27
1.0
 37
0.0
 76
     0
330
1B
  0
LAYOUT
  5
26
102
{ACAD_REACTORS
330
1A
102
}
330
1A
100
AcDbPlotSettings
  1

  2
none_device
  4

  6

 40
0.0
 41
0.0
 42
0.0
 43
0.0
 44
0.0
 45
0.0
 46
0.0
 47
0.0
 48
0.0
 49
0.0
140
0.0
141
0.0
142
1.0
143
1.0
 70
   688
 72
     0
 73
     0
 74
     5
  7

 75
    16
 76
     0
 77
     2
 78
   300
147
1.0
148
0.0
149
0.0
100
AcDbLayout
  1
Layout2
 70
     1
 71
     2
 10
0.0
 20
0.0
 11
0.0
 21
0.0
 12
0.0
 22
0.0
 32
0.0
 14
0.0
 24
0.0
 34
0.0
 15
0.0
 25
0.0
 35
0.0
146
0.0
 13
0.0
 23
0.0
 33
0.0
 16
1.0
 26
0.0
 36
0.0
 17
0.0
 27
1.0
 37
0.0
 76
     0
330
23
  0
LAYOUT
  5
22
102
{ACAD_REACTORS
330
1A
102
}
330
1A
100
AcDbPlotSettings
  1

  2
none_device
  4

  6

 40
0.0
 41
0.0
 42
0.0
 43
0.0
 44
0.0
 45
0.0
 46
0.0
 47
0.0
 48
0.0
 49
0.0
140
0.0
141
0.0
142
1.0
143
1.0
 70
  1712
 72
     0
 73
     0
 74
     0
  7

 75
     0
 76
     0
 77
     2
 78
   300
147
1.0
148
0.0
149
0.0
100
AcDbLayout
  1
Model
 70
     1
 71
     0
 10
0.0
 20
0.0
 11
12.0
 21
9.0
 12
0.0
 22
0.0
 32
0.0
 14
1.000000000000000E+20
 24
1.000000000000000E+20
 34
1.000000000000000E+20
 15
-1.000000000000000E+20
 25
-1.000000000000000E+20
 35
-1.000000000000000E+20
146
0.0
 13
0.0
 23
0.0
 33
0.0
 16
1.0
 26
0.0
 36
0.0
 17
0.0
 27
1.0
 37
0.0
 76
     0
330
1F
331
29
  0
MATERIAL
  5
3D
102
{ACAD_REACTORS
330
3B
102
}
330
3B
100
AcDbMaterial
  1
ByBlock
 72
     1
 94
      127
  0
MATERIAL
  5
3C
102
{ACAD_REACTORS
330
3B
102
}
330
3B
100
AcDbMaterial
  1
ByLayer
 72
     1
 94
      127
  0
MATERIAL
  5
3E
102
{ACAD_REACTORS
330
3B
102
}
330
3B
100
AcDbMaterial
  1
Global
 72
     1
 94
      127
  0
MLINESTYLE
  5
18
102
{ACAD_REACTORS
330
17
102
}
330
17
100
AcDbMlineStyle
  2
Standard
 70
     0
  3

 62
   256
 51
90.0
 52
90.0
 71
     2
 49
0.5
 62
   256
  6
BYLAYER
 49
-0.5
 62
   256
  6
BYLAYER
  0
ACDBPLACEHOLDER
  5
F
102
{ACAD_REACTORS
330
E
102
}
330
E
  0
VISUALSTYLE
  5
2F
102
{ACAD_REACTORS
330
2A
102
}
330
2A
100
AcDbVisualStyle
  2
2dWireframe
 70
     4
177
     2
291
     0
 71
     0
176
     1
 72
     2
176
     1
 73
     0
176
     1
 90
        0
176
     1
 40
-0.6
176
     1
 41
-30.0
176
     1
 62
     5
 63
     7
421
 16777215
176
     1
 74
     1
176
     1
 91
        4
176
     1
 64
     7
176
     1
 65
   257
176
     1
 75
     1
176
     1
175
     1
176
     1
 42
1.0
176
     1
 92
        0
176
     1
 66
   257
176
     1
 43
1.0
176
     1
 76
     1
176
     1
 77
     6
176
     1
 78
     2
176
     1
 67
     7
176
     1
 79
     5
176
     1
170
     0
176
     1
171
     0
176
     1
290
     0
176
     1
 93
        1
176
     1
 44
0.0
176
     1
173
     0
176
     1
  0
VISUALSTYLE
  5
31
102
{ACAD_REACTORS
330
2A
102
}
330
2A
100
AcDbVisualStyle
  2
3D Hidden
 70
     6
177
     2
291
     0
 71
     1
176
     1
 72
     2
176
     1
 73
     2
176
     1
 90
        0
176
     1
 40
-0.6
176
     1
 41
-30.0
176
     1
 62
     5
 63
     7
421
 16777215
176
     1
 74
     2
176
     1
 91
        2
176
     1
 64
     7
176
     1
 65
   257
176
     1
 75
     2
176
     1
175
     1
176
     1
 42
40.0
176
     1
 92
        0
176
     1
 66
   257
176
     1
 43
1.0
176
     1
 76
     1
176
     1
 77
     6
176
     1
 78
     2
176
     1
 67
     7
176
     1
 79
     3
176
     1
170
     0
176
     1
171
     0
176
     1
290
     0
176
     1
 93
        1
176
     1
 44
0.0
176
     1
173
     0
176
     1
  0
VISUALSTYLE
  5
30
102
{ACAD_REACTORS
330
2A
102
}
330
2A
100
AcDbVisualStyle
  2
3dWireframe
 70
     5
177
     2
291
     0
 71
     0
176
     1
 72
     2
176
     1
 73
     0
176
     1
 90
        0
176
     1
 40
-0.6
176
     1
 41
-30.0
176
     1
 62
     5
 63
     7
421
 16777215
176
     1
 74
     1
176
     1
 91
        4
176
     1
 64
     7
176
     1
 65
   257
176
     1
 75
     1
176
     1
175
     1
176
     1
 42
1.0
176
     1
 92
        0
176
     1
 66
   257
176
     1
 43
1.0
176
     1
 76
     1
176
     1
 77
     6
176
     1
 78
     2
176
     1
 67
     7
176
     1
 79
     5
176
     1
170
     0
176
     1
171
     0
176
     1
290
     0
176
     1
 93
        1
176
     1
 44
0.0
176
     1
173
     0
176
     1
  0
VISUALSTYLE
  5
32
102
{ACAD_REACTORS
330
2A
102
}
330
2A
100
AcDbVisualStyle
  2
Basic
 70
     7
177
     2
291
     1
 71
     1
176
     1
 72
     0
176
     1
 73
     1
176
     1
 90
        0
176
     1
 40
-0.6
176
     1
 41
-30.0
176
     1
 62
     5
 63
     7
421
 16777215
176
     1
 74
     0
176
     1
 91
        4
176
     1
 64
     7
176
     1
 65
   257
176
     1
 75
     1
176
     1
175
     1
176
     1
 42
1.0
176
     1
 92
        8
176
     1
 66
     7
176
     1
 43
1.0
176
     1
 76
     1
176
     1
 77
     6
176
     1
 78
     2
176
     1
 67
     7
176
     1
 79
     5
176
     1
170
     0
176
     1
171
     0
176
     1
290
     0
176
     1
 93
        1
176
     1
 44
0.0
176
     1
173
     0
176
     1
  0
VISUALSTYLE
  5
36
102
{ACAD_REACTORS
330
2A
102
}
330
2A
100
AcDbVisualStyle
  2
Brighten
 70
    12
177
     2
291
     1
 71
     2
176
     1
 72
     2
176
     1
 73
     0
176
     1
 90
        0
176
     1
 40
-0.6
176
     1
 41
-30.0
176
     1
 62
     5
 63
     7
421
 16777215
176
     1
 74
     1
176
     1
 91
        4
176
     1
 64
     7
176
     1
 65
   257
176
     1
 75
     1
176
     1
175
     1
176
     1
 42
1.0
176
     1
 92
        8
176
     1
 66
     7
176
     1
 43
1.0
176
     1
 76
     1
176
     1
 77
     6
176
     1
 78
     2
176
     1
 67
     7
176
     1
 79
     5
176
     1
170
     0
176
     1
171
     0
176
     1
290
     0
176
     1
 93
        1
176
     1
 44
50.0
176
     1
173
     0
176
     1
  0
VISUALSTYLE
  5
3A
102
{ACAD_REACTORS
330
2A
102
}
330
2A
100
AcDbVisualStyle
  2
ColorChange
 70
    16
177
     2
291
     1
 71
     2
176
     1
 72
     2
176
     1
 73
     3
176
     1
 90
        0
176
     1
 40
-0.6
176
     1
 41
-30.0
176
     1
 62
     5
 63
     8
421
  8421504
176
     1
 74
     1
176
     1
 91
        4
176
     1
 64
     7
176
     1
 65
   257
176
     1
 75
     1
176
     1
175
     1
176
     1
 42
1.0
176
     1
 92
        8
176
     1
 66
     8
424
  8421504
176
     1
 43
1.0
176
     1
 76
     1
176
     1
 77
     6
176
     1
 78
     2
176
     1
 67
     7
176
     1
 79
     5
176
     1
170
     0
176
     1
171
     0
176
     1
290
     0
176
     1
 93
        1
176
     1
 44
0.0
176
     1
173
     0
176
     1
  0
VISUALSTYLE
  5
34
102
{ACAD_REACTORS
330
2A
102
}
330
2A
100
AcDbVisualStyle
  2
Conceptual
 70
     9
177
     2
291
     0
 71
     3
176
     1
 72
     2
176
     1
 73
     0
176
     1
 90
        0
176
     1
 40
-0.6
176
     1
 41
-30.0
176
     1
 62
     5
 63
     7
421
 16777215
176
     1
 74
     2
176
     1
 91
        2
176
     1
 64
     7
176
     1
 65
   257
176
     1
 75
     1
176
     1
175
     1
176
     1
 42
40.0
176
     1
 92
        8
176
     1
 66
     7
176
     1
 43
1.0
176
     1
 76
     1
176
     1
 77
     6
176
     1
 78
     2
176
     1
 67
     7
176
     1
 79
     3
176
     1
170
     0
176
     1
171
     0
176
     1
290
     0
176
     1
 93
        1
176
     1
 44
0.0
176
     1
173
     0
176
     1
  0
VISUALSTYLE
  5
35
102
{ACAD_REACTORS
330
2A
102
}
330
2A
100
AcDbVisualStyle
  2
Dim
 70
    11
177
     2
291
     1
 71
     2
176
     1
 72
     2
176
     1
 73
     0
176
     1
 90
        0
176
     1
 40
-0.6
176
     1
 41
-30.0
176
     1
 62
     5
 63
     7
421
 16777215
176
     1
 74
     1
176
     1
 91
        4
176
     1
 64
     7
176
     1
 65
   257
176
     1
 75
     1
176
     1
175
     1
176
     1
 42
1.0
176
     1
 92
        8
176
     1
 66
     7
176
     1
 43
1.0
176
     1
 76
     1
176
     1
 77
     6
176
     1
 78
     2
176
     1
 67
     7
176
     1
 79
     5
176
     1
170
     0
176
     1
171
     0
176
     1
290
     0
176
     1
 93
        1
176
     1
 44
-50.0
176
     1
173
     0
176
     1
  0
VISUALSTYLE
  5
39
102
{ACAD_REACTORS
330
2A
102
}
330
2A
100
AcDbVisualStyle
  2
Facepattern
 70
    15
177
     2
291
     1
 71
     2
176
     1
 72
     2
176
     1
 73
     0
176
     1
 90
        0
176
     1
 40
-0.6
176
     1
 41
-30.0
176
     1
 62
     5
 63
     7
421
 16777215
176
     1
 74
     1
176
     1
 91
        4
176
     1
 64
     7
176
     1
 65
   257
176
     1
 75
     1
176
     1
175
     1
176
     1
 42
1.0
176
     1
 92
        8
176
     1
 66
     7
176
     1
 43
1.0
176
     1
 76
     1
176
     1
 77
     6
176
     1
 78
     2
176
     1
 67
     7
176
     1
 79
     5
176
     1
170
     0
176
     1
171
     0
176
     1
290
     0
176
     1
 93
        1
176
     1
 44
0.0
176
     1
173
     0
176
     1
  0
VISUALSTYLE
  5
2B
102
{ACAD_REACTORS
330
2A
102
}
330
2A
100
AcDbVisualStyle
  2
Flat
 70
     0
177
     2
291
     1
 71
     2
176
     1
 72
     1
176
     1
 73
     1
176
     1
 90
        2
176
     1
 40
-0.6
176
     1
 41
30.0
176
     1
 62
     5
 63
     7
421
 16777215
176
     1
 74
     0
176
     1
 91
        4
176
     1
 64
     7
176
     1
 65
   257
176
     1
 75
     1
176
     1
175
     1
176
     1
 42
1.0
176
     1
 92
        8
176
     1
 66
     7
176
     1
 43
1.0
176
     1
 76
     1
176
     1
 77
     6
176
     1
 78
     2
176
     1
 67
     7
176
     1
 79
     5
176
     1
170
     0
176
     1
171
     0
176
     1
290
     0
176
     1
 93
       13
176
     1
 44
0.0
176
     1
173
     0
176
     1
  0
VISUALSTYLE
  5
2C
102
{ACAD_REACTORS
330
2A
102
}
330
2A
100
AcDbVisualStyle
  2
FlatWithEdges
 70
     1
177
     2
291
     1
 71
     2
176
     1
 72
     1
176
     1
 73
     1
176
     1
 90
        2
176
     1
 40
-0.6
176
     1
 41
30.0
176
     1
 62
     5
 63
     7
421
 16777215
176
     1
 74
     1
176
     1
 91
        4
176
     1
 64
     7
176
     1
 65
   257
176
     1
 75
     1
176
     1
175
     1
176
     1
 42
1.0
176
     1
 92
        0
176
     1
 66
   257
176
     1
 43
1.0
176
     1
 76
     1
176
     1
 77
     6
176
     1
 78
     2
176
     1
 67
     7
176
     1
 79
     5
176
     1
170
     0
176
     1
171
     0
176
     1
290
     0
176
     1
 93
       13
176
     1
 44
0.0
176
     1
173
     0
176
     1
  0
VISUALSTYLE
  5
2D
102
{ACAD_REACTORS
330
2A
102
}
330
2A
100
AcDbVisualStyle
  2
Gouraud
 70
     2
177
     2
291
     1
 71
     2
176
     1
 72
     2
176
     1
 73
     1
176
     1
 90
        2
176
     1
 40
-0.6
176
     1
 41
30.0
176
     1
 62
     5
 63
     7
421
 16777215
176
     1
 74
     0
176
     1
 91
        4
176
     1
 64
     7
176
     1
 65
   257
176
     1
 75
     1
176
     1
175
     1
176
     1
 42
1.0
176
     1
 92
        0
176
     1
 66
     7
176
     1
 43
1.0
176
     1
 76
     1
176
     1
 77
     6
176
     1
 78
     2
176
     1
 67
     7
176
     1
 79
     5
176
     1
170
     0
176
     1
171
     0
176
     1
290
     0
176
     1
 93
       13
176
     1
 44
0.0
176
     1
173
     0
176
     1
  0
VISUALSTYLE
  5
2E
102
{ACAD_REACTORS
330
2A
102
}
330
2A
100
AcDbVisualStyle
  2
GouraudWithEdges
 70
     3
177
     2
291
     1
 71
     2
176
     1
 72
     2
176
     1
 73
     1
176
     1
 90
        2
176
     1
 40
-0.6
176
     1
 41
30.0
176
     1
 62
     5
 63
     7
421
 16777215
176
     1
 74
     1
176
     1
 91
        4
176
     1
 64
     7
176
     1
 65
   257
176
     1
 75
     1
176
     1
175
     1
176
     1
 42
1.0
176
     1
 92
        0
176
     1
 66
   257
176
     1
 43
1.0
176
     1
 76
     1
176
     1
 77
     6
176
     1
 78
     2
176
     1
 67
     7
176
     1
 79
     5
176
     1
170
     0
176
     1
171
     0
176
     1
290
     0
176
     1
 93
       13
176
     1
 44
0.0
176
     1
173
     0
176
     1
  0
VISUALSTYLE
  5
38
102
{ACAD_REACTORS
330
2A
102
}
330
2A
100
AcDbVisualStyle
  2
Linepattern
 70
    14
177
     2
291
     1
 71
     2
176
     1
 72
     2
176
     1
 73
     0
176
     1
 90
        0
176
     1
 40
-0.6
176
     1
 41
-30.0
176
     1
 62
     5
 63
     7
421
 16777215
176
     1
 74
     1
176
     1
 91
        4
176
     1
 64
     7
176
     1
 65
   257
176
     1
 75
     7
176
     1
175
     7
176
     1
 42
1.0
176
     1
 92
        8
176
     1
 66
     7
176
     1
 43
1.0
176
     1
 76
     1
176
     1
 77
     6
176
     1
 78
     2
176
     1
 67
     7
176
     1
 79
     5
176
     1
170
     0
176
     1
171
     0
176
     1
290
     0
176
     1
 93
        1
176
     1
 44
0.0
176
     1
173
     0
176
     1
  0
VISUALSTYLE
  5
33
102
{ACAD_REACTORS
330
2A
102
}
330
2A
100
AcDbVisualStyle
  2
Realistic
 70
     8
177
     2
291
     0
 71
     2
176
     1
 72
     2
176
     1
 73
     0
176
     1
 90
        0
176
     1
 40
-0.6
176
     1
 41
-30.0
176
     1
 62
     5
 63
     7
421
 16777215
176
     1
 74
     1
176
     1
 91
        0
176
     1
 64
     7
176
     1
 65
   257
176
     1
 75
     1
176
     1
175
     1
176
     1
 42
1.0
176
     1
 92
        8
176
     1
 66
     8
424
  7895160
176
     1
 43
1.0
176
     1
 76
     1
176
     1
 77
     6
176
     1
 78
     2
176
     1
 67
     7
176
     1
 79
     5
176
     1
170
     0
176
     1
171
     0
176
     1
290
     0
176
     1
 93
       13
176
     1
 44
0.0
176
     1
173
     0
176
     1
  0
VISUALSTYLE
  5
37
102
{ACAD_REACTORS
330
2A
102
}
330
2A
100
AcDbVisualStyle
  2
Thicken
 70
    13
177
     2
291
     1
 71
     2
176
     1
 72
     2
176
     1
 73
     0
176
     1
 90
        0
176
     1
 40
-0.6
176
     1
 41
-30.0
176
     1
 62
     5
 63
     7
421
 16777215
176
     1
 74
     1
176
     1
 91
        4
176
     1
 64
     7
176
     1
 65
   257
176
     1
 75
     1
176
     1
175
     1
176
     1
 42
1.0
176
     1
 92
       12
176
     1
 66
     7
176
     1
 43
1.0
176
     1
 76
     1
176
     1
 77
     6
176
     1
 78
     2
176
     1
 67
     7
176
     1
 79
     5
176
     1
170
     0
176
     1
171
     0
176
     1
290
     0
176
     1
 93
        1
176
     1
 44
0.0
176
     1
173
     0
176
     1
  0
ENDSEC
  0
EOF
