  0
SECTION
  2
HEADER
  9
$ACADVER
  1
AC1024
  9
$ACADMAINTVER
 70
     6
  9
$DWGCODEPAGE
  3
UNDEFINED
  9
$INSBASE
 10
0.0
 20
0.0
 30
0.0
  9
$EXTMIN
 10
1.000000000000000E+20
 20
1.000000000000000E+20
 30
1.000000000000000E+20
  9
$EXTMAX
 10
-1.000000000000000E+20
 20
-1.000000000000000E+20
 30
-1.000000000000000E+20
  9
$LIMMIN
 10
0.0
 20
0.0
  9
$LIMMAX
 10
12.0
 20
9.0
  9
$ORTHOMODE
 70
     0
  9
$REGENMODE
 70
     1
  9
$FILLMODE
 70
     1
  9
$QTEXTMODE
 70
     0
  9
$MIRRTEXT
 70
     1
  9
$LTSCALE
 40
1.0
  9
$ATTMODE
 70
     1
  9
$TEXTSIZE
 40
0.2
  9
$TRACEWID
 40
0.05
  9
$TEXTSTYLE
  7
Standard
  9
$CLAYER
  8
0
  9
$CELTYPE
  6
ByLayer
  9
$CECOLOR
 62
   256
  9
$CELTSCALE
 40
1.0
  9
$DISPSILH
 70
     0
  9
$DIMSCALE
 40
1.0
  9
$DIMASZ
 40
0.18
  9
$DIMEXO
 40
0.0625
  9
$DIMDLI
 40
0.38
  9
$DIMRND
 40
0.0
  9
$DIMDLE
 40
0.0
  9
$DIMEXE
 40
0.18
  9
$DIMTP
 40
0.0
  9
$DIMTM
 40
0.0
  9
$DIMTXT
 40
0.18
  9
$DIMCEN
 40
0.09
  9
$DIMTSZ
 40
0.0
  9
$DIMTOL
 70
     0
  9
$DIMLIM
 70
     0
  9
$DIMTIH
 70
     1
  9
$DIMTOH
 70
     1
  9
$DIMSE1
 70
     0
  9
$DIMSE2
 70
     0
  9
$DIMTAD
 70
     0
  9
$DIMZIN
 70
     0
  9
$DIMBLK
  1

  9
$DIMASO
 70
     1
  9
$DIMSHO
 70
     1
  9
$DIMPOST
  1

  9
$DIMAPOST
  1

  9
$DIMALT
 70
     0
  9
$DIMALTD
 70
     2
  9
$DIMALTF
 40
25.4
  9
$DIMLFAC
 40
1.0
  9
$DIMTOFL
 70
     0
  9
$DIMTVP
 40
0.0
  9
$DIMTIX
 70
     0
  9
$DIMSOXD
 70
     0
  9
$DIMSAH
 70
     0
  9
$DIMBLK1
  1

  9
$DIMBLK2
  1

  9
$DIMSTYLE
  2
Standard
  9
$DIMCLRD
 70
     0
  9
$DIMCLRE
 70
     0
  9
$DIMCLRT
 70
     0
  9
$DIMTFAC
 40
1.0
  9
$DIMGAP
 40
0.09
  9
$DIMJUST
 70
     0
  9
$DIMSD1
 70
     0
  9
$DIMSD2
 70
     0
  9
$DIMTOLJ
 70
     1
  9
$DIMTZIN
 70
     0
  9
$DIMALTZ
 70
     0
  9
$DIMALTTZ
 70
     0
  9
$DIMUPT
 70
     0
  9
$DIMDEC
 70
     4
  9
$DIMTDEC
 70
     4
  9
$DIMALTU
 70
     2
  9
$DIMALTTD
 70
     2
  9
$DIMTXSTY
  7
Standard
  9
$DIMAUNIT
 70
     0
  9
$DIMADEC
 70
     0
  9
$DIMALTRND
 40
0.0
  9
$DIMAZIN
 70
     0
  9
$DIMDSEP
 70
    46
  9
$DIMATFIT
 70
     3
  9
$DIMFRAC
 70
     0
  9
$DIMLDRBLK
  1

  9
$DIMLUNIT
 70
     2
  9
$DIMLWD
 70
    -2
  9
$DIMLWE
 70
    -2
  9
$DIMTMOVE
 70
     0
  9
$DIMFXL
 40
1.0
  9
$DIMFXLON
 70
     0
  9
$DIMJOGANG
 40
0.7853981633974483
  9
$DIMTFILL
 70
     0
  9
$DIMTFILLCLR
 70
     0
  9
$DIMARCSYM
 70
     0
  9
$DIMLTYPE
  6

  9
$DIMLTEX1
  6

  9
$DIMLTEX2
  6

  9
$DIMTXTDIRECTION
 70
     0
  9
$LUNITS
 70
     2
  9
$LUPREC
 70
     4
  9
$SKETCHINC
 40
0.1
  9
$FILLETRAD
 40
0.5
  9
$AUNITS
 70
     0
  9
$AUPREC
 70
     0
  9
$MENU
  1
.
  9
$ELEVATION
 40
0.0
  9
$PELEVATION
 40
0.0
  9
$THICKNESS
 40
0.0
  9
$LIMCHECK
 70
     0
  9
$CHAMFERA
 40
0.5
  9
$CHAMFERB
 40
0.5
  9
$CHAMFERC
 40
1.0
  9
$CHAMFERD
 40
0.0
  9
$SKPOLY
 70
     0
  9
$TDCREATE
 40
2457917.596180544
  9
$TDUCREATE
 40
2457917.221180555
  9
$TDUPDATE
 40
2457917.596180544
  9
$TDUUPDATE
 40
2457917.221180555
  9
$TDINDWG
 40
0.0000000116
  9
$TDUSRTIMER
 40
0.0000000116
  9
$USRTIMER
 70
     1
  9
$ANGBASE
 50
0.0
  9
$ANGDIR
 70
     0
  9
$PDMODE
 70
     0
  9
$PDSIZE
 40
0.0
  9
$PLINEWID
 40
0.0
  9
$SPLFRAME
 70
     0
  9
$SPLINETYPE
 70
     6
  9
$SPLINESEGS
 70
     8
  9
$HANDSEED
  5
EB
  9
$SURFTAB1
 70
     6
  9
$SURFTAB2
 70
     6
  9
$SURFTYPE
 70
     6
  9
$SURFU
 70
     6
  9
$SURFV
 70
     6
  9
$UCSBASE
  2

  9
$UCSNAME
  2

  9
$UCSORG
 10
0.0
 20
0.0
 30
0.0
  9
$UCSXDIR
 10
1.0
 20
0.0
 30
0.0
  9
$UCSYDIR
 10
0.0
 20
1.0
 30
0.0
  9
$UCSORTHOREF
  2

  9
$UCSORTHOVIEW
 70
     0
  9
$UCSORGTOP
 10
0.0
 20
0.0
 30
0.0
  9
$UCSORGBOTTOM
 10
0.0
 20
0.0
 30
0.0
  9
$UCSORGLEFT
 10
0.0
 20
0.0
 30
0.0
  9
$UCSORGRIGHT
 10
0.0
 20
0.0
 30
0.0
  9
$UCSORGFRONT
 10
0.0
 20
0.0
 30
0.0
  9
$UCSORGBACK
 10
0.0
 20
0.0
 30
0.0
  9
$PUCSBASE
  2

  9
$PUCSNAME
  2

  9
$PUCSORG
 10
0.0
 20
0.0
 30
0.0
  9
$PUCSXDIR
 10
1.0
 20
0.0
 30
0.0
  9
$PUCSYDIR
 10
0.0
 20
1.0
 30
0.0
  9
$PUCSORTHOREF
  2

  9
$PUCSORTHOVIEW
 70
     0
  9
$PUCSORGTOP
 10
0.0
 20
0.0
 30
0.0
  9
$PUCSORGBOTTOM
 10
0.0
 20
0.0
 30
0.0
  9
$PUCSORGLEFT
 10
0.0
 20
0.0
 30
0.0
  9
$PUCSORGRIGHT
 10
0.0
 20
0.0
 30
0.0
  9
$PUCSORGFRONT
 10
0.0
 20
0.0
 30
0.0
  9
$PUCSORGBACK
 10
0.0
 20
0.0
 30
0.0
  9
$USERI1
 70
     0
  9
$USERI2
 70
     0
  9
$USERI3
 70
     0
  9
$USERI4
 70
     0
  9
$USERI5
 70
     0
  9
$USERR1
 40
0.0
  9
$USERR2
 40
0.0
  9
$USERR3
 40
0.0
  9
$USERR4
 40
0.0
  9
$USERR5
 40
0.0
  9
$WORLDVIEW
 70
     1
  9
$SHADEDGE
 70
     3
  9
$SHADEDIF
 70
    70
  9
$TILEMODE
 70
     1
  9
$MAXACTVP
 70
    64
  9
$PINSBASE
 10
0.0
 20
0.0
 30
0.0
  9
$PLIMCHECK
 70
     0
  9
$PEXTMIN
 10
1.000000000000000E+20
 20
1.000000000000000E+20
 30
1.000000000000000E+20
  9
$PEXTMAX
 10
-1.000000000000000E+20
 20
-1.000000000000000E+20
 30
-1.000000000000000E+20
  9
$PLIMMIN
 10
0.0
 20
0.0
  9
$PLIMMAX
 10
12.0
 20
9.0
  9
$UNITMODE
 70
     0
  9
$VISRETAIN
 70
     1
  9
$PLINEGEN
 70
     0
  9
$PSLTSCALE
 70
     1
  9
$TREEDEPTH
 70
  3020
  9
$CMLSTYLE
  2
Standard
  9
$CMLJUST
 70
     0
  9
$CMLSCALE
 40
1.0
  9
$PROXYGRAPHICS
 70
     1
  9
$MEASUREMENT
 70
     0
  9
$CELWEIGHT
370
    -1
  9
$ENDCAPS
280
     0
  9
$JOINSTYLE
280
     0
  9
$LWDISPLAY
290
     1
  9
$INSUNITS
 70
     1
  9
$HYPERLINKBASE
  1

  9
$STYLESHEET
  1

  9
$XEDIT
290
     1
  9
$CEPSNTYPE
380
     0
  9
$PSTYLEMODE
290
     1
  9
$FINGERPRINTGUID
  2
{AF7C7EFA-C7E4-D936-8A50-72D2E027DC71}
  9
$VERSIONGUID
  2
{FAEB1C32-E019-11D5-929B-00C0DF256EC4}
  9
$EXTNAMES
290
     1
  9
$PSVPSCALE
 40
0.0
  9
$OLESTARTUP
290
     0
  9
$SORTENTS
280
   127
  9
$INDEXCTL
280
     0
  9
$HIDETEXT
280
     1
  9
$XCLIPFRAME
280
     2
  9
$HALOGAP
280
     0
  9
$OBSCOLOR
 70
   257
  9
$OBSLTYPE
280
     0
  9
$INTERSECTIONDISPLAY
280
     0
  9
$INTERSECTIONCOLOR
 70
   257
  9
$DIMASSOC
280
     2
  9
$PROJECTNAME
  1

  9
$CAMERADISPLAY
290
     0
  9
$LENSLENGTH
 40
50.0
  9
$CAMERAHEIGHT
 40
0.0
  9
$STEPSPERSEC
 40
2.0
  9
$STEPSIZE
 40
6.0
  9
$3DDWFPREC
 40
2.0
  9
$PSOLWIDTH
 40
0.25
  9
$PSOLHEIGHT
 40
4.0
  9
$LOFTANG1
 40
1.570796326794897
  9
$LOFTANG2
 40
1.570796326794897
  9
$LOFTMAG1
 40
0.0
  9
$LOFTMAG2
 40
0.0
  9
$LOFTPARAM
 70
     7
  9
$LOFTNORMALS
280
     1
  9
$LATITUDE
 40
37.795
  9
$LONGITUDE
 40
-122.394
  9
$NORTHDIRECTION
 40
0.0
  9
$TIMEZONE
 70
 -8000
  9
$LIGHTGLYPHDISPLAY
280
     1
  9
$TILEMODELIGHTSYNCH
280
     1
  9
$CMATERIAL
347
3C
  9
$SOLIDHIST
280
     1
  9
$SHOWHIST
280
     1
  9
$DWFFRAME
280
     2
  9
$DGNFRAME
280
     2
  9
$REALWORLDSCALE
290
     1
  9
$INTERFERECOLOR
 62
   256
  9
$CSHADOW
280
     0
  9
$SHADOWPLANELOCATION
 40
0.0
  0
ENDSEC
  0
SECTION
  2
CLASSES
  0
CLASS
  1
ACDBDICTIONARYWDFLT
  2
AcDbDictionaryWithDefault
  3
ObjectDBX Classes
 90
        0
 91
        4
280
     0
281
     0
  0
CLASS
  1
VISUALSTYLE
  2
AcDbVisualStyle
  3
ObjectDBX Classes
 90
     4095
 91
        4
280
     0
281
     0
  0
CLASS
  1
MATERIAL
  2
AcDbMaterial
  3
ObjectDBX Classes
 90
     1153
 91
        4
280
     0
281
     0
  0
CLASS
  1
SUN
  2
AcDbSun
  3
SCENEOE
 90
     1024
 91
        4
280
     0
281
     0
  0
ENDSEC
  0
SECTION
  2
TABLES
  0
TABLE
  2
VPORT
  5
8
330
0
100
AcDbSymbolTable
 70
     1
  0
VPORT
  5
29
330
8
100
AcDbSymbolTableRecord
100
AcDbViewportTableRecord
  2
*Active
 70
     0
 10
0.0
 20
0.0
 11
1.0
 21
1.0
 12
0.0
 22
0.0
 13
0.0
 23
0.0
 14
0.5
 24
0.5
 15
0.5
 25
0.5
 16
0.0
 26
0.0
 36
1.0
 17
91.00082462281999
 27
-128.4993055234307
 37
0.0
 40
256.9986110468615
 41
0.7081814508812795
 42
50.0
 43
0.0
 44
0.0
 50
0.0
 51
0.0
 71
     0
 72
   100
 73
     1
 74
     3
 75
     0
 76
     0
 77
     0
 78
     0
281
     0
 65
     1
110
0.0
120
0.0
130
0.0
111
1.0
121
0.0
131
0.0
112
0.0
122
1.0
132
0.0
 79
     0
146
0.0
 60
     3
 61
     5
292
     1
282
     1
141
0.0
142
0.0
 63
   250
361
3F
  0
ENDTAB
  0
TABLE
  2
LTYPE
  5
5
330
0
100
AcDbSymbolTable
 70
     1
  0
LTYPE
  5
14
330
5
100
AcDbSymbolTableRecord
100
AcDbLinetypeTableRecord
  2
ByBlock
 70
     0
  3

 72
    65
 73
     0
 40
0.0
  0
LTYPE
  5
15
330
5
100
AcDbSymbolTableRecord
100
AcDbLinetypeTableRecord
  2
ByLayer
 70
     0
  3

 72
    65
 73
     0
 40
0.0
  0
LTYPE
  5
16
330
5
100
AcDbSymbolTableRecord
100
AcDbLinetypeTableRecord
  2
Continuous
 70
     0
  3
Solid line
 72
    65
 73
     0
 40
0.0
  0
ENDTAB
  0
TABLE
  2
LAYER
  5
2
330
0
100
AcDbSymbolTable
 70
     2
  0
LAYER
  5
10
330
2
100
AcDbSymbolTableRecord
100
AcDbLayerTableRecord
  2
0
 70
     0
 62
     7
  6
Continuous
370
    -3
390
F
347
3E
  0
LAYER
  5
40
330
2
100
AcDbSymbolTableRecord
100
AcDbLayerTableRecord
  2
_U+30EC_U+30A4_U+30E4_U+30FC 1
 70
     0
 62
     7
  6
Continuous
370
    -3
390
F
347
3E
  0
ENDTAB
  0
TABLE
  2
STYLE
  5
3
330
0
100
AcDbSymbolTable
 70
     1
  0
STYLE
  5
11
330
3
100
AcDbSymbolTableRecord
100
AcDbTextStyleTableRecord
  2
Standard
 70
     0
 40
0.0
 41
1.0
 50
0.0
 71
     0
 42
0.2
  3
txt
  4

  0
ENDTAB
  0
TABLE
  2
VIEW
  5
6
330
0
100
AcDbSymbolTable
 70
     0
  0
ENDTAB
  0
TABLE
  2
UCS
  5
7
330
0
100
AcDbSymbolTable
 70
     0
  0
ENDTAB
  0
TABLE
  2
APPID
  5
9
330
0
100
AcDbSymbolTable
 70
     1
  0
APPID
  5
12
330
9
100
AcDbSymbolTableRecord
100
AcDbRegAppTableRecord
  2
ACAD
 70
     0
  0
ENDTAB
  0
TABLE
  2
DIMSTYLE
  5
A
330
0
100
AcDbSymbolTable
 70
     1
100
AcDbDimStyleTable
  0
DIMSTYLE
105
27
330
A
100
AcDbSymbolTableRecord
100
AcDbDimStyleTableRecord
  2
Standard
 70
     0
178
     0
340
11
  0
ENDTAB
  0
TABLE
  2
BLOCK_RECORD
  5
1
330
0
100
AcDbSymbolTable
 70
     8
  0
BLOCK_RECORD
  5
1F
330
1
100
AcDbSymbolTableRecord
100
AcDbBlockTableRecord
  2
*Model_Space
340
22
 70
     0
280
     1
281
     0
  0
BLOCK_RECORD
  5
1B
330
1
100
AcDbSymbolTableRecord
100
AcDbBlockTableRecord
  2
*Paper_Space
340
1E
 70
     0
280
     1
281
     0
  0
BLOCK_RECORD
  5
23
330
1
100
AcDbSymbolTableRecord
100
AcDbBlockTableRecord
  2
*Paper_Space0
340
26
 70
     0
280
     1
281
     0
  0
BLOCK_RECORD
  5
89
330
1
100
AcDbSymbolTableRecord
100
AcDbBlockTableRecord
  2
block 2
340
0
102
{BLKREFS
331
8A
102
}
 70
     0
280
     1
281
     0
  0
BLOCK_RECORD
  5
9D
330
1
100
AcDbSymbolTableRecord
100
AcDbBlockTableRecord
  2
block 3
340
0
102
{BLKREFS
331
9E
102
}
 70
     0
280
     1
281
     0
  0
BLOCK_RECORD
  5
AD
330
1
100
AcDbSymbolTableRecord
100
AcDbBlockTableRecord
  2
block 4
340
0
102
{BLKREFS
331
AE
102
}
 70
     0
280
     1
281
     0
  0
BLOCK_RECORD
  5
BC
330
1
100
AcDbSymbolTableRecord
100
AcDbBlockTableRecord
  2
block 5
340
0
102
{BLKREFS
331
BD
102
}
 70
     0
280
     1
281
     0
  0
BLOCK_RECORD
  5
CF
330
1
100
AcDbSymbolTableRecord
100
AcDbBlockTableRecord
  2
block 6
340
0
102
{BLKREFS
331
D0
102
}
 70
     0
280
     1
281
     0
  0
BLOCK_RECORD
  5
DA
330
1
100
AcDbSymbolTableRecord
100
AcDbBlockTableRecord
  2
block 7
340
0
102
{BLKREFS
331
DB
102
}
 70
     0
280
     1
281
     0
  0
BLOCK_RECORD
  5
DE
330
1
100
AcDbSymbolTableRecord
100
AcDbBlockTableRecord
  2
block 8
340
0
102
{BLKREFS
331
DF
102
}
 70
     0
280
     1
281
     0
  0
ENDTAB
  0
ENDSEC
  0
SECTION
  2
BLOCKS
  0
BLOCK
  5
20
330
1F
100
AcDbEntity
  8
0
100
AcDbBlockBegin
  2
*Model_Space
 70
     0
 10
0.0
 20
0.0
 30
0.0
  3
*Model_Space
  1

  0
ENDBLK
  5
21
330
1F
100
AcDbEntity
  8
0
100
AcDbBlockEnd
  0
BLOCK
  5
1C
330
1B
100
AcDbEntity
 67
     1
  8
0
100
AcDbBlockBegin
  2
*Paper_Space
 70
     0
 10
0.0
 20
0.0
 30
0.0
  3
*Paper_Space
  1

  0
ENDBLK
  5
1D
330
1B
100
AcDbEntity
 67
     1
  8
0
100
AcDbBlockEnd
  0
BLOCK
  5
24
330
23
100
AcDbEntity
  8
0
100
AcDbBlockBegin
  2
*Paper_Space0
 70
     0
 10
0.0
 20
0.0
 30
0.0
  3
*Paper_Space0
  1

  0
ENDBLK
  5
25
330
23
100
AcDbEntity
  8
0
100
AcDbBlockEnd
  0
BLOCK
  5
8B
330
89
100
AcDbEntity
  8
0
100
AcDbBlockBegin
  2
block 2
 70
     0
 10
0.0
 20
0.0
 30
0.0
  3
block 2
  1

  0
SPLINE
  5
8D
330
89
100
AcDbEntity
  8
_U+30EC_U+30A4_U+30E4_U+30FC 1
370
     0
100
AcDbSpline
210
0.0
220
0.0
230
1.0
 70
    11
 71
     3
 72
    62
 73
    58
 74
     0
 42
0.0000000001
 43
0.0000000001
 12
1.0
 22
0.0
 32
0.0
 13
1.0
 23
0.0
 33
0.0
 40
0.0
 40
0.0
 40
0.0
 40
0.0
 40
1.0
 40
1.0
 40
1.0
 40
2.0
 40
2.0
 40
2.0
 40
3.0
 40
3.0
 40
3.0
 40
4.0
 40
4.0
 40
4.0
 40
5.0
 40
5.0
 40
5.0
 40
6.0
 40
6.0
 40
6.0
 40
7.0
 40
7.0
 40
7.0
 40
8.0
 40
8.0
 40
8.0
 40
9.0
 40
9.0
 40
9.0
 40
10.0
 40
10.0
 40
10.0
 40
11.0
 40
11.0
 40
11.0
 40
12.0
 40
12.0
 40
12.0
 40
13.0
 40
13.0
 40
13.0
 40
14.0
 40
14.0
 40
14.0
 40
15.0
 40
15.0
 40
15.0
 40
16.0
 40
16.0
 40
16.0
 40
17.0
 40
17.0
 40
17.0
 40
18.0
 40
18.0
 40
18.0
 40
19.0
 40
19.0
 40
19.0
 40
19.0
 10
87.81927352405214
 20
-138.6547579948502
 30
0.0
 10
87.72384437911072
 20
-138.6547579948502
 30
0.0
 10
87.50611434444292
 20
-138.6337429123902
 30
0.0
 10
87.38105737832835
 20
-138.4477077561867
 30
0.0
 10
87.30733233494401
 20
-138.3353976433675
 30
0.0
 10
87.30285371081318
 20
-138.2361788933923
 30
0.0
 10
87.29871959623088
 20
-138.1514295444552
 30
0.0
 10
87.29871959623088
 20
-138.1514295444552
 30
0.0
 10
87.51886119773835
 20
-138.1514295444552
 30
0.0
 10
87.51886119773835
 20
-138.1514295444552
 30
0.0
 10
87.52092825502949
 20
-138.2254990973881
 30
0.0
 10
87.53126354148525
 20
-138.4601100999336
 30
0.0
 10
87.81479489992131
 20
-138.4601100999336
 30
0.0
 10
87.95225420978278
 20
-138.4601100999336
 30
0.0
 10
88.10487193977934
 20
-138.3905191711315
 30
0.0
 10
88.10487193977934
 20
-138.1621093404595
 30
0.0
 10
88.10487193977934
 20
-138.045665113058
 30
0.0
 10
88.06663137989307
 20
-137.997089266716
 30
0.0
 10
88.03493650142877
 20
-137.9653943882517
 30
0.0
 10
87.9608669484959
 20
-137.8913248353188
 30
0.0
 10
87.84442272109446
 20
-137.8785779820234
 30
0.0
 10
87.78964570287899
 20
-137.8785779820234
 30
0.0
 10
87.77035316816158
 20
-137.8785779820234
 30
0.0
 10
87.73452417511498
 20
-137.8806450393146
 30
0.0
 10
87.70696341123299
 20
-137.8847791538969
 30
0.0
 10
87.70696341123299
 20
-137.8847791538969
 30
0.0
 10
87.70696341123299
 20
-137.6901312589802
 30
0.0
 10
87.70696341123299
 20
-137.6901312589802
 30
0.0
 10
87.74520397111925
 20
-137.6966769404022
 30
0.0
 10
87.7872341360393
 20
-137.6987439976934
 30
0.0
 10
87.79377981746129
 20
-137.6987439976934
 30
0.0
 10
87.85923663168103
 20
-137.6987439976934
 30
0.0
 10
88.05801864117994
 20
-137.6773844056848
 30
0.0
 10
88.05801864117994
 20
-137.4407063458482
 30
0.0
 10
88.05801864117994
 20
-137.2629394188093
 30
0.0
 10
87.92710501274045
 20
-137.2078178910453
 30
0.0
 10
87.81686195721245
 20
-137.2078178910453
 30
0.0
 10
87.5526231334938
 20
-137.2078178910453
 30
0.0
 10
87.54401039478067
 20
-137.4407063458482
 30
0.0
 10
87.53987628019837
 20
-137.5123643319414
 30
0.0
 10
87.53987628019837
 20
-137.5123643319414
 30
0.0
 10
87.33661564656863
 20
-137.5123643319414
 30
0.0
 10
87.33661564656863
 20
-137.5123643319414
 30
0.0
 10
87.34522838528176
 20
-137.3876518753753
 30
0.0
 10
87.37278914916375
 20
-137.0111029388375
 30
0.0
 10
87.82960881050788
 20
-137.0111029388375
 30
0.0
 10
88.05388452659764
 20
-137.0111029388375
 30
0.0
 10
88.29504121056513
 20
-137.1382269622432
 30
0.0
 10
88.29504121056513
 20
-137.4341606644262
 30
0.0
 10
88.29504121056513
 20
-137.6205403301782
 30
0.0
 10
88.19995657517224
 20
-137.7028781122757
 30
0.0
 10
88.10039331564852
 20
-137.7642008119131
 30
0.0
 10
88.16171601528596
 20
-137.7917615757951
 30
0.0
 10
88.34361705690715
 20
-137.8720323006014
 30
0.0
 10
88.34361705690715
 20
-138.149362487164
 30
0.0
 10
88.34361705690715
 20
-138.4876708638156
 30
0.0
 10
88.09625920106622
 20
-138.6547579948502
 30
0.0
 10
87.81927352405214
 20
-138.6547579948502
 30
0.0
  0
HATCH
  5
8E
330
89
100
AcDbEntity
  8
_U+30EC_U+30A4_U+30E4_U+30FC 1
 62
   179
420
  2234388
100
AcDbHatch
 10
0.0
 20
0.0
 30
0.0
210
0.0
220
0.0
230
1.0
  2
SOLID
 70
     1
 71
     0
 91
        1
 92
        1
 93
        1
 72
     4
 94
        3
 73
     0
 74
     1
 95
       62
 96
       58
 40
0.0
 40
0.0
 40
0.0
 40
0.0
 40
1.0
 40
1.0
 40
1.0
 40
2.0
 40
2.0
 40
2.0
 40
3.0
 40
3.0
 40
3.0
 40
4.0
 40
4.0
 40
4.0
 40
5.0
 40
5.0
 40
5.0
 40
6.0
 40
6.0
 40
6.0
 40
7.0
 40
7.0
 40
7.0
 40
8.0
 40
8.0
 40
8.0
 40
9.0
 40
9.0
 40
9.0
 40
10.0
 40
10.0
 40
10.0
 40
11.0
 40
11.0
 40
11.0
 40
12.0
 40
12.0
 40
12.0
 40
13.0
 40
13.0
 40
13.0
 40
14.0
 40
14.0
 40
14.0
 40
15.0
 40
15.0
 40
15.0
 40
16.0
 40
16.0
 40
16.0
 40
17.0
 40
17.0
 40
17.0
 40
18.0
 40
18.0
 40
18.0
 40
19.0
 40
19.0
 40
19.0
 40
19.0
 10
87.81927352405214
 20
-138.6547579948502
 10
87.72384437911072
 20
-138.6547579948502
 10
87.50611434444292
 20
-138.6337429123902
 10
87.38105737832835
 20
-138.4477077561867
 10
87.30733233494401
 20
-138.3353976433675
 10
87.30285371081318
 20
-138.2361788933923
 10
87.29871959623088
 20
-138.1514295444552
 10
87.29871959623088
 20
-138.1514295444552
 10
87.51886119773835
 20
-138.1514295444552
 10
87.51886119773835
 20
-138.1514295444552
 10
87.52092825502949
 20
-138.2254990973881
 10
87.53126354148525
 20
-138.4601100999336
 10
87.81479489992131
 20
-138.4601100999336
 10
87.95225420978278
 20
-138.4601100999336
 10
88.10487193977934
 20
-138.3905191711315
 10
88.10487193977934
 20
-138.1621093404595
 10
88.10487193977934
 20
-138.045665113058
 10
88.06663137989307
 20
-137.997089266716
 10
88.03493650142877
 20
-137.9653943882517
 10
87.9608669484959
 20
-137.8913248353188
 10
87.84442272109446
 20
-137.8785779820234
 10
87.78964570287899
 20
-137.8785779820234
 10
87.77035316816158
 20
-137.8785779820234
 10
87.73452417511498
 20
-137.8806450393146
 10
87.70696341123299
 20
-137.8847791538969
 10
87.70696341123299
 20
-137.8847791538969
 10
87.70696341123299
 20
-137.6901312589802
 10
87.70696341123299
 20
-137.6901312589802
 10
87.74520397111925
 20
-137.6966769404022
 10
87.7872341360393
 20
-137.6987439976934
 10
87.79377981746129
 20
-137.6987439976934
 10
87.85923663168103
 20
-137.6987439976934
 10
88.05801864117994
 20
-137.6773844056848
 10
88.05801864117994
 20
-137.4407063458482
 10
88.05801864117994
 20
-137.2629394188093
 10
87.92710501274045
 20
-137.2078178910453
 10
87.81686195721245
 20
-137.2078178910453
 10
87.5526231334938
 20
-137.2078178910453
 10
87.54401039478067
 20
-137.4407063458482
 10
87.53987628019837
 20
-137.5123643319414
 10
87.53987628019837
 20
-137.5123643319414
 10
87.33661564656863
 20
-137.5123643319414
 10
87.33661564656863
 20
-137.5123643319414
 10
87.34522838528176
 20
-137.3876518753753
 10
87.37278914916375
 20
-137.0111029388375
 10
87.82960881050788
 20
-137.0111029388375
 10
88.05388452659764
 20
-137.0111029388375
 10
88.29504121056513
 20
-137.1382269622432
 10
88.29504121056513
 20
-137.4341606644262
 10
88.29504121056513
 20
-137.6205403301782
 10
88.19995657517224
 20
-137.7028781122757
 10
88.10039331564852
 20
-137.7642008119131
 10
88.16171601528596
 20
-137.7917615757951
 10
88.34361705690715
 20
-137.8720323006014
 10
88.34361705690715
 20
-138.149362487164
 10
88.34361705690715
 20
-138.4876708638156
 10
88.09625920106622
 20
-138.6547579948502
 10
87.81927352405214
 20
-138.6547579948502
 97
        0
 97
        0
 75
     2
 76
     1
 98
        0
  0
SPLINE
  5
8F
330
89
100
AcDbEntity
  8
_U+30EC_U+30A4_U+30E4_U+30FC 1
370
     0
100
AcDbSpline
210
0.0
220
0.0
230
1.0
 70
    11
 71
     3
 72
    53
 73
    49
 74
     0
 42
0.0000000001
 43
0.0000000001
 12
1.0
 22
0.0
 32
0.0
 13
1.0
 23
0.0
 33
0.0
 40
0.0
 40
0.0
 40
0.0
 40
0.0
 40
1.0
 40
1.0
 40
1.0
 40
2.0
 40
2.0
 40
2.0
 40
3.0
 40
3.0
 40
3.0
 40
4.0
 40
4.0
 40
4.0
 40
5.0
 40
5.0
 40
5.0
 40
6.0
 40
6.0
 40
6.0
 40
7.0
 40
7.0
 40
7.0
 40
8.0
 40
8.0
 40
8.0
 40
9.0
 40
9.0
 40
9.0
 40
10.0
 40
10.0
 40
10.0
 40
11.0
 40
11.0
 40
11.0
 40
12.0
 40
12.0
 40
12.0
 40
13.0
 40
13.0
 40
13.0
 40
14.0
 40
14.0
 40
14.0
 40
15.0
 40
15.0
 40
15.0
 40
16.0
 40
16.0
 40
16.0
 40
16.0
 10
88.9854383458092
 20
-138.6547579948502
 30
0.0
 10
88.90723467829403
 20
-138.6547579948502
 30
0.0
 10
88.80560436147915
 20
-138.6378770269725
 30
0.0
 10
88.70397404466429
 20
-138.5744872700439
 30
0.0
 10
88.53068574175622
 20
-138.4645887240644
 30
0.0
 10
88.50932614974768
 20
-138.3333305860764
 30
0.0
 10
88.4903781245788
 20
-138.2254990973881
 30
0.0
 10
88.4903781245788
 20
-138.2254990973881
 30
0.0
 10
88.71258678337742
 20
-138.2254990973881
 30
0.0
 10
88.71258678337742
 20
-138.2254990973881
 30
0.0
 10
88.76736380159288
 20
-138.424281106887
 30
0.0
 10
88.8944878249986
 20
-138.4539089280601
 30
0.0
 10
88.98750540310034
 20
-138.4539089280601
 30
0.0
 10
89.12703177025297
 20
-138.4539089280601
 30
0.0
 10
89.27930499070101
 20
-138.3543456685364
 30
0.0
 10
89.27930499070101
 20
-138.1218017232821
 30
0.0
 10
89.27930499070101
 20
-137.865831128728
 30
0.0
 10
89.09947100637098
 20
-137.7958956903774
 30
0.0
 10
88.97889266438723
 20
-137.7958956903774
 30
0.0
 10
88.94719778592292
 20
-137.7958956903774
 30
0.0
 10
88.80560436147915
 20
-137.7958956903774
 30
0.0
 10
88.71672089795972
 20
-137.9250867710743
 30
0.0
 10
88.71672089795972
 20
-137.9250867710743
 30
0.0
 10
88.54102102821197
 20
-137.9061387459054
 30
0.0
 10
88.54102102821197
 20
-137.9061387459054
 30
0.0
 10
88.54102102821197
 20
-137.9061387459054
 30
0.0
 10
88.66159937019572
 20
-137.0596787851795
 30
0.0
 10
88.66159937019572
 20
-137.0596787851795
 30
0.0
 10
88.66159937019572
 20
-137.0596787851795
 30
0.0
 10
89.44019094986218
 20
-137.0596787851795
 30
0.0
 10
89.44019094986218
 20
-137.0596787851795
 30
0.0
 10
89.44019094986218
 20
-137.0596787851795
 30
0.0
 10
89.44019094986218
 20
-137.2543266800961
 30
0.0
 10
89.44019094986218
 20
-137.2543266800961
 30
0.0
 10
89.44019094986218
 20
-137.2543266800961
 30
0.0
 10
88.82455238664804
 20
-137.2543266800961
 30
0.0
 10
88.82455238664804
 20
-137.2543266800961
 30
0.0
 10
88.82455238664804
 20
-137.2543266800961
 30
0.0
 10
88.75909557242828
 20
-137.6773844056848
 30
0.0
 10
88.75909557242828
 20
-137.6773844056848
 30
0.0
 10
88.82041827206574
 20
-137.6436224699294
 30
0.0
 10
88.9027560541632
 20
-137.603314852752
 30
0.0
 10
89.0212673388558
 20
-137.603314852752
 30
0.0
 10
89.27517087611871
 20
-137.603314852752
 30
0.0
 10
89.5121934455039
 20
-137.789694518504
 30
0.0
 10
89.5121934455039
 20
-138.1028536981132
 30
0.0
 10
89.5121934455039
 20
-138.4201469923047
 30
0.0
 10
89.28791772941413
 20
-138.6547579948502
 30
0.0
 10
88.9854383458092
 20
-138.6547579948502
 30
0.0
  0
HATCH
  5
90
330
89
100
AcDbEntity
  8
_U+30EC_U+30A4_U+30E4_U+30FC 1
 62
   179
420
  2234388
100
AcDbHatch
 10
0.0
 20
0.0
 30
0.0
210
0.0
220
0.0
230
1.0
  2
SOLID
 70
     1
 71
     0
 91
        1
 92
        1
 93
        1
 72
     4
 94
        3
 73
     0
 74
     1
 95
       53
 96
       49
 40
0.0
 40
0.0
 40
0.0
 40
0.0
 40
1.0
 40
1.0
 40
1.0
 40
2.0
 40
2.0
 40
2.0
 40
3.0
 40
3.0
 40
3.0
 40
4.0
 40
4.0
 40
4.0
 40
5.0
 40
5.0
 40
5.0
 40
6.0
 40
6.0
 40
6.0
 40
7.0
 40
7.0
 40
7.0
 40
8.0
 40
8.0
 40
8.0
 40
9.0
 40
9.0
 40
9.0
 40
10.0
 40
10.0
 40
10.0
 40
11.0
 40
11.0
 40
11.0
 40
12.0
 40
12.0
 40
12.0
 40
13.0
 40
13.0
 40
13.0
 40
14.0
 40
14.0
 40
14.0
 40
15.0
 40
15.0
 40
15.0
 40
16.0
 40
16.0
 40
16.0
 40
16.0
 10
88.9854383458092
 20
-138.6547579948502
 10
88.90723467829403
 20
-138.6547579948502
 10
88.80560436147915
 20
-138.6378770269725
 10
88.70397404466429
 20
-138.5744872700439
 10
88.53068574175622
 20
-138.4645887240644
 10
88.50932614974768
 20
-138.3333305860764
 10
88.4903781245788
 20
-138.2254990973881
 10
88.4903781245788
 20
-138.2254990973881
 10
88.71258678337742
 20
-138.2254990973881
 10
88.71258678337742
 20
-138.2254990973881
 10
88.76736380159288
 20
-138.424281106887
 10
88.8944878249986
 20
-138.4539089280601
 10
88.98750540310034
 20
-138.4539089280601
 10
89.12703177025297
 20
-138.4539089280601
 10
89.27930499070101
 20
-138.3543456685364
 10
89.27930499070101
 20
-138.1218017232821
 10
89.27930499070101
 20
-137.865831128728
 10
89.09947100637098
 20
-137.7958956903774
 10
88.97889266438723
 20
-137.7958956903774
 10
88.94719778592292
 20
-137.7958956903774
 10
88.80560436147915
 20
-137.7958956903774
 10
88.71672089795972
 20
-137.9250867710743
 10
88.71672089795972
 20
-137.9250867710743
 10
88.54102102821197
 20
-137.9061387459054
 10
88.54102102821197
 20
-137.9061387459054
 10
88.54102102821197
 20
-137.9061387459054
 10
88.66159937019572
 20
-137.0596787851795
 10
88.66159937019572
 20
-137.0596787851795
 10
88.66159937019572
 20
-137.0596787851795
 10
89.44019094986218
 20
-137.0596787851795
 10
89.44019094986218
 20
-137.0596787851795
 10
89.44019094986218
 20
-137.0596787851795
 10
89.44019094986218
 20
-137.2543266800961
 10
89.44019094986218
 20
-137.2543266800961
 10
89.44019094986218
 20
-137.2543266800961
 10
88.82455238664804
 20
-137.2543266800961
 10
88.82455238664804
 20
-137.2543266800961
 10
88.82455238664804
 20
-137.2543266800961
 10
88.75909557242828
 20
-137.6773844056848
 10
88.75909557242828
 20
-137.6773844056848
 10
88.82041827206574
 20
-137.6436224699294
 10
88.9027560541632
 20
-137.603314852752
 10
89.0212673388558
 20
-137.603314852752
 10
89.27517087611871
 20
-137.603314852752
 10
89.5121934455039
 20
-137.789694518504
 10
89.5121934455039
 20
-138.1028536981132
 10
89.5121934455039
 20
-138.4201469923047
 10
89.28791772941413
 20
-138.6547579948502
 10
88.9854383458092
 20
-138.6547579948502
 97
        0
 97
        0
 75
     2
 76
     1
 98
        0
  0
ENDBLK
  5
8C
330
89
100
AcDbEntity
  8
0
100
AcDbBlockEnd
  0
BLOCK
  5
9F
330
9D
100
AcDbEntity
  8
0
100
AcDbBlockBegin
  2
block 3
 70
     0
 10
0.0
 20
0.0
 30
0.0
  3
block 3
  1

  0
SPLINE
  5
A1
330
9D
100
AcDbEntity
  8
_U+30EC_U+30A4_U+30E4_U+30FC 1
370
     0
100
AcDbSpline
210
0.0
220
0.0
230
1.0
 70
    11
 71
     3
 72
    26
 73
    22
 74
     0
 42
0.0000000001
 43
0.0000000001
 12
1.0
 22
0.0
 32
0.0
 13
1.0
 23
0.0
 33
0.0
 40
0.0
 40
0.0
 40
0.0
 40
0.0
 40
1.0
 40
1.0
 40
1.0
 40
2.0
 40
2.0
 40
2.0
 40
3.0
 40
3.0
 40
3.0
 40
4.0
 40
4.0
 40
4.0
 40
5.0
 40
5.0
 40
5.0
 40
6.0
 40
6.0
 40
6.0
 40
7.0
 40
7.0
 40
7.0
 40
7.0
 10
87.7789659068747
 20
-118.6043022706962
 30
0.0
 10
87.7789659068747
 20
-118.6043022706962
 30
0.0
 10
87.7789659068747
 20
-117.5001491676736
 30
0.0
 10
87.7789659068747
 20
-117.5001491676736
 30
0.0
 10
87.7789659068747
 20
-117.5001491676736
 30
0.0
 10
87.44892575938778
 20
-117.5001491676736
 30
0.0
 10
87.44892575938778
 20
-117.5001491676736
 30
0.0
 10
87.44892575938778
 20
-117.5001491676736
 30
0.0
 10
87.44892575938778
 20
-117.3520100618078
 30
0.0
 10
87.44892575938778
 20
-117.3520100618078
 30
0.0
 10
87.78103296416586
 20
-117.3371961512213
 30
0.0
 10
87.82754175321674
 20
-117.1742431347689
 30
0.0
 10
87.85716957438987
 20
-117.0598659646587
 30
0.0
 10
87.85716957438987
 20
-117.0598659646587
 30
0.0
 10
88.00324162296447
 20
-117.0598659646587
 30
0.0
 10
88.00324162296447
 20
-117.0598659646587
 30
0.0
 10
88.00324162296447
 20
-117.0598659646587
 30
0.0
 10
88.00324162296447
 20
-118.6043022706962
 30
0.0
 10
88.00324162296447
 20
-118.6043022706962
 30
0.0
 10
88.00324162296447
 20
-118.6043022706962
 30
0.0
 10
87.7789659068747
 20
-118.6043022706962
 30
0.0
 10
87.7789659068747
 20
-118.6043022706962
 30
0.0
  0
HATCH
  5
A2
330
9D
100
AcDbEntity
  8
_U+30EC_U+30A4_U+30E4_U+30FC 1
 62
   179
420
  2234388
100
AcDbHatch
 10
0.0
 20
0.0
 30
0.0
210
0.0
220
0.0
230
1.0
  2
SOLID
 70
     1
 71
     0
 91
        1
 92
        1
 93
        1
 72
     4
 94
        3
 73
     0
 74
     1
 95
       26
 96
       22
 40
0.0
 40
0.0
 40
0.0
 40
0.0
 40
1.0
 40
1.0
 40
1.0
 40
2.0
 40
2.0
 40
2.0
 40
3.0
 40
3.0
 40
3.0
 40
4.0
 40
4.0
 40
4.0
 40
5.0
 40
5.0
 40
5.0
 40
6.0
 40
6.0
 40
6.0
 40
7.0
 40
7.0
 40
7.0
 40
7.0
 10
87.7789659068747
 20
-118.6043022706962
 10
87.7789659068747
 20
-118.6043022706962
 10
87.7789659068747
 20
-117.5001491676736
 10
87.7789659068747
 20
-117.5001491676736
 10
87.7789659068747
 20
-117.5001491676736
 10
87.44892575938778
 20
-117.5001491676736
 10
87.44892575938778
 20
-117.5001491676736
 10
87.44892575938778
 20
-117.5001491676736
 10
87.44892575938778
 20
-117.3520100618078
 10
87.44892575938778
 20
-117.3520100618078
 10
87.78103296416586
 20
-117.3371961512213
 10
87.82754175321674
 20
-117.1742431347689
 10
87.85716957438987
 20
-117.0598659646587
 10
87.85716957438987
 20
-117.0598659646587
 10
88.00324162296447
 20
-117.0598659646587
 10
88.00324162296447
 20
-117.0598659646587
 10
88.00324162296447
 20
-117.0598659646587
 10
88.00324162296447
 20
-118.6043022706962
 10
88.00324162296447
 20
-118.6043022706962
 10
88.00324162296447
 20
-118.6043022706962
 10
87.7789659068747
 20
-118.6043022706962
 10
87.7789659068747
 20
-118.6043022706962
 97
        0
 97
        0
 75
     2
 76
     1
 98
        0
  0
SPLINE
  5
A3
330
9D
100
AcDbEntity
  8
_U+30EC_U+30A4_U+30E4_U+30FC 1
370
     0
100
AcDbSpline
210
0.0
220
0.0
230
1.0
 70
    11
 71
     3
 72
    44
 73
    40
 74
     0
 42
0.0000000001
 43
0.0000000001
 12
1.0
 22
0.0
 32
0.0
 13
1.0
 23
0.0
 33
0.0
 40
0.0
 40
0.0
 40
0.0
 40
0.0
 40
1.0
 40
1.0
 40
1.0
 40
2.0
 40
2.0
 40
2.0
 40
3.0
 40
3.0
 40
3.0
 40
4.0
 40
4.0
 40
4.0
 40
5.0
 40
5.0
 40
5.0
 40
6.0
 40
6.0
 40
6.0
 40
7.0
 40
7.0
 40
7.0
 40
8.0
 40
8.0
 40
8.0
 40
9.0
 40
9.0
 40
9.0
 40
10.0
 40
10.0
 40
10.0
 40
11.0
 40
11.0
 40
11.0
 40
12.0
 40
12.0
 40
12.0
 40
13.0
 40
13.0
 40
13.0
 40
13.0
 10
89.09740394907982
 20
-118.0224256432375
 30
0.0
 10
88.87967391441202
 20
-118.1812445451075
 30
0.0
 10
88.78665633631029
 20
-118.2553140980403
 30
0.0
 10
88.73773598041974
 20
-118.3989745797753
 30
0.0
 10
88.73773598041974
 20
-118.3989745797753
 30
0.0
 10
89.5163275600862
 20
-118.3989745797753
 30
0.0
 10
89.5163275600862
 20
-118.3989745797753
 30
0.0
 10
89.5163275600862
 20
-118.3989745797753
 30
0.0
 10
89.5163275600862
 20
-118.6043022706962
 30
0.0
 10
89.5163275600862
 20
-118.6043022706962
 30
0.0
 10
89.5163275600862
 20
-118.6043022706962
 30
0.0
 10
88.48831106728765
 20
-118.6043022706962
 30
0.0
 10
88.48831106728765
 20
-118.6043022706962
 30
0.0
 10
88.52000594575195
 20
-118.2467013593272
 30
0.0
 10
88.58546275997169
 20
-118.168497691812
 30
0.0
 10
88.97062443522263
 20
-117.8701524227894
 30
0.0
 10
89.22659502977669
 20
-117.6713704132905
 30
0.0
 10
89.29205184399643
 20
-117.6035020322311
 30
0.0
 10
89.29205184399643
 20
-117.4660427223696
 30
0.0
 10
89.29205184399643
 20
-117.347531437677
 30
0.0
 10
89.22004934835472
 20
-117.2166178092375
 30
0.0
 10
89.02333439614695
 20
-117.2166178092375
 30
0.0
 10
88.76322968701058
 20
-117.2166178092375
 30
0.0
 10
88.75496145784598
 20
-117.4470946972007
 30
0.0
 10
88.75048283371517
 20
-117.5635389246022
 30
0.0
 10
88.75048283371517
 20
-117.5635389246022
 30
0.0
 10
88.52620711762539
 20
-117.5635389246022
 30
0.0
 10
88.52620711762539
 20
-117.5635389246022
 30
0.0
 10
88.53481985633852
 20
-117.4364149011965
 30
0.0
 10
88.5454996523428
 20
-117.3244492979258
 30
0.0
 10
88.62577037714912
 20
-117.2059380132332
 30
0.0
 10
88.73566892312859
 20
-117.0450520540721
 30
0.0
 10
88.9220485888806
 20
-117.0112901183166
 30
0.0
 10
89.03814830673352
 20
-117.0112901183166
 30
0.0
 10
89.31547849329614
 20
-117.0112901183166
 30
0.0
 10
89.52287324150818
 20
-117.195258217229
 30
0.0
 10
89.52287324150818
 20
-117.4681097796608
 30
0.0
 10
89.52287324150818
 20
-117.6968641198813
 30
0.0
 10
89.40642901410673
 20
-117.7960828698565
 30
0.0
 10
89.09740394907982
 20
-118.0224256432375
 30
0.0
  0
HATCH
  5
A4
330
9D
100
AcDbEntity
  8
_U+30EC_U+30A4_U+30E4_U+30FC 1
 62
   179
420
  2234388
100
AcDbHatch
 10
0.0
 20
0.0
 30
0.0
210
0.0
220
0.0
230
1.0
  2
SOLID
 70
     1
 71
     0
 91
        1
 92
        1
 93
        1
 72
     4
 94
        3
 73
     0
 74
     1
 95
       44
 96
       40
 40
0.0
 40
0.0
 40
0.0
 40
0.0
 40
1.0
 40
1.0
 40
1.0
 40
2.0
 40
2.0
 40
2.0
 40
3.0
 40
3.0
 40
3.0
 40
4.0
 40
4.0
 40
4.0
 40
5.0
 40
5.0
 40
5.0
 40
6.0
 40
6.0
 40
6.0
 40
7.0
 40
7.0
 40
7.0
 40
8.0
 40
8.0
 40
8.0
 40
9.0
 40
9.0
 40
9.0
 40
10.0
 40
10.0
 40
10.0
 40
11.0
 40
11.0
 40
11.0
 40
12.0
 40
12.0
 40
12.0
 40
13.0
 40
13.0
 40
13.0
 40
13.0
 10
89.09740394907982
 20
-118.0224256432375
 10
88.87967391441202
 20
-118.1812445451075
 10
88.78665633631029
 20
-118.2553140980403
 10
88.73773598041974
 20
-118.3989745797753
 10
88.73773598041974
 20
-118.3989745797753
 10
89.5163275600862
 20
-118.3989745797753
 10
89.5163275600862
 20
-118.3989745797753
 10
89.5163275600862
 20
-118.3989745797753
 10
89.5163275600862
 20
-118.6043022706962
 10
89.5163275600862
 20
-118.6043022706962
 10
89.5163275600862
 20
-118.6043022706962
 10
88.48831106728765
 20
-118.6043022706962
 10
88.48831106728765
 20
-118.6043022706962
 10
88.52000594575195
 20
-118.2467013593272
 10
88.58546275997169
 20
-118.168497691812
 10
88.97062443522263
 20
-117.8701524227894
 10
89.22659502977669
 20
-117.6713704132905
 10
89.29205184399643
 20
-117.6035020322311
 10
89.29205184399643
 20
-117.4660427223696
 10
89.29205184399643
 20
-117.347531437677
 10
89.22004934835472
 20
-117.2166178092375
 10
89.02333439614695
 20
-117.2166178092375
 10
88.76322968701058
 20
-117.2166178092375
 10
88.75496145784598
 20
-117.4470946972007
 10
88.75048283371517
 20
-117.5635389246022
 10
88.75048283371517
 20
-117.5635389246022
 10
88.52620711762539
 20
-117.5635389246022
 10
88.52620711762539
 20
-117.5635389246022
 10
88.53481985633852
 20
-117.4364149011965
 10
88.5454996523428
 20
-117.3244492979258
 10
88.62577037714912
 20
-117.2059380132332
 10
88.73566892312859
 20
-117.0450520540721
 10
88.9220485888806
 20
-117.0112901183166
 10
89.03814830673352
 20
-117.0112901183166
 10
89.31547849329614
 20
-117.0112901183166
 10
89.52287324150818
 20
-117.195258217229
 10
89.52287324150818
 20
-117.4681097796608
 10
89.52287324150818
 20
-117.6968641198813
 10
89.40642901410673
 20
-117.7960828698565
 10
89.09740394907982
 20
-118.0224256432375
 97
        0
 97
        0
 75
     2
 76
     1
 98
        0
  0
ENDBLK
  5
A0
330
9D
100
AcDbEntity
  8
0
100
AcDbBlockEnd
  0
BLOCK
  5
AF
330
AD
100
AcDbEntity
  8
0
100
AcDbBlockBegin
  2
block 4
 70
     0
 10
0.0
 20
0.0
 30
0.0
  3
block 4
  1

  0
SPLINE
  5
B1
330
AD
100
AcDbEntity
  8
_U+30EC_U+30A4_U+30E4_U+30FC 1
370
     0
100
AcDbSpline
210
0.0
220
0.0
230
1.0
 70
    11
 71
     3
 72
    32
 73
    28
 74
     0
 42
0.0000000001
 43
0.0000000001
 12
1.0
 22
0.0
 32
0.0
 13
1.0
 23
0.0
 33
0.0
 40
0.0
 40
0.0
 40
0.0
 40
0.0
 40
1.0
 40
1.0
 40
1.0
 40
2.0
 40
2.0
 40
2.0
 40
3.0
 40
3.0
 40
3.0
 40
4.0
 40
4.0
 40
4.0
 40
5.0
 40
5.0
 40
5.0
 40
6.0
 40
6.0
 40
6.0
 40
7.0
 40
7.0
 40
7.0
 40
8.0
 40
8.0
 40
8.0
 40
9.0
 40
9.0
 40
9.0
 40
9.0
 10
97.49792478031303
 20
-118.6554619386521
 30
0.0
 10
96.9818494766226
 20
-118.6554619386521
 30
0.0
 10
96.97323673790947
 20
-118.1011460750754
 30
0.0
 10
96.97323673790947
 20
-117.8875501549899
 30
0.0
 10
96.97323673790947
 20
-117.6569010122524
 30
0.0
 10
96.99252927262687
 20
-117.009567570574
 30
0.0
 10
97.53616534019929
 20
-117.009567570574
 30
0.0
 10
97.70945364310737
 20
-117.009567570574
 30
0.0
 10
97.95508895120568
 20
-117.0793307541503
 30
0.0
 10
97.99298500154343
 20
-117.4114379589284
 30
0.0
 10
97.99298500154343
 20
-117.4114379589284
 30
0.0
 10
97.77938908145794
 20
-117.4114379589284
 30
0.0
 10
97.77938908145794
 20
-117.4114379589284
 30
0.0
 10
97.76870928545367
 20
-117.3544216286475
 30
0.0
 10
97.73701440698936
 20
-117.2062825227818
 30
0.0
 10
97.53409828290815
 20
-117.2062825227818
 30
0.0
 10
97.24195418575896
 20
-117.2062825227818
 30
0.0
 10
97.20199107813006
 20
-117.5342556129775
 30
0.0
 10
97.18924422483464
 20
-117.7394110491242
 30
0.0
 10
97.28226180293639
 20
-117.661207381609
 30
0.0
 10
97.3501301839958
 20
-117.6019517392627
 30
0.0
 10
97.53203122561699
 20
-117.6019517392627
 30
0.0
 10
97.71186520994704
 20
-117.6019517392627
 30
0.0
 10
98.01434459355197
 20
-117.709783227951
 30
0.0
 10
98.01434459355197
 20
-118.115959985662
 30
0.0
 10
98.01434459355197
 20
-118.4354925919189
 30
0.0
 10
97.81521807450453
 20
-118.6554619386521
 30
0.0
 10
97.49792478031303
 20
-118.6554619386521
 30
0.0
  0
SPLINE
  5
B2
330
AD
100
AcDbEntity
  8
_U+30EC_U+30A4_U+30E4_U+30FC 1
370
     0
100
AcDbSpline
210
0.0
220
0.0
230
1.0
 70
    11
 71
     3
 72
    17
 73
    13
 74
     0
 42
0.0000000001
 43
0.0000000001
 12
1.0
 22
0.0
 32
0.0
 13
1.0
 23
0.0
 33
0.0
 40
0.0
 40
0.0
 40
0.0
 40
0.0
 40
1.0
 40
1.0
 40
1.0
 40
2.0
 40
2.0
 40
2.0
 40
3.0
 40
3.0
 40
3.0
 40
4.0
 40
4.0
 40
4.0
 40
4.0
 10
97.51480574819075
 20
-117.7965996341793
 30
0.0
 10
97.25263398176324
 20
-117.7965996341793
 30
0.0
 10
97.21473793142549
 20
-118.0081284969737
 30
0.0
 10
97.21473793142549
 20
-118.1244004696008
 30
0.0
 10
97.21473793142549
 20
-118.3001003393486
 30
0.0
 10
97.30982256681838
 20
-118.4628811010267
 30
0.0
 10
97.49379066573073
 20
-118.4628811010267
 30
0.0
 10
97.61436900771447
 20
-118.4628811010267
 30
0.0
 10
97.7900688774622
 20
-118.4036254586804
 30
0.0
 10
97.7900688774622
 20
-118.1180270429531
 30
0.0
 10
97.7900688774622
 20
-117.8939235816376
 30
0.0
 10
97.65054251030959
 20
-117.7965996341793
 30
0.0
 10
97.51480574819075
 20
-117.7965996341793
 30
0.0
  0
HATCH
  5
B3
330
AD
100
AcDbEntity
  8
_U+30EC_U+30A4_U+30E4_U+30FC 1
 62
   179
420
  2234388
100
AcDbHatch
 10
0.0
 20
0.0
 30
0.0
210
0.0
220
0.0
230
1.0
  2
SOLID
 70
     1
 71
     0
 91
        2
 92
        1
 93
        1
 72
     4
 94
        3
 73
     0
 74
     1
 95
       32
 96
       28
 40
0.0
 40
0.0
 40
0.0
 40
0.0
 40
1.0
 40
1.0
 40
1.0
 40
2.0
 40
2.0
 40
2.0
 40
3.0
 40
3.0
 40
3.0
 40
4.0
 40
4.0
 40
4.0
 40
5.0
 40
5.0
 40
5.0
 40
6.0
 40
6.0
 40
6.0
 40
7.0
 40
7.0
 40
7.0
 40
8.0
 40
8.0
 40
8.0
 40
9.0
 40
9.0
 40
9.0
 40
9.0
 10
97.49792478031303
 20
-118.6554619386521
 10
96.9818494766226
 20
-118.6554619386521
 10
96.97323673790947
 20
-118.1011460750754
 10
96.97323673790947
 20
-117.8875501549899
 10
96.97323673790947
 20
-117.6569010122524
 10
96.99252927262687
 20
-117.009567570574
 10
97.53616534019929
 20
-117.009567570574
 10
97.70945364310737
 20
-117.009567570574
 10
97.95508895120568
 20
-117.0793307541503
 10
97.99298500154343
 20
-117.4114379589284
 10
97.99298500154343
 20
-117.4114379589284
 10
97.77938908145794
 20
-117.4114379589284
 10
97.77938908145794
 20
-117.4114379589284
 10
97.76870928545367
 20
-117.3544216286475
 10
97.73701440698936
 20
-117.2062825227818
 10
97.53409828290815
 20
-117.2062825227818
 10
97.24195418575896
 20
-117.2062825227818
 10
97.20199107813006
 20
-117.5342556129775
 10
97.18924422483464
 20
-117.7394110491242
 10
97.28226180293639
 20
-117.661207381609
 10
97.3501301839958
 20
-117.6019517392627
 10
97.53203122561699
 20
-117.6019517392627
 10
97.71186520994704
 20
-117.6019517392627
 10
98.01434459355197
 20
-117.709783227951
 10
98.01434459355197
 20
-118.115959985662
 10
98.01434459355197
 20
-118.4354925919189
 10
97.81521807450453
 20
-118.6554619386521
 10
97.49792478031303
 20
-118.6554619386521
 97
        0
 97
        0
 92
        1
 93
        1
 72
     4
 94
        3
 73
     0
 74
     1
 95
       17
 96
       13
 40
0.0
 40
0.0
 40
0.0
 40
0.0
 40
1.0
 40
1.0
 40
1.0
 40
2.0
 40
2.0
 40
2.0
 40
3.0
 40
3.0
 40
3.0
 40
4.0
 40
4.0
 40
4.0
 40
4.0
 10
97.51480574819075
 20
-117.7965996341793
 10
97.25263398176324
 20
-117.7965996341793
 10
97.21473793142549
 20
-118.0081284969737
 10
97.21473793142549
 20
-118.1244004696008
 10
97.21473793142549
 20
-118.3001003393486
 10
97.30982256681838
 20
-118.4628811010267
 10
97.49379066573073
 20
-118.4628811010267
 10
97.61436900771447
 20
-118.4628811010267
 10
97.7900688774622
 20
-118.4036254586804
 10
97.7900688774622
 20
-118.1180270429531
 10
97.7900688774622
 20
-117.8939235816376
 10
97.65054251030959
 20
-117.7965996341793
 10
97.51480574819075
 20
-117.7965996341793
 97
        0
 97
        0
 75
     2
 76
     1
 98
        0
  0
ENDBLK
  5
B0
330
AD
100
AcDbEntity
  8
0
100
AcDbBlockEnd
  0
BLOCK
  5
BE
330
BC
100
AcDbEntity
  8
0
100
AcDbBlockBegin
  2
block 5
 70
     0
 10
0.0
 20
0.0
 30
0.0
  3
block 5
  1

  0
SPLINE
  5
C0
330
BC
100
AcDbEntity
  8
_U+30EC_U+30A4_U+30E4_U+30FC 1
370
     0
100
AcDbSpline
210
0.0
220
0.0
230
1.0
 70
    11
 71
     3
 72
    32
 73
    28
 74
     0
 42
0.0000000001
 43
0.0000000001
 12
1.0
 22
0.0
 32
0.0
 13
1.0
 23
0.0
 33
0.0
 40
0.0
 40
0.0
 40
0.0
 40
0.0
 40
1.0
 40
1.0
 40
1.0
 40
2.0
 40
2.0
 40
2.0
 40
3.0
 40
3.0
 40
3.0
 40
4.0
 40
4.0
 40
4.0
 40
5.0
 40
5.0
 40
5.0
 40
6.0
 40
6.0
 40
6.0
 40
7.0
 40
7.0
 40
7.0
 40
8.0
 40
8.0
 40
8.0
 40
9.0
 40
9.0
 40
9.0
 40
9.0
 10
79.4983343985282
 20
-118.6554619386521
 30
0.0
 10
78.98208684006352
 20
-118.6554619386521
 30
0.0
 10
78.97364635612465
 20
-118.1011460750754
 30
0.0
 10
78.97364635612465
 20
-117.8875501549899
 30
0.0
 10
78.97364635612465
 20
-117.6569010122524
 30
0.0
 10
78.99276663606778
 20
-117.009567570574
 30
0.0
 10
79.5364027036402
 20
-117.009567570574
 30
0.0
 10
79.70986326132254
 20
-117.009567570574
 30
0.0
 10
79.95515405987233
 20
-117.0793307541503
 30
0.0
 10
79.9933946197586
 20
-117.4114379589284
 30
0.0
 10
79.9933946197586
 20
-117.4114379589284
 30
0.0
 10
79.77962644489885
 20
-117.4114379589284
 30
0.0
 10
79.77962644489885
 20
-117.4114379589284
 30
0.0
 10
79.76911890366884
 20
-117.3544216286475
 30
0.0
 10
79.73742402520453
 20
-117.2062825227818
 30
0.0
 10
79.53433564634906
 20
-117.2062825227818
 30
0.0
 10
79.24236380397413
 20
-117.2062825227818
 30
0.0
 10
79.20205618679671
 20
-117.5342556129775
 30
0.0
 10
79.18948158827556
 20
-117.7394110491242
 30
0.0
 10
79.28249916637729
 20
-117.661207381609
 30
0.0
 10
79.35019529266245
 20
-117.6019517392627
 30
0.0
 10
79.53209633428365
 20
-117.6019517392627
 30
0.0
 10
79.71193031861368
 20
-117.6019517392627
 30
0.0
 10
80.01440970221863
 20
-117.709783227951
 30
0.0
 10
80.01440970221863
 20
-118.115959985662
 30
0.0
 10
80.01440970221863
 20
-118.4354925919189
 30
0.0
 10
79.8156276927197
 20
-118.6554619386521
 30
0.0
 10
79.4983343985282
 20
-118.6554619386521
 30
0.0
  0
SPLINE
  5
C1
330
BC
100
AcDbEntity
  8
_U+30EC_U+30A4_U+30E4_U+30FC 1
370
     0
100
AcDbSpline
210
0.0
220
0.0
230
1.0
 70
    11
 71
     3
 72
    17
 73
    13
 74
     0
 42
0.0000000001
 43
0.0000000001
 12
1.0
 22
0.0
 32
0.0
 13
1.0
 23
0.0
 33
0.0
 40
0.0
 40
0.0
 40
0.0
 40
0.0
 40
1.0
 40
1.0
 40
1.0
 40
2.0
 40
2.0
 40
2.0
 40
3.0
 40
3.0
 40
3.0
 40
4.0
 40
4.0
 40
4.0
 40
4.0
 10
79.51521536640593
 20
-117.7965996341793
 30
0.0
 10
79.25287134520414
 20
-117.7965996341793
 30
0.0
 10
79.21480304009214
 20
-118.0081284969737
 30
0.0
 10
79.21480304009214
 20
-118.1244004696008
 30
0.0
 10
79.21480304009214
 20
-118.3001003393486
 30
0.0
 10
79.3100599302593
 20
-118.4628811010267
 30
0.0
 10
79.49402802917163
 20
-118.4628811010267
 30
0.0
 10
79.61460637115538
 20
-118.4628811010267
 30
0.0
 10
79.79030624090312
 20
-118.4036254586804
 30
0.0
 10
79.79030624090312
 20
-118.1180270429531
 30
0.0
 10
79.79030624090312
 20
-117.8939235816376
 30
0.0
 10
79.65060761897624
 20
-117.7965996341793
 30
0.0
 10
79.51521536640593
 20
-117.7965996341793
 30
0.0
  0
HATCH
  5
C2
330
BC
100
AcDbEntity
  8
_U+30EC_U+30A4_U+30E4_U+30FC 1
 62
   179
420
  2234388
100
AcDbHatch
 10
0.0
 20
0.0
 30
0.0
210
0.0
220
0.0
230
1.0
  2
SOLID
 70
     1
 71
     0
 91
        2
 92
        1
 93
        1
 72
     4
 94
        3
 73
     0
 74
     1
 95
       32
 96
       28
 40
0.0
 40
0.0
 40
0.0
 40
0.0
 40
1.0
 40
1.0
 40
1.0
 40
2.0
 40
2.0
 40
2.0
 40
3.0
 40
3.0
 40
3.0
 40
4.0
 40
4.0
 40
4.0
 40
5.0
 40
5.0
 40
5.0
 40
6.0
 40
6.0
 40
6.0
 40
7.0
 40
7.0
 40
7.0
 40
8.0
 40
8.0
 40
8.0
 40
9.0
 40
9.0
 40
9.0
 40
9.0
 10
79.4983343985282
 20
-118.6554619386521
 10
78.98208684006352
 20
-118.6554619386521
 10
78.97364635612465
 20
-118.1011460750754
 10
78.97364635612465
 20
-117.8875501549899
 10
78.97364635612465
 20
-117.6569010122524
 10
78.99276663606778
 20
-117.009567570574
 10
79.5364027036402
 20
-117.009567570574
 10
79.70986326132254
 20
-117.009567570574
 10
79.95515405987233
 20
-117.0793307541503
 10
79.9933946197586
 20
-117.4114379589284
 10
79.9933946197586
 20
-117.4114379589284
 10
79.77962644489885
 20
-117.4114379589284
 10
79.77962644489885
 20
-117.4114379589284
 10
79.76911890366884
 20
-117.3544216286475
 10
79.73742402520453
 20
-117.2062825227818
 10
79.53433564634906
 20
-117.2062825227818
 10
79.24236380397413
 20
-117.2062825227818
 10
79.20205618679671
 20
-117.5342556129775
 10
79.18948158827556
 20
-117.7394110491242
 10
79.28249916637729
 20
-117.661207381609
 10
79.35019529266245
 20
-117.6019517392627
 10
79.53209633428365
 20
-117.6019517392627
 10
79.71193031861368
 20
-117.6019517392627
 10
80.01440970221863
 20
-117.709783227951
 10
80.01440970221863
 20
-118.115959985662
 10
80.01440970221863
 20
-118.4354925919189
 10
79.8156276927197
 20
-118.6554619386521
 10
79.4983343985282
 20
-118.6554619386521
 97
        0
 97
        0
 92
        1
 93
        1
 72
     4
 94
        3
 73
     0
 74
     1
 95
       17
 96
       13
 40
0.0
 40
0.0
 40
0.0
 40
0.0
 40
1.0
 40
1.0
 40
1.0
 40
2.0
 40
2.0
 40
2.0
 40
3.0
 40
3.0
 40
3.0
 40
4.0
 40
4.0
 40
4.0
 40
4.0
 10
79.51521536640593
 20
-117.7965996341793
 10
79.25287134520414
 20
-117.7965996341793
 10
79.21480304009214
 20
-118.0081284969737
 10
79.21480304009214
 20
-118.1244004696008
 10
79.21480304009214
 20
-118.3001003393486
 10
79.3100599302593
 20
-118.4628811010267
 10
79.49402802917163
 20
-118.4628811010267
 10
79.61460637115538
 20
-118.4628811010267
 10
79.79030624090312
 20
-118.4036254586804
 10
79.79030624090312
 20
-118.1180270429531
 10
79.79030624090312
 20
-117.8939235816376
 10
79.65060761897624
 20
-117.7965996341793
 10
79.51521536640593
 20
-117.7965996341793
 97
        0
 97
        0
 75
     2
 76
     1
 98
        0
  0
ENDBLK
  5
BF
330
BC
100
AcDbEntity
  8
0
100
AcDbBlockEnd
  0
BLOCK
  5
D1
330
CF
100
AcDbEntity
  8
0
100
AcDbBlockBegin
  2
block 6
 70
     0
 10
0.0
 20
0.0
 30
0.0
  3
block 6
  1

  0
SPLINE
  5
D3
330
CF
100
AcDbEntity
  8
_U+30EC_U+30A4_U+30E4_U+30FC 1
370
     0
100
AcDbSpline
210
0.0
220
0.0
230
1.0
 70
    11
 71
     3
 72
    26
 73
    22
 74
     0
 42
0.0000000001
 43
0.0000000001
 12
1.0
 22
0.0
 32
0.0
 13
1.0
 23
0.0
 33
0.0
 40
0.0
 40
0.0
 40
0.0
 40
0.0
 40
1.0
 40
1.0
 40
1.0
 40
2.0
 40
2.0
 40
2.0
 40
3.0
 40
3.0
 40
3.0
 40
4.0
 40
4.0
 40
4.0
 40
5.0
 40
5.0
 40
5.0
 40
6.0
 40
6.0
 40
6.0
 40
7.0
 40
7.0
 40
7.0
 40
7.0
 10
109.3959065481719
 20
-129.9131727105773
 30
0.0
 10
109.3959065481719
 20
-129.9131727105773
 30
0.0
 10
108.2917534451493
 20
-129.9131727105773
 30
0.0
 10
108.2917534451493
 20
-129.9131727105773
 30
0.0
 10
108.2917534451493
 20
-129.9131727105773
 30
0.0
 10
108.2917534451493
 20
-130.2432128580642
 30
0.0
 10
108.2917534451493
 20
-130.2432128580642
 30
0.0
 10
108.2917534451493
 20
-130.2432128580642
 30
0.0
 10
108.1436143392835
 20
-130.2432128580642
 30
0.0
 10
108.1436143392835
 20
-130.2432128580642
 30
0.0
 10
108.128800428697
 20
-129.9111056532861
 30
0.0
 10
107.9658474122447
 20
-129.8645968642352
 30
0.0
 10
107.8514702421344
 20
-129.8349690430621
 30
0.0
 10
107.8514702421344
 20
-129.8349690430621
 30
0.0
 10
107.8514702421344
 20
-129.6888969944875
 30
0.0
 10
107.8514702421344
 20
-129.6888969944875
 30
0.0
 10
107.8514702421344
 20
-129.6888969944875
 30
0.0
 10
109.3959065481719
 20
-129.6888969944875
 30
0.0
 10
109.3959065481719
 20
-129.6888969944875
 30
0.0
 10
109.3959065481719
 20
-129.6888969944875
 30
0.0
 10
109.3959065481719
 20
-129.9131727105773
 30
0.0
 10
109.3959065481719
 20
-129.9131727105773
 30
0.0
  0
HATCH
  5
D4
330
CF
100
AcDbEntity
  8
_U+30EC_U+30A4_U+30E4_U+30FC 1
 62
   179
420
  2234388
100
AcDbHatch
 10
0.0
 20
0.0
 30
0.0
210
0.0
220
0.0
230
1.0
  2
SOLID
 70
     1
 71
     0
 91
        1
 92
        1
 93
        1
 72
     4
 94
        3
 73
     0
 74
     1
 95
       26
 96
       22
 40
0.0
 40
0.0
 40
0.0
 40
0.0
 40
1.0
 40
1.0
 40
1.0
 40
2.0
 40
2.0
 40
2.0
 40
3.0
 40
3.0
 40
3.0
 40
4.0
 40
4.0
 40
4.0
 40
5.0
 40
5.0
 40
5.0
 40
6.0
 40
6.0
 40
6.0
 40
7.0
 40
7.0
 40
7.0
 40
7.0
 10
109.3959065481719
 20
-129.9131727105773
 10
109.3959065481719
 20
-129.9131727105773
 10
108.2917534451493
 20
-129.9131727105773
 10
108.2917534451493
 20
-129.9131727105773
 10
108.2917534451493
 20
-129.9131727105773
 10
108.2917534451493
 20
-130.2432128580642
 10
108.2917534451493
 20
-130.2432128580642
 10
108.2917534451493
 20
-130.2432128580642
 10
108.1436143392835
 20
-130.2432128580642
 10
108.1436143392835
 20
-130.2432128580642
 10
108.128800428697
 20
-129.9111056532861
 10
107.9658474122447
 20
-129.8645968642352
 10
107.8514702421344
 20
-129.8349690430621
 10
107.8514702421344
 20
-129.8349690430621
 10
107.8514702421344
 20
-129.6888969944875
 10
107.8514702421344
 20
-129.6888969944875
 10
107.8514702421344
 20
-129.6888969944875
 10
109.3959065481719
 20
-129.6888969944875
 10
109.3959065481719
 20
-129.6888969944875
 10
109.3959065481719
 20
-129.6888969944875
 10
109.3959065481719
 20
-129.9131727105773
 10
109.3959065481719
 20
-129.9131727105773
 97
        0
 97
        0
 75
     2
 76
     1
 98
        0
  0
SPLINE
  5
D5
330
CF
100
AcDbEntity
  8
_U+30EC_U+30A4_U+30E4_U+30FC 1
370
     0
100
AcDbSpline
210
0.0
220
0.0
230
1.0
 70
    11
 71
     3
 72
    29
 73
    25
 74
     0
 42
0.0000000001
 43
0.0000000001
 12
1.0
 22
0.0
 32
0.0
 13
1.0
 23
0.0
 33
0.0
 40
0.0
 40
0.0
 40
0.0
 40
0.0
 40
1.0
 40
1.0
 40
1.0
 40
2.0
 40
2.0
 40
2.0
 40
3.0
 40
3.0
 40
3.0
 40
4.0
 40
4.0
 40
4.0
 40
5.0
 40
5.0
 40
5.0
 40
6.0
 40
6.0
 40
6.0
 40
7.0
 40
7.0
 40
7.0
 40
8.0
 40
8.0
 40
8.0
 40
8.0
 10
109.218139621133
 20
-128.2898437179275
 30
0.0
 10
109.4276014266362
 20
-128.3980197161644
 30
0.0
 10
109.446549451805
 20
-128.5713080190725
 30
0.0
 10
109.446549451805
 20
-128.6877522464739
 30
0.0
 10
109.446549451805
 20
-128.8486382056351
 30
0.0
 10
109.4000406627542
 20
-128.9902316300788
 30
0.0
 10
109.218139621133
 20
-129.0853162654717
 30
0.0
 10
109.0234917262163
 20
-129.1890136395778
 30
0.0
 10
108.7868136663797
 20
-129.2083061742952
 30
0.0
 10
108.6238606499274
 20
-129.2083061742952
 30
0.0
 10
108.4798556586439
 20
-129.2083061742952
 30
0.0
 10
108.2280191786722
 20
-129.1910806968689
 30
0.0
 10
108.0292371691733
 20
-129.0853162654717
 30
0.0
 10
107.826321045092
 20
-128.9774847767834
 30
0.0
 10
107.8028943957923
 20
-128.8165988176222
 30
0.0
 10
107.8028943957923
 20
-128.6877522464739
 30
0.0
 10
107.8028943957923
 20
-128.5289333446039
 30
0.0
 10
107.8473361275521
 20
-128.385272862869
 30
0.0
 10
108.0292371691733
 20
-128.2898437179275
 30
0.0
 10
108.2218180067987
 20
-128.1906249679523
 30
0.0
 10
108.4502278374708
 20
-128.1671983186527
 30
0.0
 10
108.6238606499274
 20
-128.1671983186527
 30
0.0
 10
108.7950818955443
 20
-128.1671983186527
 30
0.0
 10
109.0255587835075
 20
-128.1885579106612
 30
0.0
 10
109.218139621133
 20
-128.2898437179275
 30
0.0
  0
SPLINE
  5
D6
330
CF
100
AcDbEntity
  8
_U+30EC_U+30A4_U+30E4_U+30FC 1
370
     0
100
AcDbSpline
210
0.0
220
0.0
230
1.0
 70
    11
 71
     3
 72
    17
 73
    13
 74
     0
 42
0.0000000001
 43
0.0000000001
 12
1.0
 22
0.0
 32
0.0
 13
1.0
 23
0.0
 33
0.0
 40
0.0
 40
0.0
 40
0.0
 40
0.0
 40
1.0
 40
1.0
 40
1.0
 40
2.0
 40
2.0
 40
2.0
 40
3.0
 40
3.0
 40
3.0
 40
4.0
 40
4.0
 40
4.0
 40
4.0
 10
107.9954752334178
 20
-128.6877522464739
 30
0.0
 10
107.9954752334178
 20
-128.9375216691545
 30
0.0
 10
108.2790065918539
 20
-128.9840304582054
 30
0.0
 10
108.6238606499274
 20
-128.9840304582054
 30
0.0
 10
108.94322100141
 20
-128.9840304582054
 30
0.0
 10
109.2519015568884
 20
-128.9478569556103
 30
0.0
 10
109.2519015568884
 20
-128.6877522464739
 30
0.0
 10
109.2519015568884
 20
-128.4400498810844
 30
0.0
 10
108.970781765292
 20
-128.3914740347424
 30
0.0
 10
108.6238606499274
 20
-128.3914740347424
 30
0.0
 10
108.3041557888962
 20
-128.3914740347424
 30
0.0
 10
107.9954752334178
 20
-128.4297145946287
 30
0.0
 10
107.9954752334178
 20
-128.6877522464739
 30
0.0
  0
HATCH
  5
D7
330
CF
100
AcDbEntity
  8
_U+30EC_U+30A4_U+30E4_U+30FC 1
 62
   179
420
  2234388
100
AcDbHatch
 10
0.0
 20
0.0
 30
0.0
210
0.0
220
0.0
230
1.0
  2
SOLID
 70
     1
 71
     0
 91
        2
 92
        1
 93
        1
 72
     4
 94
        3
 73
     0
 74
     1
 95
       29
 96
       25
 40
0.0
 40
0.0
 40
0.0
 40
0.0
 40
1.0
 40
1.0
 40
1.0
 40
2.0
 40
2.0
 40
2.0
 40
3.0
 40
3.0
 40
3.0
 40
4.0
 40
4.0
 40
4.0
 40
5.0
 40
5.0
 40
5.0
 40
6.0
 40
6.0
 40
6.0
 40
7.0
 40
7.0
 40
7.0
 40
8.0
 40
8.0
 40
8.0
 40
8.0
 10
109.218139621133
 20
-128.2898437179275
 10
109.4276014266362
 20
-128.3980197161644
 10
109.446549451805
 20
-128.5713080190725
 10
109.446549451805
 20
-128.6877522464739
 10
109.446549451805
 20
-128.8486382056351
 10
109.4000406627542
 20
-128.9902316300788
 10
109.218139621133
 20
-129.0853162654717
 10
109.0234917262163
 20
-129.1890136395778
 10
108.7868136663797
 20
-129.2083061742952
 10
108.6238606499274
 20
-129.2083061742952
 10
108.4798556586439
 20
-129.2083061742952
 10
108.2280191786722
 20
-129.1910806968689
 10
108.0292371691733
 20
-129.0853162654717
 10
107.826321045092
 20
-128.9774847767834
 10
107.8028943957923
 20
-128.8165988176222
 10
107.8028943957923
 20
-128.6877522464739
 10
107.8028943957923
 20
-128.5289333446039
 10
107.8473361275521
 20
-128.385272862869
 10
108.0292371691733
 20
-128.2898437179275
 10
108.2218180067987
 20
-128.1906249679523
 10
108.4502278374708
 20
-128.1671983186527
 10
108.6238606499274
 20
-128.1671983186527
 10
108.7950818955443
 20
-128.1671983186527
 10
109.0255587835075
 20
-128.1885579106612
 10
109.218139621133
 20
-128.2898437179275
 97
        0
 97
        0
 92
        1
 93
        1
 72
     4
 94
        3
 73
     0
 74
     1
 95
       17
 96
       13
 40
0.0
 40
0.0
 40
0.0
 40
0.0
 40
1.0
 40
1.0
 40
1.0
 40
2.0
 40
2.0
 40
2.0
 40
3.0
 40
3.0
 40
3.0
 40
4.0
 40
4.0
 40
4.0
 40
4.0
 10
107.9954752334178
 20
-128.6877522464739
 10
107.9954752334178
 20
-128.9375216691545
 10
108.2790065918539
 20
-128.9840304582054
 10
108.6238606499274
 20
-128.9840304582054
 10
108.94322100141
 20
-128.9840304582054
 10
109.2519015568884
 20
-128.9478569556103
 10
109.2519015568884
 20
-128.6877522464739
 10
109.2519015568884
 20
-128.4400498810844
 10
108.970781765292
 20
-128.3914740347424
 10
108.6238606499274
 20
-128.3914740347424
 10
108.3041557888962
 20
-128.3914740347424
 10
107.9954752334178
 20
-128.4297145946287
 10
107.9954752334178
 20
-128.6877522464739
 97
        0
 97
        0
 75
     2
 76
     1
 98
        0
  0
ENDBLK
  5
D2
330
CF
100
AcDbEntity
  8
0
100
AcDbBlockEnd
  0
BLOCK
  5
DC
330
DA
100
AcDbEntity
  8
0
100
AcDbBlockBegin
  2
block 7
 70
     0
 10
0.0
 20
0.0
 30
0.0
  3
block 7
  1

  0
INSERT
  5
DF
330
DA
100
AcDbEntity
  8
_U+30EC_U+30A4_U+30E4_U+30FC 1
100
AcDbBlockReference
  2
block 8
 10
0.0
 20
0.0
 30
0.0
  0
POLYLINE
  5
E4
330
DA
100
AcDbEntity
  8
_U+30EC_U+30A4_U+30E4_U+30FC 1
 62
   179
420
  2234388
370
     9
100
AcDb2dPolyline
 66
     1
 10
0.0
 20
0.0
 30
0.0
  0
VERTEX
  5
E5
330
E4
100
AcDbEntity
  8
_U+30EC_U+30A4_U+30E4_U+30FC 1
 62
   179
420
  2234388
370
     9
100
AcDbVertex
100
AcDb2dVertex
 10
84.41188840202886
 20
-129.1525088566007
 30
0.0
  0
VERTEX
  5
E6
330
E4
100
AcDbEntity
  8
_U+30EC_U+30A4_U+30E4_U+30FC 1
 62
   179
420
  2234388
370
     9
100
AcDbVertex
100
AcDb2dVertex
 10
80.57268053541254
 20
-129.1525088566007
 30
0.0
  0
SEQEND
  5
E7
330
E4
100
AcDbEntity
  8
_U+30EC_U+30A4_U+30E4_U+30FC 1
 62
   179
420
  2234388
370
     9
  0
ENDBLK
  5
DD
330
DA
100
AcDbEntity
  8
0
100
AcDbBlockEnd
  0
BLOCK
  5
E0
330
DE
100
AcDbEntity
  8
0
100
AcDbBlockBegin
  2
block 8
 70
     0
 10
0.0
 20
0.0
 30
0.0
  3
block 8
  1

  0
SPLINE
  5
E2
330
DE
100
AcDbEntity
  8
_U+30EC_U+30A4_U+30E4_U+30FC 1
370
     0
100
AcDbSpline
210
0.0
220
0.0
230
1.0
 70
    11
 71
     3
 72
    26
 73
    22
 74
     0
 42
0.0000000001
 43
0.0000000001
 12
1.0
 22
0.0
 32
0.0
 13
1.0
 23
0.0
 33
0.0
 40
0.0
 40
0.0
 40
0.0
 40
0.0
 40
1.0
 40
1.0
 40
1.0
 40
2.0
 40
2.0
 40
2.0
 40
3.0
 40
3.0
 40
3.0
 40
4.0
 40
4.0
 40
4.0
 40
5.0
 40
5.0
 40
5.0
 40
6.0
 40
6.0
 40
6.0
 40
7.0
 40
7.0
 40
7.0
 40
7.0
 10
83.84415009839661
 20
-128.5635565542306
 30
0.0
 10
83.84415009839661
 20
-128.5635565542306
 30
0.0
 10
83.84415009839661
 20
-127.4592311964338
 30
0.0
 10
83.84415009839661
 20
-127.4592311964338
 30
0.0
 10
83.84415009839661
 20
-127.4592311964338
 30
0.0
 10
83.51410995090967
 20
-127.4592311964338
 30
0.0
 10
83.51410995090967
 20
-127.4592311964338
 30
0.0
 10
83.51410995090967
 20
-127.4592311964338
 30
0.0
 10
83.51410995090967
 20
-127.3110920905681
 30
0.0
 10
83.51410995090967
 20
-127.3110920905681
 30
0.0
 10
83.84621715568775
 20
-127.2964504347558
 30
0.0
 10
83.89272594473863
 20
-127.1334974183034
 30
0.0
 10
83.92235376591178
 20
-127.0192925029674
 30
0.0
 10
83.92235376591178
 20
-127.0192925029674
 30
0.0
 10
84.06842581448637
 20
-127.0192925029674
 30
0.0
 10
84.06842581448637
 20
-127.0192925029674
 30
0.0
 10
84.06842581448637
 20
-127.0192925029674
 30
0.0
 10
84.06842581448637
 20
-128.5635565542306
 30
0.0
 10
84.06842581448637
 20
-128.5635565542306
 30
0.0
 10
84.06842581448637
 20
-128.5635565542306
 30
0.0
 10
83.84415009839661
 20
-128.5635565542306
 30
0.0
 10
83.84415009839661
 20
-128.5635565542306
 30
0.0
  0
HATCH
  5
E3
330
DE
100
AcDbEntity
  8
_U+30EC_U+30A4_U+30E4_U+30FC 1
 62
   179
420
  2234388
100
AcDbHatch
 10
0.0
 20
0.0
 30
0.0
210
0.0
220
0.0
230
1.0
  2
SOLID
 70
     1
 71
     0
 91
        1
 92
        1
 93
        1
 72
     4
 94
        3
 73
     0
 74
     1
 95
       26
 96
       22
 40
0.0
 40
0.0
 40
0.0
 40
0.0
 40
1.0
 40
1.0
 40
1.0
 40
2.0
 40
2.0
 40
2.0
 40
3.0
 40
3.0
 40
3.0
 40
4.0
 40
4.0
 40
4.0
 40
5.0
 40
5.0
 40
5.0
 40
6.0
 40
6.0
 40
6.0
 40
7.0
 40
7.0
 40
7.0
 40
7.0
 10
83.84415009839661
 20
-128.5635565542306
 10
83.84415009839661
 20
-128.5635565542306
 10
83.84415009839661
 20
-127.4592311964338
 10
83.84415009839661
 20
-127.4592311964338
 10
83.84415009839661
 20
-127.4592311964338
 10
83.51410995090967
 20
-127.4592311964338
 10
83.51410995090967
 20
-127.4592311964338
 10
83.51410995090967
 20
-127.4592311964338
 10
83.51410995090967
 20
-127.3110920905681
 10
83.51410995090967
 20
-127.3110920905681
 10
83.84621715568775
 20
-127.2964504347558
 10
83.89272594473863
 20
-127.1334974183034
 10
83.92235376591178
 20
-127.0192925029674
 10
83.92235376591178
 20
-127.0192925029674
 10
84.06842581448637
 20
-127.0192925029674
 10
84.06842581448637
 20
-127.0192925029674
 10
84.06842581448637
 20
-127.0192925029674
 10
84.06842581448637
 20
-128.5635565542306
 10
84.06842581448637
 20
-128.5635565542306
 10
84.06842581448637
 20
-128.5635565542306
 10
83.84415009839661
 20
-128.5635565542306
 10
83.84415009839661
 20
-128.5635565542306
 97
        0
 97
        0
 75
     2
 76
     1
 98
        0
  0
ENDBLK
  5
E1
330
DE
100
AcDbEntity
  8
0
100
AcDbBlockEnd
  0
ENDSEC
  0
SECTION
  2
ENTITIES
  0
POLYLINE
  5
41
330
1F
100
AcDbEntity
  8
_U+30EC_U+30A4_U+30E4_U+30FC 1
 62
   179
420
  2234388
370
    25
100
AcDb2dPolyline
 66
     1
 10
0.0
 20
0.0
 30
0.0
  0
VERTEX
  5
42
330
41
100
AcDbEntity
  8
_U+30EC_U+30A4_U+30E4_U+30FC 1
 62
   179
420
  2234388
370
    25
100
AcDbVertex
100
AcDb2dVertex
 10
95.49182673046721
 20
-124.2008494133944
 30
0.0
  0
VERTEX
  5
43
330
41
100
AcDbEntity
  8
_U+30EC_U+30A4_U+30E4_U+30FC 1
 62
   179
420
  2234388
370
    25
100
AcDbVertex
100
AcDb2dVertex
 10
95.49182673046721
 20
-134.2016407997829
 30
0.0
  0
SEQEND
  5
44
330
41
100
AcDbEntity
  8
_U+30EC_U+30A4_U+30E4_U+30FC 1
 62
   179
420
  2234388
370
    25
  0
POLYLINE
  5
45
330
1F
100
AcDbEntity
  8
_U+30EC_U+30A4_U+30E4_U+30FC 1
 62
   179
420
  2234388
370
    25
100
AcDb2dPolyline
 66
     1
 10
0.0
 20
0.0
 30
0.0
  0
VERTEX
  5
46
330
45
100
AcDbEntity
  8
_U+30EC_U+30A4_U+30E4_U+30FC 1
 62
   179
420
  2234388
370
    25
100
AcDbVertex
100
AcDb2dVertex
 10
95.49182673046721
 20
-124.2008494133944
 30
0.0
  0
VERTEX
  5
47
330
45
100
AcDbEntity
  8
_U+30EC_U+30A4_U+30E4_U+30FC 1
 62
   179
420
  2234388
370
    25
100
AcDbVertex
100
AcDb2dVertex
 10
100.492063547345
 20
-124.2008494133944
 30
0.0
  0
SEQEND
  5
48
330
45
100
AcDbEntity
  8
_U+30EC_U+30A4_U+30E4_U+30FC 1
 62
   179
420
  2234388
370
    25
  0
POLYLINE
  5
49
330
1F
100
AcDbEntity
  8
_U+30EC_U+30A4_U+30E4_U+30FC 1
 62
   179
420
  2234388
370
    25
100
AcDb2dPolyline
 66
     1
 10
0.0
 20
0.0
 30
0.0
  0
VERTEX
  5
4A
330
49
100
AcDbEntity
  8
_U+30EC_U+30A4_U+30E4_U+30FC 1
 62
   179
420
  2234388
370
    25
100
AcDbVertex
100
AcDb2dVertex
 10
70.99186929995764
 20
-135.2017305217551
 30
0.0
  0
VERTEX
  5
4B
330
49
100
AcDbEntity
  8
_U+30EC_U+30A4_U+30E4_U+30FC 1
 62
   179
420
  2234388
370
    25
100
AcDbVertex
100
AcDb2dVertex
 10
105.991798407035
 20
-135.2017305217551
 30
0.0
  0
SEQEND
  5
4C
330
49
100
AcDbEntity
  8
_U+30EC_U+30A4_U+30E4_U+30FC 1
 62
   179
420
  2234388
370
    25
  0
POLYLINE
  5
4D
330
1F
100
AcDbEntity
  8
_U+30EC_U+30A4_U+30E4_U+30FC 1
 62
   179
420
  2234388
370
    25
100
AcDb2dPolyline
 66
     1
 10
0.0
 20
0.0
 30
0.0
  0
VERTEX
  5
4E
330
4D
100
AcDbEntity
  8
_U+30EC_U+30A4_U+30E4_U+30FC 1
 62
   179
420
  2234388
370
    25
100
AcDbVertex
100
AcDb2dVertex
 10
105.5921717505637
 20
-134.8014335774105
 30
0.0
  0
VERTEX
  5
4F
330
4D
100
AcDbEntity
  8
_U+30EC_U+30A4_U+30E4_U+30FC 1
 62
   179
420
  2234388
370
    25
100
AcDbVertex
100
AcDb2dVertex
 10
105.991798407035
 20
-135.2017305217551
 30
0.0
  0
SEQEND
  5
50
330
4D
100
AcDbEntity
  8
_U+30EC_U+30A4_U+30E4_U+30FC 1
 62
   179
420
  2234388
370
    25
  0
POLYLINE
  5
51
330
1F
100
AcDbEntity
  8
_U+30EC_U+30A4_U+30E4_U+30FC 1
 62
   179
420
  2234388
370
    25
100
AcDb2dPolyline
 66
     1
 10
0.0
 20
0.0
 30
0.0
  0
VERTEX
  5
52
330
51
100
AcDbEntity
  8
_U+30EC_U+30A4_U+30E4_U+30FC 1
 62
   179
420
  2234388
370
    25
100
AcDbVertex
100
AcDb2dVertex
 10
95.49182673046721
 20
-134.2016407997829
 30
0.0
  0
VERTEX
  5
53
330
51
100
AcDbEntity
  8
_U+30EC_U+30A4_U+30E4_U+30FC 1
 62
   179
420
  2234388
370
    25
100
AcDbVertex
100
AcDb2dVertex
 10
100.492063547345
 20
-134.2016407997829
 30
0.0
  0
SEQEND
  5
54
330
51
100
AcDbEntity
  8
_U+30EC_U+30A4_U+30E4_U+30FC 1
 62
   179
420
  2234388
370
    25
  0
POLYLINE
  5
55
330
1F
100
AcDbEntity
  8
_U+30EC_U+30A4_U+30E4_U+30FC 1
 62
   179
420
  2234388
370
    25
100
AcDb2dPolyline
 66
     1
 10
0.0
 20
0.0
 30
0.0
  0
VERTEX
  5
56
330
55
100
AcDbEntity
  8
_U+30EC_U+30A4_U+30E4_U+30FC 1
 62
   179
420
  2234388
370
    25
100
AcDbVertex
100
AcDb2dVertex
 10
81.49184097652548
 20
-134.2016407997829
 30
0.0
  0
VERTEX
  5
57
330
55
100
AcDbEntity
  8
_U+30EC_U+30A4_U+30E4_U+30FC 1
 62
   179
420
  2234388
370
    25
100
AcDbVertex
100
AcDb2dVertex
 10
76.49230971518527
 20
-134.2016407997829
 30
0.0
  0
SEQEND
  5
58
330
55
100
AcDbEntity
  8
_U+30EC_U+30A4_U+30E4_U+30FC 1
 62
   179
420
  2234388
370
    25
  0
POLYLINE
  5
59
330
1F
100
AcDbEntity
  8
_U+30EC_U+30A4_U+30E4_U+30FC 1
 62
   179
420
  2234388
370
    25
100
AcDb2dPolyline
 66
     1
 10
0.0
 20
0.0
 30
0.0
  0
VERTEX
  5
5A
330
59
100
AcDbEntity
  8
_U+30EC_U+30A4_U+30E4_U+30FC 1
 62
   179
420
  2234388
370
    25
100
AcDbVertex
100
AcDb2dVertex
 10
71.39220151196653
 20
-134.8014335774105
 30
0.0
  0
VERTEX
  5
5B
330
59
100
AcDbEntity
  8
_U+30EC_U+30A4_U+30E4_U+30FC 1
 62
   179
420
  2234388
370
    25
100
AcDbVertex
100
AcDb2dVertex
 10
70.99186929995764
 20
-135.2017305217551
 30
0.0
  0
SEQEND
  5
5C
330
59
100
AcDbEntity
  8
_U+30EC_U+30A4_U+30E4_U+30FC 1
 62
   179
420
  2234388
370
    25
  0
POLYLINE
  5
5D
330
1F
100
AcDbEntity
  8
_U+30EC_U+30A4_U+30E4_U+30FC 1
 62
   179
420
  2234388
370
    25
100
AcDb2dPolyline
 66
     1
 10
0.0
 20
0.0
 30
0.0
  0
VERTEX
  5
5E
330
5D
100
AcDbEntity
  8
_U+30EC_U+30A4_U+30E4_U+30FC 1
 62
   179
420
  2234388
370
    25
100
AcDbVertex
100
AcDb2dVertex
 10
100.492063547345
 20
-134.2016407997829
 30
0.0
  0
VERTEX
  5
5F
330
5D
100
AcDbEntity
  8
_U+30EC_U+30A4_U+30E4_U+30FC 1
 62
   179
420
  2234388
370
    25
100
AcDbVertex
100
AcDb2dVertex
 10
101.5310999097258
 20
-134.8014335774105
 30
0.0
  0
SEQEND
  5
60
330
5D
100
AcDbEntity
  8
_U+30EC_U+30A4_U+30E4_U+30FC 1
 62
   179
420
  2234388
370
    25
  0
POLYLINE
  5
61
330
1F
100
AcDbEntity
  8
_U+30EC_U+30A4_U+30E4_U+30FC 1
 62
   179
420
  2234388
370
    25
100
AcDb2dPolyline
 66
     1
 10
0.0
 20
0.0
 30
0.0
  0
VERTEX
  5
62
330
61
100
AcDbEntity
  8
_U+30EC_U+30A4_U+30E4_U+30FC 1
 62
   179
420
  2234388
370
    25
100
AcDbVertex
100
AcDb2dVertex
 10
76.49230971518527
 20
-134.2016407997829
 30
0.0
  0
VERTEX
  5
63
330
61
100
AcDbEntity
  8
_U+30EC_U+30A4_U+30E4_U+30FC 1
 62
   179
420
  2234388
370
    25
100
AcDbVertex
100
AcDb2dVertex
 10
75.45292057503562
 20
-134.8014335774105
 30
0.0
  0
SEQEND
  5
64
330
61
100
AcDbEntity
  8
_U+30EC_U+30A4_U+30E4_U+30FC 1
 62
   179
420
  2234388
370
    25
  0
POLYLINE
  5
65
330
1F
100
AcDbEntity
  8
_U+30EC_U+30A4_U+30E4_U+30FC 1
 62
   179
420
  2234388
370
    25
100
AcDb2dPolyline
 66
     1
 10
0.0
 20
0.0
 30
0.0
  0
VERTEX
  5
66
330
65
100
AcDbEntity
  8
_U+30EC_U+30A4_U+30E4_U+30FC 1
 62
   179
420
  2234388
370
    25
100
AcDbVertex
100
AcDb2dVertex
 10
101.5310999097258
 20
-134.8014335774105
 30
0.0
  0
VERTEX
  5
67
330
65
100
AcDbEntity
  8
_U+30EC_U+30A4_U+30E4_U+30FC 1
 62
   179
420
  2234388
370
    25
100
AcDbVertex
100
AcDb2dVertex
 10
105.5921717505637
 20
-134.8014335774105
 30
0.0
  0
SEQEND
  5
68
330
65
100
AcDbEntity
  8
_U+30EC_U+30A4_U+30E4_U+30FC 1
 62
   179
420
  2234388
370
    25
  0
POLYLINE
  5
69
330
1F
100
AcDbEntity
  8
_U+30EC_U+30A4_U+30E4_U+30FC 1
 62
   179
420
  2234388
370
    25
100
AcDb2dPolyline
 66
     1
 10
0.0
 20
0.0
 30
0.0
  0
VERTEX
  5
6A
330
69
100
AcDbEntity
  8
_U+30EC_U+30A4_U+30E4_U+30FC 1
 62
   179
420
  2234388
370
    25
100
AcDbVertex
100
AcDb2dVertex
 10
75.45292057503562
 20
-134.8014335774105
 30
0.0
  0
VERTEX
  5
6B
330
69
100
AcDbEntity
  8
_U+30EC_U+30A4_U+30E4_U+30FC 1
 62
   179
420
  2234388
370
    25
100
AcDbVertex
100
AcDb2dVertex
 10
71.39220151196653
 20
-134.8014335774105
 30
0.0
  0
SEQEND
  5
6C
330
69
100
AcDbEntity
  8
_U+30EC_U+30A4_U+30E4_U+30FC 1
 62
   179
420
  2234388
370
    25
  0
POLYLINE
  5
6D
330
1F
100
AcDbEntity
  8
_U+30EC_U+30A4_U+30E4_U+30FC 1
 62
   179
420
  2234388
370
    25
100
AcDb2dPolyline
 66
     1
 10
0.0
 20
0.0
 30
0.0
  0
VERTEX
  5
6E
330
6D
100
AcDbEntity
  8
_U+30EC_U+30A4_U+30E4_U+30FC 1
 62
   179
420
  2234388
370
    25
100
AcDbVertex
100
AcDb2dVertex
 10
81.49184097652548
 20
-124.2008494133944
 30
0.0
  0
VERTEX
  5
6F
330
6D
100
AcDbEntity
  8
_U+30EC_U+30A4_U+30E4_U+30FC 1
 62
   179
420
  2234388
370
    25
100
AcDbVertex
100
AcDb2dVertex
 10
81.49184097652548
 20
-134.2016407997829
 30
0.0
  0
SEQEND
  5
70
330
6D
100
AcDbEntity
  8
_U+30EC_U+30A4_U+30E4_U+30FC 1
 62
   179
420
  2234388
370
    25
  0
POLYLINE
  5
71
330
1F
100
AcDbEntity
  8
_U+30EC_U+30A4_U+30E4_U+30FC 1
 62
   179
420
  2234388
370
    25
100
AcDb2dPolyline
 66
     1
 10
0.0
 20
0.0
 30
0.0
  0
VERTEX
  5
72
330
71
100
AcDbEntity
  8
_U+30EC_U+30A4_U+30E4_U+30FC 1
 62
   179
420
  2234388
370
    25
100
AcDbVertex
100
AcDb2dVertex
 10
81.49184097652548
 20
-124.2008494133944
 30
0.0
  0
VERTEX
  5
73
330
71
100
AcDbEntity
  8
_U+30EC_U+30A4_U+30E4_U+30FC 1
 62
   179
420
  2234388
370
    25
100
AcDbVertex
100
AcDb2dVertex
 10
76.49230971518527
 20
-124.2008494133944
 30
0.0
  0
SEQEND
  5
74
330
71
100
AcDbEntity
  8
_U+30EC_U+30A4_U+30E4_U+30FC 1
 62
   179
420
  2234388
370
    25
  0
SPLINE
  5
75
330
1F
100
AcDbEntity
  8
_U+30EC_U+30A4_U+30E4_U+30FC 1
 62
   179
420
  2234388
370
     9
100
AcDbSpline
210
0.0
220
0.0
230
1.0
 70
    11
 71
     3
 72
    17
 73
    13
 74
     0
 42
0.0000000001
 43
0.0000000001
 12
1.0
 22
0.0
 32
0.0
 13
1.0
 23
0.0
 33
0.0
 40
0.0
 40
0.0
 40
0.0
 40
0.0
 40
1.0
 40
1.0
 40
1.0
 40
2.0
 40
2.0
 40
2.0
 40
3.0
 40
3.0
 40
3.0
 40
4.0
 40
4.0
 40
4.0
 40
4.0
 10
106.0917050711529
 20
-139.2014896874219
 30
0.0
 10
106.0917050711529
 20
-139.146385798547
 30
0.0
 10
106.046937572295
 20
-139.1015830207803
 30
0.0
 10
105.991798407035
 20
-139.1015830207803
 30
0.0
 10
105.9366971957379
 20
-139.1015830207803
 30
0.0
 10
105.8918944179712
 20
-139.146385798547
 30
0.0
 10
105.8918944179712
 20
-139.2014896874219
 30
0.0
 10
105.8918944179712
 20
-139.256628854075
 30
0.0
 10
105.9366971957379
 20
-139.3013963540636
 30
0.0
 10
105.991798407035
 20
-139.3013963540636
 30
0.0
 10
106.046937572295
 20
-139.3013963540636
 30
0.0
 10
106.0917050711529
 20
-139.256628854075
 30
0.0
 10
106.0917050711529
 20
-139.2014896874219
 30
0.0
  0
SPLINE
  5
76
330
1F
100
AcDbEntity
  8
_U+30EC_U+30A4_U+30E4_U+30FC 1
 62
   179
420
  2234388
370
     9
100
AcDbSpline
210
0.0
220
0.0
230
1.0
 70
    11
 71
     3
 72
    17
 73
    13
 74
     0
 42
0.0000000001
 43
0.0000000001
 12
1.0
 22
0.0
 32
0.0
 13
1.0
 23
0.0
 33
0.0
 40
0.0
 40
0.0
 40
0.0
 40
0.0
 40
1.0
 40
1.0
 40
1.0
 40
2.0
 40
2.0
 40
2.0
 40
3.0
 40
3.0
 40
3.0
 40
4.0
 40
4.0
 40
4.0
 40
4.0
 10
71.09213053778244
 20
-139.2014896874219
 30
0.0
 10
71.09213053778244
 20
-139.146385798547
 30
0.0
 10
71.04732776001603
 20
-139.1015830207803
 30
0.0
 10
70.99186929995764
 20
-139.1015830207803
 30
0.0
 10
70.93676541247457
 20
-139.1015830207803
 30
0.0
 10
70.8919626358398
 20
-139.146385798547
 30
0.0
 10
70.8919626358398
 20
-139.2014896874219
 30
0.0
 10
70.8919626358398
 20
-139.256628854075
 30
0.0
 10
70.93676541247457
 20
-139.3013963540636
 30
0.0
 10
70.99186929995764
 20
-139.3013963540636
 30
0.0
 10
71.04732776001603
 20
-139.3013963540636
 30
0.0
 10
71.09213053778244
 20
-139.256628854075
 30
0.0
 10
71.09213053778244
 20
-139.2014896874219
 30
0.0
  0
SPLINE
  5
77
330
1F
100
AcDbEntity
  8
_U+30EC_U+30A4_U+30E4_U+30FC 1
 62
   179
420
  2234388
370
     9
100
AcDbSpline
210
0.0
220
0.0
230
1.0
 70
    11
 71
     3
 72
    17
 73
    13
 74
     0
 42
0.0000000001
 43
0.0000000001
 12
1.0
 22
0.0
 32
0.0
 13
1.0
 23
0.0
 33
0.0
 40
0.0
 40
0.0
 40
0.0
 40
0.0
 40
1.0
 40
1.0
 40
1.0
 40
2.0
 40
2.0
 40
2.0
 40
3.0
 40
3.0
 40
3.0
 40
4.0
 40
4.0
 40
4.0
 40
4.0
 10
76.5922163793031
 20
-119.2006477479776
 30
0.0
 10
76.5922163793031
 20
-119.1455438591024
 30
0.0
 10
76.54744888044522
 20
-119.100741081336
 30
0.0
 10
76.49230971518527
 20
-119.100741081336
 30
0.0
 10
76.43685304993342
 20
-119.100741081336
 30
0.0
 10
76.39205027329865
 20
-119.1455438591024
 30
0.0
 10
76.39205027329865
 20
-119.2006477479776
 30
0.0
 10
76.39205027329865
 20
-119.2561044146306
 30
0.0
 10
76.43685304993342
 20
-119.300907192397
 30
0.0
 10
76.49230971518527
 20
-119.300907192397
 30
0.0
 10
76.54744888044522
 20
-119.300907192397
 30
0.0
 10
76.5922163793031
 20
-119.2561044146306
 30
0.0
 10
76.5922163793031
 20
-119.2006477479776
 30
0.0
  0
SPLINE
  5
78
330
1F
100
AcDbEntity
  8
_U+30EC_U+30A4_U+30E4_U+30FC 1
 62
   179
420
  2234388
370
     9
100
AcDbSpline
210
0.0
220
0.0
230
1.0
 70
    11
 71
     3
 72
    17
 73
    13
 74
     0
 42
0.0000000001
 43
0.0000000001
 12
1.0
 22
0.0
 32
0.0
 13
1.0
 23
0.0
 33
0.0
 40
0.0
 40
0.0
 40
0.0
 40
0.0
 40
1.0
 40
1.0
 40
1.0
 40
2.0
 40
2.0
 40
2.0
 40
3.0
 40
3.0
 40
3.0
 40
4.0
 40
4.0
 40
4.0
 40
4.0
 10
82.5921901151199
 20
-119.2006477479776
 30
0.0
 10
82.5921901151199
 20
-119.1455438591024
 30
0.0
 10
82.54742261626203
 20
-119.100741081336
 30
0.0
 10
82.49228345100207
 20
-119.100741081336
 30
0.0
 10
82.43647400798145
 20
-119.100741081336
 30
0.0
 10
82.39237678688424
 20
-119.1455438591024
 30
0.0
 10
82.39237678688424
 20
-119.2006477479776
 30
0.0
 10
82.39237678688424
 20
-119.2561044146306
 30
0.0
 10
82.43647400798145
 20
-119.300907192397
 30
0.0
 10
82.49228345100207
 20
-119.300907192397
 30
0.0
 10
82.54742261626203
 20
-119.300907192397
 30
0.0
 10
82.5921901151199
 20
-119.2561044146306
 30
0.0
 10
82.5921901151199
 20
-119.2006477479776
 30
0.0
  0
SPLINE
  5
79
330
1F
100
AcDbEntity
  8
_U+30EC_U+30A4_U+30E4_U+30FC 1
 62
   179
420
  2234388
370
     9
100
AcDbSpline
210
0.0
220
0.0
230
1.0
 70
    11
 71
     3
 72
    17
 73
    13
 74
     0
 42
0.0000000001
 43
0.0000000001
 12
1.0
 22
0.0
 32
0.0
 13
1.0
 23
0.0
 33
0.0
 40
0.0
 40
0.0
 40
0.0
 40
0.0
 40
1.0
 40
1.0
 40
1.0
 40
2.0
 40
2.0
 40
2.0
 40
3.0
 40
3.0
 40
3.0
 40
4.0
 40
4.0
 40
4.0
 40
4.0
 10
94.59199647564601
 20
-119.2006477479776
 30
0.0
 10
94.59199647564601
 20
-119.1455438591024
 30
0.0
 10
94.54719369901125
 20
-119.100741081336
 30
0.0
 10
94.49208981152817
 20
-119.100741081336
 30
0.0
 10
94.43695064626823
 20
-119.100741081336
 30
0.0
 10
94.39218314741034
 20
-119.1455438591024
 30
0.0
 10
94.39218314741034
 20
-119.2006477479776
 30
0.0
 10
94.39218314741034
 20
-119.2561044146306
 30
0.0
 10
94.43695064626823
 20
-119.300907192397
 30
0.0
 10
94.49208981152817
 20
-119.300907192397
 30
0.0
 10
94.54719369901125
 20
-119.300907192397
 30
0.0
 10
94.59199647564601
 20
-119.2561044146306
 30
0.0
 10
94.59199647564601
 20
-119.2006477479776
 30
0.0
  0
SPLINE
  5
7A
330
1F
100
AcDbEntity
  8
_U+30EC_U+30A4_U+30E4_U+30FC 1
 62
   179
420
  2234388
370
     9
100
AcDbSpline
210
0.0
220
0.0
230
1.0
 70
    11
 71
     3
 72
    17
 73
    13
 74
     0
 42
0.0000000001
 43
0.0000000001
 12
1.0
 22
0.0
 32
0.0
 13
1.0
 23
0.0
 33
0.0
 40
0.0
 40
0.0
 40
0.0
 40
0.0
 40
1.0
 40
1.0
 40
1.0
 40
2.0
 40
2.0
 40
2.0
 40
3.0
 40
3.0
 40
3.0
 40
4.0
 40
4.0
 40
4.0
 40
4.0
 10
100.5919702114628
 20
-119.2006477479776
 30
0.0
 10
100.5919702114628
 20
-119.1455438591024
 30
0.0
 10
100.5471674348281
 20
-119.100741081336
 30
0.0
 10
100.492063547345
 20
-119.100741081336
 30
0.0
 10
100.436924382085
 20
-119.100741081336
 30
0.0
 10
100.3921568832271
 20
-119.1455438591024
 30
0.0
 10
100.3921568832271
 20
-119.2006477479776
 30
0.0
 10
100.3921568832271
 20
-119.2561044146306
 30
0.0
 10
100.436924382085
 20
-119.300907192397
 30
0.0
 10
100.492063547345
 20
-119.300907192397
 30
0.0
 10
100.5471674348281
 20
-119.300907192397
 30
0.0
 10
100.5919702114628
 20
-119.2561044146306
 30
0.0
 10
100.5919702114628
 20
-119.2006477479776
 30
0.0
  0
SPLINE
  5
7B
330
1F
100
AcDbEntity
  8
_U+30EC_U+30A4_U+30E4_U+30FC 1
 62
   179
420
  2234388
370
     9
100
AcDbSpline
210
0.0
220
0.0
230
1.0
 70
    11
 71
     3
 72
    17
 73
    13
 74
     0
 42
0.0000000001
 43
0.0000000001
 12
1.0
 22
0.0
 32
0.0
 13
1.0
 23
0.0
 33
0.0
 40
0.0
 40
0.0
 40
0.0
 40
0.0
 40
1.0
 40
1.0
 40
1.0
 40
2.0
 40
2.0
 40
2.0
 40
3.0
 40
3.0
 40
3.0
 40
4.0
 40
4.0
 40
4.0
 40
4.0
 10
110.0921696913148
 20
-124.2008494133944
 30
0.0
 10
110.0921696913148
 20
-124.1457455245191
 30
0.0
 10
110.04736691468
 20
-124.1009427467524
 30
0.0
 10
109.9922630271969
 20
-124.1009427467524
 30
0.0
 10
109.9364535841763
 20
-124.1009427467524
 30
0.0
 10
109.8916508075415
 20
-124.1457455245191
 30
0.0
 10
109.8916508075415
 20
-124.2008494133944
 30
0.0
 10
109.8916508075415
 20
-124.2559885800471
 30
0.0
 10
109.9364535841763
 20
-124.300756080036
 30
0.0
 10
109.9922630271969
 20
-124.300756080036
 30
0.0
 10
110.04736691468
 20
-124.300756080036
 30
0.0
 10
110.0921696913148
 20
-124.2559885800471
 30
0.0
 10
110.0921696913148
 20
-124.2008494133944
 30
0.0
  0
SPLINE
  5
7C
330
1F
100
AcDbEntity
  8
_U+30EC_U+30A4_U+30E4_U+30FC 1
 62
   179
420
  2234388
370
     9
100
AcDbSpline
210
0.0
220
0.0
230
1.0
 70
    11
 71
     3
 72
    17
 73
    13
 74
     0
 42
0.0000000001
 43
0.0000000001
 12
1.0
 22
0.0
 32
0.0
 13
1.0
 23
0.0
 33
0.0
 40
0.0
 40
0.0
 40
0.0
 40
0.0
 40
1.0
 40
1.0
 40
1.0
 40
2.0
 40
2.0
 40
2.0
 40
3.0
 40
3.0
 40
3.0
 40
4.0
 40
4.0
 40
4.0
 40
4.0
 10
110.0921696913148
 20
-134.2016407997829
 30
0.0
 10
110.0921696913148
 20
-134.1461488553521
 30
0.0
 10
110.04736691468
 20
-134.1017341331413
 30
0.0
 10
109.9922630271969
 20
-134.1017341331413
 30
0.0
 10
109.9364535841763
 20
-134.1017341331413
 30
0.0
 10
109.8916508075415
 20
-134.1461488553521
 30
0.0
 10
109.8916508075415
 20
-134.2016407997829
 30
0.0
 10
109.8916508075415
 20
-134.2567446886578
 30
0.0
 10
109.9364535841763
 20
-134.3015474664246
 30
0.0
 10
109.9922630271969
 20
-134.3015474664246
 30
0.0
 10
110.04736691468
 20
-134.3015474664246
 30
0.0
 10
110.0921696913148
 20
-134.2567446886578
 30
0.0
 10
110.0921696913148
 20
-134.2016407997829
 30
0.0
  0
POLYLINE
  5
7D
330
1F
100
AcDbEntity
  8
_U+30EC_U+30A4_U+30E4_U+30FC 1
 62
   179
420
  2234388
370
     9
100
AcDb2dPolyline
 66
     1
 10
0.0
 20
0.0
 30
0.0
  0
VERTEX
  5
7E
330
7D
100
AcDbEntity
  8
_U+30EC_U+30A4_U+30E4_U+30FC 1
 62
   179
420
  2234388
370
     9
100
AcDbVertex
100
AcDb2dVertex
 10
70.99186929995764
 20
-139.2014896874219
 30
0.0
  0
VERTEX
  5
7F
330
7D
100
AcDbEntity
  8
_U+30EC_U+30A4_U+30E4_U+30FC 1
 62
   179
420
  2234388
370
     9
100
AcDbVertex
100
AcDb2dVertex
 10
105.991798407035
 20
-139.2014896874219
 30
0.0
  0
SEQEND
  5
80
330
7D
100
AcDbEntity
  8
_U+30EC_U+30A4_U+30E4_U+30FC 1
 62
   179
420
  2234388
370
     9
  0
POLYLINE
  5
81
330
1F
100
AcDbEntity
  8
_U+30EC_U+30A4_U+30E4_U+30FC 1
 62
   179
420
  2234388
370
     9
100
AcDb2dPolyline
 66
     1
 10
0.0
 20
0.0
 30
0.0
  0
VERTEX
  5
82
330
81
100
AcDbEntity
  8
_U+30EC_U+30A4_U+30E4_U+30FC 1
 62
   179
420
  2234388
370
     9
100
AcDbVertex
100
AcDb2dVertex
 10
70.99186929995764
 20
-137.7414482988982
 30
0.0
  0
VERTEX
  5
83
330
81
100
AcDbEntity
  8
_U+30EC_U+30A4_U+30E4_U+30FC 1
 62
   179
420
  2234388
370
     9
100
AcDbVertex
100
AcDb2dVertex
 10
70.99186929995764
 20
-140.2016146871716
 30
0.0
  0
SEQEND
  5
84
330
81
100
AcDbEntity
  8
_U+30EC_U+30A4_U+30E4_U+30FC 1
 62
   179
420
  2234388
370
     9
  0
POLYLINE
  5
85
330
1F
100
AcDbEntity
  8
_U+30EC_U+30A4_U+30E4_U+30FC 1
 62
   179
420
  2234388
370
     9
100
AcDb2dPolyline
 66
     1
 10
0.0
 20
0.0
 30
0.0
  0
VERTEX
  5
86
330
85
100
AcDbEntity
  8
_U+30EC_U+30A4_U+30E4_U+30FC 1
 62
   179
420
  2234388
370
     9
100
AcDbVertex
100
AcDb2dVertex
 10
105.991798407035
 20
-137.7414482988982
 30
0.0
  0
VERTEX
  5
87
330
85
100
AcDbEntity
  8
_U+30EC_U+30A4_U+30E4_U+30FC 1
 62
   179
420
  2234388
370
     9
100
AcDbVertex
100
AcDb2dVertex
 10
105.991798407035
 20
-140.2016146871716
 30
0.0
  0
SEQEND
  5
88
330
85
100
AcDbEntity
  8
_U+30EC_U+30A4_U+30E4_U+30FC 1
 62
   179
420
  2234388
370
     9
  0
INSERT
  5
8A
330
1F
100
AcDbEntity
  8
_U+30EC_U+30A4_U+30E4_U+30FC 1
100
AcDbBlockReference
  2
block 2
 10
0.0
 20
0.0
 30
0.0
  0
POLYLINE
  5
91
330
1F
100
AcDbEntity
  8
_U+30EC_U+30A4_U+30E4_U+30FC 1
 62
   179
420
  2234388
370
     9
100
AcDb2dPolyline
 66
     1
 10
0.0
 20
0.0
 30
0.0
  0
VERTEX
  5
92
330
91
100
AcDbEntity
  8
_U+30EC_U+30A4_U+30E4_U+30FC 1
 62
   179
420
  2234388
370
     9
100
AcDbVertex
100
AcDb2dVertex
 10
82.49228345100207
 20
-119.2006477479776
 30
0.0
  0
VERTEX
  5
93
330
91
100
AcDbEntity
  8
_U+30EC_U+30A4_U+30E4_U+30FC 1
 62
   179
420
  2234388
370
     9
100
AcDbVertex
100
AcDb2dVertex
 10
94.49208981152817
 20
-119.2006477479776
 30
0.0
  0
SEQEND
  5
94
330
91
100
AcDbEntity
  8
_U+30EC_U+30A4_U+30E4_U+30FC 1
 62
   179
420
  2234388
370
     9
  0
POLYLINE
  5
95
330
1F
100
AcDbEntity
  8
_U+30EC_U+30A4_U+30E4_U+30FC 1
 62
   179
420
  2234388
370
     9
100
AcDb2dPolyline
 66
     1
 10
0.0
 20
0.0
 30
0.0
  0
VERTEX
  5
96
330
95
100
AcDbEntity
  8
_U+30EC_U+30A4_U+30E4_U+30FC 1
 62
   179
420
  2234388
370
     9
100
AcDbVertex
100
AcDb2dVertex
 10
82.49228345100207
 20
-120.6606891365016
 30
0.0
  0
VERTEX
  5
97
330
95
100
AcDbEntity
  8
_U+30EC_U+30A4_U+30E4_U+30FC 1
 62
   179
420
  2234388
370
     9
100
AcDbVertex
100
AcDb2dVertex
 10
82.49228345100207
 20
-118.2008755260054
 30
0.0
  0
SEQEND
  5
98
330
95
100
AcDbEntity
  8
_U+30EC_U+30A4_U+30E4_U+30FC 1
 62
   179
420
  2234388
370
     9
  0
POLYLINE
  5
99
330
1F
100
AcDbEntity
  8
_U+30EC_U+30A4_U+30E4_U+30FC 1
 62
   179
420
  2234388
370
     9
100
AcDb2dPolyline
 66
     1
 10
0.0
 20
0.0
 30
0.0
  0
VERTEX
  5
9A
330
99
100
AcDbEntity
  8
_U+30EC_U+30A4_U+30E4_U+30FC 1
 62
   179
420
  2234388
370
     9
100
AcDbVertex
100
AcDb2dVertex
 10
94.49208981152817
 20
-120.6606891365016
 30
0.0
  0
VERTEX
  5
9B
330
99
100
AcDbEntity
  8
_U+30EC_U+30A4_U+30E4_U+30FC 1
 62
   179
420
  2234388
370
     9
100
AcDbVertex
100
AcDb2dVertex
 10
94.49208981152817
 20
-118.2008755260054
 30
0.0
  0
SEQEND
  5
9C
330
99
100
AcDbEntity
  8
_U+30EC_U+30A4_U+30E4_U+30FC 1
 62
   179
420
  2234388
370
     9
  0
INSERT
  5
9E
330
1F
100
AcDbEntity
  8
_U+30EC_U+30A4_U+30E4_U+30FC 1
100
AcDbBlockReference
  2
block 3
 10
0.0
 20
0.0
 30
0.0
  0
POLYLINE
  5
A5
330
1F
100
AcDbEntity
  8
_U+30EC_U+30A4_U+30E4_U+30FC 1
 62
   179
420
  2234388
370
     9
100
AcDb2dPolyline
 66
     1
 10
0.0
 20
0.0
 30
0.0
  0
VERTEX
  5
A6
330
A5
100
AcDbEntity
  8
_U+30EC_U+30A4_U+30E4_U+30FC 1
 62
   179
420
  2234388
370
     9
100
AcDbVertex
100
AcDb2dVertex
 10
100.492063547345
 20
-119.2006477479776
 30
0.0
  0
VERTEX
  5
A7
330
A5
100
AcDbEntity
  8
_U+30EC_U+30A4_U+30E4_U+30FC 1
 62
   179
420
  2234388
370
     9
100
AcDbVertex
100
AcDb2dVertex
 10
94.49208981152817
 20
-119.2006477479776
 30
0.0
  0
SEQEND
  5
A8
330
A5
100
AcDbEntity
  8
_U+30EC_U+30A4_U+30E4_U+30FC 1
 62
   179
420
  2234388
370
     9
  0
POLYLINE
  5
A9
330
1F
100
AcDbEntity
  8
_U+30EC_U+30A4_U+30E4_U+30FC 1
 62
   179
420
  2234388
370
     9
100
AcDb2dPolyline
 66
     1
 10
0.0
 20
0.0
 30
0.0
  0
VERTEX
  5
AA
330
A9
100
AcDbEntity
  8
_U+30EC_U+30A4_U+30E4_U+30FC 1
 62
   179
420
  2234388
370
     9
100
AcDbVertex
100
AcDb2dVertex
 10
100.492063547345
 20
-121.6607788584738
 30
0.0
  0
VERTEX
  5
AB
330
A9
100
AcDbEntity
  8
_U+30EC_U+30A4_U+30E4_U+30FC 1
 62
   179
420
  2234388
370
     9
100
AcDbVertex
100
AcDb2dVertex
 10
100.492063547345
 20
-118.2008755260054
 30
0.0
  0
SEQEND
  5
AC
330
A9
100
AcDbEntity
  8
_U+30EC_U+30A4_U+30E4_U+30FC 1
 62
   179
420
  2234388
370
     9
  0
INSERT
  5
AE
330
1F
100
AcDbEntity
  8
_U+30EC_U+30A4_U+30E4_U+30FC 1
100
AcDbBlockReference
  2
block 4
 10
0.0
 20
0.0
 30
0.0
  0
POLYLINE
  5
B4
330
1F
100
AcDbEntity
  8
_U+30EC_U+30A4_U+30E4_U+30FC 1
 62
   179
420
  2234388
370
     9
100
AcDb2dPolyline
 66
     1
 10
0.0
 20
0.0
 30
0.0
  0
VERTEX
  5
B5
330
B4
100
AcDbEntity
  8
_U+30EC_U+30A4_U+30E4_U+30FC 1
 62
   179
420
  2234388
370
     9
100
AcDbVertex
100
AcDb2dVertex
 10
82.49228345100207
 20
-119.2006477479776
 30
0.0
  0
VERTEX
  5
B6
330
B4
100
AcDbEntity
  8
_U+30EC_U+30A4_U+30E4_U+30FC 1
 62
   179
420
  2234388
370
     9
100
AcDbVertex
100
AcDb2dVertex
 10
76.49230971518527
 20
-119.2006477479776
 30
0.0
  0
SEQEND
  5
B7
330
B4
100
AcDbEntity
  8
_U+30EC_U+30A4_U+30E4_U+30FC 1
 62
   179
420
  2234388
370
     9
  0
POLYLINE
  5
B8
330
1F
100
AcDbEntity
  8
_U+30EC_U+30A4_U+30E4_U+30FC 1
 62
   179
420
  2234388
370
     9
100
AcDb2dPolyline
 66
     1
 10
0.0
 20
0.0
 30
0.0
  0
VERTEX
  5
B9
330
B8
100
AcDbEntity
  8
_U+30EC_U+30A4_U+30E4_U+30FC 1
 62
   179
420
  2234388
370
     9
100
AcDbVertex
100
AcDb2dVertex
 10
76.49230971518527
 20
-121.6607788584738
 30
0.0
  0
VERTEX
  5
BA
330
B8
100
AcDbEntity
  8
_U+30EC_U+30A4_U+30E4_U+30FC 1
 62
   179
420
  2234388
370
     9
100
AcDbVertex
100
AcDb2dVertex
 10
76.49230971518527
 20
-118.2008755260054
 30
0.0
  0
SEQEND
  5
BB
330
B8
100
AcDbEntity
  8
_U+30EC_U+30A4_U+30E4_U+30FC 1
 62
   179
420
  2234388
370
     9
  0
INSERT
  5
BD
330
1F
100
AcDbEntity
  8
_U+30EC_U+30A4_U+30E4_U+30FC 1
100
AcDbBlockReference
  2
block 5
 10
0.0
 20
0.0
 30
0.0
  0
POLYLINE
  5
C3
330
1F
100
AcDbEntity
  8
_U+30EC_U+30A4_U+30E4_U+30FC 1
 62
   179
420
  2234388
370
     9
100
AcDb2dPolyline
 66
     1
 10
0.0
 20
0.0
 30
0.0
  0
VERTEX
  5
C4
330
C3
100
AcDbEntity
  8
_U+30EC_U+30A4_U+30E4_U+30FC 1
 62
   179
420
  2234388
370
     9
100
AcDbVertex
100
AcDb2dVertex
 10
109.9922630271969
 20
-124.2008494133944
 30
0.0
  0
VERTEX
  5
C5
330
C3
100
AcDbEntity
  8
_U+30EC_U+30A4_U+30E4_U+30FC 1
 62
   179
420
  2234388
370
     9
100
AcDbVertex
100
AcDb2dVertex
 10
109.9922630271969
 20
-134.2016407997829
 30
0.0
  0
SEQEND
  5
C6
330
C3
100
AcDbEntity
  8
_U+30EC_U+30A4_U+30E4_U+30FC 1
 62
   179
420
  2234388
370
     9
  0
POLYLINE
  5
C7
330
1F
100
AcDbEntity
  8
_U+30EC_U+30A4_U+30E4_U+30FC 1
 62
   179
420
  2234388
370
     9
100
AcDb2dPolyline
 66
     1
 10
0.0
 20
0.0
 30
0.0
  0
VERTEX
  5
C8
330
C7
100
AcDbEntity
  8
_U+30EC_U+30A4_U+30E4_U+30FC 1
 62
   179
420
  2234388
370
     9
100
AcDbVertex
100
AcDb2dVertex
 10
103.0317812603292
 20
-124.2008494133944
 30
0.0
  0
VERTEX
  5
C9
330
C7
100
AcDbEntity
  8
_U+30EC_U+30A4_U+30E4_U+30FC 1
 62
   179
420
  2234388
370
     9
100
AcDbVertex
100
AcDb2dVertex
 10
110.9920027500296
 20
-124.2008494133944
 30
0.0
  0
SEQEND
  5
CA
330
C7
100
AcDbEntity
  8
_U+30EC_U+30A4_U+30E4_U+30FC 1
 62
   179
420
  2234388
370
     9
  0
POLYLINE
  5
CB
330
1F
100
AcDbEntity
  8
_U+30EC_U+30A4_U+30E4_U+30FC 1
 62
   179
420
  2234388
370
     9
100
AcDb2dPolyline
 66
     1
 10
0.0
 20
0.0
 30
0.0
  0
VERTEX
  5
CC
330
CB
100
AcDbEntity
  8
_U+30EC_U+30A4_U+30E4_U+30FC 1
 62
   179
420
  2234388
370
     9
100
AcDbVertex
100
AcDb2dVertex
 10
103.0317812603292
 20
-134.2016407997829
 30
0.0
  0
VERTEX
  5
CD
330
CB
100
AcDbEntity
  8
_U+30EC_U+30A4_U+30E4_U+30FC 1
 62
   179
420
  2234388
370
     9
100
AcDbVertex
100
AcDb2dVertex
 10
110.9920027500296
 20
-134.2016407997829
 30
0.0
  0
SEQEND
  5
CE
330
CB
100
AcDbEntity
  8
_U+30EC_U+30A4_U+30E4_U+30FC 1
 62
   179
420
  2234388
370
     9
  0
INSERT
  5
D0
330
1F
100
AcDbEntity
  8
_U+30EC_U+30A4_U+30E4_U+30FC 1
100
AcDbBlockReference
  2
block 6
 10
0.0
 20
0.0
 30
0.0
  0
SPLINE
  5
D8
330
1F
100
AcDbEntity
  8
_U+30EC_U+30A4_U+30E4_U+30FC 1
 62
   179
420
  2234388
370
     9
100
AcDbSpline
210
0.0
220
0.0
230
1.0
 70
    11
 71
     3
 72
    17
 73
    13
 74
     0
 42
0.0000000001
 43
0.0000000001
 12
1.0
 22
0.0
 32
0.0
 13
1.0
 23
0.0
 33
0.0
 40
0.0
 40
0.0
 40
0.0
 40
0.0
 40
1.0
 40
1.0
 40
1.0
 40
2.0
 40
2.0
 40
2.0
 40
3.0
 40
3.0
 40
3.0
 40
4.0
 40
4.0
 40
4.0
 40
4.0
 10
81.592417918404
 20
-129.1525088566007
 30
0.0
 10
81.592417918404
 20
-129.0973696899477
 30
0.0
 10
81.54765041954612
 20
-129.0526021899591
 30
0.0
 10
81.49219375429426
 20
-129.0526021899591
 30
0.0
 10
81.43705458903432
 20
-129.0526021899591
 30
0.0
 10
81.39228709017642
 20
-129.0973696899477
 30
0.0
 10
81.39228709017642
 20
-129.1525088566007
 30
0.0
 10
81.39228709017642
 20
-129.2076127454757
 30
0.0
 10
81.43705458903432
 20
-129.2524155232424
 30
0.0
 10
81.49219375429426
 20
-129.2524155232424
 30
0.0
 10
81.54765041954612
 20
-129.2524155232424
 30
0.0
 10
81.592417918404
 20
-129.2076127454757
 30
0.0
 10
81.592417918404
 20
-129.1525088566007
 30
0.0
  0
SPLINE
  5
D9
330
1F
100
AcDbEntity
  8
_U+30EC_U+30A4_U+30E4_U+30FC 1
 62
   179
420
  2234388
370
     9
100
AcDbSpline
210
0.0
220
0.0
230
1.0
 70
    11
 71
     3
 72
    17
 73
    13
 74
     0
 42
0.0000000001
 43
0.0000000001
 12
1.0
 22
0.0
 32
0.0
 13
1.0
 23
0.0
 33
0.0
 40
0.0
 40
0.0
 40
0.0
 40
0.0
 40
1.0
 40
1.0
 40
1.0
 40
2.0
 40
2.0
 40
2.0
 40
3.0
 40
3.0
 40
3.0
 40
4.0
 40
4.0
 40
4.0
 40
4.0
 10
82.5921901151199
 20
-129.1525088566007
 30
0.0
 10
82.5921901151199
 20
-129.0973696899477
 30
0.0
 10
82.54742261626203
 20
-129.0526021899591
 30
0.0
 10
82.4919306732333
 20
-129.0526021899591
 30
0.0
 10
82.43682678575023
 20
-129.0526021899591
 30
0.0
 10
82.39202400911546
 20
-129.0973696899477
 30
0.0
 10
82.39202400911546
 20
-129.1525088566007
 30
0.0
 10
82.39202400911546
 20
-129.2076127454757
 30
0.0
 10
82.43682678575023
 20
-129.2524155232424
 30
0.0
 10
82.4919306732333
 20
-129.2524155232424
 30
0.0
 10
82.54742261626203
 20
-129.2524155232424
 30
0.0
 10
82.5921901151199
 20
-129.2076127454757
 30
0.0
 10
82.5921901151199
 20
-129.1525088566007
 30
0.0
  0
INSERT
  5
DB
330
1F
100
AcDbEntity
  8
_U+30EC_U+30A4_U+30E4_U+30FC 1
100
AcDbBlockReference
  2
block 7
 10
0.0
 20
0.0
 30
0.0
  0
SPLINE
  5
E8
330
1F
100
AcDbEntity
  8
_U+30EC_U+30A4_U+30E4_U+30FC 1
 62
   179
420
  2234388
370
    25
100
AcDbSpline
210
0.0
220
0.0
230
1.0
 70
     8
 71
     3
 72
    32
 73
    28
 74
     0
 42
0.0000000001
 43
0.0000000001
 12
1.0
 22
0.0
 32
0.0
 13
1.0
 23
0.0
 33
0.0
 40
0.0
 40
0.0
 40
0.0
 40
0.0
 40
1.0
 40
1.0
 40
1.0
 40
2.0
 40
2.0
 40
2.0
 40
3.0
 40
3.0
 40
3.0
 40
4.0
 40
4.0
 40
4.0
 40
5.0
 40
5.0
 40
5.0
 40
6.0
 40
6.0
 40
6.0
 40
7.0
 40
7.0
 40
7.0
 40
8.0
 40
8.0
 40
8.0
 40
9.0
 40
9.0
 40
9.0
 40
9.0
 10
76.49230971518527
 20
-124.2008494133944
 30
0.0
 10
76.49230971518527
 20
-124.2008494133944
 30
0.0
 10
77.49208191190118
 20
-123.2010771914218
 30
0.0
 10
77.49208191190118
 20
-123.2010771914218
 30
0.0
 10
77.49208191190118
 20
-123.2010771914218
 30
0.0
 10
81.99239735264412
 20
-123.2010771914218
 30
0.0
 10
81.99239735264412
 20
-123.2010771914218
 30
0.0
 10
82.2685165122664
 20
-123.2010771914218
 30
0.0
 10
82.49228345100207
 20
-123.4250205246994
 30
0.0
 10
82.49228345100207
 20
-123.701139691297
 30
0.0
 10
82.49228345100207
 20
-123.701139691297
 30
0.0
 10
82.49228345100207
 20
-134.2016407997829
 30
0.0
 10
82.49228345100207
 20
-134.2016407997829
 30
0.0
 10
82.49228345100207
 20
-134.2016407997829
 30
0.0
 10
94.49208981152817
 20
-134.2016407997829
 30
0.0
 10
94.49208981152817
 20
-134.2016407997829
 30
0.0
 10
94.49208981152817
 20
-134.2016407997829
 30
0.0
 10
94.49208981152817
 20
-123.701139691297
 30
0.0
 10
94.49208981152817
 20
-123.701139691297
 30
0.0
 10
94.49208981152817
 20
-123.4250205246994
 30
0.0
 10
94.71599786137136
 20
-123.2010771914218
 30
0.0
 10
94.99229340987803
 20
-123.2010771914218
 30
0.0
 10
94.99229340987803
 20
-123.2010771914218
 30
0.0
 10
99.49229135062907
 20
-123.2010771914218
 30
0.0
 10
99.49229135062907
 20
-123.2010771914218
 30
0.0
 10
99.49229135062907
 20
-123.2010771914218
 30
0.0
 10
100.492063547345
 20
-124.2008494133944
 30
0.0
 10
100.492063547345
 20
-124.2008494133944
 30
0.0
  0
ENDSEC
  0
SECTION
  2
OBJECTS
  0
DICTIONARY
  5
C
330
0
100
AcDbDictionary
281
     1
  3
ACAD_GROUP
350
D
  3
ACAD_LAYOUT
350
1A
  3
ACAD_MATERIAL
350
3B
  3
ACAD_MLEADERSTYLE
350
EA
  3
ACAD_MLINESTYLE
350
17
  3
ACAD_PLOTSETTINGS
350
19
  3
ACAD_PLOTSTYLENAME
350
E
  3
ACAD_TABLESTYLE
350
E9
  3
ACAD_VISUALSTYLE
350
2A
  0
SUN
  5
3F
330
29
100
AcDbSun
 90
        1
290
     0
 63
     7
421
 16777215
 40
1.0
291
     1
 91
  2455826
 92
 54000000
292
     0
 70
     2
 71
   256
280
     1
  0
DICTIONARY
  5
D
102
{ACAD_REACTORS
330
C
102
}
330
C
100
AcDbDictionary
281
     1
  0
DICTIONARY
  5
1A
102
{ACAD_REACTORS
330
C
102
}
330
C
100
AcDbDictionary
281
     1
  3
Layout1
350
1E
  3
Layout2
350
26
  3
Model
350
22
  0
DICTIONARY
  5
3B
102
{ACAD_REACTORS
330
C
102
}
330
C
100
AcDbDictionary
281
     1
  3
ByBlock
350
3D
  3
ByLayer
350
3C
  3
Global
350
3E
  0
DICTIONARY
  5
EA
102
{ACAD_REACTORS
330
C
102
}
330
C
100
AcDbDictionary
281
     1
  0
DICTIONARY
  5
17
102
{ACAD_REACTORS
330
C
102
}
330
C
100
AcDbDictionary
281
     1
  3
Standard
350
18
  0
DICTIONARY
  5
19
102
{ACAD_REACTORS
330
C
102
}
330
C
100
AcDbDictionary
281
     1
  0
ACDBDICTIONARYWDFLT
  5
E
102
{ACAD_REACTORS
330
C
102
}
330
C
100
AcDbDictionary
281
     1
  3
Normal
350
F
100
AcDbDictionaryWithDefault
340
F
  0
DICTIONARY
  5
E9
102
{ACAD_REACTORS
330
C
102
}
330
C
100
AcDbDictionary
281
     1
  0
DICTIONARY
  5
2A
102
{ACAD_REACTORS
330
C
102
}
330
C
100
AcDbDictionary
281
     1
  3
2dWireframe
350
2F
  3
3D Hidden
350
31
  3
3dWireframe
350
30
  3
Basic
350
32
  3
Brighten
350
36
  3
ColorChange
350
3A
  3
Conceptual
350
34
  3
Dim
350
35
  3
Facepattern
350
39
  3
Flat
350
2B
  3
FlatWithEdges
350
2C
  3
Gouraud
350
2D
  3
GouraudWithEdges
350
2E
  3
Linepattern
350
38
  3
Realistic
350
33
  3
Thicken
350
37
  0
LAYOUT
  5
1E
102
{ACAD_REACTORS
330
1A
102
}
330
1A
100
AcDbPlotSettings
  1

  2
none_device
  4

  6

 40
0.0
 41
0.0
 42
0.0
 43
0.0
 44
0.0
 45
0.0
 46
0.0
 47
0.0
 48
0.0
 49
0.0
140
0.0
141
0.0
142
1.0
143
1.0
 70
   688
 72
     0
 73
     0
 74
     5
  7

 75
    16
 76
     0
 77
     2
 78
   300
147
1.0
148
0.0
149
0.0
100
AcDbLayout
  1
Layout1
 70
     1
 71
     1
 10
0.0
 20
0.0
 11
12.0
 21
9.0
 12
0.0
 22
0.0
 32
0.0
 14
1.000000000000000E+20
 24
1.000000000000000E+20
 34
1.000000000000000E+20
 15
-1.000000000000000E+20
 25
-1.000000000000000E+20
 35
-1.000000000000000E+20
146
0.0
 13
0.0
 23
0.0
 33
0.0
 16
1.0
 26
0.0
 36
0.0
 17
0.0
 27
1.0
 37
0.0
 76
     0
330
1B
  0
LAYOUT
  5
26
102
{ACAD_REACTORS
330
1A
102
}
330
1A
100
AcDbPlotSettings
  1

  2
none_device
  4

  6

 40
0.0
 41
0.0
 42
0.0
 43
0.0
 44
0.0
 45
0.0
 46
0.0
 47
0.0
 48
0.0
 49
0.0
140
0.0
141
0.0
142
1.0
143
1.0
 70
   688
 72
     0
 73
     0
 74
     5
  7

 75
    16
 76
     0
 77
     2
 78
   300
147
1.0
148
0.0
149
0.0
100
AcDbLayout
  1
Layout2
 70
     1
 71
     2
 10
0.0
 20
0.0
 11
0.0
 21
0.0
 12
0.0
 22
0.0
 32
0.0
 14
0.0
 24
0.0
 34
0.0
 15
0.0
 25
0.0
 35
0.0
146
0.0
 13
0.0
 23
0.0
 33
0.0
 16
1.0
 26
0.0
 36
0.0
 17
0.0
 27
1.0
 37
0.0
 76
     0
330
23
  0
LAYOUT
  5
22
102
{ACAD_REACTORS
330
1A
102
}
330
1A
100
AcDbPlotSettings
  1

  2
none_device
  4

  6

 40
0.0
 41
0.0
 42
0.0
 43
0.0
 44
0.0
 45
0.0
 46
0.0
 47
0.0
 48
0.0
 49
0.0
140
0.0
141
0.0
142
1.0
143
1.0
 70
  1712
 72
     0
 73
     0
 74
     0
  7

 75
     0
 76
     0
 77
     2
 78
   300
147
1.0
148
0.0
149
0.0
100
AcDbLayout
  1
Model
 70
     1
 71
     0
 10
0.0
 20
0.0
 11
12.0
 21
9.0
 12
0.0
 22
0.0
 32
0.0
 14
1.000000000000000E+20
 24
1.000000000000000E+20
 34
1.000000000000000E+20
 15
-1.000000000000000E+20
 25
-1.000000000000000E+20
 35
-1.000000000000000E+20
146
0.0
 13
0.0
 23
0.0
 33
0.0
 16
1.0
 26
0.0
 36
0.0
 17
0.0
 27
1.0
 37
0.0
 76
     0
330
1F
331
29
  0
MATERIAL
  5
3D
102
{ACAD_REACTORS
330
3B
102
}
330
3B
100
AcDbMaterial
  1
ByBlock
 72
     1
 94
      127
  0
MATERIAL
  5
3C
102
{ACAD_REACTORS
330
3B
102
}
330
3B
100
AcDbMaterial
  1
ByLayer
 72
     1
 94
      127
  0
MATERIAL
  5
3E
102
{ACAD_REACTORS
330
3B
102
}
330
3B
100
AcDbMaterial
  1
Global
 72
     1
 94
      127
  0
MLINESTYLE
  5
18
102
{ACAD_REACTORS
330
17
102
}
330
17
100
AcDbMlineStyle
  2
Standard
 70
     0
  3

 62
   256
 51
90.0
 52
90.0
 71
     2
 49
0.5
 62
   256
  6
BYLAYER
 49
-0.5
 62
   256
  6
BYLAYER
  0
ACDBPLACEHOLDER
  5
F
102
{ACAD_REACTORS
330
E
102
}
330
E
  0
VISUALSTYLE
  5
2F
102
{ACAD_REACTORS
330
2A
102
}
330
2A
100
AcDbVisualStyle
  2
2dWireframe
 70
     4
177
     2
291
     0
 71
     0
176
     1
 72
     2
176
     1
 73
     0
176
     1
 90
        0
176
     1
 40
-0.6
176
     1
 41
-30.0
176
     1
 62
     5
 63
     7
421
 16777215
176
     1
 74
     1
176
     1
 91
        4
176
     1
 64
     7
176
     1
 65
   257
176
     1
 75
     1
176
     1
175
     1
176
     1
 42
1.0
176
     1
 92
        0
176
     1
 66
   257
176
     1
 43
1.0
176
     1
 76
     1
176
     1
 77
     6
176
     1
 78
     2
176
     1
 67
     7
176
     1
 79
     5
176
     1
170
     0
176
     1
171
     0
176
     1
290
     0
176
     1
 93
        1
176
     1
 44
0.0
176
     1
173
     0
176
     1
  0
VISUALSTYLE
  5
31
102
{ACAD_REACTORS
330
2A
102
}
330
2A
100
AcDbVisualStyle
  2
3D Hidden
 70
     6
177
     2
291
     0
 71
     1
176
     1
 72
     2
176
     1
 73
     2
176
     1
 90
        0
176
     1
 40
-0.6
176
     1
 41
-30.0
176
     1
 62
     5
 63
     7
421
 16777215
176
     1
 74
     2
176
     1
 91
        2
176
     1
 64
     7
176
     1
 65
   257
176
     1
 75
     2
176
     1
175
     1
176
     1
 42
40.0
176
     1
 92
        0
176
     1
 66
   257
176
     1
 43
1.0
176
     1
 76
     1
176
     1
 77
     6
176
     1
 78
     2
176
     1
 67
     7
176
     1
 79
     3
176
     1
170
     0
176
     1
171
     0
176
     1
290
     0
176
     1
 93
        1
176
     1
 44
0.0
176
     1
173
     0
176
     1
  0
VISUALSTYLE
  5
30
102
{ACAD_REACTORS
330
2A
102
}
330
2A
100
AcDbVisualStyle
  2
3dWireframe
 70
     5
177
     2
291
     0
 71
     0
176
     1
 72
     2
176
     1
 73
     0
176
     1
 90
        0
176
     1
 40
-0.6
176
     1
 41
-30.0
176
     1
 62
     5
 63
     7
421
 16777215
176
     1
 74
     1
176
     1
 91
        4
176
     1
 64
     7
176
     1
 65
   257
176
     1
 75
     1
176
     1
175
     1
176
     1
 42
1.0
176
     1
 92
        0
176
     1
 66
   257
176
     1
 43
1.0
176
     1
 76
     1
176
     1
 77
     6
176
     1
 78
     2
176
     1
 67
     7
176
     1
 79
     5
176
     1
170
     0
176
     1
171
     0
176
     1
290
     0
176
     1
 93
        1
176
     1
 44
0.0
176
     1
173
     0
176
     1
  0
VISUALSTYLE
  5
32
102
{ACAD_REACTORS
330
2A
102
}
330
2A
100
AcDbVisualStyle
  2
Basic
 70
     7
177
     2
291
     1
 71
     1
176
     1
 72
     0
176
     1
 73
     1
176
     1
 90
        0
176
     1
 40
-0.6
176
     1
 41
-30.0
176
     1
 62
     5
 63
     7
421
 16777215
176
     1
 74
     0
176
     1
 91
        4
176
     1
 64
     7
176
     1
 65
   257
176
     1
 75
     1
176
     1
175
     1
176
     1
 42
1.0
176
     1
 92
        8
176
     1
 66
     7
176
     1
 43
1.0
176
     1
 76
     1
176
     1
 77
     6
176
     1
 78
     2
176
     1
 67
     7
176
     1
 79
     5
176
     1
170
     0
176
     1
171
     0
176
     1
290
     0
176
     1
 93
        1
176
     1
 44
0.0
176
     1
173
     0
176
     1
  0
VISUALSTYLE
  5
36
102
{ACAD_REACTORS
330
2A
102
}
330
2A
100
AcDbVisualStyle
  2
Brighten
 70
    12
177
     2
291
     1
 71
     2
176
     1
 72
     2
176
     1
 73
     0
176
     1
 90
        0
176
     1
 40
-0.6
176
     1
 41
-30.0
176
     1
 62
     5
 63
     7
421
 16777215
176
     1
 74
     1
176
     1
 91
        4
176
     1
 64
     7
176
     1
 65
   257
176
     1
 75
     1
176
     1
175
     1
176
     1
 42
1.0
176
     1
 92
        8
176
     1
 66
     7
176
     1
 43
1.0
176
     1
 76
     1
176
     1
 77
     6
176
     1
 78
     2
176
     1
 67
     7
176
     1
 79
     5
176
     1
170
     0
176
     1
171
     0
176
     1
290
     0
176
     1
 93
        1
176
     1
 44
50.0
176
     1
173
     0
176
     1
  0
VISUALSTYLE
  5
3A
102
{ACAD_REACTORS
330
2A
102
}
330
2A
100
AcDbVisualStyle
  2
ColorChange
 70
    16
177
     2
291
     1
 71
     2
176
     1
 72
     2
176
     1
 73
     3
176
     1
 90
        0
176
     1
 40
-0.6
176
     1
 41
-30.0
176
     1
 62
     5
 63
     8
421
  8421504
176
     1
 74
     1
176
     1
 91
        4
176
     1
 64
     7
176
     1
 65
   257
176
     1
 75
     1
176
     1
175
     1
176
     1
 42
1.0
176
     1
 92
        8
176
     1
 66
     8
424
  8421504
176
     1
 43
1.0
176
     1
 76
     1
176
     1
 77
     6
176
     1
 78
     2
176
     1
 67
     7
176
     1
 79
     5
176
     1
170
     0
176
     1
171
     0
176
     1
290
     0
176
     1
 93
        1
176
     1
 44
0.0
176
     1
173
     0
176
     1
  0
VISUALSTYLE
  5
34
102
{ACAD_REACTORS
330
2A
102
}
330
2A
100
AcDbVisualStyle
  2
Conceptual
 70
     9
177
     2
291
     0
 71
     3
176
     1
 72
     2
176
     1
 73
     0
176
     1
 90
        0
176
     1
 40
-0.6
176
     1
 41
-30.0
176
     1
 62
     5
 63
     7
421
 16777215
176
     1
 74
     2
176
     1
 91
        2
176
     1
 64
     7
176
     1
 65
   257
176
     1
 75
     1
176
     1
175
     1
176
     1
 42
40.0
176
     1
 92
        8
176
     1
 66
     7
176
     1
 43
1.0
176
     1
 76
     1
176
     1
 77
     6
176
     1
 78
     2
176
     1
 67
     7
176
     1
 79
     3
176
     1
170
     0
176
     1
171
     0
176
     1
290
     0
176
     1
 93
        1
176
     1
 44
0.0
176
     1
173
     0
176
     1
  0
VISUALSTYLE
  5
35
102
{ACAD_REACTORS
330
2A
102
}
330
2A
100
AcDbVisualStyle
  2
Dim
 70
    11
177
     2
291
     1
 71
     2
176
     1
 72
     2
176
     1
 73
     0
176
     1
 90
        0
176
     1
 40
-0.6
176
     1
 41
-30.0
176
     1
 62
     5
 63
     7
421
 16777215
176
     1
 74
     1
176
     1
 91
        4
176
     1
 64
     7
176
     1
 65
   257
176
     1
 75
     1
176
     1
175
     1
176
     1
 42
1.0
176
     1
 92
        8
176
     1
 66
     7
176
     1
 43
1.0
176
     1
 76
     1
176
     1
 77
     6
176
     1
 78
     2
176
     1
 67
     7
176
     1
 79
     5
176
     1
170
     0
176
     1
171
     0
176
     1
290
     0
176
     1
 93
        1
176
     1
 44
-50.0
176
     1
173
     0
176
     1
  0
VISUALSTYLE
  5
39
102
{ACAD_REACTORS
330
2A
102
}
330
2A
100
AcDbVisualStyle
  2
Facepattern
 70
    15
177
     2
291
     1
 71
     2
176
     1
 72
     2
176
     1
 73
     0
176
     1
 90
        0
176
     1
 40
-0.6
176
     1
 41
-30.0
176
     1
 62
     5
 63
     7
421
 16777215
176
     1
 74
     1
176
     1
 91
        4
176
     1
 64
     7
176
     1
 65
   257
176
     1
 75
     1
176
     1
175
     1
176
     1
 42
1.0
176
     1
 92
        8
176
     1
 66
     7
176
     1
 43
1.0
176
     1
 76
     1
176
     1
 77
     6
176
     1
 78
     2
176
     1
 67
     7
176
     1
 79
     5
176
     1
170
     0
176
     1
171
     0
176
     1
290
     0
176
     1
 93
        1
176
     1
 44
0.0
176
     1
173
     0
176
     1
  0
VISUALSTYLE
  5
2B
102
{ACAD_REACTORS
330
2A
102
}
330
2A
100
AcDbVisualStyle
  2
Flat
 70
     0
177
     2
291
     1
 71
     2
176
     1
 72
     1
176
     1
 73
     1
176
     1
 90
        2
176
     1
 40
-0.6
176
     1
 41
30.0
176
     1
 62
     5
 63
     7
421
 16777215
176
     1
 74
     0
176
     1
 91
        4
176
     1
 64
     7
176
     1
 65
   257
176
     1
 75
     1
176
     1
175
     1
176
     1
 42
1.0
176
     1
 92
        8
176
     1
 66
     7
176
     1
 43
1.0
176
     1
 76
     1
176
     1
 77
     6
176
     1
 78
     2
176
     1
 67
     7
176
     1
 79
     5
176
     1
170
     0
176
     1
171
     0
176
     1
290
     0
176
     1
 93
       13
176
     1
 44
0.0
176
     1
173
     0
176
     1
  0
VISUALSTYLE
  5
2C
102
{ACAD_REACTORS
330
2A
102
}
330
2A
100
AcDbVisualStyle
  2
FlatWithEdges
 70
     1
177
     2
291
     1
 71
     2
176
     1
 72
     1
176
     1
 73
     1
176
     1
 90
        2
176
     1
 40
-0.6
176
     1
 41
30.0
176
     1
 62
     5
 63
     7
421
 16777215
176
     1
 74
     1
176
     1
 91
        4
176
     1
 64
     7
176
     1
 65
   257
176
     1
 75
     1
176
     1
175
     1
176
     1
 42
1.0
176
     1
 92
        0
176
     1
 66
   257
176
     1
 43
1.0
176
     1
 76
     1
176
     1
 77
     6
176
     1
 78
     2
176
     1
 67
     7
176
     1
 79
     5
176
     1
170
     0
176
     1
171
     0
176
     1
290
     0
176
     1
 93
       13
176
     1
 44
0.0
176
     1
173
     0
176
     1
  0
VISUALSTYLE
  5
2D
102
{ACAD_REACTORS
330
2A
102
}
330
2A
100
AcDbVisualStyle
  2
Gouraud
 70
     2
177
     2
291
     1
 71
     2
176
     1
 72
     2
176
     1
 73
     1
176
     1
 90
        2
176
     1
 40
-0.6
176
     1
 41
30.0
176
     1
 62
     5
 63
     7
421
 16777215
176
     1
 74
     0
176
     1
 91
        4
176
     1
 64
     7
176
     1
 65
   257
176
     1
 75
     1
176
     1
175
     1
176
     1
 42
1.0
176
     1
 92
        0
176
     1
 66
     7
176
     1
 43
1.0
176
     1
 76
     1
176
     1
 77
     6
176
     1
 78
     2
176
     1
 67
     7
176
     1
 79
     5
176
     1
170
     0
176
     1
171
     0
176
     1
290
     0
176
     1
 93
       13
176
     1
 44
0.0
176
     1
173
     0
176
     1
  0
VISUALSTYLE
  5
2E
102
{ACAD_REACTORS
330
2A
102
}
330
2A
100
AcDbVisualStyle
  2
GouraudWithEdges
 70
     3
177
     2
291
     1
 71
     2
176
     1
 72
     2
176
     1
 73
     1
176
     1
 90
        2
176
     1
 40
-0.6
176
     1
 41
30.0
176
     1
 62
     5
 63
     7
421
 16777215
176
     1
 74
     1
176
     1
 91
        4
176
     1
 64
     7
176
     1
 65
   257
176
     1
 75
     1
176
     1
175
     1
176
     1
 42
1.0
176
     1
 92
        0
176
     1
 66
   257
176
     1
 43
1.0
176
     1
 76
     1
176
     1
 77
     6
176
     1
 78
     2
176
     1
 67
     7
176
     1
 79
     5
176
     1
170
     0
176
     1
171
     0
176
     1
290
     0
176
     1
 93
       13
176
     1
 44
0.0
176
     1
173
     0
176
     1
  0
VISUALSTYLE
  5
38
102
{ACAD_REACTORS
330
2A
102
}
330
2A
100
AcDbVisualStyle
  2
Linepattern
 70
    14
177
     2
291
     1
 71
     2
176
     1
 72
     2
176
     1
 73
     0
176
     1
 90
        0
176
     1
 40
-0.6
176
     1
 41
-30.0
176
     1
 62
     5
 63
     7
421
 16777215
176
     1
 74
     1
176
     1
 91
        4
176
     1
 64
     7
176
     1
 65
   257
176
     1
 75
     7
176
     1
175
     7
176
     1
 42
1.0
176
     1
 92
        8
176
     1
 66
     7
176
     1
 43
1.0
176
     1
 76
     1
176
     1
 77
     6
176
     1
 78
     2
176
     1
 67
     7
176
     1
 79
     5
176
     1
170
     0
176
     1
171
     0
176
     1
290
     0
176
     1
 93
        1
176
     1
 44
0.0
176
     1
173
     0
176
     1
  0
VISUALSTYLE
  5
33
102
{ACAD_REACTORS
330
2A
102
}
330
2A
100
AcDbVisualStyle
  2
Realistic
 70
     8
177
     2
291
     0
 71
     2
176
     1
 72
     2
176
     1
 73
     0
176
     1
 90
        0
176
     1
 40
-0.6
176
     1
 41
-30.0
176
     1
 62
     5
 63
     7
421
 16777215
176
     1
 74
     1
176
     1
 91
        0
176
     1
 64
     7
176
     1
 65
   257
176
     1
 75
     1
176
     1
175
     1
176
     1
 42
1.0
176
     1
 92
        8
176
     1
 66
     8
424
  7895160
176
     1
 43
1.0
176
     1
 76
     1
176
     1
 77
     6
176
     1
 78
     2
176
     1
 67
     7
176
     1
 79
     5
176
     1
170
     0
176
     1
171
     0
176
     1
290
     0
176
     1
 93
       13
176
     1
 44
0.0
176
     1
173
     0
176
     1
  0
VISUALSTYLE
  5
37
102
{ACAD_REACTORS
330
2A
102
}
330
2A
100
AcDbVisualStyle
  2
Thicken
 70
    13
177
     2
291
     1
 71
     2
176
     1
 72
     2
176
     1
 73
     0
176
     1
 90
        0
176
     1
 40
-0.6
176
     1
 41
-30.0
176
     1
 62
     5
 63
     7
421
 16777215
176
     1
 74
     1
176
     1
 91
        4
176
     1
 64
     7
176
     1
 65
   257
176
     1
 75
     1
176
     1
175
     1
176
     1
 42
1.0
176
     1
 92
       12
176
     1
 66
     7
176
     1
 43
1.0
176
     1
 76
     1
176
     1
 77
     6
176
     1
 78
     2
176
     1
 67
     7
176
     1
 79
     5
176
     1
170
     0
176
     1
171
     0
176
     1
290
     0
176
     1
 93
        1
176
     1
 44
0.0
176
     1
173
     0
176
     1
  0
ENDSEC
  0
EOF
