  0
SECTION
  2
HEADER
  9
$ACADVER
  1
AC1024
  9
$ACADMAINTVER
 70
     6
  9
$DWGCODEPAGE
  3
UNDEFINED
  9
$INSBASE
 10
0.0
 20
0.0
 30
0.0
  9
$EXTMIN
 10
1.000000000000000E+20
 20
1.000000000000000E+20
 30
1.000000000000000E+20
  9
$EXTMAX
 10
-1.000000000000000E+20
 20
-1.000000000000000E+20
 30
-1.000000000000000E+20
  9
$LIMMIN
 10
0.0
 20
0.0
  9
$LIMMAX
 10
12.0
 20
9.0
  9
$ORTHOMODE
 70
     0
  9
$REGENMODE
 70
     1
  9
$FILLMODE
 70
     1
  9
$QTEXTMODE
 70
     0
  9
$MIRRTEXT
 70
     1
  9
$LTSCALE
 40
1.0
  9
$ATTMODE
 70
     1
  9
$TEXTSIZE
 40
0.2
  9
$TRACEWID
 40
0.05
  9
$TEXTSTYLE
  7
Standard
  9
$CLAYER
  8
0
  9
$CELTYPE
  6
ByLayer
  9
$CECOLOR
 62
   256
  9
$CELTSCALE
 40
1.0
  9
$DISPSILH
 70
     0
  9
$DIMSCALE
 40
1.0
  9
$DIMASZ
 40
0.18
  9
$DIMEXO
 40
0.0625
  9
$DIMDLI
 40
0.38
  9
$DIMRND
 40
0.0
  9
$DIMDLE
 40
0.0
  9
$DIMEXE
 40
0.18
  9
$DIMTP
 40
0.0
  9
$DIMTM
 40
0.0
  9
$DIMTXT
 40
0.18
  9
$DIMCEN
 40
0.09
  9
$DIMTSZ
 40
0.0
  9
$DIMTOL
 70
     0
  9
$DIMLIM
 70
     0
  9
$DIMTIH
 70
     1
  9
$DIMTOH
 70
     1
  9
$DIMSE1
 70
     0
  9
$DIMSE2
 70
     0
  9
$DIMTAD
 70
     0
  9
$DIMZIN
 70
     0
  9
$DIMBLK
  1

  9
$DIMASO
 70
     1
  9
$DIMSHO
 70
     1
  9
$DIMPOST
  1

  9
$DIMAPOST
  1

  9
$DIMALT
 70
     0
  9
$DIMALTD
 70
     2
  9
$DIMALTF
 40
25.4
  9
$DIMLFAC
 40
1.0
  9
$DIMTOFL
 70
     0
  9
$DIMTVP
 40
0.0
  9
$DIMTIX
 70
     0
  9
$DIMSOXD
 70
     0
  9
$DIMSAH
 70
     0
  9
$DIMBLK1
  1

  9
$DIMBLK2
  1

  9
$DIMSTYLE
  2
Standard
  9
$DIMCLRD
 70
     0
  9
$DIMCLRE
 70
     0
  9
$DIMCLRT
 70
     0
  9
$DIMTFAC
 40
1.0
  9
$DIMGAP
 40
0.09
  9
$DIMJUST
 70
     0
  9
$DIMSD1
 70
     0
  9
$DIMSD2
 70
     0
  9
$DIMTOLJ
 70
     1
  9
$DIMTZIN
 70
     0
  9
$DIMALTZ
 70
     0
  9
$DIMALTTZ
 70
     0
  9
$DIMUPT
 70
     0
  9
$DIMDEC
 70
     4
  9
$DIMTDEC
 70
     4
  9
$DIMALTU
 70
     2
  9
$DIMALTTD
 70
     2
  9
$DIMTXSTY
  7
Standard
  9
$DIMAUNIT
 70
     0
  9
$DIMADEC
 70
     0
  9
$DIMALTRND
 40
0.0
  9
$DIMAZIN
 70
     0
  9
$DIMDSEP
 70
    46
  9
$DIMATFIT
 70
     3
  9
$DIMFRAC
 70
     0
  9
$DIMLDRBLK
  1

  9
$DIMLUNIT
 70
     2
  9
$DIMLWD
 70
    -2
  9
$DIMLWE
 70
    -2
  9
$DIMTMOVE
 70
     0
  9
$DIMFXL
 40
1.0
  9
$DIMFXLON
 70
     0
  9
$DIMJOGANG
 40
0.7853981633974483
  9
$DIMTFILL
 70
     0
  9
$DIMTFILLCLR
 70
     0
  9
$DIMARCSYM
 70
     0
  9
$DIMLTYPE
  6

  9
$DIMLTEX1
  6

  9
$DIMLTEX2
  6

  9
$DIMTXTDIRECTION
 70
     0
  9
$LUNITS
 70
     2
  9
$LUPREC
 70
     4
  9
$SKETCHINC
 40
0.1
  9
$FILLETRAD
 40
0.5
  9
$AUNITS
 70
     0
  9
$AUPREC
 70
     0
  9
$MENU
  1
.
  9
$ELEVATION
 40
0.0
  9
$PELEVATION
 40
0.0
  9
$THICKNESS
 40
0.0
  9
$LIMCHECK
 70
     0
  9
$CHAMFERA
 40
0.5
  9
$CHAMFERB
 40
0.5
  9
$CHAMFERC
 40
1.0
  9
$CHAMFERD
 40
0.0
  9
$SKPOLY
 70
     0
  9
$TDCREATE
 40
2457917.596157396
  9
$TDUCREATE
 40
2457917.221157407
  9
$TDUPDATE
 40
2457917.596157396
  9
$TDUUPDATE
 40
2457917.221157407
  9
$TDINDWG
 40
0.0000000116
  9
$TDUSRTIMER
 40
0.0000000116
  9
$USRTIMER
 70
     1
  9
$ANGBASE
 50
0.0
  9
$ANGDIR
 70
     0
  9
$PDMODE
 70
     0
  9
$PDSIZE
 40
0.0
  9
$PLINEWID
 40
0.0
  9
$SPLFRAME
 70
     0
  9
$SPLINETYPE
 70
     6
  9
$SPLINESEGS
 70
     8
  9
$HANDSEED
  5
113
  9
$SURFTAB1
 70
     6
  9
$SURFTAB2
 70
     6
  9
$SURFTYPE
 70
     6
  9
$SURFU
 70
     6
  9
$SURFV
 70
     6
  9
$UCSBASE
  2

  9
$UCSNAME
  2

  9
$UCSORG
 10
0.0
 20
0.0
 30
0.0
  9
$UCSXDIR
 10
1.0
 20
0.0
 30
0.0
  9
$UCSYDIR
 10
0.0
 20
1.0
 30
0.0
  9
$UCSORTHOREF
  2

  9
$UCSORTHOVIEW
 70
     0
  9
$UCSORGTOP
 10
0.0
 20
0.0
 30
0.0
  9
$UCSORGBOTTOM
 10
0.0
 20
0.0
 30
0.0
  9
$UCSORGLEFT
 10
0.0
 20
0.0
 30
0.0
  9
$UCSORGRIGHT
 10
0.0
 20
0.0
 30
0.0
  9
$UCSORGFRONT
 10
0.0
 20
0.0
 30
0.0
  9
$UCSORGBACK
 10
0.0
 20
0.0
 30
0.0
  9
$PUCSBASE
  2

  9
$PUCSNAME
  2

  9
$PUCSORG
 10
0.0
 20
0.0
 30
0.0
  9
$PUCSXDIR
 10
1.0
 20
0.0
 30
0.0
  9
$PUCSYDIR
 10
0.0
 20
1.0
 30
0.0
  9
$PUCSORTHOREF
  2

  9
$PUCSORTHOVIEW
 70
     0
  9
$PUCSORGTOP
 10
0.0
 20
0.0
 30
0.0
  9
$PUCSORGBOTTOM
 10
0.0
 20
0.0
 30
0.0
  9
$PUCSORGLEFT
 10
0.0
 20
0.0
 30
0.0
  9
$PUCSORGRIGHT
 10
0.0
 20
0.0
 30
0.0
  9
$PUCSORGFRONT
 10
0.0
 20
0.0
 30
0.0
  9
$PUCSORGBACK
 10
0.0
 20
0.0
 30
0.0
  9
$USERI1
 70
     0
  9
$USERI2
 70
     0
  9
$USERI3
 70
     0
  9
$USERI4
 70
     0
  9
$USERI5
 70
     0
  9
$USERR1
 40
0.0
  9
$USERR2
 40
0.0
  9
$USERR3
 40
0.0
  9
$USERR4
 40
0.0
  9
$USERR5
 40
0.0
  9
$WORLDVIEW
 70
     1
  9
$SHADEDGE
 70
     3
  9
$SHADEDIF
 70
    70
  9
$TILEMODE
 70
     1
  9
$MAXACTVP
 70
    64
  9
$PINSBASE
 10
0.0
 20
0.0
 30
0.0
  9
$PLIMCHECK
 70
     0
  9
$PEXTMIN
 10
1.000000000000000E+20
 20
1.000000000000000E+20
 30
1.000000000000000E+20
  9
$PEXTMAX
 10
-1.000000000000000E+20
 20
-1.000000000000000E+20
 30
-1.000000000000000E+20
  9
$PLIMMIN
 10
0.0
 20
0.0
  9
$PLIMMAX
 10
12.0
 20
9.0
  9
$UNITMODE
 70
     0
  9
$VISRETAIN
 70
     1
  9
$PLINEGEN
 70
     0
  9
$PSLTSCALE
 70
     1
  9
$TREEDEPTH
 70
  3020
  9
$CMLSTYLE
  2
Standard
  9
$CMLJUST
 70
     0
  9
$CMLSCALE
 40
1.0
  9
$PROXYGRAPHICS
 70
     1
  9
$MEASUREMENT
 70
     0
  9
$CELWEIGHT
370
    -1
  9
$ENDCAPS
280
     0
  9
$JOINSTYLE
280
     0
  9
$LWDISPLAY
290
     1
  9
$INSUNITS
 70
     1
  9
$HYPERLINKBASE
  1

  9
$STYLESHEET
  1

  9
$XEDIT
290
     1
  9
$CEPSNTYPE
380
     0
  9
$PSTYLEMODE
290
     1
  9
$FINGERPRINTGUID
  2
{8165FC3D-9D99-A042-4FDE-CECD657C658A}
  9
$VERSIONGUID
  2
{FAEB1C32-E019-11D5-929B-00C0DF256EC4}
  9
$EXTNAMES
290
     1
  9
$PSVPSCALE
 40
0.0
  9
$OLESTARTUP
290
     0
  9
$SORTENTS
280
   127
  9
$INDEXCTL
280
     0
  9
$HIDETEXT
280
     1
  9
$XCLIPFRAME
280
     2
  9
$HALOGAP
280
     0
  9
$OBSCOLOR
 70
   257
  9
$OBSLTYPE
280
     0
  9
$INTERSECTIONDISPLAY
280
     0
  9
$INTERSECTIONCOLOR
 70
   257
  9
$DIMASSOC
280
     2
  9
$PROJECTNAME
  1

  9
$CAMERADISPLAY
290
     0
  9
$LENSLENGTH
 40
50.0
  9
$CAMERAHEIGHT
 40
0.0
  9
$STEPSPERSEC
 40
2.0
  9
$STEPSIZE
 40
6.0
  9
$3DDWFPREC
 40
2.0
  9
$PSOLWIDTH
 40
0.25
  9
$PSOLHEIGHT
 40
4.0
  9
$LOFTANG1
 40
1.570796326794897
  9
$LOFTANG2
 40
1.570796326794897
  9
$LOFTMAG1
 40
0.0
  9
$LOFTMAG2
 40
0.0
  9
$LOFTPARAM
 70
     7
  9
$LOFTNORMALS
280
     1
  9
$LATITUDE
 40
37.795
  9
$LONGITUDE
 40
-122.394
  9
$NORTHDIRECTION
 40
0.0
  9
$TIMEZONE
 70
 -8000
  9
$LIGHTGLYPHDISPLAY
280
     1
  9
$TILEMODELIGHTSYNCH
280
     1
  9
$CMATERIAL
347
3C
  9
$SOLIDHIST
280
     1
  9
$SHOWHIST
280
     1
  9
$DWFFRAME
280
     2
  9
$DGNFRAME
280
     2
  9
$REALWORLDSCALE
290
     1
  9
$INTERFERECOLOR
 62
   256
  9
$CSHADOW
280
     0
  9
$SHADOWPLANELOCATION
 40
0.0
  0
ENDSEC
  0
SECTION
  2
CLASSES
  0
CLASS
  1
ACDBDICTIONARYWDFLT
  2
AcDbDictionaryWithDefault
  3
ObjectDBX Classes
 90
        0
 91
        4
280
     0
281
     0
  0
CLASS
  1
VISUALSTYLE
  2
AcDbVisualStyle
  3
ObjectDBX Classes
 90
     4095
 91
        4
280
     0
281
     0
  0
CLASS
  1
MATERIAL
  2
AcDbMaterial
  3
ObjectDBX Classes
 90
     1153
 91
        4
280
     0
281
     0
  0
CLASS
  1
SUN
  2
AcDbSun
  3
SCENEOE
 90
     1024
 91
        4
280
     0
281
     0
  0
ENDSEC
  0
SECTION
  2
TABLES
  0
TABLE
  2
VPORT
  5
8
330
0
100
AcDbSymbolTable
 70
     1
  0
VPORT
  5
29
330
8
100
AcDbSymbolTableRecord
100
AcDbViewportTableRecord
  2
*Active
 70
     0
 10
0.0
 20
0.0
 11
1.0
 21
1.0
 12
0.0
 22
0.0
 13
0.0
 23
0.0
 14
0.5
 24
0.5
 15
0.5
 25
0.5
 16
0.0
 26
0.0
 36
1.0
 17
91.00082462281999
 27
-128.4993055234307
 37
0.0
 40
256.9986110468615
 41
0.7081814508812795
 42
50.0
 43
0.0
 44
0.0
 50
0.0
 51
0.0
 71
     0
 72
   100
 73
     1
 74
     3
 75
     0
 76
     0
 77
     0
 78
     0
281
     0
 65
     1
110
0.0
120
0.0
130
0.0
111
1.0
121
0.0
131
0.0
112
0.0
122
1.0
132
0.0
 79
     0
146
0.0
 60
     3
 61
     5
292
     1
282
     1
141
0.0
142
0.0
 63
   250
361
3F
  0
ENDTAB
  0
TABLE
  2
LTYPE
  5
5
330
0
100
AcDbSymbolTable
 70
     1
  0
LTYPE
  5
14
330
5
100
AcDbSymbolTableRecord
100
AcDbLinetypeTableRecord
  2
ByBlock
 70
     0
  3

 72
    65
 73
     0
 40
0.0
  0
LTYPE
  5
15
330
5
100
AcDbSymbolTableRecord
100
AcDbLinetypeTableRecord
  2
ByLayer
 70
     0
  3

 72
    65
 73
     0
 40
0.0
  0
LTYPE
  5
16
330
5
100
AcDbSymbolTableRecord
100
AcDbLinetypeTableRecord
  2
Continuous
 70
     0
  3
Solid line
 72
    65
 73
     0
 40
0.0
  0
ENDTAB
  0
TABLE
  2
LAYER
  5
2
330
0
100
AcDbSymbolTable
 70
     2
  0
LAYER
  5
10
330
2
100
AcDbSymbolTableRecord
100
AcDbLayerTableRecord
  2
0
 70
     0
 62
     7
  6
Continuous
370
    -3
390
F
347
3E
  0
LAYER
  5
40
330
2
100
AcDbSymbolTableRecord
100
AcDbLayerTableRecord
  2
_U+30EC_U+30A4_U+30E4_U+30FC 1
 70
     0
 62
     7
  6
Continuous
370
    -3
390
F
347
3E
  0
ENDTAB
  0
TABLE
  2
STYLE
  5
3
330
0
100
AcDbSymbolTable
 70
     1
  0
STYLE
  5
11
330
3
100
AcDbSymbolTableRecord
100
AcDbTextStyleTableRecord
  2
Standard
 70
     0
 40
0.0
 41
1.0
 50
0.0
 71
     0
 42
0.2
  3
txt
  4

  0
ENDTAB
  0
TABLE
  2
VIEW
  5
6
330
0
100
AcDbSymbolTable
 70
     0
  0
ENDTAB
  0
TABLE
  2
UCS
  5
7
330
0
100
AcDbSymbolTable
 70
     0
  0
ENDTAB
  0
TABLE
  2
APPID
  5
9
330
0
100
AcDbSymbolTable
 70
     1
  0
APPID
  5
12
330
9
100
AcDbSymbolTableRecord
100
AcDbRegAppTableRecord
  2
ACAD
 70
     0
  0
ENDTAB
  0
TABLE
  2
DIMSTYLE
  5
A
330
0
100
AcDbSymbolTable
 70
     1
100
AcDbDimStyleTable
  0
DIMSTYLE
105
27
330
A
100
AcDbSymbolTableRecord
100
AcDbDimStyleTableRecord
  2
Standard
 70
     0
178
     0
340
11
  0
ENDTAB
  0
TABLE
  2
BLOCK_RECORD
  5
1
330
0
100
AcDbSymbolTable
 70
     7
  0
BLOCK_RECORD
  5
1F
330
1
100
AcDbSymbolTableRecord
100
AcDbBlockTableRecord
  2
*Model_Space
340
22
 70
     0
280
     1
281
     0
  0
BLOCK_RECORD
  5
1B
330
1
100
AcDbSymbolTableRecord
100
AcDbBlockTableRecord
  2
*Paper_Space
340
1E
 70
     0
280
     1
281
     0
  0
BLOCK_RECORD
  5
23
330
1
100
AcDbSymbolTableRecord
100
AcDbBlockTableRecord
  2
*Paper_Space0
340
26
 70
     0
280
     1
281
     0
  0
BLOCK_RECORD
  5
89
330
1
100
AcDbSymbolTableRecord
100
AcDbBlockTableRecord
  2
block 2
340
0
102
{BLKREFS
331
8A
102
}
 70
     0
280
     1
281
     0
  0
BLOCK_RECORD
  5
A6
330
1
100
AcDbSymbolTableRecord
100
AcDbBlockTableRecord
  2
block 3
340
0
102
{BLKREFS
331
A7
102
}
 70
     0
280
     1
281
     0
  0
BLOCK_RECORD
  5
B6
330
1
100
AcDbSymbolTableRecord
100
AcDbBlockTableRecord
  2
block 4
340
0
102
{BLKREFS
331
B7
102
}
 70
     0
280
     1
281
     0
  0
BLOCK_RECORD
  5
D7
330
1
100
AcDbSymbolTableRecord
100
AcDbBlockTableRecord
  2
block 5
340
0
102
{BLKREFS
331
D8
102
}
 70
     0
280
     1
281
     0
  0
BLOCK_RECORD
  5
FC
330
1
100
AcDbSymbolTableRecord
100
AcDbBlockTableRecord
  2
block 6
340
0
102
{BLKREFS
331
FD
102
}
 70
     0
280
     1
281
     0
  0
BLOCK_RECORD
  5
106
330
1
100
AcDbSymbolTableRecord
100
AcDbBlockTableRecord
  2
block 7
340
0
102
{BLKREFS
331
107
102
}
 70
     0
280
     1
281
     0
  0
ENDTAB
  0
ENDSEC
  0
SECTION
  2
BLOCKS
  0
BLOCK
  5
20
330
1F
100
AcDbEntity
  8
0
100
AcDbBlockBegin
  2
*Model_Space
 70
     0
 10
0.0
 20
0.0
 30
0.0
  3
*Model_Space
  1

  0
ENDBLK
  5
21
330
1F
100
AcDbEntity
  8
0
100
AcDbBlockEnd
  0
BLOCK
  5
1C
330
1B
100
AcDbEntity
 67
     1
  8
0
100
AcDbBlockBegin
  2
*Paper_Space
 70
     0
 10
0.0
 20
0.0
 30
0.0
  3
*Paper_Space
  1

  0
ENDBLK
  5
1D
330
1B
100
AcDbEntity
 67
     1
  8
0
100
AcDbBlockEnd
  0
BLOCK
  5
24
330
23
100
AcDbEntity
  8
0
100
AcDbBlockBegin
  2
*Paper_Space0
 70
     0
 10
0.0
 20
0.0
 30
0.0
  3
*Paper_Space0
  1

  0
ENDBLK
  5
25
330
23
100
AcDbEntity
  8
0
100
AcDbBlockEnd
  0
BLOCK
  5
8B
330
89
100
AcDbEntity
  8
0
100
AcDbBlockBegin
  2
block 2
 70
     0
 10
0.0
 20
0.0
 30
0.0
  3
block 2
  1

  0
SPLINE
  5
8D
330
89
100
AcDbEntity
  8
_U+30EC_U+30A4_U+30E4_U+30FC 1
370
     0
100
AcDbSpline
210
0.0
220
0.0
230
1.0
 70
    11
 71
     3
 72
    32
 73
    28
 74
     0
 42
0.0000000001
 43
0.0000000001
 12
1.0
 22
0.0
 32
0.0
 13
1.0
 23
0.0
 33
0.0
 40
0.0
 40
0.0
 40
0.0
 40
0.0
 40
1.0
 40
1.0
 40
1.0
 40
2.0
 40
2.0
 40
2.0
 40
3.0
 40
3.0
 40
3.0
 40
4.0
 40
4.0
 40
4.0
 40
5.0
 40
5.0
 40
5.0
 40
6.0
 40
6.0
 40
6.0
 40
7.0
 40
7.0
 40
7.0
 40
8.0
 40
8.0
 40
8.0
 40
9.0
 40
9.0
 40
9.0
 40
9.0
 10
104.1738308116302
 20
-129.9975775499659
 30
0.0
 10
104.1738308116302
 20
-130.5136528536563
 30
0.0
 10
103.619859457602
 20
-130.5222655923695
 30
0.0
 10
103.405919027968
 20
-130.5222655923695
 30
0.0
 10
103.1754421400048
 20
-130.5222655923695
 30
0.0
 10
102.5281086983263
 20
-130.502973057652
 30
0.0
 10
102.5281086983263
 20
-129.9593369900796
 30
0.0
 10
102.5281086983263
 20
-129.7860486871716
 30
0.0
 10
102.5980441366769
 20
-129.5404133790732
 30
0.0
 10
102.930151341455
 20
-129.5025173287355
 30
0.0
 10
102.930151341455
 20
-129.5025173287355
 30
0.0
 10
102.930151341455
 20
-129.716113248821
 30
0.0
 10
102.930151341455
 20
-129.716113248821
 30
0.0
 10
102.8729627563998
 20
-129.7267930448253
 30
0.0
 10
102.7248236505341
 20
-129.7584879232896
 30
0.0
 10
102.7248236505341
 20
-129.9614040473708
 30
0.0
 10
102.7248236505341
 20
-130.25354814452
 30
0.0
 10
103.0527967407299
 20
-130.2935112521488
 30
0.0
 10
103.2577799221022
 20
-130.3062581054443
 30
0.0
 10
103.1795762545871
 20
-130.2132405273425
 30
0.0
 10
103.1203206122408
 20
-130.1453721462831
 30
0.0
 10
103.1203206122408
 20
-129.9634711046619
 30
0.0
 10
103.1203206122408
 20
-129.7836371203319
 30
0.0
 10
103.2284966104776
 20
-129.4811577367269
 30
0.0
 10
103.6346733681886
 20
-129.4811577367269
 30
0.0
 10
103.9540337196712
 20
-129.4811577367269
 30
0.0
 10
104.1738308116302
 20
-129.6802842557744
 30
0.0
 10
104.1738308116302
 20
-129.9975775499659
 30
0.0
  0
SPLINE
  5
8E
330
89
100
AcDbEntity
  8
_U+30EC_U+30A4_U+30E4_U+30FC 1
370
     0
100
AcDbSpline
210
0.0
220
0.0
230
1.0
 70
    11
 71
     3
 72
    17
 73
    13
 74
     0
 42
0.0000000001
 43
0.0000000001
 12
1.0
 22
0.0
 32
0.0
 13
1.0
 23
0.0
 33
0.0
 40
0.0
 40
0.0
 40
0.0
 40
0.0
 40
1.0
 40
1.0
 40
1.0
 40
2.0
 40
2.0
 40
2.0
 40
3.0
 40
3.0
 40
3.0
 40
4.0
 40
4.0
 40
4.0
 40
4.0
 10
103.3149685071574
 20
-129.9806965820882
 30
0.0
 10
103.3149685071574
 20
-130.2428683485157
 30
0.0
 10
103.5264973699517
 20
-130.2807643988534
 30
0.0
 10
103.6429415973532
 20
-130.2807643988534
 30
0.0
 10
103.8186414671009
 20
-130.2807643988534
 30
0.0
 10
103.9815944835532
 20
-130.1856797634605
 30
0.0
 10
103.9815944835532
 20
-130.0017116645482
 30
0.0
 10
103.9815944835532
 20
-129.8811333225644
 30
0.0
 10
103.9223388412069
 20
-129.7054334528167
 30
0.0
 10
103.6367404254797
 20
-129.7054334528167
 30
0.0
 10
103.41246470939
 20
-129.7054334528167
 30
0.0
 10
103.3149685071574
 20
-129.8449598199693
 30
0.0
 10
103.3149685071574
 20
-129.9806965820882
 30
0.0
  0
HATCH
  5
8F
330
89
100
AcDbEntity
  8
_U+30EC_U+30A4_U+30E4_U+30FC 1
 62
   179
420
  2234388
100
AcDbHatch
 10
0.0
 20
0.0
 30
0.0
210
0.0
220
0.0
230
1.0
  2
SOLID
 70
     1
 71
     0
 91
        2
 92
        1
 93
        1
 72
     4
 94
        3
 73
     0
 74
     1
 95
       32
 96
       28
 40
0.0
 40
0.0
 40
0.0
 40
0.0
 40
1.0
 40
1.0
 40
1.0
 40
2.0
 40
2.0
 40
2.0
 40
3.0
 40
3.0
 40
3.0
 40
4.0
 40
4.0
 40
4.0
 40
5.0
 40
5.0
 40
5.0
 40
6.0
 40
6.0
 40
6.0
 40
7.0
 40
7.0
 40
7.0
 40
8.0
 40
8.0
 40
8.0
 40
9.0
 40
9.0
 40
9.0
 40
9.0
 10
104.1738308116302
 20
-129.9975775499659
 10
104.1738308116302
 20
-130.5136528536563
 10
103.619859457602
 20
-130.5222655923695
 10
103.405919027968
 20
-130.5222655923695
 10
103.1754421400048
 20
-130.5222655923695
 10
102.5281086983263
 20
-130.502973057652
 10
102.5281086983263
 20
-129.9593369900796
 10
102.5281086983263
 20
-129.7860486871716
 10
102.5980441366769
 20
-129.5404133790732
 10
102.930151341455
 20
-129.5025173287355
 10
102.930151341455
 20
-129.5025173287355
 10
102.930151341455
 20
-129.716113248821
 10
102.930151341455
 20
-129.716113248821
 10
102.8729627563998
 20
-129.7267930448253
 10
102.7248236505341
 20
-129.7584879232896
 10
102.7248236505341
 20
-129.9614040473708
 10
102.7248236505341
 20
-130.25354814452
 10
103.0527967407299
 20
-130.2935112521488
 10
103.2577799221022
 20
-130.3062581054443
 10
103.1795762545871
 20
-130.2132405273425
 10
103.1203206122408
 20
-130.1453721462831
 10
103.1203206122408
 20
-129.9634711046619
 10
103.1203206122408
 20
-129.7836371203319
 10
103.2284966104776
 20
-129.4811577367269
 10
103.6346733681886
 20
-129.4811577367269
 10
103.9540337196712
 20
-129.4811577367269
 10
104.1738308116302
 20
-129.6802842557744
 10
104.1738308116302
 20
-129.9975775499659
 97
        0
 97
        0
 92
        1
 93
        1
 72
     4
 94
        3
 73
     0
 74
     1
 95
       17
 96
       13
 40
0.0
 40
0.0
 40
0.0
 40
0.0
 40
1.0
 40
1.0
 40
1.0
 40
2.0
 40
2.0
 40
2.0
 40
3.0
 40
3.0
 40
3.0
 40
4.0
 40
4.0
 40
4.0
 40
4.0
 10
103.3149685071574
 20
-129.9806965820882
 10
103.3149685071574
 20
-130.2428683485157
 10
103.5264973699517
 20
-130.2807643988534
 10
103.6429415973532
 20
-130.2807643988534
 10
103.8186414671009
 20
-130.2807643988534
 10
103.9815944835532
 20
-130.1856797634605
 10
103.9815944835532
 20
-130.0017116645482
 10
103.9815944835532
 20
-129.8811333225644
 10
103.9223388412069
 20
-129.7054334528167
 10
103.6367404254797
 20
-129.7054334528167
 10
103.41246470939
 20
-129.7054334528167
 10
103.3149685071574
 20
-129.8449598199693
 10
103.3149685071574
 20
-129.9806965820882
 97
        0
 97
        0
 75
     2
 76
     1
 98
        0
  0
POLYLINE
  5
90
330
89
100
AcDbEntity
  8
_U+30EC_U+30A4_U+30E4_U+30FC 1
370
     0
100
AcDb2dPolyline
 66
     1
 10
0.0
 20
0.0
 30
0.0
  0
VERTEX
  5
91
330
90
100
AcDbEntity
  8
_U+30EC_U+30A4_U+30E4_U+30FC 1
370
     0
100
AcDbVertex
100
AcDb2dVertex
 10
104.123187907997
 20
-129.2648057402533
 30
0.0
  0
VERTEX
  5
92
330
90
100
AcDbEntity
  8
_U+30EC_U+30A4_U+30E4_U+30FC 1
370
     0
100
AcDbVertex
100
AcDb2dVertex
 10
103.8713514280252
 20
-129.2648057402533
 30
0.0
  0
VERTEX
  5
93
330
90
100
AcDbEntity
  8
_U+30EC_U+30A4_U+30E4_U+30FC 1
370
     0
100
AcDbVertex
100
AcDb2dVertex
 10
103.8713514280252
 20
-129.0129692602815
 30
0.0
  0
VERTEX
  5
94
330
90
100
AcDbEntity
  8
_U+30EC_U+30A4_U+30E4_U+30FC 1
370
     0
100
AcDbVertex
100
AcDb2dVertex
 10
104.123187907997
 20
-129.0129692602815
 30
0.0
  0
VERTEX
  5
95
330
90
100
AcDbEntity
  8
_U+30EC_U+30A4_U+30E4_U+30FC 1
370
     0
100
AcDbVertex
100
AcDb2dVertex
 10
104.123187907997
 20
-129.2648057402533
 30
0.0
  0
SEQEND
  5
96
330
90
100
AcDbEntity
  8
_U+30EC_U+30A4_U+30E4_U+30FC 1
370
     0
  0
HATCH
  5
97
330
89
100
AcDbEntity
  8
_U+30EC_U+30A4_U+30E4_U+30FC 1
 62
   179
420
  2234388
100
AcDbHatch
 10
0.0
 20
0.0
 30
0.0
210
0.0
220
0.0
230
1.0
  2
SOLID
 70
     1
 71
     0
 91
        1
 92
        1
 93
        4
 72
     1
 10
104.123187907997
 20
-129.2648057402533
 11
103.8713514280252
 21
-129.2648057402533
 72
     1
 10
103.8713514280252
 20
-129.2648057402533
 11
103.8713514280252
 21
-129.0129692602815
 72
     1
 10
103.8713514280252
 20
-129.0129692602815
 11
104.123187907997
 21
-129.0129692602815
 72
     1
 10
104.123187907997
 20
-129.0129692602815
 11
104.123187907997
 21
-129.2648057402533
 97
        0
 75
     2
 76
     1
 98
        0
  0
SPLINE
  5
98
330
89
100
AcDbEntity
  8
_U+30EC_U+30A4_U+30E4_U+30FC 1
370
     0
100
AcDbSpline
210
0.0
220
0.0
230
1.0
 70
    11
 71
     3
 72
    53
 73
    49
 74
     0
 42
0.0000000001
 43
0.0000000001
 12
1.0
 22
0.0
 32
0.0
 13
1.0
 23
0.0
 33
0.0
 40
0.0
 40
0.0
 40
0.0
 40
0.0
 40
1.0
 40
1.0
 40
1.0
 40
2.0
 40
2.0
 40
2.0
 40
3.0
 40
3.0
 40
3.0
 40
4.0
 40
4.0
 40
4.0
 40
5.0
 40
5.0
 40
5.0
 40
6.0
 40
6.0
 40
6.0
 40
7.0
 40
7.0
 40
7.0
 40
8.0
 40
8.0
 40
8.0
 40
9.0
 40
9.0
 40
9.0
 40
10.0
 40
10.0
 40
10.0
 40
11.0
 40
11.0
 40
11.0
 40
12.0
 40
12.0
 40
12.0
 40
13.0
 40
13.0
 40
13.0
 40
14.0
 40
14.0
 40
14.0
 40
15.0
 40
15.0
 40
15.0
 40
16.0
 40
16.0
 40
16.0
 40
16.0
 10
104.1738308116302
 20
-128.2957003802525
 30
0.0
 10
104.1738308116302
 20
-128.3739040477676
 30
0.0
 10
104.1569498437524
 20
-128.4755343645825
 30
0.0
 10
104.0935600868238
 20
-128.5771646813974
 30
0.0
 10
103.9836615408444
 20
-128.7504529843054
 30
0.0
 10
103.8524034028564
 20
-128.771812576314
 30
0.0
 10
103.744571914168
 20
-128.7907606014829
 30
0.0
 10
103.744571914168
 20
-128.7907606014829
 30
0.0
 10
103.744571914168
 20
-128.5685519426843
 30
0.0
 10
103.744571914168
 20
-128.5685519426843
 30
0.0
 10
103.9433539236669
 20
-128.5137749244688
 30
0.0
 10
103.9729817448401
 20
-128.3866509010631
 30
0.0
 10
103.9729817448401
 20
-128.2936333229613
 30
0.0
 10
103.9729817448401
 20
-128.1541069558087
 30
0.0
 10
103.8734184853164
 20
-128.0018337353607
 30
0.0
 10
103.640874540062
 20
-128.0018337353607
 30
0.0
 10
103.3849039455079
 20
-128.0018337353607
 30
0.0
 10
103.3149685071574
 20
-128.1816677196907
 30
0.0
 10
103.3149685071574
 20
-128.3022460616745
 30
0.0
 10
103.3149685071574
 20
-128.3339409401387
 30
0.0
 10
103.3149685071574
 20
-128.4755343645825
 30
0.0
 10
103.4441595878542
 20
-128.564417828102
 30
0.0
 10
103.4441595878542
 20
-128.564417828102
 30
0.0
 10
103.4252115626854
 20
-128.7401176978497
 30
0.0
 10
103.4252115626854
 20
-128.7401176978497
 30
0.0
 10
103.4252115626854
 20
-128.7401176978497
 30
0.0
 10
102.5787516019595
 20
-128.619539355866
 30
0.0
 10
102.5787516019595
 20
-128.619539355866
 30
0.0
 10
102.5787516019595
 20
-128.619539355866
 30
0.0
 10
102.5787516019595
 20
-127.8409477761995
 30
0.0
 10
102.5787516019595
 20
-127.8409477761995
 30
0.0
 10
102.5787516019595
 20
-127.8409477761995
 30
0.0
 10
102.7733994968761
 20
-127.8409477761995
 30
0.0
 10
102.7733994968761
 20
-127.8409477761995
 30
0.0
 10
102.7733994968761
 20
-127.8409477761995
 30
0.0
 10
102.7733994968761
 20
-128.4565863394136
 30
0.0
 10
102.7733994968761
 20
-128.4565863394136
 30
0.0
 10
102.7733994968761
 20
-128.4565863394136
 30
0.0
 10
103.1964572224648
 20
-128.5220431536334
 30
0.0
 10
103.1964572224648
 20
-128.5220431536334
 30
0.0
 10
103.1626952867093
 20
-128.4607204539959
 30
0.0
 10
103.1223876695319
 20
-128.3783826718985
 30
0.0
 10
103.1223876695319
 20
-128.2598713872059
 30
0.0
 10
103.1223876695319
 20
-128.0059678499429
 30
0.0
 10
103.3087673352839
 20
-127.7689452805578
 30
0.0
 10
103.6219265148931
 20
-127.7689452805578
 30
0.0
 10
103.9392198090846
 20
-127.7689452805578
 30
0.0
 10
104.1738308116302
 20
-127.9932209966475
 30
0.0
 10
104.1738308116302
 20
-128.2957003802525
 30
0.0
  0
HATCH
  5
99
330
89
100
AcDbEntity
  8
_U+30EC_U+30A4_U+30E4_U+30FC 1
 62
   179
420
  2234388
100
AcDbHatch
 10
0.0
 20
0.0
 30
0.0
210
0.0
220
0.0
230
1.0
  2
SOLID
 70
     1
 71
     0
 91
        1
 92
        1
 93
        1
 72
     4
 94
        3
 73
     0
 74
     1
 95
       53
 96
       49
 40
0.0
 40
0.0
 40
0.0
 40
0.0
 40
1.0
 40
1.0
 40
1.0
 40
2.0
 40
2.0
 40
2.0
 40
3.0
 40
3.0
 40
3.0
 40
4.0
 40
4.0
 40
4.0
 40
5.0
 40
5.0
 40
5.0
 40
6.0
 40
6.0
 40
6.0
 40
7.0
 40
7.0
 40
7.0
 40
8.0
 40
8.0
 40
8.0
 40
9.0
 40
9.0
 40
9.0
 40
10.0
 40
10.0
 40
10.0
 40
11.0
 40
11.0
 40
11.0
 40
12.0
 40
12.0
 40
12.0
 40
13.0
 40
13.0
 40
13.0
 40
14.0
 40
14.0
 40
14.0
 40
15.0
 40
15.0
 40
15.0
 40
16.0
 40
16.0
 40
16.0
 40
16.0
 10
104.1738308116302
 20
-128.2957003802525
 10
104.1738308116302
 20
-128.3739040477676
 10
104.1569498437524
 20
-128.4755343645825
 10
104.0935600868238
 20
-128.5771646813974
 10
103.9836615408444
 20
-128.7504529843054
 10
103.8524034028564
 20
-128.771812576314
 10
103.744571914168
 20
-128.7907606014829
 10
103.744571914168
 20
-128.7907606014829
 10
103.744571914168
 20
-128.5685519426843
 10
103.744571914168
 20
-128.5685519426843
 10
103.9433539236669
 20
-128.5137749244688
 10
103.9729817448401
 20
-128.3866509010631
 10
103.9729817448401
 20
-128.2936333229613
 10
103.9729817448401
 20
-128.1541069558087
 10
103.8734184853164
 20
-128.0018337353607
 10
103.640874540062
 20
-128.0018337353607
 10
103.3849039455079
 20
-128.0018337353607
 10
103.3149685071574
 20
-128.1816677196907
 10
103.3149685071574
 20
-128.3022460616745
 10
103.3149685071574
 20
-128.3339409401387
 10
103.3149685071574
 20
-128.4755343645825
 10
103.4441595878542
 20
-128.564417828102
 10
103.4441595878542
 20
-128.564417828102
 10
103.4252115626854
 20
-128.7401176978497
 10
103.4252115626854
 20
-128.7401176978497
 10
103.4252115626854
 20
-128.7401176978497
 10
102.5787516019595
 20
-128.619539355866
 10
102.5787516019595
 20
-128.619539355866
 10
102.5787516019595
 20
-128.619539355866
 10
102.5787516019595
 20
-127.8409477761995
 10
102.5787516019595
 20
-127.8409477761995
 10
102.5787516019595
 20
-127.8409477761995
 10
102.7733994968761
 20
-127.8409477761995
 10
102.7733994968761
 20
-127.8409477761995
 10
102.7733994968761
 20
-127.8409477761995
 10
102.7733994968761
 20
-128.4565863394136
 10
102.7733994968761
 20
-128.4565863394136
 10
102.7733994968761
 20
-128.4565863394136
 10
103.1964572224648
 20
-128.5220431536334
 10
103.1964572224648
 20
-128.5220431536334
 10
103.1626952867093
 20
-128.4607204539959
 10
103.1223876695319
 20
-128.3783826718985
 10
103.1223876695319
 20
-128.2598713872059
 10
103.1223876695319
 20
-128.0059678499429
 10
103.3087673352839
 20
-127.7689452805578
 10
103.6219265148931
 20
-127.7689452805578
 10
103.9392198090846
 20
-127.7689452805578
 10
104.1738308116302
 20
-127.9932209966475
 10
104.1738308116302
 20
-128.2957003802525
 97
        0
 97
        0
 75
     2
 76
     1
 98
        0
  0
ENDBLK
  5
8C
330
89
100
AcDbEntity
  8
0
100
AcDbBlockEnd
  0
BLOCK
  5
A8
330
A6
100
AcDbEntity
  8
0
100
AcDbBlockBegin
  2
block 3
 70
     0
 10
0.0
 20
0.0
 30
0.0
  3
block 3
  1

  0
SPLINE
  5
AA
330
A6
100
AcDbEntity
  8
_U+30EC_U+30A4_U+30E4_U+30FC 1
370
     0
100
AcDbSpline
210
0.0
220
0.0
230
1.0
 70
    11
 71
     3
 72
    29
 73
    25
 74
     0
 42
0.0000000001
 43
0.0000000001
 12
1.0
 22
0.0
 32
0.0
 13
1.0
 23
0.0
 33
0.0
 40
0.0
 40
0.0
 40
0.0
 40
0.0
 40
1.0
 40
1.0
 40
1.0
 40
2.0
 40
2.0
 40
2.0
 40
3.0
 40
3.0
 40
3.0
 40
4.0
 40
4.0
 40
4.0
 40
5.0
 40
5.0
 40
5.0
 40
6.0
 40
6.0
 40
6.0
 40
7.0
 40
7.0
 40
7.0
 40
8.0
 40
8.0
 40
8.0
 40
8.0
 10
88.22148842195504
 20
-120.3914455536695
 30
0.0
 10
87.95501028617097
 20
-120.3914455536695
 30
0.0
 10
87.70110674890806
 20
-120.2538139890338
 30
0.0
 10
87.70110674890806
 20
-119.904825816378
 30
0.0
 10
87.70110674890806
 20
-119.6488552218239
 30
0.0
 10
87.84287242812609
 20
-119.5535983316567
 30
0.0
 10
87.94863685952326
 20
-119.4922756320193
 30
0.0
 10
87.82375214818296
 20
-119.433019989673
 30
0.0
 10
87.74761553795894
 20
-119.318815074337
 30
0.0
 10
87.74761553795894
 20
-119.1581013699501
 30
0.0
 10
87.74761553795894
 20
-118.8830104954529
 30
0.0
 10
87.9465698022321
 20
-118.7476182428826
 30
0.0
 10
88.22148842195504
 20
-118.7476182428826
 30
0.0
 10
88.50501978039111
 20
-118.7476182428826
 30
0.0
 10
88.69536130595117
 20
-118.8914509793917
 30
0.0
 10
88.69536130595117
 20
-119.1581013699501
 30
0.0
 10
88.69536130595117
 20
-119.318815074337
 30
0.0
 10
88.617157638436
 20
-119.433019989673
 30
0.0
 10
88.49227292709568
 20
-119.4922756320193
 30
0.0
 10
88.58115639061513
 20
-119.5430907904267
 30
0.0
 10
88.73980303771089
 20
-119.6383476805939
 30
0.0
 10
88.73980303771089
 20
-119.9006917017957
 30
0.0
 10
88.73980303771089
 20
-120.2750013262681
 30
0.0
 10
88.46057804863139
 20
-120.3914455536695
 30
0.0
 10
88.22148842195504
 20
-120.3914455536695
 30
0.0
  0
SPLINE
  5
AB
330
A6
100
AcDbEntity
  8
_U+30EC_U+30A4_U+30E4_U+30FC 1
370
     0
100
AcDbSpline
210
0.0
220
0.0
230
1.0
 70
    11
 71
     3
 72
    17
 73
    13
 74
     0
 42
0.0000000001
 43
0.0000000001
 12
1.0
 22
0.0
 32
0.0
 13
1.0
 23
0.0
 33
0.0
 40
0.0
 40
0.0
 40
0.0
 40
0.0
 40
1.0
 40
1.0
 40
1.0
 40
2.0
 40
2.0
 40
2.0
 40
3.0
 40
3.0
 40
3.0
 40
4.0
 40
4.0
 40
4.0
 40
4.0
 10
88.22148842195504
 20
-119.6002793754819
 30
0.0
 10
88.07765568544586
 20
-119.6002793754819
 30
0.0
 10
87.92538246499782
 20
-119.6869235269359
 30
0.0
 10
87.92538246499782
 20
-119.8900119057914
 30
0.0
 10
87.92538246499782
 20
-120.095167341938
 30
0.0
 10
88.05233423362928
 20
-120.1967976587529
 30
0.0
 10
88.22148842195504
 20
-120.1967976587529
 30
0.0
 10
88.4076958329328
 20
-120.1967976587529
 30
0.0
 10
88.51776663368653
 20
-120.074152259478
 30
0.0
 10
88.51776663368653
 20
-119.8963853324391
 30
0.0
 10
88.51776663368653
 20
-119.6741766736405
 30
0.0
 10
88.35481361723421
 20
-119.6002793754819
 30
0.0
 10
88.22148842195504
 20
-119.6002793754819
 30
0.0
  0
SPLINE
  5
AC
330
A6
100
AcDbEntity
  8
_U+30EC_U+30A4_U+30E4_U+30FC 1
370
     0
100
AcDbSpline
210
0.0
220
0.0
230
1.0
 70
    11
 71
     3
 72
    17
 73
    13
 74
     0
 42
0.0000000001
 43
0.0000000001
 12
1.0
 22
0.0
 32
0.0
 13
1.0
 23
0.0
 33
0.0
 40
0.0
 40
0.0
 40
0.0
 40
0.0
 40
1.0
 40
1.0
 40
1.0
 40
2.0
 40
2.0
 40
2.0
 40
3.0
 40
3.0
 40
3.0
 40
4.0
 40
4.0
 40
4.0
 40
4.0
 10
88.22148842195504
 20
-118.940199080508
 30
0.0
 10
88.05646834821158
 20
-118.940199080508
 30
0.0
 10
87.9718912540487
 20
-119.0352837159009
 30
0.0
 10
87.9718912540487
 20
-119.1706759684712
 30
0.0
 10
87.9718912540487
 20
-119.2934936225204
 30
0.0
 10
88.04389374969043
 20
-119.412004907213
 30
0.0
 10
88.22148842195504
 20
-119.412004907213
 30
0.0
 10
88.39925534899395
 20
-119.412004907213
 30
0.0
 10
88.4710855898614
 20
-119.2934936225204
 30
0.0
 10
88.4710855898614
 20
-119.1706759684712
 30
0.0
 10
88.4710855898614
 20
-119.0352837159009
 30
0.0
 10
88.38444143840736
 20
-118.940199080508
 30
0.0
 10
88.22148842195504
 20
-118.940199080508
 30
0.0
  0
HATCH
  5
AD
330
A6
100
AcDbEntity
  8
_U+30EC_U+30A4_U+30E4_U+30FC 1
 62
   179
420
  2234388
100
AcDbHatch
 10
0.0
 20
0.0
 30
0.0
210
0.0
220
0.0
230
1.0
  2
SOLID
 70
     1
 71
     0
 91
        3
 92
        1
 93
        1
 72
     4
 94
        3
 73
     0
 74
     1
 95
       29
 96
       25
 40
0.0
 40
0.0
 40
0.0
 40
0.0
 40
1.0
 40
1.0
 40
1.0
 40
2.0
 40
2.0
 40
2.0
 40
3.0
 40
3.0
 40
3.0
 40
4.0
 40
4.0
 40
4.0
 40
5.0
 40
5.0
 40
5.0
 40
6.0
 40
6.0
 40
6.0
 40
7.0
 40
7.0
 40
7.0
 40
8.0
 40
8.0
 40
8.0
 40
8.0
 10
88.22148842195504
 20
-120.3914455536695
 10
87.95501028617097
 20
-120.3914455536695
 10
87.70110674890806
 20
-120.2538139890338
 10
87.70110674890806
 20
-119.904825816378
 10
87.70110674890806
 20
-119.6488552218239
 10
87.84287242812609
 20
-119.5535983316567
 10
87.94863685952326
 20
-119.4922756320193
 10
87.82375214818296
 20
-119.433019989673
 10
87.74761553795894
 20
-119.318815074337
 10
87.74761553795894
 20
-119.1581013699501
 10
87.74761553795894
 20
-118.8830104954529
 10
87.9465698022321
 20
-118.7476182428826
 10
88.22148842195504
 20
-118.7476182428826
 10
88.50501978039111
 20
-118.7476182428826
 10
88.69536130595117
 20
-118.8914509793917
 10
88.69536130595117
 20
-119.1581013699501
 10
88.69536130595117
 20
-119.318815074337
 10
88.617157638436
 20
-119.433019989673
 10
88.49227292709568
 20
-119.4922756320193
 10
88.58115639061513
 20
-119.5430907904267
 10
88.73980303771089
 20
-119.6383476805939
 10
88.73980303771089
 20
-119.9006917017957
 10
88.73980303771089
 20
-120.2750013262681
 10
88.46057804863139
 20
-120.3914455536695
 10
88.22148842195504
 20
-120.3914455536695
 97
        0
 97
        0
 92
        1
 93
        1
 72
     4
 94
        3
 73
     0
 74
     1
 95
       17
 96
       13
 40
0.0
 40
0.0
 40
0.0
 40
0.0
 40
1.0
 40
1.0
 40
1.0
 40
2.0
 40
2.0
 40
2.0
 40
3.0
 40
3.0
 40
3.0
 40
4.0
 40
4.0
 40
4.0
 40
4.0
 10
88.22148842195504
 20
-119.6002793754819
 10
88.07765568544586
 20
-119.6002793754819
 10
87.92538246499782
 20
-119.6869235269359
 10
87.92538246499782
 20
-119.8900119057914
 10
87.92538246499782
 20
-120.095167341938
 10
88.05233423362928
 20
-120.1967976587529
 10
88.22148842195504
 20
-120.1967976587529
 10
88.4076958329328
 20
-120.1967976587529
 10
88.51776663368653
 20
-120.074152259478
 10
88.51776663368653
 20
-119.8963853324391
 10
88.51776663368653
 20
-119.6741766736405
 10
88.35481361723421
 20
-119.6002793754819
 10
88.22148842195504
 20
-119.6002793754819
 97
        0
 97
        0
 92
        1
 93
        1
 72
     4
 94
        3
 73
     0
 74
     1
 95
       17
 96
       13
 40
0.0
 40
0.0
 40
0.0
 40
0.0
 40
1.0
 40
1.0
 40
1.0
 40
2.0
 40
2.0
 40
2.0
 40
3.0
 40
3.0
 40
3.0
 40
4.0
 40
4.0
 40
4.0
 40
4.0
 10
88.22148842195504
 20
-118.940199080508
 10
88.05646834821158
 20
-118.940199080508
 10
87.9718912540487
 20
-119.0352837159009
 10
87.9718912540487
 20
-119.1706759684712
 10
87.9718912540487
 20
-119.2934936225204
 10
88.04389374969043
 20
-119.412004907213
 10
88.22148842195504
 20
-119.412004907213
 10
88.39925534899395
 20
-119.412004907213
 10
88.4710855898614
 20
-119.2934936225204
 10
88.4710855898614
 20
-119.1706759684712
 10
88.4710855898614
 20
-119.0352837159009
 10
88.38444143840736
 20
-118.940199080508
 10
88.22148842195504
 20
-118.940199080508
 97
        0
 97
        0
 75
     2
 76
     1
 98
        0
  0
ENDBLK
  5
A9
330
A6
100
AcDbEntity
  8
0
100
AcDbBlockEnd
  0
BLOCK
  5
B8
330
B6
100
AcDbEntity
  8
0
100
AcDbBlockBegin
  2
block 4
 70
     0
 10
0.0
 20
0.0
 30
0.0
  3
block 4
  1

  0
POLYLINE
  5
BA
330
B6
100
AcDbEntity
  8
_U+30EC_U+30A4_U+30E4_U+30FC 1
370
     0
100
AcDb2dPolyline
 66
     1
 10
0.0
 20
0.0
 30
0.0
  0
VERTEX
  5
BB
330
BA
100
AcDbEntity
  8
_U+30EC_U+30A4_U+30E4_U+30FC 1
370
     0
100
AcDbVertex
100
AcDb2dVertex
 10
94.55374617861851
 20
-119.9937092798974
 30
0.0
  0
VERTEX
  5
BC
330
BA
100
AcDbEntity
  8
_U+30EC_U+30A4_U+30E4_U+30FC 1
370
     0
100
AcDbVertex
100
AcDb2dVertex
 10
94.55374617861851
 20
-120.3406303952621
 30
0.0
  0
VERTEX
  5
BD
330
BA
100
AcDbEntity
  8
_U+30EC_U+30A4_U+30E4_U+30FC 1
370
     0
100
AcDbVertex
100
AcDb2dVertex
 10
94.33601614395073
 20
-120.3406303952621
 30
0.0
  0
VERTEX
  5
BE
330
BA
100
AcDbEntity
  8
_U+30EC_U+30A4_U+30E4_U+30FC 1
370
     0
100
AcDbVertex
100
AcDb2dVertex
 10
94.33601614395073
 20
-119.9937092798974
 30
0.0
  0
VERTEX
  5
BF
330
BA
100
AcDbEntity
  8
_U+30EC_U+30A4_U+30E4_U+30FC 1
370
     0
100
AcDbVertex
100
AcDb2dVertex
 10
93.68006996355915
 20
-119.9937092798974
 30
0.0
  0
VERTEX
  5
C0
330
BA
100
AcDbEntity
  8
_U+30EC_U+30A4_U+30E4_U+30FC 1
370
     0
100
AcDbVertex
100
AcDb2dVertex
 10
93.68006996355915
 20
-119.7694335638077
 30
0.0
  0
VERTEX
  5
C1
330
BA
100
AcDbEntity
  8
_U+30EC_U+30A4_U+30E4_U+30FC 1
370
     0
100
AcDbVertex
100
AcDb2dVertex
 10
94.3590982837019
 20
-118.7963663439988
 30
0.0
  0
VERTEX
  5
C2
330
BA
100
AcDbEntity
  8
_U+30EC_U+30A4_U+30E4_U+30FC 1
370
     0
100
AcDbVertex
100
AcDb2dVertex
 10
94.55374617861851
 20
-118.7963663439988
 30
0.0
  0
VERTEX
  5
C3
330
BA
100
AcDbEntity
  8
_U+30EC_U+30A4_U+30E4_U+30FC 1
370
     0
100
AcDbVertex
100
AcDb2dVertex
 10
94.55374617861851
 20
-119.7947550156242
 30
0.0
  0
VERTEX
  5
C4
330
BA
100
AcDbEntity
  8
_U+30EC_U+30A4_U+30E4_U+30FC 1
370
     0
100
AcDbVertex
100
AcDb2dVertex
 10
94.76114092683055
 20
-119.7947550156242
 30
0.0
  0
VERTEX
  5
C5
330
BA
100
AcDbEntity
  8
_U+30EC_U+30A4_U+30E4_U+30FC 1
370
     0
100
AcDbVertex
100
AcDb2dVertex
 10
94.76114092683055
 20
-119.9937092798974
 30
0.0
  0
VERTEX
  5
C6
330
BA
100
AcDbEntity
  8
_U+30EC_U+30A4_U+30E4_U+30FC 1
370
     0
100
AcDbVertex
100
AcDb2dVertex
 10
94.55374617861851
 20
-119.9937092798974
 30
0.0
  0
SEQEND
  5
C7
330
BA
100
AcDbEntity
  8
_U+30EC_U+30A4_U+30E4_U+30FC 1
370
     0
  0
POLYLINE
  5
C8
330
B6
100
AcDbEntity
  8
_U+30EC_U+30A4_U+30E4_U+30FC 1
370
     0
100
AcDb2dPolyline
 66
     1
 10
0.0
 20
0.0
 30
0.0
  0
VERTEX
  5
C9
330
C8
100
AcDbEntity
  8
_U+30EC_U+30A4_U+30E4_U+30FC 1
370
     0
100
AcDbVertex
100
AcDb2dVertex
 10
94.33601614395073
 20
-119.1389810900069
 30
0.0
  0
VERTEX
  5
CA
330
C8
100
AcDbEntity
  8
_U+30EC_U+30A4_U+30E4_U+30FC 1
370
     0
100
AcDbVertex
100
AcDb2dVertex
 10
93.87885197305808
 20
-119.7947550156242
 30
0.0
  0
VERTEX
  5
CB
330
C8
100
AcDbEntity
  8
_U+30EC_U+30A4_U+30E4_U+30FC 1
370
     0
100
AcDbVertex
100
AcDb2dVertex
 10
94.33601614395073
 20
-119.7947550156242
 30
0.0
  0
VERTEX
  5
CC
330
C8
100
AcDbEntity
  8
_U+30EC_U+30A4_U+30E4_U+30FC 1
370
     0
100
AcDbVertex
100
AcDb2dVertex
 10
94.33601614395073
 20
-119.1389810900069
 30
0.0
  0
SEQEND
  5
CD
330
C8
100
AcDbEntity
  8
_U+30EC_U+30A4_U+30E4_U+30FC 1
370
     0
  0
HATCH
  5
CE
330
B6
100
AcDbEntity
  8
_U+30EC_U+30A4_U+30E4_U+30FC 1
 62
   179
420
  2234388
100
AcDbHatch
 10
0.0
 20
0.0
 30
0.0
210
0.0
220
0.0
230
1.0
  2
SOLID
 70
     1
 71
     0
 91
        2
 92
        1
 93
       11
 72
     1
 10
94.55374617861851
 20
-119.9937092798974
 11
94.55374617861851
 21
-120.3406303952621
 72
     1
 10
94.55374617861851
 20
-120.3406303952621
 11
94.33601614395073
 21
-120.3406303952621
 72
     1
 10
94.33601614395073
 20
-120.3406303952621
 11
94.33601614395073
 21
-119.9937092798974
 72
     1
 10
94.33601614395073
 20
-119.9937092798974
 11
93.68006996355915
 21
-119.9937092798974
 72
     1
 10
93.68006996355915
 20
-119.9937092798974
 11
93.68006996355915
 21
-119.7694335638077
 72
     1
 10
93.68006996355915
 20
-119.7694335638077
 11
94.3590982837019
 21
-118.7963663439988
 72
     1
 10
94.3590982837019
 20
-118.7963663439988
 11
94.55374617861851
 21
-118.7963663439988
 72
     1
 10
94.55374617861851
 20
-118.7963663439988
 11
94.55374617861851
 21
-119.7947550156242
 72
     1
 10
94.55374617861851
 20
-119.7947550156242
 11
94.76114092683055
 21
-119.7947550156242
 72
     1
 10
94.76114092683055
 20
-119.7947550156242
 11
94.76114092683055
 21
-119.9937092798974
 72
     1
 10
94.76114092683055
 20
-119.9937092798974
 11
94.55374617861851
 21
-119.9937092798974
 97
        0
 92
        1
 93
        3
 72
     1
 10
94.33601614395073
 20
-119.1389810900069
 11
93.87885197305808
 21
-119.7947550156242
 72
     1
 10
93.87885197305808
 20
-119.7947550156242
 11
94.33601614395073
 21
-119.7947550156242
 72
     1
 10
94.33601614395073
 20
-119.7947550156242
 11
94.33601614395073
 21
-119.1389810900069
 97
        0
 75
     2
 76
     1
 98
        0
  0
ENDBLK
  5
B9
330
B6
100
AcDbEntity
  8
0
100
AcDbBlockEnd
  0
BLOCK
  5
D9
330
D7
100
AcDbEntity
  8
0
100
AcDbBlockBegin
  2
block 5
 70
     0
 10
0.0
 20
0.0
 30
0.0
  3
block 5
  1

  0
POLYLINE
  5
DB
330
D7
100
AcDbEntity
  8
_U+30EC_U+30A4_U+30E4_U+30FC 1
370
     0
100
AcDb2dPolyline
 66
     1
 10
0.0
 20
0.0
 30
0.0
  0
VERTEX
  5
DC
330
DB
100
AcDbEntity
  8
_U+30EC_U+30A4_U+30E4_U+30FC 1
370
     0
100
AcDbVertex
100
AcDb2dVertex
 10
82.55361732962201
 20
-119.9937092798974
 30
0.0
  0
VERTEX
  5
DD
330
DB
100
AcDbEntity
  8
_U+30EC_U+30A4_U+30E4_U+30FC 1
370
     0
100
AcDbVertex
100
AcDb2dVertex
 10
82.55361732962201
 20
-120.3406303952621
 30
0.0
  0
VERTEX
  5
DE
330
DB
100
AcDbEntity
  8
_U+30EC_U+30A4_U+30E4_U+30FC 1
370
     0
100
AcDbVertex
100
AcDb2dVertex
 10
82.33571504017996
 20
-120.3406303952621
 30
0.0
  0
VERTEX
  5
DF
330
DB
100
AcDbEntity
  8
_U+30EC_U+30A4_U+30E4_U+30FC 1
370
     0
100
AcDbVertex
100
AcDb2dVertex
 10
82.33571504017996
 20
-119.9937092798974
 30
0.0
  0
VERTEX
  5
E0
330
DB
100
AcDbEntity
  8
_U+30EC_U+30A4_U+30E4_U+30FC 1
370
     0
100
AcDbVertex
100
AcDb2dVertex
 10
81.67994111456265
 20
-119.9937092798974
 30
0.0
  0
VERTEX
  5
E1
330
DB
100
AcDbEntity
  8
_U+30EC_U+30A4_U+30E4_U+30FC 1
370
     0
100
AcDbVertex
100
AcDb2dVertex
 10
81.67994111456265
 20
-119.7694335638077
 30
0.0
  0
VERTEX
  5
E2
330
DB
100
AcDbEntity
  8
_U+30EC_U+30A4_U+30E4_U+30FC 1
370
     0
100
AcDbVertex
100
AcDb2dVertex
 10
82.3589694347054
 20
-118.7963663439988
 30
0.0
  0
VERTEX
  5
E3
330
DB
100
AcDbEntity
  8
_U+30EC_U+30A4_U+30E4_U+30FC 1
370
     0
100
AcDbVertex
100
AcDb2dVertex
 10
82.55361732962201
 20
-118.7963663439988
 30
0.0
  0
VERTEX
  5
E4
330
DB
100
AcDbEntity
  8
_U+30EC_U+30A4_U+30E4_U+30FC 1
370
     0
100
AcDbVertex
100
AcDb2dVertex
 10
82.55361732962201
 20
-119.7947550156242
 30
0.0
  0
VERTEX
  5
E5
330
DB
100
AcDbEntity
  8
_U+30EC_U+30A4_U+30E4_U+30FC 1
370
     0
100
AcDbVertex
100
AcDb2dVertex
 10
82.76101207783405
 20
-119.7947550156242
 30
0.0
  0
VERTEX
  5
E6
330
DB
100
AcDbEntity
  8
_U+30EC_U+30A4_U+30E4_U+30FC 1
370
     0
100
AcDbVertex
100
AcDb2dVertex
 10
82.76101207783405
 20
-119.9937092798974
 30
0.0
  0
VERTEX
  5
E7
330
DB
100
AcDbEntity
  8
_U+30EC_U+30A4_U+30E4_U+30FC 1
370
     0
100
AcDbVertex
100
AcDb2dVertex
 10
82.55361732962201
 20
-119.9937092798974
 30
0.0
  0
SEQEND
  5
E8
330
DB
100
AcDbEntity
  8
_U+30EC_U+30A4_U+30E4_U+30FC 1
370
     0
  0
POLYLINE
  5
E9
330
D7
100
AcDbEntity
  8
_U+30EC_U+30A4_U+30E4_U+30FC 1
370
     0
100
AcDb2dPolyline
 66
     1
 10
0.0
 20
0.0
 30
0.0
  0
VERTEX
  5
EA
330
E9
100
AcDbEntity
  8
_U+30EC_U+30A4_U+30E4_U+30FC 1
370
     0
100
AcDbVertex
100
AcDb2dVertex
 10
82.33571504017996
 20
-119.1389810900069
 30
0.0
  0
VERTEX
  5
EB
330
E9
100
AcDbEntity
  8
_U+30EC_U+30A4_U+30E4_U+30FC 1
370
     0
100
AcDbVertex
100
AcDb2dVertex
 10
81.87889537883584
 20
-119.7947550156242
 30
0.0
  0
VERTEX
  5
EC
330
E9
100
AcDbEntity
  8
_U+30EC_U+30A4_U+30E4_U+30FC 1
370
     0
100
AcDbVertex
100
AcDb2dVertex
 10
82.33571504017996
 20
-119.7947550156242
 30
0.0
  0
VERTEX
  5
ED
330
E9
100
AcDbEntity
  8
_U+30EC_U+30A4_U+30E4_U+30FC 1
370
     0
100
AcDbVertex
100
AcDb2dVertex
 10
82.33571504017996
 20
-119.1389810900069
 30
0.0
  0
SEQEND
  5
EE
330
E9
100
AcDbEntity
  8
_U+30EC_U+30A4_U+30E4_U+30FC 1
370
     0
  0
HATCH
  5
EF
330
D7
100
AcDbEntity
  8
_U+30EC_U+30A4_U+30E4_U+30FC 1
 62
   179
420
  2234388
100
AcDbHatch
 10
0.0
 20
0.0
 30
0.0
210
0.0
220
0.0
230
1.0
  2
SOLID
 70
     1
 71
     0
 91
        2
 92
        1
 93
       11
 72
     1
 10
82.55361732962201
 20
-119.9937092798974
 11
82.55361732962201
 21
-120.3406303952621
 72
     1
 10
82.55361732962201
 20
-120.3406303952621
 11
82.33571504017996
 21
-120.3406303952621
 72
     1
 10
82.33571504017996
 20
-120.3406303952621
 11
82.33571504017996
 21
-119.9937092798974
 72
     1
 10
82.33571504017996
 20
-119.9937092798974
 11
81.67994111456265
 21
-119.9937092798974
 72
     1
 10
81.67994111456265
 20
-119.9937092798974
 11
81.67994111456265
 21
-119.7694335638077
 72
     1
 10
81.67994111456265
 20
-119.7694335638077
 11
82.3589694347054
 21
-118.7963663439988
 72
     1
 10
82.3589694347054
 20
-118.7963663439988
 11
82.55361732962201
 21
-118.7963663439988
 72
     1
 10
82.55361732962201
 20
-118.7963663439988
 11
82.55361732962201
 21
-119.7947550156242
 72
     1
 10
82.55361732962201
 20
-119.7947550156242
 11
82.76101207783405
 21
-119.7947550156242
 72
     1
 10
82.76101207783405
 20
-119.7947550156242
 11
82.76101207783405
 21
-119.9937092798974
 72
     1
 10
82.76101207783405
 20
-119.9937092798974
 11
82.55361732962201
 21
-119.9937092798974
 97
        0
 92
        1
 93
        3
 72
     1
 10
82.33571504017996
 20
-119.1389810900069
 11
81.87889537883584
 21
-119.7947550156242
 72
     1
 10
81.87889537883584
 20
-119.7947550156242
 11
82.33571504017996
 21
-119.7947550156242
 72
     1
 10
82.33571504017996
 20
-119.7947550156242
 11
82.33571504017996
 21
-119.1389810900069
 97
        0
 75
     2
 76
     1
 98
        0
  0
ENDBLK
  5
DA
330
D7
100
AcDbEntity
  8
0
100
AcDbBlockEnd
  0
BLOCK
  5
FE
330
FC
100
AcDbEntity
  8
0
100
AcDbBlockBegin
  2
block 6
 70
     0
 10
0.0
 20
0.0
 30
0.0
  3
block 6
  1

  0
SPLINE
  5
100
330
FC
100
AcDbEntity
  8
_U+30EC_U+30A4_U+30E4_U+30FC 1
370
     0
100
AcDbSpline
210
0.0
220
0.0
230
1.0
 70
    11
 71
     3
 72
    44
 73
    40
 74
     0
 42
0.0000000001
 43
0.0000000001
 12
1.0
 22
0.0
 32
0.0
 13
1.0
 23
0.0
 33
0.0
 40
0.0
 40
0.0
 40
0.0
 40
0.0
 40
1.0
 40
1.0
 40
1.0
 40
2.0
 40
2.0
 40
2.0
 40
3.0
 40
3.0
 40
3.0
 40
4.0
 40
4.0
 40
4.0
 40
5.0
 40
5.0
 40
5.0
 40
6.0
 40
6.0
 40
6.0
 40
7.0
 40
7.0
 40
7.0
 40
8.0
 40
8.0
 40
8.0
 40
9.0
 40
9.0
 40
9.0
 40
10.0
 40
10.0
 40
10.0
 40
11.0
 40
11.0
 40
11.0
 40
12.0
 40
12.0
 40
12.0
 40
13.0
 40
13.0
 40
13.0
 40
13.0
 10
87.64788002366095
 20
-136.2583495753104
 30
0.0
 10
87.43014998899316
 20
-136.4171684771804
 30
0.0
 10
87.33713241089141
 20
-136.4912380301133
 30
0.0
 10
87.28821205500087
 20
-136.6348985118482
 30
0.0
 10
87.28821205500087
 20
-136.6348985118482
 30
0.0
 10
88.06680363466734
 20
-136.6348985118482
 30
0.0
 10
88.06680363466734
 20
-136.6348985118482
 30
0.0
 10
88.06680363466734
 20
-136.6348985118482
 30
0.0
 10
88.06680363466734
 20
-136.8402262027691
 30
0.0
 10
88.06680363466734
 20
-136.8402262027691
 30
0.0
 10
88.06680363466734
 20
-136.8402262027691
 30
0.0
 10
87.03878714186878
 20
-136.8402262027691
 30
0.0
 10
87.03878714186878
 20
-136.8402262027691
 30
0.0
 10
87.07048202033307
 20
-136.4826252914002
 30
0.0
 10
87.13593883455283
 20
-136.404421623885
 30
0.0
 10
87.52110050980376
 20
-136.1060763548624
 30
0.0
 10
87.77707110435782
 20
-135.9072943453635
 30
0.0
 10
87.84252791857756
 20
-135.839425964304
 30
0.0
 10
87.84252791857756
 20
-135.7019666544426
 30
0.0
 10
87.84252791857756
 20
-135.58345536975
 30
0.0
 10
87.77052542293585
 20
-135.4525417413105
 30
0.0
 10
87.57381047072808
 20
-135.4525417413105
 30
0.0
 10
87.31370576159172
 20
-135.4525417413105
 30
0.0
 10
87.30543753242712
 20
-135.6830186292737
 30
0.0
 10
87.3009589082963
 20
-135.7994628566751
 30
0.0
 10
87.3009589082963
 20
-135.7994628566751
 30
0.0
 10
87.07668319220653
 20
-135.7994628566751
 30
0.0
 10
87.07668319220653
 20
-135.7994628566751
 30
0.0
 10
87.08529593091966
 20
-135.6723388332694
 30
0.0
 10
87.09597572692392
 20
-135.5603732299988
 30
0.0
 10
87.17624645173025
 20
-135.4418619453062
 30
0.0
 10
87.28614499770971
 20
-135.2809759861451
 30
0.0
 10
87.47252466346174
 20
-135.2472140503896
 30
0.0
 10
87.58862438131466
 20
-135.2472140503896
 30
0.0
 10
87.86595456787727
 20
-135.2472140503896
 30
0.0
 10
88.0733493160893
 20
-135.4311821493019
 30
0.0
 10
88.0733493160893
 20
-135.7040337117337
 30
0.0
 10
88.0733493160893
 20
-135.9327880519543
 30
0.0
 10
87.95690508868786
 20
-136.0320068019295
 30
0.0
 10
87.64788002366095
 20
-136.2583495753104
 30
0.0
  0
HATCH
  5
101
330
FC
100
AcDbEntity
  8
_U+30EC_U+30A4_U+30E4_U+30FC 1
 62
   179
420
  2234388
100
AcDbHatch
 10
0.0
 20
0.0
 30
0.0
210
0.0
220
0.0
230
1.0
  2
SOLID
 70
     1
 71
     0
 91
        1
 92
        1
 93
        1
 72
     4
 94
        3
 73
     0
 74
     1
 95
       44
 96
       40
 40
0.0
 40
0.0
 40
0.0
 40
0.0
 40
1.0
 40
1.0
 40
1.0
 40
2.0
 40
2.0
 40
2.0
 40
3.0
 40
3.0
 40
3.0
 40
4.0
 40
4.0
 40
4.0
 40
5.0
 40
5.0
 40
5.0
 40
6.0
 40
6.0
 40
6.0
 40
7.0
 40
7.0
 40
7.0
 40
8.0
 40
8.0
 40
8.0
 40
9.0
 40
9.0
 40
9.0
 40
10.0
 40
10.0
 40
10.0
 40
11.0
 40
11.0
 40
11.0
 40
12.0
 40
12.0
 40
12.0
 40
13.0
 40
13.0
 40
13.0
 40
13.0
 10
87.64788002366095
 20
-136.2583495753104
 10
87.43014998899316
 20
-136.4171684771804
 10
87.33713241089141
 20
-136.4912380301133
 10
87.28821205500087
 20
-136.6348985118482
 10
87.28821205500087
 20
-136.6348985118482
 10
88.06680363466734
 20
-136.6348985118482
 10
88.06680363466734
 20
-136.6348985118482
 10
88.06680363466734
 20
-136.6348985118482
 10
88.06680363466734
 20
-136.8402262027691
 10
88.06680363466734
 20
-136.8402262027691
 10
88.06680363466734
 20
-136.8402262027691
 10
87.03878714186878
 20
-136.8402262027691
 10
87.03878714186878
 20
-136.8402262027691
 10
87.07048202033307
 20
-136.4826252914002
 10
87.13593883455283
 20
-136.404421623885
 10
87.52110050980376
 20
-136.1060763548624
 10
87.77707110435782
 20
-135.9072943453635
 10
87.84252791857756
 20
-135.839425964304
 10
87.84252791857756
 20
-135.7019666544426
 10
87.84252791857756
 20
-135.58345536975
 10
87.77052542293585
 20
-135.4525417413105
 10
87.57381047072808
 20
-135.4525417413105
 10
87.31370576159172
 20
-135.4525417413105
 10
87.30543753242712
 20
-135.6830186292737
 10
87.3009589082963
 20
-135.7994628566751
 10
87.3009589082963
 20
-135.7994628566751
 10
87.07668319220653
 20
-135.7994628566751
 10
87.07668319220653
 20
-135.7994628566751
 10
87.08529593091966
 20
-135.6723388332694
 10
87.09597572692392
 20
-135.5603732299988
 10
87.17624645173025
 20
-135.4418619453062
 10
87.28614499770971
 20
-135.2809759861451
 10
87.47252466346174
 20
-135.2472140503896
 10
87.58862438131466
 20
-135.2472140503896
 10
87.86595456787727
 20
-135.2472140503896
 10
88.0733493160893
 20
-135.4311821493019
 10
88.0733493160893
 20
-135.7040337117337
 10
88.0733493160893
 20
-135.9327880519543
 10
87.95690508868786
 20
-136.0320068019295
 10
87.64788002366095
 20
-136.2583495753104
 97
        0
 97
        0
 75
     2
 76
     1
 98
        0
  0
SPLINE
  5
102
330
FC
100
AcDbEntity
  8
_U+30EC_U+30A4_U+30E4_U+30FC 1
370
     0
100
AcDbSpline
210
0.0
220
0.0
230
1.0
 70
    11
 71
     3
 72
    53
 73
    49
 74
     0
 42
0.0000000001
 43
0.0000000001
 12
1.0
 22
0.0
 32
0.0
 13
1.0
 23
0.0
 33
0.0
 40
0.0
 40
0.0
 40
0.0
 40
0.0
 40
1.0
 40
1.0
 40
1.0
 40
2.0
 40
2.0
 40
2.0
 40
3.0
 40
3.0
 40
3.0
 40
4.0
 40
4.0
 40
4.0
 40
5.0
 40
5.0
 40
5.0
 40
6.0
 40
6.0
 40
6.0
 40
7.0
 40
7.0
 40
7.0
 40
8.0
 40
8.0
 40
8.0
 40
9.0
 40
9.0
 40
9.0
 40
10.0
 40
10.0
 40
10.0
 40
11.0
 40
11.0
 40
11.0
 40
12.0
 40
12.0
 40
12.0
 40
13.0
 40
13.0
 40
13.0
 40
14.0
 40
14.0
 40
14.0
 40
15.0
 40
15.0
 40
15.0
 40
16.0
 40
16.0
 40
16.0
 40
16.0
 10
88.71275903815167
 20
-136.8908691064023
 30
0.0
 10
88.6345553706365
 20
-136.8908691064023
 30
0.0
 10
88.53292505382163
 20
-136.8739881385246
 30
0.0
 10
88.43129473700677
 20
-136.810598381596
 30
0.0
 10
88.2580064340987
 20
-136.7006998356165
 30
0.0
 10
88.23664684209015
 20
-136.5694416976285
 30
0.0
 10
88.21769881692127
 20
-136.4616102089402
 30
0.0
 10
88.21769881692127
 20
-136.4616102089402
 30
0.0
 10
88.43990747571989
 20
-136.4616102089402
 30
0.0
 10
88.43990747571989
 20
-136.4616102089402
 30
0.0
 10
88.49468449393537
 20
-136.6603922184391
 30
0.0
 10
88.62180851734108
 20
-136.6900200396122
 30
0.0
 10
88.71482609544283
 20
-136.6900200396122
 30
0.0
 10
88.85435246259544
 20
-136.6900200396122
 30
0.0
 10
89.00662568304348
 20
-136.5904567800885
 30
0.0
 10
89.00662568304348
 20
-136.3579128348341
 30
0.0
 10
89.00662568304348
 20
-136.1019422402801
 30
0.0
 10
88.82679169871345
 20
-136.0320068019295
 30
0.0
 10
88.7062133567297
 20
-136.0320068019295
 30
0.0
 10
88.6745184782654
 20
-136.0320068019295
 30
0.0
 10
88.53292505382163
 20
-136.0320068019295
 30
0.0
 10
88.44404159030219
 20
-136.1611978826264
 30
0.0
 10
88.44404159030219
 20
-136.1611978826264
 30
0.0
 10
88.26834172055445
 20
-136.1422498574575
 30
0.0
 10
88.26834172055445
 20
-136.1422498574575
 30
0.0
 10
88.26834172055445
 20
-136.1422498574575
 30
0.0
 10
88.38892006253819
 20
-135.2957898967316
 30
0.0
 10
88.38892006253819
 20
-135.2957898967316
 30
0.0
 10
88.38892006253819
 20
-135.2957898967316
 30
0.0
 10
89.16751164220466
 20
-135.2957898967316
 30
0.0
 10
89.16751164220466
 20
-135.2957898967316
 30
0.0
 10
89.16751164220466
 20
-135.2957898967316
 30
0.0
 10
89.16751164220466
 20
-135.4904377916482
 30
0.0
 10
89.16751164220466
 20
-135.4904377916482
 30
0.0
 10
89.16751164220466
 20
-135.4904377916482
 30
0.0
 10
88.55187307899051
 20
-135.4904377916482
 30
0.0
 10
88.55187307899051
 20
-135.4904377916482
 30
0.0
 10
88.55187307899051
 20
-135.4904377916482
 30
0.0
 10
88.48641626477077
 20
-135.9134955172369
 30
0.0
 10
88.48641626477077
 20
-135.9134955172369
 30
0.0
 10
88.54773896440821
 20
-135.8797335814815
 30
0.0
 10
88.63007674650568
 20
-135.839425964304
 30
0.0
 10
88.74858803119827
 20
-135.839425964304
 30
0.0
 10
89.00249156846118
 20
-135.839425964304
 30
0.0
 10
89.23951413784637
 20
-136.0258056300561
 30
0.0
 10
89.23951413784637
 20
-136.3389648096653
 30
0.0
 10
89.23951413784637
 20
-136.6562581038568
 30
0.0
 10
89.0152384217566
 20
-136.8908691064023
 30
0.0
 10
88.71275903815167
 20
-136.8908691064023
 30
0.0
  0
HATCH
  5
103
330
FC
100
AcDbEntity
  8
_U+30EC_U+30A4_U+30E4_U+30FC 1
 62
   179
420
  2234388
100
AcDbHatch
 10
0.0
 20
0.0
 30
0.0
210
0.0
220
0.0
230
1.0
  2
SOLID
 70
     1
 71
     0
 91
        1
 92
        1
 93
        1
 72
     4
 94
        3
 73
     0
 74
     1
 95
       53
 96
       49
 40
0.0
 40
0.0
 40
0.0
 40
0.0
 40
1.0
 40
1.0
 40
1.0
 40
2.0
 40
2.0
 40
2.0
 40
3.0
 40
3.0
 40
3.0
 40
4.0
 40
4.0
 40
4.0
 40
5.0
 40
5.0
 40
5.0
 40
6.0
 40
6.0
 40
6.0
 40
7.0
 40
7.0
 40
7.0
 40
8.0
 40
8.0
 40
8.0
 40
9.0
 40
9.0
 40
9.0
 40
10.0
 40
10.0
 40
10.0
 40
11.0
 40
11.0
 40
11.0
 40
12.0
 40
12.0
 40
12.0
 40
13.0
 40
13.0
 40
13.0
 40
14.0
 40
14.0
 40
14.0
 40
15.0
 40
15.0
 40
15.0
 40
16.0
 40
16.0
 40
16.0
 40
16.0
 10
88.71275903815167
 20
-136.8908691064023
 10
88.6345553706365
 20
-136.8908691064023
 10
88.53292505382163
 20
-136.8739881385246
 10
88.43129473700677
 20
-136.810598381596
 10
88.2580064340987
 20
-136.7006998356165
 10
88.23664684209015
 20
-136.5694416976285
 10
88.21769881692127
 20
-136.4616102089402
 10
88.21769881692127
 20
-136.4616102089402
 10
88.43990747571989
 20
-136.4616102089402
 10
88.43990747571989
 20
-136.4616102089402
 10
88.49468449393537
 20
-136.6603922184391
 10
88.62180851734108
 20
-136.6900200396122
 10
88.71482609544283
 20
-136.6900200396122
 10
88.85435246259544
 20
-136.6900200396122
 10
89.00662568304348
 20
-136.5904567800885
 10
89.00662568304348
 20
-136.3579128348341
 10
89.00662568304348
 20
-136.1019422402801
 10
88.82679169871345
 20
-136.0320068019295
 10
88.7062133567297
 20
-136.0320068019295
 10
88.6745184782654
 20
-136.0320068019295
 10
88.53292505382163
 20
-136.0320068019295
 10
88.44404159030219
 20
-136.1611978826264
 10
88.44404159030219
 20
-136.1611978826264
 10
88.26834172055445
 20
-136.1422498574575
 10
88.26834172055445
 20
-136.1422498574575
 10
88.26834172055445
 20
-136.1422498574575
 10
88.38892006253819
 20
-135.2957898967316
 10
88.38892006253819
 20
-135.2957898967316
 10
88.38892006253819
 20
-135.2957898967316
 10
89.16751164220466
 20
-135.2957898967316
 10
89.16751164220466
 20
-135.2957898967316
 10
89.16751164220466
 20
-135.2957898967316
 10
89.16751164220466
 20
-135.4904377916482
 10
89.16751164220466
 20
-135.4904377916482
 10
89.16751164220466
 20
-135.4904377916482
 10
88.55187307899051
 20
-135.4904377916482
 10
88.55187307899051
 20
-135.4904377916482
 10
88.55187307899051
 20
-135.4904377916482
 10
88.48641626477077
 20
-135.9134955172369
 10
88.48641626477077
 20
-135.9134955172369
 10
88.54773896440821
 20
-135.8797335814815
 10
88.63007674650568
 20
-135.839425964304
 10
88.74858803119827
 20
-135.839425964304
 10
89.00249156846118
 20
-135.839425964304
 10
89.23951413784637
 20
-136.0258056300561
 10
89.23951413784637
 20
-136.3389648096653
 10
89.23951413784637
 20
-136.6562581038568
 10
89.0152384217566
 20
-136.8908691064023
 10
88.71275903815167
 20
-136.8908691064023
 97
        0
 97
        0
 75
     2
 76
     1
 98
        0
  0
ENDBLK
  5
FF
330
FC
100
AcDbEntity
  8
0
100
AcDbBlockEnd
  0
BLOCK
  5
108
330
106
100
AcDbEntity
  8
0
100
AcDbBlockBegin
  2
block 7
 70
     0
 10
0.0
 20
0.0
 30
0.0
  3
block 7
  1

  0
SPLINE
  5
10A
330
106
100
AcDbEntity
  8
_U+30EC_U+30A4_U+30E4_U+30FC 1
370
     0
100
AcDbSpline
210
0.0
220
0.0
230
1.0
 70
    11
 71
     3
 72
    26
 73
    22
 74
     0
 42
0.0000000001
 43
0.0000000001
 12
1.0
 22
0.0
 32
0.0
 13
1.0
 23
0.0
 33
0.0
 40
0.0
 40
0.0
 40
0.0
 40
0.0
 40
1.0
 40
1.0
 40
1.0
 40
2.0
 40
2.0
 40
2.0
 40
3.0
 40
3.0
 40
3.0
 40
4.0
 40
4.0
 40
4.0
 40
5.0
 40
5.0
 40
5.0
 40
6.0
 40
6.0
 40
6.0
 40
7.0
 40
7.0
 40
7.0
 40
7.0
 10
85.57152097470087
 20
-128.7161742842272
 30
0.0
 10
85.57152097470087
 20
-128.7161742842272
 30
0.0
 10
85.57152097470087
 20
-127.6118489264304
 30
0.0
 10
85.57152097470087
 20
-127.6118489264304
 30
0.0
 10
85.57152097470087
 20
-127.6118489264304
 30
0.0
 10
85.24148082721393
 20
-127.6118489264304
 30
0.0
 10
85.24148082721393
 20
-127.6118489264304
 30
0.0
 10
85.24148082721393
 20
-127.6118489264304
 30
0.0
 10
85.24148082721393
 20
-127.4637098205646
 30
0.0
 10
85.24148082721393
 20
-127.4637098205646
 30
0.0
 10
85.57358803199202
 20
-127.4490681647523
 30
0.0
 10
85.62009682104289
 20
-127.2861151483
 30
0.0
 10
85.64972464221604
 20
-127.171910232964
 30
0.0
 10
85.64972464221604
 20
-127.171910232964
 30
0.0
 10
85.79579669079064
 20
-127.171910232964
 30
0.0
 10
85.79579669079064
 20
-127.171910232964
 30
0.0
 10
85.79579669079064
 20
-127.171910232964
 30
0.0
 10
85.79579669079064
 20
-128.7161742842272
 30
0.0
 10
85.79579669079064
 20
-128.7161742842272
 30
0.0
 10
85.79579669079064
 20
-128.7161742842272
 30
0.0
 10
85.57152097470087
 20
-128.7161742842272
 30
0.0
 10
85.57152097470087
 20
-128.7161742842272
 30
0.0
  0
HATCH
  5
10B
330
106
100
AcDbEntity
  8
_U+30EC_U+30A4_U+30E4_U+30FC 1
 62
   179
420
  2234388
100
AcDbHatch
 10
0.0
 20
0.0
 30
0.0
210
0.0
220
0.0
230
1.0
  2
SOLID
 70
     1
 71
     0
 91
        1
 92
        1
 93
        1
 72
     4
 94
        3
 73
     0
 74
     1
 95
       26
 96
       22
 40
0.0
 40
0.0
 40
0.0
 40
0.0
 40
1.0
 40
1.0
 40
1.0
 40
2.0
 40
2.0
 40
2.0
 40
3.0
 40
3.0
 40
3.0
 40
4.0
 40
4.0
 40
4.0
 40
5.0
 40
5.0
 40
5.0
 40
6.0
 40
6.0
 40
6.0
 40
7.0
 40
7.0
 40
7.0
 40
7.0
 10
85.57152097470087
 20
-128.7161742842272
 10
85.57152097470087
 20
-128.7161742842272
 10
85.57152097470087
 20
-127.6118489264304
 10
85.57152097470087
 20
-127.6118489264304
 10
85.57152097470087
 20
-127.6118489264304
 10
85.24148082721393
 20
-127.6118489264304
 10
85.24148082721393
 20
-127.6118489264304
 10
85.24148082721393
 20
-127.6118489264304
 10
85.24148082721393
 20
-127.4637098205646
 10
85.24148082721393
 20
-127.4637098205646
 10
85.57358803199202
 20
-127.4490681647523
 10
85.62009682104289
 20
-127.2861151483
 10
85.64972464221604
 20
-127.171910232964
 10
85.64972464221604
 20
-127.171910232964
 10
85.79579669079064
 20
-127.171910232964
 10
85.79579669079064
 20
-127.171910232964
 10
85.79579669079064
 20
-127.171910232964
 10
85.79579669079064
 20
-128.7161742842272
 10
85.79579669079064
 20
-128.7161742842272
 10
85.79579669079064
 20
-128.7161742842272
 10
85.57152097470087
 20
-128.7161742842272
 10
85.57152097470087
 20
-128.7161742842272
 97
        0
 97
        0
 75
     2
 76
     1
 98
        0
  0
ENDBLK
  5
109
330
106
100
AcDbEntity
  8
0
100
AcDbBlockEnd
  0
ENDSEC
  0
SECTION
  2
ENTITIES
  0
POLYLINE
  5
41
330
1F
100
AcDbEntity
  8
_U+30EC_U+30A4_U+30E4_U+30FC 1
 62
   179
420
  2234388
370
    25
100
AcDb2dPolyline
 66
     1
 10
0.0
 20
0.0
 30
0.0
  0
VERTEX
  5
42
330
41
100
AcDbEntity
  8
_U+30EC_U+30A4_U+30E4_U+30FC 1
 62
   179
420
  2234388
370
    25
100
AcDbVertex
100
AcDb2dVertex
 10
93.21944401066274
 20
-125.9375391351823
 30
0.0
  0
VERTEX
  5
43
330
41
100
AcDbEntity
  8
_U+30EC_U+30A4_U+30E4_U+30FC 1
 62
   179
420
  2234388
370
    25
100
AcDbVertex
100
AcDb2dVertex
 10
93.21944401066274
 20
-132.437751911335
 30
0.0
  0
SEQEND
  5
44
330
41
100
AcDbEntity
  8
_U+30EC_U+30A4_U+30E4_U+30FC 1
 62
   179
420
  2234388
370
    25
  0
POLYLINE
  5
45
330
1F
100
AcDbEntity
  8
_U+30EC_U+30A4_U+30E4_U+30FC 1
 62
   179
420
  2234388
370
    25
100
AcDb2dPolyline
 66
     1
 10
0.0
 20
0.0
 30
0.0
  0
VERTEX
  5
46
330
45
100
AcDbEntity
  8
_U+30EC_U+30A4_U+30E4_U+30FC 1
 62
   179
420
  2234388
370
    25
100
AcDbVertex
100
AcDb2dVertex
 10
93.21944401066274
 20
-125.9375391351823
 30
0.0
  0
VERTEX
  5
47
330
45
100
AcDbEntity
  8
_U+30EC_U+30A4_U+30E4_U+30FC 1
 62
   179
420
  2234388
370
    25
100
AcDbVertex
100
AcDb2dVertex
 10
96.21943330927833
 20
-125.9375391351823
 30
0.0
  0
SEQEND
  5
48
330
45
100
AcDbEntity
  8
_U+30EC_U+30A4_U+30E4_U+30FC 1
 62
   179
420
  2234388
370
    25
  0
POLYLINE
  5
49
330
1F
100
AcDbEntity
  8
_U+30EC_U+30A4_U+30E4_U+30FC 1
 62
   179
420
  2234388
370
    25
100
AcDb2dPolyline
 66
     1
 10
0.0
 20
0.0
 30
0.0
  0
VERTEX
  5
4A
330
49
100
AcDbEntity
  8
_U+30EC_U+30A4_U+30E4_U+30FC 1
 62
   179
420
  2234388
370
    25
100
AcDbVertex
100
AcDb2dVertex
 10
75.71940890157028
 20
-133.4378416333071
 30
0.0
  0
VERTEX
  5
4B
330
49
100
AcDbEntity
  8
_U+30EC_U+30A4_U+30E4_U+30FC 1
 62
   179
420
  2234388
370
    25
100
AcDbVertex
100
AcDb2dVertex
 10
100.7194288193222
 20
-133.4378416333071
 30
0.0
  0
SEQEND
  5
4C
330
49
100
AcDbEntity
  8
_U+30EC_U+30A4_U+30E4_U+30FC 1
 62
   179
420
  2234388
370
    25
  0
POLYLINE
  5
4D
330
1F
100
AcDbEntity
  8
_U+30EC_U+30A4_U+30E4_U+30FC 1
 62
   179
420
  2234388
370
    25
100
AcDb2dPolyline
 66
     1
 10
0.0
 20
0.0
 30
0.0
  0
VERTEX
  5
4E
330
4D
100
AcDbEntity
  8
_U+30EC_U+30A4_U+30E4_U+30FC 1
 62
   179
420
  2234388
370
    25
100
AcDbVertex
100
AcDb2dVertex
 10
100.3198021628508
 20
-133.0375446889626
 30
0.0
  0
VERTEX
  5
4F
330
4D
100
AcDbEntity
  8
_U+30EC_U+30A4_U+30E4_U+30FC 1
 62
   179
420
  2234388
370
    25
100
AcDbVertex
100
AcDb2dVertex
 10
100.7194288193222
 20
-133.4378416333071
 30
0.0
  0
SEQEND
  5
50
330
4D
100
AcDbEntity
  8
_U+30EC_U+30A4_U+30E4_U+30FC 1
 62
   179
420
  2234388
370
    25
  0
POLYLINE
  5
51
330
1F
100
AcDbEntity
  8
_U+30EC_U+30A4_U+30E4_U+30FC 1
 62
   179
420
  2234388
370
    25
100
AcDb2dPolyline
 66
     1
 10
0.0
 20
0.0
 30
0.0
  0
VERTEX
  5
52
330
51
100
AcDbEntity
  8
_U+30EC_U+30A4_U+30E4_U+30FC 1
 62
   179
420
  2234388
370
    25
100
AcDbVertex
100
AcDb2dVertex
 10
93.21944401066274
 20
-132.437751911335
 30
0.0
  0
VERTEX
  5
53
330
51
100
AcDbEntity
  8
_U+30EC_U+30A4_U+30E4_U+30FC 1
 62
   179
420
  2234388
370
    25
100
AcDbVertex
100
AcDb2dVertex
 10
95.21969395963211
 20
-132.437751911335
 30
0.0
  0
SEQEND
  5
54
330
51
100
AcDbEntity
  8
_U+30EC_U+30A4_U+30E4_U+30FC 1
 62
   179
420
  2234388
370
    25
  0
POLYLINE
  5
55
330
1F
100
AcDbEntity
  8
_U+30EC_U+30A4_U+30E4_U+30FC 1
 62
   179
420
  2234388
370
    25
100
AcDb2dPolyline
 66
     1
 10
0.0
 20
0.0
 30
0.0
  0
VERTEX
  5
56
330
55
100
AcDbEntity
  8
_U+30EC_U+30A4_U+30E4_U+30FC 1
 62
   179
420
  2234388
370
    25
100
AcDbVertex
100
AcDb2dVertex
 10
83.21953482133723
 20
-132.437751911335
 30
0.0
  0
VERTEX
  5
57
330
55
100
AcDbEntity
  8
_U+30EC_U+30A4_U+30E4_U+30FC 1
 62
   179
420
  2234388
370
    25
100
AcDbVertex
100
AcDb2dVertex
 10
81.21932220191742
 20
-132.437751911335
 30
0.0
  0
SEQEND
  5
58
330
55
100
AcDbEntity
  8
_U+30EC_U+30A4_U+30E4_U+30FC 1
 62
   179
420
  2234388
370
    25
  0
POLYLINE
  5
59
330
1F
100
AcDbEntity
  8
_U+30EC_U+30A4_U+30E4_U+30FC 1
 62
   179
420
  2234388
370
    25
100
AcDb2dPolyline
 66
     1
 10
0.0
 20
0.0
 30
0.0
  0
VERTEX
  5
5A
330
59
100
AcDbEntity
  8
_U+30EC_U+30A4_U+30E4_U+30FC 1
 62
   179
420
  2234388
370
    25
100
AcDbVertex
100
AcDb2dVertex
 10
76.1193883358104
 20
-133.0375446889626
 30
0.0
  0
VERTEX
  5
5B
330
59
100
AcDbEntity
  8
_U+30EC_U+30A4_U+30E4_U+30FC 1
 62
   179
420
  2234388
370
    25
100
AcDbVertex
100
AcDb2dVertex
 10
75.71940890157028
 20
-133.4378416333071
 30
0.0
  0
SEQEND
  5
5C
330
59
100
AcDbEntity
  8
_U+30EC_U+30A4_U+30E4_U+30FC 1
 62
   179
420
  2234388
370
    25
  0
POLYLINE
  5
5D
330
1F
100
AcDbEntity
  8
_U+30EC_U+30A4_U+30E4_U+30FC 1
 62
   179
420
  2234388
370
    25
100
AcDb2dPolyline
 66
     1
 10
0.0
 20
0.0
 30
0.0
  0
VERTEX
  5
5E
330
5D
100
AcDbEntity
  8
_U+30EC_U+30A4_U+30E4_U+30FC 1
 62
   179
420
  2234388
370
    25
100
AcDbVertex
100
AcDb2dVertex
 10
83.21953482133723
 20
-125.9375391351823
 30
0.0
  0
VERTEX
  5
5F
330
5D
100
AcDbEntity
  8
_U+30EC_U+30A4_U+30E4_U+30FC 1
 62
   179
420
  2234388
370
    25
100
AcDbVertex
100
AcDb2dVertex
 10
83.21953482133723
 20
-132.437751911335
 30
0.0
  0
SEQEND
  5
60
330
5D
100
AcDbEntity
  8
_U+30EC_U+30A4_U+30E4_U+30FC 1
 62
   179
420
  2234388
370
    25
  0
POLYLINE
  5
61
330
1F
100
AcDbEntity
  8
_U+30EC_U+30A4_U+30E4_U+30FC 1
 62
   179
420
  2234388
370
    25
100
AcDb2dPolyline
 66
     1
 10
0.0
 20
0.0
 30
0.0
  0
VERTEX
  5
62
330
61
100
AcDbEntity
  8
_U+30EC_U+30A4_U+30E4_U+30FC 1
 62
   179
420
  2234388
370
    25
100
AcDbVertex
100
AcDb2dVertex
 10
83.21953482133723
 20
-125.9375391351823
 30
0.0
  0
VERTEX
  5
63
330
61
100
AcDbEntity
  8
_U+30EC_U+30A4_U+30E4_U+30FC 1
 62
   179
420
  2234388
370
    25
100
AcDbVertex
100
AcDb2dVertex
 10
80.21940684232132
 20
-125.9375391351823
 30
0.0
  0
SEQEND
  5
64
330
61
100
AcDbEntity
  8
_U+30EC_U+30A4_U+30E4_U+30FC 1
 62
   179
420
  2234388
370
    25
  0
POLYLINE
  5
65
330
1F
100
AcDbEntity
  8
_U+30EC_U+30A4_U+30E4_U+30FC 1
 62
   179
420
  2234388
370
    25
100
AcDb2dPolyline
 66
     1
 10
0.0
 20
0.0
 30
0.0
  0
VERTEX
  5
66
330
65
100
AcDbEntity
  8
_U+30EC_U+30A4_U+30E4_U+30FC 1
 62
   179
420
  2234388
370
    25
100
AcDbVertex
100
AcDb2dVertex
 10
95.21969395963211
 20
-132.437751911335
 30
0.0
  0
VERTEX
  5
67
330
65
100
AcDbEntity
  8
_U+30EC_U+30A4_U+30E4_U+30FC 1
 62
   179
420
  2234388
370
    25
100
AcDbVertex
100
AcDb2dVertex
 10
96.25873032201298
 20
-133.0375446889626
 30
0.0
  0
SEQEND
  5
68
330
65
100
AcDbEntity
  8
_U+30EC_U+30A4_U+30E4_U+30FC 1
 62
   179
420
  2234388
370
    25
  0
POLYLINE
  5
69
330
1F
100
AcDbEntity
  8
_U+30EC_U+30A4_U+30E4_U+30FC 1
 62
   179
420
  2234388
370
    25
100
AcDb2dPolyline
 66
     1
 10
0.0
 20
0.0
 30
0.0
  0
VERTEX
  5
6A
330
69
100
AcDbEntity
  8
_U+30EC_U+30A4_U+30E4_U+30FC 1
 62
   179
420
  2234388
370
    25
100
AcDbVertex
100
AcDb2dVertex
 10
81.21932220191742
 20
-132.437751911335
 30
0.0
  0
VERTEX
  5
6B
330
69
100
AcDbEntity
  8
_U+30EC_U+30A4_U+30E4_U+30FC 1
 62
   179
420
  2234388
370
    25
100
AcDbVertex
100
AcDb2dVertex
 10
80.18028378776387
 20
-133.0375446889626
 30
0.0
  0
SEQEND
  5
6C
330
69
100
AcDbEntity
  8
_U+30EC_U+30A4_U+30E4_U+30FC 1
 62
   179
420
  2234388
370
    25
  0
POLYLINE
  5
6D
330
1F
100
AcDbEntity
  8
_U+30EC_U+30A4_U+30E4_U+30FC 1
 62
   179
420
  2234388
370
    25
100
AcDb2dPolyline
 66
     1
 10
0.0
 20
0.0
 30
0.0
  0
VERTEX
  5
6E
330
6D
100
AcDbEntity
  8
_U+30EC_U+30A4_U+30E4_U+30FC 1
 62
   179
420
  2234388
370
    25
100
AcDbVertex
100
AcDb2dVertex
 10
96.25873032201298
 20
-133.0375446889626
 30
0.0
  0
VERTEX
  5
6F
330
6D
100
AcDbEntity
  8
_U+30EC_U+30A4_U+30E4_U+30FC 1
 62
   179
420
  2234388
370
    25
100
AcDbVertex
100
AcDb2dVertex
 10
100.3198021628508
 20
-133.0375446889626
 30
0.0
  0
SEQEND
  5
70
330
6D
100
AcDbEntity
  8
_U+30EC_U+30A4_U+30E4_U+30FC 1
 62
   179
420
  2234388
370
    25
  0
POLYLINE
  5
71
330
1F
100
AcDbEntity
  8
_U+30EC_U+30A4_U+30E4_U+30FC 1
 62
   179
420
  2234388
370
    25
100
AcDb2dPolyline
 66
     1
 10
0.0
 20
0.0
 30
0.0
  0
VERTEX
  5
72
330
71
100
AcDbEntity
  8
_U+30EC_U+30A4_U+30E4_U+30FC 1
 62
   179
420
  2234388
370
    25
100
AcDbVertex
100
AcDb2dVertex
 10
80.18028378776387
 20
-133.0375446889626
 30
0.0
  0
VERTEX
  5
73
330
71
100
AcDbEntity
  8
_U+30EC_U+30A4_U+30E4_U+30FC 1
 62
   179
420
  2234388
370
    25
100
AcDbVertex
100
AcDb2dVertex
 10
76.1193883358104
 20
-133.0375446889626
 30
0.0
  0
SEQEND
  5
74
330
71
100
AcDbEntity
  8
_U+30EC_U+30A4_U+30E4_U+30FC 1
 62
   179
420
  2234388
370
    25
  0
SPLINE
  5
75
330
1F
100
AcDbEntity
  8
_U+30EC_U+30A4_U+30E4_U+30FC 1
 62
   179
420
  2234388
370
     9
100
AcDbSpline
210
0.0
220
0.0
230
1.0
 70
    11
 71
     3
 72
    17
 73
    13
 74
     0
 42
0.0000000001
 43
0.0000000001
 12
1.0
 22
0.0
 32
0.0
 13
1.0
 23
0.0
 33
0.0
 40
0.0
 40
0.0
 40
0.0
 40
0.0
 40
1.0
 40
1.0
 40
1.0
 40
2.0
 40
2.0
 40
2.0
 40
3.0
 40
3.0
 40
3.0
 40
4.0
 40
4.0
 40
4.0
 40
4.0
 10
80.31945461754667
 20
-120.9369846919881
 30
0.0
 10
80.31945461754667
 20
-120.881845525335
 30
0.0
 10
80.27468711868877
 20
-120.8370780253464
 30
0.0
 10
80.21940684232132
 20
-120.8370780253464
 30
0.0
 10
80.16426767706137
 20
-120.8370780253464
 30
0.0
 10
80.11950017820348
 20
-120.881845525335
 30
0.0
 10
80.11950017820348
 20
-120.9369846919881
 30
0.0
 10
80.11950017820348
 20
-120.992088580863
 30
0.0
 10
80.16426767706137
 20
-121.0368913586297
 30
0.0
 10
80.21940684232132
 20
-121.0368913586297
 30
0.0
 10
80.27468711868877
 20
-121.0368913586297
 30
0.0
 10
80.31945461754667
 20
-120.992088580863
 30
0.0
 10
80.31945461754667
 20
-120.9369846919881
 30
0.0
  0
SPLINE
  5
76
330
1F
100
AcDbEntity
  8
_U+30EC_U+30A4_U+30E4_U+30FC 1
 62
   179
420
  2234388
370
     9
100
AcDbSpline
210
0.0
220
0.0
230
1.0
 70
    11
 71
     3
 72
    17
 73
    13
 74
     0
 42
0.0000000001
 43
0.0000000001
 12
1.0
 22
0.0
 32
0.0
 13
1.0
 23
0.0
 33
0.0
 40
0.0
 40
0.0
 40
0.0
 40
0.0
 40
1.0
 40
1.0
 40
1.0
 40
2.0
 40
2.0
 40
2.0
 40
3.0
 40
3.0
 40
3.0
 40
4.0
 40
4.0
 40
4.0
 40
4.0
 10
84.31921368217098
 20
-120.9369846919881
 30
0.0
 10
84.31921368217098
 20
-120.881845525335
 30
0.0
 10
84.27444618331309
 20
-120.8370780253464
 30
0.0
 10
84.21930701805314
 20
-120.8370780253464
 30
0.0
 10
84.16420313057007
 20
-120.8370780253464
 30
0.0
 10
84.1194003539353
 20
-120.881845525335
 30
0.0
 10
84.1194003539353
 20
-120.9369846919881
 30
0.0
 10
84.1194003539353
 20
-120.992088580863
 30
0.0
 10
84.16420313057007
 20
-121.0368913586297
 30
0.0
 10
84.21930701805314
 20
-121.0368913586297
 30
0.0
 10
84.27444618331309
 20
-121.0368913586297
 30
0.0
 10
84.31921368217098
 20
-120.992088580863
 30
0.0
 10
84.31921368217098
 20
-120.9369846919881
 30
0.0
  0
SPLINE
  5
77
330
1F
100
AcDbEntity
  8
_U+30EC_U+30A4_U+30E4_U+30FC 1
 62
   179
420
  2234388
370
     9
100
AcDbSpline
210
0.0
220
0.0
230
1.0
 70
    11
 71
     3
 72
    17
 73
    13
 74
     0
 42
0.0000000001
 43
0.0000000001
 12
1.0
 22
0.0
 32
0.0
 13
1.0
 23
0.0
 33
0.0
 40
0.0
 40
0.0
 40
0.0
 40
0.0
 40
1.0
 40
1.0
 40
1.0
 40
2.0
 40
2.0
 40
2.0
 40
3.0
 40
3.0
 40
3.0
 40
4.0
 40
4.0
 40
4.0
 40
4.0
 10
92.31961375584154
 20
-120.9369846919881
 30
0.0
 10
92.31961375584154
 20
-120.881845525335
 30
0.0
 10
92.27481097920678
 20
-120.8370780253464
 30
0.0
 10
92.2197070917237
 20
-120.8370780253464
 30
0.0
 10
92.16456792646376
 20
-120.8370780253464
 30
0.0
 10
92.11980275474798
 20
-120.881845525335
 30
0.0
 10
92.11980275474798
 20
-120.9369846919881
 30
0.0
 10
92.11980275474798
 20
-120.992088580863
 30
0.0
 10
92.16456792646376
 20
-121.0368913586297
 30
0.0
 10
92.2197070917237
 20
-121.0368913586297
 30
0.0
 10
92.27481097920678
 20
-121.0368913586297
 30
0.0
 10
92.31961375584154
 20
-120.992088580863
 30
0.0
 10
92.31961375584154
 20
-120.9369846919881
 30
0.0
  0
SPLINE
  5
78
330
1F
100
AcDbEntity
  8
_U+30EC_U+30A4_U+30E4_U+30FC 1
 62
   179
420
  2234388
370
     9
100
AcDbSpline
210
0.0
220
0.0
230
1.0
 70
    11
 71
     3
 72
    17
 73
    13
 74
     0
 42
0.0000000001
 43
0.0000000001
 12
1.0
 22
0.0
 32
0.0
 13
1.0
 23
0.0
 33
0.0
 40
0.0
 40
0.0
 40
0.0
 40
0.0
 40
1.0
 40
1.0
 40
1.0
 40
2.0
 40
2.0
 40
2.0
 40
3.0
 40
3.0
 40
3.0
 40
4.0
 40
4.0
 40
4.0
 40
4.0
 10
96.31937282046586
 20
-120.9369846919881
 30
0.0
 10
96.31937282046586
 20
-120.881845525335
 30
0.0
 10
96.27457004383109
 20
-120.8370780253464
 30
0.0
 10
96.21943330927833
 20
-120.8370780253464
 30
0.0
 10
96.16432699108807
 20
-120.8370780253464
 30
0.0
 10
96.1195242144533
 20
-120.881845525335
 30
0.0
 10
96.1195242144533
 20
-120.9369846919881
 30
0.0
 10
96.1195242144533
 20
-120.992088580863
 30
0.0
 10
96.16432699108807
 20
-121.0368913586297
 30
0.0
 10
96.21943330927833
 20
-121.0368913586297
 30
0.0
 10
96.27457004383109
 20
-121.0368913586297
 30
0.0
 10
96.31937282046586
 20
-120.992088580863
 30
0.0
 10
96.31937282046586
 20
-120.9369846919881
 30
0.0
  0
SPLINE
  5
79
330
1F
100
AcDbEntity
  8
_U+30EC_U+30A4_U+30E4_U+30FC 1
 62
   179
420
  2234388
370
     9
100
AcDbSpline
210
0.0
220
0.0
230
1.0
 70
    11
 71
     3
 72
    17
 73
    13
 74
     0
 42
0.0000000001
 43
0.0000000001
 12
1.0
 22
0.0
 32
0.0
 13
1.0
 23
0.0
 33
0.0
 40
0.0
 40
0.0
 40
0.0
 40
0.0
 40
1.0
 40
1.0
 40
1.0
 40
2.0
 40
2.0
 40
2.0
 40
3.0
 40
3.0
 40
3.0
 40
4.0
 40
4.0
 40
4.0
 40
4.0
 10
104.819802751573
 20
-125.9375391351823
 30
0.0
 10
104.819802751573
 20
-125.8820824685296
 30
0.0
 10
104.7749999738063
 20
-125.8372796907629
 30
0.0
 10
104.7191878839465
 20
-125.8372796907629
 30
0.0
 10
104.6640487186865
 20
-125.8372796907629
 30
0.0
 10
104.6192812198287
 20
-125.8820824685296
 30
0.0
 10
104.6192812198287
 20
-125.9375391351823
 30
0.0
 10
104.6192812198287
 20
-125.9926430240575
 30
0.0
 10
104.6640487186865
 20
-126.0374458018239
 30
0.0
 10
104.7191878839465
 20
-126.0374458018239
 30
0.0
 10
104.7749999738063
 20
-126.0374458018239
 30
0.0
 10
104.819802751573
 20
-125.9926430240575
 30
0.0
 10
104.819802751573
 20
-125.9375391351823
 30
0.0
  0
SPLINE
  5
7A
330
1F
100
AcDbEntity
  8
_U+30EC_U+30A4_U+30E4_U+30FC 1
 62
   179
420
  2234388
370
     9
100
AcDbSpline
210
0.0
220
0.0
230
1.0
 70
    11
 71
     3
 72
    17
 73
    13
 74
     0
 42
0.0000000001
 43
0.0000000001
 12
1.0
 22
0.0
 32
0.0
 13
1.0
 23
0.0
 33
0.0
 40
0.0
 40
0.0
 40
0.0
 40
0.0
 40
1.0
 40
1.0
 40
1.0
 40
2.0
 40
2.0
 40
2.0
 40
3.0
 40
3.0
 40
3.0
 40
4.0
 40
4.0
 40
4.0
 40
4.0
 10
104.819802751573
 20
-132.437751911335
 30
0.0
 10
104.819802751573
 20
-132.3822599669042
 30
0.0
 10
104.7749999738063
 20
-132.3378452446934
 30
0.0
 10
104.7191878839465
 20
-132.3378452446934
 30
0.0
 10
104.6640487186865
 20
-132.3378452446934
 30
0.0
 10
104.6192812198287
 20
-132.3822599669042
 30
0.0
 10
104.6192812198287
 20
-132.437751911335
 30
0.0
 10
104.6192812198287
 20
-132.4928558002099
 30
0.0
 10
104.6640487186865
 20
-132.5376585779766
 30
0.0
 10
104.7191878839465
 20
-132.5376585779766
 30
0.0
 10
104.7749999738063
 20
-132.5376585779766
 30
0.0
 10
104.819802751573
 20
-132.4928558002099
 30
0.0
 10
104.819802751573
 20
-132.437751911335
 30
0.0
  0
SPLINE
  5
7B
330
1F
100
AcDbEntity
  8
_U+30EC_U+30A4_U+30E4_U+30FC 1
 62
   179
420
  2234388
370
     9
100
AcDbSpline
210
0.0
220
0.0
230
1.0
 70
    11
 71
     3
 72
    17
 73
    13
 74
     0
 42
0.0000000001
 43
0.0000000001
 12
1.0
 22
0.0
 32
0.0
 13
1.0
 23
0.0
 33
0.0
 40
0.0
 40
0.0
 40
0.0
 40
0.0
 40
1.0
 40
1.0
 40
1.0
 40
2.0
 40
2.0
 40
2.0
 40
3.0
 40
3.0
 40
3.0
 40
4.0
 40
4.0
 40
4.0
 40
4.0
 10
100.81933548344
 20
-137.437600798974
 30
0.0
 10
100.81933548344
 20
-137.3824969100991
 30
0.0
 10
100.7745679845821
 20
-137.3376941323324
 30
0.0
 10
100.7194288193222
 20
-137.3376941323324
 30
0.0
 10
100.6643249318391
 20
-137.3376941323324
 30
0.0
 10
100.6195221552044
 20
-137.3824969100991
 30
0.0
 10
100.6195221552044
 20
-137.437600798974
 30
0.0
 10
100.6195221552044
 20
-137.4927399656271
 30
0.0
 10
100.6643249318391
 20
-137.5375074656157
 30
0.0
 10
100.7194288193222
 20
-137.5375074656157
 30
0.0
 10
100.7745679845821
 20
-137.5375074656157
 30
0.0
 10
100.81933548344
 20
-137.4927399656271
 30
0.0
 10
100.81933548344
 20
-137.437600798974
 30
0.0
  0
SPLINE
  5
7C
330
1F
100
AcDbEntity
  8
_U+30EC_U+30A4_U+30E4_U+30FC 1
 62
   179
420
  2234388
370
     9
100
AcDbSpline
210
0.0
220
0.0
230
1.0
 70
    11
 71
     3
 72
    17
 73
    13
 74
     0
 42
0.0000000001
 43
0.0000000001
 12
1.0
 22
0.0
 32
0.0
 13
1.0
 23
0.0
 33
0.0
 40
0.0
 40
0.0
 40
0.0
 40
0.0
 40
1.0
 40
1.0
 40
1.0
 40
2.0
 40
2.0
 40
2.0
 40
3.0
 40
3.0
 40
3.0
 40
4.0
 40
4.0
 40
4.0
 40
4.0
 10
75.8194919545725
 20
-137.437600798974
 30
0.0
 10
75.8194919545725
 20
-137.3824969100991
 30
0.0
 10
75.77468917793773
 20
-137.3376941323324
 30
0.0
 10
75.71940890157028
 20
-137.3376941323324
 30
0.0
 10
75.66426973631033
 20
-137.3376941323324
 30
0.0
 10
75.61950223745244
 20
-137.3824969100991
 30
0.0
 10
75.61950223745244
 20
-137.437600798974
 30
0.0
 10
75.61950223745244
 20
-137.4927399656271
 30
0.0
 10
75.66426973631033
 20
-137.5375074656157
 30
0.0
 10
75.71940890157028
 20
-137.5375074656157
 30
0.0
 10
75.77468917793773
 20
-137.5375074656157
 30
0.0
 10
75.8194919545725
 20
-137.4927399656271
 30
0.0
 10
75.8194919545725
 20
-137.437600798974
 30
0.0
  0
POLYLINE
  5
7D
330
1F
100
AcDbEntity
  8
_U+30EC_U+30A4_U+30E4_U+30FC 1
 62
   179
420
  2234388
370
     9
100
AcDb2dPolyline
 66
     1
 10
0.0
 20
0.0
 30
0.0
  0
VERTEX
  5
7E
330
7D
100
AcDbEntity
  8
_U+30EC_U+30A4_U+30E4_U+30FC 1
 62
   179
420
  2234388
370
     9
100
AcDbVertex
100
AcDb2dVertex
 10
104.7191878839465
 20
-132.437751911335
 30
0.0
  0
VERTEX
  5
7F
330
7D
100
AcDbEntity
  8
_U+30EC_U+30A4_U+30E4_U+30FC 1
 62
   179
420
  2234388
370
     9
100
AcDbVertex
100
AcDb2dVertex
 10
104.7191878839465
 20
-125.9375391351823
 30
0.0
  0
SEQEND
  5
80
330
7D
100
AcDbEntity
  8
_U+30EC_U+30A4_U+30E4_U+30FC 1
 62
   179
420
  2234388
370
     9
  0
POLYLINE
  5
81
330
1F
100
AcDbEntity
  8
_U+30EC_U+30A4_U+30E4_U+30FC 1
 62
   179
420
  2234388
370
     9
100
AcDb2dPolyline
 66
     1
 10
0.0
 20
0.0
 30
0.0
  0
VERTEX
  5
82
330
81
100
AcDbEntity
  8
_U+30EC_U+30A4_U+30E4_U+30FC 1
 62
   179
420
  2234388
370
     9
100
AcDbVertex
100
AcDb2dVertex
 10
97.7594116726163
 20
-132.437751911335
 30
0.0
  0
VERTEX
  5
83
330
81
100
AcDbEntity
  8
_U+30EC_U+30A4_U+30E4_U+30FC 1
 62
   179
420
  2234388
370
     9
100
AcDbVertex
100
AcDb2dVertex
 10
105.7196303584231
 20
-132.437751911335
 30
0.0
  0
SEQEND
  5
84
330
81
100
AcDbEntity
  8
_U+30EC_U+30A4_U+30E4_U+30FC 1
 62
   179
420
  2234388
370
     9
  0
POLYLINE
  5
85
330
1F
100
AcDbEntity
  8
_U+30EC_U+30A4_U+30E4_U+30FC 1
 62
   179
420
  2234388
370
     9
100
AcDb2dPolyline
 66
     1
 10
0.0
 20
0.0
 30
0.0
  0
VERTEX
  5
86
330
85
100
AcDbEntity
  8
_U+30EC_U+30A4_U+30E4_U+30FC 1
 62
   179
420
  2234388
370
     9
100
AcDbVertex
100
AcDb2dVertex
 10
98.7591838693322
 20
-125.9375391351823
 30
0.0
  0
VERTEX
  5
87
330
85
100
AcDbEntity
  8
_U+30EC_U+30A4_U+30E4_U+30FC 1
 62
   179
420
  2234388
370
     9
100
AcDbVertex
100
AcDb2dVertex
 10
105.7196303584231
 20
-125.9375391351823
 30
0.0
  0
SEQEND
  5
88
330
85
100
AcDbEntity
  8
_U+30EC_U+30A4_U+30E4_U+30FC 1
 62
   179
420
  2234388
370
     9
  0
INSERT
  5
8A
330
1F
100
AcDbEntity
  8
_U+30EC_U+30A4_U+30E4_U+30FC 1
100
AcDbBlockReference
  2
block 2
 10
0.0
 20
0.0
 30
0.0
  0
POLYLINE
  5
9A
330
1F
100
AcDbEntity
  8
_U+30EC_U+30A4_U+30E4_U+30FC 1
 62
   179
420
  2234388
370
     9
100
AcDb2dPolyline
 66
     1
 10
0.0
 20
0.0
 30
0.0
  0
VERTEX
  5
9B
330
9A
100
AcDbEntity
  8
_U+30EC_U+30A4_U+30E4_U+30FC 1
 62
   179
420
  2234388
370
     9
100
AcDbVertex
100
AcDb2dVertex
 10
92.2197070917237
 20
-120.9369846919881
 30
0.0
  0
VERTEX
  5
9C
330
9A
100
AcDbEntity
  8
_U+30EC_U+30A4_U+30E4_U+30FC 1
 62
   179
420
  2234388
370
     9
100
AcDbVertex
100
AcDb2dVertex
 10
84.21930701805314
 20
-120.9369846919881
 30
0.0
  0
SEQEND
  5
9D
330
9A
100
AcDbEntity
  8
_U+30EC_U+30A4_U+30E4_U+30FC 1
 62
   179
420
  2234388
370
     9
  0
POLYLINE
  5
9E
330
1F
100
AcDbEntity
  8
_U+30EC_U+30A4_U+30E4_U+30FC 1
 62
   179
420
  2234388
370
     9
100
AcDb2dPolyline
 66
     1
 10
0.0
 20
0.0
 30
0.0
  0
VERTEX
  5
9F
330
9E
100
AcDbEntity
  8
_U+30EC_U+30A4_U+30E4_U+30FC 1
 62
   179
420
  2234388
370
     9
100
AcDbVertex
100
AcDb2dVertex
 10
92.2197070917237
 20
-122.3969908027342
 30
0.0
  0
VERTEX
  5
A0
330
9E
100
AcDbEntity
  8
_U+30EC_U+30A4_U+30E4_U+30FC 1
 62
   179
420
  2234388
370
     9
100
AcDbVertex
100
AcDb2dVertex
 10
92.2197070917237
 20
-119.9372124700158
 30
0.0
  0
SEQEND
  5
A1
330
9E
100
AcDbEntity
  8
_U+30EC_U+30A4_U+30E4_U+30FC 1
 62
   179
420
  2234388
370
     9
  0
POLYLINE
  5
A2
330
1F
100
AcDbEntity
  8
_U+30EC_U+30A4_U+30E4_U+30FC 1
 62
   179
420
  2234388
370
     9
100
AcDb2dPolyline
 66
     1
 10
0.0
 20
0.0
 30
0.0
  0
VERTEX
  5
A3
330
A2
100
AcDbEntity
  8
_U+30EC_U+30A4_U+30E4_U+30FC 1
 62
   179
420
  2234388
370
     9
100
AcDbVertex
100
AcDb2dVertex
 10
84.21930701805314
 20
-122.3969908027342
 30
0.0
  0
VERTEX
  5
A4
330
A2
100
AcDbEntity
  8
_U+30EC_U+30A4_U+30E4_U+30FC 1
 62
   179
420
  2234388
370
     9
100
AcDbVertex
100
AcDb2dVertex
 10
84.21930701805314
 20
-119.9372124700158
 30
0.0
  0
SEQEND
  5
A5
330
A2
100
AcDbEntity
  8
_U+30EC_U+30A4_U+30E4_U+30FC 1
 62
   179
420
  2234388
370
     9
  0
INSERT
  5
A7
330
1F
100
AcDbEntity
  8
_U+30EC_U+30A4_U+30E4_U+30FC 1
100
AcDbBlockReference
  2
block 3
 10
0.0
 20
0.0
 30
0.0
  0
POLYLINE
  5
AE
330
1F
100
AcDbEntity
  8
_U+30EC_U+30A4_U+30E4_U+30FC 1
 62
   179
420
  2234388
370
     9
100
AcDb2dPolyline
 66
     1
 10
0.0
 20
0.0
 30
0.0
  0
VERTEX
  5
AF
330
AE
100
AcDbEntity
  8
_U+30EC_U+30A4_U+30E4_U+30FC 1
 62
   179
420
  2234388
370
     9
100
AcDbVertex
100
AcDb2dVertex
 10
92.2197070917237
 20
-120.9369846919881
 30
0.0
  0
VERTEX
  5
B0
330
AE
100
AcDbEntity
  8
_U+30EC_U+30A4_U+30E4_U+30FC 1
 62
   179
420
  2234388
370
     9
100
AcDbVertex
100
AcDb2dVertex
 10
96.21943330927833
 20
-120.9369846919881
 30
0.0
  0
SEQEND
  5
B1
330
AE
100
AcDbEntity
  8
_U+30EC_U+30A4_U+30E4_U+30FC 1
 62
   179
420
  2234388
370
     9
  0
POLYLINE
  5
B2
330
1F
100
AcDbEntity
  8
_U+30EC_U+30A4_U+30E4_U+30FC 1
 62
   179
420
  2234388
370
     9
100
AcDb2dPolyline
 66
     1
 10
0.0
 20
0.0
 30
0.0
  0
VERTEX
  5
B3
330
B2
100
AcDbEntity
  8
_U+30EC_U+30A4_U+30E4_U+30FC 1
 62
   179
420
  2234388
370
     9
100
AcDbVertex
100
AcDb2dVertex
 10
96.21943330927833
 20
-123.3967630247065
 30
0.0
  0
VERTEX
  5
B4
330
B2
100
AcDbEntity
  8
_U+30EC_U+30A4_U+30E4_U+30FC 1
 62
   179
420
  2234388
370
     9
100
AcDbVertex
100
AcDb2dVertex
 10
96.21943330927833
 20
-119.9372124700158
 30
0.0
  0
SEQEND
  5
B5
330
B2
100
AcDbEntity
  8
_U+30EC_U+30A4_U+30E4_U+30FC 1
 62
   179
420
  2234388
370
     9
  0
INSERT
  5
B7
330
1F
100
AcDbEntity
  8
_U+30EC_U+30A4_U+30E4_U+30FC 1
100
AcDbBlockReference
  2
block 4
 10
0.0
 20
0.0
 30
0.0
  0
POLYLINE
  5
CF
330
1F
100
AcDbEntity
  8
_U+30EC_U+30A4_U+30E4_U+30FC 1
 62
   179
420
  2234388
370
     9
100
AcDb2dPolyline
 66
     1
 10
0.0
 20
0.0
 30
0.0
  0
VERTEX
  5
D0
330
CF
100
AcDbEntity
  8
_U+30EC_U+30A4_U+30E4_U+30FC 1
 62
   179
420
  2234388
370
     9
100
AcDbVertex
100
AcDb2dVertex
 10
84.21930701805314
 20
-120.9369846919881
 30
0.0
  0
VERTEX
  5
D1
330
CF
100
AcDbEntity
  8
_U+30EC_U+30A4_U+30E4_U+30FC 1
 62
   179
420
  2234388
370
     9
100
AcDbVertex
100
AcDb2dVertex
 10
80.21940684232132
 20
-120.9369846919881
 30
0.0
  0
SEQEND
  5
D2
330
CF
100
AcDbEntity
  8
_U+30EC_U+30A4_U+30E4_U+30FC 1
 62
   179
420
  2234388
370
     9
  0
POLYLINE
  5
D3
330
1F
100
AcDbEntity
  8
_U+30EC_U+30A4_U+30E4_U+30FC 1
 62
   179
420
  2234388
370
     9
100
AcDb2dPolyline
 66
     1
 10
0.0
 20
0.0
 30
0.0
  0
VERTEX
  5
D4
330
D3
100
AcDbEntity
  8
_U+30EC_U+30A4_U+30E4_U+30FC 1
 62
   179
420
  2234388
370
     9
100
AcDbVertex
100
AcDb2dVertex
 10
80.21940684232132
 20
-123.3967630247065
 30
0.0
  0
VERTEX
  5
D5
330
D3
100
AcDbEntity
  8
_U+30EC_U+30A4_U+30E4_U+30FC 1
 62
   179
420
  2234388
370
     9
100
AcDbVertex
100
AcDb2dVertex
 10
80.21940684232132
 20
-119.9372124700158
 30
0.0
  0
SEQEND
  5
D6
330
D3
100
AcDbEntity
  8
_U+30EC_U+30A4_U+30E4_U+30FC 1
 62
   179
420
  2234388
370
     9
  0
INSERT
  5
D8
330
1F
100
AcDbEntity
  8
_U+30EC_U+30A4_U+30E4_U+30FC 1
100
AcDbBlockReference
  2
block 5
 10
0.0
 20
0.0
 30
0.0
  0
POLYLINE
  5
F0
330
1F
100
AcDbEntity
  8
_U+30EC_U+30A4_U+30E4_U+30FC 1
 62
   179
420
  2234388
370
     9
100
AcDb2dPolyline
 66
     1
 10
0.0
 20
0.0
 30
0.0
  0
VERTEX
  5
F1
330
F0
100
AcDbEntity
  8
_U+30EC_U+30A4_U+30E4_U+30FC 1
 62
   179
420
  2234388
370
     9
100
AcDbVertex
100
AcDb2dVertex
 10
75.71940890157028
 20
-137.437600798974
 30
0.0
  0
VERTEX
  5
F2
330
F0
100
AcDbEntity
  8
_U+30EC_U+30A4_U+30E4_U+30FC 1
 62
   179
420
  2234388
370
     9
100
AcDbVertex
100
AcDb2dVertex
 10
100.7194288193222
 20
-137.437600798974
 30
0.0
  0
SEQEND
  5
F3
330
F0
100
AcDbEntity
  8
_U+30EC_U+30A4_U+30E4_U+30FC 1
 62
   179
420
  2234388
370
     9
  0
POLYLINE
  5
F4
330
1F
100
AcDbEntity
  8
_U+30EC_U+30A4_U+30E4_U+30FC 1
 62
   179
420
  2234388
370
     9
100
AcDb2dPolyline
 66
     1
 10
0.0
 20
0.0
 30
0.0
  0
VERTEX
  5
F5
330
F4
100
AcDbEntity
  8
_U+30EC_U+30A4_U+30E4_U+30FC 1
 62
   179
420
  2234388
370
     9
100
AcDbVertex
100
AcDb2dVertex
 10
75.71940890157028
 20
-135.9775594104503
 30
0.0
  0
VERTEX
  5
F6
330
F4
100
AcDbEntity
  8
_U+30EC_U+30A4_U+30E4_U+30FC 1
 62
   179
420
  2234388
370
     9
100
AcDbVertex
100
AcDb2dVertex
 10
75.71940890157028
 20
-138.4377257987237
 30
0.0
  0
SEQEND
  5
F7
330
F4
100
AcDbEntity
  8
_U+30EC_U+30A4_U+30E4_U+30FC 1
 62
   179
420
  2234388
370
     9
  0
POLYLINE
  5
F8
330
1F
100
AcDbEntity
  8
_U+30EC_U+30A4_U+30E4_U+30FC 1
 62
   179
420
  2234388
370
     9
100
AcDb2dPolyline
 66
     1
 10
0.0
 20
0.0
 30
0.0
  0
VERTEX
  5
F9
330
F8
100
AcDbEntity
  8
_U+30EC_U+30A4_U+30E4_U+30FC 1
 62
   179
420
  2234388
370
     9
100
AcDbVertex
100
AcDb2dVertex
 10
100.7194288193222
 20
-135.9775594104503
 30
0.0
  0
VERTEX
  5
FA
330
F8
100
AcDbEntity
  8
_U+30EC_U+30A4_U+30E4_U+30FC 1
 62
   179
420
  2234388
370
     9
100
AcDbVertex
100
AcDb2dVertex
 10
100.7194288193222
 20
-138.4377257987237
 30
0.0
  0
SEQEND
  5
FB
330
F8
100
AcDbEntity
  8
_U+30EC_U+30A4_U+30E4_U+30FC 1
 62
   179
420
  2234388
370
     9
  0
INSERT
  5
FD
330
1F
100
AcDbEntity
  8
_U+30EC_U+30A4_U+30E4_U+30FC 1
100
AcDbBlockReference
  2
block 6
 10
0.0
 20
0.0
 30
0.0
  0
SPLINE
  5
104
330
1F
100
AcDbEntity
  8
_U+30EC_U+30A4_U+30E4_U+30FC 1
 62
   179
420
  2234388
370
     9
100
AcDbSpline
210
0.0
220
0.0
230
1.0
 70
    11
 71
     3
 72
    17
 73
    13
 74
     0
 42
0.0000000001
 43
0.0000000001
 12
1.0
 22
0.0
 32
0.0
 13
1.0
 23
0.0
 33
0.0
 40
0.0
 40
0.0
 40
0.0
 40
0.0
 40
1.0
 40
1.0
 40
1.0
 40
2.0
 40
2.0
 40
2.0
 40
3.0
 40
3.0
 40
3.0
 40
4.0
 40
4.0
 40
4.0
 40
4.0
 10
83.31947676323195
 20
-129.3057908010067
 30
0.0
 10
83.31947676323195
 20
-129.2506869121318
 30
0.0
 10
83.27467398659718
 20
-129.205884134365
 30
0.0
 10
83.21939371022972
 20
-129.205884134365
 30
0.0
 10
83.16425454496978
 20
-129.205884134365
 30
0.0
 10
83.11948704611189
 20
-129.2506869121318
 30
0.0
 10
83.11948704611189
 20
-129.3057908010067
 30
0.0
 10
83.11948704611189
 20
-129.3609299676597
 30
0.0
 10
83.16425454496978
 20
-129.4056974676483
 30
0.0
 10
83.21939371022972
 20
-129.4056974676483
 30
0.0
 10
83.27467398659718
 20
-129.4056974676483
 30
0.0
 10
83.31947676323195
 20
-129.3609299676597
 30
0.0
 10
83.31947676323195
 20
-129.3057908010067
 30
0.0
  0
SPLINE
  5
105
330
1F
100
AcDbEntity
  8
_U+30EC_U+30A4_U+30E4_U+30FC 1
 62
   179
420
  2234388
370
     9
100
AcDbSpline
210
0.0
220
0.0
230
1.0
 70
    11
 71
     3
 72
    17
 73
    13
 74
     0
 42
0.0000000001
 43
0.0000000001
 12
1.0
 22
0.0
 32
0.0
 13
1.0
 23
0.0
 33
0.0
 40
0.0
 40
0.0
 40
0.0
 40
0.0
 40
1.0
 40
1.0
 40
1.0
 40
2.0
 40
2.0
 40
2.0
 40
3.0
 40
3.0
 40
3.0
 40
4.0
 40
4.0
 40
4.0
 40
4.0
 10
84.31921368217098
 20
-129.3057908010067
 30
0.0
 10
84.31921368217098
 20
-129.2506869121318
 30
0.0
 10
84.27444618331309
 20
-129.205884134365
 30
0.0
 10
84.21913062916876
 20
-129.205884134365
 30
0.0
 10
84.16402674168567
 20
-129.205884134365
 30
0.0
 10
84.11922396505092
 20
-129.2506869121318
 30
0.0
 10
84.11922396505092
 20
-129.3057908010067
 30
0.0
 10
84.11922396505092
 20
-129.3609299676597
 30
0.0
 10
84.16402674168567
 20
-129.4056974676483
 30
0.0
 10
84.21913062916876
 20
-129.4056974676483
 30
0.0
 10
84.27444618331309
 20
-129.4056974676483
 30
0.0
 10
84.31921368217098
 20
-129.3609299676597
 30
0.0
 10
84.31921368217098
 20
-129.3057908010067
 30
0.0
  0
INSERT
  5
107
330
1F
100
AcDbEntity
  8
_U+30EC_U+30A4_U+30E4_U+30FC 1
100
AcDbBlockReference
  2
block 7
 10
0.0
 20
0.0
 30
0.0
  0
POLYLINE
  5
10C
330
1F
100
AcDbEntity
  8
_U+30EC_U+30A4_U+30E4_U+30FC 1
 62
   179
420
  2234388
370
     9
100
AcDb2dPolyline
 66
     1
 10
0.0
 20
0.0
 30
0.0
  0
VERTEX
  5
10D
330
10C
100
AcDbEntity
  8
_U+30EC_U+30A4_U+30E4_U+30FC 1
 62
   179
420
  2234388
370
     9
100
AcDbVertex
100
AcDb2dVertex
 10
86.13891196907994
 20
-129.3057908010067
 30
0.0
  0
VERTEX
  5
10E
330
10C
100
AcDbEntity
  8
_U+30EC_U+30A4_U+30E4_U+30FC 1
 62
   179
420
  2234388
370
     9
100
AcDbVertex
100
AcDb2dVertex
 10
82.29988053498064
 20
-129.3057908010067
 30
0.0
  0
SEQEND
  5
10F
330
10C
100
AcDbEntity
  8
_U+30EC_U+30A4_U+30E4_U+30FC 1
 62
   179
420
  2234388
370
     9
  0
SPLINE
  5
110
330
1F
100
AcDbEntity
  8
_U+30EC_U+30A4_U+30E4_U+30FC 1
 62
   179
420
  2234388
370
    25
100
AcDbSpline
210
0.0
220
0.0
230
1.0
 70
     8
 71
     3
 72
    32
 73
    28
 74
     0
 42
0.0000000001
 43
0.0000000001
 12
1.0
 22
0.0
 32
0.0
 13
1.0
 23
0.0
 33
0.0
 40
0.0
 40
0.0
 40
0.0
 40
0.0
 40
1.0
 40
1.0
 40
1.0
 40
2.0
 40
2.0
 40
2.0
 40
3.0
 40
3.0
 40
3.0
 40
4.0
 40
4.0
 40
4.0
 40
5.0
 40
5.0
 40
5.0
 40
6.0
 40
6.0
 40
6.0
 40
7.0
 40
7.0
 40
7.0
 40
8.0
 40
8.0
 40
8.0
 40
9.0
 40
9.0
 40
9.0
 40
9.0
 10
80.21940684232132
 20
-125.9375391351823
 30
0.0
 10
80.21940684232132
 20
-125.9375391351823
 30
0.0
 10
81.21932220191742
 20
-124.9370613576545
 30
0.0
 10
81.21932220191742
 20
-124.9370613576545
 30
0.0
 10
81.21932220191742
 20
-124.9370613576545
 30
0.0
 10
83.71959730857958
 20
-124.9372377465434
 30
0.0
 10
83.71959730857958
 20
-124.9372377465434
 30
0.0
 10
83.99571646820186
 20
-124.9372377465434
 30
0.0
 10
84.21948340693753
 20
-125.1611810798207
 30
0.0
 10
84.21948340693753
 20
-125.4373002464186
 30
0.0
 10
84.21948340693753
 20
-125.4373002464186
 30
0.0
 10
84.21930701805314
 20
-132.437751911335
 30
0.0
 10
84.21930701805314
 20
-132.437751911335
 30
0.0
 10
84.21930701805314
 20
-132.437751911335
 30
0.0
 10
92.2197070917237
 20
-132.437751911335
 30
0.0
 10
92.2197070917237
 20
-132.437751911335
 30
0.0
 10
92.2197070917237
 20
-132.437751911335
 30
0.0
 10
92.2197070917237
 20
-125.4374766353074
 30
0.0
 10
92.2197070917237
 20
-125.4374766353074
 30
0.0
 10
92.2197070917237
 20
-125.1613574687096
 30
0.0
 10
92.4436151415669
 20
-124.9374141354323
 30
0.0
 10
92.71955791230478
 20
-124.9374141354323
 30
0.0
 10
92.71955791230478
 20
-124.9374141354323
 30
0.0
 10
95.21969395963211
 20
-124.9370613576545
 30
0.0
 10
95.21969395963211
 20
-124.9370613576545
 30
0.0
 10
95.21969395963211
 20
-124.9370613576545
 30
0.0
 10
96.21943330927833
 20
-125.9375391351823
 30
0.0
 10
96.21943330927833
 20
-125.9375391351823
 30
0.0
  0
ENDSEC
  0
SECTION
  2
OBJECTS
  0
DICTIONARY
  5
C
330
0
100
AcDbDictionary
281
     1
  3
ACAD_GROUP
350
D
  3
ACAD_LAYOUT
350
1A
  3
ACAD_MATERIAL
350
3B
  3
ACAD_MLEADERSTYLE
350
112
  3
ACAD_MLINESTYLE
350
17
  3
ACAD_PLOTSETTINGS
350
19
  3
ACAD_PLOTSTYLENAME
350
E
  3
ACAD_TABLESTYLE
350
111
  3
ACAD_VISUALSTYLE
350
2A
  0
SUN
  5
3F
330
29
100
AcDbSun
 90
        1
290
     0
 63
     7
421
 16777215
 40
1.0
291
     1
 91
  2455826
 92
 54000000
292
     0
 70
     2
 71
   256
280
     1
  0
DICTIONARY
  5
D
102
{ACAD_REACTORS
330
C
102
}
330
C
100
AcDbDictionary
281
     1
  0
DICTIONARY
  5
1A
102
{ACAD_REACTORS
330
C
102
}
330
C
100
AcDbDictionary
281
     1
  3
Layout1
350
1E
  3
Layout2
350
26
  3
Model
350
22
  0
DICTIONARY
  5
3B
102
{ACAD_REACTORS
330
C
102
}
330
C
100
AcDbDictionary
281
     1
  3
ByBlock
350
3D
  3
ByLayer
350
3C
  3
Global
350
3E
  0
DICTIONARY
  5
112
102
{ACAD_REACTORS
330
C
102
}
330
C
100
AcDbDictionary
281
     1
  0
DICTIONARY
  5
17
102
{ACAD_REACTORS
330
C
102
}
330
C
100
AcDbDictionary
281
     1
  3
Standard
350
18
  0
DICTIONARY
  5
19
102
{ACAD_REACTORS
330
C
102
}
330
C
100
AcDbDictionary
281
     1
  0
ACDBDICTIONARYWDFLT
  5
E
102
{ACAD_REACTORS
330
C
102
}
330
C
100
AcDbDictionary
281
     1
  3
Normal
350
F
100
AcDbDictionaryWithDefault
340
F
  0
DICTIONARY
  5
111
102
{ACAD_REACTORS
330
C
102
}
330
C
100
AcDbDictionary
281
     1
  0
DICTIONARY
  5
2A
102
{ACAD_REACTORS
330
C
102
}
330
C
100
AcDbDictionary
281
     1
  3
2dWireframe
350
2F
  3
3D Hidden
350
31
  3
3dWireframe
350
30
  3
Basic
350
32
  3
Brighten
350
36
  3
ColorChange
350
3A
  3
Conceptual
350
34
  3
Dim
350
35
  3
Facepattern
350
39
  3
Flat
350
2B
  3
FlatWithEdges
350
2C
  3
Gouraud
350
2D
  3
GouraudWithEdges
350
2E
  3
Linepattern
350
38
  3
Realistic
350
33
  3
Thicken
350
37
  0
LAYOUT
  5
1E
102
{ACAD_REACTORS
330
1A
102
}
330
1A
100
AcDbPlotSettings
  1

  2
none_device
  4

  6

 40
0.0
 41
0.0
 42
0.0
 43
0.0
 44
0.0
 45
0.0
 46
0.0
 47
0.0
 48
0.0
 49
0.0
140
0.0
141
0.0
142
1.0
143
1.0
 70
   688
 72
     0
 73
     0
 74
     5
  7

 75
    16
 76
     0
 77
     2
 78
   300
147
1.0
148
0.0
149
0.0
100
AcDbLayout
  1
Layout1
 70
     1
 71
     1
 10
0.0
 20
0.0
 11
12.0
 21
9.0
 12
0.0
 22
0.0
 32
0.0
 14
1.000000000000000E+20
 24
1.000000000000000E+20
 34
1.000000000000000E+20
 15
-1.000000000000000E+20
 25
-1.000000000000000E+20
 35
-1.000000000000000E+20
146
0.0
 13
0.0
 23
0.0
 33
0.0
 16
1.0
 26
0.0
 36
0.0
 17
0.0
 27
1.0
 37
0.0
 76
     0
330
1B
  0
LAYOUT
  5
26
102
{ACAD_REACTORS
330
1A
102
}
330
1A
100
AcDbPlotSettings
  1

  2
none_device
  4

  6

 40
0.0
 41
0.0
 42
0.0
 43
0.0
 44
0.0
 45
0.0
 46
0.0
 47
0.0
 48
0.0
 49
0.0
140
0.0
141
0.0
142
1.0
143
1.0
 70
   688
 72
     0
 73
     0
 74
     5
  7

 75
    16
 76
     0
 77
     2
 78
   300
147
1.0
148
0.0
149
0.0
100
AcDbLayout
  1
Layout2
 70
     1
 71
     2
 10
0.0
 20
0.0
 11
0.0
 21
0.0
 12
0.0
 22
0.0
 32
0.0
 14
0.0
 24
0.0
 34
0.0
 15
0.0
 25
0.0
 35
0.0
146
0.0
 13
0.0
 23
0.0
 33
0.0
 16
1.0
 26
0.0
 36
0.0
 17
0.0
 27
1.0
 37
0.0
 76
     0
330
23
  0
LAYOUT
  5
22
102
{ACAD_REACTORS
330
1A
102
}
330
1A
100
AcDbPlotSettings
  1

  2
none_device
  4

  6

 40
0.0
 41
0.0
 42
0.0
 43
0.0
 44
0.0
 45
0.0
 46
0.0
 47
0.0
 48
0.0
 49
0.0
140
0.0
141
0.0
142
1.0
143
1.0
 70
  1712
 72
     0
 73
     0
 74
     0
  7

 75
     0
 76
     0
 77
     2
 78
   300
147
1.0
148
0.0
149
0.0
100
AcDbLayout
  1
Model
 70
     1
 71
     0
 10
0.0
 20
0.0
 11
12.0
 21
9.0
 12
0.0
 22
0.0
 32
0.0
 14
1.000000000000000E+20
 24
1.000000000000000E+20
 34
1.000000000000000E+20
 15
-1.000000000000000E+20
 25
-1.000000000000000E+20
 35
-1.000000000000000E+20
146
0.0
 13
0.0
 23
0.0
 33
0.0
 16
1.0
 26
0.0
 36
0.0
 17
0.0
 27
1.0
 37
0.0
 76
     0
330
1F
331
29
  0
MATERIAL
  5
3D
102
{ACAD_REACTORS
330
3B
102
}
330
3B
100
AcDbMaterial
  1
ByBlock
 72
     1
 94
      127
  0
MATERIAL
  5
3C
102
{ACAD_REACTORS
330
3B
102
}
330
3B
100
AcDbMaterial
  1
ByLayer
 72
     1
 94
      127
  0
MATERIAL
  5
3E
102
{ACAD_REACTORS
330
3B
102
}
330
3B
100
AcDbMaterial
  1
Global
 72
     1
 94
      127
  0
MLINESTYLE
  5
18
102
{ACAD_REACTORS
330
17
102
}
330
17
100
AcDbMlineStyle
  2
Standard
 70
     0
  3

 62
   256
 51
90.0
 52
90.0
 71
     2
 49
0.5
 62
   256
  6
BYLAYER
 49
-0.5
 62
   256
  6
BYLAYER
  0
ACDBPLACEHOLDER
  5
F
102
{ACAD_REACTORS
330
E
102
}
330
E
  0
VISUALSTYLE
  5
2F
102
{ACAD_REACTORS
330
2A
102
}
330
2A
100
AcDbVisualStyle
  2
2dWireframe
 70
     4
177
     2
291
     0
 71
     0
176
     1
 72
     2
176
     1
 73
     0
176
     1
 90
        0
176
     1
 40
-0.6
176
     1
 41
-30.0
176
     1
 62
     5
 63
     7
421
 16777215
176
     1
 74
     1
176
     1
 91
        4
176
     1
 64
     7
176
     1
 65
   257
176
     1
 75
     1
176
     1
175
     1
176
     1
 42
1.0
176
     1
 92
        0
176
     1
 66
   257
176
     1
 43
1.0
176
     1
 76
     1
176
     1
 77
     6
176
     1
 78
     2
176
     1
 67
     7
176
     1
 79
     5
176
     1
170
     0
176
     1
171
     0
176
     1
290
     0
176
     1
 93
        1
176
     1
 44
0.0
176
     1
173
     0
176
     1
  0
VISUALSTYLE
  5
31
102
{ACAD_REACTORS
330
2A
102
}
330
2A
100
AcDbVisualStyle
  2
3D Hidden
 70
     6
177
     2
291
     0
 71
     1
176
     1
 72
     2
176
     1
 73
     2
176
     1
 90
        0
176
     1
 40
-0.6
176
     1
 41
-30.0
176
     1
 62
     5
 63
     7
421
 16777215
176
     1
 74
     2
176
     1
 91
        2
176
     1
 64
     7
176
     1
 65
   257
176
     1
 75
     2
176
     1
175
     1
176
     1
 42
40.0
176
     1
 92
        0
176
     1
 66
   257
176
     1
 43
1.0
176
     1
 76
     1
176
     1
 77
     6
176
     1
 78
     2
176
     1
 67
     7
176
     1
 79
     3
176
     1
170
     0
176
     1
171
     0
176
     1
290
     0
176
     1
 93
        1
176
     1
 44
0.0
176
     1
173
     0
176
     1
  0
VISUALSTYLE
  5
30
102
{ACAD_REACTORS
330
2A
102
}
330
2A
100
AcDbVisualStyle
  2
3dWireframe
 70
     5
177
     2
291
     0
 71
     0
176
     1
 72
     2
176
     1
 73
     0
176
     1
 90
        0
176
     1
 40
-0.6
176
     1
 41
-30.0
176
     1
 62
     5
 63
     7
421
 16777215
176
     1
 74
     1
176
     1
 91
        4
176
     1
 64
     7
176
     1
 65
   257
176
     1
 75
     1
176
     1
175
     1
176
     1
 42
1.0
176
     1
 92
        0
176
     1
 66
   257
176
     1
 43
1.0
176
     1
 76
     1
176
     1
 77
     6
176
     1
 78
     2
176
     1
 67
     7
176
     1
 79
     5
176
     1
170
     0
176
     1
171
     0
176
     1
290
     0
176
     1
 93
        1
176
     1
 44
0.0
176
     1
173
     0
176
     1
  0
VISUALSTYLE
  5
32
102
{ACAD_REACTORS
330
2A
102
}
330
2A
100
AcDbVisualStyle
  2
Basic
 70
     7
177
     2
291
     1
 71
     1
176
     1
 72
     0
176
     1
 73
     1
176
     1
 90
        0
176
     1
 40
-0.6
176
     1
 41
-30.0
176
     1
 62
     5
 63
     7
421
 16777215
176
     1
 74
     0
176
     1
 91
        4
176
     1
 64
     7
176
     1
 65
   257
176
     1
 75
     1
176
     1
175
     1
176
     1
 42
1.0
176
     1
 92
        8
176
     1
 66
     7
176
     1
 43
1.0
176
     1
 76
     1
176
     1
 77
     6
176
     1
 78
     2
176
     1
 67
     7
176
     1
 79
     5
176
     1
170
     0
176
     1
171
     0
176
     1
290
     0
176
     1
 93
        1
176
     1
 44
0.0
176
     1
173
     0
176
     1
  0
VISUALSTYLE
  5
36
102
{ACAD_REACTORS
330
2A
102
}
330
2A
100
AcDbVisualStyle
  2
Brighten
 70
    12
177
     2
291
     1
 71
     2
176
     1
 72
     2
176
     1
 73
     0
176
     1
 90
        0
176
     1
 40
-0.6
176
     1
 41
-30.0
176
     1
 62
     5
 63
     7
421
 16777215
176
     1
 74
     1
176
     1
 91
        4
176
     1
 64
     7
176
     1
 65
   257
176
     1
 75
     1
176
     1
175
     1
176
     1
 42
1.0
176
     1
 92
        8
176
     1
 66
     7
176
     1
 43
1.0
176
     1
 76
     1
176
     1
 77
     6
176
     1
 78
     2
176
     1
 67
     7
176
     1
 79
     5
176
     1
170
     0
176
     1
171
     0
176
     1
290
     0
176
     1
 93
        1
176
     1
 44
50.0
176
     1
173
     0
176
     1
  0
VISUALSTYLE
  5
3A
102
{ACAD_REACTORS
330
2A
102
}
330
2A
100
AcDbVisualStyle
  2
ColorChange
 70
    16
177
     2
291
     1
 71
     2
176
     1
 72
     2
176
     1
 73
     3
176
     1
 90
        0
176
     1
 40
-0.6
176
     1
 41
-30.0
176
     1
 62
     5
 63
     8
421
  8421504
176
     1
 74
     1
176
     1
 91
        4
176
     1
 64
     7
176
     1
 65
   257
176
     1
 75
     1
176
     1
175
     1
176
     1
 42
1.0
176
     1
 92
        8
176
     1
 66
     8
424
  8421504
176
     1
 43
1.0
176
     1
 76
     1
176
     1
 77
     6
176
     1
 78
     2
176
     1
 67
     7
176
     1
 79
     5
176
     1
170
     0
176
     1
171
     0
176
     1
290
     0
176
     1
 93
        1
176
     1
 44
0.0
176
     1
173
     0
176
     1
  0
VISUALSTYLE
  5
34
102
{ACAD_REACTORS
330
2A
102
}
330
2A
100
AcDbVisualStyle
  2
Conceptual
 70
     9
177
     2
291
     0
 71
     3
176
     1
 72
     2
176
     1
 73
     0
176
     1
 90
        0
176
     1
 40
-0.6
176
     1
 41
-30.0
176
     1
 62
     5
 63
     7
421
 16777215
176
     1
 74
     2
176
     1
 91
        2
176
     1
 64
     7
176
     1
 65
   257
176
     1
 75
     1
176
     1
175
     1
176
     1
 42
40.0
176
     1
 92
        8
176
     1
 66
     7
176
     1
 43
1.0
176
     1
 76
     1
176
     1
 77
     6
176
     1
 78
     2
176
     1
 67
     7
176
     1
 79
     3
176
     1
170
     0
176
     1
171
     0
176
     1
290
     0
176
     1
 93
        1
176
     1
 44
0.0
176
     1
173
     0
176
     1
  0
VISUALSTYLE
  5
35
102
{ACAD_REACTORS
330
2A
102
}
330
2A
100
AcDbVisualStyle
  2
Dim
 70
    11
177
     2
291
     1
 71
     2
176
     1
 72
     2
176
     1
 73
     0
176
     1
 90
        0
176
     1
 40
-0.6
176
     1
 41
-30.0
176
     1
 62
     5
 63
     7
421
 16777215
176
     1
 74
     1
176
     1
 91
        4
176
     1
 64
     7
176
     1
 65
   257
176
     1
 75
     1
176
     1
175
     1
176
     1
 42
1.0
176
     1
 92
        8
176
     1
 66
     7
176
     1
 43
1.0
176
     1
 76
     1
176
     1
 77
     6
176
     1
 78
     2
176
     1
 67
     7
176
     1
 79
     5
176
     1
170
     0
176
     1
171
     0
176
     1
290
     0
176
     1
 93
        1
176
     1
 44
-50.0
176
     1
173
     0
176
     1
  0
VISUALSTYLE
  5
39
102
{ACAD_REACTORS
330
2A
102
}
330
2A
100
AcDbVisualStyle
  2
Facepattern
 70
    15
177
     2
291
     1
 71
     2
176
     1
 72
     2
176
     1
 73
     0
176
     1
 90
        0
176
     1
 40
-0.6
176
     1
 41
-30.0
176
     1
 62
     5
 63
     7
421
 16777215
176
     1
 74
     1
176
     1
 91
        4
176
     1
 64
     7
176
     1
 65
   257
176
     1
 75
     1
176
     1
175
     1
176
     1
 42
1.0
176
     1
 92
        8
176
     1
 66
     7
176
     1
 43
1.0
176
     1
 76
     1
176
     1
 77
     6
176
     1
 78
     2
176
     1
 67
     7
176
     1
 79
     5
176
     1
170
     0
176
     1
171
     0
176
     1
290
     0
176
     1
 93
        1
176
     1
 44
0.0
176
     1
173
     0
176
     1
  0
VISUALSTYLE
  5
2B
102
{ACAD_REACTORS
330
2A
102
}
330
2A
100
AcDbVisualStyle
  2
Flat
 70
     0
177
     2
291
     1
 71
     2
176
     1
 72
     1
176
     1
 73
     1
176
     1
 90
        2
176
     1
 40
-0.6
176
     1
 41
30.0
176
     1
 62
     5
 63
     7
421
 16777215
176
     1
 74
     0
176
     1
 91
        4
176
     1
 64
     7
176
     1
 65
   257
176
     1
 75
     1
176
     1
175
     1
176
     1
 42
1.0
176
     1
 92
        8
176
     1
 66
     7
176
     1
 43
1.0
176
     1
 76
     1
176
     1
 77
     6
176
     1
 78
     2
176
     1
 67
     7
176
     1
 79
     5
176
     1
170
     0
176
     1
171
     0
176
     1
290
     0
176
     1
 93
       13
176
     1
 44
0.0
176
     1
173
     0
176
     1
  0
VISUALSTYLE
  5
2C
102
{ACAD_REACTORS
330
2A
102
}
330
2A
100
AcDbVisualStyle
  2
FlatWithEdges
 70
     1
177
     2
291
     1
 71
     2
176
     1
 72
     1
176
     1
 73
     1
176
     1
 90
        2
176
     1
 40
-0.6
176
     1
 41
30.0
176
     1
 62
     5
 63
     7
421
 16777215
176
     1
 74
     1
176
     1
 91
        4
176
     1
 64
     7
176
     1
 65
   257
176
     1
 75
     1
176
     1
175
     1
176
     1
 42
1.0
176
     1
 92
        0
176
     1
 66
   257
176
     1
 43
1.0
176
     1
 76
     1
176
     1
 77
     6
176
     1
 78
     2
176
     1
 67
     7
176
     1
 79
     5
176
     1
170
     0
176
     1
171
     0
176
     1
290
     0
176
     1
 93
       13
176
     1
 44
0.0
176
     1
173
     0
176
     1
  0
VISUALSTYLE
  5
2D
102
{ACAD_REACTORS
330
2A
102
}
330
2A
100
AcDbVisualStyle
  2
Gouraud
 70
     2
177
     2
291
     1
 71
     2
176
     1
 72
     2
176
     1
 73
     1
176
     1
 90
        2
176
     1
 40
-0.6
176
     1
 41
30.0
176
     1
 62
     5
 63
     7
421
 16777215
176
     1
 74
     0
176
     1
 91
        4
176
     1
 64
     7
176
     1
 65
   257
176
     1
 75
     1
176
     1
175
     1
176
     1
 42
1.0
176
     1
 92
        0
176
     1
 66
     7
176
     1
 43
1.0
176
     1
 76
     1
176
     1
 77
     6
176
     1
 78
     2
176
     1
 67
     7
176
     1
 79
     5
176
     1
170
     0
176
     1
171
     0
176
     1
290
     0
176
     1
 93
       13
176
     1
 44
0.0
176
     1
173
     0
176
     1
  0
VISUALSTYLE
  5
2E
102
{ACAD_REACTORS
330
2A
102
}
330
2A
100
AcDbVisualStyle
  2
GouraudWithEdges
 70
     3
177
     2
291
     1
 71
     2
176
     1
 72
     2
176
     1
 73
     1
176
     1
 90
        2
176
     1
 40
-0.6
176
     1
 41
30.0
176
     1
 62
     5
 63
     7
421
 16777215
176
     1
 74
     1
176
     1
 91
        4
176
     1
 64
     7
176
     1
 65
   257
176
     1
 75
     1
176
     1
175
     1
176
     1
 42
1.0
176
     1
 92
        0
176
     1
 66
   257
176
     1
 43
1.0
176
     1
 76
     1
176
     1
 77
     6
176
     1
 78
     2
176
     1
 67
     7
176
     1
 79
     5
176
     1
170
     0
176
     1
171
     0
176
     1
290
     0
176
     1
 93
       13
176
     1
 44
0.0
176
     1
173
     0
176
     1
  0
VISUALSTYLE
  5
38
102
{ACAD_REACTORS
330
2A
102
}
330
2A
100
AcDbVisualStyle
  2
Linepattern
 70
    14
177
     2
291
     1
 71
     2
176
     1
 72
     2
176
     1
 73
     0
176
     1
 90
        0
176
     1
 40
-0.6
176
     1
 41
-30.0
176
     1
 62
     5
 63
     7
421
 16777215
176
     1
 74
     1
176
     1
 91
        4
176
     1
 64
     7
176
     1
 65
   257
176
     1
 75
     7
176
     1
175
     7
176
     1
 42
1.0
176
     1
 92
        8
176
     1
 66
     7
176
     1
 43
1.0
176
     1
 76
     1
176
     1
 77
     6
176
     1
 78
     2
176
     1
 67
     7
176
     1
 79
     5
176
     1
170
     0
176
     1
171
     0
176
     1
290
     0
176
     1
 93
        1
176
     1
 44
0.0
176
     1
173
     0
176
     1
  0
VISUALSTYLE
  5
33
102
{ACAD_REACTORS
330
2A
102
}
330
2A
100
AcDbVisualStyle
  2
Realistic
 70
     8
177
     2
291
     0
 71
     2
176
     1
 72
     2
176
     1
 73
     0
176
     1
 90
        0
176
     1
 40
-0.6
176
     1
 41
-30.0
176
     1
 62
     5
 63
     7
421
 16777215
176
     1
 74
     1
176
     1
 91
        0
176
     1
 64
     7
176
     1
 65
   257
176
     1
 75
     1
176
     1
175
     1
176
     1
 42
1.0
176
     1
 92
        8
176
     1
 66
     8
424
  7895160
176
     1
 43
1.0
176
     1
 76
     1
176
     1
 77
     6
176
     1
 78
     2
176
     1
 67
     7
176
     1
 79
     5
176
     1
170
     0
176
     1
171
     0
176
     1
290
     0
176
     1
 93
       13
176
     1
 44
0.0
176
     1
173
     0
176
     1
  0
VISUALSTYLE
  5
37
102
{ACAD_REACTORS
330
2A
102
}
330
2A
100
AcDbVisualStyle
  2
Thicken
 70
    13
177
     2
291
     1
 71
     2
176
     1
 72
     2
176
     1
 73
     0
176
     1
 90
        0
176
     1
 40
-0.6
176
     1
 41
-30.0
176
     1
 62
     5
 63
     7
421
 16777215
176
     1
 74
     1
176
     1
 91
        4
176
     1
 64
     7
176
     1
 65
   257
176
     1
 75
     1
176
     1
175
     1
176
     1
 42
1.0
176
     1
 92
       12
176
     1
 66
     7
176
     1
 43
1.0
176
     1
 76
     1
176
     1
 77
     6
176
     1
 78
     2
176
     1
 67
     7
176
     1
 79
     5
176
     1
170
     0
176
     1
171
     0
176
     1
290
     0
176
     1
 93
        1
176
     1
 44
0.0
176
     1
173
     0
176
     1
  0
ENDSEC
  0
EOF
