  0
SECTION
  2
HEADER
  9
$ACADVER
  1
AC1024
  9
$ACADMAINTVER
 70
   226
  9
$DWGCODEPAGE
  3
ANSI_932
  9
$INSBASE
 10
0.0
 20
0.0
 30
0.0
  9
$EXTMIN
 10
1.000000000000000E+20
 20
1.000000000000000E+20
 30
1.000000000000000E+20
  9
$EXTMAX
 10
-1.000000000000000E+20
 20
-1.000000000000000E+20
 30
-1.000000000000000E+20
  9
$LIMMIN
 10
0.0
 20
0.0
  9
$LIMMAX
 10
12.0
 20
9.0
  9
$ORTHOMODE
 70
     0
  9
$REGENMODE
 70
     1
  9
$FILLMODE
 70
     1
  9
$QTEXTMODE
 70
     0
  9
$MIRRTEXT
 70
     0
  9
$LTSCALE
 40
1.0
  9
$ATTMODE
 70
     1
  9
$TEXTSIZE
 40
0.2
  9
$TRACEWID
 40
0.05
  9
$TEXTSTYLE
  7
Standard
  9
$CLAYER
  8
0
  9
$CELTYPE
  6
ByLayer
  9
$CECOLOR
 62
   256
  9
$CELTSCALE
 40
1.0
  9
$DISPSILH
 70
     0
  9
$DIMSCALE
 40
1.0
  9
$DIMASZ
 40
0.18
  9
$DIMEXO
 40
0.0625
  9
$DIMDLI
 40
0.38
  9
$DIMRND
 40
0.0
  9
$DIMDLE
 40
0.0
  9
$DIMEXE
 40
0.18
  9
$DIMTP
 40
0.0
  9
$DIMTM
 40
0.0
  9
$DIMTXT
 40
0.18
  9
$DIMCEN
 40
0.09
  9
$DIMTSZ
 40
0.0
  9
$DIMTOL
 70
     0
  9
$DIMLIM
 70
     0
  9
$DIMTIH
 70
     1
  9
$DIMTOH
 70
     1
  9
$DIMSE1
 70
     0
  9
$DIMSE2
 70
     0
  9
$DIMTAD
 70
     0
  9
$DIMZIN
 70
     0
  9
$DIMBLK
  1

  9
$DIMASO
 70
     1
  9
$DIMSHO
 70
     1
  9
$DIMPOST
  1

  9
$DIMAPOST
  1

  9
$DIMALT
 70
     0
  9
$DIMALTD
 70
     2
  9
$DIMALTF
 40
25.4
  9
$DIMLFAC
 40
1.0
  9
$DIMTOFL
 70
     0
  9
$DIMTVP
 40
0.0
  9
$DIMTIX
 70
     0
  9
$DIMSOXD
 70
     0
  9
$DIMSAH
 70
     0
  9
$DIMBLK1
  1

  9
$DIMBLK2
  1

  9
$DIMSTYLE
  2
Standard
  9
$DIMCLRD
 70
     0
  9
$DIMCLRE
 70
     0
  9
$DIMCLRT
 70
     0
  9
$DIMTFAC
 40
1.0
  9
$DIMGAP
 40
0.09
  9
$DIMJUST
 70
     0
  9
$DIMSD1
 70
     0
  9
$DIMSD2
 70
     0
  9
$DIMTOLJ
 70
     1
  9
$DIMTZIN
 70
     0
  9
$DIMALTZ
 70
     0
  9
$DIMALTTZ
 70
     0
  9
$DIMUPT
 70
     0
  9
$DIMDEC
 70
     4
  9
$DIMTDEC
 70
     4
  9
$DIMALTU
 70
     2
  9
$DIMALTTD
 70
     2
  9
$DIMTXSTY
  7
Standard
  9
$DIMAUNIT
 70
     0
  9
$DIMADEC
 70
     0
  9
$DIMALTRND
 40
0.0
  9
$DIMAZIN
 70
     0
  9
$DIMDSEP
 70
    46
  9
$DIMATFIT
 70
     3
  9
$DIMFRAC
 70
     0
  9
$DIMLDRBLK
  1

  9
$DIMLUNIT
 70
     2
  9
$DIMLWD
 70
    -2
  9
$DIMLWE
 70
    -2
  9
$DIMTMOVE
 70
     0
  9
$DIMFXL
 40
1.0
  9
$DIMFXLON
 70
     0
  9
$DIMJOGANG
 40
0.7853981633974483
  9
$DIMTFILL
 70
     0
  9
$DIMTFILLCLR
 70
     0
  9
$DIMARCSYM
 70
     0
  9
$DIMLTYPE
  6

  9
$DIMLTEX1
  6

  9
$DIMLTEX2
  6

  9
$DIMTXTDIRECTION
 70
     0
  9
$LUNITS
 70
     2
  9
$LUPREC
 70
     4
  9
$SKETCHINC
 40
0.1
  9
$FILLETRAD
 40
0.0
  9
$AUNITS
 70
     0
  9
$AUPREC
 70
     0
  9
$MENU
  1
.
  9
$ELEVATION
 40
0.0
  9
$PELEVATION
 40
0.0
  9
$THICKNESS
 40
0.0
  9
$LIMCHECK
 70
     0
  9
$CHAMFERA
 40
0.0
  9
$CHAMFERB
 40
0.0
  9
$CHAMFERC
 40
0.0
  9
$CHAMFERD
 40
0.0
  9
$SKPOLY
 70
     0
  9
$TDCREATE
 40
2459569.503229167
  9
$TDUCREATE
 40
2459569.128229167
  9
$TDUPDATE
 40
2459569.503229167
  9
$TDUUPDATE
 40
2459569.128229167
  9
$TDINDWG
 40
0.0000000000
  9
$TDUSRTIMER
 40
0.0000000000
  9
$USRTIMER
 70
     1
  9
$ANGBASE
 50
0.0
  9
$ANGDIR
 70
     0
  9
$PDMODE
 70
     0
  9
$PDSIZE
 40
0.0
  9
$PLINEWID
 40
0.0
  9
$SPLFRAME
 70
     0
  9
$SPLINETYPE
 70
     6
  9
$SPLINESEGS
 70
     8
  9
$HANDSEED
  5
198
  9
$SURFTAB1
 70
     6
  9
$SURFTAB2
 70
     6
  9
$SURFTYPE
 70
     6
  9
$SURFU
 70
     6
  9
$SURFV
 70
     6
  9
$UCSBASE
  2

  9
$UCSNAME
  2

  9
$UCSORG
 10
0.0
 20
0.0
 30
0.0
  9
$UCSXDIR
 10
1.0
 20
0.0
 30
0.0
  9
$UCSYDIR
 10
0.0
 20
1.0
 30
0.0
  9
$UCSORTHOREF
  2

  9
$UCSORTHOVIEW
 70
     0
  9
$UCSORGTOP
 10
0.0
 20
0.0
 30
0.0
  9
$UCSORGBOTTOM
 10
0.0
 20
0.0
 30
0.0
  9
$UCSORGLEFT
 10
0.0
 20
0.0
 30
0.0
  9
$UCSORGRIGHT
 10
0.0
 20
0.0
 30
0.0
  9
$UCSORGFRONT
 10
0.0
 20
0.0
 30
0.0
  9
$UCSORGBACK
 10
0.0
 20
0.0
 30
0.0
  9
$PUCSBASE
  2

  9
$PUCSNAME
  2

  9
$PUCSORG
 10
0.0
 20
0.0
 30
0.0
  9
$PUCSXDIR
 10
1.0
 20
0.0
 30
0.0
  9
$PUCSYDIR
 10
0.0
 20
1.0
 30
0.0
  9
$PUCSORTHOREF
  2

  9
$PUCSORTHOVIEW
 70
     0
  9
$PUCSORGTOP
 10
0.0
 20
0.0
 30
0.0
  9
$PUCSORGBOTTOM
 10
0.0
 20
0.0
 30
0.0
  9
$PUCSORGLEFT
 10
0.0
 20
0.0
 30
0.0
  9
$PUCSORGRIGHT
 10
0.0
 20
0.0
 30
0.0
  9
$PUCSORGFRONT
 10
0.0
 20
0.0
 30
0.0
  9
$PUCSORGBACK
 10
0.0
 20
0.0
 30
0.0
  9
$USERI1
 70
     0
  9
$USERI2
 70
     0
  9
$USERI3
 70
     0
  9
$USERI4
 70
     0
  9
$USERI5
 70
     0
  9
$USERR1
 40
0.0
  9
$USERR2
 40
0.0
  9
$USERR3
 40
0.0
  9
$USERR4
 40
0.0
  9
$USERR5
 40
0.0
  9
$WORLDVIEW
 70
     1
  9
$SHADEDGE
 70
     3
  9
$SHADEDIF
 70
    70
  9
$TILEMODE
 70
     1
  9
$MAXACTVP
 70
    64
  9
$PINSBASE
 10
0.0
 20
0.0
 30
0.0
  9
$PLIMCHECK
 70
     0
  9
$PEXTMIN
 10
1.000000000000000E+20
 20
1.000000000000000E+20
 30
1.000000000000000E+20
  9
$PEXTMAX
 10
-1.000000000000000E+20
 20
-1.000000000000000E+20
 30
-1.000000000000000E+20
  9
$PLIMMIN
 10
0.0
 20
0.0
  9
$PLIMMAX
 10
12.0
 20
9.0
  9
$UNITMODE
 70
     0
  9
$VISRETAIN
 70
     1
  9
$PLINEGEN
 70
     0
  9
$PSLTSCALE
 70
     1
  9
$TREEDEPTH
 70
  3020
  9
$CMLSTYLE
  2
Standard
  9
$CMLJUST
 70
     0
  9
$CMLSCALE
 40
1.0
  9
$PROXYGRAPHICS
 70
     1
  9
$MEASUREMENT
 70
     0
  9
$CELWEIGHT
370
    -1
  9
$ENDCAPS
280
     0
  9
$JOINSTYLE
280
     0
  9
$LWDISPLAY
290
     1
  9
$INSUNITS
 70
     4
  9
$HYPERLINKBASE
  1

  9
$STYLESHEET
  1

  9
$XEDIT
290
     1
  9
$CEPSNTYPE
380
     0
  9
$PSTYLEMODE
290
     1
  9
$FINGERPRINTGUID
  2
{6A87F1A8-E9C3-F64E-A17C-68464B6F4C96}
  9
$VERSIONGUID
  2
{42ADF453-6463-6D4D-9F89-F523C82905C5}
  9
$EXTNAMES
290
     1
  9
$PSVPSCALE
 40
0.0
  9
$OLESTARTUP
290
     0
  9
$SORTENTS
280
   127
  9
$INDEXCTL
280
     0
  9
$HIDETEXT
280
     1
  9
$XCLIPFRAME
280
     2
  9
$HALOGAP
280
     0
  9
$OBSCOLOR
 70
   257
  9
$OBSLTYPE
280
     0
  9
$INTERSECTIONDISPLAY
280
     0
  9
$INTERSECTIONCOLOR
 70
   257
  9
$DIMASSOC
280
     2
  9
$PROJECTNAME
  1

  9
$CAMERADISPLAY
290
     0
  9
$LENSLENGTH
 40
50.0
  9
$CAMERAHEIGHT
 40
0.0
  9
$STEPSPERSEC
 40
2.0
  9
$STEPSIZE
 40
6.0
  9
$3DDWFPREC
 40
2.0
  9
$PSOLWIDTH
 40
0.25
  9
$PSOLHEIGHT
 40
4.0
  9
$LOFTANG1
 40
1.570796326794896
  9
$LOFTANG2
 40
1.570796326794896
  9
$LOFTMAG1
 40
0.0
  9
$LOFTMAG2
 40
0.0
  9
$LOFTPARAM
 70
     7
  9
$LOFTNORMALS
280
     1
  9
$LATITUDE
 40
37.795
  9
$LONGITUDE
 40
-122.394
  9
$NORTHDIRECTION
 40
0.0
  9
$TIMEZONE
 70
 -8000
  9
$LIGHTGLYPHDISPLAY
280
     1
  9
$TILEMODELIGHTSYNCH
280
     1
  9
$CMATERIAL
347
11
  9
$SOLIDHIST
280
     0
  9
$SHOWHIST
280
     1
  9
$DWFFRAME
280
     2
  9
$DGNFRAME
280
     0
  9
$REALWORLDSCALE
290
     1
  9
$INTERFERECOLOR
 62
     1
  9
$INTERFEREOBJVS
345
33
  9
$INTERFEREVPVS
346
30
  9
$CSHADOW
280
     0
  9
$SHADOWPLANELOCATION
 40
0.0
  0
ENDSEC
  0
SECTION
  2
CLASSES
  0
CLASS
  1
ACDBDICTIONARYWDFLT
  2
AcDbDictionaryWithDefault
  3
ObjectDBX Classes
 90
        0
 91
        1
280
     0
281
     0
  0
CLASS
  1
MATERIAL
  2
AcDbMaterial
  3
ObjectDBX Classes
 90
     1153
 91
        3
280
     0
281
     0
  0
CLASS
  1
VISUALSTYLE
  2
AcDbVisualStyle
  3
ObjectDBX Classes
 90
     4095
 91
       24
280
     0
281
     0
  0
CLASS
  1
SCALE
  2
AcDbScale
  3
ObjectDBX Classes
 90
     1153
 91
       17
280
     0
281
     0
  0
CLASS
  1
TABLESTYLE
  2
AcDbTableStyle
  3
ObjectDBX Classes
 90
     4095
 91
        1
280
     0
281
     0
  0
CLASS
  1
MLEADERSTYLE
  2
AcDbMLeaderStyle
  3
ACDB_MLEADERSTYLE_CLASS
 90
     4095
 91
        1
280
     0
281
     0
  0
CLASS
  1
ACDBSECTIONVIEWSTYLE
  2
AcDbSectionViewStyle
  3
ObjectDBX Classes
 90
     1025
 91
        1
280
     0
281
     0
  0
CLASS
  1
ACDBDETAILVIEWSTYLE
  2
AcDbDetailViewStyle
  3
ObjectDBX Classes
 90
     1025
 91
        1
280
     0
281
     0
  0
CLASS
  1
DICTIONARYVAR
  2
AcDbDictionaryVar
  3
ObjectDBX Classes
 90
        0
 91
        5
280
     0
281
     0
  0
CLASS
  1
CELLSTYLEMAP
  2
AcDbCellStyleMap
  3
ObjectDBX Classes
 90
     1152
 91
        1
280
     0
281
     0
  0
ENDSEC
  0
SECTION
  2
TABLES
  0
TABLE
  2
VPORT
  5
8
330
0
100
AcDbSymbolTable
 70
     1
  0
VPORT
  5
57
330
8
100
AcDbSymbolTableRecord
100
AcDbViewportTableRecord
  2
*Active
 70
     0
 10
0.0
 20
0.0
 11
1.0
 21
1.0
 12
0.0
 22
0.0
 13
0.0
 23
0.0
 14
1.0
 24
1.0
 15
0.0
 25
0.0
 16
0.0
 26
0.0
 36
1.0
 17
104.9999999737534
 27
-148.4999999628701
 37
0.0
 40
302.939999924255
 41
0.7070707070707534
 42
50.0
 43
0.0
 44
0.0
 50
0.0
 51
0.0
 71
     0
 72
   100
 73
     1
 74
     0
 75
     1
 76
     0
 77
     0
 78
     0
281
     0
 65
     1
110
0.0
120
0.0
130
0.0
111
1.0
121
0.0
131
0.0
112
0.0
122
1.0
132
0.0
 79
     0
146
0.0
 60
     3
 61
     5
292
     1
282
     1
141
0.0
142
0.0
 63
   250
421
  3355443
  0
ENDTAB
  0
TABLE
  2
LTYPE
  5
5
330
0
100
AcDbSymbolTable
 70
     2
  0
LTYPE
  5
5B
330
5
100
AcDbSymbolTableRecord
100
AcDbLinetypeTableRecord
  2
ByBlock
 70
     0
  3

 72
    65
 73
     0
 40
0.0
  0
LTYPE
  5
5C
330
5
100
AcDbSymbolTableRecord
100
AcDbLinetypeTableRecord
  2
ByLayer
 70
     0
  3

 72
    65
 73
     0
 40
0.0
  0
LTYPE
  5
5D
330
5
100
AcDbSymbolTableRecord
100
AcDbLinetypeTableRecord
  2
Continuous
 70
     0
  3
Solid line
 72
    65
 73
     0
 40
0.0
  0
LTYPE
  5
A1
330
5
100
AcDbSymbolTableRecord
100
AcDbLinetypeTableRecord
  2
AI-Linetype-0
 70
     0
  3
Adobe Illustrator Linetype No. 0
 72
    65
 73
     2
 40
1.411111110758333
 49
0.7055555553791667
 74
     0
 49
-0.7055555553791667
 74
     0
  0
ENDTAB
  0
TABLE
  2
LAYER
  5
2
330
0
100
AcDbSymbolTable
 70
     2
  0
LAYER
  5
54
330
2
100
AcDbSymbolTableRecord
100
AcDbLayerTableRecord
  2
0
 70
     0
 62
     7
  6
Continuous
370
    -3
390
F
347
21
  0
LAYER
  5
78
330
2
100
AcDbSymbolTableRecord
100
AcDbLayerTableRecord
  2
レイヤー 1
 70
     0
 62
     7
  6
Continuous
370
     0
390
F
347
21
  0
ENDTAB
  0
TABLE
  2
STYLE
  5
3
330
0
100
AcDbSymbolTable
 70
     2
  0
STYLE
  5
55
330
3
100
AcDbSymbolTableRecord
100
AcDbTextStyleTableRecord
  2
Standard
 70
     0
 40
0.0
 41
1.0
 50
0.0
 71
     0
 42
0.2
  3
txt
  4

  0
STYLE
  5
5A
330
3
100
AcDbSymbolTableRecord
100
AcDbTextStyleTableRecord
  2
Annotative
 70
     0
 40
0.0
 41
1.0
 50
0.0
 71
     0
 42
0.2
  3
txt
  4

1001
AcadAnnotative
1000
AnnotativeData
1002
{
1070
     1
1070
     1
1002
}
  0
ENDTAB
  0
TABLE
  2
VIEW
  5
6
330
0
100
AcDbSymbolTable
 70
     0
  0
ENDTAB
  0
TABLE
  2
UCS
  5
7
330
0
100
AcDbSymbolTable
 70
     0
  0
ENDTAB
  0
TABLE
  2
APPID
  5
9
330
0
100
AcDbSymbolTable
 70
     2
  0
APPID
  5
56
330
9
100
AcDbSymbolTableRecord
100
AcDbRegAppTableRecord
  2
ACAD
 70
     0
  0
APPID
  5
5E
330
9
100
AcDbSymbolTableRecord
100
AcDbRegAppTableRecord
  2
AcadAnnotative
 70
     0
  0
ENDTAB
  0
TABLE
  2
DIMSTYLE
  5
A
330
0
100
AcDbSymbolTable
 70
     2
100
AcDbDimStyleTable
 71
     0
  0
DIMSTYLE
105
58
330
A
100
AcDbSymbolTableRecord
100
AcDbDimStyleTableRecord
  2
Standard
 70
     0
340
55
  0
DIMSTYLE
105
59
330
A
100
AcDbSymbolTableRecord
100
AcDbDimStyleTableRecord
  2
Annotative
 70
     0
340
55
1001
AcadAnnotative
1000
AnnotativeData
1002
{
1070
     1
1070
     1
1002
}
  0
ENDTAB
  0
TABLE
  2
BLOCK_RECORD
  5
1
330
0
100
AcDbSymbolTable
 70
    13
  0
BLOCK_RECORD
  5
70
330
1
100
AcDbSymbolTableRecord
100
AcDbBlockTableRecord
  2
*Model_Space
340
73
 70
     0
280
     1
281
     0
  0
BLOCK_RECORD
  5
6C
330
1
100
AcDbSymbolTableRecord
100
AcDbBlockTableRecord
  2
*Paper_Space
340
6F
 70
     0
280
     1
281
     0
  0
BLOCK_RECORD
  5
74
330
1
100
AcDbSymbolTableRecord
100
AcDbBlockTableRecord
  2
*Paper_Space0
340
77
 70
     0
280
     1
281
     0
  0
BLOCK_RECORD
  5
79
330
1
100
AcDbSymbolTableRecord
100
AcDbBlockTableRecord
  2
Block_0
340
0
102
{BLKREFS
331
7A
102
}
 70
     0
280
     1
281
     0
  0
BLOCK_RECORD
  5
7D
330
1
100
AcDbSymbolTableRecord
100
AcDbBlockTableRecord
  2
Block_1
340
0
102
{BLKREFS
331
7E
102
}
 70
     0
280
     1
281
     0
  0
BLOCK_RECORD
  5
109
330
1
100
AcDbSymbolTableRecord
100
AcDbBlockTableRecord
  2
Block_2
340
0
102
{BLKREFS
331
10A
102
}
 70
     0
280
     1
281
     0
  0
BLOCK_RECORD
  5
10D
330
1
100
AcDbSymbolTableRecord
100
AcDbBlockTableRecord
  2
Block_3
340
0
102
{BLKREFS
331
10E
102
}
 70
     0
280
     1
281
     0
  0
BLOCK_RECORD
  5
11A
330
1
100
AcDbSymbolTableRecord
100
AcDbBlockTableRecord
  2
Block_4
340
0
102
{BLKREFS
331
11B
102
}
 70
     0
280
     1
281
     0
  0
BLOCK_RECORD
  5
11E
330
1
100
AcDbSymbolTableRecord
100
AcDbBlockTableRecord
  2
Block_5
340
0
102
{BLKREFS
331
11F
102
}
 70
     0
280
     1
281
     0
  0
BLOCK_RECORD
  5
128
330
1
100
AcDbSymbolTableRecord
100
AcDbBlockTableRecord
  2
Block_6
340
0
102
{BLKREFS
331
129
102
}
 70
     0
280
     1
281
     0
  0
BLOCK_RECORD
  5
132
330
1
100
AcDbSymbolTableRecord
100
AcDbBlockTableRecord
  2
Block_7
340
0
102
{BLKREFS
331
133
102
}
 70
     0
280
     1
281
     0
  0
BLOCK_RECORD
  5
136
330
1
100
AcDbSymbolTableRecord
100
AcDbBlockTableRecord
  2
Block_8
340
0
102
{BLKREFS
331
137
102
}
 70
     0
280
     1
281
     0
  0
BLOCK_RECORD
  5
141
330
1
100
AcDbSymbolTableRecord
100
AcDbBlockTableRecord
  2
Block_9
340
0
102
{BLKREFS
331
142
102
}
 70
     0
280
     1
281
     0
  0
BLOCK_RECORD
  5
14C
330
1
100
AcDbSymbolTableRecord
100
AcDbBlockTableRecord
  2
Block_10
340
0
102
{BLKREFS
331
14D
102
}
 70
     0
280
     1
281
     0
  0
BLOCK_RECORD
  5
153
330
1
100
AcDbSymbolTableRecord
100
AcDbBlockTableRecord
  2
Block_11
340
0
102
{BLKREFS
331
154
102
}
 70
     0
280
     1
281
     0
  0
ENDTAB
  0
ENDSEC
  0
SECTION
  2
BLOCKS
  0
BLOCK
  5
71
330
70
100
AcDbEntity
  8
0
100
AcDbBlockBegin
  2
*Model_Space
 70
     0
 10
0.0
 20
0.0
 30
0.0
  3
*Model_Space
  1

  0
ENDBLK
  5
72
330
70
100
AcDbEntity
  8
0
100
AcDbBlockEnd
  0
BLOCK
  5
6D
330
6C
100
AcDbEntity
 67
     1
  8
0
100
AcDbBlockBegin
  2
*Paper_Space
 70
     0
 10
0.0
 20
0.0
 30
0.0
  3
*Paper_Space
  1

  0
ENDBLK
  5
6E
330
6C
100
AcDbEntity
 67
     1
  8
0
100
AcDbBlockEnd
  0
BLOCK
  5
75
330
74
100
AcDbEntity
 67
     1
  8
0
100
AcDbBlockBegin
  2
*Paper_Space0
 70
     0
 10
0.0
 20
0.0
 30
0.0
  3
*Paper_Space0
  1

  0
ENDBLK
  5
76
330
74
100
AcDbEntity
 67
     1
  8
0
100
AcDbBlockEnd
  0
BLOCK
  5
7B
330
79
100
AcDbEntity
  8
0
100
AcDbBlockBegin
  2
Block_0
 70
     0
 10
0.0
 20
0.0
 30
0.0
  3
Block_0
  1

  0
INSERT
  5
7E
330
79
100
AcDbEntity
  8
レイヤー 1
100
AcDbBlockReference
  2
Block_1
 10
0.0
 20
0.0
 30
0.0
  0
ENDBLK
  5
7C
330
79
100
AcDbEntity
  8
0
100
AcDbBlockEnd
  0
BLOCK
  5
7F
330
7D
100
AcDbEntity
  8
0
100
AcDbBlockBegin
  2
Block_1
 70
     0
 10
0.0
 20
0.0
 30
0.0
  3
Block_1
  1

  0
SPLINE
  5
81
330
7D
100
AcDbEntity
  8
レイヤー 1
100
AcDbSpline
210
0.0
220
0.0
230
1.0
 70
     9
 71
     3
 72
    59
 73
    55
 74
     0
 42
0.0000000001
 43
0.0000000001
 40
0.0
 40
0.0
 40
0.0
 40
0.0
 40
1.0
 40
1.0
 40
1.0
 40
2.0
 40
2.0
 40
2.0
 40
3.0
 40
3.0
 40
3.0
 40
4.0
 40
4.0
 40
4.0
 40
5.0
 40
5.0
 40
5.0
 40
6.0
 40
6.0
 40
6.0
 40
7.0
 40
7.0
 40
7.0
 40
8.0
 40
8.0
 40
8.0
 40
9.0
 40
9.0
 40
9.0
 40
10.0
 40
10.0
 40
10.0
 40
11.0
 40
11.0
 40
11.0
 40
12.0
 40
12.0
 40
12.0
 40
13.0
 40
13.0
 40
13.0
 40
14.0
 40
14.0
 40
14.0
 40
15.0
 40
15.0
 40
15.0
 40
16.0
 40
16.0
 40
16.0
 40
17.0
 40
17.0
 40
17.0
 40
18.0
 40
18.0
 40
18.0
 40
18.0
 10
126.6265516176489
 20
-148.7445813972757
 30
0.0
 10
126.4804795690743
 20
-149.2312011345672
 30
0.0
 10
126.2620605153095
 20
-149.7538221196796
 30
0.0
 10
125.7377169824545
 20
-150.0711154138711
 30
0.0
 10
125.7377169824545
 20
-150.0711154138711
 30
0.0
 10
125.5730414182595
 20
-149.9188421934231
 30
0.0
 10
125.5730414182595
 20
-149.9188421934231
 30
0.0
 10
125.7139458236062
 20
-149.8489067550725
 30
0.0
 10
125.9285752723373
 20
-149.739008209093
 30
0.0
 10
126.1490613833933
 20
-149.4089680616061
 30
0.0
 10
126.3564561316053
 20
-149.0958088819969
 30
0.0
 10
126.4064100161414
 20
-148.8398382874428
 30
0.0
 10
126.4305256845382
 20
-148.7128865188113
 30
0.0
 10
126.4305256845382
 20
-148.7128865188113
 30
0.0
 10
125.8638074772146
 20
-148.7128865188113
 30
0.0
 10
125.8638074772146
 20
-148.7128865188113
 30
0.0
 10
125.7732014659525
 20
-148.8736002231983
 30
0.0
 10
125.6674370345553
 20
-149.0406873542329
 30
0.0
 10
125.4989718653266
 20
-149.2122531093983
 30
0.0
 10
125.4989718653266
 20
-149.2122531093983
 30
0.0
 10
125.3470431544271
 20
-149.0896077101234
 30
0.0
 10
125.3470431544271
 20
-149.0896077101234
 30
0.0
 10
125.3990640962544
 20
-149.0430989210725
 30
0.0
 10
125.5285996864998
 20
-148.9307888082534
 30
0.0
 10
125.6729491873317
 20
-148.681191640347
 30
0.0
 10
125.7397840397456
 20
-148.5626803556544
 30
0.0
 10
125.8303900510077
 20
-148.3933539125544
 30
0.0
 10
125.8527831716618
 20
-148.2707085132795
 30
0.0
 10
125.8527831716618
 20
-148.2707085132795
 30
0.0
 10
126.0546657670974
 20
-148.3721665753201
 30
0.0
 10
126.0546657670974
 20
-148.3721665753201
 30
0.0
 10
126.0674126203928
 20
-148.3785400019679
 30
0.0
 10
126.0805039832368
 20
-148.3869804859067
 30
0.0
 10
126.0805039832368
 20
-148.4017943964933
 30
0.0
 10
126.0805039832368
 20
-148.4229817337276
 30
0.0
 10
126.0581108625827
 20
-148.435728587023
 30
0.0
 10
126.0508761620636
 20
-148.4377956443142
 30
0.0
 10
126.0267604936669
 20
-148.446236128253
 30
0.0
 10
126.0195257931479
 20
-148.4441690709619
 30
0.0
 10
125.9971326724937
 20
-148.4694905227784
 30
0.0
 10
125.9747395518396
 20
-148.4949842293693
 30
0.0
 10
125.9768066091308
 20
-148.5034247133082
 30
0.0
 10
125.9489013357003
 20
-148.5563069290067
 30
0.0
 10
125.9489013357003
 20
-148.5563069290067
 30
0.0
 10
126.241389942398
 20
-148.5563069290067
 30
0.0
 10
126.241389942398
 20
-148.5563069290067
 30
0.0
 10
126.4656656584877
 20
-148.5563069290067
 30
0.0
 10
126.4935709319183
 20
-148.5435600757113
 30
0.0
 10
126.5435248164544
 20
-148.5139322545382
 30
0.0
 10
126.5435248164544
 20
-148.5139322545382
 30
0.0
 10
126.6802951072188
 20
-148.6789523282816
 30
0.0
 10
126.6802951072188
 20
-148.6789523282816
 30
0.0
 10
126.6506672860457
 20
-148.7149535761025
 30
0.0
 10
126.648944738303
 20
-148.7170206333936
 30
0.0
 10
126.6265516176489
 20
-148.7445813972757
 30
0.0
  0
HATCH
  5
82
330
7D
100
AcDbEntity
  8
レイヤー 1
 62
   250
420
  2299925
440
 33554687
100
AcDbHatch
 10
0.0
 20
0.0
 30
0.0
210
0.0
220
0.0
230
1.0
  2
SOLID
 70
     1
 71
     1
 91
        1
 92
        1
 93
        1
 72
     4
 94
        3
 73
     0
 74
     0
 95
       59
 96
       55
 40
0.0
 40
0.0
 40
0.0
 40
0.0
 40
1.0
 40
1.0
 40
1.0
 40
2.0
 40
2.0
 40
2.0
 40
3.0
 40
3.0
 40
3.0
 40
4.0
 40
4.0
 40
4.0
 40
5.0
 40
5.0
 40
5.0
 40
6.0
 40
6.0
 40
6.0
 40
7.0
 40
7.0
 40
7.0
 40
8.0
 40
8.0
 40
8.0
 40
9.0
 40
9.0
 40
9.0
 40
10.0
 40
10.0
 40
10.0
 40
11.0
 40
11.0
 40
11.0
 40
12.0
 40
12.0
 40
12.0
 40
13.0
 40
13.0
 40
13.0
 40
14.0
 40
14.0
 40
14.0
 40
15.0
 40
15.0
 40
15.0
 40
16.0
 40
16.0
 40
16.0
 40
17.0
 40
17.0
 40
17.0
 40
18.0
 40
18.0
 40
18.0
 40
18.0
 10
126.6265516176489
 20
-148.7445813972757
 10
126.4804795690743
 20
-149.2312011345672
 10
126.2620605153095
 20
-149.7538221196796
 10
125.7377169824545
 20
-150.0711154138711
 10
125.7377169824545
 20
-150.0711154138711
 10
125.5730414182595
 20
-149.9188421934231
 10
125.5730414182595
 20
-149.9188421934231
 10
125.7139458236062
 20
-149.8489067550725
 10
125.9285752723373
 20
-149.739008209093
 10
126.1490613833933
 20
-149.4089680616061
 10
126.3564561316053
 20
-149.0958088819969
 10
126.4064100161414
 20
-148.8398382874428
 10
126.4305256845382
 20
-148.7128865188113
 10
126.4305256845382
 20
-148.7128865188113
 10
125.8638074772146
 20
-148.7128865188113
 10
125.8638074772146
 20
-148.7128865188113
 10
125.7732014659525
 20
-148.8736002231983
 10
125.6674370345553
 20
-149.0406873542329
 10
125.4989718653266
 20
-149.2122531093983
 10
125.4989718653266
 20
-149.2122531093983
 10
125.3470431544271
 20
-149.0896077101234
 10
125.3470431544271
 20
-149.0896077101234
 10
125.3990640962544
 20
-149.0430989210725
 10
125.5285996864998
 20
-148.9307888082534
 10
125.6729491873317
 20
-148.681191640347
 10
125.7397840397456
 20
-148.5626803556544
 10
125.8303900510077
 20
-148.3933539125544
 10
125.8527831716618
 20
-148.2707085132795
 10
125.8527831716618
 20
-148.2707085132795
 10
126.0546657670974
 20
-148.3721665753201
 10
126.0546657670974
 20
-148.3721665753201
 10
126.0674126203928
 20
-148.3785400019679
 10
126.0805039832368
 20
-148.3869804859067
 10
126.0805039832368
 20
-148.4017943964933
 10
126.0805039832368
 20
-148.4229817337276
 10
126.0581108625827
 20
-148.435728587023
 10
126.0508761620636
 20
-148.4377956443142
 10
126.0267604936669
 20
-148.446236128253
 10
126.0195257931479
 20
-148.4441690709619
 10
125.9971326724937
 20
-148.4694905227784
 10
125.9747395518396
 20
-148.4949842293693
 10
125.9768066091308
 20
-148.5034247133082
 10
125.9489013357003
 20
-148.5563069290067
 10
125.9489013357003
 20
-148.5563069290067
 10
126.241389942398
 20
-148.5563069290067
 10
126.241389942398
 20
-148.5563069290067
 10
126.4656656584877
 20
-148.5563069290067
 10
126.4935709319183
 20
-148.5435600757113
 10
126.5435248164544
 20
-148.5139322545382
 10
126.5435248164544
 20
-148.5139322545382
 10
126.6802951072188
 20
-148.6789523282816
 10
126.6802951072188
 20
-148.6789523282816
 10
126.6506672860457
 20
-148.7149535761025
 10
126.648944738303
 20
-148.7170206333936
 10
126.6265516176489
 20
-148.7445813972757
 97
        0
 97
        1
330
81
 75
     2
 76
     1
 98
        1
 10
0.0
 20
0.0
450
        0
451
        0
460
0.0
461
0.0
452
        0
462
0.0
453
        0
470

  0
SPLINE
  5
83
330
7D
100
AcDbEntity
  8
レイヤー 1
100
AcDbSpline
210
0.0
220
0.0
230
1.0
 70
    11
 71
     3
 72
    17
 73
    13
 74
     0
 42
0.0000000001
 43
0.0000000001
 40
0.0
 40
0.0
 40
0.0
 40
0.0
 40
1.0
 40
1.0
 40
1.0
 40
2.0
 40
2.0
 40
2.0
 40
3.0
 40
3.0
 40
3.0
 40
4.0
 40
4.0
 40
4.0
 40
4.0
 10
128.0655680018378
 20
-148.653630876465
 30
0.0
 10
128.0655680018378
 20
-148.653630876465
 30
0.0
 10
127.1543402459892
 20
-148.653630876465
 30
0.0
 10
127.1543402459892
 20
-148.653630876465
 30
0.0
 10
127.1543402459892
 20
-148.653630876465
 30
0.0
 10
127.1543402459892
 20
-149.5422932568853
 30
0.0
 10
127.1543402459892
 20
-149.5422932568853
 30
0.0
 10
127.1543402459892
 20
-149.5422932568853
 30
0.0
 10
128.0655680018378
 20
-149.5422932568853
 30
0.0
 10
128.0655680018378
 20
-149.5422932568853
 30
0.0
 10
128.0655680018378
 20
-149.5422932568853
 30
0.0
 10
128.0655680018378
 20
-148.653630876465
 30
0.0
 10
128.0655680018378
 20
-148.653630876465
 30
0.0
  0
SPLINE
  5
84
330
7D
100
AcDbEntity
  8
レイヤー 1
100
AcDbSpline
210
0.0
220
0.0
230
1.0
 70
     9
 71
     3
 72
    53
 73
    49
 74
     0
 42
0.0000000001
 43
0.0000000001
 40
0.0
 40
0.0
 40
0.0
 40
0.0
 40
1.0
 40
1.0
 40
1.0
 40
2.0
 40
2.0
 40
2.0
 40
3.0
 40
3.0
 40
3.0
 40
4.0
 40
4.0
 40
4.0
 40
5.0
 40
5.0
 40
5.0
 40
6.0
 40
6.0
 40
6.0
 40
7.0
 40
7.0
 40
7.0
 40
8.0
 40
8.0
 40
8.0
 40
9.0
 40
9.0
 40
9.0
 40
10.0
 40
10.0
 40
10.0
 40
11.0
 40
11.0
 40
11.0
 40
12.0
 40
12.0
 40
12.0
 40
13.0
 40
13.0
 40
13.0
 40
14.0
 40
14.0
 40
14.0
 40
15.0
 40
15.0
 40
15.0
 40
16.0
 40
16.0
 40
16.0
 40
16.0
 10
128.0452419384748
 20
-149.8575194937856
 30
0.0
 10
128.0524766389938
 20
-149.8130777620259
 30
0.0
 10
128.0524766389938
 20
-149.8044650233128
 30
0.0
 10
128.0579887917702
 20
-149.7303954703799
 30
0.0
 10
128.0579887917702
 20
-149.7303954703799
 30
0.0
 10
127.1564073032803
 20
-149.7303954703799
 30
0.0
 10
127.1564073032803
 20
-149.7303954703799
 30
0.0
 10
127.1564073032803
 20
-149.7620903488442
 30
0.0
 10
127.1564073032803
 20
-149.8172118766082
 30
0.0
 10
127.1598523987656
 20
-149.8530408696548
 30
0.0
 10
127.1598523987656
 20
-149.8530408696548
 30
0.0
 10
126.9490125550683
 20
-149.8530408696548
 30
0.0
 10
126.9490125550683
 20
-149.8530408696548
 30
0.0
 10
126.9545247078447
 20
-149.7982638514393
 30
0.0
 10
126.9638264656548
 20
-149.7073133306287
 30
0.0
 10
126.9638264656548
 20
-149.5781222499318
 30
0.0
 10
126.9655490133975
 20
-149.3731390685595
 30
0.0
 10
126.9655490133975
 20
-149.3497124192598
 30
0.0
 10
126.9655490133975
 20
-149.3262857699601
 30
0.0
 10
126.9655490133975
 20
-149.3262857699601
 30
0.0
 10
126.9655490133975
 20
-148.8863470764937
 30
0.0
 10
126.9655490133975
 20
-148.8863470764937
 30
0.0
 10
126.9655490133975
 20
-148.8207180074997
 30
0.0
 10
126.9600368606211
 20
-148.4970512866605
 30
0.0
 10
126.9562472555873
 20
-148.4421020136707
 30
0.0
 10
127.0654567824697
 20
-148.4546766121919
 30
0.0
 10
127.2969671990785
 20
-148.4589829815484
 30
0.0
 10
127.4120333882859
 20
-148.4589829815484
 30
0.0
 10
127.4120333882859
 20
-148.4589829815484
 30
0.0
 10
127.8099419168322
 20
-148.4589829815484
 30
0.0
 10
127.8099419168322
 20
-148.4589829815484
 30
0.0
 10
127.9415445643688
 20
-148.4589829815484
 30
0.0
 10
128.1375704974795
 20
-148.4569159242573
 30
0.0
 10
128.2653835399823
 20
-148.4484754403184
 30
0.0
 10
128.2581488394632
 20
-148.5583739862979
 30
0.0
 10
128.2543592344294
 20
-148.8079711542042
 30
0.0
 10
128.2543592344294
 20
-148.9266546936711
 30
0.0
 10
128.2543592344294
 20
-148.9266546936711
 30
0.0
 10
128.2543592344294
 20
-149.3455783046775
 30
0.0
 10
128.2543592344294
 20
-149.3455783046775
 30
0.0
 10
128.2543592344294
 20
-149.387952979146
 30
0.0
 10
128.2598713872058
 20
-149.5698540207672
 30
0.0
 10
128.2598713872058
 20
-149.607750071105
 30
0.0
 10
128.261938444497
 20
-149.7579562342619
 30
0.0
 10
128.269173145016
 20
-149.8085991378951
 30
0.0
 10
128.2767523550836
 20
-149.8575194937856
 30
0.0
 10
128.2767523550836
 20
-149.8575194937856
 30
0.0
 10
128.0452419384748
 20
-149.8575194937856
 30
0.0
 10
128.0452419384748
 20
-149.8575194937856
 30
0.0
  0
HATCH
  5
85
330
7D
100
AcDbEntity
  8
レイヤー 1
 62
   250
420
  2299925
440
 33554687
100
AcDbHatch
 10
0.0
 20
0.0
 30
0.0
210
0.0
220
0.0
230
1.0
  2
SOLID
 70
     1
 71
     1
 91
        2
 92
        1
 93
        1
 72
     4
 94
        3
 73
     0
 74
     0
 95
       17
 96
       13
 40
0.0
 40
0.0
 40
0.0
 40
0.0
 40
1.0
 40
1.0
 40
1.0
 40
2.0
 40
2.0
 40
2.0
 40
3.0
 40
3.0
 40
3.0
 40
4.0
 40
4.0
 40
4.0
 40
4.0
 10
128.0655680018378
 20
-148.653630876465
 10
128.0655680018378
 20
-148.653630876465
 10
127.1543402459892
 20
-148.653630876465
 10
127.1543402459892
 20
-148.653630876465
 10
127.1543402459892
 20
-148.653630876465
 10
127.1543402459892
 20
-149.5422932568853
 10
127.1543402459892
 20
-149.5422932568853
 10
127.1543402459892
 20
-149.5422932568853
 10
128.0655680018378
 20
-149.5422932568853
 10
128.0655680018378
 20
-149.5422932568853
 10
128.0655680018378
 20
-149.5422932568853
 10
128.0655680018378
 20
-148.653630876465
 10
128.0655680018378
 20
-148.653630876465
 97
        0
 97
        1
330
83
 92
        1
 93
        1
 72
     4
 94
        3
 73
     0
 74
     0
 95
       53
 96
       49
 40
0.0
 40
0.0
 40
0.0
 40
0.0
 40
1.0
 40
1.0
 40
1.0
 40
2.0
 40
2.0
 40
2.0
 40
3.0
 40
3.0
 40
3.0
 40
4.0
 40
4.0
 40
4.0
 40
5.0
 40
5.0
 40
5.0
 40
6.0
 40
6.0
 40
6.0
 40
7.0
 40
7.0
 40
7.0
 40
8.0
 40
8.0
 40
8.0
 40
9.0
 40
9.0
 40
9.0
 40
10.0
 40
10.0
 40
10.0
 40
11.0
 40
11.0
 40
11.0
 40
12.0
 40
12.0
 40
12.0
 40
13.0
 40
13.0
 40
13.0
 40
14.0
 40
14.0
 40
14.0
 40
15.0
 40
15.0
 40
15.0
 40
16.0
 40
16.0
 40
16.0
 40
16.0
 10
128.0452419384748
 20
-149.8575194937856
 10
128.0524766389938
 20
-149.8130777620259
 10
128.0524766389938
 20
-149.8044650233128
 10
128.0579887917702
 20
-149.7303954703799
 10
128.0579887917702
 20
-149.7303954703799
 10
127.1564073032803
 20
-149.7303954703799
 10
127.1564073032803
 20
-149.7303954703799
 10
127.1564073032803
 20
-149.7620903488442
 10
127.1564073032803
 20
-149.8172118766082
 10
127.1598523987656
 20
-149.8530408696548
 10
127.1598523987656
 20
-149.8530408696548
 10
126.9490125550683
 20
-149.8530408696548
 10
126.9490125550683
 20
-149.8530408696548
 10
126.9545247078447
 20
-149.7982638514393
 10
126.9638264656548
 20
-149.7073133306287
 10
126.9638264656548
 20
-149.5781222499318
 10
126.9655490133975
 20
-149.3731390685595
 10
126.9655490133975
 20
-149.3497124192598
 10
126.9655490133975
 20
-149.3262857699601
 10
126.9655490133975
 20
-149.3262857699601
 10
126.9655490133975
 20
-148.8863470764937
 10
126.9655490133975
 20
-148.8863470764937
 10
126.9655490133975
 20
-148.8207180074997
 10
126.9600368606211
 20
-148.4970512866605
 10
126.9562472555873
 20
-148.4421020136707
 10
127.0654567824697
 20
-148.4546766121919
 10
127.2969671990785
 20
-148.4589829815484
 10
127.4120333882859
 20
-148.4589829815484
 10
127.4120333882859
 20
-148.4589829815484
 10
127.8099419168322
 20
-148.4589829815484
 10
127.8099419168322
 20
-148.4589829815484
 10
127.9415445643688
 20
-148.4589829815484
 10
128.1375704974795
 20
-148.4569159242573
 10
128.2653835399823
 20
-148.4484754403184
 10
128.2581488394632
 20
-148.5583739862979
 10
128.2543592344294
 20
-148.8079711542042
 10
128.2543592344294
 20
-148.9266546936711
 10
128.2543592344294
 20
-148.9266546936711
 10
128.2543592344294
 20
-149.3455783046775
 10
128.2543592344294
 20
-149.3455783046775
 10
128.2543592344294
 20
-149.387952979146
 10
128.2598713872058
 20
-149.5698540207672
 10
128.2598713872058
 20
-149.607750071105
 10
128.261938444497
 20
-149.7579562342619
 10
128.269173145016
 20
-149.8085991378951
 10
128.2767523550836
 20
-149.8575194937856
 10
128.2767523550836
 20
-149.8575194937856
 10
128.0452419384748
 20
-149.8575194937856
 10
128.0452419384748
 20
-149.8575194937856
 97
        0
 97
        1
330
84
 75
     2
 76
     1
 98
        1
 10
0.0
 20
0.0
450
        0
451
        0
460
0.0
461
0.0
452
        0
462
0.0
453
        0
470

  0
SPLINE
  5
86
330
7D
100
AcDbEntity
  8
レイヤー 1
100
AcDbSpline
210
0.0
220
0.0
230
1.0
 70
     9
 71
     3
 72
    56
 73
    52
 74
     0
 42
0.0000000001
 43
0.0000000001
 40
0.0
 40
0.0
 40
0.0
 40
0.0
 40
1.0
 40
1.0
 40
1.0
 40
2.0
 40
2.0
 40
2.0
 40
3.0
 40
3.0
 40
3.0
 40
4.0
 40
4.0
 40
4.0
 40
5.0
 40
5.0
 40
5.0
 40
6.0
 40
6.0
 40
6.0
 40
7.0
 40
7.0
 40
7.0
 40
8.0
 40
8.0
 40
8.0
 40
9.0
 40
9.0
 40
9.0
 40
10.0
 40
10.0
 40
10.0
 40
11.0
 40
11.0
 40
11.0
 40
12.0
 40
12.0
 40
12.0
 40
13.0
 40
13.0
 40
13.0
 40
14.0
 40
14.0
 40
14.0
 40
15.0
 40
15.0
 40
15.0
 40
16.0
 40
16.0
 40
16.0
 40
17.0
 40
17.0
 40
17.0
 40
17.0
 10
129.8063747505345
 20
-149.9229763080053
 30
0.0
 10
129.6379095813058
 20
-149.614295752527
 30
0.0
 10
129.4122558270219
 20
-149.4089680616061
 30
0.0
 10
129.3323296117641
 20
-149.3435112473863
 30
0.0
 10
129.0749809790159
 20
-149.6818196240378
 30
0.0
 10
128.8214219513016
 20
-149.8340928444859
 30
0.0
 10
128.6474446292964
 20
-149.9271104225877
 30
0.0
 10
128.6474446292964
 20
-149.9271104225877
 30
0.0
 10
128.5082627716924
 20
-149.739008209093
 30
0.0
 10
128.5082627716924
 20
-149.739008209093
 30
0.0
 10
128.599213292503
 20
-149.7028347064979
 30
0.0
 10
128.786281977352
 20
-149.6266980962739
 30
0.0
 10
128.9898871205303
 20
-149.4406629400704
 30
0.0
 10
129.2213975371391
 20
-149.229134077276
 30
0.0
 10
129.3843505535914
 20
-148.9414686042577
 30
0.0
 10
129.4918375327312
 20
-148.6283094246485
 30
0.0
 10
129.4918375327312
 20
-148.6283094246485
 30
0.0
 10
129.1621418947928
 20
-148.6283094246485
 30
0.0
 10
129.1621418947928
 20
-148.6283094246485
 30
0.0
 10
129.0288166995136
 20
-148.6283094246485
 30
0.0
 10
128.8455376196983
 20
-148.6324435392308
 30
0.0
 10
128.7139349721618
 20
-148.6515638191739
 30
0.0
 10
128.7139349721618
 20
-148.6515638191739
 30
0.0
 10
128.7139349721618
 20
-148.4400349563796
 30
0.0
 10
128.7139349721618
 20
-148.4400349563796
 30
0.0
 10
128.7731906145081
 20
-148.446236128253
 30
0.0
 10
129.0009114260831
 20
-148.4569159242573
 30
0.0
 10
129.0770480363071
 20
-148.4569159242573
 30
0.0
 10
129.0770480363071
 20
-148.4569159242573
 30
0.0
 10
129.3492105796418
 20
-148.4569159242573
 30
0.0
 10
129.3492105796418
 20
-148.4569159242573
 30
0.0
 10
129.5307671117145
 20
-148.4569159242573
 30
0.0
 10
129.5510931750775
 20
-148.4505424976096
 30
0.0
 10
129.5714192384405
 20
-148.446236128253
 30
0.0
 10
129.6103488174238
 20
-148.4400349563796
 30
0.0
 10
129.6434217340822
 20
-148.4145412497887
 30
0.0
 10
129.6620252497025
 20
-148.397660281911
 30
0.0
 10
129.6620252497025
 20
-148.397660281911
 30
0.0
 10
129.7991400500155
 20
-148.5711208395933
 30
0.0
 10
129.7991400500155
 20
-148.5711208395933
 30
0.0
 10
129.7640000760659
 20
-148.5986816034753
 30
0.0
 10
129.7526312609646
 20
-148.6091891447053
 30
0.0
 10
129.710256586496
 20
-148.6451903925262
 30
0.0
 10
129.5972574545798
 20
-148.8928927579156
 30
0.0
 10
129.5269775066807
 20
-149.0430989210725
 30
0.0
 10
129.4360269858701
 20
-149.1888264600986
 30
0.0
 10
129.710256586496
 20
-149.4069010043149
 30
0.0
 10
129.9100721246405
 20
-149.6924994200421
 30
0.0
 10
129.9565809136914
 20
-149.7707030875573
 30
0.0
 10
129.9565809136914
 20
-149.7707030875573
 30
0.0
 10
129.8063747505345
 20
-149.9229763080053
 30
0.0
 10
129.8063747505345
 20
-149.9229763080053
 30
0.0
  0
HATCH
  5
87
330
7D
100
AcDbEntity
  8
レイヤー 1
 62
   250
420
  2299925
440
 33554687
100
AcDbHatch
 10
0.0
 20
0.0
 30
0.0
210
0.0
220
0.0
230
1.0
  2
SOLID
 70
     1
 71
     1
 91
        1
 92
        1
 93
        1
 72
     4
 94
        3
 73
     0
 74
     0
 95
       56
 96
       52
 40
0.0
 40
0.0
 40
0.0
 40
0.0
 40
1.0
 40
1.0
 40
1.0
 40
2.0
 40
2.0
 40
2.0
 40
3.0
 40
3.0
 40
3.0
 40
4.0
 40
4.0
 40
4.0
 40
5.0
 40
5.0
 40
5.0
 40
6.0
 40
6.0
 40
6.0
 40
7.0
 40
7.0
 40
7.0
 40
8.0
 40
8.0
 40
8.0
 40
9.0
 40
9.0
 40
9.0
 40
10.0
 40
10.0
 40
10.0
 40
11.0
 40
11.0
 40
11.0
 40
12.0
 40
12.0
 40
12.0
 40
13.0
 40
13.0
 40
13.0
 40
14.0
 40
14.0
 40
14.0
 40
15.0
 40
15.0
 40
15.0
 40
16.0
 40
16.0
 40
16.0
 40
17.0
 40
17.0
 40
17.0
 40
17.0
 10
129.8063747505345
 20
-149.9229763080053
 10
129.6379095813058
 20
-149.614295752527
 10
129.4122558270219
 20
-149.4089680616061
 10
129.3323296117641
 20
-149.3435112473863
 10
129.0749809790159
 20
-149.6818196240378
 10
128.8214219513016
 20
-149.8340928444859
 10
128.6474446292964
 20
-149.9271104225877
 10
128.6474446292964
 20
-149.9271104225877
 10
128.5082627716924
 20
-149.739008209093
 10
128.5082627716924
 20
-149.739008209093
 10
128.599213292503
 20
-149.7028347064979
 10
128.786281977352
 20
-149.6266980962739
 10
128.9898871205303
 20
-149.4406629400704
 10
129.2213975371391
 20
-149.229134077276
 10
129.3843505535914
 20
-148.9414686042577
 10
129.4918375327312
 20
-148.6283094246485
 10
129.4918375327312
 20
-148.6283094246485
 10
129.1621418947928
 20
-148.6283094246485
 10
129.1621418947928
 20
-148.6283094246485
 10
129.0288166995136
 20
-148.6283094246485
 10
128.8455376196983
 20
-148.6324435392308
 10
128.7139349721618
 20
-148.6515638191739
 10
128.7139349721618
 20
-148.6515638191739
 10
128.7139349721618
 20
-148.4400349563796
 10
128.7139349721618
 20
-148.4400349563796
 10
128.7731906145081
 20
-148.446236128253
 10
129.0009114260831
 20
-148.4569159242573
 10
129.0770480363071
 20
-148.4569159242573
 10
129.0770480363071
 20
-148.4569159242573
 10
129.3492105796418
 20
-148.4569159242573
 10
129.3492105796418
 20
-148.4569159242573
 10
129.5307671117145
 20
-148.4569159242573
 10
129.5510931750775
 20
-148.4505424976096
 10
129.5714192384405
 20
-148.446236128253
 10
129.6103488174238
 20
-148.4400349563796
 10
129.6434217340822
 20
-148.4145412497887
 10
129.6620252497025
 20
-148.397660281911
 10
129.6620252497025
 20
-148.397660281911
 10
129.7991400500155
 20
-148.5711208395933
 10
129.7991400500155
 20
-148.5711208395933
 10
129.7640000760659
 20
-148.5986816034753
 10
129.7526312609646
 20
-148.6091891447053
 10
129.710256586496
 20
-148.6451903925262
 10
129.5972574545798
 20
-148.8928927579156
 10
129.5269775066807
 20
-149.0430989210725
 10
129.4360269858701
 20
-149.1888264600986
 10
129.710256586496
 20
-149.4069010043149
 10
129.9100721246405
 20
-149.6924994200421
 10
129.9565809136914
 20
-149.7707030875573
 10
129.9565809136914
 20
-149.7707030875573
 10
129.8063747505345
 20
-149.9229763080053
 10
129.8063747505345
 20
-149.9229763080053
 97
        0
 97
        1
330
86
 75
     2
 76
     1
 98
        1
 10
0.0
 20
0.0
450
        0
451
        0
460
0.0
461
0.0
452
        0
462
0.0
453
        0
470

  0
SPLINE
  5
88
330
7D
100
AcDbEntity
  8
レイヤー 1
100
AcDbSpline
210
0.0
220
0.0
230
1.0
 70
    11
 71
     3
 72
    17
 73
    13
 74
     0
 42
0.0000000001
 43
0.0000000001
 40
0.0
 40
0.0
 40
0.0
 40
0.0
 40
1.0
 40
1.0
 40
1.0
 40
2.0
 40
2.0
 40
2.0
 40
3.0
 40
3.0
 40
3.0
 40
4.0
 40
4.0
 40
4.0
 40
4.0
 10
131.4548529402266
 20
-148.94560271884
 30
0.0
 10
131.4548529402266
 20
-148.94560271884
 30
0.0
 10
131.0531548066464
 20
-148.94560271884
 30
0.0
 10
131.0531548066464
 20
-148.94560271884
 30
0.0
 10
131.0531548066464
 20
-148.94560271884
 30
0.0
 10
131.0531548066464
 20
-149.2546277838669
 30
0.0
 10
131.0531548066464
 20
-149.2546277838669
 30
0.0
 10
131.0531548066464
 20
-149.2546277838669
 30
0.0
 10
131.4548529402266
 20
-149.2546277838669
 30
0.0
 10
131.4548529402266
 20
-149.2546277838669
 30
0.0
 10
131.4548529402266
 20
-149.2546277838669
 30
0.0
 10
131.4548529402266
 20
-148.94560271884
 30
0.0
 10
131.4548529402266
 20
-148.94560271884
 30
0.0
  0
SPLINE
  5
89
330
7D
100
AcDbEntity
  8
レイヤー 1
100
AcDbSpline
210
0.0
220
0.0
230
1.0
 70
    11
 71
     3
 72
    17
 73
    13
 74
     0
 42
0.0000000001
 43
0.0000000001
 40
0.0
 40
0.0
 40
0.0
 40
0.0
 40
1.0
 40
1.0
 40
1.0
 40
2.0
 40
2.0
 40
2.0
 40
3.0
 40
3.0
 40
3.0
 40
4.0
 40
4.0
 40
4.0
 40
4.0
 10
131.4548529402266
 20
-148.473796892135
 30
0.0
 10
131.4548529402266
 20
-148.473796892135
 30
0.0
 10
131.0531548066464
 20
-148.473796892135
 30
0.0
 10
131.0531548066464
 20
-148.473796892135
 30
0.0
 10
131.0531548066464
 20
-148.473796892135
 30
0.0
 10
131.0531548066464
 20
-148.7783433330311
 30
0.0
 10
131.0531548066464
 20
-148.7783433330311
 30
0.0
 10
131.0531548066464
 20
-148.7783433330311
 30
0.0
 10
131.4548529402266
 20
-148.7783433330311
 30
0.0
 10
131.4548529402266
 20
-148.7783433330311
 30
0.0
 10
131.4548529402266
 20
-148.7783433330311
 30
0.0
 10
131.4548529402266
 20
-148.473796892135
 30
0.0
 10
131.4548529402266
 20
-148.473796892135
 30
0.0
  0
SPLINE
  5
8A
330
7D
100
AcDbEntity
  8
レイヤー 1
100
AcDbSpline
210
0.0
220
0.0
230
1.0
 70
    11
 71
     3
 72
    17
 73
    13
 74
     0
 42
0.0000000001
 43
0.0000000001
 40
0.0
 40
0.0
 40
0.0
 40
0.0
 40
1.0
 40
1.0
 40
1.0
 40
2.0
 40
2.0
 40
2.0
 40
3.0
 40
3.0
 40
3.0
 40
4.0
 40
4.0
 40
4.0
 40
4.0
 10
130.8864121851603
 20
-148.94560271884
 30
0.0
 10
130.8864121851603
 20
-148.94560271884
 30
0.0
 10
130.502973057652
 20
-148.94560271884
 30
0.0
 10
130.502973057652
 20
-148.94560271884
 30
0.0
 10
130.502973057652
 20
-148.94560271884
 30
0.0
 10
130.502973057652
 20
-149.2546277838669
 30
0.0
 10
130.502973057652
 20
-149.2546277838669
 30
0.0
 10
130.502973057652
 20
-149.2546277838669
 30
0.0
 10
130.8864121851603
 20
-149.2546277838669
 30
0.0
 10
130.8864121851603
 20
-149.2546277838669
 30
0.0
 10
130.8864121851603
 20
-149.2546277838669
 30
0.0
 10
130.8864121851603
 20
-148.94560271884
 30
0.0
 10
130.8864121851603
 20
-148.94560271884
 30
0.0
  0
SPLINE
  5
8B
330
7D
100
AcDbEntity
  8
レイヤー 1
100
AcDbSpline
210
0.0
220
0.0
230
1.0
 70
    11
 71
     3
 72
    17
 73
    13
 74
     0
 42
0.0000000001
 43
0.0000000001
 40
0.0
 40
0.0
 40
0.0
 40
0.0
 40
1.0
 40
1.0
 40
1.0
 40
2.0
 40
2.0
 40
2.0
 40
3.0
 40
3.0
 40
3.0
 40
4.0
 40
4.0
 40
4.0
 40
4.0
 10
130.8864121851603
 20
-148.473796892135
 30
0.0
 10
130.8864121851603
 20
-148.473796892135
 30
0.0
 10
130.502973057652
 20
-148.473796892135
 30
0.0
 10
130.502973057652
 20
-148.473796892135
 30
0.0
 10
130.502973057652
 20
-148.473796892135
 30
0.0
 10
130.502973057652
 20
-148.7783433330311
 30
0.0
 10
130.502973057652
 20
-148.7783433330311
 30
0.0
 10
130.502973057652
 20
-148.7783433330311
 30
0.0
 10
130.8864121851603
 20
-148.7783433330311
 30
0.0
 10
130.8864121851603
 20
-148.7783433330311
 30
0.0
 10
130.8864121851603
 20
-148.7783433330311
 30
0.0
 10
130.8864121851603
 20
-148.473796892135
 30
0.0
 10
130.8864121851603
 20
-148.473796892135
 30
0.0
  0
SPLINE
  5
8C
330
7D
100
AcDbEntity
  8
レイヤー 1
100
AcDbSpline
210
0.0
220
0.0
230
1.0
 70
     9
 71
     3
 72
    77
 73
    73
 74
     0
 42
0.0000000001
 43
0.0000000001
 40
0.0
 40
0.0
 40
0.0
 40
0.0
 40
1.0
 40
1.0
 40
1.0
 40
2.0
 40
2.0
 40
2.0
 40
3.0
 40
3.0
 40
3.0
 40
4.0
 40
4.0
 40
4.0
 40
5.0
 40
5.0
 40
5.0
 40
6.0
 40
6.0
 40
6.0
 40
7.0
 40
7.0
 40
7.0
 40
8.0
 40
8.0
 40
8.0
 40
9.0
 40
9.0
 40
9.0
 40
10.0
 40
10.0
 40
10.0
 40
11.0
 40
11.0
 40
11.0
 40
12.0
 40
12.0
 40
12.0
 40
13.0
 40
13.0
 40
13.0
 40
14.0
 40
14.0
 40
14.0
 40
15.0
 40
15.0
 40
15.0
 40
16.0
 40
16.0
 40
16.0
 40
17.0
 40
17.0
 40
17.0
 40
18.0
 40
18.0
 40
18.0
 40
19.0
 40
19.0
 40
19.0
 40
20.0
 40
20.0
 40
20.0
 40
21.0
 40
21.0
 40
21.0
 40
22.0
 40
22.0
 40
22.0
 40
23.0
 40
23.0
 40
23.0
 40
24.0
 40
24.0
 40
24.0
 40
24.0
 10
131.5733642249192
 20
-150.0604356178668
 30
0.0
 10
131.5327120981932
 20
-150.0859293244577
 30
0.0
 10
131.4235025713108
 20
-150.0986761777531
 30
0.0
 10
131.3549451711543
 20
-150.0986761777531
 30
0.0
 10
131.343576356053
 20
-150.0986761777531
 30
0.0
 10
131.3215277449474
 20
-150.0986761777531
 30
0.0
 10
131.2918999237742
 20
-150.0941975536222
 30
0.0
 10
131.2918999237742
 20
-150.0941975536222
 30
0.0
 10
131.2068060652886
 20
-149.8678547802414
 30
0.0
 10
131.2068060652886
 20
-149.8678547802414
 30
0.0
 10
131.2326442814279
 20
-149.8744004616633
 30
0.0
 10
131.2825981659641
 20
-149.8826686908279
 30
0.0
 10
131.3845729923274
 20
-149.8826686908279
 30
0.0
 10
131.4531303924839
 20
-149.8826686908279
 30
0.0
 10
131.4548529402266
 20
-149.8406385259079
 30
0.0
 10
131.4548529402266
 20
-149.7834499408527
 30
0.0
 10
131.4548529402266
 20
-149.7834499408527
 30
0.0
 10
131.4548529402266
 20
-149.4344617681969
 30
0.0
 10
131.4548529402266
 20
-149.4344617681969
 30
0.0
 10
131.4548529402266
 20
-149.4344617681969
 30
0.0
 10
131.0531548066464
 20
-149.4344617681969
 30
0.0
 10
131.0531548066464
 20
-149.4344617681969
 30
0.0
 10
131.054877354389
 20
-149.5719210780584
 30
0.0
 10
131.0565999021317
 20
-149.7707030875573
 30
0.0
 10
131.0624565644566
 20
-149.9040282828365
 30
0.0
 10
131.0641791121992
 20
-149.9315890467185
 30
0.0
 10
131.0641791121992
 20
-149.9760307784782
 30
0.0
 10
131.075203417752
 20
-150.0373534781157
 30
0.0
 10
131.075203417752
 20
-150.0373534781157
 30
0.0
 10
130.8640190645062
 20
-150.0373534781157
 30
0.0
 10
130.8640190645062
 20
-150.0373534781157
 30
0.0
 10
130.8864121851603
 20
-149.9122965120011
 30
0.0
 10
130.8864121851603
 20
-149.5719210780584
 30
0.0
 10
130.8864121851603
 20
-149.4344617681969
 30
0.0
 10
130.8864121851603
 20
-149.4344617681969
 30
0.0
 10
130.4995279621667
 20
-149.4344617681969
 30
0.0
 10
130.4995279621667
 20
-149.4344617681969
 30
0.0
 10
130.4788573892553
 20
-149.6415120068604
 30
0.0
 10
130.4216688042001
 20
-149.91022945471
 30
0.0
 10
130.2494140299376
 20
-150.0941975536222
 30
0.0
 10
130.2494140299376
 20
-150.0941975536222
 30
0.0
 10
130.0847384657427
 20
-149.9715521543474
 30
0.0
 10
130.0847384657427
 20
-149.9715521543474
 30
0.0
 10
130.3066026149928
 20
-149.7517550623884
 30
0.0
 10
130.3345078884233
 20
-149.4196478576104
 30
0.0
 10
130.3345078884233
 20
-149.0875406528322
 30
0.0
 10
130.3345078884233
 20
-149.0875406528322
 30
0.0
 10
130.3345078884233
 20
-148.6515638191739
 30
0.0
 10
130.3345078884233
 20
-148.6515638191739
 30
0.0
 10
130.3345078884233
 20
-148.615562571353
 30
0.0
 10
130.3327853406807
 20
-148.3828463713244
 30
0.0
 10
130.3252061306131
 20
-148.2812160545095
 30
0.0
 10
130.4475070203395
 20
-148.2918958505138
 30
0.0
 10
130.6586913735853
 20
-148.2918958505138
 30
0.0
 10
130.7844373587969
 20
-148.2918958505138
 30
0.0
 10
130.7844373587969
 20
-148.2918958505138
 30
0.0
 10
131.1864800019256
 20
-148.2918958505138
 30
0.0
 10
131.1864800019256
 20
-148.2918958505138
 30
0.0
 10
131.199226855221
 20
-148.2918958505138
 30
0.0
 10
131.5048068247627
 20
-148.2918958505138
 30
0.0
 10
131.6436441728182
 20
-148.2812160545095
 30
0.0
 10
131.6419216250756
 20
-148.3340982702081
 30
0.0
 10
131.6364094722992
 20
-148.4949842293693
 30
0.0
 10
131.6364094722992
 20
-148.5457993877767
 30
0.0
 10
131.6364094722992
 20
-148.5457993877767
 30
0.0
 10
131.6364094722992
 20
-149.152997467052
 30
0.0
 10
131.6364094722992
 20
-149.152997467052
 30
0.0
 10
131.6364094722992
 20
-149.1719454922209
 30
0.0
 10
131.6457112301094
 20
-149.7431423236753
 30
0.0
 10
131.6457112301094
 20
-149.8554524364945
 30
0.0
 10
131.6457112301094
 20
-149.9122965120011
 30
0.0
 10
131.6457112301094
 20
-150.013926828816
 30
0.0
 10
131.5733642249192
 20
-150.0604356178668
 30
0.0
  0
HATCH
  5
8D
330
7D
100
AcDbEntity
  8
レイヤー 1
 62
   250
420
  2299925
440
 33554687
100
AcDbHatch
 10
0.0
 20
0.0
 30
0.0
210
0.0
220
0.0
230
1.0
  2
SOLID
 70
     1
 71
     1
 91
        5
 92
        1
 93
        1
 72
     4
 94
        3
 73
     0
 74
     0
 95
       17
 96
       13
 40
0.0
 40
0.0
 40
0.0
 40
0.0
 40
1.0
 40
1.0
 40
1.0
 40
2.0
 40
2.0
 40
2.0
 40
3.0
 40
3.0
 40
3.0
 40
4.0
 40
4.0
 40
4.0
 40
4.0
 10
131.4548529402266
 20
-148.94560271884
 10
131.4548529402266
 20
-148.94560271884
 10
131.0531548066464
 20
-148.94560271884
 10
131.0531548066464
 20
-148.94560271884
 10
131.0531548066464
 20
-148.94560271884
 10
131.0531548066464
 20
-149.2546277838669
 10
131.0531548066464
 20
-149.2546277838669
 10
131.0531548066464
 20
-149.2546277838669
 10
131.4548529402266
 20
-149.2546277838669
 10
131.4548529402266
 20
-149.2546277838669
 10
131.4548529402266
 20
-149.2546277838669
 10
131.4548529402266
 20
-148.94560271884
 10
131.4548529402266
 20
-148.94560271884
 97
        0
 97
        1
330
88
 92
        1
 93
        1
 72
     4
 94
        3
 73
     0
 74
     0
 95
       17
 96
       13
 40
0.0
 40
0.0
 40
0.0
 40
0.0
 40
1.0
 40
1.0
 40
1.0
 40
2.0
 40
2.0
 40
2.0
 40
3.0
 40
3.0
 40
3.0
 40
4.0
 40
4.0
 40
4.0
 40
4.0
 10
131.4548529402266
 20
-148.473796892135
 10
131.4548529402266
 20
-148.473796892135
 10
131.0531548066464
 20
-148.473796892135
 10
131.0531548066464
 20
-148.473796892135
 10
131.0531548066464
 20
-148.473796892135
 10
131.0531548066464
 20
-148.7783433330311
 10
131.0531548066464
 20
-148.7783433330311
 10
131.0531548066464
 20
-148.7783433330311
 10
131.4548529402266
 20
-148.7783433330311
 10
131.4548529402266
 20
-148.7783433330311
 10
131.4548529402266
 20
-148.7783433330311
 10
131.4548529402266
 20
-148.473796892135
 10
131.4548529402266
 20
-148.473796892135
 97
        0
 97
        1
330
89
 92
        1
 93
        1
 72
     4
 94
        3
 73
     0
 74
     0
 95
       17
 96
       13
 40
0.0
 40
0.0
 40
0.0
 40
0.0
 40
1.0
 40
1.0
 40
1.0
 40
2.0
 40
2.0
 40
2.0
 40
3.0
 40
3.0
 40
3.0
 40
4.0
 40
4.0
 40
4.0
 40
4.0
 10
130.8864121851603
 20
-148.94560271884
 10
130.8864121851603
 20
-148.94560271884
 10
130.502973057652
 20
-148.94560271884
 10
130.502973057652
 20
-148.94560271884
 10
130.502973057652
 20
-148.94560271884
 10
130.502973057652
 20
-149.2546277838669
 10
130.502973057652
 20
-149.2546277838669
 10
130.502973057652
 20
-149.2546277838669
 10
130.8864121851603
 20
-149.2546277838669
 10
130.8864121851603
 20
-149.2546277838669
 10
130.8864121851603
 20
-149.2546277838669
 10
130.8864121851603
 20
-148.94560271884
 10
130.8864121851603
 20
-148.94560271884
 97
        0
 97
        1
330
8A
 92
        1
 93
        1
 72
     4
 94
        3
 73
     0
 74
     0
 95
       17
 96
       13
 40
0.0
 40
0.0
 40
0.0
 40
0.0
 40
1.0
 40
1.0
 40
1.0
 40
2.0
 40
2.0
 40
2.0
 40
3.0
 40
3.0
 40
3.0
 40
4.0
 40
4.0
 40
4.0
 40
4.0
 10
130.8864121851603
 20
-148.473796892135
 10
130.8864121851603
 20
-148.473796892135
 10
130.502973057652
 20
-148.473796892135
 10
130.502973057652
 20
-148.473796892135
 10
130.502973057652
 20
-148.473796892135
 10
130.502973057652
 20
-148.7783433330311
 10
130.502973057652
 20
-148.7783433330311
 10
130.502973057652
 20
-148.7783433330311
 10
130.8864121851603
 20
-148.7783433330311
 10
130.8864121851603
 20
-148.7783433330311
 10
130.8864121851603
 20
-148.7783433330311
 10
130.8864121851603
 20
-148.473796892135
 10
130.8864121851603
 20
-148.473796892135
 97
        0
 97
        1
330
8B
 92
        1
 93
        1
 72
     4
 94
        3
 73
     0
 74
     0
 95
       77
 96
       73
 40
0.0
 40
0.0
 40
0.0
 40
0.0
 40
1.0
 40
1.0
 40
1.0
 40
2.0
 40
2.0
 40
2.0
 40
3.0
 40
3.0
 40
3.0
 40
4.0
 40
4.0
 40
4.0
 40
5.0
 40
5.0
 40
5.0
 40
6.0
 40
6.0
 40
6.0
 40
7.0
 40
7.0
 40
7.0
 40
8.0
 40
8.0
 40
8.0
 40
9.0
 40
9.0
 40
9.0
 40
10.0
 40
10.0
 40
10.0
 40
11.0
 40
11.0
 40
11.0
 40
12.0
 40
12.0
 40
12.0
 40
13.0
 40
13.0
 40
13.0
 40
14.0
 40
14.0
 40
14.0
 40
15.0
 40
15.0
 40
15.0
 40
16.0
 40
16.0
 40
16.0
 40
17.0
 40
17.0
 40
17.0
 40
18.0
 40
18.0
 40
18.0
 40
19.0
 40
19.0
 40
19.0
 40
20.0
 40
20.0
 40
20.0
 40
21.0
 40
21.0
 40
21.0
 40
22.0
 40
22.0
 40
22.0
 40
23.0
 40
23.0
 40
23.0
 40
24.0
 40
24.0
 40
24.0
 40
24.0
 10
131.5733642249192
 20
-150.0604356178668
 10
131.5327120981932
 20
-150.0859293244577
 10
131.4235025713108
 20
-150.0986761777531
 10
131.3549451711543
 20
-150.0986761777531
 10
131.343576356053
 20
-150.0986761777531
 10
131.3215277449474
 20
-150.0986761777531
 10
131.2918999237742
 20
-150.0941975536222
 10
131.2918999237742
 20
-150.0941975536222
 10
131.2068060652886
 20
-149.8678547802414
 10
131.2068060652886
 20
-149.8678547802414
 10
131.2326442814279
 20
-149.8744004616633
 10
131.2825981659641
 20
-149.8826686908279
 10
131.3845729923274
 20
-149.8826686908279
 10
131.4531303924839
 20
-149.8826686908279
 10
131.4548529402266
 20
-149.8406385259079
 10
131.4548529402266
 20
-149.7834499408527
 10
131.4548529402266
 20
-149.7834499408527
 10
131.4548529402266
 20
-149.4344617681969
 10
131.4548529402266
 20
-149.4344617681969
 10
131.4548529402266
 20
-149.4344617681969
 10
131.0531548066464
 20
-149.4344617681969
 10
131.0531548066464
 20
-149.4344617681969
 10
131.054877354389
 20
-149.5719210780584
 10
131.0565999021317
 20
-149.7707030875573
 10
131.0624565644566
 20
-149.9040282828365
 10
131.0641791121992
 20
-149.9315890467185
 10
131.0641791121992
 20
-149.9760307784782
 10
131.075203417752
 20
-150.0373534781157
 10
131.075203417752
 20
-150.0373534781157
 10
130.8640190645062
 20
-150.0373534781157
 10
130.8640190645062
 20
-150.0373534781157
 10
130.8864121851603
 20
-149.9122965120011
 10
130.8864121851603
 20
-149.5719210780584
 10
130.8864121851603
 20
-149.4344617681969
 10
130.8864121851603
 20
-149.4344617681969
 10
130.4995279621667
 20
-149.4344617681969
 10
130.4995279621667
 20
-149.4344617681969
 10
130.4788573892553
 20
-149.6415120068604
 10
130.4216688042001
 20
-149.91022945471
 10
130.2494140299376
 20
-150.0941975536222
 10
130.2494140299376
 20
-150.0941975536222
 10
130.0847384657427
 20
-149.9715521543474
 10
130.0847384657427
 20
-149.9715521543474
 10
130.3066026149928
 20
-149.7517550623884
 10
130.3345078884233
 20
-149.4196478576104
 10
130.3345078884233
 20
-149.0875406528322
 10
130.3345078884233
 20
-149.0875406528322
 10
130.3345078884233
 20
-148.6515638191739
 10
130.3345078884233
 20
-148.6515638191739
 10
130.3345078884233
 20
-148.615562571353
 10
130.3327853406807
 20
-148.3828463713244
 10
130.3252061306131
 20
-148.2812160545095
 10
130.4475070203395
 20
-148.2918958505138
 10
130.6586913735853
 20
-148.2918958505138
 10
130.7844373587969
 20
-148.2918958505138
 10
130.7844373587969
 20
-148.2918958505138
 10
131.1864800019256
 20
-148.2918958505138
 10
131.1864800019256
 20
-148.2918958505138
 10
131.199226855221
 20
-148.2918958505138
 10
131.5048068247627
 20
-148.2918958505138
 10
131.6436441728182
 20
-148.2812160545095
 10
131.6419216250756
 20
-148.3340982702081
 10
131.6364094722992
 20
-148.4949842293693
 10
131.6364094722992
 20
-148.5457993877767
 10
131.6364094722992
 20
-148.5457993877767
 10
131.6364094722992
 20
-149.152997467052
 10
131.6364094722992
 20
-149.152997467052
 10
131.6364094722992
 20
-149.1719454922209
 10
131.6457112301094
 20
-149.7431423236753
 10
131.6457112301094
 20
-149.8554524364945
 10
131.6457112301094
 20
-149.9122965120011
 10
131.6457112301094
 20
-150.013926828816
 10
131.5733642249192
 20
-150.0604356178668
 97
        0
 97
        1
330
8C
 75
     2
 76
     1
 98
        1
 10
0.0
 20
0.0
450
        0
451
        0
460
0.0
461
0.0
452
        0
462
0.0
453
        0
470

  0
SPLINE
  5
8E
330
7D
100
AcDbEntity
  8
レイヤー 1
100
AcDbSpline
210
0.0
220
0.0
230
1.0
 70
     9
 71
     3
 72
    17
 73
    13
 74
     0
 42
0.0000000001
 43
0.0000000001
 40
0.0
 40
0.0
 40
0.0
 40
0.0
 40
1.0
 40
1.0
 40
1.0
 40
2.0
 40
2.0
 40
2.0
 40
3.0
 40
3.0
 40
3.0
 40
4.0
 40
4.0
 40
4.0
 40
4.0
 10
126.7953612964261
 20
-150.8214572105585
 30
0.0
 10
126.7471299596326
 20
-150.8214572105585
 30
0.0
 10
126.7082003806493
 20
-150.8658989423182
 30
0.0
 10
126.7082003806493
 20
-150.9210204700822
 30
0.0
 10
126.7082003806493
 20
-150.9778645455889
 30
0.0
 10
126.7471299596326
 20
-151.0267849014794
 30
0.0
 10
126.7991509014599
 20
-151.0267849014794
 30
0.0
 10
126.8508273337387
 20
-151.0267849014794
 30
0.0
 10
126.8859673076882
 20
-150.9757974882977
 30
0.0
 10
126.8859673076882
 20
-150.9230875273734
 30
0.0
 10
126.8859673076882
 20
-150.8658989423182
 30
0.0
 10
126.8453151809623
 20
-150.8214572105585
 30
0.0
 10
126.7953612964261
 20
-150.8214572105585
 30
0.0
  0
SPLINE
  5
8F
330
7D
100
AcDbEntity
  8
レイヤー 1
100
AcDbSpline
210
0.0
220
0.0
230
1.0
 70
     9
 71
     3
 72
    17
 73
    13
 74
     0
 42
0.0000000001
 43
0.0000000001
 40
0.0
 40
0.0
 40
0.0
 40
0.0
 40
1.0
 40
1.0
 40
1.0
 40
2.0
 40
2.0
 40
2.0
 40
3.0
 40
3.0
 40
3.0
 40
4.0
 40
4.0
 40
4.0
 40
4.0
 10
126.7970838441688
 20
-151.1514973580454
 30
0.0
 10
126.6861517695437
 20
-151.1514973580454
 30
0.0
 10
126.5972683060243
 20
-151.0498670412306
 30
0.0
 10
126.5972683060243
 20
-150.9230875273734
 30
0.0
 10
126.5972683060243
 20
-150.7959635039676
 30
0.0
 10
126.6861517695437
 20
-150.6922661298616
 30
0.0
 10
126.7970838441688
 20
-150.6922661298616
 30
0.0
 10
126.9083604283423
 20
-150.6922661298616
 30
0.0
 10
126.9989664396044
 20
-150.7959635039676
 30
0.0
 10
126.9989664396044
 20
-150.9230875273734
 30
0.0
 10
126.9989664396044
 20
-151.0498670412306
 30
0.0
 10
126.9083604283423
 20
-151.1514973580454
 30
0.0
 10
126.7970838441688
 20
-151.1514973580454
 30
0.0
  0
SPLINE
  5
90
330
7D
100
AcDbEntity
  8
レイヤー 1
100
AcDbSpline
210
0.0
220
0.0
230
1.0
 70
     9
 71
     3
 72
    44
 73
    40
 74
     0
 42
0.0000000001
 43
0.0000000001
 40
0.0
 40
0.0
 40
0.0
 40
0.0
 40
1.0
 40
1.0
 40
1.0
 40
2.0
 40
2.0
 40
2.0
 40
3.0
 40
3.0
 40
3.0
 40
4.0
 40
4.0
 40
4.0
 40
5.0
 40
5.0
 40
5.0
 40
6.0
 40
6.0
 40
6.0
 40
7.0
 40
7.0
 40
7.0
 40
8.0
 40
8.0
 40
8.0
 40
9.0
 40
9.0
 40
9.0
 40
10.0
 40
10.0
 40
10.0
 40
11.0
 40
11.0
 40
11.0
 40
12.0
 40
12.0
 40
12.0
 40
13.0
 40
13.0
 40
13.0
 40
13.0
 10
126.6138047643535
 20
-151.3502793675443
 30
0.0
 10
126.5156195430239
 20
-151.7185600749176
 30
0.0
 10
126.4711778112641
 20
-151.8770344672391
 30
0.0
 10
126.2989230370016
 20
-152.1268038899197
 30
0.0
 10
126.1380370778405
 20
-152.3572807778829
 30
0.0
 10
125.9306423296284
 20
-152.5433159340864
 30
0.0
 10
125.6860405501757
 20
-152.6366780217366
 30
0.0
 10
125.6860405501757
 20
-152.6366780217366
 30
0.0
 10
125.517575380947
 20
-152.4568440374066
 30
0.0
 10
125.517575380947
 20
-152.4568440374066
 30
0.0
 10
126.0787814354942
 20
-152.3045708169586
 30
0.0
 10
126.3674804371581
 20
-151.7481878960907
 30
0.0
 10
126.4232909840192
 20
-151.3079046930758
 30
0.0
 10
126.4232909840192
 20
-151.3079046930758
 30
0.0
 10
125.7528754025895
 20
-151.3079046930758
 30
0.0
 10
125.7528754025895
 20
-151.3079046930758
 30
0.0
 10
125.6712266395891
 20
-151.3079046930758
 30
0.0
 10
125.5103406804279
 20
-151.3123833172066
 30
0.0
 10
125.373225880115
 20
-151.3313313423755
 30
0.0
 10
125.373225880115
 20
-151.3313313423755
 30
0.0
 10
125.373225880115
 20
-151.111189740868
 30
0.0
 10
125.373225880115
 20
-151.111189740868
 30
0.0
 10
125.4490179807905
 20
-151.1325493328766
 30
0.0
 10
125.6695040918465
 20
-151.1325493328766
 30
0.0
 10
125.7563204980748
 20
-151.1325493328766
 30
0.0
 10
125.7563204980748
 20
-151.1325493328766
 30
0.0
 10
126.1342474728067
 20
-151.1325493328766
 30
0.0
 10
126.1342474728067
 20
-151.1325493328766
 30
0.0
 10
126.1711099944989
 20
-151.1325493328766
 30
0.0
 10
126.3767821949683
 20
-151.1301377660369
 30
0.0
 10
126.4101996211752
 20
-151.1239365941634
 30
0.0
 10
126.4470621428674
 20
-151.11773542229
 30
0.0
 10
126.4491292001585
 20
-151.1156683649988
 30
0.0
 10
126.5028726897284
 20
-151.0753607478214
 30
0.0
 10
126.5028726897284
 20
-151.0753607478214
 30
0.0
 10
126.6675482539234
 20
-151.2297010255606
 30
0.0
 10
126.6675482539234
 20
-151.2297010255606
 30
0.0
 10
126.641710037784
 20
-151.2593288467338
 30
0.0
 10
126.62861867494
 20
-151.291023725198
 30
0.0
 10
126.6138047643535
 20
-151.3502793675443
 30
0.0
  0
HATCH
  5
91
330
7D
100
AcDbEntity
  8
レイヤー 1
 62
   250
420
  2299925
440
 33554687
100
AcDbHatch
 10
0.0
 20
0.0
 30
0.0
210
0.0
220
0.0
230
1.0
  2
SOLID
 70
     1
 71
     1
 91
        3
 92
        1
 93
        1
 72
     4
 94
        3
 73
     0
 74
     0
 95
       17
 96
       13
 40
0.0
 40
0.0
 40
0.0
 40
0.0
 40
1.0
 40
1.0
 40
1.0
 40
2.0
 40
2.0
 40
2.0
 40
3.0
 40
3.0
 40
3.0
 40
4.0
 40
4.0
 40
4.0
 40
4.0
 10
126.7953612964261
 20
-150.8214572105585
 10
126.7471299596326
 20
-150.8214572105585
 10
126.7082003806493
 20
-150.8658989423182
 10
126.7082003806493
 20
-150.9210204700822
 10
126.7082003806493
 20
-150.9778645455889
 10
126.7471299596326
 20
-151.0267849014794
 10
126.7991509014599
 20
-151.0267849014794
 10
126.8508273337387
 20
-151.0267849014794
 10
126.8859673076882
 20
-150.9757974882977
 10
126.8859673076882
 20
-150.9230875273734
 10
126.8859673076882
 20
-150.8658989423182
 10
126.8453151809623
 20
-150.8214572105585
 10
126.7953612964261
 20
-150.8214572105585
 97
        0
 97
        1
330
8E
 92
        1
 93
        1
 72
     4
 94
        3
 73
     0
 74
     0
 95
       17
 96
       13
 40
0.0
 40
0.0
 40
0.0
 40
0.0
 40
1.0
 40
1.0
 40
1.0
 40
2.0
 40
2.0
 40
2.0
 40
3.0
 40
3.0
 40
3.0
 40
4.0
 40
4.0
 40
4.0
 40
4.0
 10
126.7970838441688
 20
-151.1514973580454
 10
126.6861517695437
 20
-151.1514973580454
 10
126.5972683060243
 20
-151.0498670412306
 10
126.5972683060243
 20
-150.9230875273734
 10
126.5972683060243
 20
-150.7959635039676
 10
126.6861517695437
 20
-150.6922661298616
 10
126.7970838441688
 20
-150.6922661298616
 10
126.9083604283423
 20
-150.6922661298616
 10
126.9989664396044
 20
-150.7959635039676
 10
126.9989664396044
 20
-150.9230875273734
 10
126.9989664396044
 20
-151.0498670412306
 10
126.9083604283423
 20
-151.1514973580454
 10
126.7970838441688
 20
-151.1514973580454
 97
        0
 97
        1
330
8F
 92
        1
 93
        1
 72
     4
 94
        3
 73
     0
 74
     0
 95
       44
 96
       40
 40
0.0
 40
0.0
 40
0.0
 40
0.0
 40
1.0
 40
1.0
 40
1.0
 40
2.0
 40
2.0
 40
2.0
 40
3.0
 40
3.0
 40
3.0
 40
4.0
 40
4.0
 40
4.0
 40
5.0
 40
5.0
 40
5.0
 40
6.0
 40
6.0
 40
6.0
 40
7.0
 40
7.0
 40
7.0
 40
8.0
 40
8.0
 40
8.0
 40
9.0
 40
9.0
 40
9.0
 40
10.0
 40
10.0
 40
10.0
 40
11.0
 40
11.0
 40
11.0
 40
12.0
 40
12.0
 40
12.0
 40
13.0
 40
13.0
 40
13.0
 40
13.0
 10
126.6138047643535
 20
-151.3502793675443
 10
126.5156195430239
 20
-151.7185600749176
 10
126.4711778112641
 20
-151.8770344672391
 10
126.2989230370016
 20
-152.1268038899197
 10
126.1380370778405
 20
-152.3572807778829
 10
125.9306423296284
 20
-152.5433159340864
 10
125.6860405501757
 20
-152.6366780217366
 10
125.6860405501757
 20
-152.6366780217366
 10
125.517575380947
 20
-152.4568440374066
 10
125.517575380947
 20
-152.4568440374066
 10
126.0787814354942
 20
-152.3045708169586
 10
126.3674804371581
 20
-151.7481878960907
 10
126.4232909840192
 20
-151.3079046930758
 10
126.4232909840192
 20
-151.3079046930758
 10
125.7528754025895
 20
-151.3079046930758
 10
125.7528754025895
 20
-151.3079046930758
 10
125.6712266395891
 20
-151.3079046930758
 10
125.5103406804279
 20
-151.3123833172066
 10
125.373225880115
 20
-151.3313313423755
 10
125.373225880115
 20
-151.3313313423755
 10
125.373225880115
 20
-151.111189740868
 10
125.373225880115
 20
-151.111189740868
 10
125.4490179807905
 20
-151.1325493328766
 10
125.6695040918465
 20
-151.1325493328766
 10
125.7563204980748
 20
-151.1325493328766
 10
125.7563204980748
 20
-151.1325493328766
 10
126.1342474728067
 20
-151.1325493328766
 10
126.1342474728067
 20
-151.1325493328766
 10
126.1711099944989
 20
-151.1325493328766
 10
126.3767821949683
 20
-151.1301377660369
 10
126.4101996211752
 20
-151.1239365941634
 10
126.4470621428674
 20
-151.11773542229
 10
126.4491292001585
 20
-151.1156683649988
 10
126.5028726897284
 20
-151.0753607478214
 10
126.5028726897284
 20
-151.0753607478214
 10
126.6675482539234
 20
-151.2297010255606
 10
126.6675482539234
 20
-151.2297010255606
 10
126.641710037784
 20
-151.2593288467338
 10
126.62861867494
 20
-151.291023725198
 10
126.6138047643535
 20
-151.3502793675443
 97
        0
 97
        1
330
90
 75
     2
 76
     1
 98
        1
 10
0.0
 20
0.0
450
        0
451
        0
460
0.0
461
0.0
452
        0
462
0.0
453
        0
470

  0
SPLINE
  5
92
330
7D
100
AcDbEntity
  8
レイヤー 1
100
AcDbSpline
210
0.0
220
0.0
230
1.0
 70
     9
 71
     3
 72
    29
 73
    25
 74
     0
 42
0.0000000001
 43
0.0000000001
 40
0.0
 40
0.0
 40
0.0
 40
0.0
 40
1.0
 40
1.0
 40
1.0
 40
2.0
 40
2.0
 40
2.0
 40
3.0
 40
3.0
 40
3.0
 40
4.0
 40
4.0
 40
4.0
 40
5.0
 40
5.0
 40
5.0
 40
6.0
 40
6.0
 40
6.0
 40
7.0
 40
7.0
 40
7.0
 40
8.0
 40
8.0
 40
8.0
 40
8.0
 10
127.9380994688835
 20
-151.0329860733528
 30
0.0
 10
127.9380994688835
 20
-151.0329860733528
 30
0.0
 10
127.6400987094094
 20
-151.0329860733528
 30
0.0
 10
127.6400987094094
 20
-151.0329860733528
 30
0.0
 10
127.5401909403372
 20
-151.0329860733528
 30
0.0
 10
127.4382161139738
 20
-151.0371201879351
 30
0.0
 10
127.3383083449015
 20
-151.0519340985217
 30
0.0
 10
127.3383083449015
 20
-151.0519340985217
 30
0.0
 10
127.3383083449015
 20
-150.8424722930185
 30
0.0
 10
127.3383083449015
 20
-150.8424722930185
 30
0.0
 10
127.4420057190075
 20
-150.8572862036051
 30
0.0
 10
127.593934429907
 20
-150.8617648277359
 30
0.0
 10
127.6400987094094
 20
-150.8617648277359
 30
0.0
 10
127.6400987094094
 20
-150.8617648277359
 30
0.0
 10
127.9380994688835
 20
-150.8617648277359
 30
0.0
 10
127.9380994688835
 20
-150.8617648277359
 30
0.0
 10
128.0400742952469
 20
-150.8617648277359
 30
0.0
 10
128.1417046120618
 20
-150.8572862036051
 30
0.0
 10
128.2436794384252
 20
-150.8424722930185
 30
0.0
 10
128.2436794384252
 20
-150.8424722930185
 30
0.0
 10
128.2436794384252
 20
-151.0519340985217
 30
0.0
 10
128.2436794384252
 20
-151.0519340985217
 30
0.0
 10
128.1120767908886
 20
-151.0329860733528
 30
0.0
 10
127.9511908317275
 20
-151.0329860733528
 30
0.0
 10
127.9380994688835
 20
-151.0329860733528
 30
0.0
  0
SPLINE
  5
93
330
7D
100
AcDbEntity
  8
レイヤー 1
100
AcDbSpline
210
0.0
220
0.0
230
1.0
 70
     9
 71
     3
 72
    50
 73
    46
 74
     0
 42
0.0000000001
 43
0.0000000001
 40
0.0
 40
0.0
 40
0.0
 40
0.0
 40
1.0
 40
1.0
 40
1.0
 40
2.0
 40
2.0
 40
2.0
 40
3.0
 40
3.0
 40
3.0
 40
4.0
 40
4.0
 40
4.0
 40
5.0
 40
5.0
 40
5.0
 40
6.0
 40
6.0
 40
6.0
 40
7.0
 40
7.0
 40
7.0
 40
8.0
 40
8.0
 40
8.0
 40
9.0
 40
9.0
 40
9.0
 40
10.0
 40
10.0
 40
10.0
 40
11.0
 40
11.0
 40
11.0
 40
12.0
 40
12.0
 40
12.0
 40
13.0
 40
13.0
 40
13.0
 40
14.0
 40
14.0
 40
14.0
 40
15.0
 40
15.0
 40
15.0
 40
15.0
 10
128.3697699331853
 20
-151.6593044325713
 30
0.0
 10
128.3012125330288
 20
-151.8367268500616
 30
0.0
 10
128.1827012483363
 20
-152.0441215982737
 30
0.0
 10
128.0621229063525
 20
-152.1839924749748
 30
0.0
 10
127.9139838004868
 20
-152.3552137205918
 30
0.0
 10
127.7717013569459
 20
-152.4440971841112
 30
0.0
 10
127.4919596035436
 20
-152.5856906085549
 30
0.0
 10
127.4919596035436
 20
-152.5856906085549
 30
0.0
 10
127.3438204976779
 20
-152.3975883950603
 30
0.0
 10
127.3438204976779
 20
-152.3975883950603
 30
0.0
 10
127.5067735141302
 20
-152.3741617457606
 30
0.0
 10
127.6566351677386
 20
-152.2873453395323
 30
0.0
 10
127.7899603630178
 20
-152.1815809081352
 30
0.0
 10
128.019748231884
 20
-151.999679866514
 30
0.0
 10
128.18649085337
 20
-151.6865206869048
 30
0.0
 10
128.2288655278386
 20
-151.5046196452836
 30
0.0
 10
128.2288655278386
 20
-151.5046196452836
 30
0.0
 10
127.641821257152
 20
-151.5046196452836
 30
0.0
 10
127.641821257152
 20
-151.5046196452836
 30
0.0
 10
127.5029839090965
 20
-151.5046196452836
 30
0.0
 10
127.2473578240909
 20
-151.5132323839967
 30
0.0
 10
127.1140326288118
 20
-151.5301133518744
 30
0.0
 10
127.1140326288118
 20
-151.5301133518744
 30
0.0
 10
127.1140326288118
 20
-151.3017035212024
 30
0.0
 10
127.1140326288118
 20
-151.3017035212024
 30
0.0
 10
127.1436604499849
 20
-151.3079046930758
 30
0.0
 10
127.166053570639
 20
-151.3144503744978
 30
0.0
 10
127.2122178501414
 20
-151.3185844890801
 30
0.0
 10
127.3011013136608
 20
-151.3247856609535
 30
0.0
 10
127.4733560879233
 20
-151.3271972277932
 30
0.0
 10
127.5474256408562
 20
-151.3271972277932
 30
0.0
 10
127.5474256408562
 20
-151.3271972277932
 30
0.0
 10
127.9901204107108
 20
-151.3271972277932
 30
0.0
 10
127.9901204107108
 20
-151.3271972277932
 30
0.0
 10
128.0493760530571
 20
-151.3271972277932
 30
0.0
 10
128.1771890955598
 20
-151.3227186036624
 30
0.0
 10
128.2305880755812
 20
-151.3165174317889
 30
0.0
 10
128.2936333229613
 20
-151.3079046930758
 30
0.0
 10
128.317748991358
 20
-151.2930907824892
 30
0.0
 10
128.3473768125312
 20
-151.270008642738
 30
0.0
 10
128.3473768125312
 20
-151.270008642738
 30
0.0
 10
128.4917263133632
 20
-151.4370957737727
 30
0.0
 10
128.4917263133632
 20
-151.4370957737727
 30
0.0
 10
128.4307481232742
 20
-151.5046196452836
 30
0.0
 10
128.3900959965483
 20
-151.6083170193896
 30
0.0
 10
128.3697699331853
 20
-151.6593044325713
 30
0.0
  0
HATCH
  5
94
330
7D
100
AcDbEntity
  8
レイヤー 1
 62
   250
420
  2299925
440
 33554687
100
AcDbHatch
 10
0.0
 20
0.0
 30
0.0
210
0.0
220
0.0
230
1.0
  2
SOLID
 70
     1
 71
     1
 91
        2
 92
        1
 93
        1
 72
     4
 94
        3
 73
     0
 74
     0
 95
       29
 96
       25
 40
0.0
 40
0.0
 40
0.0
 40
0.0
 40
1.0
 40
1.0
 40
1.0
 40
2.0
 40
2.0
 40
2.0
 40
3.0
 40
3.0
 40
3.0
 40
4.0
 40
4.0
 40
4.0
 40
5.0
 40
5.0
 40
5.0
 40
6.0
 40
6.0
 40
6.0
 40
7.0
 40
7.0
 40
7.0
 40
8.0
 40
8.0
 40
8.0
 40
8.0
 10
127.9380994688835
 20
-151.0329860733528
 10
127.9380994688835
 20
-151.0329860733528
 10
127.6400987094094
 20
-151.0329860733528
 10
127.6400987094094
 20
-151.0329860733528
 10
127.5401909403372
 20
-151.0329860733528
 10
127.4382161139738
 20
-151.0371201879351
 10
127.3383083449015
 20
-151.0519340985217
 10
127.3383083449015
 20
-151.0519340985217
 10
127.3383083449015
 20
-150.8424722930185
 10
127.3383083449015
 20
-150.8424722930185
 10
127.4420057190075
 20
-150.8572862036051
 10
127.593934429907
 20
-150.8617648277359
 10
127.6400987094094
 20
-150.8617648277359
 10
127.6400987094094
 20
-150.8617648277359
 10
127.9380994688835
 20
-150.8617648277359
 10
127.9380994688835
 20
-150.8617648277359
 10
128.0400742952469
 20
-150.8617648277359
 10
128.1417046120618
 20
-150.8572862036051
 10
128.2436794384252
 20
-150.8424722930185
 10
128.2436794384252
 20
-150.8424722930185
 10
128.2436794384252
 20
-151.0519340985217
 10
128.2436794384252
 20
-151.0519340985217
 10
128.1120767908886
 20
-151.0329860733528
 10
127.9511908317275
 20
-151.0329860733528
 10
127.9380994688835
 20
-151.0329860733528
 97
        0
 97
        1
330
92
 92
        1
 93
        1
 72
     4
 94
        3
 73
     0
 74
     0
 95
       50
 96
       46
 40
0.0
 40
0.0
 40
0.0
 40
0.0
 40
1.0
 40
1.0
 40
1.0
 40
2.0
 40
2.0
 40
2.0
 40
3.0
 40
3.0
 40
3.0
 40
4.0
 40
4.0
 40
4.0
 40
5.0
 40
5.0
 40
5.0
 40
6.0
 40
6.0
 40
6.0
 40
7.0
 40
7.0
 40
7.0
 40
8.0
 40
8.0
 40
8.0
 40
9.0
 40
9.0
 40
9.0
 40
10.0
 40
10.0
 40
10.0
 40
11.0
 40
11.0
 40
11.0
 40
12.0
 40
12.0
 40
12.0
 40
13.0
 40
13.0
 40
13.0
 40
14.0
 40
14.0
 40
14.0
 40
15.0
 40
15.0
 40
15.0
 40
15.0
 10
128.3697699331853
 20
-151.6593044325713
 10
128.3012125330288
 20
-151.8367268500616
 10
128.1827012483363
 20
-152.0441215982737
 10
128.0621229063525
 20
-152.1839924749748
 10
127.9139838004868
 20
-152.3552137205918
 10
127.7717013569459
 20
-152.4440971841112
 10
127.4919596035436
 20
-152.5856906085549
 10
127.4919596035436
 20
-152.5856906085549
 10
127.3438204976779
 20
-152.3975883950603
 10
127.3438204976779
 20
-152.3975883950603
 10
127.5067735141302
 20
-152.3741617457606
 10
127.6566351677386
 20
-152.2873453395323
 10
127.7899603630178
 20
-152.1815809081352
 10
128.019748231884
 20
-151.999679866514
 10
128.18649085337
 20
-151.6865206869048
 10
128.2288655278386
 20
-151.5046196452836
 10
128.2288655278386
 20
-151.5046196452836
 10
127.641821257152
 20
-151.5046196452836
 10
127.641821257152
 20
-151.5046196452836
 10
127.5029839090965
 20
-151.5046196452836
 10
127.2473578240909
 20
-151.5132323839967
 10
127.1140326288118
 20
-151.5301133518744
 10
127.1140326288118
 20
-151.5301133518744
 10
127.1140326288118
 20
-151.3017035212024
 10
127.1140326288118
 20
-151.3017035212024
 10
127.1436604499849
 20
-151.3079046930758
 10
127.166053570639
 20
-151.3144503744978
 10
127.2122178501414
 20
-151.3185844890801
 10
127.3011013136608
 20
-151.3247856609535
 10
127.4733560879233
 20
-151.3271972277932
 10
127.5474256408562
 20
-151.3271972277932
 10
127.5474256408562
 20
-151.3271972277932
 10
127.9901204107108
 20
-151.3271972277932
 10
127.9901204107108
 20
-151.3271972277932
 10
128.0493760530571
 20
-151.3271972277932
 10
128.1771890955598
 20
-151.3227186036624
 10
128.2305880755812
 20
-151.3165174317889
 10
128.2936333229613
 20
-151.3079046930758
 10
128.317748991358
 20
-151.2930907824892
 10
128.3473768125312
 20
-151.270008642738
 10
128.3473768125312
 20
-151.270008642738
 10
128.4917263133632
 20
-151.4370957737727
 10
128.4917263133632
 20
-151.4370957737727
 10
128.4307481232742
 20
-151.5046196452836
 10
128.3900959965483
 20
-151.6083170193896
 10
128.3697699331853
 20
-151.6593044325713
 97
        0
 97
        1
330
93
 75
     2
 76
     1
 98
        1
 10
0.0
 20
0.0
450
        0
451
        0
460
0.0
461
0.0
452
        0
462
0.0
453
        0
470

  0
SPLINE
  5
95
330
7D
100
AcDbEntity
  8
レイヤー 1
100
AcDbSpline
210
0.0
220
0.0
230
1.0
 70
     9
 71
     3
 72
    50
 73
    46
 74
     0
 42
0.0000000001
 43
0.0000000001
 40
0.0
 40
0.0
 40
0.0
 40
0.0
 40
1.0
 40
1.0
 40
1.0
 40
2.0
 40
2.0
 40
2.0
 40
3.0
 40
3.0
 40
3.0
 40
4.0
 40
4.0
 40
4.0
 40
5.0
 40
5.0
 40
5.0
 40
6.0
 40
6.0
 40
6.0
 40
7.0
 40
7.0
 40
7.0
 40
8.0
 40
8.0
 40
8.0
 40
9.0
 40
9.0
 40
9.0
 40
10.0
 40
10.0
 40
10.0
 40
11.0
 40
11.0
 40
11.0
 40
12.0
 40
12.0
 40
12.0
 40
13.0
 40
13.0
 40
13.0
 40
14.0
 40
14.0
 40
14.0
 40
15.0
 40
15.0
 40
15.0
 40
15.0
 10
129.8676974501719
 20
-151.0181721627663
 30
0.0
 10
129.6844183703566
 20
-151.2317680828518
 30
0.0
 10
129.6217176325251
 20
-151.3037705784935
 30
0.0
 10
129.4973496855076
 20
-151.4222818631861
 30
0.0
 10
129.4973496855076
 20
-151.4222818631861
 30
0.0
 10
129.4973496855076
 20
-151.9893445800582
 30
0.0
 10
129.4973496855076
 20
-151.9893445800582
 30
0.0
 10
129.4973496855076
 20
-152.1395507432151
 30
0.0
 10
129.5032063478325
 20
-152.158498768384
 30
0.0
 10
129.5066514433178
 20
-152.3362656954229
 30
0.0
 10
129.5087185006089
 20
-152.4671793238623
 30
0.0
 10
129.5142306533853
 20
-152.5160996797529
 30
0.0
 10
129.5197428061617
 20
-152.5753553220992
 30
0.0
 10
129.5197428061617
 20
-152.5753553220992
 30
0.0
 10
129.3216498157599
 20
-152.5753553220992
 30
0.0
 10
129.3216498157599
 20
-152.5753553220992
 30
0.0
 10
129.3254394207936
 20
-152.5309135903395
 30
0.0
 10
129.3288845162789
 20
-152.4840602917401
 30
0.0
 10
129.3288845162789
 20
-152.4757920625755
 30
0.0
 10
129.3288845162789
 20
-152.3955213377692
 30
0.0
 10
129.3326741213126
 20
-152.0441215982737
 30
0.0
 10
129.3326741213126
 20
-151.9721191026319
 30
0.0
 10
129.3326741213126
 20
-151.9721191026319
 30
0.0
 10
129.3326741213126
 20
-151.565942344921
 30
0.0
 10
129.3326741213126
 20
-151.565942344921
 30
0.0
 10
129.1735107098941
 20
-151.6909993110356
 30
0.0
 10
129.0029784833742
 20
-151.800897857015
 30
0.0
 10
128.8252115563353
 20
-151.8877142632433
 30
0.0
 10
128.8252115563353
 20
-151.8877142632433
 30
0.0
 10
128.6474446292964
 20
-151.724761246791
 30
0.0
 10
128.6474446292964
 20
-151.724761246791
 30
0.0
 10
128.7549316084362
 20
-151.6889322537444
 30
0.0
 10
128.9788628149775
 20
-151.6148627008115
 30
0.0
 10
129.2806531794854
 20
-151.3588921062575
 30
0.0
 10
129.4697889216256
 20
-151.2000732043875
 30
0.0
 10
129.6382540908543
 20
-151.0119709908928
 30
0.0
 10
129.7715792861335
 20
-150.7918293893854
 30
0.0
 10
129.7715792861335
 20
-150.7918293893854
 30
0.0
 10
129.9400444553622
 20
-150.9358343806688
 30
0.0
 10
129.9400444553622
 20
-150.9358343806688
 30
0.0
 10
129.951068760915
 20
-150.9461696671245
 30
0.0
 10
129.9586479709825
 20
-150.9609835777111
 30
0.0
 10
129.9586479709825
 20
-150.9737304310065
 30
0.0
 10
129.9586479709825
 20
-151.014038048184
 30
0.0
 10
129.9252305447756
 20
-151.014038048184
 30
0.0
 10
129.8676974501719
 20
-151.0181721627663
 30
0.0
  0
HATCH
  5
96
330
7D
100
AcDbEntity
  8
レイヤー 1
 62
   250
420
  2299925
440
 33554687
100
AcDbHatch
 10
0.0
 20
0.0
 30
0.0
210
0.0
220
0.0
230
1.0
  2
SOLID
 70
     1
 71
     1
 91
        1
 92
        1
 93
        1
 72
     4
 94
        3
 73
     0
 74
     0
 95
       50
 96
       46
 40
0.0
 40
0.0
 40
0.0
 40
0.0
 40
1.0
 40
1.0
 40
1.0
 40
2.0
 40
2.0
 40
2.0
 40
3.0
 40
3.0
 40
3.0
 40
4.0
 40
4.0
 40
4.0
 40
5.0
 40
5.0
 40
5.0
 40
6.0
 40
6.0
 40
6.0
 40
7.0
 40
7.0
 40
7.0
 40
8.0
 40
8.0
 40
8.0
 40
9.0
 40
9.0
 40
9.0
 40
10.0
 40
10.0
 40
10.0
 40
11.0
 40
11.0
 40
11.0
 40
12.0
 40
12.0
 40
12.0
 40
13.0
 40
13.0
 40
13.0
 40
14.0
 40
14.0
 40
14.0
 40
15.0
 40
15.0
 40
15.0
 40
15.0
 10
129.8676974501719
 20
-151.0181721627663
 10
129.6844183703566
 20
-151.2317680828518
 10
129.6217176325251
 20
-151.3037705784935
 10
129.4973496855076
 20
-151.4222818631861
 10
129.4973496855076
 20
-151.4222818631861
 10
129.4973496855076
 20
-151.9893445800582
 10
129.4973496855076
 20
-151.9893445800582
 10
129.4973496855076
 20
-152.1395507432151
 10
129.5032063478325
 20
-152.158498768384
 10
129.5066514433178
 20
-152.3362656954229
 10
129.5087185006089
 20
-152.4671793238623
 10
129.5142306533853
 20
-152.5160996797529
 10
129.5197428061617
 20
-152.5753553220992
 10
129.5197428061617
 20
-152.5753553220992
 10
129.3216498157599
 20
-152.5753553220992
 10
129.3216498157599
 20
-152.5753553220992
 10
129.3254394207936
 20
-152.5309135903395
 10
129.3288845162789
 20
-152.4840602917401
 10
129.3288845162789
 20
-152.4757920625755
 10
129.3288845162789
 20
-152.3955213377692
 10
129.3326741213126
 20
-152.0441215982737
 10
129.3326741213126
 20
-151.9721191026319
 10
129.3326741213126
 20
-151.9721191026319
 10
129.3326741213126
 20
-151.565942344921
 10
129.3326741213126
 20
-151.565942344921
 10
129.1735107098941
 20
-151.6909993110356
 10
129.0029784833742
 20
-151.800897857015
 10
128.8252115563353
 20
-151.8877142632433
 10
128.8252115563353
 20
-151.8877142632433
 10
128.6474446292964
 20
-151.724761246791
 10
128.6474446292964
 20
-151.724761246791
 10
128.7549316084362
 20
-151.6889322537444
 10
128.9788628149775
 20
-151.6148627008115
 10
129.2806531794854
 20
-151.3588921062575
 10
129.4697889216256
 20
-151.2000732043875
 10
129.6382540908543
 20
-151.0119709908928
 10
129.7715792861335
 20
-150.7918293893854
 10
129.7715792861335
 20
-150.7918293893854
 10
129.9400444553622
 20
-150.9358343806688
 10
129.9400444553622
 20
-150.9358343806688
 10
129.951068760915
 20
-150.9461696671245
 10
129.9586479709825
 20
-150.9609835777111
 10
129.9586479709825
 20
-150.9737304310065
 10
129.9586479709825
 20
-151.014038048184
 10
129.9252305447756
 20
-151.014038048184
 10
129.8676974501719
 20
-151.0181721627663
 97
        0
 97
        1
330
95
 75
     2
 76
     1
 98
        1
 10
0.0
 20
0.0
450
        0
451
        0
460
0.0
461
0.0
452
        0
462
0.0
453
        0
470

  0
SPLINE
  5
97
330
7D
100
AcDbEntity
  8
レイヤー 1
100
AcDbSpline
210
0.0
220
0.0
230
1.0
 70
     9
 71
     3
 72
    50
 73
    46
 74
     0
 42
0.0000000001
 43
0.0000000001
 40
0.0
 40
0.0
 40
0.0
 40
0.0
 40
1.0
 40
1.0
 40
1.0
 40
2.0
 40
2.0
 40
2.0
 40
3.0
 40
3.0
 40
3.0
 40
4.0
 40
4.0
 40
4.0
 40
5.0
 40
5.0
 40
5.0
 40
6.0
 40
6.0
 40
6.0
 40
7.0
 40
7.0
 40
7.0
 40
8.0
 40
8.0
 40
8.0
 40
9.0
 40
9.0
 40
9.0
 40
10.0
 40
10.0
 40
10.0
 40
11.0
 40
11.0
 40
11.0
 40
12.0
 40
12.0
 40
12.0
 40
13.0
 40
13.0
 40
13.0
 40
14.0
 40
14.0
 40
14.0
 40
15.0
 40
15.0
 40
15.0
 40
15.0
 10
131.363902419416
 20
-151.544927262461
 30
0.0
 10
131.3105034393946
 20
-151.6169297581027
 30
0.0
 10
131.082438118271
 20
-151.9342230522942
 30
0.0
 10
131.0324842337349
 20
-151.9976128092228
 30
0.0
 10
131.1065537866678
 20
-152.0951090114554
 30
0.0
 10
131.1509955184275
 20
-152.158498768384
 30
0.0
 10
131.2085286130312
 20
-152.2494492891946
 30
0.0
 10
131.2085286130312
 20
-152.2494492891946
 30
0.0
 10
131.0472981443215
 20
-152.386908599056
 30
0.0
 10
131.0472981443215
 20
-152.386908599056
 30
0.0
 10
130.9287868596289
 20
-152.1753797362617
 30
0.0
 10
130.7789252060205
 20
-151.9511040201719
 30
0.0
 10
130.5215765732724
 20
-151.752322010673
 30
0.0
 10
130.5215765732724
 20
-151.752322010673
 30
0.0
 10
130.6511121635178
 20
-151.5979817329338
 30
0.0
 10
130.6511121635178
 20
-151.5979817329338
 30
0.0
 10
130.7475748371048
 20
-151.6782524577402
 30
0.0
 10
130.8381808483668
 20
-151.7671359212596
 30
0.0
 10
130.9232747068525
 20
-151.8622205566525
 30
0.0
 10
130.9825303491988
 20
-151.7860839464284
 30
0.0
 10
131.1602972762377
 20
-151.5428602051698
 30
0.0
 10
131.2770860131877
 20
-151.3144503744978
 30
0.0
 10
131.2770860131877
 20
-151.3144503744978
 30
0.0
 10
130.6883191947585
 20
-151.3144503744978
 30
0.0
 10
130.6883191947585
 20
-151.3144503744978
 30
0.0
 10
130.5787651583275
 20
-151.3144503744978
 30
0.0
 10
130.3586235568201
 20
-151.3227186036624
 30
0.0
 10
130.1753444770048
 20
-151.3333983996666
 30
0.0
 10
130.1753444770048
 20
-151.3333983996666
 30
0.0
 10
130.1753444770048
 20
-151.1132567981592
 30
0.0
 10
130.1753444770048
 20
-151.1132567981592
 30
0.0
 10
130.3362304361659
 20
-151.1325493328766
 30
0.0
 10
130.516064420496
 20
-151.1366834474589
 30
0.0
 10
130.6807399846909
 20
-151.1366834474589
 30
0.0
 10
130.6807399846909
 20
-151.1366834474589
 30
0.0
 10
131.1213676972544
 20
-151.1366834474589
 30
0.0
 10
131.1213676972544
 20
-151.1366834474589
 30
0.0
 10
131.4176459089858
 20
-151.1366834474589
 30
0.0
 10
131.4565754879692
 20
-151.1218695368723
 30
0.0
 10
131.5289224931594
 20
-151.0815619196949
 30
0.0
 10
131.5289224931594
 20
-151.0815619196949
 30
0.0
 10
131.674994541734
 20
-151.2403808215649
 30
0.0
 10
131.674994541734
 20
-151.2403808215649
 30
0.0
 10
131.5416693464548
 20
-151.3123833172066
 30
0.0
 10
131.4159233612432
 20
-151.4749918241104
 30
0.0
 10
131.363902419416
 20
-151.544927262461
 30
0.0
  0
HATCH
  5
98
330
7D
100
AcDbEntity
  8
レイヤー 1
 62
   250
420
  2299925
440
 33554687
100
AcDbHatch
 10
0.0
 20
0.0
 30
0.0
210
0.0
220
0.0
230
1.0
  2
SOLID
 70
     1
 71
     1
 91
        1
 92
        1
 93
        1
 72
     4
 94
        3
 73
     0
 74
     0
 95
       50
 96
       46
 40
0.0
 40
0.0
 40
0.0
 40
0.0
 40
1.0
 40
1.0
 40
1.0
 40
2.0
 40
2.0
 40
2.0
 40
3.0
 40
3.0
 40
3.0
 40
4.0
 40
4.0
 40
4.0
 40
5.0
 40
5.0
 40
5.0
 40
6.0
 40
6.0
 40
6.0
 40
7.0
 40
7.0
 40
7.0
 40
8.0
 40
8.0
 40
8.0
 40
9.0
 40
9.0
 40
9.0
 40
10.0
 40
10.0
 40
10.0
 40
11.0
 40
11.0
 40
11.0
 40
12.0
 40
12.0
 40
12.0
 40
13.0
 40
13.0
 40
13.0
 40
14.0
 40
14.0
 40
14.0
 40
15.0
 40
15.0
 40
15.0
 40
15.0
 10
131.363902419416
 20
-151.544927262461
 10
131.3105034393946
 20
-151.6169297581027
 10
131.082438118271
 20
-151.9342230522942
 10
131.0324842337349
 20
-151.9976128092228
 10
131.1065537866678
 20
-152.0951090114554
 10
131.1509955184275
 20
-152.158498768384
 10
131.2085286130312
 20
-152.2494492891946
 10
131.2085286130312
 20
-152.2494492891946
 10
131.0472981443215
 20
-152.386908599056
 10
131.0472981443215
 20
-152.386908599056
 10
130.9287868596289
 20
-152.1753797362617
 10
130.7789252060205
 20
-151.9511040201719
 10
130.5215765732724
 20
-151.752322010673
 10
130.5215765732724
 20
-151.752322010673
 10
130.6511121635178
 20
-151.5979817329338
 10
130.6511121635178
 20
-151.5979817329338
 10
130.7475748371048
 20
-151.6782524577402
 10
130.8381808483668
 20
-151.7671359212596
 10
130.9232747068525
 20
-151.8622205566525
 10
130.9825303491988
 20
-151.7860839464284
 10
131.1602972762377
 20
-151.5428602051698
 10
131.2770860131877
 20
-151.3144503744978
 10
131.2770860131877
 20
-151.3144503744978
 10
130.6883191947585
 20
-151.3144503744978
 10
130.6883191947585
 20
-151.3144503744978
 10
130.5787651583275
 20
-151.3144503744978
 10
130.3586235568201
 20
-151.3227186036624
 10
130.1753444770048
 20
-151.3333983996666
 10
130.1753444770048
 20
-151.3333983996666
 10
130.1753444770048
 20
-151.1132567981592
 10
130.1753444770048
 20
-151.1132567981592
 10
130.3362304361659
 20
-151.1325493328766
 10
130.516064420496
 20
-151.1366834474589
 10
130.6807399846909
 20
-151.1366834474589
 10
130.6807399846909
 20
-151.1366834474589
 10
131.1213676972544
 20
-151.1366834474589
 10
131.1213676972544
 20
-151.1366834474589
 10
131.4176459089858
 20
-151.1366834474589
 10
131.4565754879692
 20
-151.1218695368723
 10
131.5289224931594
 20
-151.0815619196949
 10
131.5289224931594
 20
-151.0815619196949
 10
131.674994541734
 20
-151.2403808215649
 10
131.674994541734
 20
-151.2403808215649
 10
131.5416693464548
 20
-151.3123833172066
 10
131.4159233612432
 20
-151.4749918241104
 10
131.363902419416
 20
-151.544927262461
 97
        0
 97
        1
330
97
 75
     2
 76
     1
 98
        1
 10
0.0
 20
0.0
450
        0
451
        0
460
0.0
461
0.0
452
        0
462
0.0
453
        0
470

  0
SPLINE
  5
99
330
7D
100
AcDbEntity
  8
レイヤー 1
100
AcDbSpline
210
0.0
220
0.0
230
1.0
 70
     9
 71
     3
 72
    29
 73
    25
 74
     0
 42
0.0000000001
 43
0.0000000001
 40
0.0
 40
0.0
 40
0.0
 40
0.0
 40
1.0
 40
1.0
 40
1.0
 40
2.0
 40
2.0
 40
2.0
 40
3.0
 40
3.0
 40
3.0
 40
4.0
 40
4.0
 40
4.0
 40
5.0
 40
5.0
 40
5.0
 40
6.0
 40
6.0
 40
6.0
 40
7.0
 40
7.0
 40
7.0
 40
8.0
 40
8.0
 40
8.0
 40
8.0
 10
132.7863823452756
 20
-151.7881510037196
 30
0.0
 10
132.7863823452756
 20
-151.7881510037196
 30
0.0
 10
132.3622910910414
 20
-151.7881510037196
 30
0.0
 10
132.3622910910414
 20
-151.7881510037196
 30
0.0
 10
132.3381754226446
 20
-151.7881510037196
 30
0.0
 10
132.060156216985
 20
-151.7881510037196
 30
0.0
 10
131.875154589427
 20
-151.8136447103105
 30
0.0
 10
131.875154589427
 20
-151.8136447103105
 30
0.0
 10
131.875154589427
 20
-151.5831678223472
 30
0.0
 10
131.875154589427
 20
-151.5831678223472
 30
0.0
 10
132.0139919374826
 20
-151.6062499620984
 30
0.0
 10
132.1807345589687
 20
-151.6083170193896
 30
0.0
 10
132.3622910910414
 20
-151.6083170193896
 30
0.0
 10
132.3622910910414
 20
-151.6083170193896
 30
0.0
 10
132.7863823452756
 20
-151.6083170193896
 30
0.0
 10
132.7863823452756
 20
-151.6083170193896
 30
0.0
 10
132.9489908521794
 20
-151.6083170193896
 30
0.0
 10
133.1122883781802
 20
-151.6062499620984
 30
0.0
 10
133.2731743373414
 20
-151.5831678223472
 30
0.0
 10
133.2731743373414
 20
-151.5831678223472
 30
0.0
 10
133.2731743373414
 20
-151.8136447103105
 30
0.0
 10
133.2731743373414
 20
-151.8136447103105
 30
0.0
 10
133.1122883781802
 20
-151.7902180610108
 30
0.0
 10
132.895591872158
 20
-151.7881510037196
 30
0.0
 10
132.7863823452756
 20
-151.7881510037196
 30
0.0
  0
HATCH
  5
9A
330
7D
100
AcDbEntity
  8
レイヤー 1
 62
   250
420
  2299925
440
 33554687
100
AcDbHatch
 10
0.0
 20
0.0
 30
0.0
210
0.0
220
0.0
230
1.0
  2
SOLID
 70
     1
 71
     1
 91
        1
 92
        1
 93
        1
 72
     4
 94
        3
 73
     0
 74
     0
 95
       29
 96
       25
 40
0.0
 40
0.0
 40
0.0
 40
0.0
 40
1.0
 40
1.0
 40
1.0
 40
2.0
 40
2.0
 40
2.0
 40
3.0
 40
3.0
 40
3.0
 40
4.0
 40
4.0
 40
4.0
 40
5.0
 40
5.0
 40
5.0
 40
6.0
 40
6.0
 40
6.0
 40
7.0
 40
7.0
 40
7.0
 40
8.0
 40
8.0
 40
8.0
 40
8.0
 10
132.7863823452756
 20
-151.7881510037196
 10
132.7863823452756
 20
-151.7881510037196
 10
132.3622910910414
 20
-151.7881510037196
 10
132.3622910910414
 20
-151.7881510037196
 10
132.3381754226446
 20
-151.7881510037196
 10
132.060156216985
 20
-151.7881510037196
 10
131.875154589427
 20
-151.8136447103105
 10
131.875154589427
 20
-151.8136447103105
 10
131.875154589427
 20
-151.5831678223472
 10
131.875154589427
 20
-151.5831678223472
 10
132.0139919374826
 20
-151.6062499620984
 10
132.1807345589687
 20
-151.6083170193896
 10
132.3622910910414
 20
-151.6083170193896
 10
132.3622910910414
 20
-151.6083170193896
 10
132.7863823452756
 20
-151.6083170193896
 10
132.7863823452756
 20
-151.6083170193896
 10
132.9489908521794
 20
-151.6083170193896
 10
133.1122883781802
 20
-151.6062499620984
 10
133.2731743373414
 20
-151.5831678223472
 10
133.2731743373414
 20
-151.5831678223472
 10
133.2731743373414
 20
-151.8136447103105
 10
133.2731743373414
 20
-151.8136447103105
 10
133.1122883781802
 20
-151.7902180610108
 10
132.895591872158
 20
-151.7881510037196
 10
132.7863823452756
 20
-151.7881510037196
 97
        0
 97
        1
330
99
 75
     2
 76
     1
 98
        1
 10
0.0
 20
0.0
450
        0
451
        0
460
0.0
461
0.0
452
        0
462
0.0
453
        0
470

  0
SPLINE
  5
9B
330
7D
100
AcDbEntity
  8
レイヤー 1
100
AcDbSpline
210
0.0
220
0.0
230
1.0
 70
     9
 71
     3
 72
    20
 73
    16
 74
     0
 42
0.0000000001
 43
0.0000000001
 40
0.0
 40
0.0
 40
0.0
 40
0.0
 40
1.0
 40
1.0
 40
1.0
 40
2.0
 40
2.0
 40
2.0
 40
3.0
 40
3.0
 40
3.0
 40
4.0
 40
4.0
 40
4.0
 40
5.0
 40
5.0
 40
5.0
 40
5.0
 10
134.3621690202289
 20
-152.1395507432151
 30
0.0
 10
134.321516893503
 20
-151.9617838161762
 30
0.0
 10
134.2364230350173
 20
-151.8198458821839
 30
0.0
 10
134.1141221452909
 20
-151.7099473362044
 30
0.0
 10
134.1141221452909
 20
-151.7099473362044
 30
0.0
 10
134.2550265506376
 20
-151.5955701660941
 30
0.0
 10
134.2550265506376
 20
-151.5955701660941
 30
0.0
 10
134.308425530659
 20
-151.6379448405627
 30
0.0
 10
134.3439100141571
 20
-151.6717067763182
 30
0.0
 10
134.4104003570224
 20
-151.779882774555
 30
0.0
 10
134.4806803049215
 20
-151.8959824924079
 30
0.0
 10
134.4992838205418
 20
-151.9490369628808
 30
0.0
 10
134.521676941196
 20
-152.0144937771005
 30
0.0
 10
134.521676941196
 20
-152.0144937771005
 30
0.0
 10
134.3621690202289
 20
-152.1395507432151
 30
0.0
 10
134.3621690202289
 20
-152.1395507432151
 30
0.0
  0
SPLINE
  5
9C
330
7D
100
AcDbEntity
  8
レイヤー 1
100
AcDbSpline
210
0.0
220
0.0
230
1.0
 70
     9
 71
     3
 72
    77
 73
    73
 74
     0
 42
0.0000000001
 43
0.0000000001
 40
0.0
 40
0.0
 40
0.0
 40
0.0
 40
1.0
 40
1.0
 40
1.0
 40
2.0
 40
2.0
 40
2.0
 40
3.0
 40
3.0
 40
3.0
 40
4.0
 40
4.0
 40
4.0
 40
5.0
 40
5.0
 40
5.0
 40
6.0
 40
6.0
 40
6.0
 40
7.0
 40
7.0
 40
7.0
 40
8.0
 40
8.0
 40
8.0
 40
9.0
 40
9.0
 40
9.0
 40
10.0
 40
10.0
 40
10.0
 40
11.0
 40
11.0
 40
11.0
 40
12.0
 40
12.0
 40
12.0
 40
13.0
 40
13.0
 40
13.0
 40
14.0
 40
14.0
 40
14.0
 40
15.0
 40
15.0
 40
15.0
 40
16.0
 40
16.0
 40
16.0
 40
17.0
 40
17.0
 40
17.0
 40
18.0
 40
18.0
 40
18.0
 40
19.0
 40
19.0
 40
19.0
 40
20.0
 40
20.0
 40
20.0
 40
21.0
 40
21.0
 40
21.0
 40
22.0
 40
22.0
 40
22.0
 40
23.0
 40
23.0
 40
23.0
 40
24.0
 40
24.0
 40
24.0
 40
24.0
 10
135.0363742066923
 20
-151.413669124473
 30
0.0
 10
134.9753960166033
 20
-151.4095350098906
 30
0.0
 10
134.916140374257
 20
-151.4095350098906
 30
0.0
 10
134.8568847319107
 20
-151.4095350098906
 30
0.0
 10
134.8568847319107
 20
-151.4095350098906
 30
0.0
 10
134.8568847319107
 20
-152.1839924749748
 30
0.0
 10
134.8568847319107
 20
-152.1839924749748
 30
0.0
 10
134.8568847319107
 20
-152.4482312986935
 30
0.0
 10
134.8548176746196
 20
-152.4778591198666
 30
0.0
 10
134.8493055218432
 20
-152.5074869410398
 30
0.0
 10
134.8196777006701
 20
-152.6408121363189
 30
0.0
 10
134.7307942371506
 20
-152.6490803654835
 30
0.0
 10
134.5771429785085
 20
-152.6490803654835
 30
0.0
 10
134.5420030045589
 20
-152.6490803654835
 30
0.0
 10
134.5271890939723
 20
-152.6490803654835
 30
0.0
 10
134.4920491200228
 20
-152.6449462509012
 30
0.0
 10
134.4920491200228
 20
-152.6449462509012
 30
0.0
 10
134.3828395931404
 20
-152.4037895669338
 30
0.0
 10
134.3828395931404
 20
-152.4037895669338
 30
0.0
 10
134.4844699099552
 20
-152.4354844453981
 30
0.0
 10
134.5568169151455
 20
-152.4354844453981
 30
0.0
 10
134.5771429785085
 20
-152.4354844453981
 30
0.0
 10
134.6381211685974
 20
-152.4354844453981
 30
0.0
 10
134.6677489897705
 20
-152.4186034775203
 30
0.0
 10
134.6715385948043
 20
-152.3614148924652
 30
0.0
 10
134.6715385948043
 20
-152.3486680391697
 30
0.0
 10
134.673261142547
 20
-152.2515163464857
 30
0.0
 10
134.673261142547
 20
-152.1943277614306
 30
0.0
 10
134.673261142547
 20
-152.1943277614306
 30
0.0
 10
134.673261142547
 20
-151.4074679525995
 30
0.0
 10
134.673261142547
 20
-151.4074679525995
 30
0.0
 10
134.673261142547
 20
-151.4074679525995
 30
0.0
 10
134.4159125097988
 20
-151.4074679525995
 30
0.0
 10
134.4159125097988
 20
-151.4074679525995
 30
0.0
 10
134.288099467296
 20
-151.4074679525995
 30
0.0
 10
134.1602864247932
 20
-151.413669124473
 30
0.0
 10
134.0345404395816
 20
-151.4264159777684
 30
0.0
 10
134.0345404395816
 20
-151.4264159777684
 30
0.0
 10
134.0345404395816
 20
-151.2190212295563
 30
0.0
 10
134.0345404395816
 20
-151.2190212295563
 30
0.0
 10
134.1661430871182
 20
-151.2317680828518
 30
0.0
 10
134.3566568674525
 20
-151.2362467069826
 30
0.0
 10
134.4159125097988
 20
-151.2362467069826
 30
0.0
 10
134.4159125097988
 20
-151.2362467069826
 30
0.0
 10
134.673261142547
 20
-151.2362467069826
 30
0.0
 10
134.673261142547
 20
-151.2362467069826
 30
0.0
 10
134.6715385948043
 20
-150.9675292591331
 30
0.0
 10
134.6715385948043
 20
-150.8913926489091
 30
0.0
 10
134.6639593847368
 20
-150.7432535430433
 30
0.0
 10
134.6639593847368
 20
-150.7432535430433
 30
0.0
 10
134.8899576485692
 20
-150.7811495933811
 30
0.0
 10
134.8899576485692
 20
-150.7811495933811
 30
0.0
 10
134.9030490114131
 20
-150.7832166506722
 30
0.0
 10
134.916140374257
 20
-150.7897623320942
 30
0.0
 10
134.916140374257
 20
-150.8107774145542
 30
0.0
 10
134.916140374257
 20
-150.8300699492716
 30
0.0
 10
134.9102837119321
 20
-150.8321370065628
 30
0.0
 10
134.860329827396
 20
-150.8658989423182
 30
0.0
 10
134.8568847319107
 20
-150.9441026098334
 30
0.0
 10
134.8568847319107
 20
-150.95891652042
 30
0.0
 10
134.8568847319107
 20
-151.2362467069826
 30
0.0
 10
135.0122585382955
 20
-151.2317680828518
 30
0.0
 10
135.0287949966247
 20
-151.2317680828518
 30
0.0
 10
135.0584228177979
 20
-151.2276339682695
 30
0.0
 10
135.1028645495576
 20
-151.2234998536872
 30
0.0
 10
135.1066541545914
 20
-151.221432796396
 30
0.0
 10
135.1455837335747
 20
-151.2190212295563
 30
0.0
 10
135.1455837335747
 20
-151.2190212295563
 30
0.0
 10
135.1455837335747
 20
-151.4264159777684
 30
0.0
 10
135.1455837335747
 20
-151.4264159777684
 30
0.0
 10
135.1197455174353
 20
-151.4243489204772
 30
0.0
 10
135.0715141806418
 20
-151.4157361817641
 30
0.0
 10
135.0363742066923
 20
-151.413669124473
 30
0.0
  0
SPLINE
  5
9D
330
7D
100
AcDbEntity
  8
レイヤー 1
100
AcDbSpline
210
0.0
220
0.0
230
1.0
 70
     9
 71
     3
 72
    53
 73
    49
 74
     0
 42
0.0000000001
 43
0.0000000001
 40
0.0
 40
0.0
 40
0.0
 40
0.0
 40
1.0
 40
1.0
 40
1.0
 40
2.0
 40
2.0
 40
2.0
 40
3.0
 40
3.0
 40
3.0
 40
4.0
 40
4.0
 40
4.0
 40
5.0
 40
5.0
 40
5.0
 40
6.0
 40
6.0
 40
6.0
 40
7.0
 40
7.0
 40
7.0
 40
8.0
 40
8.0
 40
8.0
 40
9.0
 40
9.0
 40
9.0
 40
10.0
 40
10.0
 40
10.0
 40
11.0
 40
11.0
 40
11.0
 40
12.0
 40
12.0
 40
12.0
 40
13.0
 40
13.0
 40
13.0
 40
14.0
 40
14.0
 40
14.0
 40
15.0
 40
15.0
 40
15.0
 40
16.0
 40
16.0
 40
16.0
 40
16.0
 10
134.0290282868052
 20
-150.9144747886602
 30
0.0
 10
133.9697726444589
 20
-151.0667480091083
 30
0.0
 10
133.9325656132182
 20
-151.1449516766235
 30
0.0
 10
133.8994926965598
 20
-151.2128200576829
 30
0.0
 10
133.936355218252
 20
-151.2338351401429
 30
0.0
 10
133.9401448232858
 20
-151.2362467069826
 30
0.0
 10
133.9401448232858
 20
-151.2510606175692
 30
0.0
 10
133.9401448232858
 20
-151.2634629613161
 30
0.0
 10
133.9105170021126
 20
-151.29756940662
 30
0.0
 10
133.9012152443024
 20
-151.3058376357846
 30
0.0
 10
133.8994926965598
 20
-151.5025525879924
 30
0.0
 10
133.8994926965598
 20
-151.5239121800009
 30
0.0
 10
133.8994926965598
 20
-151.6572373752801
 30
0.0
 10
133.8974256392687
 20
-151.669639719027
 30
0.0
 10
133.8974256392687
 20
-151.6844536296136
 30
0.0
 10
133.8974256392687
 20
-151.6992675402002
 30
0.0
 10
133.8974256392687
 20
-151.6992675402002
 30
0.0
 10
133.8974256392687
 20
-152.234635378608
 30
0.0
 10
133.8974256392687
 20
-152.234635378608
 30
0.0
 10
133.8974256392687
 20
-152.3066378742497
 30
0.0
 10
133.9012152443024
 20
-152.5412488767952
 30
0.0
 10
133.90879445437
 20
-152.6514919323232
 30
0.0
 10
133.90879445437
 20
-152.6514919323232
 30
0.0
 10
133.695543043833
 20
-152.6514919323232
 30
0.0
 10
133.695543043833
 20
-152.6514919323232
 30
0.0
 10
133.715869107196
 20
-152.4926730304532
 30
0.0
 10
133.7217257695209
 20
-152.2515163464857
 30
0.0
 10
133.7217257695209
 20
-152.2305012640257
 30
0.0
 10
133.7217257695209
 20
-152.2305012640257
 30
0.0
 10
133.7217257695209
 20
-151.5132323839967
 30
0.0
 10
133.7217257695209
 20
-151.5132323839967
 30
0.0
 10
133.6421440638117
 20
-151.627609554107
 30
0.0
 10
133.5884005742418
 20
-151.6865206869048
 30
0.0
 10
133.5511935430011
 20
-151.7288953613733
 30
0.0
 10
133.5511935430011
 20
-151.7288953613733
 30
0.0
 10
133.384450921515
 20
-151.5914360515118
 30
0.0
 10
133.384450921515
 20
-151.5914360515118
 30
0.0
 10
133.6307752487103
 20
-151.3757730741352
 30
0.0
 10
133.799240417939
 20
-151.0667480091083
 30
0.0
 10
133.8974256392687
 20
-150.7305066897479
 30
0.0
 10
133.8974256392687
 20
-150.7305066897479
 30
0.0
 10
134.0900064768941
 20
-150.8448838598582
 30
0.0
 10
134.0900064768941
 20
-150.8448838598582
 30
0.0
 10
134.1010307824469
 20
-150.8510850317317
 30
0.0
 10
134.1086099925145
 20
-150.8552191463139
 30
0.0
 10
134.1086099925145
 20
-150.8700330569005
 30
0.0
 10
134.1086099925145
 20
-150.8955267634914
 30
0.0
 10
134.0937960819279
 20
-150.8996608780737
 30
0.0
 10
134.0290282868052
 20
-150.9144747886602
 30
0.0
  0
HATCH
  5
9E
330
7D
100
AcDbEntity
  8
レイヤー 1
 62
   250
420
  2299925
440
 33554687
100
AcDbHatch
 10
0.0
 20
0.0
 30
0.0
210
0.0
220
0.0
230
1.0
  2
SOLID
 70
     1
 71
     1
 91
        3
 92
        1
 93
        1
 72
     4
 94
        3
 73
     0
 74
     0
 95
       20
 96
       16
 40
0.0
 40
0.0
 40
0.0
 40
0.0
 40
1.0
 40
1.0
 40
1.0
 40
2.0
 40
2.0
 40
2.0
 40
3.0
 40
3.0
 40
3.0
 40
4.0
 40
4.0
 40
4.0
 40
5.0
 40
5.0
 40
5.0
 40
5.0
 10
134.3621690202289
 20
-152.1395507432151
 10
134.321516893503
 20
-151.9617838161762
 10
134.2364230350173
 20
-151.8198458821839
 10
134.1141221452909
 20
-151.7099473362044
 10
134.1141221452909
 20
-151.7099473362044
 10
134.2550265506376
 20
-151.5955701660941
 10
134.2550265506376
 20
-151.5955701660941
 10
134.308425530659
 20
-151.6379448405627
 10
134.3439100141571
 20
-151.6717067763182
 10
134.4104003570224
 20
-151.779882774555
 10
134.4806803049215
 20
-151.8959824924079
 10
134.4992838205418
 20
-151.9490369628808
 10
134.521676941196
 20
-152.0144937771005
 10
134.521676941196
 20
-152.0144937771005
 10
134.3621690202289
 20
-152.1395507432151
 10
134.3621690202289
 20
-152.1395507432151
 97
        0
 97
        1
330
9B
 92
        1
 93
        1
 72
     4
 94
        3
 73
     0
 74
     0
 95
       77
 96
       73
 40
0.0
 40
0.0
 40
0.0
 40
0.0
 40
1.0
 40
1.0
 40
1.0
 40
2.0
 40
2.0
 40
2.0
 40
3.0
 40
3.0
 40
3.0
 40
4.0
 40
4.0
 40
4.0
 40
5.0
 40
5.0
 40
5.0
 40
6.0
 40
6.0
 40
6.0
 40
7.0
 40
7.0
 40
7.0
 40
8.0
 40
8.0
 40
8.0
 40
9.0
 40
9.0
 40
9.0
 40
10.0
 40
10.0
 40
10.0
 40
11.0
 40
11.0
 40
11.0
 40
12.0
 40
12.0
 40
12.0
 40
13.0
 40
13.0
 40
13.0
 40
14.0
 40
14.0
 40
14.0
 40
15.0
 40
15.0
 40
15.0
 40
16.0
 40
16.0
 40
16.0
 40
17.0
 40
17.0
 40
17.0
 40
18.0
 40
18.0
 40
18.0
 40
19.0
 40
19.0
 40
19.0
 40
20.0
 40
20.0
 40
20.0
 40
21.0
 40
21.0
 40
21.0
 40
22.0
 40
22.0
 40
22.0
 40
23.0
 40
23.0
 40
23.0
 40
24.0
 40
24.0
 40
24.0
 40
24.0
 10
135.0363742066923
 20
-151.413669124473
 10
134.9753960166033
 20
-151.4095350098906
 10
134.916140374257
 20
-151.4095350098906
 10
134.8568847319107
 20
-151.4095350098906
 10
134.8568847319107
 20
-151.4095350098906
 10
134.8568847319107
 20
-152.1839924749748
 10
134.8568847319107
 20
-152.1839924749748
 10
134.8568847319107
 20
-152.4482312986935
 10
134.8548176746196
 20
-152.4778591198666
 10
134.8493055218432
 20
-152.5074869410398
 10
134.8196777006701
 20
-152.6408121363189
 10
134.7307942371506
 20
-152.6490803654835
 10
134.5771429785085
 20
-152.6490803654835
 10
134.5420030045589
 20
-152.6490803654835
 10
134.5271890939723
 20
-152.6490803654835
 10
134.4920491200228
 20
-152.6449462509012
 10
134.4920491200228
 20
-152.6449462509012
 10
134.3828395931404
 20
-152.4037895669338
 10
134.3828395931404
 20
-152.4037895669338
 10
134.4844699099552
 20
-152.4354844453981
 10
134.5568169151455
 20
-152.4354844453981
 10
134.5771429785085
 20
-152.4354844453981
 10
134.6381211685974
 20
-152.4354844453981
 10
134.6677489897705
 20
-152.4186034775203
 10
134.6715385948043
 20
-152.3614148924652
 10
134.6715385948043
 20
-152.3486680391697
 10
134.673261142547
 20
-152.2515163464857
 10
134.673261142547
 20
-152.1943277614306
 10
134.673261142547
 20
-152.1943277614306
 10
134.673261142547
 20
-151.4074679525995
 10
134.673261142547
 20
-151.4074679525995
 10
134.673261142547
 20
-151.4074679525995
 10
134.4159125097988
 20
-151.4074679525995
 10
134.4159125097988
 20
-151.4074679525995
 10
134.288099467296
 20
-151.4074679525995
 10
134.1602864247932
 20
-151.413669124473
 10
134.0345404395816
 20
-151.4264159777684
 10
134.0345404395816
 20
-151.4264159777684
 10
134.0345404395816
 20
-151.2190212295563
 10
134.0345404395816
 20
-151.2190212295563
 10
134.1661430871182
 20
-151.2317680828518
 10
134.3566568674525
 20
-151.2362467069826
 10
134.4159125097988
 20
-151.2362467069826
 10
134.4159125097988
 20
-151.2362467069826
 10
134.673261142547
 20
-151.2362467069826
 10
134.673261142547
 20
-151.2362467069826
 10
134.6715385948043
 20
-150.9675292591331
 10
134.6715385948043
 20
-150.8913926489091
 10
134.6639593847368
 20
-150.7432535430433
 10
134.6639593847368
 20
-150.7432535430433
 10
134.8899576485692
 20
-150.7811495933811
 10
134.8899576485692
 20
-150.7811495933811
 10
134.9030490114131
 20
-150.7832166506722
 10
134.916140374257
 20
-150.7897623320942
 10
134.916140374257
 20
-150.8107774145542
 10
134.916140374257
 20
-150.8300699492716
 10
134.9102837119321
 20
-150.8321370065628
 10
134.860329827396
 20
-150.8658989423182
 10
134.8568847319107
 20
-150.9441026098334
 10
134.8568847319107
 20
-150.95891652042
 10
134.8568847319107
 20
-151.2362467069826
 10
135.0122585382955
 20
-151.2317680828518
 10
135.0287949966247
 20
-151.2317680828518
 10
135.0584228177979
 20
-151.2276339682695
 10
135.1028645495576
 20
-151.2234998536872
 10
135.1066541545914
 20
-151.221432796396
 10
135.1455837335747
 20
-151.2190212295563
 10
135.1455837335747
 20
-151.2190212295563
 10
135.1455837335747
 20
-151.4264159777684
 10
135.1455837335747
 20
-151.4264159777684
 10
135.1197455174353
 20
-151.4243489204772
 10
135.0715141806418
 20
-151.4157361817641
 10
135.0363742066923
 20
-151.413669124473
 97
        0
 97
        1
330
9C
 92
        1
 93
        1
 72
     4
 94
        3
 73
     0
 74
     0
 95
       53
 96
       49
 40
0.0
 40
0.0
 40
0.0
 40
0.0
 40
1.0
 40
1.0
 40
1.0
 40
2.0
 40
2.0
 40
2.0
 40
3.0
 40
3.0
 40
3.0
 40
4.0
 40
4.0
 40
4.0
 40
5.0
 40
5.0
 40
5.0
 40
6.0
 40
6.0
 40
6.0
 40
7.0
 40
7.0
 40
7.0
 40
8.0
 40
8.0
 40
8.0
 40
9.0
 40
9.0
 40
9.0
 40
10.0
 40
10.0
 40
10.0
 40
11.0
 40
11.0
 40
11.0
 40
12.0
 40
12.0
 40
12.0
 40
13.0
 40
13.0
 40
13.0
 40
14.0
 40
14.0
 40
14.0
 40
15.0
 40
15.0
 40
15.0
 40
16.0
 40
16.0
 40
16.0
 40
16.0
 10
134.0290282868052
 20
-150.9144747886602
 10
133.9697726444589
 20
-151.0667480091083
 10
133.9325656132182
 20
-151.1449516766235
 10
133.8994926965598
 20
-151.2128200576829
 10
133.936355218252
 20
-151.2338351401429
 10
133.9401448232858
 20
-151.2362467069826
 10
133.9401448232858
 20
-151.2510606175692
 10
133.9401448232858
 20
-151.2634629613161
 10
133.9105170021126
 20
-151.29756940662
 10
133.9012152443024
 20
-151.3058376357846
 10
133.8994926965598
 20
-151.5025525879924
 10
133.8994926965598
 20
-151.5239121800009
 10
133.8994926965598
 20
-151.6572373752801
 10
133.8974256392687
 20
-151.669639719027
 10
133.8974256392687
 20
-151.6844536296136
 10
133.8974256392687
 20
-151.6992675402002
 10
133.8974256392687
 20
-151.6992675402002
 10
133.8974256392687
 20
-152.234635378608
 10
133.8974256392687
 20
-152.234635378608
 10
133.8974256392687
 20
-152.3066378742497
 10
133.9012152443024
 20
-152.5412488767952
 10
133.90879445437
 20
-152.6514919323232
 10
133.90879445437
 20
-152.6514919323232
 10
133.695543043833
 20
-152.6514919323232
 10
133.695543043833
 20
-152.6514919323232
 10
133.715869107196
 20
-152.4926730304532
 10
133.7217257695209
 20
-152.2515163464857
 10
133.7217257695209
 20
-152.2305012640257
 10
133.7217257695209
 20
-152.2305012640257
 10
133.7217257695209
 20
-151.5132323839967
 10
133.7217257695209
 20
-151.5132323839967
 10
133.6421440638117
 20
-151.627609554107
 10
133.5884005742418
 20
-151.6865206869048
 10
133.5511935430011
 20
-151.7288953613733
 10
133.5511935430011
 20
-151.7288953613733
 10
133.384450921515
 20
-151.5914360515118
 10
133.384450921515
 20
-151.5914360515118
 10
133.6307752487103
 20
-151.3757730741352
 10
133.799240417939
 20
-151.0667480091083
 10
133.8974256392687
 20
-150.7305066897479
 10
133.8974256392687
 20
-150.7305066897479
 10
134.0900064768941
 20
-150.8448838598582
 10
134.0900064768941
 20
-150.8448838598582
 10
134.1010307824469
 20
-150.8510850317317
 10
134.1086099925145
 20
-150.8552191463139
 10
134.1086099925145
 20
-150.8700330569005
 10
134.1086099925145
 20
-150.8955267634914
 10
134.0937960819279
 20
-150.8996608780737
 10
134.0290282868052
 20
-150.9144747886602
 97
        0
 97
        1
330
9D
 75
     2
 76
     1
 98
        1
 10
0.0
 20
0.0
450
        0
451
        0
460
0.0
461
0.0
452
        0
462
0.0
453
        0
470

  0
ENDBLK
  5
80
330
7D
100
AcDbEntity
  8
0
100
AcDbBlockEnd
  0
BLOCK
  5
10B
330
109
100
AcDbEntity
  8
0
100
AcDbBlockBegin
  2
Block_2
 70
     0
 10
0.0
 20
0.0
 30
0.0
  3
Block_2
  1

  0
INSERT
  5
10E
330
109
100
AcDbEntity
  8
レイヤー 1
100
AcDbBlockReference
  2
Block_3
 10
0.0
 20
0.0
 30
0.0
  0
ENDBLK
  5
10C
330
109
100
AcDbEntity
  8
0
100
AcDbBlockEnd
  0
BLOCK
  5
10F
330
10D
100
AcDbEntity
  8
0
100
AcDbBlockBegin
  2
Block_3
 70
     0
 10
0.0
 20
0.0
 30
0.0
  3
Block_3
  1

  0
SPLINE
  5
111
330
10D
100
AcDbEntity
  8
レイヤー 1
100
AcDbSpline
210
0.0
220
0.0
230
1.0
 70
     9
 71
     3
 72
    17
 73
    13
 74
     0
 42
0.0000000001
 43
0.0000000001
 40
0.0
 40
0.0
 40
0.0
 40
0.0
 40
1.0
 40
1.0
 40
1.0
 40
2.0
 40
2.0
 40
2.0
 40
3.0
 40
3.0
 40
3.0
 40
4.0
 40
4.0
 40
4.0
 40
4.0
 10
73.83184134438926
 20
-146.812916358696
 30
0.0
 10
73.83184134438926
 20
-147.0626857813767
 30
0.0
 10
74.11520044805107
 20
-147.1091945704275
 30
0.0
 10
74.46005450612457
 20
-147.1091945704275
 30
0.0
 10
74.77958711238149
 20
-147.1091945704275
 30
0.0
 10
75.08843992263414
 20
-147.0730210678324
 30
0.0
 10
75.08843992263414
 20
-146.812916358696
 30
0.0
 10
75.08843992263414
 20
-146.5652139933066
 30
0.0
 10
74.80697562148923
 20
-146.5166381469646
 30
0.0
 10
74.46005450612457
 20
-146.5166381469646
 30
0.0
 10
74.1406941546419
 20
-146.5166381469646
 30
0.0
 10
73.83184134438926
 20
-146.5548787068508
 30
0.0
 10
73.83184134438926
 20
-146.812916358696
 30
0.0
  0
SPLINE
  5
112
330
10D
100
AcDbEntity
  8
レイヤー 1
100
AcDbSpline
210
0.0
220
0.0
230
1.0
 70
     9
 71
     3
 72
    29
 73
    25
 74
     0
 42
0.0000000001
 43
0.0000000001
 40
0.0
 40
0.0
 40
0.0
 40
0.0
 40
1.0
 40
1.0
 40
1.0
 40
2.0
 40
2.0
 40
2.0
 40
3.0
 40
3.0
 40
3.0
 40
4.0
 40
4.0
 40
4.0
 40
5.0
 40
5.0
 40
5.0
 40
6.0
 40
6.0
 40
6.0
 40
7.0
 40
7.0
 40
7.0
 40
8.0
 40
8.0
 40
8.0
 40
8.0
 10
75.05450573210443
 20
-146.4150078301497
 30
0.0
 10
75.26396753760763
 20
-146.5231838283866
 30
0.0
 10
75.28308781755076
 20
-146.6964721312946
 30
0.0
 10
75.28308781755076
 20
-146.812916358696
 30
0.0
 10
75.28308781755076
 20
-146.9738023178572
 30
0.0
 10
75.23657902849989
 20
-147.115395742301
 30
0.0
 10
75.05450573210443
 20
-147.2104803776939
 30
0.0
 10
74.86003009196207
 20
-147.3141777517999
 30
0.0
 10
74.62300752257688
 20
-147.3334702865173
 30
0.0
 10
74.46005450612457
 20
-147.3334702865173
 30
0.0
 10
74.31622176961539
 20
-147.3334702865173
 30
0.0
 10
74.0645575444179
 20
-147.316244809091
 30
0.0
 10
73.86560328014471
 20
-147.2104803776939
 30
0.0
 10
73.66251490128924
 20
-147.1026488890056
 30
0.0
 10
73.6392605067638
 20
-146.9417629298444
 30
0.0
 10
73.6392605067638
 20
-146.812916358696
 30
0.0
 10
73.6392605067638
 20
-146.654097456826
 30
0.0
 10
73.68370223852352
 20
-146.5104369750911
 30
0.0
 10
73.86560328014471
 20
-146.4150078301497
 30
0.0
 10
74.05818411777018
 20
-146.3157890801745
 30
0.0
 10
74.28659394844224
 20
-146.2923624308748
 30
0.0
 10
74.46005450612457
 20
-146.2923624308748
 30
0.0
 10
74.63144800651575
 20
-146.2923624308748
 30
0.0
 10
74.86209714925323
 20
-146.3137220228833
 30
0.0
 10
75.05450573210443
 20
-146.4150078301497
 30
0.0
  0
HATCH
  5
113
330
10D
100
AcDbEntity
  8
レイヤー 1
 62
    18
420
        0
440
 33554687
100
AcDbHatch
 10
0.0
 20
0.0
 30
0.0
210
0.0
220
0.0
230
1.0
  2
SOLID
 70
     1
 71
     1
 91
        2
 92
        1
 93
        1
 72
     4
 94
        3
 73
     0
 74
     0
 95
       17
 96
       13
 40
0.0
 40
0.0
 40
0.0
 40
0.0
 40
1.0
 40
1.0
 40
1.0
 40
2.0
 40
2.0
 40
2.0
 40
3.0
 40
3.0
 40
3.0
 40
4.0
 40
4.0
 40
4.0
 40
4.0
 10
73.83184134438926
 20
-146.812916358696
 10
73.83184134438926
 20
-147.0626857813767
 10
74.11520044805107
 20
-147.1091945704275
 10
74.46005450612457
 20
-147.1091945704275
 10
74.77958711238149
 20
-147.1091945704275
 10
75.08843992263414
 20
-147.0730210678324
 10
75.08843992263414
 20
-146.812916358696
 10
75.08843992263414
 20
-146.5652139933066
 10
74.80697562148923
 20
-146.5166381469646
 10
74.46005450612457
 20
-146.5166381469646
 10
74.1406941546419
 20
-146.5166381469646
 10
73.83184134438926
 20
-146.5548787068508
 10
73.83184134438926
 20
-146.812916358696
 97
        0
 97
        1
330
111
 92
        1
 93
        1
 72
     4
 94
        3
 73
     0
 74
     0
 95
       29
 96
       25
 40
0.0
 40
0.0
 40
0.0
 40
0.0
 40
1.0
 40
1.0
 40
1.0
 40
2.0
 40
2.0
 40
2.0
 40
3.0
 40
3.0
 40
3.0
 40
4.0
 40
4.0
 40
4.0
 40
5.0
 40
5.0
 40
5.0
 40
6.0
 40
6.0
 40
6.0
 40
7.0
 40
7.0
 40
7.0
 40
8.0
 40
8.0
 40
8.0
 40
8.0
 10
75.05450573210443
 20
-146.4150078301497
 10
75.26396753760763
 20
-146.5231838283866
 10
75.28308781755076
 20
-146.6964721312946
 10
75.28308781755076
 20
-146.812916358696
 10
75.28308781755076
 20
-146.9738023178572
 10
75.23657902849989
 20
-147.115395742301
 10
75.05450573210443
 20
-147.2104803776939
 10
74.86003009196207
 20
-147.3141777517999
 10
74.62300752257688
 20
-147.3334702865173
 10
74.46005450612457
 20
-147.3334702865173
 10
74.31622176961539
 20
-147.3334702865173
 10
74.0645575444179
 20
-147.316244809091
 10
73.86560328014471
 20
-147.2104803776939
 10
73.66251490128924
 20
-147.1026488890056
 10
73.6392605067638
 20
-146.9417629298444
 10
73.6392605067638
 20
-146.812916358696
 10
73.6392605067638
 20
-146.654097456826
 10
73.68370223852352
 20
-146.5104369750911
 10
73.86560328014471
 20
-146.4150078301497
 10
74.05818411777018
 20
-146.3157890801745
 10
74.28659394844224
 20
-146.2923624308748
 10
74.46005450612457
 20
-146.2923624308748
 10
74.63144800651575
 20
-146.2923624308748
 10
74.86209714925323
 20
-146.3137220228833
 10
75.05450573210443
 20
-146.4150078301497
 97
        0
 97
        1
330
112
 75
     2
 76
     1
 98
        1
 10
0.0
 20
0.0
450
        0
451
        0
460
0.0
461
0.0
452
        0
462
0.0
453
        0
470

  0
SPLINE
  5
114
330
10D
100
AcDbEntity
  8
レイヤー 1
100
AcDbSpline
210
0.0
220
0.0
230
1.0
 70
    11
 71
     3
 72
    17
 73
    13
 74
     0
 42
0.0000000001
 43
0.0000000001
 40
0.0
 40
0.0
 40
0.0
 40
0.0
 40
1.0
 40
1.0
 40
1.0
 40
2.0
 40
2.0
 40
2.0
 40
3.0
 40
3.0
 40
3.0
 40
4.0
 40
4.0
 40
4.0
 40
4.0
 10
75.23227265914332
 20
-146.0760104344011
 30
0.0
 10
75.23227265914332
 20
-146.0760104344011
 30
0.0
 10
74.98060843394582
 20
-146.0760104344011
 30
0.0
 10
74.98060843394582
 20
-146.0760104344011
 30
0.0
 10
74.98060843394582
 20
-146.0760104344011
 30
0.0
 10
74.98060843394582
 20
-145.8241739544293
 30
0.0
 10
74.98060843394582
 20
-145.8241739544293
 30
0.0
 10
74.98060843394582
 20
-145.8241739544293
 30
0.0
 10
75.23227265914332
 20
-145.8241739544293
 30
0.0
 10
75.23227265914332
 20
-145.8241739544293
 30
0.0
 10
75.23227265914332
 20
-145.8241739544293
 30
0.0
 10
75.23227265914332
 20
-146.0760104344011
 30
0.0
 10
75.23227265914332
 20
-146.0760104344011
 30
0.0
  0
HATCH
  5
115
330
10D
100
AcDbEntity
  8
レイヤー 1
 62
    18
420
        0
440
 33554687
100
AcDbHatch
 10
0.0
 20
0.0
 30
0.0
210
0.0
220
0.0
230
1.0
  2
SOLID
 70
     1
 71
     1
 91
        1
 92
        1
 93
        1
 72
     4
 94
        3
 73
     0
 74
     0
 95
       17
 96
       13
 40
0.0
 40
0.0
 40
0.0
 40
0.0
 40
1.0
 40
1.0
 40
1.0
 40
2.0
 40
2.0
 40
2.0
 40
3.0
 40
3.0
 40
3.0
 40
4.0
 40
4.0
 40
4.0
 40
4.0
 10
75.23227265914332
 20
-146.0760104344011
 10
75.23227265914332
 20
-146.0760104344011
 10
74.98060843394582
 20
-146.0760104344011
 10
74.98060843394582
 20
-146.0760104344011
 10
74.98060843394582
 20
-146.0760104344011
 10
74.98060843394582
 20
-145.8241739544293
 10
74.98060843394582
 20
-145.8241739544293
 10
74.98060843394582
 20
-145.8241739544293
 10
75.23227265914332
 20
-145.8241739544293
 10
75.23227265914332
 20
-145.8241739544293
 10
75.23227265914332
 20
-145.8241739544293
 10
75.23227265914332
 20
-146.0760104344011
 10
75.23227265914332
 20
-146.0760104344011
 97
        0
 97
        1
330
114
 75
     2
 76
     1
 98
        1
 10
0.0
 20
0.0
450
        0
451
        0
460
0.0
461
0.0
452
        0
462
0.0
453
        0
470

  0
SPLINE
  5
116
330
10D
100
AcDbEntity
  8
レイヤー 1
100
AcDbSpline
210
0.0
220
0.0
230
1.0
 70
     9
 71
     3
 72
    53
 73
    49
 74
     0
 42
0.0000000001
 43
0.0000000001
 40
0.0
 40
0.0
 40
0.0
 40
0.0
 40
1.0
 40
1.0
 40
1.0
 40
2.0
 40
2.0
 40
2.0
 40
3.0
 40
3.0
 40
3.0
 40
4.0
 40
4.0
 40
4.0
 40
5.0
 40
5.0
 40
5.0
 40
6.0
 40
6.0
 40
6.0
 40
7.0
 40
7.0
 40
7.0
 40
8.0
 40
8.0
 40
8.0
 40
9.0
 40
9.0
 40
9.0
 40
10.0
 40
10.0
 40
10.0
 40
11.0
 40
11.0
 40
11.0
 40
12.0
 40
12.0
 40
12.0
 40
13.0
 40
13.0
 40
13.0
 40
14.0
 40
14.0
 40
14.0
 40
15.0
 40
15.0
 40
15.0
 40
16.0
 40
16.0
 40
16.0
 40
16.0
 10
75.28308781755076
 20
-145.1069050744004
 30
0.0
 10
75.28308781755076
 20
-145.1851087419155
 30
0.0
 10
75.26620684967304
 20
-145.2867390587304
 30
0.0
 10
75.20264483797017
 20
-145.3883693755452
 30
0.0
 10
75.09257403721644
 20
-145.5616576784533
 30
0.0
 10
74.96148815400268
 20
-145.5830172704619
 30
0.0
 10
74.85365666531436
 20
-145.6019652956308
 30
0.0
 10
74.85365666531436
 20
-145.6019652956308
 30
0.0
 10
74.85365666531436
 20
-145.3797566368321
 30
0.0
 10
74.85365666531436
 20
-145.3797566368321
 30
0.0
 10
75.05243867481329
 20
-145.3249796186167
 30
0.0
 10
75.08206649598642
 20
-145.1978555952109
 30
0.0
 10
75.08206649598642
 20
-145.1048380171092
 30
0.0
 10
75.08206649598642
 20
-144.9653116499566
 30
0.0
 10
74.98267549123697
 20
-144.8130384295085
 30
0.0
 10
74.74995929120834
 20
-144.8130384295085
 30
0.0
 10
74.49398869665428
 20
-144.8130384295085
 30
0.0
 10
74.42422551307797
 20
-144.9928724138386
 30
0.0
 10
74.42422551307797
 20
-145.1134507558223
 30
0.0
 10
74.42422551307797
 20
-145.1451456342866
 30
0.0
 10
74.42422551307797
 20
-145.2867390587304
 30
0.0
 10
74.55324433900059
 20
-145.3756225222498
 30
0.0
 10
74.55324433900059
 20
-145.3756225222498
 30
0.0
 10
74.53412405905744
 20
-145.5513223919976
 30
0.0
 10
74.53412405905744
 20
-145.5513223919976
 30
0.0
 10
74.53412405905744
 20
-145.5513223919976
 30
0.0
 10
73.68800860788008
 20
-145.4307440500138
 30
0.0
 10
73.68800860788008
 20
-145.4307440500138
 30
0.0
 10
73.68800860788008
 20
-145.4307440500138
 30
0.0
 10
73.68800860788008
 20
-144.6521524703473
 30
0.0
 10
73.68800860788008
 20
-144.6521524703473
 30
0.0
 10
73.68800860788008
 20
-144.6521524703473
 30
0.0
 10
73.8826565027967
 20
-144.6521524703473
 30
0.0
 10
73.8826565027967
 20
-144.6521524703473
 30
0.0
 10
73.8826565027967
 20
-144.6521524703473
 30
0.0
 10
73.8826565027967
 20
-145.2677910335615
 30
0.0
 10
73.8826565027967
 20
-145.2677910335615
 30
0.0
 10
73.8826565027967
 20
-145.2677910335615
 30
0.0
 10
74.30571422838538
 20
-145.3332478477812
 30
0.0
 10
74.30571422838538
 20
-145.3332478477812
 30
0.0
 10
74.27178003785567
 20
-145.2719251481438
 30
0.0
 10
74.23164467545252
 20
-145.1895873660463
 30
0.0
 10
74.23164467545252
 20
-145.0710760813537
 30
0.0
 10
74.23164467545252
 20
-144.8171725440908
 30
0.0
 10
74.41785208643025
 20
-144.5801499747056
 30
0.0
 10
74.7308390112652
 20
-144.5801499747056
 30
0.0
 10
75.04830456023099
 20
-144.5801499747056
 30
0.0
 10
75.28308781755076
 20
-144.8044256907954
 30
0.0
 10
75.28308781755076
 20
-145.1069050744004
 30
0.0
  0
HATCH
  5
117
330
10D
100
AcDbEntity
  8
レイヤー 1
 62
    18
420
        0
440
 33554687
100
AcDbHatch
 10
0.0
 20
0.0
 30
0.0
210
0.0
220
0.0
230
1.0
  2
SOLID
 70
     1
 71
     1
 91
        1
 92
        1
 93
        1
 72
     4
 94
        3
 73
     0
 74
     0
 95
       53
 96
       49
 40
0.0
 40
0.0
 40
0.0
 40
0.0
 40
1.0
 40
1.0
 40
1.0
 40
2.0
 40
2.0
 40
2.0
 40
3.0
 40
3.0
 40
3.0
 40
4.0
 40
4.0
 40
4.0
 40
5.0
 40
5.0
 40
5.0
 40
6.0
 40
6.0
 40
6.0
 40
7.0
 40
7.0
 40
7.0
 40
8.0
 40
8.0
 40
8.0
 40
9.0
 40
9.0
 40
9.0
 40
10.0
 40
10.0
 40
10.0
 40
11.0
 40
11.0
 40
11.0
 40
12.0
 40
12.0
 40
12.0
 40
13.0
 40
13.0
 40
13.0
 40
14.0
 40
14.0
 40
14.0
 40
15.0
 40
15.0
 40
15.0
 40
16.0
 40
16.0
 40
16.0
 40
16.0
 10
75.28308781755076
 20
-145.1069050744004
 10
75.28308781755076
 20
-145.1851087419155
 10
75.26620684967304
 20
-145.2867390587304
 10
75.20264483797017
 20
-145.3883693755452
 10
75.09257403721644
 20
-145.5616576784533
 10
74.96148815400268
 20
-145.5830172704619
 10
74.85365666531436
 20
-145.6019652956308
 10
74.85365666531436
 20
-145.6019652956308
 10
74.85365666531436
 20
-145.3797566368321
 10
74.85365666531436
 20
-145.3797566368321
 10
75.05243867481329
 20
-145.3249796186167
 10
75.08206649598642
 20
-145.1978555952109
 10
75.08206649598642
 20
-145.1048380171092
 10
75.08206649598642
 20
-144.9653116499566
 10
74.98267549123697
 20
-144.8130384295085
 10
74.74995929120834
 20
-144.8130384295085
 10
74.49398869665428
 20
-144.8130384295085
 10
74.42422551307797
 20
-144.9928724138386
 10
74.42422551307797
 20
-145.1134507558223
 10
74.42422551307797
 20
-145.1451456342866
 10
74.42422551307797
 20
-145.2867390587304
 10
74.55324433900059
 20
-145.3756225222498
 10
74.55324433900059
 20
-145.3756225222498
 10
74.53412405905744
 20
-145.5513223919976
 10
74.53412405905744
 20
-145.5513223919976
 10
74.53412405905744
 20
-145.5513223919976
 10
73.68800860788008
 20
-145.4307440500138
 10
73.68800860788008
 20
-145.4307440500138
 10
73.68800860788008
 20
-145.4307440500138
 10
73.68800860788008
 20
-144.6521524703473
 10
73.68800860788008
 20
-144.6521524703473
 10
73.68800860788008
 20
-144.6521524703473
 10
73.8826565027967
 20
-144.6521524703473
 10
73.8826565027967
 20
-144.6521524703473
 10
73.8826565027967
 20
-144.6521524703473
 10
73.8826565027967
 20
-145.2677910335615
 10
73.8826565027967
 20
-145.2677910335615
 10
73.8826565027967
 20
-145.2677910335615
 10
74.30571422838538
 20
-145.3332478477812
 10
74.30571422838538
 20
-145.3332478477812
 10
74.27178003785567
 20
-145.2719251481438
 10
74.23164467545252
 20
-145.1895873660463
 10
74.23164467545252
 20
-145.0710760813537
 10
74.23164467545252
 20
-144.8171725440908
 10
74.41785208643025
 20
-144.5801499747056
 10
74.7308390112652
 20
-144.5801499747056
 10
75.04830456023099
 20
-144.5801499747056
 10
75.28308781755076
 20
-144.8044256907954
 10
75.28308781755076
 20
-145.1069050744004
 97
        0
 97
        1
330
116
 75
     2
 76
     1
 98
        1
 10
0.0
 20
0.0
450
        0
451
        0
460
0.0
461
0.0
452
        0
462
0.0
453
        0
470

  0
ENDBLK
  5
110
330
10D
100
AcDbEntity
  8
0
100
AcDbBlockEnd
  0
BLOCK
  5
11C
330
11A
100
AcDbEntity
  8
0
100
AcDbBlockBegin
  2
Block_4
 70
     0
 10
0.0
 20
0.0
 30
0.0
  3
Block_4
  1

  0
INSERT
  5
11F
330
11A
100
AcDbEntity
  8
レイヤー 1
100
AcDbBlockReference
  2
Block_5
 10
0.0
 20
0.0
 30
0.0
  0
ENDBLK
  5
11D
330
11A
100
AcDbEntity
  8
0
100
AcDbBlockEnd
  0
BLOCK
  5
120
330
11E
100
AcDbEntity
  8
0
100
AcDbBlockBegin
  2
Block_5
 70
     0
 10
0.0
 20
0.0
 30
0.0
  3
Block_5
  1

  0
SPLINE
  5
122
330
11E
100
AcDbEntity
  8
レイヤー 1
100
AcDbSpline
210
0.0
220
0.0
230
1.0
 70
     9
 71
     3
 72
    44
 73
    40
 74
     0
 42
0.0000000001
 43
0.0000000001
 40
0.0
 40
0.0
 40
0.0
 40
0.0
 40
1.0
 40
1.0
 40
1.0
 40
2.0
 40
2.0
 40
2.0
 40
3.0
 40
3.0
 40
3.0
 40
4.0
 40
4.0
 40
4.0
 40
5.0
 40
5.0
 40
5.0
 40
6.0
 40
6.0
 40
6.0
 40
7.0
 40
7.0
 40
7.0
 40
8.0
 40
8.0
 40
8.0
 40
9.0
 40
9.0
 40
9.0
 40
10.0
 40
10.0
 40
10.0
 40
11.0
 40
11.0
 40
11.0
 40
12.0
 40
12.0
 40
12.0
 40
13.0
 40
13.0
 40
13.0
 40
13.0
 10
90.60549449774795
 20
-139.600264450777
 30
0.0
 10
90.3875922083059
 20
-139.7589110978728
 30
0.0
 10
90.29440237542988
 20
-139.8329806508056
 30
0.0
 10
90.24582652908785
 20
-139.9768133873148
 30
0.0
 10
90.24582652908785
 20
-139.9768133873148
 30
0.0
 10
91.02424585398004
 20
-139.9768133873148
 30
0.0
 10
91.02424585398004
 20
-139.9768133873148
 30
0.0
 10
91.02424585398004
 20
-139.9768133873148
 30
0.0
 10
91.02424585398004
 20
-140.1819688234614
 30
0.0
 10
91.02424585398004
 20
-140.1819688234614
 30
0.0
 10
91.02424585398004
 20
-140.1819688234614
 30
0.0
 10
89.9962293611815
 20
-140.1819688234614
 30
0.0
 10
89.9962293611815
 20
-140.1819688234614
 30
0.0
 10
90.0279242396458
 20
-139.8243679120925
 30
0.0
 10
90.09338105386554
 20
-139.7461642445773
 30
0.0
 10
90.47854272911648
 20
-139.4478189755547
 30
0.0
 10
90.73451332367055
 20
-139.2490369660558
 30
0.0
 10
90.79997013789029
 20
-139.1813408397706
 30
0.0
 10
90.79997013789029
 20
-139.0438815299092
 30
0.0
 10
90.79997013789029
 20
-138.9253702452166
 30
0.0
 10
90.72813989702282
 20
-138.7941121072285
 30
0.0
 10
90.53142494481505
 20
-138.7941121072285
 30
0.0
 10
90.27114798090444
 20
-138.7941121072285
 30
0.0
 10
90.26270749696557
 20
-139.024761249966
 30
0.0
 10
90.25840112760901
 20
-139.1412054773675
 30
0.0
 10
90.25840112760901
 20
-139.1412054773675
 30
0.0
 10
90.0342976662935
 20
-139.1412054773675
 30
0.0
 10
90.0342976662935
 20
-139.1412054773675
 30
0.0
 10
90.04273815023237
 20
-139.014253708736
 30
0.0
 10
90.05324569146239
 20
-138.9021158506911
 30
0.0
 10
90.13368867104297
 20
-138.7836045659985
 30
0.0
 10
90.24358721702244
 20
-138.6228908616116
 30
0.0
 10
90.42979462800019
 20
-138.5889566710819
 30
0.0
 10
90.54623885540165
 20
-138.5889566710819
 30
0.0
 10
90.82339678719
 20
-138.5889566710819
 30
0.0
 10
91.03061928062777
 20
-138.7730970247685
 30
0.0
 10
91.03061928062777
 20
-139.0459485872003
 30
0.0
 10
91.03061928062777
 20
-139.2743584178724
 30
0.0
 10
90.91434730800058
 20
-139.3739216773961
 30
0.0
 10
90.60549449774795
 20
-139.600264450777
 30
0.0
  0
HATCH
  5
123
330
11E
100
AcDbEntity
  8
レイヤー 1
 62
    18
420
        0
440
 33554687
100
AcDbHatch
 10
0.0
 20
0.0
 30
0.0
210
0.0
220
0.0
230
1.0
  2
SOLID
 70
     1
 71
     1
 91
        1
 92
        1
 93
        1
 72
     4
 94
        3
 73
     0
 74
     0
 95
       44
 96
       40
 40
0.0
 40
0.0
 40
0.0
 40
0.0
 40
1.0
 40
1.0
 40
1.0
 40
2.0
 40
2.0
 40
2.0
 40
3.0
 40
3.0
 40
3.0
 40
4.0
 40
4.0
 40
4.0
 40
5.0
 40
5.0
 40
5.0
 40
6.0
 40
6.0
 40
6.0
 40
7.0
 40
7.0
 40
7.0
 40
8.0
 40
8.0
 40
8.0
 40
9.0
 40
9.0
 40
9.0
 40
10.0
 40
10.0
 40
10.0
 40
11.0
 40
11.0
 40
11.0
 40
12.0
 40
12.0
 40
12.0
 40
13.0
 40
13.0
 40
13.0
 40
13.0
 10
90.60549449774795
 20
-139.600264450777
 10
90.3875922083059
 20
-139.7589110978728
 10
90.29440237542988
 20
-139.8329806508056
 10
90.24582652908785
 20
-139.9768133873148
 10
90.24582652908785
 20
-139.9768133873148
 10
91.02424585398004
 20
-139.9768133873148
 10
91.02424585398004
 20
-139.9768133873148
 10
91.02424585398004
 20
-139.9768133873148
 10
91.02424585398004
 20
-140.1819688234614
 10
91.02424585398004
 20
-140.1819688234614
 10
91.02424585398004
 20
-140.1819688234614
 10
89.9962293611815
 20
-140.1819688234614
 10
89.9962293611815
 20
-140.1819688234614
 10
90.0279242396458
 20
-139.8243679120925
 10
90.09338105386554
 20
-139.7461642445773
 10
90.47854272911648
 20
-139.4478189755547
 10
90.73451332367055
 20
-139.2490369660558
 10
90.79997013789029
 20
-139.1813408397706
 10
90.79997013789029
 20
-139.0438815299092
 10
90.79997013789029
 20
-138.9253702452166
 10
90.72813989702282
 20
-138.7941121072285
 10
90.53142494481505
 20
-138.7941121072285
 10
90.27114798090444
 20
-138.7941121072285
 10
90.26270749696557
 20
-139.024761249966
 10
90.25840112760901
 20
-139.1412054773675
 10
90.25840112760901
 20
-139.1412054773675
 10
90.0342976662935
 20
-139.1412054773675
 10
90.0342976662935
 20
-139.1412054773675
 10
90.04273815023237
 20
-139.014253708736
 10
90.05324569146239
 20
-138.9021158506911
 10
90.13368867104297
 20
-138.7836045659985
 10
90.24358721702244
 20
-138.6228908616116
 10
90.42979462800019
 20
-138.5889566710819
 10
90.54623885540165
 20
-138.5889566710819
 10
90.82339678719
 20
-138.5889566710819
 10
91.03061928062777
 20
-138.7730970247685
 10
91.03061928062777
 20
-139.0459485872003
 10
91.03061928062777
 20
-139.2743584178724
 10
90.91434730800058
 20
-139.3739216773961
 10
90.60549449774795
 20
-139.600264450777
 97
        0
 97
        1
330
122
 75
     2
 76
     1
 98
        1
 10
0.0
 20
0.0
450
        0
451
        0
460
0.0
461
0.0
452
        0
462
0.0
453
        0
470

  0
SPLINE
  5
124
330
11E
100
AcDbEntity
  8
レイヤー 1
100
AcDbSpline
210
0.0
220
0.0
230
1.0
 70
    11
 71
     3
 72
    26
 73
    22
 74
     0
 42
0.0000000001
 43
0.0000000001
 40
0.0
 40
0.0
 40
0.0
 40
0.0
 40
1.0
 40
1.0
 40
1.0
 40
2.0
 40
2.0
 40
2.0
 40
3.0
 40
3.0
 40
3.0
 40
4.0
 40
4.0
 40
4.0
 40
5.0
 40
5.0
 40
5.0
 40
6.0
 40
6.0
 40
6.0
 40
7.0
 40
7.0
 40
7.0
 40
7.0
 10
91.64057343629124
 20
-140.1819688234614
 30
0.0
 10
91.64057343629124
 20
-140.1819688234614
 30
0.0
 10
91.64057343629124
 20
-139.0776434656646
 30
0.0
 10
91.64057343629124
 20
-139.0776434656646
 30
0.0
 10
91.64057343629124
 20
-139.0776434656646
 30
0.0
 10
91.31053328880431
 20
-139.0776434656646
 30
0.0
 10
91.31053328880431
 20
-139.0776434656646
 30
0.0
 10
91.31053328880431
 20
-139.0776434656646
 30
0.0
 10
91.31053328880431
 20
-138.9295043597988
 30
0.0
 10
91.31053328880431
 20
-138.9295043597988
 30
0.0
 10
91.64264049358241
 20
-138.9148627039865
 30
0.0
 10
91.68914928263326
 20
-138.7519096875342
 30
0.0
 10
91.71877710380641
 20
-138.6377047721982
 30
0.0
 10
91.71877710380641
 20
-138.6377047721982
 30
0.0
 10
91.86484915238102
 20
-138.6377047721982
 30
0.0
 10
91.86484915238102
 20
-138.6377047721982
 30
0.0
 10
91.86484915238102
 20
-138.6377047721982
 30
0.0
 10
91.86484915238102
 20
-140.1819688234614
 30
0.0
 10
91.86484915238102
 20
-140.1819688234614
 30
0.0
 10
91.86484915238102
 20
-140.1819688234614
 30
0.0
 10
91.64057343629124
 20
-140.1819688234614
 30
0.0
 10
91.64057343629124
 20
-140.1819688234614
 30
0.0
  0
HATCH
  5
125
330
11E
100
AcDbEntity
  8
レイヤー 1
 62
    18
420
        0
440
 33554687
100
AcDbHatch
 10
0.0
 20
0.0
 30
0.0
210
0.0
220
0.0
230
1.0
  2
SOLID
 70
     1
 71
     1
 91
        1
 92
        1
 93
        1
 72
     4
 94
        3
 73
     0
 74
     0
 95
       26
 96
       22
 40
0.0
 40
0.0
 40
0.0
 40
0.0
 40
1.0
 40
1.0
 40
1.0
 40
2.0
 40
2.0
 40
2.0
 40
3.0
 40
3.0
 40
3.0
 40
4.0
 40
4.0
 40
4.0
 40
5.0
 40
5.0
 40
5.0
 40
6.0
 40
6.0
 40
6.0
 40
7.0
 40
7.0
 40
7.0
 40
7.0
 10
91.64057343629124
 20
-140.1819688234614
 10
91.64057343629124
 20
-140.1819688234614
 10
91.64057343629124
 20
-139.0776434656646
 10
91.64057343629124
 20
-139.0776434656646
 10
91.64057343629124
 20
-139.0776434656646
 10
91.31053328880431
 20
-139.0776434656646
 10
91.31053328880431
 20
-139.0776434656646
 10
91.31053328880431
 20
-139.0776434656646
 10
91.31053328880431
 20
-138.9295043597988
 10
91.31053328880431
 20
-138.9295043597988
 10
91.64264049358241
 20
-138.9148627039865
 10
91.68914928263326
 20
-138.7519096875342
 10
91.71877710380641
 20
-138.6377047721982
 10
91.71877710380641
 20
-138.6377047721982
 10
91.86484915238102
 20
-138.6377047721982
 10
91.86484915238102
 20
-138.6377047721982
 10
91.86484915238102
 20
-138.6377047721982
 10
91.86484915238102
 20
-140.1819688234614
 10
91.86484915238102
 20
-140.1819688234614
 10
91.86484915238102
 20
-140.1819688234614
 10
91.64057343629124
 20
-140.1819688234614
 10
91.64057343629124
 20
-140.1819688234614
 97
        0
 97
        1
330
124
 75
     2
 76
     1
 98
        1
 10
0.0
 20
0.0
450
        0
451
        0
460
0.0
461
0.0
452
        0
462
0.0
453
        0
470

  0
ENDBLK
  5
121
330
11E
100
AcDbEntity
  8
0
100
AcDbBlockEnd
  0
BLOCK
  5
12A
330
128
100
AcDbEntity
  8
0
100
AcDbBlockBegin
  2
Block_6
 70
     0
 10
0.0
 20
0.0
 30
0.0
  3
Block_6
  1

  0
SPLINE
  5
12C
330
128
100
AcDbEntity
  8
レイヤー 1
100
AcDbSpline
210
0.0
220
0.0
230
1.0
 70
     9
 71
     3
 72
    17
 73
    13
 74
     0
 42
0.0000000001
 43
0.0000000001
 40
0.0
 40
0.0
 40
0.0
 40
0.0
 40
1.0
 40
1.0
 40
1.0
 40
2.0
 40
2.0
 40
2.0
 40
3.0
 40
3.0
 40
3.0
 40
4.0
 40
4.0
 40
4.0
 40
4.0
 10
75.22228188223611
 20
-150.1555202532597
 30
0.0
 10
75.22228188223611
 20
-150.2991807349946
 30
0.0
 10
75.30892603369013
 20
-150.4517984649912
 30
0.0
 10
75.51201441254561
 20
-150.4517984649912
 30
0.0
 10
75.71716984869223
 20
-150.4517984649912
 30
0.0
 10
75.81880016550711
 20
-150.3246744415855
 30
0.0
 10
75.81880016550711
 20
-150.1555202532597
 30
0.0
 10
75.81880016550711
 20
-149.9694850970562
 30
0.0
 10
75.69615476623221
 20
-149.8592420415282
 30
0.0
 10
75.51838783919333
 20
-149.8592420415282
 30
0.0
 10
75.2961791803947
 20
-149.8592420415282
 30
0.0
 10
75.22228188223611
 20
-150.0221950579805
 30
0.0
 10
75.22228188223611
 20
-150.1555202532597
 30
0.0
  0
SPLINE
  5
12D
330
128
100
AcDbEntity
  8
レイヤー 1
100
AcDbSpline
210
0.0
220
0.0
230
1.0
 70
     9
 71
     3
 72
    17
 73
    13
 74
     0
 42
0.0000000001
 43
0.0000000001
 40
0.0
 40
0.0
 40
0.0
 40
0.0
 40
1.0
 40
1.0
 40
1.0
 40
2.0
 40
2.0
 40
2.0
 40
3.0
 40
3.0
 40
3.0
 40
4.0
 40
4.0
 40
4.0
 40
4.0
 10
74.56220158726224
 20
-150.1555202532597
 30
0.0
 10
74.56220158726224
 20
-150.3205403270032
 30
0.0
 10
74.65728622265513
 20
-150.4052896759403
 30
0.0
 10
74.79267847522544
 20
-150.4052896759403
 30
0.0
 10
74.9154961292746
 20
-150.4052896759403
 30
0.0
 10
75.0340074139672
 20
-150.3332871802986
 30
0.0
 10
75.0340074139672
 20
-150.1555202532597
 30
0.0
 10
75.0340074139672
 20
-149.9777533262208
 30
0.0
 10
74.9154961292746
 20
-149.9057508305791
 30
0.0
 10
74.79267847522544
 20
-149.9057508305791
 30
0.0
 10
74.65728622265513
 20
-149.9057508305791
 30
0.0
 10
74.56220158726224
 20
-149.9925672368074
 30
0.0
 10
74.56220158726224
 20
-150.1555202532597
 30
0.0
  0
SPLINE
  5
12E
330
128
100
AcDbEntity
  8
レイヤー 1
100
AcDbSpline
210
0.0
220
0.0
230
1.0
 70
     9
 71
     3
 72
    29
 73
    25
 74
     0
 42
0.0000000001
 43
0.0000000001
 40
0.0
 40
0.0
 40
0.0
 40
0.0
 40
1.0
 40
1.0
 40
1.0
 40
2.0
 40
2.0
 40
2.0
 40
3.0
 40
3.0
 40
3.0
 40
4.0
 40
4.0
 40
4.0
 40
5.0
 40
5.0
 40
5.0
 40
6.0
 40
6.0
 40
6.0
 40
7.0
 40
7.0
 40
7.0
 40
8.0
 40
8.0
 40
8.0
 40
8.0
 10
76.01344806042373
 20
-150.1555202532597
 30
0.0
 10
76.01344806042373
 20
-150.4221706438181
 30
0.0
 10
75.87581649578798
 20
-150.676074181081
 30
0.0
 10
75.52682832313218
 20
-150.676074181081
 30
0.0
 10
75.27085772857812
 20
-150.676074181081
 30
0.0
 10
75.17560083841096
 20
-150.5341362470887
 30
0.0
 10
75.11427813877351
 20
-150.4283718156915
 30
0.0
 10
75.05502249642721
 20
-150.5530842722575
 30
0.0
 10
74.94081758109118
 20
-150.6292208824816
 30
0.0
 10
74.78010387670429
 20
-150.6292208824816
 30
0.0
 10
74.50501300220707
 20
-150.6292208824816
 30
0.0
 10
74.36962074963677
 20
-150.4304388729827
 30
0.0
 10
74.36962074963677
 20
-150.1555202532597
 30
0.0
 10
74.36962074963677
 20
-149.8719888948237
 30
0.0
 10
74.51345348614594
 20
-149.6814751144893
 30
0.0
 10
74.78010387670429
 20
-149.6814751144893
 30
0.0
 10
74.94081758109118
 20
-149.6814751144893
 30
0.0
 10
75.05502249642721
 20
-149.760023291553
 30
0.0
 10
75.11427813877351
 20
-149.8847357481191
 30
0.0
 10
75.16509329718094
 20
-149.7958522845996
 30
0.0
 10
75.26035018734811
 20
-149.6370333827296
 30
0.0
 10
75.52269420854988
 20
-149.6370333827296
 30
0.0
 10
75.89700383302228
 20
-149.6370333827296
 30
0.0
 10
76.01344806042373
 20
-149.9164306265834
 30
0.0
 10
76.01344806042373
 20
-150.1555202532597
 30
0.0
  0
HATCH
  5
12F
330
128
100
AcDbEntity
  8
レイヤー 1
 62
    18
420
        0
440
 33554687
100
AcDbHatch
 10
0.0
 20
0.0
 30
0.0
210
0.0
220
0.0
230
1.0
  2
SOLID
 70
     1
 71
     1
 91
        3
 92
        1
 93
        1
 72
     4
 94
        3
 73
     0
 74
     0
 95
       17
 96
       13
 40
0.0
 40
0.0
 40
0.0
 40
0.0
 40
1.0
 40
1.0
 40
1.0
 40
2.0
 40
2.0
 40
2.0
 40
3.0
 40
3.0
 40
3.0
 40
4.0
 40
4.0
 40
4.0
 40
4.0
 10
75.22228188223611
 20
-150.1555202532597
 10
75.22228188223611
 20
-150.2991807349946
 10
75.30892603369013
 20
-150.4517984649912
 10
75.51201441254561
 20
-150.4517984649912
 10
75.71716984869223
 20
-150.4517984649912
 10
75.81880016550711
 20
-150.3246744415855
 10
75.81880016550711
 20
-150.1555202532597
 10
75.81880016550711
 20
-149.9694850970562
 10
75.69615476623221
 20
-149.8592420415282
 10
75.51838783919333
 20
-149.8592420415282
 10
75.2961791803947
 20
-149.8592420415282
 10
75.22228188223611
 20
-150.0221950579805
 10
75.22228188223611
 20
-150.1555202532597
 97
        0
 97
        1
330
12C
 92
        1
 93
        1
 72
     4
 94
        3
 73
     0
 74
     0
 95
       17
 96
       13
 40
0.0
 40
0.0
 40
0.0
 40
0.0
 40
1.0
 40
1.0
 40
1.0
 40
2.0
 40
2.0
 40
2.0
 40
3.0
 40
3.0
 40
3.0
 40
4.0
 40
4.0
 40
4.0
 40
4.0
 10
74.56220158726224
 20
-150.1555202532597
 10
74.56220158726224
 20
-150.3205403270032
 10
74.65728622265513
 20
-150.4052896759403
 10
74.79267847522544
 20
-150.4052896759403
 10
74.9154961292746
 20
-150.4052896759403
 10
75.0340074139672
 20
-150.3332871802986
 10
75.0340074139672
 20
-150.1555202532597
 10
75.0340074139672
 20
-149.9777533262208
 10
74.9154961292746
 20
-149.9057508305791
 10
74.79267847522544
 20
-149.9057508305791
 10
74.65728622265513
 20
-149.9057508305791
 10
74.56220158726224
 20
-149.9925672368074
 10
74.56220158726224
 20
-150.1555202532597
 97
        0
 97
        1
330
12D
 92
        1
 93
        1
 72
     4
 94
        3
 73
     0
 74
     0
 95
       29
 96
       25
 40
0.0
 40
0.0
 40
0.0
 40
0.0
 40
1.0
 40
1.0
 40
1.0
 40
2.0
 40
2.0
 40
2.0
 40
3.0
 40
3.0
 40
3.0
 40
4.0
 40
4.0
 40
4.0
 40
5.0
 40
5.0
 40
5.0
 40
6.0
 40
6.0
 40
6.0
 40
7.0
 40
7.0
 40
7.0
 40
8.0
 40
8.0
 40
8.0
 40
8.0
 10
76.01344806042373
 20
-150.1555202532597
 10
76.01344806042373
 20
-150.4221706438181
 10
75.87581649578798
 20
-150.676074181081
 10
75.52682832313218
 20
-150.676074181081
 10
75.27085772857812
 20
-150.676074181081
 10
75.17560083841096
 20
-150.5341362470887
 10
75.11427813877351
 20
-150.4283718156915
 10
75.05502249642721
 20
-150.5530842722575
 10
74.94081758109118
 20
-150.6292208824816
 10
74.78010387670429
 20
-150.6292208824816
 10
74.50501300220707
 20
-150.6292208824816
 10
74.36962074963677
 20
-150.4304388729827
 10
74.36962074963677
 20
-150.1555202532597
 10
74.36962074963677
 20
-149.8719888948237
 10
74.51345348614594
 20
-149.6814751144893
 10
74.78010387670429
 20
-149.6814751144893
 10
74.94081758109118
 20
-149.6814751144893
 10
75.05502249642721
 20
-149.760023291553
 10
75.11427813877351
 20
-149.8847357481191
 10
75.16509329718094
 20
-149.7958522845996
 10
75.26035018734811
 20
-149.6370333827296
 10
75.52269420854988
 20
-149.6370333827296
 10
75.89700383302228
 20
-149.6370333827296
 10
76.01344806042373
 20
-149.9164306265834
 10
76.01344806042373
 20
-150.1555202532597
 97
        0
 97
        1
330
12E
 75
     2
 76
     1
 98
        1
 10
0.0
 20
0.0
450
        0
451
        0
460
0.0
461
0.0
452
        0
462
0.0
453
        0
470

  0
ENDBLK
  5
12B
330
128
100
AcDbEntity
  8
0
100
AcDbBlockEnd
  0
BLOCK
  5
134
330
132
100
AcDbEntity
  8
0
100
AcDbBlockBegin
  2
Block_7
 70
     0
 10
0.0
 20
0.0
 30
0.0
  3
Block_7
  1

  0
INSERT
  5
137
330
132
100
AcDbEntity
  8
レイヤー 1
100
AcDbBlockReference
  2
Block_8
 10
0.0
 20
0.0
 30
0.0
  0
ENDBLK
  5
135
330
132
100
AcDbEntity
  8
0
100
AcDbBlockEnd
  0
BLOCK
  5
138
330
136
100
AcDbEntity
  8
0
100
AcDbBlockBegin
  2
Block_8
 70
     0
 10
0.0
 20
0.0
 30
0.0
  3
Block_8
  1

  0
SPLINE
  5
13A
330
136
100
AcDbEntity
  8
レイヤー 1
100
AcDbSpline
210
0.0
220
0.0
230
1.0
 70
     9
 71
     3
 72
    44
 73
    40
 74
     0
 42
0.0000000001
 43
0.0000000001
 40
0.0
 40
0.0
 40
0.0
 40
0.0
 40
1.0
 40
1.0
 40
1.0
 40
2.0
 40
2.0
 40
2.0
 40
3.0
 40
3.0
 40
3.0
 40
4.0
 40
4.0
 40
4.0
 40
5.0
 40
5.0
 40
5.0
 40
6.0
 40
6.0
 40
6.0
 40
7.0
 40
7.0
 40
7.0
 40
8.0
 40
8.0
 40
8.0
 40
9.0
 40
9.0
 40
9.0
 40
10.0
 40
10.0
 40
10.0
 40
11.0
 40
11.0
 40
11.0
 40
12.0
 40
12.0
 40
12.0
 40
13.0
 40
13.0
 40
13.0
 40
13.0
 10
116.7067436774205
 20
-139.600264450777
 30
0.0
 10
116.4890136427527
 20
-139.7589110978728
 30
0.0
 10
116.395996064651
 20
-139.8329806508056
 30
0.0
 10
116.3470757087604
 20
-139.9768133873148
 30
0.0
 10
116.3470757087604
 20
-139.9768133873148
 30
0.0
 10
117.1256672884269
 20
-139.9768133873148
 30
0.0
 10
117.1256672884269
 20
-139.9768133873148
 30
0.0
 10
117.1256672884269
 20
-139.9768133873148
 30
0.0
 10
117.1256672884269
 20
-140.1819688234614
 30
0.0
 10
117.1256672884269
 20
-140.1819688234614
 30
0.0
 10
117.1256672884269
 20
-140.1819688234614
 30
0.0
 10
116.0976507956283
 20
-140.1819688234614
 30
0.0
 10
116.0976507956283
 20
-140.1819688234614
 30
0.0
 10
116.1293456740926
 20
-139.8243679120925
 30
0.0
 10
116.1948024883124
 20
-139.7461642445773
 30
0.0
 10
116.5799641635633
 20
-139.4478189755547
 30
0.0
 10
116.8359347581174
 20
-139.2490369660558
 30
0.0
 10
116.9013915723371
 20
-139.1813408397706
 30
0.0
 10
116.9013915723371
 20
-139.0438815299092
 30
0.0
 10
116.9013915723371
 20
-138.9253702452166
 30
0.0
 10
116.8293890766954
 20
-138.7941121072285
 30
0.0
 10
116.6326741244876
 20
-138.7941121072285
 30
0.0
 10
116.3725694153513
 20
-138.7941121072285
 30
0.0
 10
116.3643011861867
 20
-139.024761249966
 30
0.0
 10
116.3598225620559
 20
-139.1412054773675
 30
0.0
 10
116.3598225620559
 20
-139.1412054773675
 30
0.0
 10
116.1355468459661
 20
-139.1412054773675
 30
0.0
 10
116.1355468459661
 20
-139.1412054773675
 30
0.0
 10
116.1441595846792
 20
-139.014253708736
 30
0.0
 10
116.1548393806835
 20
-138.9021158506911
 30
0.0
 10
116.2351101054898
 20
-138.7836045659985
 30
0.0
 10
116.3450086514693
 20
-138.6228908616116
 30
0.0
 10
116.5313883172213
 20
-138.5889566710819
 30
0.0
 10
116.6474880350742
 20
-138.5889566710819
 30
0.0
 10
116.9248182216368
 20
-138.5889566710819
 30
0.0
 10
117.1322129698489
 20
-138.7730970247685
 30
0.0
 10
117.1322129698489
 20
-139.0459485872003
 30
0.0
 10
117.1322129698489
 20
-139.2743584178724
 30
0.0
 10
117.0157687424474
 20
-139.3739216773961
 30
0.0
 10
116.7067436774205
 20
-139.600264450777
 30
0.0
  0
HATCH
  5
13B
330
136
100
AcDbEntity
  8
レイヤー 1
 62
    18
420
        0
440
 33554687
100
AcDbHatch
 10
0.0
 20
0.0
 30
0.0
210
0.0
220
0.0
230
1.0
  2
SOLID
 70
     1
 71
     1
 91
        1
 92
        1
 93
        1
 72
     4
 94
        3
 73
     0
 74
     0
 95
       44
 96
       40
 40
0.0
 40
0.0
 40
0.0
 40
0.0
 40
1.0
 40
1.0
 40
1.0
 40
2.0
 40
2.0
 40
2.0
 40
3.0
 40
3.0
 40
3.0
 40
4.0
 40
4.0
 40
4.0
 40
5.0
 40
5.0
 40
5.0
 40
6.0
 40
6.0
 40
6.0
 40
7.0
 40
7.0
 40
7.0
 40
8.0
 40
8.0
 40
8.0
 40
9.0
 40
9.0
 40
9.0
 40
10.0
 40
10.0
 40
10.0
 40
11.0
 40
11.0
 40
11.0
 40
12.0
 40
12.0
 40
12.0
 40
13.0
 40
13.0
 40
13.0
 40
13.0
 10
116.7067436774205
 20
-139.600264450777
 10
116.4890136427527
 20
-139.7589110978728
 10
116.395996064651
 20
-139.8329806508056
 10
116.3470757087604
 20
-139.9768133873148
 10
116.3470757087604
 20
-139.9768133873148
 10
117.1256672884269
 20
-139.9768133873148
 10
117.1256672884269
 20
-139.9768133873148
 10
117.1256672884269
 20
-139.9768133873148
 10
117.1256672884269
 20
-140.1819688234614
 10
117.1256672884269
 20
-140.1819688234614
 10
117.1256672884269
 20
-140.1819688234614
 10
116.0976507956283
 20
-140.1819688234614
 10
116.0976507956283
 20
-140.1819688234614
 10
116.1293456740926
 20
-139.8243679120925
 10
116.1948024883124
 20
-139.7461642445773
 10
116.5799641635633
 20
-139.4478189755547
 10
116.8359347581174
 20
-139.2490369660558
 10
116.9013915723371
 20
-139.1813408397706
 10
116.9013915723371
 20
-139.0438815299092
 10
116.9013915723371
 20
-138.9253702452166
 10
116.8293890766954
 20
-138.7941121072285
 10
116.6326741244876
 20
-138.7941121072285
 10
116.3725694153513
 20
-138.7941121072285
 10
116.3643011861867
 20
-139.024761249966
 10
116.3598225620559
 20
-139.1412054773675
 10
116.3598225620559
 20
-139.1412054773675
 10
116.1355468459661
 20
-139.1412054773675
 10
116.1355468459661
 20
-139.1412054773675
 10
116.1441595846792
 20
-139.014253708736
 10
116.1548393806835
 20
-138.9021158506911
 10
116.2351101054898
 20
-138.7836045659985
 10
116.3450086514693
 20
-138.6228908616116
 10
116.5313883172213
 20
-138.5889566710819
 10
116.6474880350742
 20
-138.5889566710819
 10
116.9248182216368
 20
-138.5889566710819
 10
117.1322129698489
 20
-138.7730970247685
 10
117.1322129698489
 20
-139.0459485872003
 10
117.1322129698489
 20
-139.2743584178724
 10
117.0157687424474
 20
-139.3739216773961
 10
116.7067436774205
 20
-139.600264450777
 97
        0
 97
        1
330
13A
 75
     2
 76
     1
 98
        1
 10
0.0
 20
0.0
450
        0
451
        0
460
0.0
461
0.0
452
        0
462
0.0
453
        0
470

  0
SPLINE
  5
13C
330
136
100
AcDbEntity
  8
レイヤー 1
100
AcDbSpline
210
0.0
220
0.0
230
1.0
 70
    11
 71
     3
 72
    26
 73
    22
 74
     0
 42
0.0000000001
 43
0.0000000001
 40
0.0
 40
0.0
 40
0.0
 40
0.0
 40
1.0
 40
1.0
 40
1.0
 40
2.0
 40
2.0
 40
2.0
 40
3.0
 40
3.0
 40
3.0
 40
4.0
 40
4.0
 40
4.0
 40
5.0
 40
5.0
 40
5.0
 40
6.0
 40
6.0
 40
6.0
 40
7.0
 40
7.0
 40
7.0
 40
7.0
 10
117.7419948707381
 20
-140.1819688234614
 30
0.0
 10
117.7419948707381
 20
-140.1819688234614
 30
0.0
 10
117.7419948707381
 20
-139.0776434656646
 30
0.0
 10
117.7419948707381
 20
-139.0776434656646
 30
0.0
 10
117.7419948707381
 20
-139.0776434656646
 30
0.0
 10
117.4119547232512
 20
-139.0776434656646
 30
0.0
 10
117.4119547232512
 20
-139.0776434656646
 30
0.0
 10
117.4119547232512
 20
-139.0776434656646
 30
0.0
 10
117.4119547232512
 20
-138.9295043597988
 30
0.0
 10
117.4119547232512
 20
-138.9295043597988
 30
0.0
 10
117.7440619280292
 20
-138.9148627039865
 30
0.0
 10
117.7905707170801
 20
-138.7519096875342
 30
0.0
 10
117.8201985382533
 20
-138.6377047721982
 30
0.0
 10
117.8201985382533
 20
-138.6377047721982
 30
0.0
 10
117.9662705868279
 20
-138.6377047721982
 30
0.0
 10
117.9662705868279
 20
-138.6377047721982
 30
0.0
 10
117.9662705868279
 20
-138.6377047721982
 30
0.0
 10
117.9662705868279
 20
-140.1819688234614
 30
0.0
 10
117.9662705868279
 20
-140.1819688234614
 30
0.0
 10
117.9662705868279
 20
-140.1819688234614
 30
0.0
 10
117.7419948707381
 20
-140.1819688234614
 30
0.0
 10
117.7419948707381
 20
-140.1819688234614
 30
0.0
  0
HATCH
  5
13D
330
136
100
AcDbEntity
  8
レイヤー 1
 62
    18
420
        0
440
 33554687
100
AcDbHatch
 10
0.0
 20
0.0
 30
0.0
210
0.0
220
0.0
230
1.0
  2
SOLID
 70
     1
 71
     1
 91
        1
 92
        1
 93
        1
 72
     4
 94
        3
 73
     0
 74
     0
 95
       26
 96
       22
 40
0.0
 40
0.0
 40
0.0
 40
0.0
 40
1.0
 40
1.0
 40
1.0
 40
2.0
 40
2.0
 40
2.0
 40
3.0
 40
3.0
 40
3.0
 40
4.0
 40
4.0
 40
4.0
 40
5.0
 40
5.0
 40
5.0
 40
6.0
 40
6.0
 40
6.0
 40
7.0
 40
7.0
 40
7.0
 40
7.0
 10
117.7419948707381
 20
-140.1819688234614
 10
117.7419948707381
 20
-140.1819688234614
 10
117.7419948707381
 20
-139.0776434656646
 10
117.7419948707381
 20
-139.0776434656646
 10
117.7419948707381
 20
-139.0776434656646
 10
117.4119547232512
 20
-139.0776434656646
 10
117.4119547232512
 20
-139.0776434656646
 10
117.4119547232512
 20
-139.0776434656646
 10
117.4119547232512
 20
-138.9295043597988
 10
117.4119547232512
 20
-138.9295043597988
 10
117.7440619280292
 20
-138.9148627039865
 10
117.7905707170801
 20
-138.7519096875342
 10
117.8201985382533
 20
-138.6377047721982
 10
117.8201985382533
 20
-138.6377047721982
 10
117.9662705868279
 20
-138.6377047721982
 10
117.9662705868279
 20
-138.6377047721982
 10
117.9662705868279
 20
-138.6377047721982
 10
117.9662705868279
 20
-140.1819688234614
 10
117.9662705868279
 20
-140.1819688234614
 10
117.9662705868279
 20
-140.1819688234614
 10
117.7419948707381
 20
-140.1819688234614
 10
117.7419948707381
 20
-140.1819688234614
 97
        0
 97
        1
330
13C
 75
     2
 76
     1
 98
        1
 10
0.0
 20
0.0
450
        0
451
        0
460
0.0
461
0.0
452
        0
462
0.0
453
        0
470

  0
ENDBLK
  5
139
330
136
100
AcDbEntity
  8
0
100
AcDbBlockEnd
  0
BLOCK
  5
143
330
141
100
AcDbEntity
  8
0
100
AcDbBlockBegin
  2
Block_9
 70
     0
 10
0.0
 20
0.0
 30
0.0
  3
Block_9
  1

  0
SPLINE
  5
145
330
141
100
AcDbEntity
  8
レイヤー 1
100
AcDbSpline
210
0.0
220
0.0
230
1.0
 70
     9
 71
     3
 72
    53
 73
    49
 74
     0
 42
0.0000000001
 43
0.0000000001
 40
0.0
 40
0.0
 40
0.0
 40
0.0
 40
1.0
 40
1.0
 40
1.0
 40
2.0
 40
2.0
 40
2.0
 40
3.0
 40
3.0
 40
3.0
 40
4.0
 40
4.0
 40
4.0
 40
5.0
 40
5.0
 40
5.0
 40
6.0
 40
6.0
 40
6.0
 40
7.0
 40
7.0
 40
7.0
 40
8.0
 40
8.0
 40
8.0
 40
9.0
 40
9.0
 40
9.0
 40
10.0
 40
10.0
 40
10.0
 40
11.0
 40
11.0
 40
11.0
 40
12.0
 40
12.0
 40
12.0
 40
13.0
 40
13.0
 40
13.0
 40
14.0
 40
14.0
 40
14.0
 40
15.0
 40
15.0
 40
15.0
 40
16.0
 40
16.0
 40
16.0
 40
16.0
 10
104.1581556271722
 20
-140.2327839818689
 30
0.0
 10
104.0797797048828
 20
-140.2327839818689
 30
0.0
 10
103.9783216428422
 20
-140.2157307592169
 30
0.0
 10
103.8766913260273
 20
-140.1523410022883
 30
0.0
 10
103.703230768345
 20
-140.0422702015346
 30
0.0
 10
103.6820434311107
 20
-139.9111843183208
 30
0.0
 10
103.6630954059418
 20
-139.8033528296325
 30
0.0
 10
103.6630954059418
 20
-139.8033528296325
 30
0.0
 10
103.8851318099662
 20
-139.8033528296325
 30
0.0
 10
103.8851318099662
 20
-139.8033528296325
 30
0.0
 10
103.9402533377302
 20
-140.0021348391314
 30
0.0
 10
104.0672051063616
 20
-140.0317626603045
 30
0.0
 10
104.1602226844634
 20
-140.0317626603045
 30
0.0
 10
104.2999213063903
 20
-140.0317626603045
 30
0.0
 10
104.4521945268383
 20
-139.9323716555551
 30
0.0
 10
104.4521945268383
 20
-139.6996554555265
 30
0.0
 10
104.4521945268383
 20
-139.4436848609724
 30
0.0
 10
104.2723605425083
 20
-139.3739216773961
 30
0.0
 10
104.1517822005245
 20
-139.3739216773961
 30
0.0
 10
104.1200873220602
 20
-139.3739216773961
 30
0.0
 10
103.9783216428422
 20
-139.3739216773961
 30
0.0
 10
103.8894381793228
 20
-139.5029405033187
 30
0.0
 10
103.8894381793228
 20
-139.5029405033187
 30
0.0
 10
103.7139105643493
 20
-139.4838202233755
 30
0.0
 10
103.7139105643493
 20
-139.4838202233755
 30
0.0
 10
103.7139105643493
 20
-139.4838202233755
 30
0.0
 10
103.834488906333
 20
-138.6377047721982
 30
0.0
 10
103.834488906333
 20
-138.6377047721982
 30
0.0
 10
103.834488906333
 20
-138.6377047721982
 30
0.0
 10
104.6129082312252
 20
-138.6377047721982
 30
0.0
 10
104.6129082312252
 20
-138.6377047721982
 30
0.0
 10
104.6129082312252
 20
-138.6377047721982
 30
0.0
 10
104.6129082312252
 20
-138.8323526671148
 30
0.0
 10
104.6129082312252
 20
-138.8323526671148
 30
0.0
 10
104.6129082312252
 20
-138.8323526671148
 30
0.0
 10
103.9972696680111
 20
-138.8323526671148
 30
0.0
 10
103.9972696680111
 20
-138.8323526671148
 30
0.0
 10
103.9972696680111
 20
-138.8323526671148
 30
0.0
 10
103.9318128537913
 20
-139.2554103927035
 30
0.0
 10
103.9318128537913
 20
-139.2554103927035
 30
0.0
 10
103.9931355534288
 20
-139.2214762021738
 30
0.0
 10
104.0756455903005
 20
-139.1813408397706
 30
0.0
 10
104.1939846202188
 20
-139.1813408397706
 30
0.0
 10
104.4478881574818
 20
-139.1813408397706
 30
0.0
 10
104.684910726867
 20
-139.3675482507484
 30
0.0
 10
104.684910726867
 20
-139.6805351755833
 30
0.0
 10
104.684910726867
 20
-139.9980007245491
 30
0.0
 10
104.4606350107772
 20
-140.2327839818689
 30
0.0
 10
104.1581556271722
 20
-140.2327839818689
 30
0.0
  0
HATCH
  5
146
330
141
100
AcDbEntity
  8
レイヤー 1
 62
    18
420
        0
440
 33554687
100
AcDbHatch
 10
0.0
 20
0.0
 30
0.0
210
0.0
220
0.0
230
1.0
  2
SOLID
 70
     1
 71
     1
 91
        1
 92
        1
 93
        1
 72
     4
 94
        3
 73
     0
 74
     0
 95
       53
 96
       49
 40
0.0
 40
0.0
 40
0.0
 40
0.0
 40
1.0
 40
1.0
 40
1.0
 40
2.0
 40
2.0
 40
2.0
 40
3.0
 40
3.0
 40
3.0
 40
4.0
 40
4.0
 40
4.0
 40
5.0
 40
5.0
 40
5.0
 40
6.0
 40
6.0
 40
6.0
 40
7.0
 40
7.0
 40
7.0
 40
8.0
 40
8.0
 40
8.0
 40
9.0
 40
9.0
 40
9.0
 40
10.0
 40
10.0
 40
10.0
 40
11.0
 40
11.0
 40
11.0
 40
12.0
 40
12.0
 40
12.0
 40
13.0
 40
13.0
 40
13.0
 40
14.0
 40
14.0
 40
14.0
 40
15.0
 40
15.0
 40
15.0
 40
16.0
 40
16.0
 40
16.0
 40
16.0
 10
104.1581556271722
 20
-140.2327839818689
 10
104.0797797048828
 20
-140.2327839818689
 10
103.9783216428422
 20
-140.2157307592169
 10
103.8766913260273
 20
-140.1523410022883
 10
103.703230768345
 20
-140.0422702015346
 10
103.6820434311107
 20
-139.9111843183208
 10
103.6630954059418
 20
-139.8033528296325
 10
103.6630954059418
 20
-139.8033528296325
 10
103.8851318099662
 20
-139.8033528296325
 10
103.8851318099662
 20
-139.8033528296325
 10
103.9402533377302
 20
-140.0021348391314
 10
104.0672051063616
 20
-140.0317626603045
 10
104.1602226844634
 20
-140.0317626603045
 10
104.2999213063903
 20
-140.0317626603045
 10
104.4521945268383
 20
-139.9323716555551
 10
104.4521945268383
 20
-139.6996554555265
 10
104.4521945268383
 20
-139.4436848609724
 10
104.2723605425083
 20
-139.3739216773961
 10
104.1517822005245
 20
-139.3739216773961
 10
104.1200873220602
 20
-139.3739216773961
 10
103.9783216428422
 20
-139.3739216773961
 10
103.8894381793228
 20
-139.5029405033187
 10
103.8894381793228
 20
-139.5029405033187
 10
103.7139105643493
 20
-139.4838202233755
 10
103.7139105643493
 20
-139.4838202233755
 10
103.7139105643493
 20
-139.4838202233755
 10
103.834488906333
 20
-138.6377047721982
 10
103.834488906333
 20
-138.6377047721982
 10
103.834488906333
 20
-138.6377047721982
 10
104.6129082312252
 20
-138.6377047721982
 10
104.6129082312252
 20
-138.6377047721982
 10
104.6129082312252
 20
-138.6377047721982
 10
104.6129082312252
 20
-138.8323526671148
 10
104.6129082312252
 20
-138.8323526671148
 10
104.6129082312252
 20
-138.8323526671148
 10
103.9972696680111
 20
-138.8323526671148
 10
103.9972696680111
 20
-138.8323526671148
 10
103.9972696680111
 20
-138.8323526671148
 10
103.9318128537913
 20
-139.2554103927035
 10
103.9318128537913
 20
-139.2554103927035
 10
103.9931355534288
 20
-139.2214762021738
 10
104.0756455903005
 20
-139.1813408397706
 10
104.1939846202188
 20
-139.1813408397706
 10
104.4478881574818
 20
-139.1813408397706
 10
104.684910726867
 20
-139.3675482507484
 10
104.684910726867
 20
-139.6805351755833
 10
104.684910726867
 20
-139.9980007245491
 10
104.4606350107772
 20
-140.2327839818689
 10
104.1581556271722
 20
-140.2327839818689
 97
        0
 97
        1
330
145
 75
     2
 76
     1
 98
        1
 10
0.0
 20
0.0
450
        0
451
        0
460
0.0
461
0.0
452
        0
462
0.0
453
        0
470

  0
ENDBLK
  5
144
330
141
100
AcDbEntity
  8
0
100
AcDbBlockEnd
  0
BLOCK
  5
14E
330
14C
100
AcDbEntity
  8
0
100
AcDbBlockBegin
  2
Block_10
 70
     0
 10
0.0
 20
0.0
 30
0.0
  3
Block_10
  1

  0
SPLINE
  5
150
330
14C
100
AcDbEntity
  8
レイヤー 1
100
AcDbSpline
210
0.0
220
0.0
230
1.0
 70
     9
 71
     3
 72
    26
 73
    22
 74
     0
 42
0.0000000001
 43
0.0000000001
 40
0.0
 40
0.0
 40
0.0
 40
0.0
 40
1.0
 40
1.0
 40
1.0
 40
2.0
 40
2.0
 40
2.0
 40
3.0
 40
3.0
 40
3.0
 40
4.0
 40
4.0
 40
4.0
 40
5.0
 40
5.0
 40
5.0
 40
6.0
 40
6.0
 40
6.0
 40
7.0
 40
7.0
 40
7.0
 40
7.0
 10
104.2484171288858
 20
-157.5576524128675
 30
0.0
 10
104.2484171288858
 20
-157.5576524128675
 30
0.0
 10
104.0113945595006
 20
-157.5576524128675
 30
0.0
 10
104.0113945595006
 20
-157.5576524128675
 30
0.0
 10
104.0368882660914
 20
-157.2486273478406
 30
0.0
 10
104.2294691037169
 20
-156.730484986859
 30
0.0
 10
104.6356458614279
 20
-156.2247449696243
 30
0.0
 10
104.6356458614279
 20
-156.2247449696243
 30
0.0
 10
103.7977986394151
 20
-156.2247449696243
 30
0.0
 10
103.7977986394151
 20
-156.2247449696243
 30
0.0
 10
103.7977986394151
 20
-156.2247449696243
 30
0.0
 10
103.7977986394151
 20
-156.01321610683
 30
0.0
 10
103.7977986394151
 20
-156.01321610683
 30
0.0
 10
103.7977986394151
 20
-156.01321610683
 30
0.0
 10
104.8726684308131
 20
-156.01321610683
 30
0.0
 10
104.8726684308131
 20
-156.01321610683
 30
0.0
 10
104.8726684308131
 20
-156.01321610683
 30
0.0
 10
104.8726684308131
 20
-156.2247449696243
 30
0.0
 10
104.8726684308131
 20
-156.2247449696243
 30
0.0
 10
104.5488294551996
 20
-156.5148220094824
 30
0.0
 10
104.2821790646413
 20
-157.1070339233968
 30
0.0
 10
104.2484171288858
 20
-157.5576524128675
 30
0.0
  0
HATCH
  5
151
330
14C
100
AcDbEntity
  8
レイヤー 1
 62
    18
420
        0
440
 33554687
100
AcDbHatch
 10
0.0
 20
0.0
 30
0.0
210
0.0
220
0.0
230
1.0
  2
SOLID
 70
     1
 71
     1
 91
        1
 92
        1
 93
        1
 72
     4
 94
        3
 73
     0
 74
     0
 95
       26
 96
       22
 40
0.0
 40
0.0
 40
0.0
 40
0.0
 40
1.0
 40
1.0
 40
1.0
 40
2.0
 40
2.0
 40
2.0
 40
3.0
 40
3.0
 40
3.0
 40
4.0
 40
4.0
 40
4.0
 40
5.0
 40
5.0
 40
5.0
 40
6.0
 40
6.0
 40
6.0
 40
7.0
 40
7.0
 40
7.0
 40
7.0
 10
104.2484171288858
 20
-157.5576524128675
 10
104.2484171288858
 20
-157.5576524128675
 10
104.0113945595006
 20
-157.5576524128675
 10
104.0113945595006
 20
-157.5576524128675
 10
104.0368882660914
 20
-157.2486273478406
 10
104.2294691037169
 20
-156.730484986859
 10
104.6356458614279
 20
-156.2247449696243
 10
104.6356458614279
 20
-156.2247449696243
 10
103.7977986394151
 20
-156.2247449696243
 10
103.7977986394151
 20
-156.2247449696243
 10
103.7977986394151
 20
-156.2247449696243
 10
103.7977986394151
 20
-156.01321610683
 10
103.7977986394151
 20
-156.01321610683
 10
103.7977986394151
 20
-156.01321610683
 10
104.8726684308131
 20
-156.01321610683
 10
104.8726684308131
 20
-156.01321610683
 10
104.8726684308131
 20
-156.01321610683
 10
104.8726684308131
 20
-156.2247449696243
 10
104.8726684308131
 20
-156.2247449696243
 10
104.5488294551996
 20
-156.5148220094824
 10
104.2821790646413
 20
-157.1070339233968
 10
104.2484171288858
 20
-157.5576524128675
 97
        0
 97
        1
330
150
 75
     2
 76
     1
 98
        1
 10
0.0
 20
0.0
450
        0
451
        0
460
0.0
461
0.0
452
        0
462
0.0
453
        0
470

  0
ENDBLK
  5
14F
330
14C
100
AcDbEntity
  8
0
100
AcDbBlockEnd
  0
BLOCK
  5
155
330
153
100
AcDbEntity
  8
0
100
AcDbBlockBegin
  2
Block_11
 70
     0
 10
0.0
 20
0.0
 30
0.0
  3
Block_11
  1

  0
SPLINE
  5
157
330
153
100
AcDbEntity
  8
レイヤー 1
100
AcDbSpline
210
0.0
220
0.0
230
1.0
 70
    11
 71
     3
 72
    26
 73
    22
 74
     0
 42
0.0000000001
 43
0.0000000001
 40
0.0
 40
0.0
 40
0.0
 40
0.0
 40
1.0
 40
1.0
 40
1.0
 40
2.0
 40
2.0
 40
2.0
 40
3.0
 40
3.0
 40
3.0
 40
4.0
 40
4.0
 40
4.0
 40
5.0
 40
5.0
 40
5.0
 40
6.0
 40
6.0
 40
6.0
 40
7.0
 40
7.0
 40
7.0
 40
7.0
 10
109.6091579587088
 20
-149.5347140468177
 30
0.0
 10
109.6091579587088
 20
-149.5347140468177
 30
0.0
 10
109.6091579587088
 20
-148.4303886890208
 30
0.0
 10
109.6091579587088
 20
-148.4303886890208
 30
0.0
 10
109.6091579587088
 20
-148.4303886890208
 30
0.0
 10
109.2791178112219
 20
-148.4303886890208
 30
0.0
 10
109.2791178112219
 20
-148.4303886890208
 30
0.0
 10
109.2791178112219
 20
-148.4303886890208
 30
0.0
 10
109.2791178112219
 20
-148.2822495831551
 30
0.0
 10
109.2791178112219
 20
-148.2822495831551
 30
0.0
 10
109.611225016
 20
-148.2676079273428
 30
0.0
 10
109.6577338050508
 20
-148.1046549108905
 30
0.0
 10
109.687361626224
 20
-147.9904499955545
 30
0.0
 10
109.687361626224
 20
-147.9904499955545
 30
0.0
 10
109.8334336747986
 20
-147.9904499955545
 30
0.0
 10
109.8334336747986
 20
-147.9904499955545
 30
0.0
 10
109.8334336747986
 20
-147.9904499955545
 30
0.0
 10
109.8334336747986
 20
-149.5347140468177
 30
0.0
 10
109.8334336747986
 20
-149.5347140468177
 30
0.0
 10
109.8334336747986
 20
-149.5347140468177
 30
0.0
 10
109.6091579587088
 20
-149.5347140468177
 30
0.0
 10
109.6091579587088
 20
-149.5347140468177
 30
0.0
  0
HATCH
  5
158
330
153
100
AcDbEntity
  8
レイヤー 1
 62
    18
420
        0
440
 33554687
100
AcDbHatch
 10
0.0
 20
0.0
 30
0.0
210
0.0
220
0.0
230
1.0
  2
SOLID
 70
     1
 71
     1
 91
        1
 92
        1
 93
        1
 72
     4
 94
        3
 73
     0
 74
     0
 95
       26
 96
       22
 40
0.0
 40
0.0
 40
0.0
 40
0.0
 40
1.0
 40
1.0
 40
1.0
 40
2.0
 40
2.0
 40
2.0
 40
3.0
 40
3.0
 40
3.0
 40
4.0
 40
4.0
 40
4.0
 40
5.0
 40
5.0
 40
5.0
 40
6.0
 40
6.0
 40
6.0
 40
7.0
 40
7.0
 40
7.0
 40
7.0
 10
109.6091579587088
 20
-149.5347140468177
 10
109.6091579587088
 20
-149.5347140468177
 10
109.6091579587088
 20
-148.4303886890208
 10
109.6091579587088
 20
-148.4303886890208
 10
109.6091579587088
 20
-148.4303886890208
 10
109.2791178112219
 20
-148.4303886890208
 10
109.2791178112219
 20
-148.4303886890208
 10
109.2791178112219
 20
-148.4303886890208
 10
109.2791178112219
 20
-148.2822495831551
 10
109.2791178112219
 20
-148.2822495831551
 10
109.611225016
 20
-148.2676079273428
 10
109.6577338050508
 20
-148.1046549108905
 10
109.687361626224
 20
-147.9904499955545
 10
109.687361626224
 20
-147.9904499955545
 10
109.8334336747986
 20
-147.9904499955545
 10
109.8334336747986
 20
-147.9904499955545
 10
109.8334336747986
 20
-147.9904499955545
 10
109.8334336747986
 20
-149.5347140468177
 10
109.8334336747986
 20
-149.5347140468177
 10
109.8334336747986
 20
-149.5347140468177
 10
109.6091579587088
 20
-149.5347140468177
 10
109.6091579587088
 20
-149.5347140468177
 97
        0
 97
        1
330
157
 75
     2
 76
     1
 98
        1
 10
0.0
 20
0.0
450
        0
451
        0
460
0.0
461
0.0
452
        0
462
0.0
453
        0
470

  0
ENDBLK
  5
156
330
153
100
AcDbEntity
  8
0
100
AcDbBlockEnd
  0
ENDSEC
  0
SECTION
  2
ENTITIES
  0
INSERT
  5
7A
330
70
100
AcDbEntity
  8
レイヤー 1
100
AcDbBlockReference
  2
Block_0
 10
0.0
 20
0.0
 30
0.0
  0
LWPOLYLINE
  5
9F
330
70
100
AcDbEntity
  8
レイヤー 1
 62
   250
420
  2299925
370
     9
100
AcDbPolyline
 90
        3
 70
     0
 43
0.0
 10
119.0932769868504
 20
-145.0139218084859
 10
125.2668879404596
 20
-153.1278106953463
 10
135.9094876689442
 20
-153.1278106953463
  0
LWPOLYLINE
  5
A0
330
70
100
AcDbEntity
  8
レイヤー 1
  6
AI-Linetype-0
 62
   154
420
    23468
370
    25
100
AcDbPolyline
 90
        6
 70
     0
 43
0.0
 10
80.56730123322699
 20
-145.1021162529083
 10
102.235756028033
 20
-144.3379995864326
 10
102.235756028033
 20
-152.6282773621382
 10
106.2293062039265
 20
-152.6282773621382
 10
106.2293062039265
 20
-144.3965606975291
 10
127.7804295430004
 20
-145.1610301417823
  0
LINE
  5
A2
330
70
100
AcDbEntity
  8
レイヤー 1
 62
    18
420
        0
370
    25
100
AcDbLine
 10
107.6776353336432
 20
-154.1575690284222
 30
0.0
 11
100.6778894011108
 21
-154.1575690284222
 31
0.0
  0
LINE
  5
A3
330
70
100
AcDbEntity
  8
レイヤー 1
 62
    18
420
        0
370
    25
100
AcDbLine
 10
80.67616602250843
 20
-145.6574943083251
 30
0.0
 11
80.67616602250843
 21
-146.1576979193109
 31
0.0
  0
LINE
  5
A4
330
70
100
AcDbEntity
  8
レイヤー 1
 62
    18
420
        0
370
    25
100
AcDbLine
 10
100.6778894011108
 20
-146.1576979193109
 30
0.0
 11
80.67616602250843
 21
-146.1576979193109
 31
0.0
  0
LINE
  5
A5
330
70
100
AcDbEntity
  8
レイヤー 1
 62
    18
420
        0
370
    25
100
AcDbLine
 10
80.67616602250843
 20
-145.6574943083251
 30
0.0
 11
81.1901632316175
 21
-146.0395526415628
 31
0.0
  0
LINE
  5
A6
330
70
100
AcDbEntity
  8
レイヤー 1
 62
    18
420
        0
370
    25
100
AcDbLine
 10
81.1901632316175
 20
-146.0395526415628
 30
0.0
 11
81.67558544145556
 21
-145.6220048638893
 31
0.0
  0
LINE
  5
A7
330
70
100
AcDbEntity
  8
レイヤー 1
 62
    18
420
        0
370
    25
100
AcDbLine
 10
82.18958265056462
 20
-146.0040631971273
 30
0.0
 11
82.67535763817148
 21
-145.586162641676
 31
0.0
  0
LINE
  5
A8
330
70
100
AcDbEntity
  8
レイヤー 1
 62
    18
420
        0
370
    25
100
AcDbLine
 10
81.67558544145556
 20
-145.6220048638893
 30
0.0
 11
82.18958265056462
 21
-146.0040631971273
 31
0.0
  0
LINE
  5
A9
330
70
100
AcDbEntity
  8
レイヤー 1
 62
    18
420
        0
370
    25
100
AcDbLine
 10
82.67535763817148
 20
-145.586162641676
 30
0.0
 11
83.18935484728054
 21
-145.968220974914
 31
0.0
  0
LINE
  5
AA
330
70
100
AcDbEntity
  8
レイヤー 1
 62
    18
420
        0
370
    25
100
AcDbLine
 10
83.18935484728054
 20
-145.968220974914
 30
0.0
 11
83.67442427934982
 21
-145.5506731972405
 31
0.0
  0
LINE
  5
AB
330
70
100
AcDbEntity
  8
レイヤー 1
 62
    18
420
        0
370
    25
100
AcDbLine
 10
83.67442427934982
 20
-145.5506731972405
 30
0.0
 11
84.18845676623575
 21
-145.9324140304783
 31
0.0
  0
LINE
  5
AC
330
70
100
AcDbEntity
  8
レイヤー 1
 62
    18
420
        0
370
    25
100
AcDbLine
 10
84.18845676623575
 20
-145.9324140304783
 30
0.0
 11
84.67419647606574
 21
-145.5148662528051
 31
0.0
  0
LINE
  5
AD
330
70
100
AcDbEntity
  8
レイヤー 1
 62
    18
420
        0
370
    25
100
AcDbLine
 10
84.67419647606574
 20
-145.5148662528051
 30
0.0
 11
85.18819368517512
 21
-145.8965718082651
 31
0.0
  0
LINE
  5
AE
330
70
100
AcDbEntity
  8
レイヤー 1
 62
    18
420
        0
370
    25
100
AcDbLine
 10
85.18819368517512
 20
-145.8965718082651
 30
0.0
 11
85.67326311724409
 21
-145.4790240305919
 31
0.0
  0
LINE
  5
AF
330
70
100
AcDbEntity
  8
レイヤー 1
 62
    18
420
        0
370
    25
100
AcDbLine
 10
85.67326311724409
 20
-145.4790240305919
 30
0.0
 11
86.18729560413003
 21
-145.8610823638296
 31
0.0
  0
LINE
  5
B0
330
70
100
AcDbEntity
  8
レイヤー 1
 62
    18
420
        0
370
    25
100
AcDbLine
 10
86.18729560413003
 20
-145.8610823638296
 30
0.0
 11
86.67303531395999
 21
-145.4435345861561
 31
0.0
  0
LINE
  5
B1
330
70
100
AcDbEntity
  8
レイヤー 1
 62
    18
420
        0
370
    25
100
AcDbLine
 10
86.67303531395999
 20
-145.4435345861561
 30
0.0
 11
87.18636224530838
 21
-145.8255929193941
 31
0.0
  0
LINE
  5
B2
330
70
100
AcDbEntity
  8
レイヤー 1
 62
    18
420
        0
370
    25
100
AcDbLine
 10
87.18636224530838
 20
-145.8255929193941
 30
0.0
 11
87.67213723291524
 21
-145.4077276417207
 31
0.0
  0
LINE
  5
B3
330
70
100
AcDbEntity
  8
レイヤー 1
 62
    18
420
        0
370
    25
100
AcDbLine
 10
88.18613444202428
 20
-145.7897859749587
 30
0.0
 11
88.67120387409357
 21
-145.3722381972852
 31
0.0
  0
LINE
  5
B4
330
70
100
AcDbEntity
  8
レイヤー 1
 62
    18
420
        0
370
    25
100
AcDbLine
 10
87.67213723291524
 20
-145.4077276417207
 30
0.0
 11
88.18613444202428
 21
-145.7897859749587
 31
0.0
  0
LINE
  5
B5
330
70
100
AcDbEntity
  8
レイヤー 1
 62
    18
420
        0
370
    25
100
AcDbLine
 10
88.67120387409357
 20
-145.3722381972852
 30
0.0
 11
89.18520108320263
 21
-145.7539437527458
 31
0.0
  0
LINE
  5
B6
330
70
100
AcDbEntity
  8
レイヤー 1
 62
    18
420
        0
370
    25
100
AcDbLine
 10
89.18520108320263
 20
-145.7539437527458
 30
0.0
 11
89.67097607080949
 21
-145.3363959750719
 31
0.0
  0
LINE
  5
B7
330
70
100
AcDbEntity
  8
レイヤー 1
 62
    18
420
        0
370
    25
100
AcDbLine
 10
90.18479689103417
 20
-145.7181015305322
 30
0.0
 11
90.66986632310344
 21
-145.3005537528587
 31
0.0
  0
LINE
  5
B8
330
70
100
AcDbEntity
  8
レイヤー 1
 62
    18
420
        0
370
    25
100
AcDbLine
 10
89.67097607080949
 20
-145.3363959750719
 30
0.0
 11
90.18479689103417
 21
-145.7181015305322
 31
0.0
  0
LINE
  5
B9
330
70
100
AcDbEntity
  8
レイヤー 1
 62
    18
420
        0
370
    25
100
AcDbLine
 10
91.18389880998938
 20
-145.6826473638742
 30
0.0
 11
91.66963851981936
 21
-145.2650995862007
 31
0.0
  0
LINE
  5
BA
330
70
100
AcDbEntity
  8
レイヤー 1
 62
    18
420
        0
370
    25
100
AcDbLine
 10
90.66986632310344
 20
-145.3005537528587
 30
0.0
 11
91.18389880998938
 21
-145.6826473638742
 31
0.0
  0
LINE
  5
BB
330
70
100
AcDbEntity
  8
レイヤー 1
 62
    18
420
        0
370
    25
100
AcDbLine
 10
91.66963851981936
 20
-145.2650995862007
 30
0.0
 11
92.18363572892842
 21
-145.6471579194387
 31
0.0
  0
LINE
  5
BC
330
70
100
AcDbEntity
  8
レイヤー 1
 62
    18
420
        0
370
    25
100
AcDbLine
 10
92.18363572892842
 20
-145.6471579194387
 30
0.0
 11
92.66870516099771
 21
-145.2292573639875
 31
0.0
  0
LINE
  5
BD
330
70
100
AcDbEntity
  8
レイヤー 1
 62
    18
420
        0
370
    25
100
AcDbLine
 10
92.66870516099771
 20
-145.2292573639875
 30
0.0
 11
93.18273764788365
 21
-145.6113156972255
 31
0.0
  0
LINE
  5
BE
330
70
100
AcDbEntity
  8
レイヤー 1
 62
    18
420
        0
370
    25
100
AcDbLine
 10
93.18273764788365
 20
-145.6113156972255
 30
0.0
 11
93.66780707995294
 21
-145.193767919552
 31
0.0
  0
LINE
  5
BF
330
70
100
AcDbEntity
  8
レイヤー 1
 62
    18
420
        0
370
    25
100
AcDbLine
 10
93.66780707995294
 20
-145.193767919552
 30
0.0
 11
94.18180428906202
 21
-145.5754734750122
 31
0.0
  0
LINE
  5
C0
330
70
100
AcDbEntity
  8
レイヤー 1
 62
    18
420
        0
370
    25
100
AcDbLine
 10
94.18180428906202
 20
-145.5754734750122
 30
0.0
 11
94.66757927666886
 21
-145.1579256973387
 31
0.0
  0
LINE
  5
C1
330
70
100
AcDbEntity
  8
レイヤー 1
 62
    18
420
        0
370
    25
100
AcDbLine
 10
94.66757927666886
 20
-145.1579256973387
 30
0.0
 11
95.18157648577791
 21
-145.5396665305765
 31
0.0
  0
LINE
  5
C2
330
70
100
AcDbEntity
  8
レイヤー 1
 62
    18
420
        0
370
    25
100
AcDbLine
 10
95.18157648577791
 20
-145.5396665305765
 30
0.0
 11
95.6666459178472
 21
-145.1221187529033
 31
0.0
  0
LINE
  5
C3
330
70
100
AcDbEntity
  8
レイヤー 1
 62
    18
420
        0
370
    25
100
AcDbLine
 10
95.6666459178472
 20
-145.1221187529033
 30
0.0
 11
96.18064312695628
 21
-145.504177086141
 31
0.0
  0
LINE
  5
C4
330
70
100
AcDbEntity
  8
レイヤー 1
 62
    18
420
        0
370
    25
100
AcDbLine
 10
96.18064312695628
 20
-145.504177086141
 30
0.0
 11
96.66641811456312
 21
-145.0866293084675
 31
0.0
  0
LINE
  5
C5
330
70
100
AcDbEntity
  8
レイヤー 1
 62
    18
420
        0
370
    25
100
AcDbLine
 10
96.66641811456312
 20
-145.0866293084675
 30
0.0
 11
97.18041532367218
 21
-145.4686876417055
 31
0.0
  0
LINE
  5
C6
330
70
100
AcDbEntity
  8
レイヤー 1
 62
    18
420
        0
370
    25
100
AcDbLine
 10
97.18041532367218
 20
-145.4686876417055
 30
0.0
 11
97.66548475574179
 21
-145.0507870862543
 31
0.0
  0
LINE
  5
C7
330
70
100
AcDbEntity
  8
レイヤー 1
 62
    18
420
        0
370
    25
100
AcDbLine
 10
97.66548475574179
 20
-145.0507870862543
 30
0.0
 11
98.17948196485055
 21
-145.4328454194923
 31
0.0
  0
LINE
  5
C8
330
70
100
AcDbEntity
  8
レイヤー 1
 62
    18
420
        0
370
    25
100
AcDbLine
 10
98.17948196485055
 20
-145.4328454194923
 30
0.0
 11
98.66525695245739
 21
-145.0152976418188
 31
0.0
  0
LINE
  5
C9
330
70
100
AcDbEntity
  8
レイヤー 1
 62
    18
420
        0
370
    25
100
AcDbLine
 10
98.66525695245739
 20
-145.0152976418188
 30
0.0
 11
99.17925416156643
 21
-145.3970384750569
 31
0.0
  0
LINE
  5
CA
330
70
100
AcDbEntity
  8
レイヤー 1
 62
    18
420
        0
370
    25
100
AcDbLine
 10
99.17925416156643
 20
-145.3970384750569
 30
0.0
 11
99.66432359363572
 21
-144.9794906973834
 31
0.0
  0
LINE
  5
CB
330
70
100
AcDbEntity
  8
レイヤー 1
 62
    18
420
        0
370
    25
100
AcDbLine
 10
99.66432359363572
 20
-144.9794906973834
 30
0.0
 11
100.1783208027444
 21
-145.3611962528433
 31
0.0
  0
LINE
  5
CC
330
70
100
AcDbEntity
  8
レイヤー 1
 62
    18
420
        0
370
    25
100
AcDbLine
 10
100.1783208027444
 20
-145.3611962528433
 30
0.0
 11
100.6640957903519
 21
-144.9436484751701
 31
0.0
  0
LINE
  5
CD
330
70
100
AcDbEntity
  8
レイヤー 1
 62
    18
420
        0
370
    25
100
AcDbLine
 10
100.726183681319
 20
-144.89542375296
 30
0.0
 11
101.6776263200499
 21
-144.89542375296
 31
0.0
  0
LINE
  5
CE
330
70
100
AcDbEntity
  8
レイヤー 1
 62
    18
420
        0
370
    25
100
AcDbLine
 10
101.6776263200499
 20
-144.89542375296
 30
0.0
 11
101.6776263200499
 21
-153.1574440286725
 31
0.0
  0
LINE
  5
CF
330
70
100
AcDbEntity
  8
レイヤー 1
 62
    18
420
        0
370
    25
100
AcDbLine
 10
100.6778894011108
 20
-146.1576979193109
 30
0.0
 11
100.6778894011108
 21
-154.1575690284222
 31
0.0
  0
LINE
  5
D0
330
70
100
AcDbEntity
  8
レイヤー 1
 62
    18
420
        0
370
    25
100
AcDbLine
 10
106.6778631369273
 20
-153.1574440286725
 30
0.0
 11
101.6776263200499
 21
-153.1574440286725
 31
0.0
  0
LINE
  5
D1
330
70
100
AcDbEntity
  8
レイヤー 1
 62
    18
420
        0
370
    25
100
AcDbLine
 10
117.6849175783362
 20
-145.3005537528587
 30
0.0
 11
117.1716259247647
 21
-145.6826473638742
 31
0.0
  0
LINE
  5
D2
330
70
100
AcDbEntity
  8
レイヤー 1
 62
    18
420
        0
370
    25
100
AcDbLine
 10
122.6824027286175
 20
-145.4790240305919
 30
0.0
 11
122.1683702417315
 21
-145.8610823638296
 31
0.0
  0
LINE
  5
D3
330
70
100
AcDbEntity
  8
レイヤー 1
 62
    18
420
        0
370
    25
100
AcDbLine
 10
118.170692565943
 20
-145.7181015305322
 30
0.0
 11
117.6849175783362
 21
-145.3005537528587
 31
0.0
  0
LINE
  5
D4
330
70
100
AcDbEntity
  8
レイヤー 1
 62
    18
420
        0
370
    25
100
AcDbLine
 10
119.1697592071214
 20
-145.7539437527458
 30
0.0
 11
118.6846897750521
 21
-145.3363959750719
 31
0.0
  0
LINE
  5
D5
330
70
100
AcDbEntity
  8
レイヤー 1
 62
    18
420
        0
370
    25
100
AcDbLine
 10
117.1716259247647
 20
-145.6826473638742
 30
0.0
 11
116.6858509371578
 21
-145.2650995862007
 31
0.0
  0
LINE
  5
D6
330
70
100
AcDbEntity
  8
レイヤー 1
 62
    18
420
        0
370
    25
100
AcDbLine
 10
118.6846897750521
 20
-145.3363959750719
 30
0.0
 11
118.170692565943
 21
-145.7181015305322
 31
0.0
  0
LINE
  5
D7
330
70
100
AcDbEntity
  8
レイヤー 1
 62
    18
420
        0
370
    25
100
AcDbLine
 10
126.6793748488685
 20
-145.6220048638893
 30
0.0
 11
126.1653776397594
 21
-146.0040631971273
 31
0.0
  0
LINE
  5
D8
330
70
100
AcDbEntity
  8
レイヤー 1
 62
    18
420
        0
370
    25
100
AcDbLine
 10
119.6837916940073
 20
-145.3722381972852
 30
0.0
 11
119.1697592071214
 21
-145.7539437527458
 31
0.0
  0
LINE
  5
D9
330
70
100
AcDbEntity
  8
レイヤー 1
 62
    18
420
        0
370
    25
100
AcDbLine
 10
120.6835286129464
 20
-145.4077276417207
 30
0.0
 11
120.1695314038373
 21
-145.7897859749587
 31
0.0
  0
LINE
  5
DA
330
70
100
AcDbEntity
  8
レイヤー 1
 62
    18
420
        0
370
    25
100
AcDbLine
 10
106.6778631369273
 20
-144.89542375296
 30
0.0
 11
106.6778631369273
 21
-153.1574440286725
 31
0.0
  0
LINE
  5
DB
330
70
100
AcDbEntity
  8
レイヤー 1
 62
    18
420
        0
370
    25
100
AcDbLine
 10
120.1695314038373
 20
-145.7897859749587
 30
0.0
 11
119.6837916940073
 21
-145.3722381972852
 31
0.0
  0
LINE
  5
DC
330
70
100
AcDbEntity
  8
レイヤー 1
 62
    18
420
        0
370
    25
100
AcDbLine
 10
121.1685980450156
 20
-145.8255929193941
 30
0.0
 11
120.6835286129464
 21
-145.4077276417207
 31
0.0
  0
LINE
  5
DD
330
70
100
AcDbEntity
  8
レイヤー 1
 62
    18
420
        0
370
    25
100
AcDbLine
 10
126.1653776397594
 20
-146.0040631971273
 30
0.0
 11
125.6803082076901
 21
-145.586162641676
 31
0.0
  0
LINE
  5
DE
330
70
100
AcDbEntity
  8
レイヤー 1
 62
    18
420
        0
370
    25
100
AcDbLine
 10
121.6826305319016
 20
-145.4435345861561
 30
0.0
 11
121.1685980450156
 21
-145.8255929193941
 31
0.0
  0
LINE
  5
DF
330
70
100
AcDbEntity
  8
レイヤー 1
 62
    18
420
        0
370
    25
100
AcDbLine
 10
122.1683702417315
 20
-145.8610823638296
 30
0.0
 11
121.6826305319016
 21
-145.4435345861561
 31
0.0
  0
LINE
  5
E0
330
70
100
AcDbEntity
  8
レイヤー 1
 62
    18
420
        0
370
    25
100
AcDbLine
 10
127.1651498364753
 20
-146.0395526415628
 30
0.0
 11
126.6793748488685
 21
-145.6220048638893
 31
0.0
  0
LINE
  5
E1
330
70
100
AcDbEntity
  8
レイヤー 1
 62
    18
420
        0
370
    25
100
AcDbLine
 10
123.6814693697958
 20
-145.5148662528051
 30
0.0
 11
123.1674721606868
 21
-145.8965718082651
 31
0.0
  0
LINE
  5
E2
330
70
100
AcDbEntity
  8
レイヤー 1
 62
    18
420
        0
370
    25
100
AcDbLine
 10
124.6805360109742
 20
-145.5506731972405
 30
0.0
 11
124.1665388018651
 21
-145.9324140304783
 31
0.0
  0
LINE
  5
E3
330
70
100
AcDbEntity
  8
レイヤー 1
 62
    18
420
        0
370
    25
100
AcDbLine
 10
124.1665388018651
 20
-145.9324140304783
 30
0.0
 11
123.6814693697958
 21
-145.5148662528051
 31
0.0
  0
LINE
  5
E4
330
70
100
AcDbEntity
  8
レイヤー 1
 62
    18
420
        0
370
    25
100
AcDbLine
 10
127.6791470455844
 20
-145.6574943083251
 30
0.0
 11
127.1651498364753
 21
-146.0395526415628
 31
0.0
  0
LINE
  5
E5
330
70
100
AcDbEntity
  8
レイヤー 1
 62
    18
420
        0
370
    25
100
AcDbLine
 10
123.1674721606868
 20
-145.8965718082651
 30
0.0
 11
122.6824027286175
 21
-145.4790240305919
 31
0.0
  0
LINE
  5
E6
330
70
100
AcDbEntity
  8
レイヤー 1
 62
    18
420
        0
370
    25
100
AcDbLine
 10
125.6803082076901
 20
-145.586162641676
 30
0.0
 11
125.166310998581
 21
-145.968220974914
 31
0.0
  0
LINE
  5
E7
330
70
100
AcDbEntity
  8
レイヤー 1
 62
    18
420
        0
370
    25
100
AcDbLine
 10
125.166310998581
 20
-145.968220974914
 30
0.0
 11
124.6805360109742
 21
-145.5506731972405
 31
0.0
  0
LINE
  5
E8
330
70
100
AcDbEntity
  8
レイヤー 1
 62
    18
420
        0
370
    25
100
AcDbLine
 10
127.6791470455844
 20
-145.6574943083251
 30
0.0
 11
127.6791470455844
 21
-146.1576979193109
 31
0.0
  0
LINE
  5
E9
330
70
100
AcDbEntity
  8
レイヤー 1
 62
    18
420
        0
370
    25
100
AcDbLine
 10
107.6776353336432
 20
-146.1576979193109
 30
0.0
 11
127.6791470455844
 21
-146.1576979193109
 31
0.0
  0
LINE
  5
EA
330
70
100
AcDbEntity
  8
レイヤー 1
 62
    18
420
        0
370
    25
100
AcDbLine
 10
116.6858509371578
 20
-145.2650995862007
 30
0.0
 11
116.1718537280488
 21
-145.6471579194387
 31
0.0
  0
LINE
  5
EB
330
70
100
AcDbEntity
  8
レイヤー 1
 62
    18
420
        0
370
    25
100
AcDbLine
 10
116.1718537280488
 20
-145.6471579194387
 30
0.0
 11
115.6867842959795
 21
-145.2292573639875
 31
0.0
  0
LINE
  5
EC
330
70
100
AcDbEntity
  8
レイヤー 1
 62
    18
420
        0
370
    25
100
AcDbLine
 10
115.6867842959795
 20
-145.2292573639875
 30
0.0
 11
115.1727870868704
 21
-145.6113156972255
 31
0.0
  0
LINE
  5
ED
330
70
100
AcDbEntity
  8
レイヤー 1
 62
    18
420
        0
370
    25
100
AcDbLine
 10
115.1727870868704
 20
-145.6113156972255
 30
0.0
 11
114.6870120992636
 21
-145.193767919552
 31
0.0
  0
LINE
  5
EE
330
70
100
AcDbEntity
  8
レイヤー 1
 62
    18
420
        0
370
    25
100
AcDbLine
 10
114.6870120992636
 20
-145.193767919552
 30
0.0
 11
114.1730148901545
 21
-145.5754734750122
 31
0.0
  0
LINE
  5
EF
330
70
100
AcDbEntity
  8
レイヤー 1
 62
    18
420
        0
370
    25
100
AcDbLine
 10
114.1730148901545
 20
-145.5754734750122
 30
0.0
 11
113.6879454580852
 21
-145.1579256973387
 31
0.0
  0
LINE
  5
F0
330
70
100
AcDbEntity
  8
レイヤー 1
 62
    18
420
        0
370
    25
100
AcDbLine
 10
113.6879454580852
 20
-145.1579256973387
 30
0.0
 11
113.1739129711993
 21
-145.5396665305765
 31
0.0
  0
LINE
  5
F1
330
70
100
AcDbEntity
  8
レイヤー 1
 62
    18
420
        0
370
    25
100
AcDbLine
 10
113.1739129711993
 20
-145.5396665305765
 30
0.0
 11
112.6881732613693
 21
-145.1221187529033
 31
0.0
  0
LINE
  5
F2
330
70
100
AcDbEntity
  8
レイヤー 1
 62
    18
420
        0
370
    25
100
AcDbLine
 10
112.6881732613693
 20
-145.1221187529033
 30
0.0
 11
112.1741760522602
 21
-145.504177086141
 31
0.0
  0
LINE
  5
F3
330
70
100
AcDbEntity
  8
レイヤー 1
 62
    18
420
        0
370
    25
100
AcDbLine
 10
112.1741760522602
 20
-145.504177086141
 30
0.0
 11
111.689106620191
 21
-145.0866293084675
 31
0.0
  0
LINE
  5
F4
330
70
100
AcDbEntity
  8
レイヤー 1
 62
    18
420
        0
370
    25
100
AcDbLine
 10
111.689106620191
 20
-145.0866293084675
 30
0.0
 11
111.175074133305
 21
-145.4686876417055
 31
0.0
  0
LINE
  5
F5
330
70
100
AcDbEntity
  8
レイヤー 1
 62
    18
420
        0
370
    25
100
AcDbLine
 10
111.175074133305
 20
-145.4686876417055
 30
0.0
 11
110.6900047012357
 21
-145.0507870862543
 31
0.0
  0
LINE
  5
F6
330
70
100
AcDbEntity
  8
レイヤー 1
 62
    18
420
        0
370
    25
100
AcDbLine
 10
110.6900047012357
 20
-145.0507870862543
 30
0.0
 11
110.1760074921267
 21
-145.4328454194923
 31
0.0
  0
LINE
  5
F7
330
70
100
AcDbEntity
  8
レイヤー 1
 62
    18
420
        0
370
    25
100
AcDbLine
 10
110.1760074921267
 20
-145.4328454194923
 30
0.0
 11
109.6902325045198
 21
-145.0152976418188
 31
0.0
  0
LINE
  5
F8
330
70
100
AcDbEntity
  8
レイヤー 1
 62
    18
420
        0
370
    25
100
AcDbLine
 10
109.6902325045198
 20
-145.0152976418188
 30
0.0
 11
109.1762352954108
 21
-145.3970384750569
 31
0.0
  0
LINE
  5
F9
330
70
100
AcDbEntity
  8
レイヤー 1
 62
    18
420
        0
370
    25
100
AcDbLine
 10
109.1762352954108
 20
-145.3970384750569
 30
0.0
 11
108.6911658633415
 21
-144.9794906973834
 31
0.0
  0
LINE
  5
FA
330
70
100
AcDbEntity
  8
レイヤー 1
 62
    18
420
        0
370
    25
100
AcDbLine
 10
108.6911658633415
 20
-144.9794906973834
 30
0.0
 11
108.1771686542324
 21
-145.3611962528433
 31
0.0
  0
LINE
  5
FB
330
70
100
AcDbEntity
  8
レイヤー 1
 62
    18
420
        0
370
    25
100
AcDbLine
 10
108.1771686542324
 20
-145.3611962528433
 30
0.0
 11
107.6913936666255
 21
-144.9436484751701
 31
0.0
  0
LINE
  5
FC
330
70
100
AcDbEntity
  8
レイヤー 1
 62
    18
420
        0
370
    25
100
AcDbLine
 10
107.6454652108721
 20
-144.89542375296
 30
0.0
 11
106.6778631369273
 21
-144.89542375296
 31
0.0
  0
LINE
  5
FD
330
70
100
AcDbEntity
  8
レイヤー 1
 62
    18
420
        0
370
    25
100
AcDbLine
 10
107.6776353336432
 20
-146.1576979193109
 30
0.0
 11
107.6776353336432
 21
-154.1575690284222
 31
0.0
  0
SPLINE
  5
FE
330
70
100
AcDbEntity
  8
レイヤー 1
 62
    18
420
        0
370
     9
100
AcDbSpline
210
0.0
220
0.0
230
1.0
 70
     9
 71
     3
 72
    17
 73
    13
 74
     0
 42
0.0000000001
 43
0.0000000001
 40
0.0
 40
0.0
 40
0.0
 40
0.0
 40
1.0
 40
1.0
 40
1.0
 40
2.0
 40
2.0
 40
2.0
 40
3.0
 40
3.0
 40
3.0
 40
4.0
 40
4.0
 40
4.0
 40
4.0
 10
80.77607268662626
 20
-140.8956645872931
 30
0.0
 10
80.77607268662626
 20
-140.8402079206404
 30
0.0
 10
80.73130518776839
 20
-140.7954051428737
 30
0.0
 10
80.67616602250843
 20
-140.7954051428737
 30
0.0
 10
80.62106213502536
 20
-140.7954051428737
 30
0.0
 10
80.57625935839061
 20
-140.8402079206404
 30
0.0
 10
80.57625935839061
 20
-140.8956645872931
 30
0.0
 10
80.57625935839061
 20
-140.9508037539461
 30
0.0
 10
80.62106213502536
 20
-140.9955712539347
 30
0.0
 10
80.67616602250843
 20
-140.9955712539347
 30
0.0
 10
80.73130518776839
 20
-140.9955712539347
 30
0.0
 10
80.77607268662626
 20
-140.9508037539461
 30
0.0
 10
80.77607268662626
 20
-140.8956645872931
 30
0.0
  0
CIRCLE
  5
FF
330
70
100
AcDbEntity
  8
レイヤー 1
 62
    18
420
        0
370
     9
100
AcDbCircle
 10
76.67640695788413
 20
-145.657494308325
 30
0.0
 40
0.0999066653798568
  0
CIRCLE
  5
100
330
70
100
AcDbEntity
  8
レイヤー 1
 62
    18
420
        0
370
     9
100
AcDbCircle
 10
76.67640695788413
 20
-146.1576979193109
 30
0.0
 40
0.0999066653797365
  0
CIRCLE
  5
101
330
70
100
AcDbEntity
  8
レイヤー 1
 62
    18
420
        0
370
     9
100
AcDbCircle
 10
76.67640695788413
 20
-154.1575690284222
 30
0.0
 40
0.0999066653797365
  0
SPLINE
  5
102
330
70
100
AcDbEntity
  8
レイヤー 1
 62
    18
420
        0
370
     9
100
AcDbSpline
210
0.0
220
0.0
230
1.0
 70
     9
 71
     3
 72
    17
 73
    13
 74
     0
 42
0.0000000001
 43
0.0000000001
 40
0.0
 40
0.0
 40
0.0
 40
0.0
 40
1.0
 40
1.0
 40
1.0
 40
2.0
 40
2.0
 40
2.0
 40
3.0
 40
3.0
 40
3.0
 40
4.0
 40
4.0
 40
4.0
 40
4.0
 10
101.7775329841677
 20
-140.8956645872931
 30
0.0
 10
101.7775329841677
 20
-140.8402079206404
 30
0.0
 10
101.7327654853098
 20
-140.7954051428737
 30
0.0
 10
101.6776263200499
 20
-140.7954051428737
 30
0.0
 10
101.6225224325668
 20
-140.7954051428737
 30
0.0
 10
101.577719655932
 20
-140.8402079206404
 30
0.0
 10
101.577719655932
 20
-140.8956645872931
 30
0.0
 10
101.577719655932
 20
-140.9508037539461
 30
0.0
 10
101.6225224325668
 20
-140.9955712539347
 30
0.0
 10
101.6776263200499
 20
-140.9955712539347
 30
0.0
 10
101.7327654853098
 20
-140.9955712539347
 30
0.0
 10
101.7775329841677
 20
-140.9508037539461
 30
0.0
 10
101.7775329841677
 20
-140.8956645872931
 30
0.0
  0
SPLINE
  5
103
330
70
100
AcDbEntity
  8
レイヤー 1
 62
    18
420
        0
370
     9
100
AcDbSpline
210
0.0
220
0.0
230
1.0
 70
     9
 71
     3
 72
    17
 73
    13
 74
     0
 42
0.0000000001
 43
0.0000000001
 40
0.0
 40
0.0
 40
0.0
 40
0.0
 40
1.0
 40
1.0
 40
1.0
 40
2.0
 40
2.0
 40
2.0
 40
3.0
 40
3.0
 40
3.0
 40
4.0
 40
4.0
 40
4.0
 40
4.0
 10
127.87896037382
 20
-140.8956645872931
 30
0.0
 10
127.87896037382
 20
-140.8402079206404
 30
0.0
 10
127.8341928749622
 20
-140.7954051428737
 30
0.0
 10
127.7790537097022
 20
-140.7954051428737
 30
0.0
 10
127.7232442666816
 20
-140.7954051428737
 30
0.0
 10
127.6784767678237
 20
-140.8402079206404
 30
0.0
 10
127.6784767678237
 20
-140.8956645872931
 30
0.0
 10
127.6784767678237
 20
-140.9508037539461
 30
0.0
 10
127.7232442666816
 20
-140.9955712539347
 30
0.0
 10
127.7790537097022
 20
-140.9955712539347
 30
0.0
 10
127.8341928749622
 20
-140.9955712539347
 30
0.0
 10
127.87896037382
 20
-140.9508037539461
 30
0.0
 10
127.87896037382
 20
-140.8956645872931
 30
0.0
  0
SPLINE
  5
104
330
70
100
AcDbEntity
  8
レイヤー 1
 62
    18
420
        0
370
     9
100
AcDbSpline
210
0.0
220
0.0
230
1.0
 70
     9
 71
     3
 72
    17
 73
    13
 74
     0
 42
0.0000000001
 43
0.0000000001
 40
0.0
 40
0.0
 40
0.0
 40
0.0
 40
1.0
 40
1.0
 40
1.0
 40
2.0
 40
2.0
 40
2.0
 40
3.0
 40
3.0
 40
3.0
 40
4.0
 40
4.0
 40
4.0
 40
4.0
 10
106.877676465163
 20
-140.8956645872931
 30
0.0
 10
106.877676465163
 20
-140.8402079206404
 30
0.0
 10
106.8328736885282
 20
-140.7954051428737
 30
0.0
 10
106.7777698010451
 20
-140.7954051428737
 30
0.0
 10
106.7226306357852
 20
-140.7954051428737
 30
0.0
 10
106.6778631369273
 20
-140.8402079206404
 30
0.0
 10
106.6778631369273
 20
-140.8956645872931
 30
0.0
 10
106.6778631369273
 20
-140.9508037539461
 30
0.0
 10
106.7226306357852
 20
-140.9955712539347
 30
0.0
 10
106.7777698010451
 20
-140.9955712539347
 30
0.0
 10
106.8328736885282
 20
-140.9955712539347
 30
0.0
 10
106.877676465163
 20
-140.9508037539461
 30
0.0
 10
106.877676465163
 20
-140.8956645872931
 30
0.0
  0
LINE
  5
105
330
70
100
AcDbEntity
  8
レイヤー 1
 62
    18
420
        0
370
     9
100
AcDbLine
 10
76.67640695788413
 20
-145.6574943083251
 30
0.0
 11
76.67640695788413
 21
-140.3995884763062
 31
0.0
  0
LINE
  5
106
330
70
100
AcDbEntity
  8
レイヤー 1
 62
    18
420
        0
370
     9
100
AcDbLine
 10
76.67640695788413
 20
-145.6574943083251
 30
0.0
 11
76.67640695788413
 21
-146.1576979193109
 31
0.0
  0
LINE
  5
107
330
70
100
AcDbEntity
  8
レイヤー 1
 62
    18
420
        0
370
     9
100
AcDbLine
 10
78.13644830952426
 20
-145.6574943083251
 30
0.0
 11
75.67631726117631
 21
-145.6574943083251
 31
0.0
  0
LINE
  5
108
330
70
100
AcDbEntity
  8
レイヤー 1
 62
    18
420
        0
370
     9
100
AcDbLine
 10
78.13644830952426
 20
-146.1576979193109
 30
0.0
 11
75.67631726117631
 21
-146.1576979193109
 31
0.0
  0
INSERT
  5
10A
330
70
100
AcDbEntity
  8
レイヤー 1
100
AcDbBlockReference
  2
Block_2
 10
0.0
 20
0.0
 30
0.0
  0
LINE
  5
118
330
70
100
AcDbEntity
  8
レイヤー 1
 62
    18
420
        0
370
     9
100
AcDbLine
 10
80.67616602250843
 20
-140.8956645872931
 30
0.0
 11
101.6776263200499
 21
-140.8956645872931
 31
0.0
  0
LINE
  5
119
330
70
100
AcDbEntity
  8
レイヤー 1
 62
    18
420
        0
370
     9
100
AcDbLine
 10
80.67616602250843
 20
-143.1177412534044
 30
0.0
 11
80.67616602250843
 21
-139.8955748653209
 31
0.0
  0
INSERT
  5
11B
330
70
100
AcDbEntity
  8
レイヤー 1
100
AcDbBlockReference
  2
Block_4
 10
0.0
 20
0.0
 30
0.0
  0
LINE
  5
126
330
70
100
AcDbEntity
  8
レイヤー 1
 62
    18
420
        0
370
     9
100
AcDbLine
 10
76.67640695788413
 20
-146.1576979193109
 30
0.0
 11
76.67640695788413
 21
-154.1575690284222
 31
0.0
  0
LINE
  5
127
330
70
100
AcDbEntity
  8
レイヤー 1
 62
    18
420
        0
370
     9
100
AcDbLine
 10
98.13813641034979
 20
-154.1575690284222
 30
0.0
 11
75.67631726117631
 21
-154.1575690284222
 31
0.0
  0
INSERT
  5
129
330
70
100
AcDbEntity
  8
レイヤー 1
100
AcDbBlockReference
  2
Block_6
 10
0.0
 20
0.0
 30
0.0
  0
LINE
  5
130
330
70
100
AcDbEntity
  8
レイヤー 1
 62
    18
420
        0
370
     9
100
AcDbLine
 10
127.7790537097022
 20
-140.8956645872931
 30
0.0
 11
106.7777698010451
 21
-140.8956645872931
 31
0.0
  0
LINE
  5
131
330
70
100
AcDbEntity
  8
レイヤー 1
 62
    18
420
        0
370
     9
100
AcDbLine
 10
127.7790537097022
 20
-143.1177412534044
 30
0.0
 11
127.7790537097022
 21
-139.8955748653209
 31
0.0
  0
INSERT
  5
133
330
70
100
AcDbEntity
  8
レイヤー 1
100
AcDbBlockReference
  2
Block_7
 10
0.0
 20
0.0
 30
0.0
  0
LINE
  5
13E
330
70
100
AcDbEntity
  8
レイヤー 1
 62
    18
420
        0
370
     9
100
AcDbLine
 10
101.6776263200499
 20
-140.8956645872931
 30
0.0
 11
106.6778631369273
 21
-140.8956645872931
 31
0.0
  0
LINE
  5
13F
330
70
100
AcDbEntity
  8
レイヤー 1
 62
    18
420
        0
370
     9
100
AcDbLine
 10
101.6776263200499
 20
-142.3557059758171
 30
0.0
 11
101.6776263200499
 21
-139.8955748653209
 31
0.0
  0
LINE
  5
140
330
70
100
AcDbEntity
  8
レイヤー 1
 62
    18
420
        0
370
     9
100
AcDbLine
 10
106.7777698010451
 20
-142.3557059758171
 30
0.0
 11
106.7777698010451
 21
-139.8955748653209
 31
0.0
  0
INSERT
  5
142
330
70
100
AcDbEntity
  8
レイヤー 1
100
AcDbBlockReference
  2
Block_9
 10
0.0
 20
0.0
 30
0.0
  0
SPLINE
  5
147
330
70
100
AcDbEntity
  8
レイヤー 1
 62
    18
420
        0
370
     9
100
AcDbSpline
210
0.0
220
0.0
230
1.0
 70
     9
 71
     3
 72
    17
 73
    13
 74
     0
 42
0.0000000001
 43
0.0000000001
 40
0.0
 40
0.0
 40
0.0
 40
0.0
 40
1.0
 40
1.0
 40
1.0
 40
2.0
 40
2.0
 40
2.0
 40
3.0
 40
3.0
 40
3.0
 40
4.0
 40
4.0
 40
4.0
 40
4.0
 10
100.9617373392397
 20
-158.2709931940608
 30
0.0
 10
100.9617373392397
 20
-158.2158893051852
 30
0.0
 10
100.9059249508487
 20
-158.1710865274185
 30
0.0
 10
100.8377330081443
 20
-158.1710865274185
 30
0.0
 10
100.7688355099017
 20
-158.1710865274185
 30
0.0
 10
100.7136963446418
 20
-158.2158893051852
 30
0.0
 10
100.7136963446418
 20
-158.2709931940608
 30
0.0
 10
100.7136963446418
 20
-158.3261323607132
 30
0.0
 10
100.7688355099017
 20
-158.3708998607018
 30
0.0
 10
100.8377330081443
 20
-158.3708998607018
 30
0.0
 10
100.9059249508487
 20
-158.3708998607018
 30
0.0
 10
100.9617373392397
 20
-158.3261323607132
 30
0.0
 10
100.9617373392397
 20
-158.2709931940608
 30
0.0
  0
SPLINE
  5
148
330
70
100
AcDbEntity
  8
レイヤー 1
 62
    18
420
        0
370
     9
100
AcDbSpline
210
0.0
220
0.0
230
1.0
 70
     9
 71
     3
 72
    17
 73
    13
 74
     0
 42
0.0000000001
 43
0.0000000001
 40
0.0
 40
0.0
 40
0.0
 40
0.0
 40
1.0
 40
1.0
 40
1.0
 40
2.0
 40
2.0
 40
2.0
 40
3.0
 40
3.0
 40
3.0
 40
4.0
 40
4.0
 40
4.0
 40
4.0
 10
107.9621858819393
 20
-158.2709931940608
 30
0.0
 10
107.9621858819393
 20
-158.2158893051852
 30
0.0
 10
107.9063764389187
 20
-158.1710865274185
 30
0.0
 10
107.8374789406764
 20
-158.1710865274185
 30
0.0
 10
107.7685845597605
 20
-158.1710865274185
 30
0.0
 10
107.7134422771742
 20
-158.2158893051852
 30
0.0
 10
107.7134422771742
 20
-158.2709931940608
 30
0.0
 10
107.7134422771742
 20
-158.3261323607132
 30
0.0
 10
107.7685845597605
 20
-158.3708998607018
 30
0.0
 10
107.8374789406764
 20
-158.3708998607018
 30
0.0
 10
107.9063764389187
 20
-158.3708998607018
 30
0.0
 10
107.9621858819393
 20
-158.3261323607132
 30
0.0
 10
107.9621858819393
 20
-158.2709931940608
 30
0.0
  0
LINE
  5
149
330
70
100
AcDbEntity
  8
レイヤー 1
 62
    18
420
        0
370
     9
100
AcDbLine
 10
107.8374789406764
 20
-158.2709931940608
 30
0.0
 11
100.8377330081443
 21
-158.2709931940608
 31
0.0
  0
LINE
  5
14A
330
70
100
AcDbEntity
  8
レイヤー 1
 62
    18
420
        0
370
     9
100
AcDbLine
 10
107.8374789406764
 20
-156.810987083314
 30
0.0
 11
107.8374789406764
 21
-159.2711181938105
 31
0.0
  0
LINE
  5
14B
330
70
100
AcDbEntity
  8
レイヤー 1
 62
    18
420
        0
370
     9
100
AcDbLine
 10
100.8377330081443
 20
-156.810987083314
 30
0.0
 11
100.8377330081443
 21
-159.2711181938105
 31
0.0
  0
INSERT
  5
14D
330
70
100
AcDbEntity
  8
レイヤー 1
100
AcDbBlockReference
  2
Block_10
 10
0.0
 20
0.0
 30
0.0
  0
LINE
  5
152
330
70
100
AcDbEntity
  8
レイヤー 1
 62
    18
420
        0
370
     9
100
AcDbLine
 10
104.649390966456
 20
-150.3028368071632
 30
0.0
 11
112.649579373465
 21
-150.3028368071632
 31
0.0
  0
INSERT
  5
154
330
70
100
AcDbEntity
  8
レイヤー 1
100
AcDbBlockReference
  2
Block_11
 10
0.0
 20
0.0
 30
0.0
  0
ENDSEC
  0
SECTION
  2
OBJECTS
  0
DICTIONARY
  5
C
330
0
100
AcDbDictionary
281
     1
  3
ACAD_COLOR
350
63
  3
ACAD_DETAILVIEWSTYLE
350
6A
  3
ACAD_GROUP
350
D
  3
ACAD_LAYOUT
350
62
  3
ACAD_MATERIAL
350
10
  3
ACAD_MLEADERSTYLE
350
66
  3
ACAD_MLINESTYLE
350
5F
  3
ACAD_PLOTSETTINGS
350
61
  3
ACAD_PLOTSTYLENAME
350
E
  3
ACAD_SCALELIST
350
42
  3
ACAD_SECTIONVIEWSTYLE
350
68
  3
ACAD_TABLESTYLE
350
64
  3
ACAD_VISUALSTYLE
350
29
  3
ACDB_RECOMPOSE_DATA
350
161
  3
AcDbVariableDictionary
350
159
  0
DICTIONARY
  5
63
102
{ACAD_REACTORS
330
C
102
}
330
C
100
AcDbDictionary
281
     1
  0
DICTIONARY
  5
6A
102
{ACAD_REACTORS
330
C
102
}
330
C
100
AcDbDictionary
281
     1
  3
Imperial24
350
6B
  0
DICTIONARY
  5
D
102
{ACAD_REACTORS
330
C
102
}
330
C
100
AcDbDictionary
281
     1
  0
DICTIONARY
  5
62
102
{ACAD_REACTORS
330
C
102
}
330
C
100
AcDbDictionary
281
     1
  3
Layout1
350
6F
  3
Layout2
350
77
  3
Model
350
73
  0
DICTIONARY
  5
10
102
{ACAD_REACTORS
330
C
102
}
330
C
100
AcDbDictionary
281
     1
  3
ByBlock
350
19
  3
ByLayer
350
11
  3
Global
350
21
  0
DICTIONARY
  5
66
102
{ACAD_REACTORS
330
C
102
}
330
C
100
AcDbDictionary
281
     1
  3
Standard
350
67
  0
DICTIONARY
  5
5F
102
{ACAD_REACTORS
330
C
102
}
330
C
100
AcDbDictionary
281
     1
  3
Standard
350
60
  0
DICTIONARY
  5
61
102
{ACAD_REACTORS
330
C
102
}
330
C
100
AcDbDictionary
281
     1
  0
ACDBDICTIONARYWDFLT
  5
E
102
{ACAD_REACTORS
330
C
102
}
330
C
100
AcDbDictionary
281
     1
  3
Normal
350
F
100
AcDbDictionaryWithDefault
340
F
  0
DICTIONARY
  5
42
102
{ACAD_REACTORS
330
C
102
}
330
C
100
AcDbDictionary
281
     1
  3
A0
350
43
  3
A1
350
44
  3
A2
350
45
  3
A3
350
46
  3
A4
350
47
  3
A5
350
48
  3
A6
350
49
  3
A7
350
4A
  3
A8
350
4B
  3
A9
350
4C
  3
B0
350
4D
  3
B1
350
4E
  3
B2
350
4F
  3
B3
350
50
  3
B4
350
51
  3
B5
350
52
  3
B6
350
53
  0
DICTIONARY
  5
68
102
{ACAD_REACTORS
330
C
102
}
330
C
100
AcDbDictionary
281
     1
  3
Imperial24
350
69
  0
DICTIONARY
  5
64
102
{ACAD_REACTORS
330
C
102
}
330
C
100
AcDbDictionary
281
     1
  3
Standard
350
65
  0
DICTIONARY
  5
29
102
{ACAD_REACTORS
330
C
102
}
330
C
100
AcDbDictionary
281
     1
  3
2dWireframe
350
2F
  3
Basic
350
2E
  3
Brighten
350
35
  3
ColorChange
350
39
  3
Conceptual
350
32
  3
Dim
350
34
  3
EdgeColorOff
350
41
  3
Facepattern
350
38
  3
Flat
350
2A
  3
FlatWithEdges
350
2B
  3
Gouraud
350
2C
  3
GouraudWithEdges
350
2D
  3
Hidden
350
31
  3
JitterOff
350
3F
  3
Linepattern
350
37
  3
OverhangOff
350
40
  3
Realistic
350
33
  3
Shaded
350
3E
  3
Shaded with edges
350
3D
  3
Shades of Gray
350
3A
  3
Sketchy
350
3B
  3
Thicken
350
36
  3
Wireframe
350
30
  3
X-Ray
350
3C
  0
XRECORD
  5
161
102
{ACAD_REACTORS
330
C
102
}
330
C
100
AcDbXrecord
280
     1
 90
        1
330
65
  0
DICTIONARY
  5
159
102
{ACAD_REACTORS
330
C
102
}
330
C
100
AcDbDictionary
281
     1
  3
CANNOSCALE
350
15E
  3
CMLEADERSTYLE
350
15B
  3
CTABLESTYLE
350
15A
  3
CVIEWDETAILSTYLE
350
15C
  3
CVIEWSECTIONSTYLE
350
15D
  0
ACDBDETAILVIEWSTYLE
  5
6B
102
{ACAD_XDICTIONARY
360
196
102
}
102
{ACAD_REACTORS
330
6A
102
}
330
6A
100
AcDbModelDocViewStyle
 70
     0
  3
Imperial24
290
     0
100
AcDbDetailViewStyle
 70
     0
 71
     0
 90
        3
 71
     1
340
55
 62
   256
 40
0.24
340
0
 62
   256
 40
0.24
300

 40
0.36
280
     3
 71
     2
340
5D
 90
       25
 62
   256
 71
     3
340
55
 62
   256
 40
0.24
 90
        1
 40
0.75
 90
        1
300
%<\AcVar ViewType \f "%tc1">% %<\AcVar ViewDetailId>%\PSCALE %<\AcVar ViewScale \f "%sn">%
 71
     4
340
5D
 90
       25
 62
   256
340
5D
 90
       25
 62
   256
280
     0
  0
LAYOUT
  5
6F
102
{ACAD_REACTORS
330
62
102
}
330
62
100
AcDbPlotSettings
  1

  2

  4

  6

 40
0.0
 41
0.0
 42
0.0
 43
0.0
 44
0.0
 45
0.0
 46
0.0
 47
0.0
 48
0.0
 49
0.0
140
0.0
141
0.0
142
1.0
143
1.0
 70
   688
 72
     0
 73
     0
 74
     5
  7

 75
    16
147
1.0
 76
     0
 77
     2
 78
   300
148
0.0
149
0.0
100
AcDbLayout
  1
Layout1
 70
     1
 71
     1
 10
0.0
 20
0.0
 11
12.0
 21
9.0
 12
0.0
 22
0.0
 32
0.0
 14
0.0
 24
0.0
 34
0.0
 15
0.0
 25
0.0
 35
0.0
146
0.0
 13
0.0
 23
0.0
 33
0.0
 16
1.0
 26
0.0
 36
0.0
 17
0.0
 27
1.0
 37
0.0
 76
     0
330
6C
  0
LAYOUT
  5
77
102
{ACAD_REACTORS
330
62
102
}
330
62
100
AcDbPlotSettings
  1

  2

  4

  6

 40
0.0
 41
0.0
 42
0.0
 43
0.0
 44
0.0
 45
0.0
 46
0.0
 47
0.0
 48
0.0
 49
0.0
140
0.0
141
0.0
142
1.0
143
1.0
 70
   688
 72
     0
 73
     0
 74
     5
  7

 75
    16
147
1.0
 76
     0
 77
     2
 78
   300
148
0.0
149
0.0
100
AcDbLayout
  1
Layout2
 70
     1
 71
     2
 10
0.0
 20
0.0
 11
12.0
 21
9.0
 12
0.0
 22
0.0
 32
0.0
 14
0.0
 24
0.0
 34
0.0
 15
0.0
 25
0.0
 35
0.0
146
0.0
 13
0.0
 23
0.0
 33
0.0
 16
1.0
 26
0.0
 36
0.0
 17
0.0
 27
1.0
 37
0.0
 76
     0
330
74
  0
LAYOUT
  5
73
102
{ACAD_REACTORS
330
62
102
}
330
62
100
AcDbPlotSettings
  1

  2

  4

  6

 40
0.0
 41
0.0
 42
0.0
 43
0.0
 44
0.0
 45
0.0
 46
0.0
 47
0.0
 48
0.0
 49
0.0
140
0.0
141
0.0
142
1.0
143
1.0
 70
  1712
 72
     0
 73
     0
 74
     0
  7

 75
     0
147
1.0
 76
     0
 77
     2
 78
   300
148
0.0
149
0.0
100
AcDbLayout
  1
Model
 70
     1
 71
     0
 10
0.0
 20
0.0
 11
12.0
 21
9.0
 12
0.0
 22
0.0
 32
0.0
 14
0.0
 24
0.0
 34
0.0
 15
0.0
 25
0.0
 35
0.0
146
0.0
 13
0.0
 23
0.0
 33
0.0
 16
1.0
 26
0.0
 36
0.0
 17
0.0
 27
1.0
 37
0.0
 76
     0
330
70
  0
MATERIAL
  5
19
102
{ACAD_XDICTIONARY
360
1A
102
}
102
{ACAD_REACTORS
330
10
102
}
330
10
100
AcDbMaterial
  1
ByBlock
 72
     0
 43
0.0208333333333333
 43
0.0
 43
0.0
 43
0.0
 43
0.0
 43
0.0208333333333333
 43
0.0
 43
0.0
 43
0.0
 43
0.0
 43
1.0
 43
0.0
 43
0.0
 43
0.0
 43
0.0
 43
1.0
 77
     0
 47
0.0208333333333333
 47
0.0
 47
0.0
 47
0.0
 47
0.0
 47
0.0208333333333333
 47
0.0
 47
0.0
 47
0.0
 47
0.0
 47
1.0
 47
0.0
 47
0.0
 47
0.0
 47
0.0
 47
1.0
171
     0
 49
0.0208333333333333
 49
0.0
 49
0.0
 49
0.0
 49
0.0
 49
0.0208333333333333
 49
0.0
 49
0.0
 49
0.0
 49
0.0
 49
1.0
 49
0.0
 49
0.0
 49
0.0
 49
0.0
 49
1.0
175
     0
142
0.0208333333333333
142
0.0
142
0.0
142
0.0
142
0.0
142
0.0208333333333333
142
0.0
142
0.0
142
0.0
142
0.0
142
1.0
142
0.0
142
0.0
142
0.0
142
0.0
142
1.0
179
     0
144
0.0208333333333333
144
0.0
144
0.0
144
0.0
144
0.0
144
0.0208333333333333
144
0.0
144
0.0
144
0.0
144
0.0
144
1.0
144
0.0
144
0.0
144
0.0
144
0.0
144
1.0
147
0.0208333333333333
147
0.0
147
0.0
147
0.0
147
0.0
147
0.0208333333333333
147
0.0
147
0.0
147
0.0
147
0.0
147
1.0
147
0.0
147
0.0
147
0.0
147
0.0
147
1.0
  0
MATERIAL
  5
11
102
{ACAD_XDICTIONARY
360
12
102
}
102
{ACAD_REACTORS
330
10
102
}
330
10
100
AcDbMaterial
  1
ByLayer
 72
     0
 43
0.0208333333333333
 43
0.0
 43
0.0
 43
0.0
 43
0.0
 43
0.0208333333333333
 43
0.0
 43
0.0
 43
0.0
 43
0.0
 43
1.0
 43
0.0
 43
0.0
 43
0.0
 43
0.0
 43
1.0
 77
     0
 47
0.0208333333333333
 47
0.0
 47
0.0
 47
0.0
 47
0.0
 47
0.0208333333333333
 47
0.0
 47
0.0
 47
0.0
 47
0.0
 47
1.0
 47
0.0
 47
0.0
 47
0.0
 47
0.0
 47
1.0
171
     0
 49
0.0208333333333333
 49
0.0
 49
0.0
 49
0.0
 49
0.0
 49
0.0208333333333333
 49
0.0
 49
0.0
 49
0.0
 49
0.0
 49
1.0
 49
0.0
 49
0.0
 49
0.0
 49
0.0
 49
1.0
175
     0
142
0.0208333333333333
142
0.0
142
0.0
142
0.0
142
0.0
142
0.0208333333333333
142
0.0
142
0.0
142
0.0
142
0.0
142
1.0
142
0.0
142
0.0
142
0.0
142
0.0
142
1.0
179
     0
144
0.0208333333333333
144
0.0
144
0.0
144
0.0
144
0.0
144
0.0208333333333333
144
0.0
144
0.0
144
0.0
144
0.0
144
1.0
144
0.0
144
0.0
144
0.0
144
0.0
144
1.0
147
0.0208333333333333
147
0.0
147
0.0
147
0.0
147
0.0
147
0.0208333333333333
147
0.0
147
0.0
147
0.0
147
0.0
147
1.0
147
0.0
147
0.0
147
0.0
147
0.0
147
1.0
  0
MATERIAL
  5
21
102
{ACAD_XDICTIONARY
360
22
102
}
102
{ACAD_REACTORS
330
10
102
}
330
10
100
AcDbMaterial
  1
Global
 72
     0
 43
0.0208333333333333
 43
0.0
 43
0.0
 43
0.0
 43
0.0
 43
0.0208333333333333
 43
0.0
 43
0.0
 43
0.0
 43
0.0
 43
1.0
 43
0.0
 43
0.0
 43
0.0
 43
0.0
 43
1.0
 77
     0
 47
0.0208333333333333
 47
0.0
 47
0.0
 47
0.0
 47
0.0
 47
0.0208333333333333
 47
0.0
 47
0.0
 47
0.0
 47
0.0
 47
1.0
 47
0.0
 47
0.0
 47
0.0
 47
0.0
 47
1.0
171
     0
 49
0.0208333333333333
 49
0.0
 49
0.0
 49
0.0
 49
0.0
 49
0.0208333333333333
 49
0.0
 49
0.0
 49
0.0
 49
0.0
 49
1.0
 49
0.0
 49
0.0
 49
0.0
 49
0.0
 49
1.0
175
     0
142
0.0208333333333333
142
0.0
142
0.0
142
0.0
142
0.0
142
0.0208333333333333
142
0.0
142
0.0
142
0.0
142
0.0
142
1.0
142
0.0
142
0.0
142
0.0
142
0.0
142
1.0
179
     0
144
0.0208333333333333
144
0.0
144
0.0
144
0.0
144
0.0
144
0.0208333333333333
144
0.0
144
0.0
144
0.0
144
0.0
144
1.0
144
0.0
144
0.0
144
0.0
144
0.0
144
1.0
147
0.0208333333333333
147
0.0
147
0.0
147
0.0
147
0.0
147
0.0208333333333333
147
0.0
147
0.0
147
0.0
147
0.0
147
1.0
147
0.0
147
0.0
147
0.0
147
0.0
147
1.0
  0
MLEADERSTYLE
  5
67
102
{ACAD_XDICTIONARY
360
192
102
}
102
{ACAD_REACTORS
330
66
102
}
330
66
100
AcDbMLeaderStyle
179
     2
170
     2
171
     1
172
     0
 90
        2
 40
0.0
 41
0.0
173
     1
 91
-1056964608
340
5B
 92
       -2
290
     1
 42
0.09
291
     1
 43
0.36
  3
Standard
 44
0.18
300

342
55
174
     1
178
     6
175
     1
176
     0
 93
-1056964608
 45
0.18
292
     0
297
     0
 46
0.18
 94
-1056964608
 47
1.0
 49
1.0
140
1.0
293
     1
141
0.0
294
     1
177
     0
142
1.0
295
     0
296
     0
143
0.125
271
     0
272
     9
273
     9
  0
MLINESTYLE
  5
60
102
{ACAD_REACTORS
330
5F
102
}
330
5F
100
AcDbMlineStyle
  2
STANDARD
 70
     0
  3

 62
   256
 51
90.0
 52
90.0
 71
     2
 49
0.5
 62
   256
  6
BYLAYER
 49
-0.5
 62
   256
  6
BYLAYER
  0
ACDBPLACEHOLDER
  5
F
102
{ACAD_REACTORS
330
E
102
}
330
E
  0
SCALE
  5
43
102
{ACAD_REACTORS
330
42
102
}
330
42
100
AcDbScale
 70
     0
300
1:1
140
1.0
141
1.0
290
     1
  0
SCALE
  5
44
102
{ACAD_REACTORS
330
42
102
}
330
42
100
AcDbScale
 70
     0
300
1/128" = 1'-0"
140
0.0078125
141
12.0
290
     0
  0
SCALE
  5
45
102
{ACAD_REACTORS
330
42
102
}
330
42
100
AcDbScale
 70
     0
300
1/64" = 1'-0"
140
0.015625
141
12.0
290
     0
  0
SCALE
  5
46
102
{ACAD_REACTORS
330
42
102
}
330
42
100
AcDbScale
 70
     0
300
1/32" = 1'-0"
140
0.03125
141
12.0
290
     0
  0
SCALE
  5
47
102
{ACAD_REACTORS
330
42
102
}
330
42
100
AcDbScale
 70
     0
300
1/16" = 1'-0"
140
0.0625
141
12.0
290
     0
  0
SCALE
  5
48
102
{ACAD_REACTORS
330
42
102
}
330
42
100
AcDbScale
 70
     0
300
3/32" = 1'-0"
140
0.09375
141
12.0
290
     0
  0
SCALE
  5
49
102
{ACAD_REACTORS
330
42
102
}
330
42
100
AcDbScale
 70
     0
300
1/8" = 1'-0"
140
0.125
141
12.0
290
     0
  0
SCALE
  5
4A
102
{ACAD_REACTORS
330
42
102
}
330
42
100
AcDbScale
 70
     0
300
3/16" = 1'-0"
140
0.1875
141
12.0
290
     0
  0
SCALE
  5
4B
102
{ACAD_REACTORS
330
42
102
}
330
42
100
AcDbScale
 70
     0
300
1/4" = 1'-0"
140
0.25
141
12.0
290
     0
  0
SCALE
  5
4C
102
{ACAD_REACTORS
330
42
102
}
330
42
100
AcDbScale
 70
     0
300
3/8" = 1'-0"
140
0.375
141
12.0
290
     0
  0
SCALE
  5
4D
102
{ACAD_REACTORS
330
42
102
}
330
42
100
AcDbScale
 70
     0
300
1/2" = 1'-0"
140
0.5
141
12.0
290
     0
  0
SCALE
  5
4E
102
{ACAD_REACTORS
330
42
102
}
330
42
100
AcDbScale
 70
     0
300
3/4" = 1'-0"
140
0.75
141
12.0
290
     0
  0
SCALE
  5
4F
102
{ACAD_REACTORS
330
42
102
}
330
42
100
AcDbScale
 70
     0
300
1" = 1'-0"
140
1.0
141
12.0
290
     0
  0
SCALE
  5
50
102
{ACAD_REACTORS
330
42
102
}
330
42
100
AcDbScale
 70
     0
300
1-1/2" = 1'-0"
140
1.5
141
12.0
290
     0
  0
SCALE
  5
51
102
{ACAD_REACTORS
330
42
102
}
330
42
100
AcDbScale
 70
     0
300
3" = 1'-0"
140
3.0
141
12.0
290
     0
  0
SCALE
  5
52
102
{ACAD_REACTORS
330
42
102
}
330
42
100
AcDbScale
 70
     0
300
6" = 1'-0"
140
6.0
141
12.0
290
     0
  0
SCALE
  5
53
102
{ACAD_REACTORS
330
42
102
}
330
42
100
AcDbScale
 70
     0
300
1'-0" = 1'-0"
140
12.0
141
12.0
290
     0
  0
ACDBSECTIONVIEWSTYLE
  5
69
102
{ACAD_XDICTIONARY
360
194
102
}
102
{ACAD_REACTORS
330
68
102
}
330
68
100
AcDbModelDocViewStyle
 70
     0
  3
Imperial24
290
     0
100
AcDbSectionViewStyle
 70
     0
 71
     0
 90
       78
 71
     1
340
55
 62
   256
 40
0.24
340
0
340
0
 62
   256
 40
0.24
300
I, O, Q, S, X, Z
 40
0.48
 90
        3
 40
0.18
 90
        1
 71
     2
340
5D
 90
       25
 62
   256
340
5D
 90
       50
 62
   256
 40
0.24
 40
0.0
 40
0.24
 71
     3
340
55
 62
   256
 40
0.24
 90
        1
 40
0.75
 90
        1
300
%<\AcVar ViewType \f "%tc1">% %<\AcVar ViewSectionStartId>%-%<\AcVar ViewSectionEndId>%\PSCALE %<\AcVar ViewScale \f "%sn">%
 71
     4
 62
   256
 62
   257
300
ANSI31
 40
1.0
 90
        0
290
     0
290
     0
 90
        6
 40
0.0
 40
1.570796326794896
 40
0.2617993877991494
 40
1.308996938995747
 40
-0.2617993877991494
 40
1.832595714594046
  0
TABLESTYLE
  5
65
102
{ACAD_XDICTIONARY
360
15F
102
}
102
{ACAD_REACTORS
330
64
102
}
330
64
100
AcDbTableStyle
280
     0
  3
Standard
 70
     0
 71
     0
 40
0.06
 41
0.06
280
     0
281
     0
  7
Standard
140
0.18
170
     2
 62
     0
 63
     7
283
     0
 90
      512
 91
        0
  1

274
    -2
284
     1
 64
     0
275
    -2
285
     1
 65
     0
276
    -2
286
     1
 66
     0
277
    -2
287
     1
 67
     0
278
    -2
288
     1
 68
     0
279
    -2
289
     1
 69
     0
  7
Standard
140
0.25
170
     5
 62
     0
 63
     7
283
     0
 90
      512
 91
        0
  1

274
    -2
284
     1
 64
     0
275
    -2
285
     1
 65
     0
276
    -2
286
     1
 66
     0
277
    -2
287
     1
 67
     0
278
    -2
288
     1
 68
     0
279
    -2
289
     1
 69
     0
  7
Standard
140
0.18
170
     5
 62
     0
 63
     7
283
     0
 90
      512
 91
        0
  1

274
    -2
284
     1
 64
     0
275
    -2
285
     1
 65
     0
276
    -2
286
     1
 66
     0
277
    -2
287
     1
 67
     0
278
    -2
288
     1
 68
     0
279
    -2
289
     1
 69
     0
  0
VISUALSTYLE
  5
2F
102
{ACAD_XDICTIONARY
360
16C
102
}
102
{ACAD_REACTORS
330
29
102
}
330
29
100
AcDbVisualStyle
  2
2dWireframe
 70
     4
177
     2
291
     0
 71
     0
176
     1
 72
     2
176
     1
 73
     0
176
     1
 90
        0
176
     1
 40
0.6
176
     1
 41
30.0
176
     1
 63
     7
421
 16777215
176
     1
 74
     1
176
     1
 91
        4
176
     1
 64
     7
176
     1
 65
   257
176
     1
 75
     1
176
     1
175
     1
176
     1
 42
1.0
176
     1
 92
        0
176
     1
 66
   257
176
     1
 43
1.0
176
     1
 76
     1
176
     1
 77
     6
176
     1
 78
     2
176
     1
 67
     7
176
     1
 79
     5
176
     1
170
     0
176
     1
171
     0
176
     1
290
     0
176
     1
 93
        1
176
     1
 44
0.0
176
     1
173
     0
176
     1
1001
ACAD
1000
AcDbSavedByObjectVersion
1070
     0
  0
VISUALSTYLE
  5
2E
102
{ACAD_XDICTIONARY
360
16A
102
}
102
{ACAD_REACTORS
330
29
102
}
330
29
100
AcDbVisualStyle
  2
Basic
 70
     7
177
     2
291
     1
 71
     1
176
     1
 72
     0
176
     1
 73
     1
176
     1
 90
        0
176
     1
 40
0.6
176
     1
 41
30.0
176
     1
 63
     7
421
 16777215
176
     1
 74
     0
176
     1
 91
        4
176
     1
 64
     7
176
     1
 65
   257
176
     1
 75
     1
176
     1
175
     1
176
     1
 42
1.0
176
     1
 92
        8
176
     1
 66
     7
176
     1
 43
1.0
176
     1
 76
     1
176
     1
 77
     6
176
     1
 78
     2
176
     1
 67
     7
176
     1
 79
     5
176
     1
170
     0
176
     1
171
     0
176
     1
290
     0
176
     1
 93
        1
176
     1
 44
0.0
176
     1
173
     0
176
     1
1001
ACAD
1000
AcDbSavedByObjectVersion
1070
     0
  0
VISUALSTYLE
  5
35
102
{ACAD_XDICTIONARY
360
178
102
}
102
{ACAD_REACTORS
330
29
102
}
330
29
100
AcDbVisualStyle
  2
Brighten
 70
    12
177
     2
291
     1
 71
     2
176
     1
 72
     2
176
     1
 73
     0
176
     1
 90
        0
176
     1
 40
0.6
176
     1
 41
30.0
176
     1
 63
     7
421
 16777215
176
     1
 74
     1
176
     1
 91
        4
176
     1
 64
     7
176
     1
 65
   257
176
     1
 75
     1
176
     1
175
     1
176
     1
 42
1.0
176
     1
 92
        8
176
     1
 66
     7
176
     1
 43
1.0
176
     1
 76
     1
176
     1
 77
     6
176
     1
 78
     2
176
     1
 67
     7
176
     1
 79
     5
176
     1
170
     0
176
     1
171
     0
176
     1
290
     0
176
     1
 93
        1
176
     1
 44
50.0
176
     1
173
     0
176
     1
1001
ACAD
1000
AcDbSavedByObjectVersion
1070
     0
  0
VISUALSTYLE
  5
39
102
{ACAD_XDICTIONARY
360
180
102
}
102
{ACAD_REACTORS
330
29
102
}
330
29
100
AcDbVisualStyle
  2
ColorChange
 70
    16
177
     2
291
     1
 71
     2
176
     1
 72
     2
176
     1
 73
     3
176
     1
 90
        0
176
     1
 40
0.6
176
     1
 41
30.0
176
     1
 63
     8
421
  8421504
176
     1
 74
     1
176
     1
 91
        4
176
     1
 64
     7
176
     1
 65
   257
176
     1
 75
     1
176
     1
175
     1
176
     1
 42
1.0
176
     1
 92
        8
176
     1
 66
     8
424
  8421504
176
     1
 43
1.0
176
     1
 76
     1
176
     1
 77
     6
176
     1
 78
     2
176
     1
 67
     7
176
     1
 79
     5
176
     1
170
     0
176
     1
171
     0
176
     1
290
     0
176
     1
 93
        1
176
     1
 44
0.0
176
     1
173
     0
176
     1
1001
ACAD
1000
AcDbSavedByObjectVersion
1070
     0
  0
VISUALSTYLE
  5
32
102
{ACAD_XDICTIONARY
360
172
102
}
102
{ACAD_REACTORS
330
29
102
}
330
29
100
AcDbVisualStyle
  2
Conceptual
 70
     9
177
     2
291
     0
 71
     3
176
     1
 72
     2
176
     1
 73
     0
176
     1
 90
        0
176
     1
 40
0.6
176
     1
 41
30.0
176
     1
 63
     7
421
 16777215
176
     1
 74
     2
176
     1
 91
        2
176
     1
 64
     7
176
     1
 65
   257
176
     1
 75
     1
176
     1
175
     1
176
     1
 42
179.0
176
     1
 92
        8
176
     1
 66
     7
176
     1
 43
1.0
176
     1
 76
     1
176
     1
 77
     6
176
     1
 78
     2
176
     1
 67
     7
176
     1
 79
     3
176
     1
170
     0
176
     1
171
     0
176
     1
290
     0
176
     1
 93
        1
176
     1
 44
0.0
176
     1
173
     0
176
     1
1001
ACAD
1000
AcDbSavedByObjectVersion
1070
     0
  0
VISUALSTYLE
  5
34
102
{ACAD_XDICTIONARY
360
176
102
}
102
{ACAD_REACTORS
330
29
102
}
330
29
100
AcDbVisualStyle
  2
Dim
 70
    11
177
     2
291
     1
 71
     2
176
     1
 72
     2
176
     1
 73
     0
176
     1
 90
        0
176
     1
 40
0.6
176
     1
 41
30.0
176
     1
 63
     7
421
 16777215
176
     1
 74
     1
176
     1
 91
        4
176
     1
 64
     7
176
     1
 65
   257
176
     1
 75
     1
176
     1
175
     1
176
     1
 42
1.0
176
     1
 92
        8
176
     1
 66
     7
176
     1
 43
1.0
176
     1
 76
     1
176
     1
 77
     6
176
     1
 78
     2
176
     1
 67
     7
176
     1
 79
     5
176
     1
170
     0
176
     1
171
     0
176
     1
290
     0
176
     1
 93
        1
176
     1
 44
-50.0
176
     1
173
     0
176
     1
1001
ACAD
1000
AcDbSavedByObjectVersion
1070
     0
  0
VISUALSTYLE
  5
41
102
{ACAD_XDICTIONARY
360
190
102
}
102
{ACAD_REACTORS
330
29
102
}
330
29
100
AcDbVisualStyle
  2
EdgeColorOff
 70
    22
177
     2
291
     1
 71
     2
176
     0
 72
     2
176
     0
 73
     0
176
     0
 90
        0
176
     0
 40
0.6
176
     0
 41
30.0
176
     0
 63
     7
421
 16777215
176
     0
 74
     1
176
     0
 91
        4
176
     0
 64
     7
176
     0
 65
   257
176
     0
 75
     1
176
     0
175
     1
176
     0
 42
1.0
176
     0
 92
        8
176
     2
 66
     7
176
     0
 43
1.0
176
     0
 76
     1
176
     0
 77
     6
176
     0
 78
     2
176
     0
 67
     7
176
     0
 79
     5
176
     0
170
     0
176
     0
171
     0
176
     0
290
     0
176
     0
 93
        1
176
     0
 44
0.0
176
     0
173
     0
176
     0
1001
ACAD
1000
AcDbSavedByObjectVersion
1070
     0
  0
VISUALSTYLE
  5
38
102
{ACAD_XDICTIONARY
360
17E
102
}
102
{ACAD_REACTORS
330
29
102
}
330
29
100
AcDbVisualStyle
  2
Facepattern
 70
    15
177
     2
291
     1
 71
     2
176
     1
 72
     2
176
     1
 73
     0
176
     1
 90
        0
176
     1
 40
0.6
176
     1
 41
30.0
176
     1
 63
     7
421
 16777215
176
     1
 74
     1
176
     1
 91
        4
176
     1
 64
     7
176
     1
 65
   257
176
     1
 75
     1
176
     1
175
     1
176
     1
 42
1.0
176
     1
 92
        8
176
     1
 66
     7
176
     1
 43
1.0
176
     1
 76
     1
176
     1
 77
     6
176
     1
 78
     2
176
     1
 67
     7
176
     1
 79
     5
176
     1
170
     0
176
     1
171
     0
176
     1
290
     0
176
     1
 93
        1
176
     1
 44
0.0
176
     1
173
     0
176
     1
1001
ACAD
1000
AcDbSavedByObjectVersion
1070
     0
  0
VISUALSTYLE
  5
2A
102
{ACAD_XDICTIONARY
360
162
102
}
102
{ACAD_REACTORS
330
29
102
}
330
29
100
AcDbVisualStyle
  2
Flat
 70
     0
177
     2
291
     1
 71
     2
176
     1
 72
     1
176
     1
 73
     1
176
     1
 90
        2
176
     1
 40
0.6
176
     1
 41
30.0
176
     1
 63
     7
421
 16777215
176
     1
 74
     0
176
     1
 91
        0
176
     1
 64
     7
176
     1
 65
   257
176
     1
 75
     1
176
     1
175
     1
176
     1
 42
1.0
176
     1
 92
        8
176
     1
 66
     7
176
     1
 43
1.0
176
     1
 76
     1
176
     1
 77
     6
176
     1
 78
     2
176
     1
 67
     7
176
     1
 79
     5
176
     1
170
     0
176
     1
171
     0
176
     1
290
     0
176
     1
 93
       13
176
     1
 44
0.0
176
     1
173
     0
176
     1
1001
ACAD
1000
AcDbSavedByObjectVersion
1070
     0
  0
VISUALSTYLE
  5
2B
102
{ACAD_XDICTIONARY
360
164
102
}
102
{ACAD_REACTORS
330
29
102
}
330
29
100
AcDbVisualStyle
  2
FlatWithEdges
 70
     1
177
     2
291
     1
 71
     2
176
     1
 72
     1
176
     1
 73
     1
176
     1
 90
        2
176
     1
 40
0.6
176
     1
 41
30.0
176
     1
 63
     7
421
 16777215
176
     1
 74
     1
176
     1
 91
        0
176
     1
 64
     7
176
     1
 65
   257
176
     1
 75
     1
176
     1
175
     1
176
     1
 42
1.0
176
     1
 92
        0
176
     1
 66
   257
176
     1
 43
1.0
176
     1
 76
     1
176
     1
 77
     6
176
     1
 78
     2
176
     1
 67
     7
176
     1
 79
     5
176
     1
170
     0
176
     1
171
     0
176
     1
290
     0
176
     1
 93
       13
176
     1
 44
0.0
176
     1
173
     0
176
     1
1001
ACAD
1000
AcDbSavedByObjectVersion
1070
     0
  0
VISUALSTYLE
  5
2C
102
{ACAD_XDICTIONARY
360
166
102
}
102
{ACAD_REACTORS
330
29
102
}
330
29
100
AcDbVisualStyle
  2
Gouraud
 70
     2
177
     2
291
     1
 71
     2
176
     1
 72
     2
176
     1
 73
     1
176
     1
 90
        2
176
     1
 40
0.6
176
     1
 41
30.0
176
     1
 63
     7
421
 16777215
176
     1
 74
     0
176
     1
 91
        0
176
     1
 64
     7
176
     1
 65
   257
176
     1
 75
     1
176
     1
175
     1
176
     1
 42
1.0
176
     1
 92
        0
176
     1
 66
     7
176
     1
 43
1.0
176
     1
 76
     1
176
     1
 77
     6
176
     1
 78
     2
176
     1
 67
     7
176
     1
 79
     5
176
     1
170
     0
176
     1
171
     0
176
     1
290
     0
176
     1
 93
       13
176
     1
 44
0.0
176
     1
173
     0
176
     1
1001
ACAD
1000
AcDbSavedByObjectVersion
1070
     0
  0
VISUALSTYLE
  5
2D
102
{ACAD_XDICTIONARY
360
168
102
}
102
{ACAD_REACTORS
330
29
102
}
330
29
100
AcDbVisualStyle
  2
GouraudWithEdges
 70
     3
177
     2
291
     1
 71
     2
176
     1
 72
     2
176
     1
 73
     1
176
     1
 90
        2
176
     1
 40
0.6
176
     1
 41
30.0
176
     1
 63
     7
421
 16777215
176
     1
 74
     1
176
     1
 91
        0
176
     1
 64
     7
176
     1
 65
   257
176
     1
 75
     1
176
     1
175
     1
176
     1
 42
1.0
176
     1
 92
        0
176
     1
 66
   257
176
     1
 43
1.0
176
     1
 76
     1
176
     1
 77
     6
176
     1
 78
     2
176
     1
 67
     7
176
     1
 79
     5
176
     1
170
     0
176
     1
171
     0
176
     1
290
     0
176
     1
 93
       13
176
     1
 44
0.0
176
     1
173
     0
176
     1
1001
ACAD
1000
AcDbSavedByObjectVersion
1070
     0
  0
VISUALSTYLE
  5
31
102
{ACAD_XDICTIONARY
360
170
102
}
102
{ACAD_REACTORS
330
29
102
}
330
29
100
AcDbVisualStyle
  2
Hidden
 70
     6
177
     2
291
     0
 71
     1
176
     1
 72
     2
176
     1
 73
     2
176
     1
 90
        0
176
     1
 40
0.6
176
     1
 41
30.0
176
     1
 63
     7
421
 16777215
176
     1
 74
     2
176
     1
 91
        2
176
     1
 64
     7
176
     1
 65
   257
176
     1
 75
     2
176
     1
175
     1
176
     1
 42
40.0
176
     1
 92
        0
176
     1
 66
   257
176
     1
 43
1.0
176
     1
 76
     1
176
     1
 77
     6
176
     1
 78
     2
176
     1
 67
     7
176
     1
 79
     3
176
     1
170
     0
176
     1
171
     0
176
     1
290
     0
176
     1
 93
        1
176
     1
 44
0.0
176
     1
173
     0
176
     1
1001
ACAD
1000
AcDbSavedByObjectVersion
1070
     0
  0
VISUALSTYLE
  5
3F
102
{ACAD_XDICTIONARY
360
18C
102
}
102
{ACAD_REACTORS
330
29
102
}
330
29
100
AcDbVisualStyle
  2
JitterOff
 70
    20
177
     2
291
     1
 71
     2
176
     0
 72
     2
176
     0
 73
     0
176
     0
 90
        0
176
     0
 40
0.6
176
     0
 41
30.0
176
     0
 63
     7
421
 16777215
176
     0
 74
     1
176
     0
 91
        4
176
     0
 64
     7
176
     0
 65
   257
176
     0
 75
     1
176
     0
175
     1
176
     0
 42
1.0
176
     0
 92
       10
176
     2
 66
     7
176
     0
 43
1.0
176
     0
 76
     1
176
     0
 77
     6
176
     0
 78
     2
176
     0
 67
     7
176
     0
 79
     5
176
     0
170
     0
176
     0
171
     0
176
     0
290
     0
176
     0
 93
        1
176
     0
 44
0.0
176
     0
173
     0
176
     0
1001
ACAD
1000
AcDbSavedByObjectVersion
1070
     0
  0
VISUALSTYLE
  5
37
102
{ACAD_XDICTIONARY
360
17C
102
}
102
{ACAD_REACTORS
330
29
102
}
330
29
100
AcDbVisualStyle
  2
Linepattern
 70
    14
177
     2
291
     1
 71
     2
176
     1
 72
     2
176
     1
 73
     0
176
     1
 90
        0
176
     1
 40
0.6
176
     1
 41
30.0
176
     1
 63
     7
421
 16777215
176
     1
 74
     1
176
     1
 91
        4
176
     1
 64
     7
176
     1
 65
   257
176
     1
 75
     7
176
     1
175
     7
176
     1
 42
1.0
176
     1
 92
        8
176
     1
 66
     7
176
     1
 43
1.0
176
     1
 76
     1
176
     1
 77
     6
176
     1
 78
     2
176
     1
 67
     7
176
     1
 79
     5
176
     1
170
     0
176
     1
171
     0
176
     1
290
     0
176
     1
 93
        1
176
     1
 44
0.0
176
     1
173
     0
176
     1
1001
ACAD
1000
AcDbSavedByObjectVersion
1070
     0
  0
VISUALSTYLE
  5
40
102
{ACAD_XDICTIONARY
360
18E
102
}
102
{ACAD_REACTORS
330
29
102
}
330
29
100
AcDbVisualStyle
  2
OverhangOff
 70
    21
177
     2
291
     1
 71
     2
176
     0
 72
     2
176
     0
 73
     0
176
     0
 90
        0
176
     0
 40
0.6
176
     0
 41
30.0
176
     0
 63
     7
421
 16777215
176
     0
 74
     1
176
     0
 91
        4
176
     0
 64
     7
176
     0
 65
   257
176
     0
 75
     1
176
     0
175
     1
176
     0
 42
1.0
176
     0
 92
        9
176
     2
 66
     7
176
     0
 43
1.0
176
     0
 76
     1
176
     0
 77
     6
176
     0
 78
     2
176
     0
 67
     7
176
     0
 79
     5
176
     0
170
     0
176
     0
171
     0
176
     0
290
     0
176
     0
 93
        1
176
     0
 44
0.0
176
     0
173
     0
176
     0
1001
ACAD
1000
AcDbSavedByObjectVersion
1070
     0
  0
VISUALSTYLE
  5
33
102
{ACAD_XDICTIONARY
360
174
102
}
102
{ACAD_REACTORS
330
29
102
}
330
29
100
AcDbVisualStyle
  2
Realistic
 70
     8
177
     2
291
     0
 71
     2
176
     1
 72
     3
176
     1
 73
     0
176
     1
 90
        2
176
     1
 40
0.6
176
     1
 41
30.0
176
     1
 63
     7
421
 16777215
176
     1
 74
     0
176
     1
 91
        0
176
     1
 64
     7
176
     1
 65
   257
176
     1
 75
     1
176
     1
175
     1
176
     1
 42
1.0
176
     1
 92
        8
176
     1
 66
   257
176
     1
 43
1.0
176
     1
 76
     1
176
     1
 77
     6
176
     1
 78
     2
176
     1
 67
     7
176
     1
 79
     3
176
     1
170
     0
176
     1
171
     0
176
     1
290
     0
176
     1
 93
       13
176
     1
 44
0.0
176
     1
173
     0
176
     1
1001
ACAD
1000
AcDbSavedByObjectVersion
1070
     0
  0
VISUALSTYLE
  5
3E
102
{ACAD_XDICTIONARY
360
18A
102
}
102
{ACAD_REACTORS
330
29
102
}
330
29
100
AcDbVisualStyle
  2
Shaded
 70
    27
177
     2
291
     0
 71
     2
176
     1
 72
     2
176
     1
 73
     1
176
     1
 90
        2
176
     1
 40
0.6
176
     1
 41
30.0
176
     1
 63
     7
421
 16777215
176
     1
 74
     0
176
     1
 91
        4
176
     1
 64
     7
176
     1
 65
   257
176
     1
 75
     1
176
     1
175
     1
176
     1
 42
1.0
176
     1
 92
        8
176
     1
 66
   257
176
     1
 43
1.0
176
     1
 76
     1
176
     1
 77
     6
176
     1
 78
     2
176
     1
 67
     8
425
  7895160
176
     1
 79
     3
176
     1
170
     0
176
     1
171
     0
176
     1
290
     0
176
     1
 93
        5
176
     1
 44
0.0
176
     1
173
     0
176
     1
1001
ACAD
1000
AcDbSavedByObjectVersion
1070
     0
  0
VISUALSTYLE
  5
3D
102
{ACAD_XDICTIONARY
360
188
102
}
102
{ACAD_REACTORS
330
29
102
}
330
29
100
AcDbVisualStyle
  2
Shaded with edges
 70
    26
177
     2
291
     0
 71
     2
176
     1
 72
     2
176
     1
 73
     1
176
     1
 90
        2
176
     1
 40
0.6
176
     1
 41
30.0
176
     1
 63
     7
421
 16777215
176
     1
 74
     1
176
     1
 91
        2
176
     1
 64
     7
176
     1
 65
   257
176
     1
 75
     2
176
     1
175
     1
176
     1
 42
1.0
176
     1
 92
        8
176
     1
 66
   257
176
     1
 43
1.0
176
     1
 76
     1
176
     1
 77
     6
176
     1
 78
     2
176
     1
 67
     7
176
     1
 79
     3
176
     1
170
     0
176
     1
171
     0
176
     1
290
     0
176
     1
 93
        5
176
     1
 44
0.0
176
     1
173
     0
176
     1
1001
ACAD
1000
AcDbSavedByObjectVersion
1070
     0
  0
VISUALSTYLE
  5
3A
102
{ACAD_XDICTIONARY
360
182
102
}
102
{ACAD_REACTORS
330
29
102
}
330
29
100
AcDbVisualStyle
  2
Shades of Gray
 70
    23
177
     2
291
     0
 71
     2
176
     1
 72
     2
176
     1
 73
     3
176
     1
 90
        0
176
     1
 40
0.6
176
     1
 41
30.0
176
     1
 63
     7
421
 16777215
176
     1
 74
     2
176
     1
 91
        2
176
     1
 64
     7
176
     1
 65
     7
176
     1
 75
     1
176
     1
175
     1
176
     1
 42
40.0
176
     1
 92
        8
176
     1
 66
     7
176
     1
 43
1.0
176
     1
 76
     1
176
     1
 77
     6
176
     1
 78
     2
176
     1
 67
     7
176
     1
 79
     3
176
     1
170
     0
176
     1
171
     0
176
     1
290
     0
176
     1
 93
        1
176
     1
 44
0.0
176
     1
173
     0
176
     1
1001
ACAD
1000
AcDbSavedByObjectVersion
1070
     0
  0
VISUALSTYLE
  5
3B
102
{ACAD_XDICTIONARY
360
184
102
}
102
{ACAD_REACTORS
330
29
102
}
330
29
100
AcDbVisualStyle
  2
Sketchy
 70
    24
177
     2
291
     0
 71
     1
176
     1
 72
     2
176
     1
 73
     2
176
     1
 90
        0
176
     1
 40
0.6
176
     1
 41
30.0
176
     1
 63
     7
421
 16777215
176
     1
 74
     2
176
     1
 91
        2
176
     1
 64
     7
176
     1
 65
     7
176
     1
 75
     1
176
     1
175
     1
176
     1
 42
40.0
176
     1
 92
       11
176
     1
 66
     7
176
     1
 43
1.0
176
     1
 76
     1
176
     1
 77
     6
176
     1
 78
     2
176
     1
 67
     7
176
     1
 79
     6
176
     1
170
     0
176
     1
171
     0
176
     1
290
     0
176
     1
 93
        1
176
     1
 44
0.0
176
     1
173
     0
176
     1
1001
ACAD
1000
AcDbSavedByObjectVersion
1070
     0
  0
VISUALSTYLE
  5
36
102
{ACAD_XDICTIONARY
360
17A
102
}
102
{ACAD_REACTORS
330
29
102
}
330
29
100
AcDbVisualStyle
  2
Thicken
 70
    13
177
     2
291
     1
 71
     2
176
     1
 72
     2
176
     1
 73
     0
176
     1
 90
        0
176
     1
 40
0.6
176
     1
 41
30.0
176
     1
 63
     7
421
 16777215
176
     1
 74
     1
176
     1
 91
        4
176
     1
 64
     7
176
     1
 65
   257
176
     1
 75
     1
176
     1
175
     1
176
     1
 42
1.0
176
     1
 92
       12
176
     1
 66
     7
176
     1
 43
1.0
176
     1
 76
     1
176
     1
 77
     6
176
     1
 78
     2
176
     1
 67
     7
176
     1
 79
     5
176
     1
170
     0
176
     1
171
     0
176
     1
290
     0
176
     1
 93
        1
176
     1
 44
0.0
176
     1
173
     0
176
     1
1001
ACAD
1000
AcDbSavedByObjectVersion
1070
     0
  0
VISUALSTYLE
  5
30
102
{ACAD_XDICTIONARY
360
16E
102
}
102
{ACAD_REACTORS
330
29
102
}
330
29
100
AcDbVisualStyle
  2
Wireframe
 70
     5
177
     2
291
     0
 71
     0
176
     1
 72
     2
176
     1
 73
     0
176
     1
 90
        0
176
     1
 40
0.6
176
     1
 41
30.0
176
     1
 63
     7
421
 16777215
176
     1
 74
     1
176
     1
 91
        4
176
     1
 64
     7
176
     1
 65
   257
176
     1
 75
     1
176
     1
175
     1
176
     1
 42
1.0
176
     1
 92
        0
176
     1
 66
   257
176
     1
 43
1.0
176
     1
 76
     1
176
     1
 77
     6
176
     1
 78
     2
176
     1
 67
     7
176
     1
 79
     3
176
     1
170
     0
176
     1
171
     0
176
     1
290
     0
176
     1
 93
        1
176
     1
 44
0.0
176
     1
173
     0
176
     1
1001
ACAD
1000
AcDbSavedByObjectVersion
1070
     0
  0
VISUALSTYLE
  5
3C
102
{ACAD_XDICTIONARY
360
186
102
}
102
{ACAD_REACTORS
330
29
102
}
330
29
100
AcDbVisualStyle
  2
X-Ray
 70
    25
177
     2
291
     0
 71
     2
176
     1
 72
     2
176
     1
 73
     1
176
     1
 90
        1
176
     1
 40
0.5
176
     1
 41
30.0
176
     1
 63
     7
421
 16777215
176
     1
 74
     1
176
     1
 91
        0
176
     1
 64
     7
176
     1
 65
   257
176
     1
 75
     1
176
     1
175
     1
176
     1
 42
1.0
176
     1
 92
        8
176
     1
 66
     7
176
     1
 43
1.0
176
     1
 76
     1
176
     1
 77
     6
176
     1
 78
     2
176
     1
 67
     7
176
     1
 79
     3
176
     1
170
     0
176
     1
171
     0
176
     1
290
     0
176
     1
 93
       13
176
     1
 44
0.0
176
     1
173
     0
176
     1
1001
ACAD
1000
AcDbSavedByObjectVersion
1070
     0
  0
DICTIONARYVAR
  5
15E
102
{ACAD_REACTORS
330
159
102
}
330
159
100
DictionaryVariables
280
     0
  1
1:1
  0
DICTIONARYVAR
  5
15B
102
{ACAD_REACTORS
330
159
102
}
330
159
100
DictionaryVariables
280
     0
  1
STANDARD
  0
DICTIONARYVAR
  5
15A
102
{ACAD_REACTORS
330
159
102
}
330
159
100
DictionaryVariables
280
     0
  1
STANDARD
  0
DICTIONARYVAR
  5
15C
102
{ACAD_REACTORS
330
159
102
}
330
159
100
DictionaryVariables
280
     0
  1
Imperial24
  0
DICTIONARYVAR
  5
15D
102
{ACAD_REACTORS
330
159
102
}
330
159
100
DictionaryVariables
280
     0
  1
Imperial24
  0
DICTIONARY
  5
196
330
6B
100
AcDbDictionary
280
     1
281
     1
  3
ACAD_XREC_ROUNDTRIP
360
197
  0
DICTIONARY
  5
1A
330
19
100
AcDbDictionary
280
     1
281
     1
  3
BUMPTILE
360
1C
  3
DIFFUSETILE
360
1B
  3
OPACITYTILE
360
1F
  3
REFLECTIONTILE
360
1E
  3
REFRACTIONTILE
360
20
  3
SPECULARTILE
360
1D
  0
DICTIONARY
  5
12
330
11
100
AcDbDictionary
280
     1
281
     1
  3
BUMPTILE
360
14
  3
DIFFUSETILE
360
13
  3
OPACITYTILE
360
17
  3
REFLECTIONTILE
360
16
  3
REFRACTIONTILE
360
18
  3
SPECULARTILE
360
15
  0
DICTIONARY
  5
22
330
21
100
AcDbDictionary
280
     1
281
     1
  3
BUMPTILE
360
24
  3
DIFFUSETILE
360
23
  3
OPACITYTILE
360
27
  3
REFLECTIONTILE
360
26
  3
REFRACTIONTILE
360
28
  3
SPECULARTILE
360
25
  0
DICTIONARY
  5
192
330
67
100
AcDbDictionary
280
     1
281
     1
  3
ACAD_XREC_ROUNDTRIP
360
193
  0
DICTIONARY
  5
194
330
69
100
AcDbDictionary
280
     1
281
     1
  3
ACAD_XREC_ROUNDTRIP
360
195
  0
DICTIONARY
  5
15F
330
65
100
AcDbDictionary
280
     1
281
     1
  3
ACAD_ROUNDTRIP_2008_TABLESTYLE_CELLSTYLEMAP
360
160
  0
DICTIONARY
  5
16C
330
2F
100
AcDbDictionary
280
     1
281
     1
  3
ACAD_XREC_ROUNDTRIP
360
16D
  0
DICTIONARY
  5
16A
330
2E
100
AcDbDictionary
280
     1
281
     1
  3
ACAD_XREC_ROUNDTRIP
360
16B
  0
DICTIONARY
  5
178
330
35
100
AcDbDictionary
280
     1
281
     1
  3
ACAD_XREC_ROUNDTRIP
360
179
  0
DICTIONARY
  5
180
330
39
100
AcDbDictionary
280
     1
281
     1
  3
ACAD_XREC_ROUNDTRIP
360
181
  0
DICTIONARY
  5
172
330
32
100
AcDbDictionary
280
     1
281
     1
  3
ACAD_XREC_ROUNDTRIP
360
173
  0
DICTIONARY
  5
176
330
34
100
AcDbDictionary
280
     1
281
     1
  3
ACAD_XREC_ROUNDTRIP
360
177
  0
DICTIONARY
  5
190
330
41
100
AcDbDictionary
280
     1
281
     1
  3
ACAD_XREC_ROUNDTRIP
360
191
  0
DICTIONARY
  5
17E
330
38
100
AcDbDictionary
280
     1
281
     1
  3
ACAD_XREC_ROUNDTRIP
360
17F
  0
DICTIONARY
  5
162
330
2A
100
AcDbDictionary
280
     1
281
     1
  3
ACAD_XREC_ROUNDTRIP
360
163
  0
DICTIONARY
  5
164
330
2B
100
AcDbDictionary
280
     1
281
     1
  3
ACAD_XREC_ROUNDTRIP
360
165
  0
DICTIONARY
  5
166
330
2C
100
AcDbDictionary
280
     1
281
     1
  3
ACAD_XREC_ROUNDTRIP
360
167
  0
DICTIONARY
  5
168
330
2D
100
AcDbDictionary
280
     1
281
     1
  3
ACAD_XREC_ROUNDTRIP
360
169
  0
DICTIONARY
  5
170
330
31
100
AcDbDictionary
280
     1
281
     1
  3
ACAD_XREC_ROUNDTRIP
360
171
  0
DICTIONARY
  5
18C
330
3F
100
AcDbDictionary
280
     1
281
     1
  3
ACAD_XREC_ROUNDTRIP
360
18D
  0
DICTIONARY
  5
17C
330
37
100
AcDbDictionary
280
     1
281
     1
  3
ACAD_XREC_ROUNDTRIP
360
17D
  0
DICTIONARY
  5
18E
330
40
100
AcDbDictionary
280
     1
281
     1
  3
ACAD_XREC_ROUNDTRIP
360
18F
  0
DICTIONARY
  5
174
330
33
100
AcDbDictionary
280
     1
281
     1
  3
ACAD_XREC_ROUNDTRIP
360
175
  0
DICTIONARY
  5
18A
330
3E
100
AcDbDictionary
280
     1
281
     1
  3
ACAD_XREC_ROUNDTRIP
360
18B
  0
DICTIONARY
  5
188
330
3D
100
AcDbDictionary
280
     1
281
     1
  3
ACAD_XREC_ROUNDTRIP
360
189
  0
DICTIONARY
  5
182
330
3A
100
AcDbDictionary
280
     1
281
     1
  3
ACAD_XREC_ROUNDTRIP
360
183
  0
DICTIONARY
  5
184
330
3B
100
AcDbDictionary
280
     1
281
     1
  3
ACAD_XREC_ROUNDTRIP
360
185
  0
DICTIONARY
  5
17A
330
36
100
AcDbDictionary
280
     1
281
     1
  3
ACAD_XREC_ROUNDTRIP
360
17B
  0
DICTIONARY
  5
16E
330
30
100
AcDbDictionary
280
     1
281
     1
  3
ACAD_XREC_ROUNDTRIP
360
16F
  0
DICTIONARY
  5
186
330
3C
100
AcDbDictionary
280
     1
281
     1
  3
ACAD_XREC_ROUNDTRIP
360
187
  0
XRECORD
  5
197
102
{ACAD_REACTORS
330
196
102
}
330
196
100
AcDbXrecord
280
     1
102
DISPLAYNAME
  1
Imperial24
102
FLAGS
 90
        0
  0
XRECORD
  5
1C
102
{ACAD_REACTORS
330
1A
102
}
330
1A
100
AcDbXrecord
280
     1
270
     1
271
     1
  0
XRECORD
  5
1B
102
{ACAD_REACTORS
330
1A
102
}
330
1A
100
AcDbXrecord
280
     1
270
     1
271
     1
  0
XRECORD
  5
1F
102
{ACAD_REACTORS
330
1A
102
}
330
1A
100
AcDbXrecord
280
     1
270
     1
271
     1
  0
XRECORD
  5
1E
102
{ACAD_REACTORS
330
1A
102
}
330
1A
100
AcDbXrecord
280
     1
270
     1
271
     1
  0
XRECORD
  5
20
102
{ACAD_REACTORS
330
1A
102
}
330
1A
100
AcDbXrecord
280
     1
270
     1
271
     1
  0
XRECORD
  5
1D
102
{ACAD_REACTORS
330
1A
102
}
330
1A
100
AcDbXrecord
280
     1
270
     1
271
     1
  0
XRECORD
  5
14
102
{ACAD_REACTORS
330
12
102
}
330
12
100
AcDbXrecord
280
     1
270
     1
271
     1
  0
XRECORD
  5
13
102
{ACAD_REACTORS
330
12
102
}
330
12
100
AcDbXrecord
280
     1
270
     1
271
     1
  0
XRECORD
  5
17
102
{ACAD_REACTORS
330
12
102
}
330
12
100
AcDbXrecord
280
     1
270
     1
271
     1
  0
XRECORD
  5
16
102
{ACAD_REACTORS
330
12
102
}
330
12
100
AcDbXrecord
280
     1
270
     1
271
     1
  0
XRECORD
  5
18
102
{ACAD_REACTORS
330
12
102
}
330
12
100
AcDbXrecord
280
     1
270
     1
271
     1
  0
XRECORD
  5
15
102
{ACAD_REACTORS
330
12
102
}
330
12
100
AcDbXrecord
280
     1
270
     1
271
     1
  0
XRECORD
  5
24
102
{ACAD_REACTORS
330
22
102
}
330
22
100
AcDbXrecord
280
     1
270
     1
271
     1
  0
XRECORD
  5
23
102
{ACAD_REACTORS
330
22
102
}
330
22
100
AcDbXrecord
280
     1
270
     1
271
     1
  0
XRECORD
  5
27
102
{ACAD_REACTORS
330
22
102
}
330
22
100
AcDbXrecord
280
     1
270
     1
271
     1
  0
XRECORD
  5
26
102
{ACAD_REACTORS
330
22
102
}
330
22
100
AcDbXrecord
280
     1
270
     1
271
     1
  0
XRECORD
  5
28
102
{ACAD_REACTORS
330
22
102
}
330
22
100
AcDbXrecord
280
     1
270
     1
271
     1
  0
XRECORD
  5
25
102
{ACAD_REACTORS
330
22
102
}
330
22
100
AcDbXrecord
280
     1
270
     1
271
     1
  0
XRECORD
  5
193
102
{ACAD_REACTORS
330
192
102
}
330
192
100
AcDbXrecord
280
     1
102
ACAD_ROUNDTRIP_2012_MLEADER_STYLE
298
     1
  0
XRECORD
  5
195
102
{ACAD_REACTORS
330
194
102
}
330
194
100
AcDbXrecord
280
     1
102
DISPLAYNAME
  1
Imperial24
102
FLAGS
 90
        0
  0
CELLSTYLEMAP
  5
160
102
{ACAD_REACTORS
330
15F
102
}
330
15F
100
AcDbCellStyleMap
 90
        3
300
CELLSTYLE
  1
TABLEFORMAT_BEGIN
 90
        5
170
     1
 91
        0
 92
    32768
 62
   257
 93
        1
300
CONTENTFORMAT
  1
CONTENTFORMAT_BEGIN
 90
        0
 91
        0
 92
      512
 93
        0
300

 40
0.0
140
1.0
 94
        5
 62
     0
340
55
144
0.25
309
CONTENTFORMAT_END
171
     0
 94
        0
309
TABLEFORMAT_END
  1
CELLSTYLE_BEGIN
 90
        1
 91
        1
300
_TITLE
309
CELLSTYLE_END
300
CELLSTYLE
  1
TABLEFORMAT_BEGIN
 90
        5
170
     1
 91
        0
 92
        0
 62
   257
 93
        1
300
CONTENTFORMAT
  1
CONTENTFORMAT_BEGIN
 90
        0
 91
        0
 92
      512
 93
        0
300

 40
0.0
140
1.0
 94
        5
 62
     0
340
55
144
0.18
309
CONTENTFORMAT_END
171
     0
 94
        0
309
TABLEFORMAT_END
  1
CELLSTYLE_BEGIN
 90
        2
 91
        1
300
_HEADER
309
CELLSTYLE_END
300
CELLSTYLE
  1
TABLEFORMAT_BEGIN
 90
        5
170
     1
 91
        0
 92
        0
 62
   257
 93
        1
300
CONTENTFORMAT
  1
CONTENTFORMAT_BEGIN
 90
        0
 91
        0
 92
      512
 93
        0
300

 40
0.0
140
1.0
 94
        2
 62
     0
340
55
144
0.18
309
CONTENTFORMAT_END
171
     0
 94
        0
309
TABLEFORMAT_END
  1
CELLSTYLE_BEGIN
 90
        3
 91
        2
300
_DATA
309
CELLSTYLE_END
  0
XRECORD
  5
16D
102
{ACAD_REACTORS
330
16C
102
}
330
16C
100
AcDbXrecord
280
     1
102
RTVSPost2010Prop28
280
     1
102
RTVSPost2010PropOp28
 70
     1
102
RTVSPost2010Prop29
280
     1
102
RTVSPost2010PropOp29
 70
     1
102
RTVSPost2010Prop30
280
     0
102
RTVSPost2010PropOp30
 70
     1
102
RTVSPost2010Prop31
280
     0
102
RTVSPost2010PropOp31
 70
     1
102
RTVSPost2010Prop32
280
     0
102
RTVSPost2010PropOp32
 70
     1
102
RTVSPost2010Prop33
280
     0
102
RTVSPost2010PropOp33
 70
     1
102
RTVSPost2010Prop34
280
     0
102
RTVSPost2010PropOp34
 70
     1
102
RTVSPost2010Prop35
280
     0
102
RTVSPost2010PropOp35
 70
     1
102
RTVSPost2010Prop36
280
     0
102
RTVSPost2010PropOp36
 70
     1
102
RTVSPost2010Prop37
 90
       50
102
RTVSPost2010PropOp37
 70
     1
102
RTVSPost2010Prop38
140
0.0
102
RTVSPost2010PropOp38
 70
     1
102
RTVSPost2010Prop39
140
1.0
102
RTVSPost2010PropOp39
 70
     1
102
RTVSPost2010Prop40
 90
        0
102
RTVSPost2010PropOp40
 70
     1
102
RTVSPost2010Prop41ColorIndex
 90
       18
102
RTVSPost2010Prop41ColorRGB
 90
        0
102
RTVSPost2010PropOp41
 70
     1
102
RTVSPost2010Prop42
 90
       50
102
RTVSPost2010PropOp42
 70
     1
102
RTVSPost2010Prop43
 90
        3
102
RTVSPost2010PropOp43
 70
     1
102
RTVSPost2010Prop44ColorIndex
 90
        5
102
RTVSPost2010Prop44ColorRGB
 90
      255
102
RTVSPost2010PropOp44
 70
     1
102
RTVSPost2010Prop45
280
     0
102
RTVSPost2010PropOp45
 70
     1
102
RTVSPost2010Prop46
 90
       50
102
RTVSPost2010PropOp46
 70
     1
102
RTVSPost2010Prop47
 90
       50
102
RTVSPost2010PropOp47
 70
     1
102
RTVSPost2010Prop48
 90
       50
102
RTVSPost2010PropOp48
 70
     1
102
RTVSPost2010Prop49
280
     0
102
RTVSPost2010PropOp49
 70
     1
102
RTVSPost2010Prop50
 90
       50
102
RTVSPost2010PropOp50
 70
     1
102
RTVSPost2010Prop51ColorIndex
 90
      256
102
RTVSPost2010Prop51ColorRGB
 90
-16777216
102
RTVSPost2010PropOp51
 70
     0
102
RTVSPost2010Prop52
140
1.0
102
RTVSPost2010PropOp52
 70
     0
102
RTVSPost2010Prop53
 90
        2
102
RTVSPost2010PropOp53
 70
     1
102
RTVSPost2010Prop54
  1
strokes_ogs.tif
102
RTVSPost2010PropOp54
 70
     1
102
RTVSPost2010Prop55
280
     0
102
RTVSPost2010PropOp55
 70
     1
102
RTVSPost2010Prop56
140
1.0
102
RTVSPost2010PropOp56
 70
     1
102
RTVSPost2010Prop57
140
1.0
102
RTVSPost2010PropOp57
 70
     1
  0
XRECORD
  5
16B
102
{ACAD_REACTORS
330
16A
102
}
330
16A
100
AcDbXrecord
280
     1
102
RTVSPost2010Prop28
280
     0
102
RTVSPost2010PropOp28
 70
     1
102
RTVSPost2010Prop29
280
     1
102
RTVSPost2010PropOp29
 70
     1
102
RTVSPost2010Prop30
280
     1
102
RTVSPost2010PropOp30
 70
     1
102
RTVSPost2010Prop31
280
     0
102
RTVSPost2010PropOp31
 70
     1
102
RTVSPost2010Prop32
280
     0
102
RTVSPost2010PropOp32
 70
     1
102
RTVSPost2010Prop33
280
     0
102
RTVSPost2010PropOp33
 70
     1
102
RTVSPost2010Prop34
280
     0
102
RTVSPost2010PropOp34
 70
     1
102
RTVSPost2010Prop35
280
     0
102
RTVSPost2010PropOp35
 70
     1
102
RTVSPost2010Prop36
280
     0
102
RTVSPost2010PropOp36
 70
     1
102
RTVSPost2010Prop37
 90
       50
102
RTVSPost2010PropOp37
 70
     1
102
RTVSPost2010Prop38
140
0.0
102
RTVSPost2010PropOp38
 70
     1
102
RTVSPost2010Prop39
140
1.0
102
RTVSPost2010PropOp39
 70
     1
102
RTVSPost2010Prop40
 90
        0
102
RTVSPost2010PropOp40
 70
     1
102
RTVSPost2010Prop41ColorIndex
 90
       18
102
RTVSPost2010Prop41ColorRGB
 90
        0
102
RTVSPost2010PropOp41
 70
     1
102
RTVSPost2010Prop42
 90
       50
102
RTVSPost2010PropOp42
 70
     1
102
RTVSPost2010Prop43
 90
        3
102
RTVSPost2010PropOp43
 70
     1
102
RTVSPost2010Prop44ColorIndex
 90
        5
102
RTVSPost2010Prop44ColorRGB
 90
      255
102
RTVSPost2010PropOp44
 70
     1
102
RTVSPost2010Prop45
280
     0
102
RTVSPost2010PropOp45
 70
     1
102
RTVSPost2010Prop46
 90
       50
102
RTVSPost2010PropOp46
 70
     1
102
RTVSPost2010Prop47
 90
       50
102
RTVSPost2010PropOp47
 70
     1
102
RTVSPost2010Prop48
 90
       50
102
RTVSPost2010PropOp48
 70
     1
102
RTVSPost2010Prop49
280
     0
102
RTVSPost2010PropOp49
 70
     1
102
RTVSPost2010Prop50
 90
       50
102
RTVSPost2010PropOp50
 70
     1
102
RTVSPost2010Prop51ColorIndex
 90
      256
102
RTVSPost2010Prop51ColorRGB
 90
-16777216
102
RTVSPost2010PropOp51
 70
     0
102
RTVSPost2010Prop52
140
1.0
102
RTVSPost2010PropOp52
 70
     0
102
RTVSPost2010Prop53
 90
        2
102
RTVSPost2010PropOp53
 70
     1
102
RTVSPost2010Prop54
  1
strokes_ogs.tif
102
RTVSPost2010PropOp54
 70
     1
102
RTVSPost2010Prop55
280
     0
102
RTVSPost2010PropOp55
 70
     1
102
RTVSPost2010Prop56
140
1.0
102
RTVSPost2010PropOp56
 70
     1
102
RTVSPost2010Prop57
140
1.0
102
RTVSPost2010PropOp57
 70
     1
  0
XRECORD
  5
179
102
{ACAD_REACTORS
330
178
102
}
330
178
100
AcDbXrecord
280
     1
102
RTVSPost2010Prop28
280
     0
102
RTVSPost2010PropOp28
 70
     1
102
RTVSPost2010Prop29
280
     1
102
RTVSPost2010PropOp29
 70
     1
102
RTVSPost2010Prop30
280
     1
102
RTVSPost2010PropOp30
 70
     1
102
RTVSPost2010Prop31
280
     0
102
RTVSPost2010PropOp31
 70
     1
102
RTVSPost2010Prop32
280
     0
102
RTVSPost2010PropOp32
 70
     1
102
RTVSPost2010Prop33
280
     0
102
RTVSPost2010PropOp33
 70
     1
102
RTVSPost2010Prop34
280
     0
102
RTVSPost2010PropOp34
 70
     1
102
RTVSPost2010Prop35
280
     0
102
RTVSPost2010PropOp35
 70
     1
102
RTVSPost2010Prop36
280
     0
102
RTVSPost2010PropOp36
 70
     1
102
RTVSPost2010Prop37
 90
       50
102
RTVSPost2010PropOp37
 70
     1
102
RTVSPost2010Prop38
140
0.0
102
RTVSPost2010PropOp38
 70
     1
102
RTVSPost2010Prop39
140
1.0
102
RTVSPost2010PropOp39
 70
     1
102
RTVSPost2010Prop40
 90
        0
102
RTVSPost2010PropOp40
 70
     1
102
RTVSPost2010Prop41ColorIndex
 90
       18
102
RTVSPost2010Prop41ColorRGB
 90
        0
102
RTVSPost2010PropOp41
 70
     1
102
RTVSPost2010Prop42
 90
       50
102
RTVSPost2010PropOp42
 70
     1
102
RTVSPost2010Prop43
 90
        3
102
RTVSPost2010PropOp43
 70
     1
102
RTVSPost2010Prop44ColorIndex
 90
        5
102
RTVSPost2010Prop44ColorRGB
 90
      255
102
RTVSPost2010PropOp44
 70
     1
102
RTVSPost2010Prop45
280
     0
102
RTVSPost2010PropOp45
 70
     1
102
RTVSPost2010Prop46
 90
       50
102
RTVSPost2010PropOp46
 70
     1
102
RTVSPost2010Prop47
 90
       50
102
RTVSPost2010PropOp47
 70
     1
102
RTVSPost2010Prop48
 90
       50
102
RTVSPost2010PropOp48
 70
     1
102
RTVSPost2010Prop49
280
     0
102
RTVSPost2010PropOp49
 70
     1
102
RTVSPost2010Prop50
 90
       50
102
RTVSPost2010PropOp50
 70
     1
102
RTVSPost2010Prop51ColorIndex
 90
      256
102
RTVSPost2010Prop51ColorRGB
 90
-16777216
102
RTVSPost2010PropOp51
 70
     0
102
RTVSPost2010Prop52
140
1.0
102
RTVSPost2010PropOp52
 70
     0
102
RTVSPost2010Prop53
 90
        2
102
RTVSPost2010PropOp53
 70
     1
102
RTVSPost2010Prop54
  1
strokes_ogs.tif
102
RTVSPost2010PropOp54
 70
     1
102
RTVSPost2010Prop55
280
     0
102
RTVSPost2010PropOp55
 70
     1
102
RTVSPost2010Prop56
140
1.0
102
RTVSPost2010PropOp56
 70
     1
102
RTVSPost2010Prop57
140
1.0
102
RTVSPost2010PropOp57
 70
     1
  0
XRECORD
  5
181
102
{ACAD_REACTORS
330
180
102
}
330
180
100
AcDbXrecord
280
     1
102
RTVSPost2010Prop28
280
     0
102
RTVSPost2010PropOp28
 70
     1
102
RTVSPost2010Prop29
280
     1
102
RTVSPost2010PropOp29
 70
     1
102
RTVSPost2010Prop30
280
     1
102
RTVSPost2010PropOp30
 70
     1
102
RTVSPost2010Prop31
280
     0
102
RTVSPost2010PropOp31
 70
     1
102
RTVSPost2010Prop32
280
     0
102
RTVSPost2010PropOp32
 70
     1
102
RTVSPost2010Prop33
280
     0
102
RTVSPost2010PropOp33
 70
     1
102
RTVSPost2010Prop34
280
     0
102
RTVSPost2010PropOp34
 70
     1
102
RTVSPost2010Prop35
280
     0
102
RTVSPost2010PropOp35
 70
     1
102
RTVSPost2010Prop36
280
     0
102
RTVSPost2010PropOp36
 70
     1
102
RTVSPost2010Prop37
 90
       50
102
RTVSPost2010PropOp37
 70
     1
102
RTVSPost2010Prop38
140
0.0
102
RTVSPost2010PropOp38
 70
     1
102
RTVSPost2010Prop39
140
1.0
102
RTVSPost2010PropOp39
 70
     1
102
RTVSPost2010Prop40
 90
        0
102
RTVSPost2010PropOp40
 70
     1
102
RTVSPost2010Prop41ColorIndex
 90
       18
102
RTVSPost2010Prop41ColorRGB
 90
        0
102
RTVSPost2010PropOp41
 70
     1
102
RTVSPost2010Prop42
 90
       50
102
RTVSPost2010PropOp42
 70
     1
102
RTVSPost2010Prop43
 90
        3
102
RTVSPost2010PropOp43
 70
     1
102
RTVSPost2010Prop44ColorIndex
 90
        5
102
RTVSPost2010Prop44ColorRGB
 90
      255
102
RTVSPost2010PropOp44
 70
     1
102
RTVSPost2010Prop45
280
     0
102
RTVSPost2010PropOp45
 70
     1
102
RTVSPost2010Prop46
 90
       50
102
RTVSPost2010PropOp46
 70
     1
102
RTVSPost2010Prop47
 90
       50
102
RTVSPost2010PropOp47
 70
     1
102
RTVSPost2010Prop48
 90
       50
102
RTVSPost2010PropOp48
 70
     1
102
RTVSPost2010Prop49
280
     0
102
RTVSPost2010PropOp49
 70
     1
102
RTVSPost2010Prop50
 90
       50
102
RTVSPost2010PropOp50
 70
     1
102
RTVSPost2010Prop51ColorIndex
 90
      256
102
RTVSPost2010Prop51ColorRGB
 90
-16777216
102
RTVSPost2010PropOp51
 70
     0
102
RTVSPost2010Prop52
140
1.0
102
RTVSPost2010PropOp52
 70
     0
102
RTVSPost2010Prop53
 90
        2
102
RTVSPost2010PropOp53
 70
     1
102
RTVSPost2010Prop54
  1
strokes_ogs.tif
102
RTVSPost2010PropOp54
 70
     1
102
RTVSPost2010Prop55
280
     0
102
RTVSPost2010PropOp55
 70
     1
102
RTVSPost2010Prop56
140
1.0
102
RTVSPost2010PropOp56
 70
     1
102
RTVSPost2010Prop57
140
1.0
102
RTVSPost2010PropOp57
 70
     1
  0
XRECORD
  5
173
102
{ACAD_REACTORS
330
172
102
}
330
172
100
AcDbXrecord
280
     1
102
RTVSPost2010Prop28
280
     0
102
RTVSPost2010PropOp28
 70
     1
102
RTVSPost2010Prop29
280
     1
102
RTVSPost2010PropOp29
 70
     1
102
RTVSPost2010Prop30
280
     1
102
RTVSPost2010PropOp30
 70
     1
102
RTVSPost2010Prop31
280
     0
102
RTVSPost2010PropOp31
 70
     1
102
RTVSPost2010Prop32
280
     0
102
RTVSPost2010PropOp32
 70
     1
102
RTVSPost2010Prop33
280
     0
102
RTVSPost2010PropOp33
 70
     1
102
RTVSPost2010Prop34
280
     0
102
RTVSPost2010PropOp34
 70
     1
102
RTVSPost2010Prop35
280
     0
102
RTVSPost2010PropOp35
 70
     1
102
RTVSPost2010Prop36
280
     0
102
RTVSPost2010PropOp36
 70
     1
102
RTVSPost2010Prop37
 90
       50
102
RTVSPost2010PropOp37
 70
     1
102
RTVSPost2010Prop38
140
0.0
102
RTVSPost2010PropOp38
 70
     1
102
RTVSPost2010Prop39
140
1.0
102
RTVSPost2010PropOp39
 70
     1
102
RTVSPost2010Prop40
 90
        0
102
RTVSPost2010PropOp40
 70
     1
102
RTVSPost2010Prop41ColorIndex
 90
       18
102
RTVSPost2010Prop41ColorRGB
 90
        0
102
RTVSPost2010PropOp41
 70
     1
102
RTVSPost2010Prop42
 90
       50
102
RTVSPost2010PropOp42
 70
     1
102
RTVSPost2010Prop43
 90
        3
102
RTVSPost2010PropOp43
 70
     1
102
RTVSPost2010Prop44ColorIndex
 90
        5
102
RTVSPost2010Prop44ColorRGB
 90
      255
102
RTVSPost2010PropOp44
 70
     1
102
RTVSPost2010Prop45
280
     0
102
RTVSPost2010PropOp45
 70
     1
102
RTVSPost2010Prop46
 90
       50
102
RTVSPost2010PropOp46
 70
     1
102
RTVSPost2010Prop47
 90
       50
102
RTVSPost2010PropOp47
 70
     1
102
RTVSPost2010Prop48
 90
       50
102
RTVSPost2010PropOp48
 70
     1
102
RTVSPost2010Prop49
280
     0
102
RTVSPost2010PropOp49
 70
     1
102
RTVSPost2010Prop50
 90
       50
102
RTVSPost2010PropOp50
 70
     1
102
RTVSPost2010Prop51ColorIndex
 90
      256
102
RTVSPost2010Prop51ColorRGB
 90
-16777216
102
RTVSPost2010PropOp51
 70
     0
102
RTVSPost2010Prop52
140
1.0
102
RTVSPost2010PropOp52
 70
     0
102
RTVSPost2010Prop53
 90
        2
102
RTVSPost2010PropOp53
 70
     1
102
RTVSPost2010Prop54
  1
strokes_ogs.tif
102
RTVSPost2010PropOp54
 70
     1
102
RTVSPost2010Prop55
280
     0
102
RTVSPost2010PropOp55
 70
     1
102
RTVSPost2010Prop56
140
1.0
102
RTVSPost2010PropOp56
 70
     1
102
RTVSPost2010Prop57
140
1.0
102
RTVSPost2010PropOp57
 70
     1
  0
XRECORD
  5
177
102
{ACAD_REACTORS
330
176
102
}
330
176
100
AcDbXrecord
280
     1
102
RTVSPost2010Prop28
280
     0
102
RTVSPost2010PropOp28
 70
     1
102
RTVSPost2010Prop29
280
     1
102
RTVSPost2010PropOp29
 70
     1
102
RTVSPost2010Prop30
280
     1
102
RTVSPost2010PropOp30
 70
     1
102
RTVSPost2010Prop31
280
     0
102
RTVSPost2010PropOp31
 70
     1
102
RTVSPost2010Prop32
280
     0
102
RTVSPost2010PropOp32
 70
     1
102
RTVSPost2010Prop33
280
     0
102
RTVSPost2010PropOp33
 70
     1
102
RTVSPost2010Prop34
280
     0
102
RTVSPost2010PropOp34
 70
     1
102
RTVSPost2010Prop35
280
     0
102
RTVSPost2010PropOp35
 70
     1
102
RTVSPost2010Prop36
280
     0
102
RTVSPost2010PropOp36
 70
     1
102
RTVSPost2010Prop37
 90
       50
102
RTVSPost2010PropOp37
 70
     1
102
RTVSPost2010Prop38
140
0.0
102
RTVSPost2010PropOp38
 70
     1
102
RTVSPost2010Prop39
140
1.0
102
RTVSPost2010PropOp39
 70
     1
102
RTVSPost2010Prop40
 90
        0
102
RTVSPost2010PropOp40
 70
     1
102
RTVSPost2010Prop41ColorIndex
 90
       18
102
RTVSPost2010Prop41ColorRGB
 90
        0
102
RTVSPost2010PropOp41
 70
     1
102
RTVSPost2010Prop42
 90
       50
102
RTVSPost2010PropOp42
 70
     1
102
RTVSPost2010Prop43
 90
        3
102
RTVSPost2010PropOp43
 70
     1
102
RTVSPost2010Prop44ColorIndex
 90
        5
102
RTVSPost2010Prop44ColorRGB
 90
      255
102
RTVSPost2010PropOp44
 70
     1
102
RTVSPost2010Prop45
280
     0
102
RTVSPost2010PropOp45
 70
     1
102
RTVSPost2010Prop46
 90
       50
102
RTVSPost2010PropOp46
 70
     1
102
RTVSPost2010Prop47
 90
       50
102
RTVSPost2010PropOp47
 70
     1
102
RTVSPost2010Prop48
 90
       50
102
RTVSPost2010PropOp48
 70
     1
102
RTVSPost2010Prop49
280
     0
102
RTVSPost2010PropOp49
 70
     1
102
RTVSPost2010Prop50
 90
       50
102
RTVSPost2010PropOp50
 70
     1
102
RTVSPost2010Prop51ColorIndex
 90
      256
102
RTVSPost2010Prop51ColorRGB
 90
-16777216
102
RTVSPost2010PropOp51
 70
     0
102
RTVSPost2010Prop52
140
1.0
102
RTVSPost2010PropOp52
 70
     0
102
RTVSPost2010Prop53
 90
        2
102
RTVSPost2010PropOp53
 70
     1
102
RTVSPost2010Prop54
  1
strokes_ogs.tif
102
RTVSPost2010PropOp54
 70
     1
102
RTVSPost2010Prop55
280
     0
102
RTVSPost2010PropOp55
 70
     1
102
RTVSPost2010Prop56
140
1.0
102
RTVSPost2010PropOp56
 70
     1
102
RTVSPost2010Prop57
140
1.0
102
RTVSPost2010PropOp57
 70
     1
  0
XRECORD
  5
191
102
{ACAD_REACTORS
330
190
102
}
330
190
100
AcDbXrecord
280
     1
102
RTVSPost2010Prop28
280
     0
102
RTVSPost2010PropOp28
 70
     0
102
RTVSPost2010Prop29
280
     1
102
RTVSPost2010PropOp29
 70
     0
102
RTVSPost2010Prop30
280
     1
102
RTVSPost2010PropOp30
 70
     0
102
RTVSPost2010Prop31
280
     0
102
RTVSPost2010PropOp31
 70
     0
102
RTVSPost2010Prop32
280
     0
102
RTVSPost2010PropOp32
 70
     0
102
RTVSPost2010Prop33
280
     0
102
RTVSPost2010PropOp33
 70
     0
102
RTVSPost2010Prop34
280
     0
102
RTVSPost2010PropOp34
 70
     0
102
RTVSPost2010Prop35
280
     0
102
RTVSPost2010PropOp35
 70
     0
102
RTVSPost2010Prop36
280
     0
102
RTVSPost2010PropOp36
 70
     0
102
RTVSPost2010Prop37
 90
       50
102
RTVSPost2010PropOp37
 70
     0
102
RTVSPost2010Prop38
140
0.0
102
RTVSPost2010PropOp38
 70
     0
102
RTVSPost2010Prop39
140
1.0
102
RTVSPost2010PropOp39
 70
     0
102
RTVSPost2010Prop40
 90
        0
102
RTVSPost2010PropOp40
 70
     0
102
RTVSPost2010Prop41ColorIndex
 90
       18
102
RTVSPost2010Prop41ColorRGB
 90
        0
102
RTVSPost2010PropOp41
 70
     0
102
RTVSPost2010Prop42
 90
       50
102
RTVSPost2010PropOp42
 70
     0
102
RTVSPost2010Prop43
 90
        3
102
RTVSPost2010PropOp43
 70
     0
102
RTVSPost2010Prop44ColorIndex
 90
        5
102
RTVSPost2010Prop44ColorRGB
 90
      255
102
RTVSPost2010PropOp44
 70
     0
102
RTVSPost2010Prop45
280
     0
102
RTVSPost2010PropOp45
 70
     0
102
RTVSPost2010Prop46
 90
       50
102
RTVSPost2010PropOp46
 70
     0
102
RTVSPost2010Prop47
 90
       50
102
RTVSPost2010PropOp47
 70
     0
102
RTVSPost2010Prop48
 90
       50
102
RTVSPost2010PropOp48
 70
     0
102
RTVSPost2010Prop49
280
     0
102
RTVSPost2010PropOp49
 70
     0
102
RTVSPost2010Prop50
 90
       50
102
RTVSPost2010PropOp50
 70
     0
102
RTVSPost2010Prop51ColorIndex
 90
      256
102
RTVSPost2010Prop51ColorRGB
 90
-16777216
102
RTVSPost2010PropOp51
 70
     0
102
RTVSPost2010Prop52
140
1.0
102
RTVSPost2010PropOp52
 70
     0
102
RTVSPost2010Prop53
 90
        2
102
RTVSPost2010PropOp53
 70
     0
102
RTVSPost2010Prop54
  1
strokes_ogs.tif
102
RTVSPost2010PropOp54
 70
     0
102
RTVSPost2010Prop55
280
     0
102
RTVSPost2010PropOp55
 70
     0
102
RTVSPost2010Prop56
140
1.0
102
RTVSPost2010PropOp56
 70
     0
102
RTVSPost2010Prop57
140
1.0
102
RTVSPost2010PropOp57
 70
     0
  0
XRECORD
  5
17F
102
{ACAD_REACTORS
330
17E
102
}
330
17E
100
AcDbXrecord
280
     1
102
RTVSPost2010Prop28
280
     0
102
RTVSPost2010PropOp28
 70
     1
102
RTVSPost2010Prop29
280
     1
102
RTVSPost2010PropOp29
 70
     1
102
RTVSPost2010Prop30
280
     1
102
RTVSPost2010PropOp30
 70
     1
102
RTVSPost2010Prop31
280
     0
102
RTVSPost2010PropOp31
 70
     1
102
RTVSPost2010Prop32
280
     0
102
RTVSPost2010PropOp32
 70
     1
102
RTVSPost2010Prop33
280
     0
102
RTVSPost2010PropOp33
 70
     1
102
RTVSPost2010Prop34
280
     0
102
RTVSPost2010PropOp34
 70
     1
102
RTVSPost2010Prop35
280
     0
102
RTVSPost2010PropOp35
 70
     1
102
RTVSPost2010Prop36
280
     0
102
RTVSPost2010PropOp36
 70
     1
102
RTVSPost2010Prop37
 90
       50
102
RTVSPost2010PropOp37
 70
     1
102
RTVSPost2010Prop38
140
0.0
102
RTVSPost2010PropOp38
 70
     1
102
RTVSPost2010Prop39
140
1.0
102
RTVSPost2010PropOp39
 70
     1
102
RTVSPost2010Prop40
 90
        0
102
RTVSPost2010PropOp40
 70
     1
102
RTVSPost2010Prop41ColorIndex
 90
       18
102
RTVSPost2010Prop41ColorRGB
 90
        0
102
RTVSPost2010PropOp41
 70
     1
102
RTVSPost2010Prop42
 90
       50
102
RTVSPost2010PropOp42
 70
     1
102
RTVSPost2010Prop43
 90
        3
102
RTVSPost2010PropOp43
 70
     1
102
RTVSPost2010Prop44ColorIndex
 90
        5
102
RTVSPost2010Prop44ColorRGB
 90
      255
102
RTVSPost2010PropOp44
 70
     1
102
RTVSPost2010Prop45
280
     0
102
RTVSPost2010PropOp45
 70
     1
102
RTVSPost2010Prop46
 90
       50
102
RTVSPost2010PropOp46
 70
     1
102
RTVSPost2010Prop47
 90
       50
102
RTVSPost2010PropOp47
 70
     1
102
RTVSPost2010Prop48
 90
       50
102
RTVSPost2010PropOp48
 70
     1
102
RTVSPost2010Prop49
280
     0
102
RTVSPost2010PropOp49
 70
     1
102
RTVSPost2010Prop50
 90
       50
102
RTVSPost2010PropOp50
 70
     1
102
RTVSPost2010Prop51ColorIndex
 90
      256
102
RTVSPost2010Prop51ColorRGB
 90
-16777216
102
RTVSPost2010PropOp51
 70
     0
102
RTVSPost2010Prop52
140
1.0
102
RTVSPost2010PropOp52
 70
     0
102
RTVSPost2010Prop53
 90
        2
102
RTVSPost2010PropOp53
 70
     1
102
RTVSPost2010Prop54
  1
strokes_ogs.tif
102
RTVSPost2010PropOp54
 70
     1
102
RTVSPost2010Prop55
280
     0
102
RTVSPost2010PropOp55
 70
     1
102
RTVSPost2010Prop56
140
1.0
102
RTVSPost2010PropOp56
 70
     1
102
RTVSPost2010Prop57
140
1.0
102
RTVSPost2010PropOp57
 70
     1
  0
XRECORD
  5
163
102
{ACAD_REACTORS
330
162
102
}
330
162
100
AcDbXrecord
280
     1
102
RTVSPost2010Prop28
280
     0
102
RTVSPost2010PropOp28
 70
     1
102
RTVSPost2010Prop29
280
     1
102
RTVSPost2010PropOp29
 70
     1
102
RTVSPost2010Prop30
280
     1
102
RTVSPost2010PropOp30
 70
     1
102
RTVSPost2010Prop31
280
     0
102
RTVSPost2010PropOp31
 70
     1
102
RTVSPost2010Prop32
280
     0
102
RTVSPost2010PropOp32
 70
     1
102
RTVSPost2010Prop33
280
     0
102
RTVSPost2010PropOp33
 70
     1
102
RTVSPost2010Prop34
280
     0
102
RTVSPost2010PropOp34
 70
     1
102
RTVSPost2010Prop35
280
     0
102
RTVSPost2010PropOp35
 70
     1
102
RTVSPost2010Prop36
280
     0
102
RTVSPost2010PropOp36
 70
     1
102
RTVSPost2010Prop37
 90
       50
102
RTVSPost2010PropOp37
 70
     1
102
RTVSPost2010Prop38
140
0.0
102
RTVSPost2010PropOp38
 70
     1
102
RTVSPost2010Prop39
140
1.0
102
RTVSPost2010PropOp39
 70
     1
102
RTVSPost2010Prop40
 90
        0
102
RTVSPost2010PropOp40
 70
     1
102
RTVSPost2010Prop41ColorIndex
 90
       18
102
RTVSPost2010Prop41ColorRGB
 90
        0
102
RTVSPost2010PropOp41
 70
     1
102
RTVSPost2010Prop42
 90
       50
102
RTVSPost2010PropOp42
 70
     1
102
RTVSPost2010Prop43
 90
        3
102
RTVSPost2010PropOp43
 70
     1
102
RTVSPost2010Prop44ColorIndex
 90
        5
102
RTVSPost2010Prop44ColorRGB
 90
      255
102
RTVSPost2010PropOp44
 70
     1
102
RTVSPost2010Prop45
280
     0
102
RTVSPost2010PropOp45
 70
     1
102
RTVSPost2010Prop46
 90
       50
102
RTVSPost2010PropOp46
 70
     1
102
RTVSPost2010Prop47
 90
       50
102
RTVSPost2010PropOp47
 70
     1
102
RTVSPost2010Prop48
 90
       50
102
RTVSPost2010PropOp48
 70
     1
102
RTVSPost2010Prop49
280
     0
102
RTVSPost2010PropOp49
 70
     1
102
RTVSPost2010Prop50
 90
       50
102
RTVSPost2010PropOp50
 70
     1
102
RTVSPost2010Prop51ColorIndex
 90
      256
102
RTVSPost2010Prop51ColorRGB
 90
-16777216
102
RTVSPost2010PropOp51
 70
     0
102
RTVSPost2010Prop52
140
1.0
102
RTVSPost2010PropOp52
 70
     0
102
RTVSPost2010Prop53
 90
        2
102
RTVSPost2010PropOp53
 70
     1
102
RTVSPost2010Prop54
  1
strokes_ogs.tif
102
RTVSPost2010PropOp54
 70
     1
102
RTVSPost2010Prop55
280
     0
102
RTVSPost2010PropOp55
 70
     1
102
RTVSPost2010Prop56
140
1.0
102
RTVSPost2010PropOp56
 70
     1
102
RTVSPost2010Prop57
140
1.0
102
RTVSPost2010PropOp57
 70
     1
  0
XRECORD
  5
165
102
{ACAD_REACTORS
330
164
102
}
330
164
100
AcDbXrecord
280
     1
102
RTVSPost2010Prop28
280
     0
102
RTVSPost2010PropOp28
 70
     1
102
RTVSPost2010Prop29
280
     1
102
RTVSPost2010PropOp29
 70
     1
102
RTVSPost2010Prop30
280
     1
102
RTVSPost2010PropOp30
 70
     1
102
RTVSPost2010Prop31
280
     0
102
RTVSPost2010PropOp31
 70
     1
102
RTVSPost2010Prop32
280
     0
102
RTVSPost2010PropOp32
 70
     1
102
RTVSPost2010Prop33
280
     0
102
RTVSPost2010PropOp33
 70
     1
102
RTVSPost2010Prop34
280
     0
102
RTVSPost2010PropOp34
 70
     1
102
RTVSPost2010Prop35
280
     0
102
RTVSPost2010PropOp35
 70
     1
102
RTVSPost2010Prop36
280
     0
102
RTVSPost2010PropOp36
 70
     1
102
RTVSPost2010Prop37
 90
       50
102
RTVSPost2010PropOp37
 70
     1
102
RTVSPost2010Prop38
140
0.0
102
RTVSPost2010PropOp38
 70
     1
102
RTVSPost2010Prop39
140
1.0
102
RTVSPost2010PropOp39
 70
     1
102
RTVSPost2010Prop40
 90
        0
102
RTVSPost2010PropOp40
 70
     1
102
RTVSPost2010Prop41ColorIndex
 90
       18
102
RTVSPost2010Prop41ColorRGB
 90
        0
102
RTVSPost2010PropOp41
 70
     1
102
RTVSPost2010Prop42
 90
       50
102
RTVSPost2010PropOp42
 70
     1
102
RTVSPost2010Prop43
 90
        3
102
RTVSPost2010PropOp43
 70
     1
102
RTVSPost2010Prop44ColorIndex
 90
        5
102
RTVSPost2010Prop44ColorRGB
 90
      255
102
RTVSPost2010PropOp44
 70
     1
102
RTVSPost2010Prop45
280
     0
102
RTVSPost2010PropOp45
 70
     1
102
RTVSPost2010Prop46
 90
       50
102
RTVSPost2010PropOp46
 70
     1
102
RTVSPost2010Prop47
 90
       50
102
RTVSPost2010PropOp47
 70
     1
102
RTVSPost2010Prop48
 90
       50
102
RTVSPost2010PropOp48
 70
     1
102
RTVSPost2010Prop49
280
     0
102
RTVSPost2010PropOp49
 70
     1
102
RTVSPost2010Prop50
 90
       50
102
RTVSPost2010PropOp50
 70
     1
102
RTVSPost2010Prop51ColorIndex
 90
      256
102
RTVSPost2010Prop51ColorRGB
 90
-16777216
102
RTVSPost2010PropOp51
 70
     0
102
RTVSPost2010Prop52
140
1.0
102
RTVSPost2010PropOp52
 70
     0
102
RTVSPost2010Prop53
 90
        2
102
RTVSPost2010PropOp53
 70
     1
102
RTVSPost2010Prop54
  1
strokes_ogs.tif
102
RTVSPost2010PropOp54
 70
     1
102
RTVSPost2010Prop55
280
     0
102
RTVSPost2010PropOp55
 70
     1
102
RTVSPost2010Prop56
140
1.0
102
RTVSPost2010PropOp56
 70
     1
102
RTVSPost2010Prop57
140
1.0
102
RTVSPost2010PropOp57
 70
     1
  0
XRECORD
  5
167
102
{ACAD_REACTORS
330
166
102
}
330
166
100
AcDbXrecord
280
     1
102
RTVSPost2010Prop28
280
     0
102
RTVSPost2010PropOp28
 70
     1
102
RTVSPost2010Prop29
280
     1
102
RTVSPost2010PropOp29
 70
     1
102
RTVSPost2010Prop30
280
     1
102
RTVSPost2010PropOp30
 70
     1
102
RTVSPost2010Prop31
280
     0
102
RTVSPost2010PropOp31
 70
     1
102
RTVSPost2010Prop32
280
     0
102
RTVSPost2010PropOp32
 70
     1
102
RTVSPost2010Prop33
280
     0
102
RTVSPost2010PropOp33
 70
     1
102
RTVSPost2010Prop34
280
     0
102
RTVSPost2010PropOp34
 70
     1
102
RTVSPost2010Prop35
280
     0
102
RTVSPost2010PropOp35
 70
     1
102
RTVSPost2010Prop36
280
     0
102
RTVSPost2010PropOp36
 70
     1
102
RTVSPost2010Prop37
 90
       50
102
RTVSPost2010PropOp37
 70
     1
102
RTVSPost2010Prop38
140
0.0
102
RTVSPost2010PropOp38
 70
     1
102
RTVSPost2010Prop39
140
1.0
102
RTVSPost2010PropOp39
 70
     1
102
RTVSPost2010Prop40
 90
        0
102
RTVSPost2010PropOp40
 70
     1
102
RTVSPost2010Prop41ColorIndex
 90
       18
102
RTVSPost2010Prop41ColorRGB
 90
        0
102
RTVSPost2010PropOp41
 70
     1
102
RTVSPost2010Prop42
 90
       50
102
RTVSPost2010PropOp42
 70
     1
102
RTVSPost2010Prop43
 90
        3
102
RTVSPost2010PropOp43
 70
     1
102
RTVSPost2010Prop44ColorIndex
 90
        5
102
RTVSPost2010Prop44ColorRGB
 90
      255
102
RTVSPost2010PropOp44
 70
     1
102
RTVSPost2010Prop45
280
     0
102
RTVSPost2010PropOp45
 70
     1
102
RTVSPost2010Prop46
 90
       50
102
RTVSPost2010PropOp46
 70
     1
102
RTVSPost2010Prop47
 90
       50
102
RTVSPost2010PropOp47
 70
     1
102
RTVSPost2010Prop48
 90
       50
102
RTVSPost2010PropOp48
 70
     1
102
RTVSPost2010Prop49
280
     0
102
RTVSPost2010PropOp49
 70
     1
102
RTVSPost2010Prop50
 90
       50
102
RTVSPost2010PropOp50
 70
     1
102
RTVSPost2010Prop51ColorIndex
 90
      256
102
RTVSPost2010Prop51ColorRGB
 90
-16777216
102
RTVSPost2010PropOp51
 70
     0
102
RTVSPost2010Prop52
140
1.0
102
RTVSPost2010PropOp52
 70
     0
102
RTVSPost2010Prop53
 90
        2
102
RTVSPost2010PropOp53
 70
     1
102
RTVSPost2010Prop54
  1
strokes_ogs.tif
102
RTVSPost2010PropOp54
 70
     1
102
RTVSPost2010Prop55
280
     0
102
RTVSPost2010PropOp55
 70
     1
102
RTVSPost2010Prop56
140
1.0
102
RTVSPost2010PropOp56
 70
     1
102
RTVSPost2010Prop57
140
1.0
102
RTVSPost2010PropOp57
 70
     1
  0
XRECORD
  5
169
102
{ACAD_REACTORS
330
168
102
}
330
168
100
AcDbXrecord
280
     1
102
RTVSPost2010Prop28
280
     0
102
RTVSPost2010PropOp28
 70
     1
102
RTVSPost2010Prop29
280
     1
102
RTVSPost2010PropOp29
 70
     1
102
RTVSPost2010Prop30
280
     1
102
RTVSPost2010PropOp30
 70
     1
102
RTVSPost2010Prop31
280
     0
102
RTVSPost2010PropOp31
 70
     1
102
RTVSPost2010Prop32
280
     0
102
RTVSPost2010PropOp32
 70
     1
102
RTVSPost2010Prop33
280
     0
102
RTVSPost2010PropOp33
 70
     1
102
RTVSPost2010Prop34
280
     0
102
RTVSPost2010PropOp34
 70
     1
102
RTVSPost2010Prop35
280
     0
102
RTVSPost2010PropOp35
 70
     1
102
RTVSPost2010Prop36
280
     0
102
RTVSPost2010PropOp36
 70
     1
102
RTVSPost2010Prop37
 90
       50
102
RTVSPost2010PropOp37
 70
     1
102
RTVSPost2010Prop38
140
0.0
102
RTVSPost2010PropOp38
 70
     1
102
RTVSPost2010Prop39
140
1.0
102
RTVSPost2010PropOp39
 70
     1
102
RTVSPost2010Prop40
 90
        0
102
RTVSPost2010PropOp40
 70
     1
102
RTVSPost2010Prop41ColorIndex
 90
       18
102
RTVSPost2010Prop41ColorRGB
 90
        0
102
RTVSPost2010PropOp41
 70
     1
102
RTVSPost2010Prop42
 90
       50
102
RTVSPost2010PropOp42
 70
     1
102
RTVSPost2010Prop43
 90
        3
102
RTVSPost2010PropOp43
 70
     1
102
RTVSPost2010Prop44ColorIndex
 90
        5
102
RTVSPost2010Prop44ColorRGB
 90
      255
102
RTVSPost2010PropOp44
 70
     1
102
RTVSPost2010Prop45
280
     0
102
RTVSPost2010PropOp45
 70
     1
102
RTVSPost2010Prop46
 90
       50
102
RTVSPost2010PropOp46
 70
     1
102
RTVSPost2010Prop47
 90
       50
102
RTVSPost2010PropOp47
 70
     1
102
RTVSPost2010Prop48
 90
       50
102
RTVSPost2010PropOp48
 70
     1
102
RTVSPost2010Prop49
280
     0
102
RTVSPost2010PropOp49
 70
     1
102
RTVSPost2010Prop50
 90
       50
102
RTVSPost2010PropOp50
 70
     1
102
RTVSPost2010Prop51ColorIndex
 90
      256
102
RTVSPost2010Prop51ColorRGB
 90
-16777216
102
RTVSPost2010PropOp51
 70
     0
102
RTVSPost2010Prop52
140
1.0
102
RTVSPost2010PropOp52
 70
     0
102
RTVSPost2010Prop53
 90
        2
102
RTVSPost2010PropOp53
 70
     1
102
RTVSPost2010Prop54
  1
strokes_ogs.tif
102
RTVSPost2010PropOp54
 70
     1
102
RTVSPost2010Prop55
280
     0
102
RTVSPost2010PropOp55
 70
     1
102
RTVSPost2010Prop56
140
1.0
102
RTVSPost2010PropOp56
 70
     1
102
RTVSPost2010Prop57
140
1.0
102
RTVSPost2010PropOp57
 70
     1
  0
XRECORD
  5
171
102
{ACAD_REACTORS
330
170
102
}
330
170
100
AcDbXrecord
280
     1
102
RTVSPost2010Prop28
280
     0
102
RTVSPost2010PropOp28
 70
     1
102
RTVSPost2010Prop29
280
     1
102
RTVSPost2010PropOp29
 70
     1
102
RTVSPost2010Prop30
280
     1
102
RTVSPost2010PropOp30
 70
     1
102
RTVSPost2010Prop31
280
     0
102
RTVSPost2010PropOp31
 70
     1
102
RTVSPost2010Prop32
280
     0
102
RTVSPost2010PropOp32
 70
     1
102
RTVSPost2010Prop33
280
     0
102
RTVSPost2010PropOp33
 70
     1
102
RTVSPost2010Prop34
280
     0
102
RTVSPost2010PropOp34
 70
     1
102
RTVSPost2010Prop35
280
     0
102
RTVSPost2010PropOp35
 70
     1
102
RTVSPost2010Prop36
280
     0
102
RTVSPost2010PropOp36
 70
     1
102
RTVSPost2010Prop37
 90
       50
102
RTVSPost2010PropOp37
 70
     1
102
RTVSPost2010Prop38
140
0.0
102
RTVSPost2010PropOp38
 70
     1
102
RTVSPost2010Prop39
140
1.0
102
RTVSPost2010PropOp39
 70
     1
102
RTVSPost2010Prop40
 90
        0
102
RTVSPost2010PropOp40
 70
     1
102
RTVSPost2010Prop41ColorIndex
 90
       18
102
RTVSPost2010Prop41ColorRGB
 90
        0
102
RTVSPost2010PropOp41
 70
     1
102
RTVSPost2010Prop42
 90
       50
102
RTVSPost2010PropOp42
 70
     1
102
RTVSPost2010Prop43
 90
        3
102
RTVSPost2010PropOp43
 70
     1
102
RTVSPost2010Prop44ColorIndex
 90
        5
102
RTVSPost2010Prop44ColorRGB
 90
      255
102
RTVSPost2010PropOp44
 70
     1
102
RTVSPost2010Prop45
280
     0
102
RTVSPost2010PropOp45
 70
     1
102
RTVSPost2010Prop46
 90
       50
102
RTVSPost2010PropOp46
 70
     1
102
RTVSPost2010Prop47
 90
       50
102
RTVSPost2010PropOp47
 70
     1
102
RTVSPost2010Prop48
 90
       50
102
RTVSPost2010PropOp48
 70
     1
102
RTVSPost2010Prop49
280
     0
102
RTVSPost2010PropOp49
 70
     1
102
RTVSPost2010Prop50
 90
       50
102
RTVSPost2010PropOp50
 70
     1
102
RTVSPost2010Prop51ColorIndex
 90
      256
102
RTVSPost2010Prop51ColorRGB
 90
-16777216
102
RTVSPost2010PropOp51
 70
     0
102
RTVSPost2010Prop52
140
1.0
102
RTVSPost2010PropOp52
 70
     0
102
RTVSPost2010Prop53
 90
        2
102
RTVSPost2010PropOp53
 70
     1
102
RTVSPost2010Prop54
  1
strokes_ogs.tif
102
RTVSPost2010PropOp54
 70
     1
102
RTVSPost2010Prop55
280
     0
102
RTVSPost2010PropOp55
 70
     1
102
RTVSPost2010Prop56
140
1.0
102
RTVSPost2010PropOp56
 70
     1
102
RTVSPost2010Prop57
140
1.0
102
RTVSPost2010PropOp57
 70
     1
  0
XRECORD
  5
18D
102
{ACAD_REACTORS
330
18C
102
}
330
18C
100
AcDbXrecord
280
     1
102
RTVSPost2010Prop28
280
     0
102
RTVSPost2010PropOp28
 70
     0
102
RTVSPost2010Prop29
280
     1
102
RTVSPost2010PropOp29
 70
     0
102
RTVSPost2010Prop30
280
     1
102
RTVSPost2010PropOp30
 70
     0
102
RTVSPost2010Prop31
280
     0
102
RTVSPost2010PropOp31
 70
     0
102
RTVSPost2010Prop32
280
     0
102
RTVSPost2010PropOp32
 70
     0
102
RTVSPost2010Prop33
280
     0
102
RTVSPost2010PropOp33
 70
     0
102
RTVSPost2010Prop34
280
     0
102
RTVSPost2010PropOp34
 70
     0
102
RTVSPost2010Prop35
280
     0
102
RTVSPost2010PropOp35
 70
     0
102
RTVSPost2010Prop36
280
     0
102
RTVSPost2010PropOp36
 70
     0
102
RTVSPost2010Prop37
 90
       50
102
RTVSPost2010PropOp37
 70
     0
102
RTVSPost2010Prop38
140
0.0
102
RTVSPost2010PropOp38
 70
     0
102
RTVSPost2010Prop39
140
1.0
102
RTVSPost2010PropOp39
 70
     0
102
RTVSPost2010Prop40
 90
        0
102
RTVSPost2010PropOp40
 70
     0
102
RTVSPost2010Prop41ColorIndex
 90
       18
102
RTVSPost2010Prop41ColorRGB
 90
        0
102
RTVSPost2010PropOp41
 70
     0
102
RTVSPost2010Prop42
 90
       50
102
RTVSPost2010PropOp42
 70
     0
102
RTVSPost2010Prop43
 90
        3
102
RTVSPost2010PropOp43
 70
     0
102
RTVSPost2010Prop44ColorIndex
 90
        5
102
RTVSPost2010Prop44ColorRGB
 90
      255
102
RTVSPost2010PropOp44
 70
     0
102
RTVSPost2010Prop45
280
     0
102
RTVSPost2010PropOp45
 70
     0
102
RTVSPost2010Prop46
 90
       50
102
RTVSPost2010PropOp46
 70
     0
102
RTVSPost2010Prop47
 90
       50
102
RTVSPost2010PropOp47
 70
     0
102
RTVSPost2010Prop48
 90
       50
102
RTVSPost2010PropOp48
 70
     0
102
RTVSPost2010Prop49
280
     0
102
RTVSPost2010PropOp49
 70
     0
102
RTVSPost2010Prop50
 90
       50
102
RTVSPost2010PropOp50
 70
     0
102
RTVSPost2010Prop51ColorIndex
 90
      256
102
RTVSPost2010Prop51ColorRGB
 90
-16777216
102
RTVSPost2010PropOp51
 70
     0
102
RTVSPost2010Prop52
140
1.0
102
RTVSPost2010PropOp52
 70
     0
102
RTVSPost2010Prop53
 90
        2
102
RTVSPost2010PropOp53
 70
     0
102
RTVSPost2010Prop54
  1
strokes_ogs.tif
102
RTVSPost2010PropOp54
 70
     0
102
RTVSPost2010Prop55
280
     0
102
RTVSPost2010PropOp55
 70
     0
102
RTVSPost2010Prop56
140
1.0
102
RTVSPost2010PropOp56
 70
     0
102
RTVSPost2010Prop57
140
1.0
102
RTVSPost2010PropOp57
 70
     0
  0
XRECORD
  5
17D
102
{ACAD_REACTORS
330
17C
102
}
330
17C
100
AcDbXrecord
280
     1
102
RTVSPost2010Prop28
280
     0
102
RTVSPost2010PropOp28
 70
     1
102
RTVSPost2010Prop29
280
     1
102
RTVSPost2010PropOp29
 70
     1
102
RTVSPost2010Prop30
280
     1
102
RTVSPost2010PropOp30
 70
     1
102
RTVSPost2010Prop31
280
     0
102
RTVSPost2010PropOp31
 70
     1
102
RTVSPost2010Prop32
280
     0
102
RTVSPost2010PropOp32
 70
     1
102
RTVSPost2010Prop33
280
     0
102
RTVSPost2010PropOp33
 70
     1
102
RTVSPost2010Prop34
280
     0
102
RTVSPost2010PropOp34
 70
     1
102
RTVSPost2010Prop35
280
     0
102
RTVSPost2010PropOp35
 70
     1
102
RTVSPost2010Prop36
280
     0
102
RTVSPost2010PropOp36
 70
     1
102
RTVSPost2010Prop37
 90
       50
102
RTVSPost2010PropOp37
 70
     1
102
RTVSPost2010Prop38
140
0.0
102
RTVSPost2010PropOp38
 70
     1
102
RTVSPost2010Prop39
140
1.0
102
RTVSPost2010PropOp39
 70
     1
102
RTVSPost2010Prop40
 90
        0
102
RTVSPost2010PropOp40
 70
     1
102
RTVSPost2010Prop41ColorIndex
 90
       18
102
RTVSPost2010Prop41ColorRGB
 90
        0
102
RTVSPost2010PropOp41
 70
     1
102
RTVSPost2010Prop42
 90
       50
102
RTVSPost2010PropOp42
 70
     1
102
RTVSPost2010Prop43
 90
        3
102
RTVSPost2010PropOp43
 70
     1
102
RTVSPost2010Prop44ColorIndex
 90
        5
102
RTVSPost2010Prop44ColorRGB
 90
      255
102
RTVSPost2010PropOp44
 70
     1
102
RTVSPost2010Prop45
280
     0
102
RTVSPost2010PropOp45
 70
     1
102
RTVSPost2010Prop46
 90
       50
102
RTVSPost2010PropOp46
 70
     1
102
RTVSPost2010Prop47
 90
       50
102
RTVSPost2010PropOp47
 70
     1
102
RTVSPost2010Prop48
 90
       50
102
RTVSPost2010PropOp48
 70
     1
102
RTVSPost2010Prop49
280
     0
102
RTVSPost2010PropOp49
 70
     1
102
RTVSPost2010Prop50
 90
       50
102
RTVSPost2010PropOp50
 70
     1
102
RTVSPost2010Prop51ColorIndex
 90
      256
102
RTVSPost2010Prop51ColorRGB
 90
-16777216
102
RTVSPost2010PropOp51
 70
     0
102
RTVSPost2010Prop52
140
1.0
102
RTVSPost2010PropOp52
 70
     0
102
RTVSPost2010Prop53
 90
        2
102
RTVSPost2010PropOp53
 70
     1
102
RTVSPost2010Prop54
  1
strokes_ogs.tif
102
RTVSPost2010PropOp54
 70
     1
102
RTVSPost2010Prop55
280
     0
102
RTVSPost2010PropOp55
 70
     1
102
RTVSPost2010Prop56
140
1.0
102
RTVSPost2010PropOp56
 70
     1
102
RTVSPost2010Prop57
140
1.0
102
RTVSPost2010PropOp57
 70
     1
  0
XRECORD
  5
18F
102
{ACAD_REACTORS
330
18E
102
}
330
18E
100
AcDbXrecord
280
     1
102
RTVSPost2010Prop28
280
     0
102
RTVSPost2010PropOp28
 70
     0
102
RTVSPost2010Prop29
280
     1
102
RTVSPost2010PropOp29
 70
     0
102
RTVSPost2010Prop30
280
     1
102
RTVSPost2010PropOp30
 70
     0
102
RTVSPost2010Prop31
280
     0
102
RTVSPost2010PropOp31
 70
     0
102
RTVSPost2010Prop32
280
     0
102
RTVSPost2010PropOp32
 70
     0
102
RTVSPost2010Prop33
280
     0
102
RTVSPost2010PropOp33
 70
     0
102
RTVSPost2010Prop34
280
     0
102
RTVSPost2010PropOp34
 70
     0
102
RTVSPost2010Prop35
280
     0
102
RTVSPost2010PropOp35
 70
     0
102
RTVSPost2010Prop36
280
     0
102
RTVSPost2010PropOp36
 70
     0
102
RTVSPost2010Prop37
 90
       50
102
RTVSPost2010PropOp37
 70
     0
102
RTVSPost2010Prop38
140
0.0
102
RTVSPost2010PropOp38
 70
     0
102
RTVSPost2010Prop39
140
1.0
102
RTVSPost2010PropOp39
 70
     0
102
RTVSPost2010Prop40
 90
        0
102
RTVSPost2010PropOp40
 70
     0
102
RTVSPost2010Prop41ColorIndex
 90
       18
102
RTVSPost2010Prop41ColorRGB
 90
        0
102
RTVSPost2010PropOp41
 70
     0
102
RTVSPost2010Prop42
 90
       50
102
RTVSPost2010PropOp42
 70
     0
102
RTVSPost2010Prop43
 90
        3
102
RTVSPost2010PropOp43
 70
     0
102
RTVSPost2010Prop44ColorIndex
 90
        5
102
RTVSPost2010Prop44ColorRGB
 90
      255
102
RTVSPost2010PropOp44
 70
     0
102
RTVSPost2010Prop45
280
     0
102
RTVSPost2010PropOp45
 70
     0
102
RTVSPost2010Prop46
 90
       50
102
RTVSPost2010PropOp46
 70
     0
102
RTVSPost2010Prop47
 90
       50
102
RTVSPost2010PropOp47
 70
     0
102
RTVSPost2010Prop48
 90
       50
102
RTVSPost2010PropOp48
 70
     0
102
RTVSPost2010Prop49
280
     0
102
RTVSPost2010PropOp49
 70
     0
102
RTVSPost2010Prop50
 90
       50
102
RTVSPost2010PropOp50
 70
     0
102
RTVSPost2010Prop51ColorIndex
 90
      256
102
RTVSPost2010Prop51ColorRGB
 90
-16777216
102
RTVSPost2010PropOp51
 70
     0
102
RTVSPost2010Prop52
140
1.0
102
RTVSPost2010PropOp52
 70
     0
102
RTVSPost2010Prop53
 90
        2
102
RTVSPost2010PropOp53
 70
     0
102
RTVSPost2010Prop54
  1
strokes_ogs.tif
102
RTVSPost2010PropOp54
 70
     0
102
RTVSPost2010Prop55
280
     0
102
RTVSPost2010PropOp55
 70
     0
102
RTVSPost2010Prop56
140
1.0
102
RTVSPost2010PropOp56
 70
     0
102
RTVSPost2010Prop57
140
1.0
102
RTVSPost2010PropOp57
 70
     0
  0
XRECORD
  5
175
102
{ACAD_REACTORS
330
174
102
}
330
174
100
AcDbXrecord
280
     1
102
RTVSPost2010Prop28
280
     0
102
RTVSPost2010PropOp28
 70
     1
102
RTVSPost2010Prop29
280
     1
102
RTVSPost2010PropOp29
 70
     1
102
RTVSPost2010Prop30
280
     1
102
RTVSPost2010PropOp30
 70
     1
102
RTVSPost2010Prop31
280
     0
102
RTVSPost2010PropOp31
 70
     1
102
RTVSPost2010Prop32
280
     0
102
RTVSPost2010PropOp32
 70
     1
102
RTVSPost2010Prop33
280
     0
102
RTVSPost2010PropOp33
 70
     1
102
RTVSPost2010Prop34
280
     0
102
RTVSPost2010PropOp34
 70
     1
102
RTVSPost2010Prop35
280
     0
102
RTVSPost2010PropOp35
 70
     1
102
RTVSPost2010Prop36
280
     0
102
RTVSPost2010PropOp36
 70
     1
102
RTVSPost2010Prop37
 90
       50
102
RTVSPost2010PropOp37
 70
     1
102
RTVSPost2010Prop38
140
0.0
102
RTVSPost2010PropOp38
 70
     1
102
RTVSPost2010Prop39
140
1.0
102
RTVSPost2010PropOp39
 70
     1
102
RTVSPost2010Prop40
 90
        0
102
RTVSPost2010PropOp40
 70
     1
102
RTVSPost2010Prop41ColorIndex
 90
       18
102
RTVSPost2010Prop41ColorRGB
 90
        0
102
RTVSPost2010PropOp41
 70
     1
102
RTVSPost2010Prop42
 90
       50
102
RTVSPost2010PropOp42
 70
     1
102
RTVSPost2010Prop43
 90
        3
102
RTVSPost2010PropOp43
 70
     1
102
RTVSPost2010Prop44ColorIndex
 90
        5
102
RTVSPost2010Prop44ColorRGB
 90
      255
102
RTVSPost2010PropOp44
 70
     1
102
RTVSPost2010Prop45
280
     0
102
RTVSPost2010PropOp45
 70
     1
102
RTVSPost2010Prop46
 90
       50
102
RTVSPost2010PropOp46
 70
     1
102
RTVSPost2010Prop47
 90
       50
102
RTVSPost2010PropOp47
 70
     1
102
RTVSPost2010Prop48
 90
       50
102
RTVSPost2010PropOp48
 70
     1
102
RTVSPost2010Prop49
280
     0
102
RTVSPost2010PropOp49
 70
     1
102
RTVSPost2010Prop50
 90
       50
102
RTVSPost2010PropOp50
 70
     1
102
RTVSPost2010Prop51ColorIndex
 90
      256
102
RTVSPost2010Prop51ColorRGB
 90
-16777216
102
RTVSPost2010PropOp51
 70
     0
102
RTVSPost2010Prop52
140
1.0
102
RTVSPost2010PropOp52
 70
     0
102
RTVSPost2010Prop53
 90
        2
102
RTVSPost2010PropOp53
 70
     1
102
RTVSPost2010Prop54
  1
strokes_ogs.tif
102
RTVSPost2010PropOp54
 70
     1
102
RTVSPost2010Prop55
280
     0
102
RTVSPost2010PropOp55
 70
     1
102
RTVSPost2010Prop56
140
1.0
102
RTVSPost2010PropOp56
 70
     1
102
RTVSPost2010Prop57
140
1.0
102
RTVSPost2010PropOp57
 70
     1
  0
XRECORD
  5
18B
102
{ACAD_REACTORS
330
18A
102
}
330
18A
100
AcDbXrecord
280
     1
102
RTVSPost2010Prop28
280
     0
102
RTVSPost2010PropOp28
 70
     1
102
RTVSPost2010Prop29
280
     1
102
RTVSPost2010PropOp29
 70
     1
102
RTVSPost2010Prop30
280
     1
102
RTVSPost2010PropOp30
 70
     1
102
RTVSPost2010Prop31
280
     0
102
RTVSPost2010PropOp31
 70
     1
102
RTVSPost2010Prop32
280
     0
102
RTVSPost2010PropOp32
 70
     1
102
RTVSPost2010Prop33
280
     0
102
RTVSPost2010PropOp33
 70
     1
102
RTVSPost2010Prop34
280
     0
102
RTVSPost2010PropOp34
 70
     1
102
RTVSPost2010Prop35
280
     0
102
RTVSPost2010PropOp35
 70
     1
102
RTVSPost2010Prop36
280
     0
102
RTVSPost2010PropOp36
 70
     1
102
RTVSPost2010Prop37
 90
       50
102
RTVSPost2010PropOp37
 70
     1
102
RTVSPost2010Prop38
140
0.0
102
RTVSPost2010PropOp38
 70
     1
102
RTVSPost2010Prop39
140
1.0
102
RTVSPost2010PropOp39
 70
     1
102
RTVSPost2010Prop40
 90
        0
102
RTVSPost2010PropOp40
 70
     1
102
RTVSPost2010Prop41ColorIndex
 90
       18
102
RTVSPost2010Prop41ColorRGB
 90
        0
102
RTVSPost2010PropOp41
 70
     1
102
RTVSPost2010Prop42
 90
       50
102
RTVSPost2010PropOp42
 70
     1
102
RTVSPost2010Prop43
 90
        3
102
RTVSPost2010PropOp43
 70
     1
102
RTVSPost2010Prop44ColorIndex
 90
        5
102
RTVSPost2010Prop44ColorRGB
 90
      255
102
RTVSPost2010PropOp44
 70
     1
102
RTVSPost2010Prop45
280
     0
102
RTVSPost2010PropOp45
 70
     1
102
RTVSPost2010Prop46
 90
       50
102
RTVSPost2010PropOp46
 70
     1
102
RTVSPost2010Prop47
 90
       50
102
RTVSPost2010PropOp47
 70
     1
102
RTVSPost2010Prop48
 90
       50
102
RTVSPost2010PropOp48
 70
     1
102
RTVSPost2010Prop49
280
     0
102
RTVSPost2010PropOp49
 70
     1
102
RTVSPost2010Prop50
 90
       50
102
RTVSPost2010PropOp50
 70
     1
102
RTVSPost2010Prop51ColorIndex
 90
      256
102
RTVSPost2010Prop51ColorRGB
 90
-16777216
102
RTVSPost2010PropOp51
 70
     0
102
RTVSPost2010Prop52
140
1.0
102
RTVSPost2010PropOp52
 70
     0
102
RTVSPost2010Prop53
 90
        2
102
RTVSPost2010PropOp53
 70
     1
102
RTVSPost2010Prop54
  1
strokes_ogs.tif
102
RTVSPost2010PropOp54
 70
     1
102
RTVSPost2010Prop55
280
     0
102
RTVSPost2010PropOp55
 70
     1
102
RTVSPost2010Prop56
140
1.0
102
RTVSPost2010PropOp56
 70
     1
102
RTVSPost2010Prop57
140
1.0
102
RTVSPost2010PropOp57
 70
     1
  0
XRECORD
  5
189
102
{ACAD_REACTORS
330
188
102
}
330
188
100
AcDbXrecord
280
     1
102
RTVSPost2010Prop28
280
     0
102
RTVSPost2010PropOp28
 70
     1
102
RTVSPost2010Prop29
280
     1
102
RTVSPost2010PropOp29
 70
     1
102
RTVSPost2010Prop30
280
     1
102
RTVSPost2010PropOp30
 70
     1
102
RTVSPost2010Prop31
280
     0
102
RTVSPost2010PropOp31
 70
     1
102
RTVSPost2010Prop32
280
     0
102
RTVSPost2010PropOp32
 70
     1
102
RTVSPost2010Prop33
280
     0
102
RTVSPost2010PropOp33
 70
     1
102
RTVSPost2010Prop34
280
     0
102
RTVSPost2010PropOp34
 70
     1
102
RTVSPost2010Prop35
280
     0
102
RTVSPost2010PropOp35
 70
     1
102
RTVSPost2010Prop36
280
     0
102
RTVSPost2010PropOp36
 70
     1
102
RTVSPost2010Prop37
 90
       50
102
RTVSPost2010PropOp37
 70
     1
102
RTVSPost2010Prop38
140
0.0
102
RTVSPost2010PropOp38
 70
     1
102
RTVSPost2010Prop39
140
1.0
102
RTVSPost2010PropOp39
 70
     1
102
RTVSPost2010Prop40
 90
        0
102
RTVSPost2010PropOp40
 70
     1
102
RTVSPost2010Prop41ColorIndex
 90
       18
102
RTVSPost2010Prop41ColorRGB
 90
        0
102
RTVSPost2010PropOp41
 70
     1
102
RTVSPost2010Prop42
 90
       50
102
RTVSPost2010PropOp42
 70
     1
102
RTVSPost2010Prop43
 90
        3
102
RTVSPost2010PropOp43
 70
     1
102
RTVSPost2010Prop44ColorIndex
 90
        5
102
RTVSPost2010Prop44ColorRGB
 90
      255
102
RTVSPost2010PropOp44
 70
     1
102
RTVSPost2010Prop45
280
     0
102
RTVSPost2010PropOp45
 70
     1
102
RTVSPost2010Prop46
 90
       50
102
RTVSPost2010PropOp46
 70
     1
102
RTVSPost2010Prop47
 90
       50
102
RTVSPost2010PropOp47
 70
     1
102
RTVSPost2010Prop48
 90
       50
102
RTVSPost2010PropOp48
 70
     1
102
RTVSPost2010Prop49
280
     0
102
RTVSPost2010PropOp49
 70
     1
102
RTVSPost2010Prop50
 90
       50
102
RTVSPost2010PropOp50
 70
     1
102
RTVSPost2010Prop51ColorIndex
 90
      256
102
RTVSPost2010Prop51ColorRGB
 90
-16777216
102
RTVSPost2010PropOp51
 70
     0
102
RTVSPost2010Prop52
140
1.0
102
RTVSPost2010PropOp52
 70
     0
102
RTVSPost2010Prop53
 90
        2
102
RTVSPost2010PropOp53
 70
     1
102
RTVSPost2010Prop54
  1
strokes_ogs.tif
102
RTVSPost2010PropOp54
 70
     1
102
RTVSPost2010Prop55
280
     0
102
RTVSPost2010PropOp55
 70
     1
102
RTVSPost2010Prop56
140
1.0
102
RTVSPost2010PropOp56
 70
     1
102
RTVSPost2010Prop57
140
1.0
102
RTVSPost2010PropOp57
 70
     1
  0
XRECORD
  5
183
102
{ACAD_REACTORS
330
182
102
}
330
182
100
AcDbXrecord
280
     1
102
RTVSPost2010Prop28
280
     0
102
RTVSPost2010PropOp28
 70
     1
102
RTVSPost2010Prop29
280
     1
102
RTVSPost2010PropOp29
 70
     1
102
RTVSPost2010Prop30
280
     1
102
RTVSPost2010PropOp30
 70
     1
102
RTVSPost2010Prop31
280
     0
102
RTVSPost2010PropOp31
 70
     1
102
RTVSPost2010Prop32
280
     0
102
RTVSPost2010PropOp32
 70
     1
102
RTVSPost2010Prop33
280
     0
102
RTVSPost2010PropOp33
 70
     1
102
RTVSPost2010Prop34
280
     0
102
RTVSPost2010PropOp34
 70
     1
102
RTVSPost2010Prop35
280
     0
102
RTVSPost2010PropOp35
 70
     1
102
RTVSPost2010Prop36
280
     0
102
RTVSPost2010PropOp36
 70
     1
102
RTVSPost2010Prop37
 90
       50
102
RTVSPost2010PropOp37
 70
     1
102
RTVSPost2010Prop38
140
0.0
102
RTVSPost2010PropOp38
 70
     1
102
RTVSPost2010Prop39
140
1.0
102
RTVSPost2010PropOp39
 70
     1
102
RTVSPost2010Prop40
 90
        0
102
RTVSPost2010PropOp40
 70
     1
102
RTVSPost2010Prop41ColorIndex
 90
       18
102
RTVSPost2010Prop41ColorRGB
 90
        0
102
RTVSPost2010PropOp41
 70
     1
102
RTVSPost2010Prop42
 90
       50
102
RTVSPost2010PropOp42
 70
     1
102
RTVSPost2010Prop43
 90
        3
102
RTVSPost2010PropOp43
 70
     1
102
RTVSPost2010Prop44ColorIndex
 90
        5
102
RTVSPost2010Prop44ColorRGB
 90
      255
102
RTVSPost2010PropOp44
 70
     1
102
RTVSPost2010Prop45
280
     0
102
RTVSPost2010PropOp45
 70
     1
102
RTVSPost2010Prop46
 90
       50
102
RTVSPost2010PropOp46
 70
     1
102
RTVSPost2010Prop47
 90
       50
102
RTVSPost2010PropOp47
 70
     1
102
RTVSPost2010Prop48
 90
       50
102
RTVSPost2010PropOp48
 70
     1
102
RTVSPost2010Prop49
280
     0
102
RTVSPost2010PropOp49
 70
     1
102
RTVSPost2010Prop50
 90
       50
102
RTVSPost2010PropOp50
 70
     1
102
RTVSPost2010Prop51ColorIndex
 90
      256
102
RTVSPost2010Prop51ColorRGB
 90
-16777216
102
RTVSPost2010PropOp51
 70
     0
102
RTVSPost2010Prop52
140
1.0
102
RTVSPost2010PropOp52
 70
     0
102
RTVSPost2010Prop53
 90
        2
102
RTVSPost2010PropOp53
 70
     1
102
RTVSPost2010Prop54
  1
strokes_ogs.tif
102
RTVSPost2010PropOp54
 70
     1
102
RTVSPost2010Prop55
280
     0
102
RTVSPost2010PropOp55
 70
     1
102
RTVSPost2010Prop56
140
1.0
102
RTVSPost2010PropOp56
 70
     1
102
RTVSPost2010Prop57
140
1.0
102
RTVSPost2010PropOp57
 70
     1
  0
XRECORD
  5
185
102
{ACAD_REACTORS
330
184
102
}
330
184
100
AcDbXrecord
280
     1
102
RTVSPost2010Prop28
280
     0
102
RTVSPost2010PropOp28
 70
     1
102
RTVSPost2010Prop29
280
     1
102
RTVSPost2010PropOp29
 70
     1
102
RTVSPost2010Prop30
280
     1
102
RTVSPost2010PropOp30
 70
     1
102
RTVSPost2010Prop31
280
     0
102
RTVSPost2010PropOp31
 70
     1
102
RTVSPost2010Prop32
280
     0
102
RTVSPost2010PropOp32
 70
     1
102
RTVSPost2010Prop33
280
     0
102
RTVSPost2010PropOp33
 70
     1
102
RTVSPost2010Prop34
280
     0
102
RTVSPost2010PropOp34
 70
     1
102
RTVSPost2010Prop35
280
     0
102
RTVSPost2010PropOp35
 70
     1
102
RTVSPost2010Prop36
280
     0
102
RTVSPost2010PropOp36
 70
     1
102
RTVSPost2010Prop37
 90
       50
102
RTVSPost2010PropOp37
 70
     1
102
RTVSPost2010Prop38
140
0.0
102
RTVSPost2010PropOp38
 70
     1
102
RTVSPost2010Prop39
140
1.0
102
RTVSPost2010PropOp39
 70
     1
102
RTVSPost2010Prop40
 90
        0
102
RTVSPost2010PropOp40
 70
     1
102
RTVSPost2010Prop41ColorIndex
 90
       18
102
RTVSPost2010Prop41ColorRGB
 90
        0
102
RTVSPost2010PropOp41
 70
     1
102
RTVSPost2010Prop42
 90
       50
102
RTVSPost2010PropOp42
 70
     1
102
RTVSPost2010Prop43
 90
        3
102
RTVSPost2010PropOp43
 70
     1
102
RTVSPost2010Prop44ColorIndex
 90
        5
102
RTVSPost2010Prop44ColorRGB
 90
      255
102
RTVSPost2010PropOp44
 70
     1
102
RTVSPost2010Prop45
280
     0
102
RTVSPost2010PropOp45
 70
     1
102
RTVSPost2010Prop46
 90
       50
102
RTVSPost2010PropOp46
 70
     1
102
RTVSPost2010Prop47
 90
       50
102
RTVSPost2010PropOp47
 70
     1
102
RTVSPost2010Prop48
 90
       50
102
RTVSPost2010PropOp48
 70
     1
102
RTVSPost2010Prop49
280
     0
102
RTVSPost2010PropOp49
 70
     1
102
RTVSPost2010Prop50
 90
       50
102
RTVSPost2010PropOp50
 70
     1
102
RTVSPost2010Prop51ColorIndex
 90
      256
102
RTVSPost2010Prop51ColorRGB
 90
-16777216
102
RTVSPost2010PropOp51
 70
     0
102
RTVSPost2010Prop52
140
1.0
102
RTVSPost2010PropOp52
 70
     0
102
RTVSPost2010Prop53
 90
        2
102
RTVSPost2010PropOp53
 70
     1
102
RTVSPost2010Prop54
  1
strokes_ogs.tif
102
RTVSPost2010PropOp54
 70
     1
102
RTVSPost2010Prop55
280
     0
102
RTVSPost2010PropOp55
 70
     1
102
RTVSPost2010Prop56
140
1.0
102
RTVSPost2010PropOp56
 70
     1
102
RTVSPost2010Prop57
140
1.0
102
RTVSPost2010PropOp57
 70
     1
  0
XRECORD
  5
17B
102
{ACAD_REACTORS
330
17A
102
}
330
17A
100
AcDbXrecord
280
     1
102
RTVSPost2010Prop28
280
     0
102
RTVSPost2010PropOp28
 70
     1
102
RTVSPost2010Prop29
280
     1
102
RTVSPost2010PropOp29
 70
     1
102
RTVSPost2010Prop30
280
     1
102
RTVSPost2010PropOp30
 70
     1
102
RTVSPost2010Prop31
280
     0
102
RTVSPost2010PropOp31
 70
     1
102
RTVSPost2010Prop32
280
     0
102
RTVSPost2010PropOp32
 70
     1
102
RTVSPost2010Prop33
280
     0
102
RTVSPost2010PropOp33
 70
     1
102
RTVSPost2010Prop34
280
     0
102
RTVSPost2010PropOp34
 70
     1
102
RTVSPost2010Prop35
280
     0
102
RTVSPost2010PropOp35
 70
     1
102
RTVSPost2010Prop36
280
     0
102
RTVSPost2010PropOp36
 70
     1
102
RTVSPost2010Prop37
 90
       50
102
RTVSPost2010PropOp37
 70
     1
102
RTVSPost2010Prop38
140
0.0
102
RTVSPost2010PropOp38
 70
     1
102
RTVSPost2010Prop39
140
1.0
102
RTVSPost2010PropOp39
 70
     1
102
RTVSPost2010Prop40
 90
        0
102
RTVSPost2010PropOp40
 70
     1
102
RTVSPost2010Prop41ColorIndex
 90
       18
102
RTVSPost2010Prop41ColorRGB
 90
        0
102
RTVSPost2010PropOp41
 70
     1
102
RTVSPost2010Prop42
 90
       50
102
RTVSPost2010PropOp42
 70
     1
102
RTVSPost2010Prop43
 90
        3
102
RTVSPost2010PropOp43
 70
     1
102
RTVSPost2010Prop44ColorIndex
 90
        5
102
RTVSPost2010Prop44ColorRGB
 90
      255
102
RTVSPost2010PropOp44
 70
     1
102
RTVSPost2010Prop45
280
     0
102
RTVSPost2010PropOp45
 70
     1
102
RTVSPost2010Prop46
 90
       50
102
RTVSPost2010PropOp46
 70
     1
102
RTVSPost2010Prop47
 90
       50
102
RTVSPost2010PropOp47
 70
     1
102
RTVSPost2010Prop48
 90
       50
102
RTVSPost2010PropOp48
 70
     1
102
RTVSPost2010Prop49
280
     0
102
RTVSPost2010PropOp49
 70
     1
102
RTVSPost2010Prop50
 90
       50
102
RTVSPost2010PropOp50
 70
     1
102
RTVSPost2010Prop51ColorIndex
 90
      256
102
RTVSPost2010Prop51ColorRGB
 90
-16777216
102
RTVSPost2010PropOp51
 70
     0
102
RTVSPost2010Prop52
140
1.0
102
RTVSPost2010PropOp52
 70
     0
102
RTVSPost2010Prop53
 90
        2
102
RTVSPost2010PropOp53
 70
     1
102
RTVSPost2010Prop54
  1
strokes_ogs.tif
102
RTVSPost2010PropOp54
 70
     1
102
RTVSPost2010Prop55
280
     0
102
RTVSPost2010PropOp55
 70
     1
102
RTVSPost2010Prop56
140
1.0
102
RTVSPost2010PropOp56
 70
     1
102
RTVSPost2010Prop57
140
1.0
102
RTVSPost2010PropOp57
 70
     1
  0
XRECORD
  5
16F
102
{ACAD_REACTORS
330
16E
102
}
330
16E
100
AcDbXrecord
280
     1
102
RTVSPost2010Prop28
280
     0
102
RTVSPost2010PropOp28
 70
     1
102
RTVSPost2010Prop29
280
     1
102
RTVSPost2010PropOp29
 70
     1
102
RTVSPost2010Prop30
280
     1
102
RTVSPost2010PropOp30
 70
     1
102
RTVSPost2010Prop31
280
     0
102
RTVSPost2010PropOp31
 70
     1
102
RTVSPost2010Prop32
280
     0
102
RTVSPost2010PropOp32
 70
     1
102
RTVSPost2010Prop33
280
     0
102
RTVSPost2010PropOp33
 70
     1
102
RTVSPost2010Prop34
280
     0
102
RTVSPost2010PropOp34
 70
     1
102
RTVSPost2010Prop35
280
     0
102
RTVSPost2010PropOp35
 70
     1
102
RTVSPost2010Prop36
280
     0
102
RTVSPost2010PropOp36
 70
     1
102
RTVSPost2010Prop37
 90
       50
102
RTVSPost2010PropOp37
 70
     1
102
RTVSPost2010Prop38
140
0.0
102
RTVSPost2010PropOp38
 70
     1
102
RTVSPost2010Prop39
140
1.0
102
RTVSPost2010PropOp39
 70
     1
102
RTVSPost2010Prop40
 90
        0
102
RTVSPost2010PropOp40
 70
     1
102
RTVSPost2010Prop41ColorIndex
 90
       18
102
RTVSPost2010Prop41ColorRGB
 90
        0
102
RTVSPost2010PropOp41
 70
     1
102
RTVSPost2010Prop42
 90
       50
102
RTVSPost2010PropOp42
 70
     1
102
RTVSPost2010Prop43
 90
        3
102
RTVSPost2010PropOp43
 70
     1
102
RTVSPost2010Prop44ColorIndex
 90
        5
102
RTVSPost2010Prop44ColorRGB
 90
      255
102
RTVSPost2010PropOp44
 70
     1
102
RTVSPost2010Prop45
280
     0
102
RTVSPost2010PropOp45
 70
     1
102
RTVSPost2010Prop46
 90
       50
102
RTVSPost2010PropOp46
 70
     1
102
RTVSPost2010Prop47
 90
       50
102
RTVSPost2010PropOp47
 70
     1
102
RTVSPost2010Prop48
 90
       50
102
RTVSPost2010PropOp48
 70
     1
102
RTVSPost2010Prop49
280
     0
102
RTVSPost2010PropOp49
 70
     1
102
RTVSPost2010Prop50
 90
       50
102
RTVSPost2010PropOp50
 70
     1
102
RTVSPost2010Prop51ColorIndex
 90
      256
102
RTVSPost2010Prop51ColorRGB
 90
-16777216
102
RTVSPost2010PropOp51
 70
     0
102
RTVSPost2010Prop52
140
1.0
102
RTVSPost2010PropOp52
 70
     0
102
RTVSPost2010Prop53
 90
        2
102
RTVSPost2010PropOp53
 70
     1
102
RTVSPost2010Prop54
  1
strokes_ogs.tif
102
RTVSPost2010PropOp54
 70
     1
102
RTVSPost2010Prop55
280
     0
102
RTVSPost2010PropOp55
 70
     1
102
RTVSPost2010Prop56
140
1.0
102
RTVSPost2010PropOp56
 70
     1
102
RTVSPost2010Prop57
140
1.0
102
RTVSPost2010PropOp57
 70
     1
  0
XRECORD
  5
187
102
{ACAD_REACTORS
330
186
102
}
330
186
100
AcDbXrecord
280
     1
102
RTVSPost2010Prop28
280
     0
102
RTVSPost2010PropOp28
 70
     1
102
RTVSPost2010Prop29
280
     1
102
RTVSPost2010PropOp29
 70
     1
102
RTVSPost2010Prop30
280
     1
102
RTVSPost2010PropOp30
 70
     1
102
RTVSPost2010Prop31
280
     0
102
RTVSPost2010PropOp31
 70
     1
102
RTVSPost2010Prop32
280
     0
102
RTVSPost2010PropOp32
 70
     1
102
RTVSPost2010Prop33
280
     0
102
RTVSPost2010PropOp33
 70
     1
102
RTVSPost2010Prop34
280
     0
102
RTVSPost2010PropOp34
 70
     1
102
RTVSPost2010Prop35
280
     0
102
RTVSPost2010PropOp35
 70
     1
102
RTVSPost2010Prop36
280
     0
102
RTVSPost2010PropOp36
 70
     1
102
RTVSPost2010Prop37
 90
       50
102
RTVSPost2010PropOp37
 70
     1
102
RTVSPost2010Prop38
140
0.0
102
RTVSPost2010PropOp38
 70
     1
102
RTVSPost2010Prop39
140
1.0
102
RTVSPost2010PropOp39
 70
     1
102
RTVSPost2010Prop40
 90
        0
102
RTVSPost2010PropOp40
 70
     1
102
RTVSPost2010Prop41ColorIndex
 90
       18
102
RTVSPost2010Prop41ColorRGB
 90
        0
102
RTVSPost2010PropOp41
 70
     1
102
RTVSPost2010Prop42
 90
       50
102
RTVSPost2010PropOp42
 70
     1
102
RTVSPost2010Prop43
 90
        3
102
RTVSPost2010PropOp43
 70
     1
102
RTVSPost2010Prop44ColorIndex
 90
        5
102
RTVSPost2010Prop44ColorRGB
 90
      255
102
RTVSPost2010PropOp44
 70
     1
102
RTVSPost2010Prop45
280
     0
102
RTVSPost2010PropOp45
 70
     1
102
RTVSPost2010Prop46
 90
       50
102
RTVSPost2010PropOp46
 70
     1
102
RTVSPost2010Prop47
 90
       50
102
RTVSPost2010PropOp47
 70
     1
102
RTVSPost2010Prop48
 90
       50
102
RTVSPost2010PropOp48
 70
     1
102
RTVSPost2010Prop49
280
     0
102
RTVSPost2010PropOp49
 70
     1
102
RTVSPost2010Prop50
 90
       50
102
RTVSPost2010PropOp50
 70
     1
102
RTVSPost2010Prop51ColorIndex
 90
      256
102
RTVSPost2010Prop51ColorRGB
 90
-16777216
102
RTVSPost2010PropOp51
 70
     0
102
RTVSPost2010Prop52
140
1.0
102
RTVSPost2010PropOp52
 70
     0
102
RTVSPost2010Prop53
 90
        2
102
RTVSPost2010PropOp53
 70
     1
102
RTVSPost2010Prop54
  1
strokes_ogs.tif
102
RTVSPost2010PropOp54
 70
     1
102
RTVSPost2010Prop55
280
     0
102
RTVSPost2010PropOp55
 70
     1
102
RTVSPost2010Prop56
140
1.0
102
RTVSPost2010PropOp56
 70
     1
102
RTVSPost2010Prop57
140
1.0
102
RTVSPost2010PropOp57
 70
     1
  0
ENDSEC
  0
EOF
