  0
SECTION
  2
HEADER
  9
$ACADVER
  1
AC1024
  9
$ACADMAINTVER
 70
   226
  9
$DWGCODEPAGE
  3
ANSI_932
  9
$INSBASE
 10
0.0
 20
0.0
 30
0.0
  9
$EXTMIN
 10
1.000000000000000E+20
 20
1.000000000000000E+20
 30
1.000000000000000E+20
  9
$EXTMAX
 10
-1.000000000000000E+20
 20
-1.000000000000000E+20
 30
-1.000000000000000E+20
  9
$LIMMIN
 10
0.0
 20
0.0
  9
$LIMMAX
 10
12.0
 20
9.0
  9
$ORTHOMODE
 70
     0
  9
$REGENMODE
 70
     1
  9
$FILLMODE
 70
     1
  9
$QTEXTMODE
 70
     0
  9
$MIRRTEXT
 70
     0
  9
$LTSCALE
 40
1.0
  9
$ATTMODE
 70
     1
  9
$TEXTSIZE
 40
0.2
  9
$TRACEWID
 40
0.05
  9
$TEXTSTYLE
  7
Standard
  9
$CLAYER
  8
0
  9
$CELTYPE
  6
ByLayer
  9
$CECOLOR
 62
   256
  9
$CELTSCALE
 40
1.0
  9
$DISPSILH
 70
     0
  9
$DIMSCALE
 40
1.0
  9
$DIMASZ
 40
0.18
  9
$DIMEXO
 40
0.0625
  9
$DIMDLI
 40
0.38
  9
$DIMRND
 40
0.0
  9
$DIMDLE
 40
0.0
  9
$DIMEXE
 40
0.18
  9
$DIMTP
 40
0.0
  9
$DIMTM
 40
0.0
  9
$DIMTXT
 40
0.18
  9
$DIMCEN
 40
0.09
  9
$DIMTSZ
 40
0.0
  9
$DIMTOL
 70
     0
  9
$DIMLIM
 70
     0
  9
$DIMTIH
 70
     1
  9
$DIMTOH
 70
     1
  9
$DIMSE1
 70
     0
  9
$DIMSE2
 70
     0
  9
$DIMTAD
 70
     0
  9
$DIMZIN
 70
     0
  9
$DIMBLK
  1

  9
$DIMASO
 70
     1
  9
$DIMSHO
 70
     1
  9
$DIMPOST
  1

  9
$DIMAPOST
  1

  9
$DIMALT
 70
     0
  9
$DIMALTD
 70
     2
  9
$DIMALTF
 40
25.4
  9
$DIMLFAC
 40
1.0
  9
$DIMTOFL
 70
     0
  9
$DIMTVP
 40
0.0
  9
$DIMTIX
 70
     0
  9
$DIMSOXD
 70
     0
  9
$DIMSAH
 70
     0
  9
$DIMBLK1
  1

  9
$DIMBLK2
  1

  9
$DIMSTYLE
  2
Standard
  9
$DIMCLRD
 70
     0
  9
$DIMCLRE
 70
     0
  9
$DIMCLRT
 70
     0
  9
$DIMTFAC
 40
1.0
  9
$DIMGAP
 40
0.09
  9
$DIMJUST
 70
     0
  9
$DIMSD1
 70
     0
  9
$DIMSD2
 70
     0
  9
$DIMTOLJ
 70
     1
  9
$DIMTZIN
 70
     0
  9
$DIMALTZ
 70
     0
  9
$DIMALTTZ
 70
     0
  9
$DIMUPT
 70
     0
  9
$DIMDEC
 70
     4
  9
$DIMTDEC
 70
     4
  9
$DIMALTU
 70
     2
  9
$DIMALTTD
 70
     2
  9
$DIMTXSTY
  7
Standard
  9
$DIMAUNIT
 70
     0
  9
$DIMADEC
 70
     0
  9
$DIMALTRND
 40
0.0
  9
$DIMAZIN
 70
     0
  9
$DIMDSEP
 70
    46
  9
$DIMATFIT
 70
     3
  9
$DIMFRAC
 70
     0
  9
$DIMLDRBLK
  1

  9
$DIMLUNIT
 70
     2
  9
$DIMLWD
 70
    -2
  9
$DIMLWE
 70
    -2
  9
$DIMTMOVE
 70
     0
  9
$DIMFXL
 40
1.0
  9
$DIMFXLON
 70
     0
  9
$DIMJOGANG
 40
0.7853981633974483
  9
$DIMTFILL
 70
     0
  9
$DIMTFILLCLR
 70
     0
  9
$DIMARCSYM
 70
     0
  9
$DIMLTYPE
  6

  9
$DIMLTEX1
  6

  9
$DIMLTEX2
  6

  9
$DIMTXTDIRECTION
 70
     0
  9
$LUNITS
 70
     2
  9
$LUPREC
 70
     4
  9
$SKETCHINC
 40
0.1
  9
$FILLETRAD
 40
0.0
  9
$AUNITS
 70
     0
  9
$AUPREC
 70
     0
  9
$MENU
  1
.
  9
$ELEVATION
 40
0.0
  9
$PELEVATION
 40
0.0
  9
$THICKNESS
 40
0.0
  9
$LIMCHECK
 70
     0
  9
$CHAMFERA
 40
0.0
  9
$CHAMFERB
 40
0.0
  9
$CHAMFERC
 40
0.0
  9
$CHAMFERD
 40
0.0
  9
$SKPOLY
 70
     0
  9
$TDCREATE
 40
2459569.503194444
  9
$TDUCREATE
 40
2459569.128194444
  9
$TDUPDATE
 40
2459569.503194444
  9
$TDUUPDATE
 40
2459569.128194444
  9
$TDINDWG
 40
0.0000000000
  9
$TDUSRTIMER
 40
0.0000000000
  9
$USRTIMER
 70
     1
  9
$ANGBASE
 50
0.0
  9
$ANGDIR
 70
     0
  9
$PDMODE
 70
     0
  9
$PDSIZE
 40
0.0
  9
$PLINEWID
 40
0.0
  9
$SPLFRAME
 70
     0
  9
$SPLINETYPE
 70
     6
  9
$SPLINESEGS
 70
     8
  9
$HANDSEED
  5
1A2
  9
$SURFTAB1
 70
     6
  9
$SURFTAB2
 70
     6
  9
$SURFTYPE
 70
     6
  9
$SURFU
 70
     6
  9
$SURFV
 70
     6
  9
$UCSBASE
  2

  9
$UCSNAME
  2

  9
$UCSORG
 10
0.0
 20
0.0
 30
0.0
  9
$UCSXDIR
 10
1.0
 20
0.0
 30
0.0
  9
$UCSYDIR
 10
0.0
 20
1.0
 30
0.0
  9
$UCSORTHOREF
  2

  9
$UCSORTHOVIEW
 70
     0
  9
$UCSORGTOP
 10
0.0
 20
0.0
 30
0.0
  9
$UCSORGBOTTOM
 10
0.0
 20
0.0
 30
0.0
  9
$UCSORGLEFT
 10
0.0
 20
0.0
 30
0.0
  9
$UCSORGRIGHT
 10
0.0
 20
0.0
 30
0.0
  9
$UCSORGFRONT
 10
0.0
 20
0.0
 30
0.0
  9
$UCSORGBACK
 10
0.0
 20
0.0
 30
0.0
  9
$PUCSBASE
  2

  9
$PUCSNAME
  2

  9
$PUCSORG
 10
0.0
 20
0.0
 30
0.0
  9
$PUCSXDIR
 10
1.0
 20
0.0
 30
0.0
  9
$PUCSYDIR
 10
0.0
 20
1.0
 30
0.0
  9
$PUCSORTHOREF
  2

  9
$PUCSORTHOVIEW
 70
     0
  9
$PUCSORGTOP
 10
0.0
 20
0.0
 30
0.0
  9
$PUCSORGBOTTOM
 10
0.0
 20
0.0
 30
0.0
  9
$PUCSORGLEFT
 10
0.0
 20
0.0
 30
0.0
  9
$PUCSORGRIGHT
 10
0.0
 20
0.0
 30
0.0
  9
$PUCSORGFRONT
 10
0.0
 20
0.0
 30
0.0
  9
$PUCSORGBACK
 10
0.0
 20
0.0
 30
0.0
  9
$USERI1
 70
     0
  9
$USERI2
 70
     0
  9
$USERI3
 70
     0
  9
$USERI4
 70
     0
  9
$USERI5
 70
     0
  9
$USERR1
 40
0.0
  9
$USERR2
 40
0.0
  9
$USERR3
 40
0.0
  9
$USERR4
 40
0.0
  9
$USERR5
 40
0.0
  9
$WORLDVIEW
 70
     1
  9
$SHADEDGE
 70
     3
  9
$SHADEDIF
 70
    70
  9
$TILEMODE
 70
     1
  9
$MAXACTVP
 70
    64
  9
$PINSBASE
 10
0.0
 20
0.0
 30
0.0
  9
$PLIMCHECK
 70
     0
  9
$PEXTMIN
 10
1.000000000000000E+20
 20
1.000000000000000E+20
 30
1.000000000000000E+20
  9
$PEXTMAX
 10
-1.000000000000000E+20
 20
-1.000000000000000E+20
 30
-1.000000000000000E+20
  9
$PLIMMIN
 10
0.0
 20
0.0
  9
$PLIMMAX
 10
12.0
 20
9.0
  9
$UNITMODE
 70
     0
  9
$VISRETAIN
 70
     1
  9
$PLINEGEN
 70
     0
  9
$PSLTSCALE
 70
     1
  9
$TREEDEPTH
 70
  3020
  9
$CMLSTYLE
  2
Standard
  9
$CMLJUST
 70
     0
  9
$CMLSCALE
 40
1.0
  9
$PROXYGRAPHICS
 70
     1
  9
$MEASUREMENT
 70
     0
  9
$CELWEIGHT
370
    -1
  9
$ENDCAPS
280
     0
  9
$JOINSTYLE
280
     0
  9
$LWDISPLAY
290
     1
  9
$INSUNITS
 70
     4
  9
$HYPERLINKBASE
  1

  9
$STYLESHEET
  1

  9
$XEDIT
290
     1
  9
$CEPSNTYPE
380
     0
  9
$PSTYLEMODE
290
     1
  9
$FINGERPRINTGUID
  2
{1E518CC1-4344-D440-A132-F30F3BE7B2B4}
  9
$VERSIONGUID
  2
{FCEC5A24-D7CA-8443-9473-D864FC365853}
  9
$EXTNAMES
290
     1
  9
$PSVPSCALE
 40
0.0
  9
$OLESTARTUP
290
     0
  9
$SORTENTS
280
   127
  9
$INDEXCTL
280
     0
  9
$HIDETEXT
280
     1
  9
$XCLIPFRAME
280
     2
  9
$HALOGAP
280
     0
  9
$OBSCOLOR
 70
   257
  9
$OBSLTYPE
280
     0
  9
$INTERSECTIONDISPLAY
280
     0
  9
$INTERSECTIONCOLOR
 70
   257
  9
$DIMASSOC
280
     2
  9
$PROJECTNAME
  1

  9
$CAMERADISPLAY
290
     0
  9
$LENSLENGTH
 40
50.0
  9
$CAMERAHEIGHT
 40
0.0
  9
$STEPSPERSEC
 40
2.0
  9
$STEPSIZE
 40
6.0
  9
$3DDWFPREC
 40
2.0
  9
$PSOLWIDTH
 40
0.25
  9
$PSOLHEIGHT
 40
4.0
  9
$LOFTANG1
 40
1.570796326794896
  9
$LOFTANG2
 40
1.570796326794896
  9
$LOFTMAG1
 40
0.0
  9
$LOFTMAG2
 40
0.0
  9
$LOFTPARAM
 70
     7
  9
$LOFTNORMALS
280
     1
  9
$LATITUDE
 40
37.795
  9
$LONGITUDE
 40
-122.394
  9
$NORTHDIRECTION
 40
0.0
  9
$TIMEZONE
 70
 -8000
  9
$LIGHTGLYPHDISPLAY
280
     1
  9
$TILEMODELIGHTSYNCH
280
     1
  9
$CMATERIAL
347
11
  9
$SOLIDHIST
280
     0
  9
$SHOWHIST
280
     1
  9
$DWFFRAME
280
     2
  9
$DGNFRAME
280
     0
  9
$REALWORLDSCALE
290
     1
  9
$INTERFERECOLOR
 62
     1
  9
$INTERFEREOBJVS
345
33
  9
$INTERFEREVPVS
346
30
  9
$CSHADOW
280
     0
  9
$SHADOWPLANELOCATION
 40
0.0
  0
ENDSEC
  0
SECTION
  2
CLASSES
  0
CLASS
  1
ACDBDICTIONARYWDFLT
  2
AcDbDictionaryWithDefault
  3
ObjectDBX Classes
 90
        0
 91
        1
280
     0
281
     0
  0
CLASS
  1
MATERIAL
  2
AcDbMaterial
  3
ObjectDBX Classes
 90
     1153
 91
        3
280
     0
281
     0
  0
CLASS
  1
VISUALSTYLE
  2
AcDbVisualStyle
  3
ObjectDBX Classes
 90
     4095
 91
       24
280
     0
281
     0
  0
CLASS
  1
SCALE
  2
AcDbScale
  3
ObjectDBX Classes
 90
     1153
 91
       17
280
     0
281
     0
  0
CLASS
  1
TABLESTYLE
  2
AcDbTableStyle
  3
ObjectDBX Classes
 90
     4095
 91
        1
280
     0
281
     0
  0
CLASS
  1
MLEADERSTYLE
  2
AcDbMLeaderStyle
  3
ACDB_MLEADERSTYLE_CLASS
 90
     4095
 91
        1
280
     0
281
     0
  0
CLASS
  1
ACDBSECTIONVIEWSTYLE
  2
AcDbSectionViewStyle
  3
ObjectDBX Classes
 90
     1025
 91
        1
280
     0
281
     0
  0
CLASS
  1
ACDBDETAILVIEWSTYLE
  2
AcDbDetailViewStyle
  3
ObjectDBX Classes
 90
     1025
 91
        1
280
     0
281
     0
  0
CLASS
  1
DICTIONARYVAR
  2
AcDbDictionaryVar
  3
ObjectDBX Classes
 90
        0
 91
        5
280
     0
281
     0
  0
CLASS
  1
CELLSTYLEMAP
  2
AcDbCellStyleMap
  3
ObjectDBX Classes
 90
     1152
 91
        1
280
     0
281
     0
  0
ENDSEC
  0
SECTION
  2
TABLES
  0
TABLE
  2
VPORT
  5
8
330
0
100
AcDbSymbolTable
 70
     1
  0
VPORT
  5
57
330
8
100
AcDbSymbolTableRecord
100
AcDbViewportTableRecord
  2
*Active
 70
     0
 10
0.0
 20
0.0
 11
1.0
 21
1.0
 12
0.0
 22
0.0
 13
0.0
 23
0.0
 14
1.0
 24
1.0
 15
0.0
 25
0.0
 16
0.0
 26
0.0
 36
1.0
 17
104.9999999737534
 27
-148.4999999628701
 37
0.0
 40
302.939999924255
 41
0.7070707070707534
 42
50.0
 43
0.0
 44
0.0
 50
0.0
 51
0.0
 71
     0
 72
   100
 73
     1
 74
     0
 75
     1
 76
     0
 77
     0
 78
     0
281
     0
 65
     1
110
0.0
120
0.0
130
0.0
111
1.0
121
0.0
131
0.0
112
0.0
122
1.0
132
0.0
 79
     0
146
0.0
 60
     3
 61
     5
292
     1
282
     1
141
0.0
142
0.0
 63
   250
421
  3355443
  0
ENDTAB
  0
TABLE
  2
LTYPE
  5
5
330
0
100
AcDbSymbolTable
 70
     3
  0
LTYPE
  5
5B
330
5
100
AcDbSymbolTableRecord
100
AcDbLinetypeTableRecord
  2
ByBlock
 70
     0
  3

 72
    65
 73
     0
 40
0.0
  0
LTYPE
  5
5C
330
5
100
AcDbSymbolTableRecord
100
AcDbLinetypeTableRecord
  2
ByLayer
 70
     0
  3

 72
    65
 73
     0
 40
0.0
  0
LTYPE
  5
5D
330
5
100
AcDbSymbolTableRecord
100
AcDbLinetypeTableRecord
  2
Continuous
 70
     0
  3
Solid line
 72
    65
 73
     0
 40
0.0
  0
LTYPE
  5
7E
330
5
100
AcDbSymbolTableRecord
100
AcDbLinetypeTableRecord
  2
AI-Linetype-0
 70
     0
  3
Adobe Illustrator Linetype No. 0
 72
    65
 73
     2
 40
1.411111110758333
 49
0.7055555553791667
 74
     0
 49
-0.7055555553791667
 74
     0
  0
LTYPE
  5
80
330
5
100
AcDbSymbolTableRecord
100
AcDbLinetypeTableRecord
  2
AI-Linetype-1
 70
     0
  3
Adobe Illustrator Linetype No. 1
 72
    65
 73
     2
 40
1.411111110758333
 49
0.7055555553791667
 74
     0
 49
-0.7055555553791667
 74
     0
  0
ENDTAB
  0
TABLE
  2
LAYER
  5
2
330
0
100
AcDbSymbolTable
 70
     2
  0
LAYER
  5
54
330
2
100
AcDbSymbolTableRecord
100
AcDbLayerTableRecord
  2
0
 70
     0
 62
     7
  6
Continuous
370
    -3
390
F
347
21
  0
LAYER
  5
78
330
2
100
AcDbSymbolTableRecord
100
AcDbLayerTableRecord
  2
レイヤー 1
 70
     0
 62
     7
  6
Continuous
370
     0
390
F
347
21
  0
ENDTAB
  0
TABLE
  2
STYLE
  5
3
330
0
100
AcDbSymbolTable
 70
     2
  0
STYLE
  5
55
330
3
100
AcDbSymbolTableRecord
100
AcDbTextStyleTableRecord
  2
Standard
 70
     0
 40
0.0
 41
1.0
 50
0.0
 71
     0
 42
0.2
  3
txt
  4

  0
STYLE
  5
5A
330
3
100
AcDbSymbolTableRecord
100
AcDbTextStyleTableRecord
  2
Annotative
 70
     0
 40
0.0
 41
1.0
 50
0.0
 71
     0
 42
0.2
  3
txt
  4

1001
AcadAnnotative
1000
AnnotativeData
1002
{
1070
     1
1070
     1
1002
}
  0
ENDTAB
  0
TABLE
  2
VIEW
  5
6
330
0
100
AcDbSymbolTable
 70
     0
  0
ENDTAB
  0
TABLE
  2
UCS
  5
7
330
0
100
AcDbSymbolTable
 70
     0
  0
ENDTAB
  0
TABLE
  2
APPID
  5
9
330
0
100
AcDbSymbolTable
 70
     2
  0
APPID
  5
56
330
9
100
AcDbSymbolTableRecord
100
AcDbRegAppTableRecord
  2
ACAD
 70
     0
  0
APPID
  5
5E
330
9
100
AcDbSymbolTableRecord
100
AcDbRegAppTableRecord
  2
AcadAnnotative
 70
     0
  0
ENDTAB
  0
TABLE
  2
DIMSTYLE
  5
A
330
0
100
AcDbSymbolTable
 70
     2
100
AcDbDimStyleTable
 71
     0
  0
DIMSTYLE
105
58
330
A
100
AcDbSymbolTableRecord
100
AcDbDimStyleTableRecord
  2
Standard
 70
     0
340
55
  0
DIMSTYLE
105
59
330
A
100
AcDbSymbolTableRecord
100
AcDbDimStyleTableRecord
  2
Annotative
 70
     0
340
55
1001
AcadAnnotative
1000
AnnotativeData
1002
{
1070
     1
1070
     1
1002
}
  0
ENDTAB
  0
TABLE
  2
BLOCK_RECORD
  5
1
330
0
100
AcDbSymbolTable
 70
    31
  0
BLOCK_RECORD
  5
70
330
1
100
AcDbSymbolTableRecord
100
AcDbBlockTableRecord
  2
*Model_Space
340
73
 70
     0
280
     1
281
     0
  0
BLOCK_RECORD
  5
6C
330
1
100
AcDbSymbolTableRecord
100
AcDbBlockTableRecord
  2
*Paper_Space
340
6F
 70
     0
280
     1
281
     0
  0
BLOCK_RECORD
  5
74
330
1
100
AcDbSymbolTableRecord
100
AcDbBlockTableRecord
  2
*Paper_Space0
340
77
 70
     0
280
     1
281
     0
  0
BLOCK_RECORD
  5
79
330
1
100
AcDbSymbolTableRecord
100
AcDbBlockTableRecord
  2
Block_0
340
0
102
{BLKREFS
331
7A
102
}
 70
     0
280
     1
281
     0
  0
BLOCK_RECORD
  5
86
330
1
100
AcDbSymbolTableRecord
100
AcDbBlockTableRecord
  2
Block_1
340
0
102
{BLKREFS
331
87
102
}
 70
     0
280
     1
281
     0
  0
BLOCK_RECORD
  5
9A
330
1
100
AcDbSymbolTableRecord
100
AcDbBlockTableRecord
  2
Block_2
340
0
102
{BLKREFS
331
9B
102
}
 70
     0
280
     1
281
     0
  0
BLOCK_RECORD
  5
9E
330
1
100
AcDbSymbolTableRecord
100
AcDbBlockTableRecord
  2
Block_3
340
0
102
{BLKREFS
331
9F
102
}
 70
     0
280
     1
281
     0
  0
BLOCK_RECORD
  5
AB
330
1
100
AcDbSymbolTableRecord
100
AcDbBlockTableRecord
  2
Block_4
340
0
102
{BLKREFS
331
AC
102
}
 70
     0
280
     1
281
     0
  0
BLOCK_RECORD
  5
B5
330
1
100
AcDbSymbolTableRecord
100
AcDbBlockTableRecord
  2
Block_5
340
0
102
{BLKREFS
331
B6
102
}
 70
     0
280
     1
281
     0
  0
BLOCK_RECORD
  5
B9
330
1
100
AcDbSymbolTableRecord
100
AcDbBlockTableRecord
  2
Block_6
340
0
102
{BLKREFS
331
BA
102
}
 70
     0
280
     1
281
     0
  0
BLOCK_RECORD
  5
C7
330
1
100
AcDbSymbolTableRecord
100
AcDbBlockTableRecord
  2
Block_7
340
0
102
{BLKREFS
331
C8
102
}
 70
     0
280
     1
281
     0
  0
BLOCK_RECORD
  5
CB
330
1
100
AcDbSymbolTableRecord
100
AcDbBlockTableRecord
  2
Block_8
340
0
102
{BLKREFS
331
CC
102
}
 70
     0
280
     1
281
     0
  0
BLOCK_RECORD
  5
E1
330
1
100
AcDbSymbolTableRecord
100
AcDbBlockTableRecord
  2
Block_9
340
0
102
{BLKREFS
331
E2
102
}
 70
     0
280
     1
281
     0
  0
BLOCK_RECORD
  5
EB
330
1
100
AcDbSymbolTableRecord
100
AcDbBlockTableRecord
  2
Block_10
340
0
102
{BLKREFS
331
EC
102
}
 70
     0
280
     1
281
     0
  0
BLOCK_RECORD
  5
F1
330
1
100
AcDbSymbolTableRecord
100
AcDbBlockTableRecord
  2
Block_11
340
0
102
{BLKREFS
331
F2
102
}
 70
     0
280
     1
281
     0
  0
BLOCK_RECORD
  5
F7
330
1
100
AcDbSymbolTableRecord
100
AcDbBlockTableRecord
  2
Block_12
340
0
102
{BLKREFS
331
F8
102
}
 70
     0
280
     1
281
     0
  0
BLOCK_RECORD
  5
FD
330
1
100
AcDbSymbolTableRecord
100
AcDbBlockTableRecord
  2
Block_13
340
0
102
{BLKREFS
331
FE
102
}
 70
     0
280
     1
281
     0
  0
BLOCK_RECORD
  5
103
330
1
100
AcDbSymbolTableRecord
100
AcDbBlockTableRecord
  2
Block_14
340
0
102
{BLKREFS
331
104
102
}
 70
     0
280
     1
281
     0
  0
BLOCK_RECORD
  5
109
330
1
100
AcDbSymbolTableRecord
100
AcDbBlockTableRecord
  2
Block_15
340
0
102
{BLKREFS
331
10A
102
}
 70
     0
280
     1
281
     0
  0
BLOCK_RECORD
  5
10F
330
1
100
AcDbSymbolTableRecord
100
AcDbBlockTableRecord
  2
Block_16
340
0
102
{BLKREFS
331
110
102
}
 70
     0
280
     1
281
     0
  0
BLOCK_RECORD
  5
115
330
1
100
AcDbSymbolTableRecord
100
AcDbBlockTableRecord
  2
Block_17
340
0
102
{BLKREFS
331
116
102
}
 70
     0
280
     1
281
     0
  0
BLOCK_RECORD
  5
11B
330
1
100
AcDbSymbolTableRecord
100
AcDbBlockTableRecord
  2
Block_18
340
0
102
{BLKREFS
331
11C
102
}
 70
     0
280
     1
281
     0
  0
BLOCK_RECORD
  5
121
330
1
100
AcDbSymbolTableRecord
100
AcDbBlockTableRecord
  2
Block_19
340
0
102
{BLKREFS
331
122
102
}
 70
     0
280
     1
281
     0
  0
BLOCK_RECORD
  5
127
330
1
100
AcDbSymbolTableRecord
100
AcDbBlockTableRecord
  2
Block_20
340
0
102
{BLKREFS
331
128
102
}
 70
     0
280
     1
281
     0
  0
BLOCK_RECORD
  5
12D
330
1
100
AcDbSymbolTableRecord
100
AcDbBlockTableRecord
  2
Block_21
340
0
102
{BLKREFS
331
12E
102
}
 70
     0
280
     1
281
     0
  0
BLOCK_RECORD
  5
133
330
1
100
AcDbSymbolTableRecord
100
AcDbBlockTableRecord
  2
Block_22
340
0
102
{BLKREFS
331
134
102
}
 70
     0
280
     1
281
     0
  0
BLOCK_RECORD
  5
139
330
1
100
AcDbSymbolTableRecord
100
AcDbBlockTableRecord
  2
Block_23
340
0
102
{BLKREFS
331
13A
102
}
 70
     0
280
     1
281
     0
  0
BLOCK_RECORD
  5
13F
330
1
100
AcDbSymbolTableRecord
100
AcDbBlockTableRecord
  2
Block_24
340
0
102
{BLKREFS
331
140
102
}
 70
     0
280
     1
281
     0
  0
BLOCK_RECORD
  5
145
330
1
100
AcDbSymbolTableRecord
100
AcDbBlockTableRecord
  2
Block_25
340
0
102
{BLKREFS
331
146
102
}
 70
     0
280
     1
281
     0
  0
BLOCK_RECORD
  5
14B
330
1
100
AcDbSymbolTableRecord
100
AcDbBlockTableRecord
  2
Block_26
340
0
102
{BLKREFS
331
14C
102
}
 70
     0
280
     1
281
     0
  0
BLOCK_RECORD
  5
151
330
1
100
AcDbSymbolTableRecord
100
AcDbBlockTableRecord
  2
Block_27
340
0
102
{BLKREFS
331
152
102
}
 70
     0
280
     1
281
     0
  0
BLOCK_RECORD
  5
157
330
1
100
AcDbSymbolTableRecord
100
AcDbBlockTableRecord
  2
Block_28
340
0
102
{BLKREFS
331
158
102
}
 70
     0
280
     1
281
     0
  0
BLOCK_RECORD
  5
15D
330
1
100
AcDbSymbolTableRecord
100
AcDbBlockTableRecord
  2
Block_29
340
0
102
{BLKREFS
331
15E
102
}
 70
     0
280
     1
281
     0
  0
ENDTAB
  0
ENDSEC
  0
SECTION
  2
BLOCKS
  0
BLOCK
  5
71
330
70
100
AcDbEntity
  8
0
100
AcDbBlockBegin
  2
*Model_Space
 70
     0
 10
0.0
 20
0.0
 30
0.0
  3
*Model_Space
  1

  0
ENDBLK
  5
72
330
70
100
AcDbEntity
  8
0
100
AcDbBlockEnd
  0
BLOCK
  5
6D
330
6C
100
AcDbEntity
 67
     1
  8
0
100
AcDbBlockBegin
  2
*Paper_Space
 70
     0
 10
0.0
 20
0.0
 30
0.0
  3
*Paper_Space
  1

  0
ENDBLK
  5
6E
330
6C
100
AcDbEntity
 67
     1
  8
0
100
AcDbBlockEnd
  0
BLOCK
  5
75
330
74
100
AcDbEntity
 67
     1
  8
0
100
AcDbBlockBegin
  2
*Paper_Space0
 70
     0
 10
0.0
 20
0.0
 30
0.0
  3
*Paper_Space0
  1

  0
ENDBLK
  5
76
330
74
100
AcDbEntity
 67
     1
  8
0
100
AcDbBlockEnd
  0
BLOCK
  5
7B
330
79
100
AcDbEntity
  8
0
100
AcDbBlockBegin
  2
Block_0
 70
     0
 10
0.0
 20
0.0
 30
0.0
  3
Block_0
  1

  0
LINE
  5
7D
330
79
100
AcDbEntity
  8
レイヤー 1
  6
AI-Linetype-0
 62
   154
420
    23468
370
    25
100
AcDbLine
 10
87.54587523760307
 20
-163.7642371275839
 30
0.0
 11
87.54587523760307
 21
-148.7639500102731
 31
0.0
  0
LINE
  5
7F
330
79
100
AcDbEntity
  8
レイヤー 1
  6
AI-Linetype-1
 62
   154
420
    23468
370
    25
100
AcDbLine
 10
106.2442990179901
 20
-143.9477220775898
 30
0.0
 11
121.2442660445518
 21
-143.9477220775898
 31
0.0
  0
CIRCLE
  5
81
330
79
100
AcDbEntity
  8
レイヤー 1
 62
    18
420
        0
370
     9
100
AcDbCircle
 10
95.13042087743844
 20
-163.8255499037974
 30
0.0
 40
0.099906664117715
  0
SPLINE
  5
82
330
79
100
AcDbEntity
  8
レイヤー 1
 62
    18
420
        0
370
     9
100
AcDbSpline
210
0.0
220
0.0
230
1.0
 70
     9
 71
     3
 72
    17
 73
    13
 74
     0
 42
0.0000000001
 43
0.0000000001
 40
0.0
 40
0.0
 40
0.0
 40
0.0
 40
1.0
 40
1.0
 40
1.0
 40
2.0
 40
2.0
 40
2.0
 40
3.0
 40
3.0
 40
3.0
 40
4.0
 40
4.0
 40
4.0
 40
4.0
 10
89.03089325527266
 20
-163.8255499037974
 30
0.0
 10
89.03089325527266
 20
-163.8806890690574
 30
0.0
 10
89.07566291117074
 20
-163.9254565679153
 30
0.0
 10
89.13079991939049
 20
-163.9254565679153
 30
0.0
 10
89.18660936241112
 20
-163.9254565679153
 30
0.0
 10
89.23137686126901
 20
-163.8806890690574
 30
0.0
 10
89.23137686126901
 20
-163.8255499037974
 30
0.0
 10
89.23137686126901
 20
-163.7704460163144
 30
0.0
 10
89.18660936241112
 20
-163.7256432396796
 30
0.0
 10
89.13079991939049
 20
-163.7256432396796
 30
0.0
 10
89.07566291117074
 20
-163.7256432396796
 30
0.0
 10
89.03089325527266
 20
-163.7704460163144
 30
0.0
 10
89.03089325527266
 20
-163.8255499037974
 30
0.0
  0
LINE
  5
83
330
79
100
AcDbEntity
  8
レイヤー 1
 62
    18
420
        0
370
     9
100
AcDbLine
 10
89.13079991939049
 20
-147.1702411620431
 30
0.0
 11
89.13079991939049
 21
-164.8256748782821
 31
0.0
  0
LINE
  5
84
330
79
100
AcDbEntity
  8
レイヤー 1
 62
    18
420
        0
370
     9
100
AcDbLine
 10
89.13079991939049
 20
-163.8255499037974
 30
0.0
 11
95.13042087743853
 21
-163.8255499037974
 31
0.0
  0
LINE
  5
85
330
79
100
AcDbEntity
  8
レイヤー 1
 62
    18
420
        0
370
     9
100
AcDbLine
 10
95.13042087743853
 20
-147.1702411620431
 30
0.0
 11
95.13042087743853
 21
-164.8256748782821
 31
0.0
  0
INSERT
  5
87
330
79
100
AcDbEntity
  8
レイヤー 1
100
AcDbBlockReference
  2
Block_1
 10
0.0
 20
0.0
 30
0.0
  0
LINE
  5
8D
330
79
100
AcDbEntity
  8
レイヤー 1
 62
    18
420
        0
370
    25
100
AcDbLine
 10
89.22862519467255
 20
-139.7729499618749
 30
0.0
 11
88.5795846556754
 21
-163.7642371275839
 31
0.0
  0
LINE
  5
8E
330
79
100
AcDbEntity
  8
レイヤー 1
 62
    18
420
        0
370
    25
100
AcDbLine
 10
88.5795846556754
 20
-163.7642371275839
 30
0.0
 11
88.17907605478209
 21
-163.7535479611899
 31
0.0
  0
LINE
  5
8F
330
79
100
AcDbEntity
  8
レイヤー 1
 62
    18
420
        0
370
    25
100
AcDbLine
 10
88.17907605478209
 20
-163.7535479611899
 30
0.0
 11
88.23350966450449
 21
-138.7538808212068
 31
0.0
  0
LINE
  5
90
330
79
100
AcDbEntity
  8
レイヤー 1
 62
    18
420
        0
370
    25
100
AcDbLine
 10
95.25308170764253
 20
-146.0127067471298
 30
0.0
 11
121.2442660445518
 21
-145.3636309303558
 31
0.0
  0
LINE
  5
91
330
79
100
AcDbEntity
  8
レイヤー 1
 62
    18
420
        0
370
    25
100
AcDbLine
 10
121.2442660445518
 20
-145.3636309303558
 30
0.0
 11
121.2339296559266
 21
-144.9633339961238
 31
0.0
  0
LINE
  5
92
330
79
100
AcDbEntity
  8
レイヤー 1
 62
    18
420
        0
370
    25
100
AcDbLine
 10
121.2339296559266
 20
-144.9633339961238
 30
0.0
 11
96.23355696040629
 21
-145.0184378836069
 31
0.0
  0
SPLINE
  5
93
330
79
100
AcDbEntity
  8
レイヤー 1
 62
    18
420
        0
370
     9
100
AcDbSpline
210
0.0
220
0.0
230
1.0
 70
     9
 71
     3
 72
    17
 73
    13
 74
     0
 42
0.0000000001
 43
0.0000000001
 40
0.0
 40
0.0
 40
0.0
 40
0.0
 40
1.0
 40
1.0
 40
1.0
 40
2.0
 40
2.0
 40
2.0
 40
3.0
 40
3.0
 40
3.0
 40
4.0
 40
4.0
 40
4.0
 40
4.0
 10
96.23355696040629
 20
-134.7541217565825
 30
0.0
 10
96.23355696040629
 20
-134.8092609218425
 30
0.0
 10
96.2783267982591
 20
-134.8540284207003
 30
0.0
 10
96.33346362452414
 20
-134.8540284207003
 30
0.0
 10
96.38856751200719
 20
-134.8540284207003
 30
0.0
 10
96.43337028864229
 20
-134.8092609218425
 30
0.0
 10
96.43337028864229
 20
-134.7541217565825
 30
0.0
 10
96.43337028864229
 20
-134.6990146110631
 30
0.0
 10
96.38856751200719
 20
-134.6542118332967
 30
0.0
 10
96.33346362452414
 20
-134.6542118332967
 30
0.0
 10
96.2783267982591
 20
-134.6542118332967
 30
0.0
 10
96.23355696040629
 20
-134.6990146110631
 30
0.0
 10
96.23355696040629
 20
-134.7541217565825
 30
0.0
  0
SPLINE
  5
94
330
79
100
AcDbEntity
  8
レイヤー 1
 62
    18
420
        0
370
     9
100
AcDbSpline
210
0.0
220
0.0
230
1.0
 70
     9
 71
     3
 72
    17
 73
    13
 74
     0
 42
0.0000000001
 43
0.0000000001
 40
0.0
 40
0.0
 40
0.0
 40
0.0
 40
1.0
 40
1.0
 40
1.0
 40
2.0
 40
2.0
 40
2.0
 40
3.0
 40
3.0
 40
3.0
 40
4.0
 40
4.0
 40
4.0
 40
4.0
 10
83.10722535084247
 20
-138.8537874853246
 30
0.0
 10
83.10722535084247
 20
-138.9089266505846
 30
0.0
 10
83.15199284970034
 20
-138.9536941494428
 30
0.0
 10
83.2071320149603
 20
-138.9536941494428
 30
0.0
 10
83.26223791262369
 20
-138.9536941494428
 30
0.0
 10
83.30704069039072
 20
-138.9089266505846
 30
0.0
 10
83.30704069039072
 20
-138.8537874853246
 30
0.0
 10
83.30704069039072
 20
-138.797978042304
 30
0.0
 10
83.26223791262369
 20
-138.7538808212068
 30
0.0
 10
83.2071320149603
 20
-138.7538808212068
 30
0.0
 10
83.15199284970034
 20
-138.7538808212068
 30
0.0
 10
83.10722535084247
 20
-138.797978042304
 30
0.0
 10
83.10722535084247
 20
-138.8537874853246
 30
0.0
  0
SPLINE
  5
95
330
79
100
AcDbEntity
  8
レイヤー 1
 62
    18
420
        0
370
     9
100
AcDbSpline
210
0.0
220
0.0
230
1.0
 70
     9
 71
     3
 72
    17
 73
    13
 74
     0
 42
0.0000000001
 43
0.0000000001
 40
0.0
 40
0.0
 40
0.0
 40
0.0
 40
1.0
 40
1.0
 40
1.0
 40
2.0
 40
2.0
 40
2.0
 40
3.0
 40
3.0
 40
3.0
 40
4.0
 40
4.0
 40
4.0
 40
4.0
 10
121.2332241003891
 20
-134.7541217565825
 30
0.0
 10
121.2332241003891
 20
-134.8092609218425
 30
0.0
 10
121.2780268770238
 20
-134.8540284207003
 30
0.0
 10
121.3331307645069
 20
-134.8540284207003
 30
0.0
 10
121.3882699297669
 20
-134.8540284207003
 30
0.0
 10
121.4330374286247
 20
-134.8092609218425
 30
0.0
 10
121.4330374286247
 20
-134.7541217565825
 30
0.0
 10
121.4330374286247
 20
-134.6990146110631
 30
0.0
 10
121.3882699297669
 20
-134.6542118332967
 30
0.0
 10
121.3331307645069
 20
-134.6542118332967
 30
0.0
 10
121.2780268770238
 20
-134.6542118332967
 30
0.0
 10
121.2332241003891
 20
-134.6990146110631
 30
0.0
 10
121.2332241003891
 20
-134.7541217565825
 30
0.0
  0
SPLINE
  5
96
330
79
100
AcDbEntity
  8
レイヤー 1
 62
    18
420
        0
370
     9
100
AcDbSpline
210
0.0
220
0.0
230
1.0
 70
     9
 71
     3
 72
    17
 73
    13
 74
     0
 42
0.0000000001
 43
0.0000000001
 40
0.0
 40
0.0
 40
0.0
 40
0.0
 40
1.0
 40
1.0
 40
1.0
 40
2.0
 40
2.0
 40
2.0
 40
3.0
 40
3.0
 40
3.0
 40
4.0
 40
4.0
 40
4.0
 40
4.0
 10
83.10722535084247
 20
-163.8531371253159
 30
0.0
 10
83.10722535084247
 20
-163.908241012799
 30
0.0
 10
83.15199284970034
 20
-163.9530437894337
 30
0.0
 10
83.2071320149603
 20
-163.9530437894337
 30
0.0
 10
83.26223791262369
 20
-163.9530437894337
 30
0.0
 10
83.30704069039072
 20
-163.908241012799
 30
0.0
 10
83.30704069039072
 20
-163.8531371253159
 30
0.0
 10
83.30704069039072
 20
-163.7979979600559
 30
0.0
 10
83.26223791262369
 20
-163.753230461198
 30
0.0
 10
83.2071320149603
 20
-163.753230461198
 30
0.0
 10
83.15199284970034
 20
-163.753230461198
 30
0.0
 10
83.10722535084247
 20
-163.7979979600559
 30
0.0
 10
83.10722535084247
 20
-163.8531371253159
 30
0.0
  0
LINE
  5
97
330
79
100
AcDbEntity
  8
レイヤー 1
 62
    18
420
        0
370
     9
100
AcDbLine
 10
121.3331307645069
 20
-134.7541217565825
 30
0.0
 11
96.33346362452414
 21
-134.7541217565825
 31
0.0
  0
LINE
  5
98
330
79
100
AcDbEntity
  8
レイヤー 1
 62
    18
420
        0
370
     9
100
AcDbLine
 10
121.3331307645069
 20
-137.0141219767029
 30
0.0
 11
121.3331307645069
 21
-133.7543495598666
 31
0.0
  0
LINE
  5
99
330
79
100
AcDbEntity
  8
レイヤー 1
 62
    18
420
        0
370
     9
100
AcDbLine
 10
96.33346362452414
 20
-136.8143086484672
 30
0.0
 11
96.33346362452414
 21
-133.7543495598666
 31
0.0
  0
INSERT
  5
9B
330
79
100
AcDbEntity
  8
レイヤー 1
100
AcDbBlockReference
  2
Block_2
 10
0.0
 20
0.0
 30
0.0
  0
SPLINE
  5
A6
330
79
100
AcDbEntity
  8
レイヤー 1
 62
    18
420
        0
370
     9
100
AcDbSpline
210
0.0
220
0.0
230
1.0
 70
     9
 71
     3
 72
    17
 73
    13
 74
     0
 42
0.0000000001
 43
0.0000000001
 40
0.0
 40
0.0
 40
0.0
 40
0.0
 40
1.0
 40
1.0
 40
1.0
 40
2.0
 40
2.0
 40
2.0
 40
3.0
 40
3.0
 40
3.0
 40
4.0
 40
4.0
 40
4.0
 40
4.0
 10
124.1801531918733
 20
-144.9633339961238
 30
0.0
 10
124.2352923571333
 20
-144.9633339961238
 30
0.0
 10
124.2800629023701
 20
-144.918531219489
 30
0.0
 10
124.2800629023701
 20
-144.863427332006
 30
0.0
 10
124.2800629023701
 20
-144.808288166746
 30
0.0
 10
124.2352923571333
 20
-144.7635206678881
 30
0.0
 10
124.1801531918733
 20
-144.7635206678881
 30
0.0
 10
124.1250493043903
 20
-144.7635206678881
 30
0.0
 10
124.0802465277555
 20
-144.808288166746
 30
0.0
 10
124.0802465277555
 20
-144.863427332006
 30
0.0
 10
124.0802465277555
 20
-144.918531219489
 30
0.0
 10
124.1250493043903
 20
-144.9633339961238
 30
0.0
 10
124.1801531918733
 20
-144.9633339961238
 30
0.0
  0
SPLINE
  5
A7
330
79
100
AcDbEntity
  8
レイヤー 1
 62
    18
420
        0
370
     9
100
AcDbSpline
210
0.0
220
0.0
230
1.0
 70
     9
 71
     3
 72
    17
 73
    13
 74
     0
 42
0.0000000001
 43
0.0000000001
 40
0.0
 40
0.0
 40
0.0
 40
0.0
 40
1.0
 40
1.0
 40
1.0
 40
2.0
 40
2.0
 40
2.0
 40
3.0
 40
3.0
 40
3.0
 40
4.0
 40
4.0
 40
4.0
 40
4.0
 10
124.1801531918733
 20
-138.9640305380676
 30
0.0
 10
124.2352923571333
 20
-138.9640305380676
 30
0.0
 10
124.2800629023701
 20
-138.9192630392098
 30
0.0
 10
124.2800629023701
 20
-138.8634535961891
 30
0.0
 10
124.2800629023701
 20
-138.8083144309292
 30
0.0
 10
124.2352923571333
 20
-138.7635469320713
 30
0.0
 10
124.1801531918733
 20
-138.7635469320713
 30
0.0
 10
124.1250493043903
 20
-138.7635469320713
 30
0.0
 10
124.0802465277555
 20
-138.8083144309292
 30
0.0
 10
124.0802465277555
 20
-138.8634535961891
 30
0.0
 10
124.0802465277555
 20
-138.9192630392098
 30
0.0
 10
124.1250493043903
 20
-138.9640305380676
 30
0.0
 10
124.1801531918733
 20
-138.9640305380676
 30
0.0
  0
LINE
  5
A8
330
79
100
AcDbEntity
  8
レイヤー 1
 62
    18
420
        0
370
     9
100
AcDbLine
 10
124.1801531918733
 20
-138.8634535961891
 30
0.0
 11
124.1801531918733
 21
-144.863427332006
 31
0.0
  0
LINE
  5
A9
330
79
100
AcDbEntity
  8
レイヤー 1
 62
    18
420
        0
370
     9
100
AcDbLine
 10
125.1761506664633
 20
-138.8634535961891
 30
0.0
 11
121.916378249627
 21
-138.8634535961891
 31
0.0
  0
LINE
  5
AA
330
79
100
AcDbEntity
  8
レイヤー 1
 62
    18
420
        0
370
     9
100
AcDbLine
 10
125.1761506664633
 20
-144.863427332006
 30
0.0
 11
121.916378249627
 21
-144.863427332006
 31
0.0
  0
INSERT
  5
AC
330
79
100
AcDbEntity
  8
レイヤー 1
100
AcDbBlockReference
  2
Block_4
 10
0.0
 20
0.0
 30
0.0
  0
LINE
  5
B2
330
79
100
AcDbEntity
  8
レイヤー 1
 62
    18
420
        0
370
     9
100
AcDbLine
 10
83.2071320149603
 20
-138.8537874853246
 30
0.0
 11
83.2071320149603
 21
-163.8531371253159
 31
0.0
  0
LINE
  5
B3
330
79
100
AcDbEntity
  8
レイヤー 1
 62
    18
420
        0
370
     9
100
AcDbLine
 10
81.9172706589782
 20
-138.8537874853246
 30
0.0
 11
86.27739221440922
 21
-138.8537874853246
 31
0.0
  0
LINE
  5
B4
330
79
100
AcDbEntity
  8
レイヤー 1
 62
    18
420
        0
370
     9
100
AcDbLine
 10
81.9172706589782
 20
-163.8531371253159
 30
0.0
 11
86.27739221440922
 21
-163.8531371253159
 31
0.0
  0
INSERT
  5
B6
330
79
100
AcDbEntity
  8
レイヤー 1
100
AcDbBlockReference
  2
Block_5
 10
0.0
 20
0.0
 30
0.0
  0
LINE
  5
C1
330
79
100
AcDbEntity
  8
レイヤー 1
 62
    18
420
        0
370
    25
100
AcDbLine
 10
89.22862519467255
 20
-139.7729499618749
 30
0.0
 11
95.22828143049745
 21
-139.7729499618749
 31
0.0
  0
LINE
  5
C2
330
79
100
AcDbEntity
  8
レイヤー 1
 62
    18
420
        0
370
    25
100
AcDbLine
 10
88.23350966450449
 20
-138.7538808212068
 30
0.0
 11
96.23355696040629
 21
-138.7538808212068
 31
0.0
  0
LINE
  5
C3
330
79
100
AcDbEntity
  8
レイヤー 1
 62
    18
420
        0
370
    25
100
AcDbLine
 10
96.23355696040629
 20
-144.8902737202099
 30
0.0
 11
96.23355696040629
 21
-138.8902999843931
 31
0.0
  0
LINE
  5
C4
330
79
100
AcDbEntity
  8
レイヤー 1
 62
    18
420
        0
370
    25
100
AcDbLine
 10
95.22828143049745
 20
-145.9506884153787
 30
0.0
 11
95.22828143049745
 21
-139.7729499618749
 31
0.0
  0
LINE
  5
C5
330
79
100
AcDbEntity
  8
レイヤー 1
 62
   250
420
  2299925
370
     9
100
AcDbLine
 10
100.4841057408546
 20
-153.5919254426568
 30
0.0
 11
87.72914328848306
 21
-153.5919254426568
 31
0.0
  0
LINE
  5
C6
330
79
100
AcDbEntity
  8
レイヤー 1
 62
   250
420
  2299925
370
     9
100
AcDbLine
 10
108.2961930415514
 20
-144.0248745756214
 30
0.0
 11
108.2961930415514
 21
-152.0833065922559
 31
0.0
  0
INSERT
  5
C8
330
79
100
AcDbEntity
  8
レイヤー 1
100
AcDbBlockReference
  2
Block_7
 10
0.0
 20
0.0
 30
0.0
  0
ENDBLK
  5
7C
330
79
100
AcDbEntity
  8
0
100
AcDbBlockEnd
  0
BLOCK
  5
88
330
86
100
AcDbEntity
  8
0
100
AcDbBlockBegin
  2
Block_1
 70
     0
 10
0.0
 20
0.0
 30
0.0
  3
Block_1
  1

  0
SPLINE
  5
8A
330
86
100
AcDbEntity
  8
レイヤー 1
100
AcDbSpline
210
0.0
220
0.0
230
1.0
 70
     9
 71
     3
 72
    17
 73
    13
 74
     0
 42
0.0000000001
 43
0.0000000001
 40
0.0
 40
0.0
 40
0.0
 40
0.0
 40
1.0
 40
1.0
 40
1.0
 40
2.0
 40
2.0
 40
2.0
 40
3.0
 40
3.0
 40
3.0
 40
4.0
 40
4.0
 40
4.0
 40
4.0
 10
92.15165335152807
 20
-162.2681314698496
 30
0.0
 10
91.88930933032628
 20
-162.2681314698496
 30
0.0
 10
91.85124102521427
 20
-162.479660332644
 30
0.0
 10
91.85124102521427
 20
-162.5961045600454
 30
0.0
 10
91.85124102521427
 20
-162.7718044297932
 30
0.0
 10
91.94649791538143
 20
-162.9347574462455
 30
0.0
 10
92.13046601429377
 20
-162.9347574462455
 30
0.0
 10
92.25104435627752
 20
-162.9347574462455
 30
0.0
 10
92.42674422602526
 20
-162.8755018038992
 30
0.0
 10
92.42674422602526
 20
-162.589903388172
 30
0.0
 10
92.42674422602526
 20
-162.3656276720822
 30
0.0
 10
92.28704560409838
 20
-162.2681314698496
 30
0.0
 10
92.15165335152807
 20
-162.2681314698496
 30
0.0
  0
SPLINE
  5
8B
330
86
100
AcDbEntity
  8
レイヤー 1
100
AcDbSpline
210
0.0
220
0.0
230
1.0
 70
     9
 71
     3
 72
    32
 73
    28
 74
     0
 42
0.0000000001
 43
0.0000000001
 40
0.0
 40
0.0
 40
0.0
 40
0.0
 40
1.0
 40
1.0
 40
1.0
 40
2.0
 40
2.0
 40
2.0
 40
3.0
 40
3.0
 40
3.0
 40
4.0
 40
4.0
 40
4.0
 40
5.0
 40
5.0
 40
5.0
 40
6.0
 40
6.0
 40
6.0
 40
7.0
 40
7.0
 40
7.0
 40
8.0
 40
8.0
 40
8.0
 40
9.0
 40
9.0
 40
9.0
 40
9.0
 10
92.13477238365035
 20
-163.1269937743224
 30
0.0
 10
91.61852482518565
 20
-163.1269937743224
 30
0.0
 10
91.6100843412468
 20
-162.5730224202942
 30
0.0
 10
91.6100843412468
 20
-162.3590819906602
 30
0.0
 10
91.6100843412468
 20
-162.128605102697
 30
0.0
 10
91.62903236641566
 20
-161.4812716610185
 30
0.0
 10
92.17284068876235
 20
-161.4812716610185
 30
0.0
 10
92.34630124644468
 20
-161.4812716610185
 30
0.0
 10
92.59159204499447
 20
-161.5512070993691
 30
0.0
 10
92.62966035010647
 20
-161.8833143041472
 30
0.0
 10
92.62966035010647
 20
-161.8833143041472
 30
0.0
 10
92.41606443002098
 20
-161.8833143041472
 30
0.0
 10
92.41606443002098
 20
-161.8833143041472
 30
0.0
 10
92.40555688879098
 20
-161.8261257190921
 30
0.0
 10
92.37368975555241
 20
-161.6779866132263
 30
0.0
 10
92.17060137669694
 20
-161.6779866132263
 30
0.0
 10
91.87880178909628
 20
-161.6779866132263
 30
0.0
 10
91.83849417191884
 20
-162.0059597034221
 30
0.0
 10
91.8259195733977
 20
-162.2109428847945
 30
0.0
 10
91.91893715149943
 20
-162.1327392172793
 30
0.0
 10
91.9866332777846
 20
-162.073483574933
 30
0.0
 10
92.16853431940579
 20
-162.073483574933
 30
0.0
 10
92.34836830373582
 20
-162.073483574933
 30
0.0
 10
92.65084768734077
 20
-162.1816595731699
 30
0.0
 10
92.65084768734077
 20
-162.5878363308808
 30
0.0
 10
92.65084768734077
 20
-162.9071966823635
 30
0.0
 10
92.45206567784185
 20
-163.1269937743224
 30
0.0
 10
92.13477238365035
 20
-163.1269937743224
 30
0.0
  0
HATCH
  5
8C
330
86
100
AcDbEntity
  8
レイヤー 1
 62
    18
420
        0
440
 33554687
100
AcDbHatch
 10
0.0
 20
0.0
 30
0.0
210
0.0
220
0.0
230
1.0
  2
SOLID
 70
     1
 71
     1
 91
        2
 92
        1
 93
        1
 72
     4
 94
        3
 73
     0
 74
     0
 95
       17
 96
       13
 40
0.0
 40
0.0
 40
0.0
 40
0.0
 40
1.0
 40
1.0
 40
1.0
 40
2.0
 40
2.0
 40
2.0
 40
3.0
 40
3.0
 40
3.0
 40
4.0
 40
4.0
 40
4.0
 40
4.0
 10
92.15165335152807
 20
-162.2681314698496
 10
91.88930933032628
 20
-162.2681314698496
 10
91.85124102521427
 20
-162.479660332644
 10
91.85124102521427
 20
-162.5961045600454
 10
91.85124102521427
 20
-162.7718044297932
 10
91.94649791538143
 20
-162.9347574462455
 10
92.13046601429377
 20
-162.9347574462455
 10
92.25104435627752
 20
-162.9347574462455
 10
92.42674422602526
 20
-162.8755018038992
 10
92.42674422602526
 20
-162.589903388172
 10
92.42674422602526
 20
-162.3656276720822
 10
92.28704560409838
 20
-162.2681314698496
 10
92.15165335152807
 20
-162.2681314698496
 97
        0
 97
        1
330
8A
 92
        1
 93
        1
 72
     4
 94
        3
 73
     0
 74
     0
 95
       32
 96
       28
 40
0.0
 40
0.0
 40
0.0
 40
0.0
 40
1.0
 40
1.0
 40
1.0
 40
2.0
 40
2.0
 40
2.0
 40
3.0
 40
3.0
 40
3.0
 40
4.0
 40
4.0
 40
4.0
 40
5.0
 40
5.0
 40
5.0
 40
6.0
 40
6.0
 40
6.0
 40
7.0
 40
7.0
 40
7.0
 40
8.0
 40
8.0
 40
8.0
 40
9.0
 40
9.0
 40
9.0
 40
9.0
 10
92.13477238365035
 20
-163.1269937743224
 10
91.61852482518565
 20
-163.1269937743224
 10
91.6100843412468
 20
-162.5730224202942
 10
91.6100843412468
 20
-162.3590819906602
 10
91.6100843412468
 20
-162.128605102697
 10
91.62903236641566
 20
-161.4812716610185
 10
92.17284068876235
 20
-161.4812716610185
 10
92.34630124644468
 20
-161.4812716610185
 10
92.59159204499447
 20
-161.5512070993691
 10
92.62966035010647
 20
-161.8833143041472
 10
92.62966035010647
 20
-161.8833143041472
 10
92.41606443002098
 20
-161.8833143041472
 10
92.41606443002098
 20
-161.8833143041472
 10
92.40555688879098
 20
-161.8261257190921
 10
92.37368975555241
 20
-161.6779866132263
 10
92.17060137669694
 20
-161.6779866132263
 10
91.87880178909628
 20
-161.6779866132263
 10
91.83849417191884
 20
-162.0059597034221
 10
91.8259195733977
 20
-162.2109428847945
 10
91.91893715149943
 20
-162.1327392172793
 10
91.9866332777846
 20
-162.073483574933
 10
92.16853431940579
 20
-162.073483574933
 10
92.34836830373582
 20
-162.073483574933
 10
92.65084768734077
 20
-162.1816595731699
 10
92.65084768734077
 20
-162.5878363308808
 10
92.65084768734077
 20
-162.9071966823635
 10
92.45206567784185
 20
-163.1269937743224
 10
92.13477238365035
 20
-163.1269937743224
 97
        0
 97
        1
330
8B
 75
     2
 76
     1
 98
        1
 10
0.0
 20
0.0
450
        0
451
        0
460
0.0
461
0.0
452
        0
462
0.0
453
        0
470

  0
ENDBLK
  5
89
330
86
100
AcDbEntity
  8
0
100
AcDbBlockEnd
  0
BLOCK
  5
9C
330
9A
100
AcDbEntity
  8
0
100
AcDbBlockBegin
  2
Block_2
 70
     0
 10
0.0
 20
0.0
 30
0.0
  3
Block_2
  1

  0
INSERT
  5
9F
330
9A
100
AcDbEntity
  8
レイヤー 1
100
AcDbBlockReference
  2
Block_3
 10
0.0
 20
0.0
 30
0.0
  0
ENDBLK
  5
9D
330
9A
100
AcDbEntity
  8
0
100
AcDbBlockEnd
  0
BLOCK
  5
A0
330
9E
100
AcDbEntity
  8
0
100
AcDbBlockBegin
  2
Block_3
 70
     0
 10
0.0
 20
0.0
 30
0.0
  3
Block_3
  1

  0
SPLINE
  5
A2
330
9E
100
AcDbEntity
  8
レイヤー 1
100
AcDbSpline
210
0.0
220
0.0
230
1.0
 70
     9
 71
     3
 72
    44
 73
    40
 74
     0
 42
0.0000000001
 43
0.0000000001
 40
0.0
 40
0.0
 40
0.0
 40
0.0
 40
1.0
 40
1.0
 40
1.0
 40
2.0
 40
2.0
 40
2.0
 40
3.0
 40
3.0
 40
3.0
 40
4.0
 40
4.0
 40
4.0
 40
5.0
 40
5.0
 40
5.0
 40
6.0
 40
6.0
 40
6.0
 40
7.0
 40
7.0
 40
7.0
 40
8.0
 40
8.0
 40
8.0
 40
9.0
 40
9.0
 40
9.0
 40
10.0
 40
10.0
 40
10.0
 40
11.0
 40
11.0
 40
11.0
 40
12.0
 40
12.0
 40
12.0
 40
13.0
 40
13.0
 40
13.0
 40
13.0
 10
108.3372287055546
 20
-133.429753927146
 30
0.0
 10
108.1194986708868
 20
-133.588572829016
 30
0.0
 10
108.026481092785
 20
-133.6626423819489
 30
0.0
 10
107.9775607368945
 20
-133.8063028636838
 30
0.0
 10
107.9775607368945
 20
-133.8063028636838
 30
0.0
 10
108.7561523165609
 20
-133.8063028636838
 30
0.0
 10
108.7561523165609
 20
-133.8063028636838
 30
0.0
 10
108.7561523165609
 20
-133.8063028636838
 30
0.0
 10
108.7561523165609
 20
-134.0116305546047
 30
0.0
 10
108.7561523165609
 20
-134.0116305546047
 30
0.0
 10
108.7561523165609
 20
-134.0116305546047
 30
0.0
 10
107.7281358237624
 20
-134.0116305546047
 30
0.0
 10
107.7281358237624
 20
-134.0116305546047
 30
0.0
 10
107.7598307022267
 20
-133.6540296432358
 30
0.0
 10
107.8252875164464
 20
-133.5758259757206
 30
0.0
 10
108.2104491916974
 20
-133.277480706698
 30
0.0
 10
108.4664197862514
 20
-133.0786986971991
 30
0.0
 10
108.5318766004712
 20
-133.0108303161396
 30
0.0
 10
108.5318766004712
 20
-132.8733710062782
 30
0.0
 10
108.5318766004712
 20
-132.7548597215856
 30
0.0
 10
108.4598741048295
 20
-132.6239460931461
 30
0.0
 10
108.2631591526217
 20
-132.6239460931461
 30
0.0
 10
108.0030544434853
 20
-132.6239460931461
 30
0.0
 10
107.9944417047722
 20
-132.8544229811093
 30
0.0
 10
107.9903075901899
 20
-132.9708672085107
 30
0.0
 10
107.9903075901899
 20
-132.9708672085107
 30
0.0
 10
107.7660318741001
 20
-132.9708672085107
 30
0.0
 10
107.7660318741001
 20
-132.9708672085107
 30
0.0
 10
107.7746446128133
 20
-132.843743185105
 30
0.0
 10
107.7853244088175
 20
-132.7317775818344
 30
0.0
 10
107.8655951336239
 20
-132.6132662971418
 30
0.0
 10
107.9754936796033
 20
-132.4523803379806
 30
0.0
 10
108.1618733453554
 20
-132.4186184022252
 30
0.0
 10
108.2779730632083
 20
-132.4186184022252
 30
0.0
 10
108.5553032497709
 20
-132.4186184022252
 30
0.0
 10
108.7626979979829
 20
-132.6025865011375
 30
0.0
 10
108.7626979979829
 20
-132.8754380635693
 30
0.0
 10
108.7626979979829
 20
-133.1041924037899
 30
0.0
 10
108.6462537705815
 20
-133.2034111537651
 30
0.0
 10
108.3372287055546
 20
-133.429753927146
 30
0.0
  0
HATCH
  5
A3
330
9E
100
AcDbEntity
  8
レイヤー 1
 62
    18
420
        0
440
 33554687
100
AcDbHatch
 10
0.0
 20
0.0
 30
0.0
210
0.0
220
0.0
230
1.0
  2
SOLID
 70
     1
 71
     1
 91
        1
 92
        1
 93
        1
 72
     4
 94
        3
 73
     0
 74
     0
 95
       44
 96
       40
 40
0.0
 40
0.0
 40
0.0
 40
0.0
 40
1.0
 40
1.0
 40
1.0
 40
2.0
 40
2.0
 40
2.0
 40
3.0
 40
3.0
 40
3.0
 40
4.0
 40
4.0
 40
4.0
 40
5.0
 40
5.0
 40
5.0
 40
6.0
 40
6.0
 40
6.0
 40
7.0
 40
7.0
 40
7.0
 40
8.0
 40
8.0
 40
8.0
 40
9.0
 40
9.0
 40
9.0
 40
10.0
 40
10.0
 40
10.0
 40
11.0
 40
11.0
 40
11.0
 40
12.0
 40
12.0
 40
12.0
 40
13.0
 40
13.0
 40
13.0
 40
13.0
 10
108.3372287055546
 20
-133.429753927146
 10
108.1194986708868
 20
-133.588572829016
 10
108.026481092785
 20
-133.6626423819489
 10
107.9775607368945
 20
-133.8063028636838
 10
107.9775607368945
 20
-133.8063028636838
 10
108.7561523165609
 20
-133.8063028636838
 10
108.7561523165609
 20
-133.8063028636838
 10
108.7561523165609
 20
-133.8063028636838
 10
108.7561523165609
 20
-134.0116305546047
 10
108.7561523165609
 20
-134.0116305546047
 10
108.7561523165609
 20
-134.0116305546047
 10
107.7281358237624
 20
-134.0116305546047
 10
107.7281358237624
 20
-134.0116305546047
 10
107.7598307022267
 20
-133.6540296432358
 10
107.8252875164464
 20
-133.5758259757206
 10
108.2104491916974
 20
-133.277480706698
 10
108.4664197862514
 20
-133.0786986971991
 10
108.5318766004712
 20
-133.0108303161396
 10
108.5318766004712
 20
-132.8733710062782
 10
108.5318766004712
 20
-132.7548597215856
 10
108.4598741048295
 20
-132.6239460931461
 10
108.2631591526217
 20
-132.6239460931461
 10
108.0030544434853
 20
-132.6239460931461
 10
107.9944417047722
 20
-132.8544229811093
 10
107.9903075901899
 20
-132.9708672085107
 10
107.9903075901899
 20
-132.9708672085107
 10
107.7660318741001
 20
-132.9708672085107
 10
107.7660318741001
 20
-132.9708672085107
 10
107.7746446128133
 20
-132.843743185105
 10
107.7853244088175
 20
-132.7317775818344
 10
107.8655951336239
 20
-132.6132662971418
 10
107.9754936796033
 20
-132.4523803379806
 10
108.1618733453554
 20
-132.4186184022252
 10
108.2779730632083
 20
-132.4186184022252
 10
108.5553032497709
 20
-132.4186184022252
 10
108.7626979979829
 20
-132.6025865011375
 10
108.7626979979829
 20
-132.8754380635693
 10
108.7626979979829
 20
-133.1041924037899
 10
108.6462537705815
 20
-133.2034111537651
 10
108.3372287055546
 20
-133.429753927146
 97
        0
 97
        1
330
A2
 75
     2
 76
     1
 98
        1
 10
0.0
 20
0.0
450
        0
451
        0
460
0.0
461
0.0
452
        0
462
0.0
453
        0
470

  0
SPLINE
  5
A4
330
9E
100
AcDbEntity
  8
レイヤー 1
100
AcDbSpline
210
0.0
220
0.0
230
1.0
 70
     9
 71
     3
 72
    53
 73
    49
 74
     0
 42
0.0000000001
 43
0.0000000001
 40
0.0
 40
0.0
 40
0.0
 40
0.0
 40
1.0
 40
1.0
 40
1.0
 40
2.0
 40
2.0
 40
2.0
 40
3.0
 40
3.0
 40
3.0
 40
4.0
 40
4.0
 40
4.0
 40
5.0
 40
5.0
 40
5.0
 40
6.0
 40
6.0
 40
6.0
 40
7.0
 40
7.0
 40
7.0
 40
8.0
 40
8.0
 40
8.0
 40
9.0
 40
9.0
 40
9.0
 40
10.0
 40
10.0
 40
10.0
 40
11.0
 40
11.0
 40
11.0
 40
12.0
 40
12.0
 40
12.0
 40
13.0
 40
13.0
 40
13.0
 40
14.0
 40
14.0
 40
14.0
 40
15.0
 40
15.0
 40
15.0
 40
16.0
 40
16.0
 40
16.0
 40
16.0
 10
109.4021077200453
 20
-134.0622734582379
 30
0.0
 10
109.3239040525301
 20
-134.0622734582379
 30
0.0
 10
109.2222737357152
 20
-134.0453924903602
 30
0.0
 10
109.1206434189004
 20
-133.9820027334316
 30
0.0
 10
108.9473551159923
 20
-133.8721041874521
 30
0.0
 10
108.9259955239838
 20
-133.7408460494641
 30
0.0
 10
108.9070474988149
 20
-133.6330145607758
 30
0.0
 10
108.9070474988149
 20
-133.6330145607758
 30
0.0
 10
109.1292561576135
 20
-133.6330145607758
 30
0.0
 10
109.1292561576135
 20
-133.6330145607758
 30
0.0
 10
109.184033175829
 20
-133.8317965702747
 30
0.0
 10
109.3111571992347
 20
-133.8614243914478
 30
0.0
 10
109.4041747773364
 20
-133.8614243914478
 30
0.0
 10
109.5437011444891
 20
-133.8614243914478
 30
0.0
 10
109.6959743649371
 20
-133.7618611319241
 30
0.0
 10
109.6959743649371
 20
-133.5293171866698
 30
0.0
 10
109.6959743649371
 20
-133.2733465921157
 30
0.0
 10
109.5161403806071
 20
-133.2034111537651
 30
0.0
 10
109.3955620386233
 20
-133.2034111537651
 30
0.0
 10
109.363867160159
 20
-133.2034111537651
 30
0.0
 10
109.2222737357152
 20
-133.2034111537651
 30
0.0
 10
109.1333902721958
 20
-133.332602234462
 30
0.0
 10
109.1333902721958
 20
-133.332602234462
 30
0.0
 10
108.9576904024481
 20
-133.3136542092931
 30
0.0
 10
108.9576904024481
 20
-133.3136542092931
 30
0.0
 10
108.9576904024481
 20
-133.3136542092931
 30
0.0
 10
109.0782687444318
 20
-132.4671942485672
 30
0.0
 10
109.0782687444318
 20
-132.4671942485672
 30
0.0
 10
109.0782687444318
 20
-132.4671942485672
 30
0.0
 10
109.8568603240983
 20
-132.4671942485672
 30
0.0
 10
109.8568603240983
 20
-132.4671942485672
 30
0.0
 10
109.8568603240983
 20
-132.4671942485672
 30
0.0
 10
109.8568603240983
 20
-132.6618421434838
 30
0.0
 10
109.8568603240983
 20
-132.6618421434838
 30
0.0
 10
109.8568603240983
 20
-132.6618421434838
 30
0.0
 10
109.2412217608841
 20
-132.6618421434838
 30
0.0
 10
109.2412217608841
 20
-132.6618421434838
 30
0.0
 10
109.2412217608841
 20
-132.6618421434838
 30
0.0
 10
109.1757649466644
 20
-133.0848998690725
 30
0.0
 10
109.1757649466644
 20
-133.0848998690725
 30
0.0
 10
109.2370876463018
 20
-133.0511379333171
 30
0.0
 10
109.3194254283993
 20
-133.0108303161396
 30
0.0
 10
109.4379367130919
 20
-133.0108303161396
 30
0.0
 10
109.6918402503548
 20
-133.0108303161396
 30
0.0
 10
109.92886281974
 20
-133.1972099818917
 30
0.0
 10
109.92886281974
 20
-133.5103691615008
 30
0.0
 10
109.92886281974
 20
-133.8276624556924
 30
0.0
 10
109.7045871036502
 20
-134.0622734582379
 30
0.0
 10
109.4021077200453
 20
-134.0622734582379
 30
0.0
  0
HATCH
  5
A5
330
9E
100
AcDbEntity
  8
レイヤー 1
 62
    18
420
        0
440
 33554687
100
AcDbHatch
 10
0.0
 20
0.0
 30
0.0
210
0.0
220
0.0
230
1.0
  2
SOLID
 70
     1
 71
     1
 91
        1
 92
        1
 93
        1
 72
     4
 94
        3
 73
     0
 74
     0
 95
       53
 96
       49
 40
0.0
 40
0.0
 40
0.0
 40
0.0
 40
1.0
 40
1.0
 40
1.0
 40
2.0
 40
2.0
 40
2.0
 40
3.0
 40
3.0
 40
3.0
 40
4.0
 40
4.0
 40
4.0
 40
5.0
 40
5.0
 40
5.0
 40
6.0
 40
6.0
 40
6.0
 40
7.0
 40
7.0
 40
7.0
 40
8.0
 40
8.0
 40
8.0
 40
9.0
 40
9.0
 40
9.0
 40
10.0
 40
10.0
 40
10.0
 40
11.0
 40
11.0
 40
11.0
 40
12.0
 40
12.0
 40
12.0
 40
13.0
 40
13.0
 40
13.0
 40
14.0
 40
14.0
 40
14.0
 40
15.0
 40
15.0
 40
15.0
 40
16.0
 40
16.0
 40
16.0
 40
16.0
 10
109.4021077200453
 20
-134.0622734582379
 10
109.3239040525301
 20
-134.0622734582379
 10
109.2222737357152
 20
-134.0453924903602
 10
109.1206434189004
 20
-133.9820027334316
 10
108.9473551159923
 20
-133.8721041874521
 10
108.9259955239838
 20
-133.7408460494641
 10
108.9070474988149
 20
-133.6330145607758
 10
108.9070474988149
 20
-133.6330145607758
 10
109.1292561576135
 20
-133.6330145607758
 10
109.1292561576135
 20
-133.6330145607758
 10
109.184033175829
 20
-133.8317965702747
 10
109.3111571992347
 20
-133.8614243914478
 10
109.4041747773364
 20
-133.8614243914478
 10
109.5437011444891
 20
-133.8614243914478
 10
109.6959743649371
 20
-133.7618611319241
 10
109.6959743649371
 20
-133.5293171866698
 10
109.6959743649371
 20
-133.2733465921157
 10
109.5161403806071
 20
-133.2034111537651
 10
109.3955620386233
 20
-133.2034111537651
 10
109.363867160159
 20
-133.2034111537651
 10
109.2222737357152
 20
-133.2034111537651
 10
109.1333902721958
 20
-133.332602234462
 10
109.1333902721958
 20
-133.332602234462
 10
108.9576904024481
 20
-133.3136542092931
 10
108.9576904024481
 20
-133.3136542092931
 10
108.9576904024481
 20
-133.3136542092931
 10
109.0782687444318
 20
-132.4671942485672
 10
109.0782687444318
 20
-132.4671942485672
 10
109.0782687444318
 20
-132.4671942485672
 10
109.8568603240983
 20
-132.4671942485672
 10
109.8568603240983
 20
-132.4671942485672
 10
109.8568603240983
 20
-132.4671942485672
 10
109.8568603240983
 20
-132.6618421434838
 10
109.8568603240983
 20
-132.6618421434838
 10
109.8568603240983
 20
-132.6618421434838
 10
109.2412217608841
 20
-132.6618421434838
 10
109.2412217608841
 20
-132.6618421434838
 10
109.2412217608841
 20
-132.6618421434838
 10
109.1757649466644
 20
-133.0848998690725
 10
109.1757649466644
 20
-133.0848998690725
 10
109.2370876463018
 20
-133.0511379333171
 10
109.3194254283993
 20
-133.0108303161396
 10
109.4379367130919
 20
-133.0108303161396
 10
109.6918402503548
 20
-133.0108303161396
 10
109.92886281974
 20
-133.1972099818917
 10
109.92886281974
 20
-133.5103691615008
 10
109.92886281974
 20
-133.8276624556924
 10
109.7045871036502
 20
-134.0622734582379
 10
109.4021077200453
 20
-134.0622734582379
 97
        0
 97
        1
330
A4
 75
     2
 76
     1
 98
        1
 10
0.0
 20
0.0
450
        0
451
        0
460
0.0
461
0.0
452
        0
462
0.0
453
        0
470

  0
ENDBLK
  5
A1
330
9E
100
AcDbEntity
  8
0
100
AcDbBlockEnd
  0
BLOCK
  5
AD
330
AB
100
AcDbEntity
  8
0
100
AcDbBlockBegin
  2
Block_4
 70
     0
 10
0.0
 20
0.0
 30
0.0
  3
Block_4
  1

  0
SPLINE
  5
AF
330
AB
100
AcDbEntity
  8
レイヤー 1
100
AcDbSpline
210
0.0
220
0.0
230
1.0
 70
     9
 71
     3
 72
    17
 73
    13
 74
     0
 42
0.0000000001
 43
0.0000000001
 40
0.0
 40
0.0
 40
0.0
 40
0.0
 40
1.0
 40
1.0
 40
1.0
 40
2.0
 40
2.0
 40
2.0
 40
3.0
 40
3.0
 40
3.0
 40
4.0
 40
4.0
 40
4.0
 40
4.0
 10
125.7353054156148
 20
-141.8407822996092
 30
0.0
 10
125.7353054156148
 20
-142.1029540660367
 30
0.0
 10
125.9468342784091
 20
-142.1408501163745
 30
0.0
 10
126.0632785058106
 20
-142.1408501163745
 30
0.0
 10
126.2389783755583
 20
-142.1408501163745
 30
0.0
 10
126.4019313920106
 20
-142.0457654809816
 30
0.0
 10
126.4019313920106
 20
-141.8617973820692
 30
0.0
 10
126.4019313920106
 20
-141.7412190400855
 30
0.0
 10
126.3426757496643
 20
-141.5655191703377
 30
0.0
 10
126.0570773339371
 20
-141.5655191703377
 30
0.0
 10
125.8328016178474
 20
-141.5655191703377
 30
0.0
 10
125.7353054156148
 20
-141.7050455374904
 30
0.0
 10
125.7353054156148
 20
-141.8407822996092
 30
0.0
  0
SPLINE
  5
B0
330
AB
100
AcDbEntity
  8
レイヤー 1
100
AcDbSpline
210
0.0
220
0.0
230
1.0
 70
     9
 71
     3
 72
    32
 73
    28
 74
     0
 42
0.0000000001
 43
0.0000000001
 40
0.0
 40
0.0
 40
0.0
 40
0.0
 40
1.0
 40
1.0
 40
1.0
 40
2.0
 40
2.0
 40
2.0
 40
3.0
 40
3.0
 40
3.0
 40
4.0
 40
4.0
 40
4.0
 40
5.0
 40
5.0
 40
5.0
 40
6.0
 40
6.0
 40
6.0
 40
7.0
 40
7.0
 40
7.0
 40
8.0
 40
8.0
 40
8.0
 40
9.0
 40
9.0
 40
9.0
 40
9.0
 10
126.5941677200876
 20
-141.8576632674869
 30
0.0
 10
126.5941677200876
 20
-142.3737385711774
 30
0.0
 10
126.0401963660594
 20
-142.3823513098905
 30
0.0
 10
125.8262559364254
 20
-142.3823513098905
 30
0.0
 10
125.5957790484621
 20
-142.3823513098905
 30
0.0
 10
124.9484456067837
 20
-142.3630587751731
 30
0.0
 10
124.9484456067837
 20
-141.8194227076007
 30
0.0
 10
124.9484456067837
 20
-141.6461344046926
 30
0.0
 10
125.0183810451343
 20
-141.4004990965943
 30
0.0
 10
125.3504882499124
 20
-141.3626030462565
 30
0.0
 10
125.3504882499124
 20
-141.3626030462565
 30
0.0
 10
125.3504882499124
 20
-141.5761989663421
 30
0.0
 10
125.3504882499124
 20
-141.5761989663421
 30
0.0
 10
125.2932996648572
 20
-141.5868787623463
 30
0.0
 10
125.1451605589915
 20
-141.6185736408106
 30
0.0
 10
125.1451605589915
 20
-141.8214897648918
 30
0.0
 10
125.1451605589915
 20
-142.113633862041
 30
0.0
 10
125.4731336491873
 20
-142.1535969696699
 30
0.0
 10
125.6781168305596
 20
-142.1663438229653
 30
0.0
 10
125.5999131630445
 20
-142.0733262448636
 30
0.0
 10
125.5406575206982
 20
-142.0054578638042
 30
0.0
 10
125.5406575206982
 20
-141.823556822183
 30
0.0
 10
125.5406575206982
 20
-141.643722837853
 30
0.0
 10
125.648833518935
 20
-141.341243454248
 30
0.0
 10
126.055010276646
 20
-141.341243454248
 30
0.0
 10
126.3743706281286
 20
-141.341243454248
 30
0.0
 10
126.5941677200876
 20
-141.5403699732954
 30
0.0
 10
126.5941677200876
 20
-141.8576632674869
 30
0.0
  0
HATCH
  5
B1
330
AB
100
AcDbEntity
  8
レイヤー 1
 62
    18
420
        0
440
 33554687
100
AcDbHatch
 10
0.0
 20
0.0
 30
0.0
210
0.0
220
0.0
230
1.0
  2
SOLID
 70
     1
 71
     1
 91
        2
 92
        1
 93
        1
 72
     4
 94
        3
 73
     0
 74
     0
 95
       17
 96
       13
 40
0.0
 40
0.0
 40
0.0
 40
0.0
 40
1.0
 40
1.0
 40
1.0
 40
2.0
 40
2.0
 40
2.0
 40
3.0
 40
3.0
 40
3.0
 40
4.0
 40
4.0
 40
4.0
 40
4.0
 10
125.7353054156148
 20
-141.8407822996092
 10
125.7353054156148
 20
-142.1029540660367
 10
125.9468342784091
 20
-142.1408501163745
 10
126.0632785058106
 20
-142.1408501163745
 10
126.2389783755583
 20
-142.1408501163745
 10
126.4019313920106
 20
-142.0457654809816
 10
126.4019313920106
 20
-141.8617973820692
 10
126.4019313920106
 20
-141.7412190400855
 10
126.3426757496643
 20
-141.5655191703377
 10
126.0570773339371
 20
-141.5655191703377
 10
125.8328016178474
 20
-141.5655191703377
 10
125.7353054156148
 20
-141.7050455374904
 10
125.7353054156148
 20
-141.8407822996092
 97
        0
 97
        1
330
AF
 92
        1
 93
        1
 72
     4
 94
        3
 73
     0
 74
     0
 95
       32
 96
       28
 40
0.0
 40
0.0
 40
0.0
 40
0.0
 40
1.0
 40
1.0
 40
1.0
 40
2.0
 40
2.0
 40
2.0
 40
3.0
 40
3.0
 40
3.0
 40
4.0
 40
4.0
 40
4.0
 40
5.0
 40
5.0
 40
5.0
 40
6.0
 40
6.0
 40
6.0
 40
7.0
 40
7.0
 40
7.0
 40
8.0
 40
8.0
 40
8.0
 40
9.0
 40
9.0
 40
9.0
 40
9.0
 10
126.5941677200876
 20
-141.8576632674869
 10
126.5941677200876
 20
-142.3737385711774
 10
126.0401963660594
 20
-142.3823513098905
 10
125.8262559364254
 20
-142.3823513098905
 10
125.5957790484621
 20
-142.3823513098905
 10
124.9484456067837
 20
-142.3630587751731
 10
124.9484456067837
 20
-141.8194227076007
 10
124.9484456067837
 20
-141.6461344046926
 10
125.0183810451343
 20
-141.4004990965943
 10
125.3504882499124
 20
-141.3626030462565
 10
125.3504882499124
 20
-141.3626030462565
 10
125.3504882499124
 20
-141.5761989663421
 10
125.3504882499124
 20
-141.5761989663421
 10
125.2932996648572
 20
-141.5868787623463
 10
125.1451605589915
 20
-141.6185736408106
 10
125.1451605589915
 20
-141.8214897648918
 10
125.1451605589915
 20
-142.113633862041
 10
125.4731336491873
 20
-142.1535969696699
 10
125.6781168305596
 20
-142.1663438229653
 10
125.5999131630445
 20
-142.0733262448636
 10
125.5406575206982
 20
-142.0054578638042
 10
125.5406575206982
 20
-141.823556822183
 10
125.5406575206982
 20
-141.643722837853
 10
125.648833518935
 20
-141.341243454248
 10
126.055010276646
 20
-141.341243454248
 10
126.3743706281286
 20
-141.341243454248
 10
126.5941677200876
 20
-141.5403699732954
 10
126.5941677200876
 20
-141.8576632674869
 97
        0
 97
        1
330
B0
 75
     2
 76
     1
 98
        1
 10
0.0
 20
0.0
450
        0
451
        0
460
0.0
461
0.0
452
        0
462
0.0
453
        0
470

  0
ENDBLK
  5
AE
330
AB
100
AcDbEntity
  8
0
100
AcDbBlockEnd
  0
BLOCK
  5
B7
330
B5
100
AcDbEntity
  8
0
100
AcDbBlockBegin
  2
Block_5
 70
     0
 10
0.0
 20
0.0
 30
0.0
  3
Block_5
  1

  0
INSERT
  5
BA
330
B5
100
AcDbEntity
  8
レイヤー 1
100
AcDbBlockReference
  2
Block_6
 10
0.0
 20
0.0
 30
0.0
  0
ENDBLK
  5
B8
330
B5
100
AcDbEntity
  8
0
100
AcDbBlockEnd
  0
BLOCK
  5
BB
330
B9
100
AcDbEntity
  8
0
100
AcDbBlockBegin
  2
Block_6
 70
     0
 10
0.0
 20
0.0
 30
0.0
  3
Block_6
  1

  0
SPLINE
  5
BD
330
B9
100
AcDbEntity
  8
レイヤー 1
100
AcDbSpline
210
0.0
220
0.0
230
1.0
 70
     9
 71
     3
 72
    44
 73
    40
 74
     0
 42
0.0000000001
 43
0.0000000001
 40
0.0
 40
0.0
 40
0.0
 40
0.0
 40
1.0
 40
1.0
 40
1.0
 40
2.0
 40
2.0
 40
2.0
 40
3.0
 40
3.0
 40
3.0
 40
4.0
 40
4.0
 40
4.0
 40
5.0
 40
5.0
 40
5.0
 40
6.0
 40
6.0
 40
6.0
 40
7.0
 40
7.0
 40
7.0
 40
8.0
 40
8.0
 40
8.0
 40
9.0
 40
9.0
 40
9.0
 40
10.0
 40
10.0
 40
10.0
 40
11.0
 40
11.0
 40
11.0
 40
12.0
 40
12.0
 40
12.0
 40
13.0
 40
13.0
 40
13.0
 40
13.0
 10
81.8826849838696
 20
-151.84878468426
 30
0.0
 10
82.04133163096535
 20
-152.0665147189278
 30
0.0
 10
82.11540118389825
 20
-152.1595322970295
 30
0.0
 10
82.25923392040741
 20
-152.2084526529201
 30
0.0
 10
82.25923392040741
 20
-152.2084526529201
 30
0.0
 10
82.25923392040741
 20
-151.4298610732536
 30
0.0
 10
82.25923392040741
 20
-151.4298610732536
 30
0.0
 10
82.25923392040741
 20
-151.4298610732536
 30
0.0
 10
82.46438935655405
 20
-151.4298610732536
 30
0.0
 10
82.46438935655405
 20
-151.4298610732536
 30
0.0
 10
82.46438935655405
 20
-151.4298610732536
 30
0.0
 10
82.46438935655405
 20
-152.4578775660522
 30
0.0
 10
82.46438935655405
 20
-152.4578775660522
 30
0.0
 10
82.10678844518511
 20
-152.4261826875879
 30
0.0
 10
82.02858477766993
 20
-152.3607258733681
 30
0.0
 10
81.73023950864729
 20
-151.9755641981172
 30
0.0
 10
81.53145749914839
 20
-151.7195936035632
 30
0.0
 10
81.46376137286322
 20
-151.6541367893434
 30
0.0
 10
81.32630206300175
 20
-151.6541367893434
 30
0.0
 10
81.20779077830915
 20
-151.6541367893434
 30
0.0
 10
81.07670489509542
 20
-151.7261392849851
 30
0.0
 10
81.07670489509542
 20
-151.9228542371929
 30
0.0
 10
81.07670489509542
 20
-152.1829589463292
 30
0.0
 10
81.30718178305862
 20
-152.1915716850424
 30
0.0
 10
81.42362601046007
 20
-152.1957057996247
 30
0.0
 10
81.42362601046007
 20
-152.1957057996247
 30
0.0
 10
81.42362601046007
 20
-152.4199815157144
 30
0.0
 10
81.42362601046007
 20
-152.4199815157144
 30
0.0
 10
81.2966742418286
 20
-152.4113687770013
 30
0.0
 10
81.18453638378374
 20
-152.400688980997
 30
0.0
 10
81.06602509909114
 20
-152.3204182561907
 30
0.0
 10
80.90531139470423
 20
-152.2105197102112
 30
0.0
 10
80.87137720417452
 20
-152.0241400444592
 30
0.0
 10
80.87137720417452
 20
-151.9080403266063
 30
0.0
 10
80.87137720417452
 20
-151.6307101400437
 30
0.0
 10
81.05551755786112
 20
-151.4233153918316
 30
0.0
 10
81.3283691202929
 20
-151.4233153918316
 30
0.0
 10
81.55677895096498
 20
-151.4233153918316
 30
0.0
 10
81.6563422104887
 20
-151.5397596192331
 30
0.0
 10
81.8826849838696
 20
-151.84878468426
 30
0.0
  0
HATCH
  5
BE
330
B9
100
AcDbEntity
  8
レイヤー 1
 62
    18
420
        0
440
 33554687
100
AcDbHatch
 10
0.0
 20
0.0
 30
0.0
210
0.0
220
0.0
230
1.0
  2
SOLID
 70
     1
 71
     1
 91
        1
 92
        1
 93
        1
 72
     4
 94
        3
 73
     0
 74
     0
 95
       44
 96
       40
 40
0.0
 40
0.0
 40
0.0
 40
0.0
 40
1.0
 40
1.0
 40
1.0
 40
2.0
 40
2.0
 40
2.0
 40
3.0
 40
3.0
 40
3.0
 40
4.0
 40
4.0
 40
4.0
 40
5.0
 40
5.0
 40
5.0
 40
6.0
 40
6.0
 40
6.0
 40
7.0
 40
7.0
 40
7.0
 40
8.0
 40
8.0
 40
8.0
 40
9.0
 40
9.0
 40
9.0
 40
10.0
 40
10.0
 40
10.0
 40
11.0
 40
11.0
 40
11.0
 40
12.0
 40
12.0
 40
12.0
 40
13.0
 40
13.0
 40
13.0
 40
13.0
 10
81.8826849838696
 20
-151.84878468426
 10
82.04133163096535
 20
-152.0665147189278
 10
82.11540118389825
 20
-152.1595322970295
 10
82.25923392040741
 20
-152.2084526529201
 10
82.25923392040741
 20
-152.2084526529201
 10
82.25923392040741
 20
-151.4298610732536
 10
82.25923392040741
 20
-151.4298610732536
 10
82.25923392040741
 20
-151.4298610732536
 10
82.46438935655405
 20
-151.4298610732536
 10
82.46438935655405
 20
-151.4298610732536
 10
82.46438935655405
 20
-151.4298610732536
 10
82.46438935655405
 20
-152.4578775660522
 10
82.46438935655405
 20
-152.4578775660522
 10
82.10678844518511
 20
-152.4261826875879
 10
82.02858477766993
 20
-152.3607258733681
 10
81.73023950864729
 20
-151.9755641981172
 10
81.53145749914839
 20
-151.7195936035632
 10
81.46376137286322
 20
-151.6541367893434
 10
81.32630206300175
 20
-151.6541367893434
 10
81.20779077830915
 20
-151.6541367893434
 10
81.07670489509542
 20
-151.7261392849851
 10
81.07670489509542
 20
-151.9228542371929
 10
81.07670489509542
 20
-152.1829589463292
 10
81.30718178305862
 20
-152.1915716850424
 10
81.42362601046007
 20
-152.1957057996247
 10
81.42362601046007
 20
-152.1957057996247
 10
81.42362601046007
 20
-152.4199815157144
 10
81.42362601046007
 20
-152.4199815157144
 10
81.2966742418286
 20
-152.4113687770013
 10
81.18453638378374
 20
-152.400688980997
 10
81.06602509909114
 20
-152.3204182561907
 10
80.90531139470423
 20
-152.2105197102112
 10
80.87137720417452
 20
-152.0241400444592
 10
80.87137720417452
 20
-151.9080403266063
 10
80.87137720417452
 20
-151.6307101400437
 10
81.05551755786112
 20
-151.4233153918316
 10
81.3283691202929
 20
-151.4233153918316
 10
81.55677895096498
 20
-151.4233153918316
 10
81.6563422104887
 20
-151.5397596192331
 10
81.8826849838696
 20
-151.84878468426
 97
        0
 97
        1
330
BD
 75
     2
 76
     1
 98
        1
 10
0.0
 20
0.0
450
        0
451
        0
460
0.0
461
0.0
452
        0
462
0.0
453
        0
470

  0
SPLINE
  5
BF
330
B9
100
AcDbEntity
  8
レイヤー 1
100
AcDbSpline
210
0.0
220
0.0
230
1.0
 70
     9
 71
     3
 72
    53
 73
    49
 74
     0
 42
0.0000000001
 43
0.0000000001
 40
0.0
 40
0.0
 40
0.0
 40
0.0
 40
1.0
 40
1.0
 40
1.0
 40
2.0
 40
2.0
 40
2.0
 40
3.0
 40
3.0
 40
3.0
 40
4.0
 40
4.0
 40
4.0
 40
5.0
 40
5.0
 40
5.0
 40
6.0
 40
6.0
 40
6.0
 40
7.0
 40
7.0
 40
7.0
 40
8.0
 40
8.0
 40
8.0
 40
9.0
 40
9.0
 40
9.0
 40
10.0
 40
10.0
 40
10.0
 40
11.0
 40
11.0
 40
11.0
 40
12.0
 40
12.0
 40
12.0
 40
13.0
 40
13.0
 40
13.0
 40
14.0
 40
14.0
 40
14.0
 40
15.0
 40
15.0
 40
15.0
 40
16.0
 40
16.0
 40
16.0
 40
16.0
 10
82.51520451496148
 20
-150.7839056697693
 30
0.0
 10
82.51520451496148
 20
-150.8621093372845
 30
0.0
 10
82.49815129230949
 20
-150.9637396540993
 30
0.0
 10
82.4347615353809
 20
-151.0653699709142
 30
0.0
 10
82.32469073462716
 20
-151.2386582738223
 30
0.0
 10
82.19360485141342
 20
-151.2600178658308
 30
0.0
 10
82.0857733627251
 20
-151.2789658909997
 30
0.0
 10
82.0857733627251
 20
-151.2789658909997
 30
0.0
 10
82.0857733627251
 20
-151.0567572322011
 30
0.0
 10
82.0857733627251
 20
-151.0567572322011
 30
0.0
 10
82.284555372224
 20
-151.0019802139856
 30
0.0
 10
82.31418319339715
 20
-150.8748561905799
 30
0.0
 10
82.31418319339715
 20
-150.7818386124782
 30
0.0
 10
82.31418319339715
 20
-150.6423122453255
 30
0.0
 10
82.2147921886477
 20
-150.4900390248775
 30
0.0
 10
81.98207598861907
 20
-150.4900390248775
 30
0.0
 10
81.726105394065
 20
-150.4900390248775
 30
0.0
 10
81.6563422104887
 20
-150.6698730092075
 30
0.0
 10
81.6563422104887
 20
-150.7904513511913
 30
0.0
 10
81.6563422104887
 20
-150.8221462296555
 30
0.0
 10
81.6563422104887
 20
-150.9637396540993
 30
0.0
 10
81.7853610364113
 20
-151.0526231176188
 30
0.0
 10
81.7853610364113
 20
-151.0526231176188
 30
0.0
 10
81.76624075646817
 20
-151.2283229873665
 30
0.0
 10
81.76624075646817
 20
-151.2283229873665
 30
0.0
 10
81.76624075646817
 20
-151.2283229873665
 30
0.0
 10
80.9201253052908
 20
-151.1077446453828
 30
0.0
 10
80.9201253052908
 20
-151.1077446453828
 30
0.0
 10
80.9201253052908
 20
-151.1077446453828
 30
0.0
 10
80.9201253052908
 20
-150.3291530657163
 30
0.0
 10
80.9201253052908
 20
-150.3291530657163
 30
0.0
 10
80.9201253052908
 20
-150.3291530657163
 30
0.0
 10
81.11477320020743
 20
-150.3291530657163
 30
0.0
 10
81.11477320020743
 20
-150.3291530657163
 30
0.0
 10
81.11477320020743
 20
-150.3291530657163
 30
0.0
 10
81.11477320020743
 20
-150.9447916289305
 30
0.0
 10
81.11477320020743
 20
-150.9447916289305
 30
0.0
 10
81.11477320020743
 20
-150.9447916289305
 30
0.0
 10
81.5378309257961
 20
-151.0102484431502
 30
0.0
 10
81.5378309257961
 20
-151.0102484431502
 30
0.0
 10
81.50389673526639
 20
-150.9489257435127
 30
0.0
 10
81.46376137286322
 20
-150.8665879614153
 30
0.0
 10
81.46376137286322
 20
-150.7480766767227
 30
0.0
 10
81.46376137286322
 20
-150.4941731394598
 30
0.0
 10
81.649968783841
 20
-150.2571505700746
 30
0.0
 10
81.96295570867594
 20
-150.2571505700746
 30
0.0
 10
82.2804212576417
 20
-150.2571505700746
 30
0.0
 10
82.51520451496148
 20
-150.4814262861644
 30
0.0
 10
82.51520451496148
 20
-150.7839056697693
 30
0.0
  0
HATCH
  5
C0
330
B9
100
AcDbEntity
  8
レイヤー 1
 62
    18
420
        0
440
 33554687
100
AcDbHatch
 10
0.0
 20
0.0
 30
0.0
210
0.0
220
0.0
230
1.0
  2
SOLID
 70
     1
 71
     1
 91
        1
 92
        1
 93
        1
 72
     4
 94
        3
 73
     0
 74
     0
 95
       53
 96
       49
 40
0.0
 40
0.0
 40
0.0
 40
0.0
 40
1.0
 40
1.0
 40
1.0
 40
2.0
 40
2.0
 40
2.0
 40
3.0
 40
3.0
 40
3.0
 40
4.0
 40
4.0
 40
4.0
 40
5.0
 40
5.0
 40
5.0
 40
6.0
 40
6.0
 40
6.0
 40
7.0
 40
7.0
 40
7.0
 40
8.0
 40
8.0
 40
8.0
 40
9.0
 40
9.0
 40
9.0
 40
10.0
 40
10.0
 40
10.0
 40
11.0
 40
11.0
 40
11.0
 40
12.0
 40
12.0
 40
12.0
 40
13.0
 40
13.0
 40
13.0
 40
14.0
 40
14.0
 40
14.0
 40
15.0
 40
15.0
 40
15.0
 40
16.0
 40
16.0
 40
16.0
 40
16.0
 10
82.51520451496148
 20
-150.7839056697693
 10
82.51520451496148
 20
-150.8621093372845
 10
82.49815129230949
 20
-150.9637396540993
 10
82.4347615353809
 20
-151.0653699709142
 10
82.32469073462716
 20
-151.2386582738223
 10
82.19360485141342
 20
-151.2600178658308
 10
82.0857733627251
 20
-151.2789658909997
 10
82.0857733627251
 20
-151.2789658909997
 10
82.0857733627251
 20
-151.0567572322011
 10
82.0857733627251
 20
-151.0567572322011
 10
82.284555372224
 20
-151.0019802139856
 10
82.31418319339715
 20
-150.8748561905799
 10
82.31418319339715
 20
-150.7818386124782
 10
82.31418319339715
 20
-150.6423122453255
 10
82.2147921886477
 20
-150.4900390248775
 10
81.98207598861907
 20
-150.4900390248775
 10
81.726105394065
 20
-150.4900390248775
 10
81.6563422104887
 20
-150.6698730092075
 10
81.6563422104887
 20
-150.7904513511913
 10
81.6563422104887
 20
-150.8221462296555
 10
81.6563422104887
 20
-150.9637396540993
 10
81.7853610364113
 20
-151.0526231176188
 10
81.7853610364113
 20
-151.0526231176188
 10
81.76624075646817
 20
-151.2283229873665
 10
81.76624075646817
 20
-151.2283229873665
 10
81.76624075646817
 20
-151.2283229873665
 10
80.9201253052908
 20
-151.1077446453828
 10
80.9201253052908
 20
-151.1077446453828
 10
80.9201253052908
 20
-151.1077446453828
 10
80.9201253052908
 20
-150.3291530657163
 10
80.9201253052908
 20
-150.3291530657163
 10
80.9201253052908
 20
-150.3291530657163
 10
81.11477320020743
 20
-150.3291530657163
 10
81.11477320020743
 20
-150.3291530657163
 10
81.11477320020743
 20
-150.3291530657163
 10
81.11477320020743
 20
-150.9447916289305
 10
81.11477320020743
 20
-150.9447916289305
 10
81.11477320020743
 20
-150.9447916289305
 10
81.5378309257961
 20
-151.0102484431502
 10
81.5378309257961
 20
-151.0102484431502
 10
81.50389673526639
 20
-150.9489257435127
 10
81.46376137286322
 20
-150.8665879614153
 10
81.46376137286322
 20
-150.7480766767227
 10
81.46376137286322
 20
-150.4941731394598
 10
81.649968783841
 20
-150.2571505700746
 10
81.96295570867594
 20
-150.2571505700746
 10
82.2804212576417
 20
-150.2571505700746
 10
82.51520451496148
 20
-150.4814262861644
 10
82.51520451496148
 20
-150.7839056697693
 97
        0
 97
        1
330
BF
 75
     2
 76
     1
 98
        1
 10
0.0
 20
0.0
450
        0
451
        0
460
0.0
461
0.0
452
        0
462
0.0
453
        0
470

  0
ENDBLK
  5
BC
330
B9
100
AcDbEntity
  8
0
100
AcDbBlockEnd
  0
BLOCK
  5
C9
330
C7
100
AcDbEntity
  8
0
100
AcDbBlockBegin
  2
Block_7
 70
     0
 10
0.0
 20
0.0
 30
0.0
  3
Block_7
  1

  0
INSERT
  5
CC
330
C7
100
AcDbEntity
  8
レイヤー 1
100
AcDbBlockReference
  2
Block_8
 10
0.0
 20
0.0
 30
0.0
  0
ENDBLK
  5
CA
330
C7
100
AcDbEntity
  8
0
100
AcDbBlockEnd
  0
BLOCK
  5
CD
330
CB
100
AcDbEntity
  8
0
100
AcDbBlockBegin
  2
Block_8
 70
     0
 10
0.0
 20
0.0
 30
0.0
  3
Block_8
  1

  0
SPLINE
  5
CF
330
CB
100
AcDbEntity
  8
レイヤー 1
100
AcDbSpline
210
0.0
220
0.0
230
1.0
 70
     9
 71
     3
 72
    17
 73
    13
 74
     0
 42
0.0000000001
 43
0.0000000001
 40
0.0
 40
0.0
 40
0.0
 40
0.0
 40
1.0
 40
1.0
 40
1.0
 40
2.0
 40
2.0
 40
2.0
 40
3.0
 40
3.0
 40
3.0
 40
4.0
 40
4.0
 40
4.0
 40
4.0
 10
102.5124335138684
 20
-153.7742485509661
 30
0.0
 10
102.4955525459907
 20
-153.8038763721393
 30
0.0
 10
102.4449096423575
 20
-153.896893950241
 30
0.0
 10
102.4342298463532
 20
-153.9158419754099
 30
0.0
 10
102.6247436266876
 20
-153.9750976177562
 30
0.0
 10
102.6457587091476
 20
-153.9816432991782
 30
0.0
 10
102.7177612047893
 20
-154.0092040630602
 30
0.0
 10
102.7728827325533
 20
-153.9223876568319
 30
0.0
 10
102.7959648723045
 20
-153.848318103899
 30
0.0
 10
102.810778782891
 20
-153.7742485509661
 30
0.0
 10
102.810778782891
 20
-153.7742485509661
 30
0.0
 10
102.5124335138684
 20
-153.7742485509661
 30
0.0
 10
102.5124335138684
 20
-153.7742485509661
 30
0.0
  0
SPLINE
  5
D0
330
CB
100
AcDbEntity
  8
レイヤー 1
100
AcDbSpline
210
0.0
220
0.0
230
1.0
 70
    11
 71
     3
 72
    20
 73
    16
 74
     0
 42
0.0000000001
 43
0.0000000001
 40
0.0
 40
0.0
 40
0.0
 40
0.0
 40
1.0
 40
1.0
 40
1.0
 40
2.0
 40
2.0
 40
2.0
 40
3.0
 40
3.0
 40
3.0
 40
4.0
 40
4.0
 40
4.0
 40
5.0
 40
5.0
 40
5.0
 40
5.0
 10
102.4490437569398
 20
-152.9239989852065
 30
0.0
 10
102.4490437569398
 20
-152.9239989852065
 30
0.0
 10
102.4173488784755
 20
-152.9239989852065
 30
0.0
 10
102.4173488784755
 20
-152.9239989852065
 30
0.0
 10
102.4638576675264
 20
-153.0232177351817
 30
0.0
 10
102.4955525459907
 20
-153.103488459988
 30
0.0
 10
102.5293144817461
 20
-153.2306124833937
 30
0.0
 10
102.5293144817461
 20
-153.2306124833937
 30
0.0
 10
102.7367092299582
 20
-153.2306124833937
 30
0.0
 10
102.7367092299582
 20
-153.2306124833937
 30
0.0
 10
102.7684041084225
 20
-153.137594905292
 30
0.0
 10
102.7918307577222
 20
-153.0528455563548
 30
0.0
 10
102.8149128974733
 20
-152.9239989852065
 30
0.0
 10
102.8149128974733
 20
-152.9239989852065
 30
0.0
 10
102.4490437569398
 20
-152.9239989852065
 30
0.0
 10
102.4490437569398
 20
-152.9239989852065
 30
0.0
  0
SPLINE
  5
D1
330
CB
100
AcDbEntity
  8
レイヤー 1
100
AcDbSpline
210
0.0
220
0.0
230
1.0
 70
     9
 71
     3
 72
   242
 73
   238
 74
     0
 42
0.0000000001
 43
0.0000000001
 40
0.0
 40
0.0
 40
0.0
 40
0.0
 40
1.0
 40
1.0
 40
1.0
 40
2.0
 40
2.0
 40
2.0
 40
3.0
 40
3.0
 40
3.0
 40
4.0
 40
4.0
 40
4.0
 40
5.0
 40
5.0
 40
5.0
 40
6.0
 40
6.0
 40
6.0
 40
7.0
 40
7.0
 40
7.0
 40
8.0
 40
8.0
 40
8.0
 40
9.0
 40
9.0
 40
9.0
 40
10.0
 40
10.0
 40
10.0
 40
11.0
 40
11.0
 40
11.0
 40
12.0
 40
12.0
 40
12.0
 40
13.0
 40
13.0
 40
13.0
 40
14.0
 40
14.0
 40
14.0
 40
15.0
 40
15.0
 40
15.0
 40
16.0
 40
16.0
 40
16.0
 40
17.0
 40
17.0
 40
17.0
 40
18.0
 40
18.0
 40
18.0
 40
19.0
 40
19.0
 40
19.0
 40
20.0
 40
20.0
 40
20.0
 40
21.0
 40
21.0
 40
21.0
 40
22.0
 40
22.0
 40
22.0
 40
23.0
 40
23.0
 40
23.0
 40
24.0
 40
24.0
 40
24.0
 40
25.0
 40
25.0
 40
25.0
 40
26.0
 40
26.0
 40
26.0
 40
27.0
 40
27.0
 40
27.0
 40
28.0
 40
28.0
 40
28.0
 40
29.0
 40
29.0
 40
29.0
 40
30.0
 40
30.0
 40
30.0
 40
31.0
 40
31.0
 40
31.0
 40
32.0
 40
32.0
 40
32.0
 40
33.0
 40
33.0
 40
33.0
 40
34.0
 40
34.0
 40
34.0
 40
35.0
 40
35.0
 40
35.0
 40
36.0
 40
36.0
 40
36.0
 40
37.0
 40
37.0
 40
37.0
 40
38.0
 40
38.0
 40
38.0
 40
39.0
 40
39.0
 40
39.0
 40
40.0
 40
40.0
 40
40.0
 40
41.0
 40
41.0
 40
41.0
 40
42.0
 40
42.0
 40
42.0
 40
43.0
 40
43.0
 40
43.0
 40
44.0
 40
44.0
 40
44.0
 40
45.0
 40
45.0
 40
45.0
 40
46.0
 40
46.0
 40
46.0
 40
47.0
 40
47.0
 40
47.0
 40
48.0
 40
48.0
 40
48.0
 40
49.0
 40
49.0
 40
49.0
 40
50.0
 40
50.0
 40
50.0
 40
51.0
 40
51.0
 40
51.0
 40
52.0
 40
52.0
 40
52.0
 40
53.0
 40
53.0
 40
53.0
 40
54.0
 40
54.0
 40
54.0
 40
55.0
 40
55.0
 40
55.0
 40
56.0
 40
56.0
 40
56.0
 40
57.0
 40
57.0
 40
57.0
 40
58.0
 40
58.0
 40
58.0
 40
59.0
 40
59.0
 40
59.0
 40
60.0
 40
60.0
 40
60.0
 40
61.0
 40
61.0
 40
61.0
 40
62.0
 40
62.0
 40
62.0
 40
63.0
 40
63.0
 40
63.0
 40
64.0
 40
64.0
 40
64.0
 40
65.0
 40
65.0
 40
65.0
 40
66.0
 40
66.0
 40
66.0
 40
67.0
 40
67.0
 40
67.0
 40
68.0
 40
68.0
 40
68.0
 40
69.0
 40
69.0
 40
69.0
 40
70.0
 40
70.0
 40
70.0
 40
71.0
 40
71.0
 40
71.0
 40
72.0
 40
72.0
 40
72.0
 40
73.0
 40
73.0
 40
73.0
 40
74.0
 40
74.0
 40
74.0
 40
75.0
 40
75.0
 40
75.0
 40
76.0
 40
76.0
 40
76.0
 40
77.0
 40
77.0
 40
77.0
 40
78.0
 40
78.0
 40
78.0
 40
79.0
 40
79.0
 40
79.0
 40
79.0
 10
103.0774291734494
 20
-153.3890868757152
 30
0.0
 10
103.0774291734494
 20
-153.3890868757152
 30
0.0
 10
102.8235256361865
 20
-153.3890868757152
 30
0.0
 10
102.8235256361865
 20
-153.3890868757152
 30
0.0
 10
102.8235256361865
 20
-153.3890868757152
 30
0.0
 10
102.5465399591724
 20
-153.3890868757152
 30
0.0
 10
102.5465399591724
 20
-153.3890868757152
 30
0.0
 10
102.5465399591724
 20
-153.3890868757152
 30
0.0
 10
102.6733194730296
 20
-153.4314615501838
 30
0.0
 10
102.6733194730296
 20
-153.4314615501838
 30
0.0
 10
102.6839992690338
 20
-153.4359401743146
 30
0.0
 10
102.6964016127807
 20
-153.4421413461881
 30
0.0
 10
102.6964016127807
 20
-153.4548881994835
 30
0.0
 10
102.6964016127807
 20
-153.4759032819435
 30
0.0
 10
102.6647067343164
 20
-153.4824489633655
 30
0.0
 10
102.6436916518564
 20
-153.4865830779478
 30
0.0
 10
102.6330118558522
 20
-153.5096652176989
 30
0.0
 10
102.603384034679
 20
-153.5754665414672
 30
0.0
 10
102.5844360095101
 20
-153.6199082732269
 30
0.0
 10
102.5844360095101
 20
-153.6199082732269
 30
0.0
 10
102.8552205146508
 20
-153.6199082732269
 30
0.0
 10
102.8552205146508
 20
-153.6199082732269
 30
0.0
 10
102.9461710354613
 20
-153.6199082732269
 30
0.0
 10
103.1428859876691
 20
-153.6154296490961
 30
0.0
 10
103.2848239216614
 20
-153.6071614199315
 30
0.0
 10
103.2848239216614
 20
-153.6071614199315
 30
0.0
 10
103.2848239216614
 20
-153.7849283469704
 30
0.0
 10
103.2848239216614
 20
-153.7849283469704
 30
0.0
 10
103.2021416300154
 20
-153.7804497228396
 30
0.0
 10
103.1811265475554
 20
-153.7804497228396
 30
0.0
 10
103.0012925632254
 20
-153.7763156082573
 30
0.0
 10
102.9695976847611
 20
-153.9306558859965
 30
0.0
 10
102.9251559530013
 20
-154.0112711203513
 30
0.0
 10
102.8807142212416
 20
-154.0808620491534
 30
0.0
 10
103.0012925632254
 20
-154.1401176914997
 30
0.0
 10
103.1070569946225
 20
-154.2079860725591
 30
0.0
 10
103.2107543687285
 20
-154.2903238546566
 30
0.0
 10
103.2107543687285
 20
-154.2903238546566
 30
0.0
 10
103.0922430840359
 20
-154.4574109856912
 30
0.0
 10
103.0922430840359
 20
-154.4574109856912
 30
0.0
 10
103.0688164347363
 20
-154.4384629605223
 30
0.0
 10
103.0560695814408
 20
-154.4301947313577
 30
0.0
 10
102.9441039781702
 20
-154.3454453824206
 30
0.0
 10
102.8955281318282
 20
-154.3072048225343
 30
0.0
 10
102.8362724894819
 20
-154.2713758294877
 30
0.0
 10
102.755657255127
 20
-154.226934097728
 30
0.0
 10
102.5441283923327
 20
-154.41331376348
 30
0.0
 10
102.3391452109603
 20
-154.4363959032312
 30
0.0
 10
102.0490681711023
 20
-154.4660237244043
 30
0.0
 10
102.0490681711023
 20
-154.4660237244043
 30
0.0
 10
101.9457153065448
 20
-154.2861897400743
 30
0.0
 10
101.9457153065448
 20
-154.2861897400743
 30
0.0
 10
102.2630086007363
 20
-154.282055625492
 30
0.0
 10
102.4383639609355
 20
-154.2565619189011
 30
0.0
 10
102.5906371813836
 20
-154.1466633729216
 30
0.0
 10
102.4724704062395
 20
-154.0956759597399
 30
0.0
 10
102.3835869427201
 20
-154.0684597054065
 30
0.0
 10
102.3474134401249
 20
-154.055712852111
 30
0.0
 10
102.3284654149561
 20
-154.0832736159931
 30
0.0
 10
102.3136515043695
 20
-154.1022216411619
 30
0.0
 10
102.2860907404875
 20
-154.1359835769174
 30
0.0
 10
102.2860907404875
 20
-154.1359835769174
 30
0.0
 10
102.0893757882797
 20
-154.0536457948199
 30
0.0
 10
102.0893757882797
 20
-154.0536457948199
 30
0.0
 10
102.1720580799257
 20
-153.973030560465
 30
0.0
 10
102.2333807795632
 20
-153.8779459250722
 30
0.0
 10
102.2905693646183
 20
-153.7763156082573
 30
0.0
 10
102.100055584284
 20
-153.7804497228396
 30
0.0
 10
102.0786959922755
 20
-153.7804497228396
 30
0.0
 10
101.996358210178
 20
-153.7849283469704
 30
0.0
 10
101.996358210178
 20
-153.7849283469704
 30
0.0
 10
101.996358210178
 20
-153.6071614199315
 30
0.0
 10
101.996358210178
 20
-153.6071614199315
 30
0.0
 10
102.1358845773306
 20
-153.613362591805
 30
0.0
 10
102.3453463828338
 20
-153.6178412159358
 30
0.0
 10
102.3708400894246
 20
-153.6178412159358
 30
0.0
 10
102.3877210573024
 20
-153.5837347706318
 30
0.0
 10
102.4428425850663
 20
-153.4631564286481
 30
0.0
 10
102.4617906102352
 20
-153.3890868757152
 30
0.0
 10
102.4428425850663
 20
-153.3890868757152
 30
0.0
 10
102.2650756580275
 20
-153.3956325571372
 30
0.0
 10
102.0704277631109
 20
-153.4083794104326
 30
0.0
 10
102.0704277631109
 20
-153.4083794104326
 30
0.0
 10
102.0704277631109
 20
-153.5417046057118
 30
0.0
 10
102.0704277631109
 20
-153.5417046057118
 30
0.0
 10
102.0218519167688
 20
-153.5668538027541
 30
0.0
 10
101.9625962744225
 20
-153.5985486812184
 30
0.0
 10
101.8292710791434
 20
-153.6643500049867
 30
0.0
 10
101.8292710791434
 20
-153.6643500049867
 30
0.0
 10
101.8292710791434
 20
-153.8100775440127
 30
0.0
 10
101.8292710791434
 20
-153.8100775440127
 30
0.0
 10
101.8292710791434
 20
-153.8100775440127
 30
0.0
 10
101.8292710791434
 20
-154.2779215109097
 30
0.0
 10
101.8292710791434
 20
-154.2779215109097
 30
0.0
 10
101.8292710791434
 20
-154.4047010247669
 30
0.0
 10
101.7930975765482
 20
-154.4639566671132
 30
0.0
 10
101.5099107276607
 20
-154.4553439284
 30
0.0
 10
101.5099107276607
 20
-154.4553439284
 30
0.0
 10
101.4062133535547
 20
-154.2482936897365
 30
0.0
 10
101.4062133535547
 20
-154.2482936897365
 30
0.0
 10
101.4696031104833
 20
-154.2606960334834
 30
0.0
 10
101.5181789568253
 20
-154.2651746576142
 30
0.0
 10
101.5584865740027
 20
-154.2651746576142
 30
0.0
 10
101.6346231842268
 20
-154.2651746576142
 30
0.0
 10
101.645302980231
 20
-154.2417480083146
 30
0.0
 10
101.645302980231
 20
-154.1762911940948
 30
0.0
 10
101.645302980231
 20
-154.1762911940948
 30
0.0
 10
101.645302980231
 20
-153.7466877870842
 30
0.0
 10
101.645302980231
 20
-153.7466877870842
 30
0.0
 10
101.5478067779985
 20
-153.7869954042616
 30
0.0
 10
101.5309258101207
 20
-153.793196576135
 30
0.0
 10
101.4844170210698
 20
-153.8124891108524
 30
0.0
 10
101.4802829064876
 20
-153.8335041933124
 30
0.0
 10
101.4758042823567
 20
-153.8631320144856
 30
0.0
 10
101.4568562571878
 20
-153.8631320144856
 30
0.0
 10
101.4485880280233
 20
-153.8631320144856
 30
0.0
 10
101.437908232019
 20
-153.8589978999033
 30
0.0
 10
101.431362550597
 20
-153.8355712506036
 30
0.0
 10
101.431362550597
 20
-153.8355712506036
 30
0.0
 10
101.3786525896727
 20
-153.6429904129781
 30
0.0
 10
101.3786525896727
 20
-153.6429904129781
 30
0.0
 10
101.5247246382473
 20
-153.5964816239272
 30
0.0
 10
101.590181452467
 20
-153.5733994841761
 30
0.0
 10
101.645302980231
 20
-153.5520398921675
 30
0.0
 10
101.645302980231
 20
-153.5520398921675
 30
0.0
 10
101.645302980231
 20
-153.1396619625831
 30
0.0
 10
101.645302980231
 20
-153.1396619625831
 30
0.0
 10
101.645302980231
 20
-153.1396619625831
 30
0.0
 10
101.5922485097582
 20
-153.1396619625831
 30
0.0
 10
101.5922485097582
 20
-153.1396619625831
 30
0.0
 10
101.5922485097582
 20
-153.1396619625831
 30
0.0
 10
101.514044842243
 20
-153.1396619625831
 30
0.0
 10
101.514044842243
 20
-153.1396619625831
 30
0.0
 10
101.4461764611836
 20
-153.1396619625831
 30
0.0
 10
101.437908232019
 20
-153.1396619625831
 30
0.0
 10
101.4017347294239
 20
-153.1458631344566
 30
0.0
 10
101.4017347294239
 20
-153.1458631344566
 30
0.0
 10
101.4017347294239
 20
-152.95121523954
 30
0.0
 10
101.4017347294239
 20
-152.95121523954
 30
0.0
 10
101.4292954933059
 20
-152.9577609209619
 30
0.0
 10
101.437908232019
 20
-152.9577609209619
 30
0.0
 10
101.507499160821
 20
-152.9577609209619
 30
0.0
 10
101.507499160821
 20
-152.9577609209619
 30
0.0
 10
101.6408243561002
 20
-152.9577609209619
 30
0.0
 10
101.6408243561002
 20
-152.9577609209619
 30
0.0
 10
101.6408243561002
 20
-152.8878254826114
 30
0.0
 10
101.6408243561002
 20
-152.8054877005139
 30
0.0
 10
101.638757298809
 20
-152.8010090763831
 30
0.0
 10
101.6304890696444
 20
-152.621175092053
 30
0.0
 10
101.6304890696444
 20
-152.6022270668842
 30
0.0
 10
101.6280775028048
 20
-152.5557182778333
 30
0.0
 10
101.6280775028048
 20
-152.5557182778333
 30
0.0
 10
101.8440849897299
 20
-152.5643310165464
 30
0.0
 10
101.8440849897299
 20
-152.5643310165464
 30
0.0
 10
101.8547647857342
 20
-152.5643310165464
 30
0.0
 10
101.8757798681942
 20
-152.5663980738376
 30
0.0
 10
101.8757798681942
 20
-152.5832790417153
 30
0.0
 10
101.8757798681942
 20
-152.6022270668842
 30
0.0
 10
101.8609659576076
 20
-152.6129068628884
 30
0.0
 10
101.8354722510168
 20
-152.6318548880573
 30
0.0
 10
101.8354722510168
 20
-152.6824977916905
 30
0.0
 10
101.8292710791434
 20
-152.9112521319111
 30
0.0
 10
101.8313381364345
 20
-152.9577609209619
 30
0.0
 10
101.9605292171314
 20
-152.9577609209619
 30
0.0
 10
101.9729315608783
 20
-152.9577609209619
 30
0.0
 10
102.0704277631109
 20
-152.9491481822488
 30
0.0
 10
102.0704277631109
 20
-152.9491481822488
 30
0.0
 10
102.0704277631109
 20
-153.1437960771654
 30
0.0
 10
102.0704277631109
 20
-153.1437960771654
 30
0.0
 10
102.0321872032246
 20
-153.1417290198743
 30
0.0
 10
101.9646633317137
 20
-153.137594905292
 30
0.0
 10
101.8292710791434
 20
-153.1396619625831
 30
0.0
 10
101.8292710791434
 20
-153.1396619625831
 30
0.0
 10
101.8292710791434
 20
-153.4779703392346
 30
0.0
 10
101.8292710791434
 20
-153.4779703392346
 30
0.0
 10
101.8840480973588
 20
-153.4548881994835
 30
0.0
 10
101.9498494211271
 20
-153.4273274356015
 30
0.0
 10
101.9984252674691
 20
-153.4039007863018
 30
0.0
 10
101.9984252674691
 20
-153.4039007863018
 30
0.0
 10
101.9984252674691
 20
-153.2264783688114
 30
0.0
 10
101.9984252674691
 20
-153.2264783688114
 30
0.0
 10
102.1128024375794
 20
-153.2388807125583
 30
0.0
 10
102.231313722272
 20
-153.2388807125583
 30
0.0
 10
102.3474134401249
 20
-153.2388807125583
 30
0.0
 10
102.3243313003738
 20
-153.1437960771654
 30
0.0
 10
102.2967705364917
 20
-153.061458295068
 30
0.0
 10
102.2333807795632
 20
-152.9281330997888
 30
0.0
 10
102.1889390478034
 20
-152.9302001570799
 30
0.0
 10
102.1062567561574
 20
-152.9343342716622
 30
0.0
 10
102.0683607058197
 20
-152.9364013289534
 30
0.0
 10
102.0683607058197
 20
-152.9364013289534
 30
0.0
 10
102.0683607058197
 20
-152.7565673446233
 30
0.0
 10
102.0683607058197
 20
-152.7565673446233
 30
0.0
 10
102.1930731623857
 20
-152.7651800833365
 30
0.0
 10
102.3667059748423
 20
-152.7693141979188
 30
0.0
 10
102.4490437569398
 20
-152.7693141979188
 30
0.0
 10
102.4490437569398
 20
-152.7693141979188
 30
0.0
 10
102.5317260485858
 20
-152.7693141979188
 30
0.0
 10
102.5317260485858
 20
-152.7693141979188
 30
0.0
 10
102.5317260485858
 20
-152.6063611814664
 30
0.0
 10
102.5317260485858
 20
-152.5960258950107
 30
0.0
 10
102.5293144817461
 20
-152.5409043672467
 30
0.0
 10
102.5293144817461
 20
-152.5409043672467
 30
0.0
 10
102.7535901978359
 20
-152.5663980738376
 30
0.0
 10
102.7535901978359
 20
-152.5663980738376
 30
0.0
 10
102.7580688219667
 20
-152.5663980738376
 30
0.0
 10
102.7790839044267
 20
-152.5684651311287
 30
0.0
 10
102.7790839044267
 20
-152.5853460990064
 30
0.0
 10
102.7790839044267
 20
-152.600160009593
 30
0.0
 10
102.7684041084225
 20
-152.6087727483061
 30
0.0
 10
102.7408433445405
 20
-152.6235866588927
 30
0.0
 10
102.734642172667
 20
-152.6890434731124
 30
0.0
 10
102.7325751153759
 20
-152.7100585555725
 30
0.0
 10
102.7325751153759
 20
-152.7693141979188
 30
0.0
 10
102.7325751153759
 20
-152.7693141979188
 30
0.0
 10
102.8276597507688
 20
-152.7693141979188
 30
0.0
 10
102.8276597507688
 20
-152.7693141979188
 30
0.0
 10
102.9103420424148
 20
-152.7693141979188
 30
0.0
 10
103.0836303453228
 20
-152.7651800833365
 30
0.0
 10
103.2086873114374
 20
-152.7565673446233
 30
0.0
 10
103.2086873114374
 20
-152.7565673446233
 30
0.0
 10
103.2086873114374
 20
-152.9364013289534
 30
0.0
 10
103.2086873114374
 20
-152.9364013289534
 30
0.0
 10
103.1790594902642
 20
-152.9343342716622
 30
0.0
 10
103.0605482055717
 20
-152.9302001570799
 30
0.0
 10
103.0202405883942
 20
-152.9281330997888
 30
0.0
 10
103.0054266778076
 20
-152.978776003422
 30
0.0
 10
102.9716647420522
 20
-153.0910861162411
 30
0.0
 10
102.9058634182839
 20
-153.2306124833937
 30
0.0
 10
102.9482380927525
 20
-153.2306124833937
 30
0.0
 10
103.2255682793151
 20
-153.2116644582248
 30
0.0
 10
103.2868909789526
 20
-153.2092528913852
 30
0.0
 10
103.2868909789526
 20
-153.2092528913852
 30
0.0
 10
103.2868909789526
 20
-153.393565499846
 30
0.0
 10
103.2868909789526
 20
-153.393565499846
 30
0.0
 10
103.2572631577794
 20
-153.393565499846
 30
0.0
 10
103.2403821899017
 20
-153.3890868757152
 30
0.0
 10
103.0774291734494
 20
-153.3890868757152
 30
0.0
  0
HATCH
  5
D2
330
CB
100
AcDbEntity
  8
レイヤー 1
 62
   250
420
  2299925
440
 33554687
100
AcDbHatch
 10
0.0
 20
0.0
 30
0.0
210
0.0
220
0.0
230
1.0
  2
SOLID
 70
     1
 71
     1
 91
        3
 92
        1
 93
        1
 72
     4
 94
        3
 73
     0
 74
     0
 95
       17
 96
       13
 40
0.0
 40
0.0
 40
0.0
 40
0.0
 40
1.0
 40
1.0
 40
1.0
 40
2.0
 40
2.0
 40
2.0
 40
3.0
 40
3.0
 40
3.0
 40
4.0
 40
4.0
 40
4.0
 40
4.0
 10
102.5124335138684
 20
-153.7742485509661
 10
102.4955525459907
 20
-153.8038763721393
 10
102.4449096423575
 20
-153.896893950241
 10
102.4342298463532
 20
-153.9158419754099
 10
102.6247436266876
 20
-153.9750976177562
 10
102.6457587091476
 20
-153.9816432991782
 10
102.7177612047893
 20
-154.0092040630602
 10
102.7728827325533
 20
-153.9223876568319
 10
102.7959648723045
 20
-153.848318103899
 10
102.810778782891
 20
-153.7742485509661
 10
102.810778782891
 20
-153.7742485509661
 10
102.5124335138684
 20
-153.7742485509661
 10
102.5124335138684
 20
-153.7742485509661
 97
        0
 97
        1
330
CF
 92
        1
 93
        1
 72
     4
 94
        3
 73
     0
 74
     0
 95
       20
 96
       16
 40
0.0
 40
0.0
 40
0.0
 40
0.0
 40
1.0
 40
1.0
 40
1.0
 40
2.0
 40
2.0
 40
2.0
 40
3.0
 40
3.0
 40
3.0
 40
4.0
 40
4.0
 40
4.0
 40
5.0
 40
5.0
 40
5.0
 40
5.0
 10
102.4490437569398
 20
-152.9239989852065
 10
102.4490437569398
 20
-152.9239989852065
 10
102.4173488784755
 20
-152.9239989852065
 10
102.4173488784755
 20
-152.9239989852065
 10
102.4638576675264
 20
-153.0232177351817
 10
102.4955525459907
 20
-153.103488459988
 10
102.5293144817461
 20
-153.2306124833937
 10
102.5293144817461
 20
-153.2306124833937
 10
102.7367092299582
 20
-153.2306124833937
 10
102.7367092299582
 20
-153.2306124833937
 10
102.7684041084225
 20
-153.137594905292
 10
102.7918307577222
 20
-153.0528455563548
 10
102.8149128974733
 20
-152.9239989852065
 10
102.8149128974733
 20
-152.9239989852065
 10
102.4490437569398
 20
-152.9239989852065
 10
102.4490437569398
 20
-152.9239989852065
 97
        0
 97
        1
330
D0
 92
        1
 93
        1
 72
     4
 94
        3
 73
     0
 74
     0
 95
      242
 96
      238
 40
0.0
 40
0.0
 40
0.0
 40
0.0
 40
1.0
 40
1.0
 40
1.0
 40
2.0
 40
2.0
 40
2.0
 40
3.0
 40
3.0
 40
3.0
 40
4.0
 40
4.0
 40
4.0
 40
5.0
 40
5.0
 40
5.0
 40
6.0
 40
6.0
 40
6.0
 40
7.0
 40
7.0
 40
7.0
 40
8.0
 40
8.0
 40
8.0
 40
9.0
 40
9.0
 40
9.0
 40
10.0
 40
10.0
 40
10.0
 40
11.0
 40
11.0
 40
11.0
 40
12.0
 40
12.0
 40
12.0
 40
13.0
 40
13.0
 40
13.0
 40
14.0
 40
14.0
 40
14.0
 40
15.0
 40
15.0
 40
15.0
 40
16.0
 40
16.0
 40
16.0
 40
17.0
 40
17.0
 40
17.0
 40
18.0
 40
18.0
 40
18.0
 40
19.0
 40
19.0
 40
19.0
 40
20.0
 40
20.0
 40
20.0
 40
21.0
 40
21.0
 40
21.0
 40
22.0
 40
22.0
 40
22.0
 40
23.0
 40
23.0
 40
23.0
 40
24.0
 40
24.0
 40
24.0
 40
25.0
 40
25.0
 40
25.0
 40
26.0
 40
26.0
 40
26.0
 40
27.0
 40
27.0
 40
27.0
 40
28.0
 40
28.0
 40
28.0
 40
29.0
 40
29.0
 40
29.0
 40
30.0
 40
30.0
 40
30.0
 40
31.0
 40
31.0
 40
31.0
 40
32.0
 40
32.0
 40
32.0
 40
33.0
 40
33.0
 40
33.0
 40
34.0
 40
34.0
 40
34.0
 40
35.0
 40
35.0
 40
35.0
 40
36.0
 40
36.0
 40
36.0
 40
37.0
 40
37.0
 40
37.0
 40
38.0
 40
38.0
 40
38.0
 40
39.0
 40
39.0
 40
39.0
 40
40.0
 40
40.0
 40
40.0
 40
41.0
 40
41.0
 40
41.0
 40
42.0
 40
42.0
 40
42.0
 40
43.0
 40
43.0
 40
43.0
 40
44.0
 40
44.0
 40
44.0
 40
45.0
 40
45.0
 40
45.0
 40
46.0
 40
46.0
 40
46.0
 40
47.0
 40
47.0
 40
47.0
 40
48.0
 40
48.0
 40
48.0
 40
49.0
 40
49.0
 40
49.0
 40
50.0
 40
50.0
 40
50.0
 40
51.0
 40
51.0
 40
51.0
 40
52.0
 40
52.0
 40
52.0
 40
53.0
 40
53.0
 40
53.0
 40
54.0
 40
54.0
 40
54.0
 40
55.0
 40
55.0
 40
55.0
 40
56.0
 40
56.0
 40
56.0
 40
57.0
 40
57.0
 40
57.0
 40
58.0
 40
58.0
 40
58.0
 40
59.0
 40
59.0
 40
59.0
 40
60.0
 40
60.0
 40
60.0
 40
61.0
 40
61.0
 40
61.0
 40
62.0
 40
62.0
 40
62.0
 40
63.0
 40
63.0
 40
63.0
 40
64.0
 40
64.0
 40
64.0
 40
65.0
 40
65.0
 40
65.0
 40
66.0
 40
66.0
 40
66.0
 40
67.0
 40
67.0
 40
67.0
 40
68.0
 40
68.0
 40
68.0
 40
69.0
 40
69.0
 40
69.0
 40
70.0
 40
70.0
 40
70.0
 40
71.0
 40
71.0
 40
71.0
 40
72.0
 40
72.0
 40
72.0
 40
73.0
 40
73.0
 40
73.0
 40
74.0
 40
74.0
 40
74.0
 40
75.0
 40
75.0
 40
75.0
 40
76.0
 40
76.0
 40
76.0
 40
77.0
 40
77.0
 40
77.0
 40
78.0
 40
78.0
 40
78.0
 40
79.0
 40
79.0
 40
79.0
 40
79.0
 10
103.0774291734494
 20
-153.3890868757152
 10
103.0774291734494
 20
-153.3890868757152
 10
102.8235256361865
 20
-153.3890868757152
 10
102.8235256361865
 20
-153.3890868757152
 10
102.8235256361865
 20
-153.3890868757152
 10
102.5465399591724
 20
-153.3890868757152
 10
102.5465399591724
 20
-153.3890868757152
 10
102.5465399591724
 20
-153.3890868757152
 10
102.6733194730296
 20
-153.4314615501838
 10
102.6733194730296
 20
-153.4314615501838
 10
102.6839992690338
 20
-153.4359401743146
 10
102.6964016127807
 20
-153.4421413461881
 10
102.6964016127807
 20
-153.4548881994835
 10
102.6964016127807
 20
-153.4759032819435
 10
102.6647067343164
 20
-153.4824489633655
 10
102.6436916518564
 20
-153.4865830779478
 10
102.6330118558522
 20
-153.5096652176989
 10
102.603384034679
 20
-153.5754665414672
 10
102.5844360095101
 20
-153.6199082732269
 10
102.5844360095101
 20
-153.6199082732269
 10
102.8552205146508
 20
-153.6199082732269
 10
102.8552205146508
 20
-153.6199082732269
 10
102.9461710354613
 20
-153.6199082732269
 10
103.1428859876691
 20
-153.6154296490961
 10
103.2848239216614
 20
-153.6071614199315
 10
103.2848239216614
 20
-153.6071614199315
 10
103.2848239216614
 20
-153.7849283469704
 10
103.2848239216614
 20
-153.7849283469704
 10
103.2021416300154
 20
-153.7804497228396
 10
103.1811265475554
 20
-153.7804497228396
 10
103.0012925632254
 20
-153.7763156082573
 10
102.9695976847611
 20
-153.9306558859965
 10
102.9251559530013
 20
-154.0112711203513
 10
102.8807142212416
 20
-154.0808620491534
 10
103.0012925632254
 20
-154.1401176914997
 10
103.1070569946225
 20
-154.2079860725591
 10
103.2107543687285
 20
-154.2903238546566
 10
103.2107543687285
 20
-154.2903238546566
 10
103.0922430840359
 20
-154.4574109856912
 10
103.0922430840359
 20
-154.4574109856912
 10
103.0688164347363
 20
-154.4384629605223
 10
103.0560695814408
 20
-154.4301947313577
 10
102.9441039781702
 20
-154.3454453824206
 10
102.8955281318282
 20
-154.3072048225343
 10
102.8362724894819
 20
-154.2713758294877
 10
102.755657255127
 20
-154.226934097728
 10
102.5441283923327
 20
-154.41331376348
 10
102.3391452109603
 20
-154.4363959032312
 10
102.0490681711023
 20
-154.4660237244043
 10
102.0490681711023
 20
-154.4660237244043
 10
101.9457153065448
 20
-154.2861897400743
 10
101.9457153065448
 20
-154.2861897400743
 10
102.2630086007363
 20
-154.282055625492
 10
102.4383639609355
 20
-154.2565619189011
 10
102.5906371813836
 20
-154.1466633729216
 10
102.4724704062395
 20
-154.0956759597399
 10
102.3835869427201
 20
-154.0684597054065
 10
102.3474134401249
 20
-154.055712852111
 10
102.3284654149561
 20
-154.0832736159931
 10
102.3136515043695
 20
-154.1022216411619
 10
102.2860907404875
 20
-154.1359835769174
 10
102.2860907404875
 20
-154.1359835769174
 10
102.0893757882797
 20
-154.0536457948199
 10
102.0893757882797
 20
-154.0536457948199
 10
102.1720580799257
 20
-153.973030560465
 10
102.2333807795632
 20
-153.8779459250722
 10
102.2905693646183
 20
-153.7763156082573
 10
102.100055584284
 20
-153.7804497228396
 10
102.0786959922755
 20
-153.7804497228396
 10
101.996358210178
 20
-153.7849283469704
 10
101.996358210178
 20
-153.7849283469704
 10
101.996358210178
 20
-153.6071614199315
 10
101.996358210178
 20
-153.6071614199315
 10
102.1358845773306
 20
-153.613362591805
 10
102.3453463828338
 20
-153.6178412159358
 10
102.3708400894246
 20
-153.6178412159358
 10
102.3877210573024
 20
-153.5837347706318
 10
102.4428425850663
 20
-153.4631564286481
 10
102.4617906102352
 20
-153.3890868757152
 10
102.4428425850663
 20
-153.3890868757152
 10
102.2650756580275
 20
-153.3956325571372
 10
102.0704277631109
 20
-153.4083794104326
 10
102.0704277631109
 20
-153.4083794104326
 10
102.0704277631109
 20
-153.5417046057118
 10
102.0704277631109
 20
-153.5417046057118
 10
102.0218519167688
 20
-153.5668538027541
 10
101.9625962744225
 20
-153.5985486812184
 10
101.8292710791434
 20
-153.6643500049867
 10
101.8292710791434
 20
-153.6643500049867
 10
101.8292710791434
 20
-153.8100775440127
 10
101.8292710791434
 20
-153.8100775440127
 10
101.8292710791434
 20
-153.8100775440127
 10
101.8292710791434
 20
-154.2779215109097
 10
101.8292710791434
 20
-154.2779215109097
 10
101.8292710791434
 20
-154.4047010247669
 10
101.7930975765482
 20
-154.4639566671132
 10
101.5099107276607
 20
-154.4553439284
 10
101.5099107276607
 20
-154.4553439284
 10
101.4062133535547
 20
-154.2482936897365
 10
101.4062133535547
 20
-154.2482936897365
 10
101.4696031104833
 20
-154.2606960334834
 10
101.5181789568253
 20
-154.2651746576142
 10
101.5584865740027
 20
-154.2651746576142
 10
101.6346231842268
 20
-154.2651746576142
 10
101.645302980231
 20
-154.2417480083146
 10
101.645302980231
 20
-154.1762911940948
 10
101.645302980231
 20
-154.1762911940948
 10
101.645302980231
 20
-153.7466877870842
 10
101.645302980231
 20
-153.7466877870842
 10
101.5478067779985
 20
-153.7869954042616
 10
101.5309258101207
 20
-153.793196576135
 10
101.4844170210698
 20
-153.8124891108524
 10
101.4802829064876
 20
-153.8335041933124
 10
101.4758042823567
 20
-153.8631320144856
 10
101.4568562571878
 20
-153.8631320144856
 10
101.4485880280233
 20
-153.8631320144856
 10
101.437908232019
 20
-153.8589978999033
 10
101.431362550597
 20
-153.8355712506036
 10
101.431362550597
 20
-153.8355712506036
 10
101.3786525896727
 20
-153.6429904129781
 10
101.3786525896727
 20
-153.6429904129781
 10
101.5247246382473
 20
-153.5964816239272
 10
101.590181452467
 20
-153.5733994841761
 10
101.645302980231
 20
-153.5520398921675
 10
101.645302980231
 20
-153.5520398921675
 10
101.645302980231
 20
-153.1396619625831
 10
101.645302980231
 20
-153.1396619625831
 10
101.645302980231
 20
-153.1396619625831
 10
101.5922485097582
 20
-153.1396619625831
 10
101.5922485097582
 20
-153.1396619625831
 10
101.5922485097582
 20
-153.1396619625831
 10
101.514044842243
 20
-153.1396619625831
 10
101.514044842243
 20
-153.1396619625831
 10
101.4461764611836
 20
-153.1396619625831
 10
101.437908232019
 20
-153.1396619625831
 10
101.4017347294239
 20
-153.1458631344566
 10
101.4017347294239
 20
-153.1458631344566
 10
101.4017347294239
 20
-152.95121523954
 10
101.4017347294239
 20
-152.95121523954
 10
101.4292954933059
 20
-152.9577609209619
 10
101.437908232019
 20
-152.9577609209619
 10
101.507499160821
 20
-152.9577609209619
 10
101.507499160821
 20
-152.9577609209619
 10
101.6408243561002
 20
-152.9577609209619
 10
101.6408243561002
 20
-152.9577609209619
 10
101.6408243561002
 20
-152.8878254826114
 10
101.6408243561002
 20
-152.8054877005139
 10
101.638757298809
 20
-152.8010090763831
 10
101.6304890696444
 20
-152.621175092053
 10
101.6304890696444
 20
-152.6022270668842
 10
101.6280775028048
 20
-152.5557182778333
 10
101.6280775028048
 20
-152.5557182778333
 10
101.8440849897299
 20
-152.5643310165464
 10
101.8440849897299
 20
-152.5643310165464
 10
101.8547647857342
 20
-152.5643310165464
 10
101.8757798681942
 20
-152.5663980738376
 10
101.8757798681942
 20
-152.5832790417153
 10
101.8757798681942
 20
-152.6022270668842
 10
101.8609659576076
 20
-152.6129068628884
 10
101.8354722510168
 20
-152.6318548880573
 10
101.8354722510168
 20
-152.6824977916905
 10
101.8292710791434
 20
-152.9112521319111
 10
101.8313381364345
 20
-152.9577609209619
 10
101.9605292171314
 20
-152.9577609209619
 10
101.9729315608783
 20
-152.9577609209619
 10
102.0704277631109
 20
-152.9491481822488
 10
102.0704277631109
 20
-152.9491481822488
 10
102.0704277631109
 20
-153.1437960771654
 10
102.0704277631109
 20
-153.1437960771654
 10
102.0321872032246
 20
-153.1417290198743
 10
101.9646633317137
 20
-153.137594905292
 10
101.8292710791434
 20
-153.1396619625831
 10
101.8292710791434
 20
-153.1396619625831
 10
101.8292710791434
 20
-153.4779703392346
 10
101.8292710791434
 20
-153.4779703392346
 10
101.8840480973588
 20
-153.4548881994835
 10
101.9498494211271
 20
-153.4273274356015
 10
101.9984252674691
 20
-153.4039007863018
 10
101.9984252674691
 20
-153.4039007863018
 10
101.9984252674691
 20
-153.2264783688114
 10
101.9984252674691
 20
-153.2264783688114
 10
102.1128024375794
 20
-153.2388807125583
 10
102.231313722272
 20
-153.2388807125583
 10
102.3474134401249
 20
-153.2388807125583
 10
102.3243313003738
 20
-153.1437960771654
 10
102.2967705364917
 20
-153.061458295068
 10
102.2333807795632
 20
-152.9281330997888
 10
102.1889390478034
 20
-152.9302001570799
 10
102.1062567561574
 20
-152.9343342716622
 10
102.0683607058197
 20
-152.9364013289534
 10
102.0683607058197
 20
-152.9364013289534
 10
102.0683607058197
 20
-152.7565673446233
 10
102.0683607058197
 20
-152.7565673446233
 10
102.1930731623857
 20
-152.7651800833365
 10
102.3667059748423
 20
-152.7693141979188
 10
102.4490437569398
 20
-152.7693141979188
 10
102.4490437569398
 20
-152.7693141979188
 10
102.5317260485858
 20
-152.7693141979188
 10
102.5317260485858
 20
-152.7693141979188
 10
102.5317260485858
 20
-152.6063611814664
 10
102.5317260485858
 20
-152.5960258950107
 10
102.5293144817461
 20
-152.5409043672467
 10
102.5293144817461
 20
-152.5409043672467
 10
102.7535901978359
 20
-152.5663980738376
 10
102.7535901978359
 20
-152.5663980738376
 10
102.7580688219667
 20
-152.5663980738376
 10
102.7790839044267
 20
-152.5684651311287
 10
102.7790839044267
 20
-152.5853460990064
 10
102.7790839044267
 20
-152.600160009593
 10
102.7684041084225
 20
-152.6087727483061
 10
102.7408433445405
 20
-152.6235866588927
 10
102.734642172667
 20
-152.6890434731124
 10
102.7325751153759
 20
-152.7100585555725
 10
102.7325751153759
 20
-152.7693141979188
 10
102.7325751153759
 20
-152.7693141979188
 10
102.8276597507688
 20
-152.7693141979188
 10
102.8276597507688
 20
-152.7693141979188
 10
102.9103420424148
 20
-152.7693141979188
 10
103.0836303453228
 20
-152.7651800833365
 10
103.2086873114374
 20
-152.7565673446233
 10
103.2086873114374
 20
-152.7565673446233
 10
103.2086873114374
 20
-152.9364013289534
 10
103.2086873114374
 20
-152.9364013289534
 10
103.1790594902642
 20
-152.9343342716622
 10
103.0605482055717
 20
-152.9302001570799
 10
103.0202405883942
 20
-152.9281330997888
 10
103.0054266778076
 20
-152.978776003422
 10
102.9716647420522
 20
-153.0910861162411
 10
102.9058634182839
 20
-153.2306124833937
 10
102.9482380927525
 20
-153.2306124833937
 10
103.2255682793151
 20
-153.2116644582248
 10
103.2868909789526
 20
-153.2092528913852
 10
103.2868909789526
 20
-153.2092528913852
 10
103.2868909789526
 20
-153.393565499846
 10
103.2868909789526
 20
-153.393565499846
 10
103.2572631577794
 20
-153.393565499846
 10
103.2403821899017
 20
-153.3890868757152
 10
103.0774291734494
 20
-153.3890868757152
 97
        0
 97
        1
330
D1
 75
     2
 76
     1
 98
        1
 10
0.0
 20
0.0
450
        0
451
        0
460
0.0
461
0.0
452
        0
462
0.0
453
        0
470

  0
SPLINE
  5
D3
330
CB
100
AcDbEntity
  8
レイヤー 1
100
AcDbSpline
210
0.0
220
0.0
230
1.0
 70
    11
 71
     3
 72
    17
 73
    13
 74
     0
 42
0.0000000001
 43
0.0000000001
 40
0.0
 40
0.0
 40
0.0
 40
0.0
 40
1.0
 40
1.0
 40
1.0
 40
2.0
 40
2.0
 40
2.0
 40
3.0
 40
3.0
 40
3.0
 40
4.0
 40
4.0
 40
4.0
 40
4.0
 10
104.9339911304505
 20
-154.1890380473902
 30
0.0
 10
104.9339911304505
 20
-154.1890380473902
 30
0.0
 10
104.2274020464258
 20
-154.1890380473902
 30
0.0
 10
104.2274020464258
 20
-154.1890380473902
 30
0.0
 10
104.2274020464258
 20
-154.1890380473902
 30
0.0
 10
104.2274020464258
 20
-154.303070707952
 30
0.0
 10
104.2274020464258
 20
-154.303070707952
 30
0.0
 10
104.2274020464258
 20
-154.303070707952
 30
0.0
 10
104.9339911304505
 20
-154.303070707952
 30
0.0
 10
104.9339911304505
 20
-154.303070707952
 30
0.0
 10
104.9339911304505
 20
-154.303070707952
 30
0.0
 10
104.9339911304505
 20
-154.1890380473902
 30
0.0
 10
104.9339911304505
 20
-154.1890380473902
 30
0.0
  0
SPLINE
  5
D4
330
CB
100
AcDbEntity
  8
レイヤー 1
100
AcDbSpline
210
0.0
220
0.0
230
1.0
 70
    11
 71
     3
 72
    17
 73
    13
 74
     0
 42
0.0000000001
 43
0.0000000001
 40
0.0
 40
0.0
 40
0.0
 40
0.0
 40
1.0
 40
1.0
 40
1.0
 40
2.0
 40
2.0
 40
2.0
 40
3.0
 40
3.0
 40
3.0
 40
4.0
 40
4.0
 40
4.0
 40
4.0
 10
104.9339911304505
 20
-153.9454697965831
 30
0.0
 10
104.9339911304505
 20
-153.9454697965831
 30
0.0
 10
104.2274020464258
 20
-153.9454697965831
 30
0.0
 10
104.2274020464258
 20
-153.9454697965831
 30
0.0
 10
104.2274020464258
 20
-153.9454697965831
 30
0.0
 10
104.2274020464258
 20
-154.0598469666934
 30
0.0
 10
104.2274020464258
 20
-154.0598469666934
 30
0.0
 10
104.2274020464258
 20
-154.0598469666934
 30
0.0
 10
104.9339911304505
 20
-154.0598469666934
 30
0.0
 10
104.9339911304505
 20
-154.0598469666934
 30
0.0
 10
104.9339911304505
 20
-154.0598469666934
 30
0.0
 10
104.9339911304505
 20
-153.9454697965831
 30
0.0
 10
104.9339911304505
 20
-153.9454697965831
 30
0.0
  0
SPLINE
  5
D5
330
CB
100
AcDbEntity
  8
レイヤー 1
100
AcDbSpline
210
0.0
220
0.0
230
1.0
 70
    11
 71
     3
 72
    17
 73
    13
 74
     0
 42
0.0000000001
 43
0.0000000001
 40
0.0
 40
0.0
 40
0.0
 40
0.0
 40
1.0
 40
1.0
 40
1.0
 40
2.0
 40
2.0
 40
2.0
 40
3.0
 40
3.0
 40
3.0
 40
4.0
 40
4.0
 40
4.0
 40
4.0
 10
104.9339911304505
 20
-153.7129258513287
 30
0.0
 10
104.9339911304505
 20
-153.7129258513287
 30
0.0
 10
104.2274020464258
 20
-153.7129258513287
 30
0.0
 10
104.2274020464258
 20
-153.7129258513287
 30
0.0
 10
104.2274020464258
 20
-153.7129258513287
 30
0.0
 10
104.2274020464258
 20
-153.820757340017
 30
0.0
 10
104.2274020464258
 20
-153.820757340017
 30
0.0
 10
104.2274020464258
 20
-153.820757340017
 30
0.0
 10
104.9339911304505
 20
-153.820757340017
 30
0.0
 10
104.9339911304505
 20
-153.820757340017
 30
0.0
 10
104.9339911304505
 20
-153.820757340017
 30
0.0
 10
104.9339911304505
 20
-153.7129258513287
 30
0.0
 10
104.9339911304505
 20
-153.7129258513287
 30
0.0
  0
SPLINE
  5
D6
330
CB
100
AcDbEntity
  8
レイヤー 1
100
AcDbSpline
210
0.0
220
0.0
230
1.0
 70
     9
 71
     3
 72
   203
 73
   199
 74
     0
 42
0.0000000001
 43
0.0000000001
 40
0.0
 40
0.0
 40
0.0
 40
0.0
 40
1.0
 40
1.0
 40
1.0
 40
2.0
 40
2.0
 40
2.0
 40
3.0
 40
3.0
 40
3.0
 40
4.0
 40
4.0
 40
4.0
 40
5.0
 40
5.0
 40
5.0
 40
6.0
 40
6.0
 40
6.0
 40
7.0
 40
7.0
 40
7.0
 40
8.0
 40
8.0
 40
8.0
 40
9.0
 40
9.0
 40
9.0
 40
10.0
 40
10.0
 40
10.0
 40
11.0
 40
11.0
 40
11.0
 40
12.0
 40
12.0
 40
12.0
 40
13.0
 40
13.0
 40
13.0
 40
14.0
 40
14.0
 40
14.0
 40
15.0
 40
15.0
 40
15.0
 40
16.0
 40
16.0
 40
16.0
 40
17.0
 40
17.0
 40
17.0
 40
18.0
 40
18.0
 40
18.0
 40
19.0
 40
19.0
 40
19.0
 40
20.0
 40
20.0
 40
20.0
 40
21.0
 40
21.0
 40
21.0
 40
22.0
 40
22.0
 40
22.0
 40
23.0
 40
23.0
 40
23.0
 40
24.0
 40
24.0
 40
24.0
 40
25.0
 40
25.0
 40
25.0
 40
26.0
 40
26.0
 40
26.0
 40
27.0
 40
27.0
 40
27.0
 40
28.0
 40
28.0
 40
28.0
 40
29.0
 40
29.0
 40
29.0
 40
30.0
 40
30.0
 40
30.0
 40
31.0
 40
31.0
 40
31.0
 40
32.0
 40
32.0
 40
32.0
 40
33.0
 40
33.0
 40
33.0
 40
34.0
 40
34.0
 40
34.0
 40
35.0
 40
35.0
 40
35.0
 40
36.0
 40
36.0
 40
36.0
 40
37.0
 40
37.0
 40
37.0
 40
38.0
 40
38.0
 40
38.0
 40
39.0
 40
39.0
 40
39.0
 40
40.0
 40
40.0
 40
40.0
 40
41.0
 40
41.0
 40
41.0
 40
42.0
 40
42.0
 40
42.0
 40
43.0
 40
43.0
 40
43.0
 40
44.0
 40
44.0
 40
44.0
 40
45.0
 40
45.0
 40
45.0
 40
46.0
 40
46.0
 40
46.0
 40
47.0
 40
47.0
 40
47.0
 40
48.0
 40
48.0
 40
48.0
 40
49.0
 40
49.0
 40
49.0
 40
50.0
 40
50.0
 40
50.0
 40
51.0
 40
51.0
 40
51.0
 40
52.0
 40
52.0
 40
52.0
 40
53.0
 40
53.0
 40
53.0
 40
54.0
 40
54.0
 40
54.0
 40
55.0
 40
55.0
 40
55.0
 40
56.0
 40
56.0
 40
56.0
 40
57.0
 40
57.0
 40
57.0
 40
58.0
 40
58.0
 40
58.0
 40
59.0
 40
59.0
 40
59.0
 40
60.0
 40
60.0
 40
60.0
 40
61.0
 40
61.0
 40
61.0
 40
62.0
 40
62.0
 40
62.0
 40
63.0
 40
63.0
 40
63.0
 40
64.0
 40
64.0
 40
64.0
 40
65.0
 40
65.0
 40
65.0
 40
66.0
 40
66.0
 40
66.0
 40
66.0
 10
104.7689710567071
 20
-153.4569552567746
 30
0.0
 10
104.7689710567071
 20
-153.4569552567746
 30
0.0
 10
104.2101765689995
 20
-153.4569552567746
 30
0.0
 10
104.2101765689995
 20
-153.4569552567746
 30
0.0
 10
104.1998412825438
 20
-153.5013969885343
 30
0.0
 10
104.1912285438306
 20
-153.5330918669987
 30
0.0
 10
104.1784816905352
 20
-153.5713324268849
 30
0.0
 10
104.2039753971261
 20
-153.5713324268849
 30
0.0
 10
104.2187893077126
 20
-153.5733994841761
 30
0.0
 10
104.2249904795861
 20
-153.5733994841761
 30
0.0
 10
104.2249904795861
 20
-153.5733994841761
 30
0.0
 10
104.4134372026293
 20
-153.5733994841761
 30
0.0
 10
104.4134372026293
 20
-153.5733994841761
 30
0.0
 10
104.4134372026293
 20
-153.5733994841761
 30
0.0
 10
104.7879190818759
 20
-153.5733994841761
 30
0.0
 10
104.7879190818759
 20
-153.5733994841761
 30
0.0
 10
104.8385619855091
 20
-153.5733994841761
 30
0.0
 10
105.1220933439451
 20
-153.5606526308806
 30
0.0
 10
105.1537882224095
 20
-153.5606526308806
 30
0.0
 10
105.1517211651183
 20
-153.5882133947627
 30
0.0
 10
105.1496541078271
 20
-153.6071614199315
 30
0.0
 10
105.1496541078271
 20
-153.6367892411047
 30
0.0
 10
105.147587050536
 20
-153.668484119569
 30
0.0
 10
105.147587050536
 20
-153.8038763721393
 30
0.0
 10
105.147587050536
 20
-153.8314371360213
 30
0.0
 10
105.147587050536
 20
-153.8314371360213
 30
0.0
 10
105.147587050536
 20
-154.0767279345711
 30
0.0
 10
105.147587050536
 20
-154.0767279345711
 30
0.0
 10
105.147587050536
 20
-154.1211696663308
 30
0.0
 10
105.1517211651183
 20
-154.3178846185386
 30
0.0
 10
105.1558552797006
 20
-154.4701578389866
 30
0.0
 10
105.1558552797006
 20
-154.4701578389866
 30
0.0
 10
104.9295125063197
 20
-154.4701578389866
 30
0.0
 10
104.9295125063197
 20
-154.4701578389866
 30
0.0
 10
104.9295125063197
 20
-154.4701578389866
 30
0.0
 10
104.9315795636108
 20
-154.4363959032312
 30
0.0
 10
104.9315795636108
 20
-154.4363959032312
 30
0.0
 10
104.9315795636108
 20
-154.4363959032312
 30
0.0
 10
104.2294691037169
 20
-154.4363959032312
 30
0.0
 10
104.2294691037169
 20
-154.4363959032312
 30
0.0
 10
104.2294691037169
 20
-154.4363959032312
 30
0.0
 10
104.2315361610081
 20
-154.4701578389866
 30
0.0
 10
104.2315361610081
 20
-154.4701578389866
 30
0.0
 10
104.2315361610081
 20
-154.4701578389866
 30
0.0
 10
104.0134616167917
 20
-154.4701578389866
 30
0.0
 10
104.0134616167917
 20
-154.4701578389866
 30
0.0
 10
104.0179402409226
 20
-154.4153808207711
 30
0.0
 10
104.0179402409226
 20
-154.4026339674757
 30
0.0
 10
104.024141412796
 20
-154.2882567973654
 30
0.0
 10
104.0262084700872
 20
-154.2606960334834
 30
0.0
 10
104.0282755273783
 20
-154.1277153477528
 30
0.0
 10
104.0282755273783
 20
-154.1084228130354
 30
0.0
 10
104.0282755273783
 20
-154.1084228130354
 30
0.0
 10
104.0282755273783
 20
-153.9055066889542
 30
0.0
 10
104.0282755273783
 20
-153.9055066889542
 30
0.0
 10
103.8887491602257
 20
-154.1549316020862
 30
0.0
 10
103.7195949718999
 20
-154.2861897400743
 30
0.0
 10
103.6138305405028
 20
-154.351646554294
 30
0.0
 10
103.6138305405028
 20
-154.351646554294
 30
0.0
 10
103.4401977280462
 20
-154.2121201871414
 30
0.0
 10
103.4401977280462
 20
-154.2121201871414
 30
0.0
 10
103.5290811915656
 20
-154.1614772835082
 30
0.0
 10
103.6730861828491
 20
-154.0746608772799
 30
0.0
 10
103.8105454927105
 20
-153.8800129823633
 30
0.0
 10
103.9014960135211
 20
-153.7532334685061
 30
0.0
 10
103.9669528277409
 20
-153.6092284772227
 30
0.0
 10
104.0007147634963
 20
-153.4569552567746
 30
0.0
 10
103.7723049328242
 20
-153.4590223140658
 30
0.0
 10
103.5924709484942
 20
-153.4655679954878
 30
0.0
 10
103.4973863131013
 20
-153.4676350527789
 30
0.0
 10
103.4973863131013
 20
-153.4676350527789
 30
0.0
 10
103.4973863131013
 20
-153.28986812574
 30
0.0
 10
103.4973863131013
 20
-153.28986812574
 30
0.0
 10
103.6941012653091
 20
-153.2960692976135
 30
0.0
 10
103.9776326237451
 20
-153.3005479217443
 30
0.0
 10
104.1278387869021
 20
-153.3005479217443
 30
0.0
 10
104.1278387869021
 20
-153.3005479217443
 30
0.0
 10
104.3414347069875
 20
-153.3005479217443
 30
0.0
 10
104.3414347069875
 20
-153.3005479217443
 30
0.0
 10
104.3414347069875
 20
-153.3005479217443
 30
0.0
 10
104.3414347069875
 20
-153.1923719235074
 30
0.0
 10
104.3414347069875
 20
-153.1923719235074
 30
0.0
 10
104.3414347069875
 20
-153.1923719235074
 30
0.0
 10
104.195362658413
 20
-153.1923719235074
 30
0.0
 10
104.195362658413
 20
-153.1923719235074
 30
0.0
 10
104.0262084700872
 20
-153.1923719235074
 30
0.0
 10
103.8570542817614
 20
-153.1968505476383
 30
0.0
 10
103.6899671507268
 20
-153.2030517195117
 30
0.0
 10
103.6899671507268
 20
-153.2030517195117
 30
0.0
 10
103.6899671507268
 20
-153.0318304738948
 30
0.0
 10
103.6899671507268
 20
-153.0318304738948
 30
0.0
 10
103.844307428466
 20
-153.0421657603505
 30
0.0
 10
104.0303425846695
 20
-153.0421657603505
 30
0.0
 10
104.195362658413
 20
-153.0421657603505
 30
0.0
 10
104.195362658413
 20
-153.0421657603505
 30
0.0
 10
104.3414347069875
 20
-153.0421657603505
 30
0.0
 10
104.3414347069875
 20
-153.0421657603505
 30
0.0
 10
104.3414347069875
 20
-153.0421657603505
 30
0.0
 10
104.3414347069875
 20
-152.9239989852065
 30
0.0
 10
104.3414347069875
 20
-152.9239989852065
 30
0.0
 10
104.3414347069875
 20
-152.9239989852065
 30
0.0
 10
104.2101765689995
 20
-152.9239989852065
 30
0.0
 10
104.2101765689995
 20
-152.9239989852065
 30
0.0
 10
104.1636677799486
 20
-152.9239989852065
 30
0.0
 10
103.9607516558674
 20
-152.9322672143711
 30
0.0
 10
103.9183769813988
 20
-152.9322672143711
 30
0.0
 10
103.7154608573176
 20
-152.9364013289534
 30
0.0
 10
103.6389797375451
 20
-152.9384683862445
 30
0.0
 10
103.5607760700299
 20
-152.9408799530842
 30
0.0
 10
103.5607760700299
 20
-152.9408799530842
 30
0.0
 10
103.5607760700299
 20
-152.7565673446233
 30
0.0
 10
103.5607760700299
 20
-152.7565673446233
 30
0.0
 10
103.6751532401402
 20
-152.7651800833365
 30
0.0
 10
103.7195949718999
 20
-152.7651800833365
 30
0.0
 10
104.1023450803112
 20
-152.7737928220496
 30
0.0
 10
104.0389553233826
 20
-152.6783636771082
 30
0.0
 10
104.0113945595006
 20
-152.6508029132262
 30
0.0
 10
103.975565566454
 20
-152.6149739201796
 30
0.0
 10
103.975565566454
 20
-152.6149739201796
 30
0.0
 10
104.1509209266532
 20
-152.5322916285336
 30
0.0
 10
104.1509209266532
 20
-152.5322916285336
 30
0.0
 10
104.1912285438306
 20
-152.5684651311287
 30
0.0
 10
104.2356702755904
 20
-152.6108398055973
 30
0.0
 10
104.3097398285232
 20
-152.7207383515767
 30
0.0
 10
104.3097398285232
 20
-152.7207383515767
 30
0.0
 10
104.195362658413
 20
-152.7758598793407
 30
0.0
 10
104.195362658413
 20
-152.7758598793407
 30
0.0
 10
104.195362658413
 20
-152.7758598793407
 30
0.0
 10
104.2060424544172
 20
-152.7758598793407
 30
0.0
 10
104.2060424544172
 20
-152.7758598793407
 30
0.0
 10
104.2060424544172
 20
-152.7758598793407
 30
0.0
 10
104.7286634395296
 20
-152.7758598793407
 30
0.0
 10
104.7286634395296
 20
-152.7758598793407
 30
0.0
 10
104.7286634395296
 20
-152.7758598793407
 30
0.0
 10
104.6335788041367
 20
-152.731418147581
 30
0.0
 10
104.6335788041367
 20
-152.731418147581
 30
0.0
 10
104.6607950584702
 20
-152.6931775876948
 30
0.0
 10
104.7179836435254
 20
-152.6129068628884
 30
0.0
 10
104.7327975541119
 20
-152.5388373099555
 30
0.0
 10
104.7327975541119
 20
-152.5388373099555
 30
0.0
 10
104.9463934741974
 20
-152.6022270668842
 30
0.0
 10
104.9463934741974
 20
-152.6022270668842
 30
0.0
 10
104.9550062129105
 20
-152.6042941241753
 30
0.0
 10
104.9760212953706
 20
-152.6149739201796
 30
0.0
 10
104.9760212953706
 20
-152.6359890026396
 30
0.0
 10
104.9760212953706
 20
-152.6742295625258
 30
0.0
 10
104.9105644811508
 20
-152.6742295625258
 30
0.0
 10
104.8916164559819
 20
-152.6742295625258
 30
0.0
 10
104.8809366599777
 20
-152.6931775876948
 30
0.0
 10
104.857510010678
 20
-152.7334852048721
 30
0.0
 10
104.8278821895048
 20
-152.7737928220496
 30
0.0
 10
105.2278577753423
 20
-152.7672471406276
 30
0.0
 10
105.2574855965155
 20
-152.7651800833365
 30
0.0
 10
105.3336222067395
 20
-152.758978911463
 30
0.0
 10
105.3336222067395
 20
-152.758978911463
 30
0.0
 10
105.3336222067395
 20
-152.9408799530842
 30
0.0
 10
105.3336222067395
 20
-152.9408799530842
 30
0.0
 10
105.3146741815706
 20
-152.9408799530842
 30
0.0
 10
105.2891804749798
 20
-152.9384683862445
 30
0.0
 10
105.0693833830208
 20
-152.9302001570799
 30
0.0
 10
105.0183959698391
 20
-152.9281330997888
 30
0.0
 10
104.7985988778802
 20
-152.9239989852065
 30
0.0
 10
104.7541571461205
 20
-152.9239989852065
 30
0.0
 10
104.7541571461205
 20
-152.9239989852065
 30
0.0
 10
104.5381496591953
 20
-152.9239989852065
 30
0.0
 10
104.5381496591953
 20
-152.9239989852065
 30
0.0
 10
104.5381496591953
 20
-152.9239989852065
 30
0.0
 10
104.5381496591953
 20
-153.0421657603505
 30
0.0
 10
104.5381496591953
 20
-153.0421657603505
 30
0.0
 10
104.5381496591953
 20
-153.0421657603505
 30
0.0
 10
104.7117824716519
 20
-153.0421657603505
 30
0.0
 10
104.7117824716519
 20
-153.0421657603505
 30
0.0
 10
104.8747354881042
 20
-153.0421657603505
 30
0.0
 10
105.06490475889
 20
-153.0421657603505
 30
0.0
 10
105.2216566034689
 20
-153.0318304738948
 30
0.0
 10
105.2216566034689
 20
-153.0318304738948
 30
0.0
 10
105.2216566034689
 20
-153.2030517195117
 30
0.0
 10
105.2216566034689
 20
-153.2030517195117
 30
0.0
 10
105.0121947979657
 20
-153.1947834903471
 30
0.0
 10
104.8154798457579
 20
-153.1923719235074
 30
0.0
 10
104.7117824716519
 20
-153.1923719235074
 30
0.0
 10
104.7117824716519
 20
-153.1923719235074
 30
0.0
 10
104.5381496591953
 20
-153.1923719235074
 30
0.0
 10
104.5381496591953
 20
-153.1923719235074
 30
0.0
 10
104.5381496591953
 20
-153.1923719235074
 30
0.0
 10
104.5381496591953
 20
-153.3005479217443
 30
0.0
 10
104.5381496591953
 20
-153.3005479217443
 30
0.0
 10
104.5381496591953
 20
-153.3005479217443
 30
0.0
 10
104.7689710567071
 20
-153.3005479217443
 30
0.0
 10
104.7689710567071
 20
-153.3005479217443
 30
0.0
 10
104.9019517424377
 20
-153.3005479217443
 30
0.0
 10
105.1899617250046
 20
-153.2960692976135
 30
0.0
 10
105.3990790209592
 20
-153.28986812574
 30
0.0
 10
105.3990790209592
 20
-153.28986812574
 30
0.0
 10
105.3990790209592
 20
-153.4676350527789
 30
0.0
 10
105.3990790209592
 20
-153.4676350527789
 30
0.0
 10
105.2068426928823
 20
-153.4610893713569
 30
0.0
 10
104.8936835132731
 20
-153.4569552567746
 30
0.0
 10
104.7689710567071
 20
-153.4569552567746
 30
0.0
  0
HATCH
  5
D7
330
CB
100
AcDbEntity
  8
レイヤー 1
 62
   250
420
  2299925
440
 33554687
100
AcDbHatch
 10
0.0
 20
0.0
 30
0.0
210
0.0
220
0.0
230
1.0
  2
SOLID
 70
     1
 71
     1
 91
        4
 92
        1
 93
        1
 72
     4
 94
        3
 73
     0
 74
     0
 95
       17
 96
       13
 40
0.0
 40
0.0
 40
0.0
 40
0.0
 40
1.0
 40
1.0
 40
1.0
 40
2.0
 40
2.0
 40
2.0
 40
3.0
 40
3.0
 40
3.0
 40
4.0
 40
4.0
 40
4.0
 40
4.0
 10
104.9339911304505
 20
-154.1890380473902
 10
104.9339911304505
 20
-154.1890380473902
 10
104.2274020464258
 20
-154.1890380473902
 10
104.2274020464258
 20
-154.1890380473902
 10
104.2274020464258
 20
-154.1890380473902
 10
104.2274020464258
 20
-154.303070707952
 10
104.2274020464258
 20
-154.303070707952
 10
104.2274020464258
 20
-154.303070707952
 10
104.9339911304505
 20
-154.303070707952
 10
104.9339911304505
 20
-154.303070707952
 10
104.9339911304505
 20
-154.303070707952
 10
104.9339911304505
 20
-154.1890380473902
 10
104.9339911304505
 20
-154.1890380473902
 97
        0
 97
        1
330
D3
 92
        1
 93
        1
 72
     4
 94
        3
 73
     0
 74
     0
 95
       17
 96
       13
 40
0.0
 40
0.0
 40
0.0
 40
0.0
 40
1.0
 40
1.0
 40
1.0
 40
2.0
 40
2.0
 40
2.0
 40
3.0
 40
3.0
 40
3.0
 40
4.0
 40
4.0
 40
4.0
 40
4.0
 10
104.9339911304505
 20
-153.9454697965831
 10
104.9339911304505
 20
-153.9454697965831
 10
104.2274020464258
 20
-153.9454697965831
 10
104.2274020464258
 20
-153.9454697965831
 10
104.2274020464258
 20
-153.9454697965831
 10
104.2274020464258
 20
-154.0598469666934
 10
104.2274020464258
 20
-154.0598469666934
 10
104.2274020464258
 20
-154.0598469666934
 10
104.9339911304505
 20
-154.0598469666934
 10
104.9339911304505
 20
-154.0598469666934
 10
104.9339911304505
 20
-154.0598469666934
 10
104.9339911304505
 20
-153.9454697965831
 10
104.9339911304505
 20
-153.9454697965831
 97
        0
 97
        1
330
D4
 92
        1
 93
        1
 72
     4
 94
        3
 73
     0
 74
     0
 95
       17
 96
       13
 40
0.0
 40
0.0
 40
0.0
 40
0.0
 40
1.0
 40
1.0
 40
1.0
 40
2.0
 40
2.0
 40
2.0
 40
3.0
 40
3.0
 40
3.0
 40
4.0
 40
4.0
 40
4.0
 40
4.0
 10
104.9339911304505
 20
-153.7129258513287
 10
104.9339911304505
 20
-153.7129258513287
 10
104.2274020464258
 20
-153.7129258513287
 10
104.2274020464258
 20
-153.7129258513287
 10
104.2274020464258
 20
-153.7129258513287
 10
104.2274020464258
 20
-153.820757340017
 10
104.2274020464258
 20
-153.820757340017
 10
104.2274020464258
 20
-153.820757340017
 10
104.9339911304505
 20
-153.820757340017
 10
104.9339911304505
 20
-153.820757340017
 10
104.9339911304505
 20
-153.820757340017
 10
104.9339911304505
 20
-153.7129258513287
 10
104.9339911304505
 20
-153.7129258513287
 97
        0
 97
        1
330
D5
 92
        1
 93
        1
 72
     4
 94
        3
 73
     0
 74
     0
 95
      203
 96
      199
 40
0.0
 40
0.0
 40
0.0
 40
0.0
 40
1.0
 40
1.0
 40
1.0
 40
2.0
 40
2.0
 40
2.0
 40
3.0
 40
3.0
 40
3.0
 40
4.0
 40
4.0
 40
4.0
 40
5.0
 40
5.0
 40
5.0
 40
6.0
 40
6.0
 40
6.0
 40
7.0
 40
7.0
 40
7.0
 40
8.0
 40
8.0
 40
8.0
 40
9.0
 40
9.0
 40
9.0
 40
10.0
 40
10.0
 40
10.0
 40
11.0
 40
11.0
 40
11.0
 40
12.0
 40
12.0
 40
12.0
 40
13.0
 40
13.0
 40
13.0
 40
14.0
 40
14.0
 40
14.0
 40
15.0
 40
15.0
 40
15.0
 40
16.0
 40
16.0
 40
16.0
 40
17.0
 40
17.0
 40
17.0
 40
18.0
 40
18.0
 40
18.0
 40
19.0
 40
19.0
 40
19.0
 40
20.0
 40
20.0
 40
20.0
 40
21.0
 40
21.0
 40
21.0
 40
22.0
 40
22.0
 40
22.0
 40
23.0
 40
23.0
 40
23.0
 40
24.0
 40
24.0
 40
24.0
 40
25.0
 40
25.0
 40
25.0
 40
26.0
 40
26.0
 40
26.0
 40
27.0
 40
27.0
 40
27.0
 40
28.0
 40
28.0
 40
28.0
 40
29.0
 40
29.0
 40
29.0
 40
30.0
 40
30.0
 40
30.0
 40
31.0
 40
31.0
 40
31.0
 40
32.0
 40
32.0
 40
32.0
 40
33.0
 40
33.0
 40
33.0
 40
34.0
 40
34.0
 40
34.0
 40
35.0
 40
35.0
 40
35.0
 40
36.0
 40
36.0
 40
36.0
 40
37.0
 40
37.0
 40
37.0
 40
38.0
 40
38.0
 40
38.0
 40
39.0
 40
39.0
 40
39.0
 40
40.0
 40
40.0
 40
40.0
 40
41.0
 40
41.0
 40
41.0
 40
42.0
 40
42.0
 40
42.0
 40
43.0
 40
43.0
 40
43.0
 40
44.0
 40
44.0
 40
44.0
 40
45.0
 40
45.0
 40
45.0
 40
46.0
 40
46.0
 40
46.0
 40
47.0
 40
47.0
 40
47.0
 40
48.0
 40
48.0
 40
48.0
 40
49.0
 40
49.0
 40
49.0
 40
50.0
 40
50.0
 40
50.0
 40
51.0
 40
51.0
 40
51.0
 40
52.0
 40
52.0
 40
52.0
 40
53.0
 40
53.0
 40
53.0
 40
54.0
 40
54.0
 40
54.0
 40
55.0
 40
55.0
 40
55.0
 40
56.0
 40
56.0
 40
56.0
 40
57.0
 40
57.0
 40
57.0
 40
58.0
 40
58.0
 40
58.0
 40
59.0
 40
59.0
 40
59.0
 40
60.0
 40
60.0
 40
60.0
 40
61.0
 40
61.0
 40
61.0
 40
62.0
 40
62.0
 40
62.0
 40
63.0
 40
63.0
 40
63.0
 40
64.0
 40
64.0
 40
64.0
 40
65.0
 40
65.0
 40
65.0
 40
66.0
 40
66.0
 40
66.0
 40
66.0
 10
104.7689710567071
 20
-153.4569552567746
 10
104.7689710567071
 20
-153.4569552567746
 10
104.2101765689995
 20
-153.4569552567746
 10
104.2101765689995
 20
-153.4569552567746
 10
104.1998412825438
 20
-153.5013969885343
 10
104.1912285438306
 20
-153.5330918669987
 10
104.1784816905352
 20
-153.5713324268849
 10
104.2039753971261
 20
-153.5713324268849
 10
104.2187893077126
 20
-153.5733994841761
 10
104.2249904795861
 20
-153.5733994841761
 10
104.2249904795861
 20
-153.5733994841761
 10
104.4134372026293
 20
-153.5733994841761
 10
104.4134372026293
 20
-153.5733994841761
 10
104.4134372026293
 20
-153.5733994841761
 10
104.7879190818759
 20
-153.5733994841761
 10
104.7879190818759
 20
-153.5733994841761
 10
104.8385619855091
 20
-153.5733994841761
 10
105.1220933439451
 20
-153.5606526308806
 10
105.1537882224095
 20
-153.5606526308806
 10
105.1517211651183
 20
-153.5882133947627
 10
105.1496541078271
 20
-153.6071614199315
 10
105.1496541078271
 20
-153.6367892411047
 10
105.147587050536
 20
-153.668484119569
 10
105.147587050536
 20
-153.8038763721393
 10
105.147587050536
 20
-153.8314371360213
 10
105.147587050536
 20
-153.8314371360213
 10
105.147587050536
 20
-154.0767279345711
 10
105.147587050536
 20
-154.0767279345711
 10
105.147587050536
 20
-154.1211696663308
 10
105.1517211651183
 20
-154.3178846185386
 10
105.1558552797006
 20
-154.4701578389866
 10
105.1558552797006
 20
-154.4701578389866
 10
104.9295125063197
 20
-154.4701578389866
 10
104.9295125063197
 20
-154.4701578389866
 10
104.9295125063197
 20
-154.4701578389866
 10
104.9315795636108
 20
-154.4363959032312
 10
104.9315795636108
 20
-154.4363959032312
 10
104.9315795636108
 20
-154.4363959032312
 10
104.2294691037169
 20
-154.4363959032312
 10
104.2294691037169
 20
-154.4363959032312
 10
104.2294691037169
 20
-154.4363959032312
 10
104.2315361610081
 20
-154.4701578389866
 10
104.2315361610081
 20
-154.4701578389866
 10
104.2315361610081
 20
-154.4701578389866
 10
104.0134616167917
 20
-154.4701578389866
 10
104.0134616167917
 20
-154.4701578389866
 10
104.0179402409226
 20
-154.4153808207711
 10
104.0179402409226
 20
-154.4026339674757
 10
104.024141412796
 20
-154.2882567973654
 10
104.0262084700872
 20
-154.2606960334834
 10
104.0282755273783
 20
-154.1277153477528
 10
104.0282755273783
 20
-154.1084228130354
 10
104.0282755273783
 20
-154.1084228130354
 10
104.0282755273783
 20
-153.9055066889542
 10
104.0282755273783
 20
-153.9055066889542
 10
103.8887491602257
 20
-154.1549316020862
 10
103.7195949718999
 20
-154.2861897400743
 10
103.6138305405028
 20
-154.351646554294
 10
103.6138305405028
 20
-154.351646554294
 10
103.4401977280462
 20
-154.2121201871414
 10
103.4401977280462
 20
-154.2121201871414
 10
103.5290811915656
 20
-154.1614772835082
 10
103.6730861828491
 20
-154.0746608772799
 10
103.8105454927105
 20
-153.8800129823633
 10
103.9014960135211
 20
-153.7532334685061
 10
103.9669528277409
 20
-153.6092284772227
 10
104.0007147634963
 20
-153.4569552567746
 10
103.7723049328242
 20
-153.4590223140658
 10
103.5924709484942
 20
-153.4655679954878
 10
103.4973863131013
 20
-153.4676350527789
 10
103.4973863131013
 20
-153.4676350527789
 10
103.4973863131013
 20
-153.28986812574
 10
103.4973863131013
 20
-153.28986812574
 10
103.6941012653091
 20
-153.2960692976135
 10
103.9776326237451
 20
-153.3005479217443
 10
104.1278387869021
 20
-153.3005479217443
 10
104.1278387869021
 20
-153.3005479217443
 10
104.3414347069875
 20
-153.3005479217443
 10
104.3414347069875
 20
-153.3005479217443
 10
104.3414347069875
 20
-153.3005479217443
 10
104.3414347069875
 20
-153.1923719235074
 10
104.3414347069875
 20
-153.1923719235074
 10
104.3414347069875
 20
-153.1923719235074
 10
104.195362658413
 20
-153.1923719235074
 10
104.195362658413
 20
-153.1923719235074
 10
104.0262084700872
 20
-153.1923719235074
 10
103.8570542817614
 20
-153.1968505476383
 10
103.6899671507268
 20
-153.2030517195117
 10
103.6899671507268
 20
-153.2030517195117
 10
103.6899671507268
 20
-153.0318304738948
 10
103.6899671507268
 20
-153.0318304738948
 10
103.844307428466
 20
-153.0421657603505
 10
104.0303425846695
 20
-153.0421657603505
 10
104.195362658413
 20
-153.0421657603505
 10
104.195362658413
 20
-153.0421657603505
 10
104.3414347069875
 20
-153.0421657603505
 10
104.3414347069875
 20
-153.0421657603505
 10
104.3414347069875
 20
-153.0421657603505
 10
104.3414347069875
 20
-152.9239989852065
 10
104.3414347069875
 20
-152.9239989852065
 10
104.3414347069875
 20
-152.9239989852065
 10
104.2101765689995
 20
-152.9239989852065
 10
104.2101765689995
 20
-152.9239989852065
 10
104.1636677799486
 20
-152.9239989852065
 10
103.9607516558674
 20
-152.9322672143711
 10
103.9183769813988
 20
-152.9322672143711
 10
103.7154608573176
 20
-152.9364013289534
 10
103.6389797375451
 20
-152.9384683862445
 10
103.5607760700299
 20
-152.9408799530842
 10
103.5607760700299
 20
-152.9408799530842
 10
103.5607760700299
 20
-152.7565673446233
 10
103.5607760700299
 20
-152.7565673446233
 10
103.6751532401402
 20
-152.7651800833365
 10
103.7195949718999
 20
-152.7651800833365
 10
104.1023450803112
 20
-152.7737928220496
 10
104.0389553233826
 20
-152.6783636771082
 10
104.0113945595006
 20
-152.6508029132262
 10
103.975565566454
 20
-152.6149739201796
 10
103.975565566454
 20
-152.6149739201796
 10
104.1509209266532
 20
-152.5322916285336
 10
104.1509209266532
 20
-152.5322916285336
 10
104.1912285438306
 20
-152.5684651311287
 10
104.2356702755904
 20
-152.6108398055973
 10
104.3097398285232
 20
-152.7207383515767
 10
104.3097398285232
 20
-152.7207383515767
 10
104.195362658413
 20
-152.7758598793407
 10
104.195362658413
 20
-152.7758598793407
 10
104.195362658413
 20
-152.7758598793407
 10
104.2060424544172
 20
-152.7758598793407
 10
104.2060424544172
 20
-152.7758598793407
 10
104.2060424544172
 20
-152.7758598793407
 10
104.7286634395296
 20
-152.7758598793407
 10
104.7286634395296
 20
-152.7758598793407
 10
104.7286634395296
 20
-152.7758598793407
 10
104.6335788041367
 20
-152.731418147581
 10
104.6335788041367
 20
-152.731418147581
 10
104.6607950584702
 20
-152.6931775876948
 10
104.7179836435254
 20
-152.6129068628884
 10
104.7327975541119
 20
-152.5388373099555
 10
104.7327975541119
 20
-152.5388373099555
 10
104.9463934741974
 20
-152.6022270668842
 10
104.9463934741974
 20
-152.6022270668842
 10
104.9550062129105
 20
-152.6042941241753
 10
104.9760212953706
 20
-152.6149739201796
 10
104.9760212953706
 20
-152.6359890026396
 10
104.9760212953706
 20
-152.6742295625258
 10
104.9105644811508
 20
-152.6742295625258
 10
104.8916164559819
 20
-152.6742295625258
 10
104.8809366599777
 20
-152.6931775876948
 10
104.857510010678
 20
-152.7334852048721
 10
104.8278821895048
 20
-152.7737928220496
 10
105.2278577753423
 20
-152.7672471406276
 10
105.2574855965155
 20
-152.7651800833365
 10
105.3336222067395
 20
-152.758978911463
 10
105.3336222067395
 20
-152.758978911463
 10
105.3336222067395
 20
-152.9408799530842
 10
105.3336222067395
 20
-152.9408799530842
 10
105.3146741815706
 20
-152.9408799530842
 10
105.2891804749798
 20
-152.9384683862445
 10
105.0693833830208
 20
-152.9302001570799
 10
105.0183959698391
 20
-152.9281330997888
 10
104.7985988778802
 20
-152.9239989852065
 10
104.7541571461205
 20
-152.9239989852065
 10
104.7541571461205
 20
-152.9239989852065
 10
104.5381496591953
 20
-152.9239989852065
 10
104.5381496591953
 20
-152.9239989852065
 10
104.5381496591953
 20
-152.9239989852065
 10
104.5381496591953
 20
-153.0421657603505
 10
104.5381496591953
 20
-153.0421657603505
 10
104.5381496591953
 20
-153.0421657603505
 10
104.7117824716519
 20
-153.0421657603505
 10
104.7117824716519
 20
-153.0421657603505
 10
104.8747354881042
 20
-153.0421657603505
 10
105.06490475889
 20
-153.0421657603505
 10
105.2216566034689
 20
-153.0318304738948
 10
105.2216566034689
 20
-153.0318304738948
 10
105.2216566034689
 20
-153.2030517195117
 10
105.2216566034689
 20
-153.2030517195117
 10
105.0121947979657
 20
-153.1947834903471
 10
104.8154798457579
 20
-153.1923719235074
 10
104.7117824716519
 20
-153.1923719235074
 10
104.7117824716519
 20
-153.1923719235074
 10
104.5381496591953
 20
-153.1923719235074
 10
104.5381496591953
 20
-153.1923719235074
 10
104.5381496591953
 20
-153.1923719235074
 10
104.5381496591953
 20
-153.3005479217443
 10
104.5381496591953
 20
-153.3005479217443
 10
104.5381496591953
 20
-153.3005479217443
 10
104.7689710567071
 20
-153.3005479217443
 10
104.7689710567071
 20
-153.3005479217443
 10
104.9019517424377
 20
-153.3005479217443
 10
105.1899617250046
 20
-153.2960692976135
 10
105.3990790209592
 20
-153.28986812574
 10
105.3990790209592
 20
-153.28986812574
 10
105.3990790209592
 20
-153.4676350527789
 10
105.3990790209592
 20
-153.4676350527789
 10
105.2068426928823
 20
-153.4610893713569
 10
104.8936835132731
 20
-153.4569552567746
 10
104.7689710567071
 20
-153.4569552567746
 97
        0
 97
        1
330
D6
 75
     2
 76
     1
 98
        1
 10
0.0
 20
0.0
450
        0
451
        0
460
0.0
461
0.0
452
        0
462
0.0
453
        0
470

  0
SPLINE
  5
D8
330
CB
100
AcDbEntity
  8
レイヤー 1
100
AcDbSpline
210
0.0
220
0.0
230
1.0
 70
     9
 71
     3
 72
    29
 73
    25
 74
     0
 42
0.0000000001
 43
0.0000000001
 40
0.0
 40
0.0
 40
0.0
 40
0.0
 40
1.0
 40
1.0
 40
1.0
 40
2.0
 40
2.0
 40
2.0
 40
3.0
 40
3.0
 40
3.0
 40
4.0
 40
4.0
 40
4.0
 40
5.0
 40
5.0
 40
5.0
 40
6.0
 40
6.0
 40
6.0
 40
7.0
 40
7.0
 40
7.0
 40
8.0
 40
8.0
 40
8.0
 40
8.0
 10
106.6439642745543
 20
-152.9047064504891
 30
0.0
 10
106.6439642745543
 20
-152.9047064504891
 30
0.0
 10
106.2908419873161
 20
-152.9047064504891
 30
0.0
 10
106.2908419873161
 20
-152.9047064504891
 30
0.0
 10
106.178531874497
 20
-152.9047064504891
 30
0.0
 10
106.0390055073444
 20
-152.9112521319111
 30
0.0
 10
105.9311740186561
 20
-152.9239989852065
 30
0.0
 10
105.9311740186561
 20
-152.9239989852065
 30
0.0
 10
105.9311740186561
 20
-152.6890434731124
 30
0.0
 10
105.9311740186561
 20
-152.6890434731124
 30
0.0
 10
106.0493407938001
 20
-152.703857383699
 30
0.0
 10
106.233653402261
 20
-152.7079914982813
 30
0.0
 10
106.2908419873161
 20
-152.7079914982813
 30
0.0
 10
106.2908419873161
 20
-152.7079914982813
 30
0.0
 10
106.6439642745543
 20
-152.7079914982813
 30
0.0
 10
106.6439642745543
 20
-152.7079914982813
 30
0.0
 10
106.6629122997231
 20
-152.7079914982813
 30
0.0
 10
106.8661729333529
 20
-152.7079914982813
 30
0.0
 10
107.0077663577966
 20
-152.6890434731124
 30
0.0
 10
107.0077663577966
 20
-152.6890434731124
 30
0.0
 10
107.0077663577966
 20
-152.9239989852065
 30
0.0
 10
107.0077663577966
 20
-152.9239989852065
 30
0.0
 10
106.8513590227663
 20
-152.9047064504891
 30
0.0
 10
106.660845242432
 20
-152.9047064504891
 30
0.0
 10
106.6439642745543
 20
-152.9047064504891
 30
0.0
  0
SPLINE
  5
D9
330
CB
100
AcDbEntity
  8
レイヤー 1
100
AcDbSpline
210
0.0
220
0.0
230
1.0
 70
     9
 71
     3
 72
    47
 73
    43
 74
     0
 42
0.0000000001
 43
0.0000000001
 40
0.0
 40
0.0
 40
0.0
 40
0.0
 40
1.0
 40
1.0
 40
1.0
 40
2.0
 40
2.0
 40
2.0
 40
3.0
 40
3.0
 40
3.0
 40
4.0
 40
4.0
 40
4.0
 40
5.0
 40
5.0
 40
5.0
 40
6.0
 40
6.0
 40
6.0
 40
7.0
 40
7.0
 40
7.0
 40
8.0
 40
8.0
 40
8.0
 40
9.0
 40
9.0
 40
9.0
 40
10.0
 40
10.0
 40
10.0
 40
11.0
 40
11.0
 40
11.0
 40
12.0
 40
12.0
 40
12.0
 40
13.0
 40
13.0
 40
13.0
 40
14.0
 40
14.0
 40
14.0
 40
14.0
 10
106.7455945913691
 20
-153.4335286074749
 30
0.0
 10
106.7455945913691
 20
-153.4335286074749
 30
0.0
 10
106.6439642745543
 20
-153.4335286074749
 30
0.0
 10
106.6439642745543
 20
-153.4335286074749
 30
0.0
 10
106.6439642745543
 20
-153.5203450137032
 30
0.0
 10
106.6229491920942
 20
-153.9096408035365
 30
0.0
 10
106.4258897303379
 20
-154.1297824050439
 30
0.0
 10
106.2736165098899
 20
-154.2989365933697
 30
0.0
 10
106.0665662712264
 20
-154.3688720317203
 30
0.0
 10
105.9818169222892
 20
-154.3960882860537
 30
0.0
 10
105.9818169222892
 20
-154.3960882860537
 30
0.0
 10
105.7871690273726
 20
-154.2290011550191
 30
0.0
 10
105.7871690273726
 20
-154.2290011550191
 30
0.0
 10
105.8843207200567
 20
-154.2162543017237
 30
0.0
 10
106.0600205898044
 20
-154.1931721619725
 30
0.0
 10
106.2484673128476
 20
-154.0047254389294
 30
0.0
 10
106.3225368657805
 20
-153.9330674528362
 30
0.0
 10
106.4258897303379
 20
-153.793196576135
 30
0.0
 10
106.4258897303379
 20
-153.4335286074749
 30
0.0
 10
106.4258897303379
 20
-153.4335286074749
 30
0.0
 10
106.1954128423747
 20
-153.4335286074749
 30
0.0
 10
106.1954128423747
 20
-153.4335286074749
 30
0.0
 10
106.0093776861712
 20
-153.4335286074749
 30
0.0
 10
105.8229980204192
 20
-153.4380072316058
 30
0.0
 10
105.6369628642157
 20
-153.4528211421923
 30
0.0
 10
105.6369628642157
 20
-153.4528211421923
 30
0.0
 10
105.6369628642157
 20
-153.2326795406849
 30
0.0
 10
105.6369628642157
 20
-153.2326795406849
 30
0.0
 10
105.8254095872589
 20
-153.2474934512715
 30
0.0
 10
106.1110080029861
 20
-153.2516275658537
 30
0.0
 10
106.1954128423747
 20
-153.2516275658537
 30
0.0
 10
106.1954128423747
 20
-153.2516275658537
 30
0.0
 10
106.7455945913691
 20
-153.2516275658537
 30
0.0
 10
106.7455945913691
 20
-153.2516275658537
 30
0.0
 10
106.764542616538
 20
-153.2516275658537
 30
0.0
 10
107.0818359107295
 20
-153.2516275658537
 30
0.0
 10
107.3102457414016
 20
-153.2326795406849
 30
0.0
 10
107.3102457414016
 20
-153.2326795406849
 30
0.0
 10
107.3102457414016
 20
-153.4528211421923
 30
0.0
 10
107.3102457414016
 20
-153.4528211421923
 30
0.0
 10
107.1221435279069
 20
-153.4380072316058
 30
0.0
 10
106.9336968048638
 20
-153.4335286074749
 30
0.0
 10
106.7455945913691
 20
-153.4335286074749
 30
0.0
  0
HATCH
  5
DA
330
CB
100
AcDbEntity
  8
レイヤー 1
 62
   250
420
  2299925
440
 33554687
100
AcDbHatch
 10
0.0
 20
0.0
 30
0.0
210
0.0
220
0.0
230
1.0
  2
SOLID
 70
     1
 71
     1
 91
        2
 92
        1
 93
        1
 72
     4
 94
        3
 73
     0
 74
     0
 95
       29
 96
       25
 40
0.0
 40
0.0
 40
0.0
 40
0.0
 40
1.0
 40
1.0
 40
1.0
 40
2.0
 40
2.0
 40
2.0
 40
3.0
 40
3.0
 40
3.0
 40
4.0
 40
4.0
 40
4.0
 40
5.0
 40
5.0
 40
5.0
 40
6.0
 40
6.0
 40
6.0
 40
7.0
 40
7.0
 40
7.0
 40
8.0
 40
8.0
 40
8.0
 40
8.0
 10
106.6439642745543
 20
-152.9047064504891
 10
106.6439642745543
 20
-152.9047064504891
 10
106.2908419873161
 20
-152.9047064504891
 10
106.2908419873161
 20
-152.9047064504891
 10
106.178531874497
 20
-152.9047064504891
 10
106.0390055073444
 20
-152.9112521319111
 10
105.9311740186561
 20
-152.9239989852065
 10
105.9311740186561
 20
-152.9239989852065
 10
105.9311740186561
 20
-152.6890434731124
 10
105.9311740186561
 20
-152.6890434731124
 10
106.0493407938001
 20
-152.703857383699
 10
106.233653402261
 20
-152.7079914982813
 10
106.2908419873161
 20
-152.7079914982813
 10
106.2908419873161
 20
-152.7079914982813
 10
106.6439642745543
 20
-152.7079914982813
 10
106.6439642745543
 20
-152.7079914982813
 10
106.6629122997231
 20
-152.7079914982813
 10
106.8661729333529
 20
-152.7079914982813
 10
107.0077663577966
 20
-152.6890434731124
 10
107.0077663577966
 20
-152.6890434731124
 10
107.0077663577966
 20
-152.9239989852065
 10
107.0077663577966
 20
-152.9239989852065
 10
106.8513590227663
 20
-152.9047064504891
 10
106.660845242432
 20
-152.9047064504891
 10
106.6439642745543
 20
-152.9047064504891
 97
        0
 97
        1
330
D8
 92
        1
 93
        1
 72
     4
 94
        3
 73
     0
 74
     0
 95
       47
 96
       43
 40
0.0
 40
0.0
 40
0.0
 40
0.0
 40
1.0
 40
1.0
 40
1.0
 40
2.0
 40
2.0
 40
2.0
 40
3.0
 40
3.0
 40
3.0
 40
4.0
 40
4.0
 40
4.0
 40
5.0
 40
5.0
 40
5.0
 40
6.0
 40
6.0
 40
6.0
 40
7.0
 40
7.0
 40
7.0
 40
8.0
 40
8.0
 40
8.0
 40
9.0
 40
9.0
 40
9.0
 40
10.0
 40
10.0
 40
10.0
 40
11.0
 40
11.0
 40
11.0
 40
12.0
 40
12.0
 40
12.0
 40
13.0
 40
13.0
 40
13.0
 40
14.0
 40
14.0
 40
14.0
 40
14.0
 10
106.7455945913691
 20
-153.4335286074749
 10
106.7455945913691
 20
-153.4335286074749
 10
106.6439642745543
 20
-153.4335286074749
 10
106.6439642745543
 20
-153.4335286074749
 10
106.6439642745543
 20
-153.5203450137032
 10
106.6229491920942
 20
-153.9096408035365
 10
106.4258897303379
 20
-154.1297824050439
 10
106.2736165098899
 20
-154.2989365933697
 10
106.0665662712264
 20
-154.3688720317203
 10
105.9818169222892
 20
-154.3960882860537
 10
105.9818169222892
 20
-154.3960882860537
 10
105.7871690273726
 20
-154.2290011550191
 10
105.7871690273726
 20
-154.2290011550191
 10
105.8843207200567
 20
-154.2162543017237
 10
106.0600205898044
 20
-154.1931721619725
 10
106.2484673128476
 20
-154.0047254389294
 10
106.3225368657805
 20
-153.9330674528362
 10
106.4258897303379
 20
-153.793196576135
 10
106.4258897303379
 20
-153.4335286074749
 10
106.4258897303379
 20
-153.4335286074749
 10
106.1954128423747
 20
-153.4335286074749
 10
106.1954128423747
 20
-153.4335286074749
 10
106.0093776861712
 20
-153.4335286074749
 10
105.8229980204192
 20
-153.4380072316058
 10
105.6369628642157
 20
-153.4528211421923
 10
105.6369628642157
 20
-153.4528211421923
 10
105.6369628642157
 20
-153.2326795406849
 10
105.6369628642157
 20
-153.2326795406849
 10
105.8254095872589
 20
-153.2474934512715
 10
106.1110080029861
 20
-153.2516275658537
 10
106.1954128423747
 20
-153.2516275658537
 10
106.1954128423747
 20
-153.2516275658537
 10
106.7455945913691
 20
-153.2516275658537
 10
106.7455945913691
 20
-153.2516275658537
 10
106.764542616538
 20
-153.2516275658537
 10
107.0818359107295
 20
-153.2516275658537
 10
107.3102457414016
 20
-153.2326795406849
 10
107.3102457414016
 20
-153.2326795406849
 10
107.3102457414016
 20
-153.4528211421923
 10
107.3102457414016
 20
-153.4528211421923
 10
107.1221435279069
 20
-153.4380072316058
 10
106.9336968048638
 20
-153.4335286074749
 10
106.7455945913691
 20
-153.4335286074749
 97
        0
 97
        1
330
D9
 75
     2
 76
     1
 98
        1
 10
0.0
 20
0.0
450
        0
451
        0
460
0.0
461
0.0
452
        0
462
0.0
453
        0
470

  0
SPLINE
  5
DB
330
CB
100
AcDbEntity
  8
レイヤー 1
100
AcDbSpline
210
0.0
220
0.0
230
1.0
 70
     9
 71
     3
 72
    29
 73
    25
 74
     0
 42
0.0000000001
 43
0.0000000001
 40
0.0
 40
0.0
 40
0.0
 40
0.0
 40
1.0
 40
1.0
 40
1.0
 40
2.0
 40
2.0
 40
2.0
 40
3.0
 40
3.0
 40
3.0
 40
4.0
 40
4.0
 40
4.0
 40
5.0
 40
5.0
 40
5.0
 40
6.0
 40
6.0
 40
6.0
 40
7.0
 40
7.0
 40
7.0
 40
8.0
 40
8.0
 40
8.0
 40
8.0
 10
108.591476752366
 20
-153.5964816239272
 30
0.0
 10
108.591476752366
 20
-153.5964816239272
 30
0.0
 10
108.1070963271399
 20
-153.5964816239272
 30
0.0
 10
108.1070963271399
 20
-153.5964816239272
 30
0.0
 10
108.0795355632579
 20
-153.5964816239272
 30
0.0
 10
107.7622422690664
 20
-153.5964816239272
 30
0.0
 10
107.550713406272
 20
-153.6219753305181
 30
0.0
 10
107.550713406272
 20
-153.6219753305181
 30
0.0
 10
107.550713406272
 20
-153.3914984425549
 30
0.0
 10
107.550713406272
 20
-153.3914984425549
 30
0.0
 10
107.7091877985935
 20
-153.4145805823061
 30
0.0
 10
107.8997015789278
 20
-153.4166476395972
 30
0.0
 10
108.1070963271399
 20
-153.4166476395972
 30
0.0
 10
108.1070963271399
 20
-153.4166476395972
 30
0.0
 10
108.591476752366
 20
-153.4166476395972
 30
0.0
 10
108.591476752366
 20
-153.4166476395972
 30
0.0
 10
108.7775119085695
 20
-153.4166476395972
 30
0.0
 10
108.9638915743215
 20
-153.4145805823061
 30
0.0
 10
109.1478596732338
 20
-153.3914984425549
 30
0.0
 10
109.1478596732338
 20
-153.3914984425549
 30
0.0
 10
109.1478596732338
 20
-153.6219753305181
 30
0.0
 10
109.1478596732338
 20
-153.6219753305181
 30
0.0
 10
108.9638915743215
 20
-153.5985486812184
 30
0.0
 10
108.716189208932
 20
-153.5964816239272
 30
0.0
 10
108.591476752366
 20
-153.5964816239272
 30
0.0
  0
HATCH
  5
DC
330
CB
100
AcDbEntity
  8
レイヤー 1
 62
   250
420
  2299925
440
 33554687
100
AcDbHatch
 10
0.0
 20
0.0
 30
0.0
210
0.0
220
0.0
230
1.0
  2
SOLID
 70
     1
 71
     1
 91
        1
 92
        1
 93
        1
 72
     4
 94
        3
 73
     0
 74
     0
 95
       29
 96
       25
 40
0.0
 40
0.0
 40
0.0
 40
0.0
 40
1.0
 40
1.0
 40
1.0
 40
2.0
 40
2.0
 40
2.0
 40
3.0
 40
3.0
 40
3.0
 40
4.0
 40
4.0
 40
4.0
 40
5.0
 40
5.0
 40
5.0
 40
6.0
 40
6.0
 40
6.0
 40
7.0
 40
7.0
 40
7.0
 40
8.0
 40
8.0
 40
8.0
 40
8.0
 10
108.591476752366
 20
-153.5964816239272
 10
108.591476752366
 20
-153.5964816239272
 10
108.1070963271399
 20
-153.5964816239272
 10
108.1070963271399
 20
-153.5964816239272
 10
108.0795355632579
 20
-153.5964816239272
 10
107.7622422690664
 20
-153.5964816239272
 10
107.550713406272
 20
-153.6219753305181
 10
107.550713406272
 20
-153.6219753305181
 10
107.550713406272
 20
-153.3914984425549
 10
107.550713406272
 20
-153.3914984425549
 10
107.7091877985935
 20
-153.4145805823061
 10
107.8997015789278
 20
-153.4166476395972
 10
108.1070963271399
 20
-153.4166476395972
 10
108.1070963271399
 20
-153.4166476395972
 10
108.591476752366
 20
-153.4166476395972
 10
108.591476752366
 20
-153.4166476395972
 10
108.7775119085695
 20
-153.4166476395972
 10
108.9638915743215
 20
-153.4145805823061
 10
109.1478596732338
 20
-153.3914984425549
 10
109.1478596732338
 20
-153.3914984425549
 10
109.1478596732338
 20
-153.6219753305181
 10
109.1478596732338
 20
-153.6219753305181
 10
108.9638915743215
 20
-153.5985486812184
 10
108.716189208932
 20
-153.5964816239272
 10
108.591476752366
 20
-153.5964816239272
 97
        0
 97
        1
330
DB
 75
     2
 76
     1
 98
        1
 10
0.0
 20
0.0
450
        0
451
        0
460
0.0
461
0.0
452
        0
462
0.0
453
        0
470

  0
SPLINE
  5
DD
330
CB
100
AcDbEntity
  8
レイヤー 1
100
AcDbSpline
210
0.0
220
0.0
230
1.0
 70
     9
 71
     3
 72
    17
 73
    13
 74
     0
 42
0.0000000001
 43
0.0000000001
 40
0.0
 40
0.0
 40
0.0
 40
0.0
 40
1.0
 40
1.0
 40
1.0
 40
2.0
 40
2.0
 40
2.0
 40
3.0
 40
3.0
 40
3.0
 40
4.0
 40
4.0
 40
4.0
 40
4.0
 10
111.0102782925599
 20
-152.6297878307661
 30
0.0
 10
110.9555012743444
 20
-152.6297878307661
 30
0.0
 10
110.9110595425847
 20
-152.6742295625258
 30
0.0
 10
110.9110595425847
 20
-152.7293510902899
 30
0.0
 10
110.9110595425847
 20
-152.7861951657965
 30
0.0
 10
110.9555012743444
 20
-152.835115521687
 30
0.0
 10
111.0144124071422
 20
-152.835115521687
 30
0.0
 10
111.0736680494885
 20
-152.835115521687
 30
0.0
 10
111.1139756666659
 20
-152.7841281085053
 30
0.0
 10
111.1139756666659
 20
-152.731418147581
 30
0.0
 10
111.1139756666659
 20
-152.6742295625258
 30
0.0
 10
111.0674668776151
 20
-152.6297878307661
 30
0.0
 10
111.0102782925599
 20
-152.6297878307661
 30
0.0
  0
SPLINE
  5
DE
330
CB
100
AcDbEntity
  8
レイヤー 1
100
AcDbSpline
210
0.0
220
0.0
230
1.0
 70
     9
 71
     3
 72
    17
 73
    13
 74
     0
 42
0.0000000001
 43
0.0000000001
 40
0.0
 40
0.0
 40
0.0
 40
0.0
 40
1.0
 40
1.0
 40
1.0
 40
2.0
 40
2.0
 40
2.0
 40
3.0
 40
3.0
 40
3.0
 40
4.0
 40
4.0
 40
4.0
 40
4.0
 10
111.0123453498511
 20
-152.9598279782531
 30
0.0
 10
110.8855658359939
 20
-152.9598279782531
 30
0.0
 10
110.783935519179
 20
-152.8581976614382
 30
0.0
 10
110.783935519179
 20
-152.731418147581
 30
0.0
 10
110.783935519179
 20
-152.6042941241753
 30
0.0
 10
110.8855658359939
 20
-152.5005967500693
 30
0.0
 10
111.0123453498511
 20
-152.5005967500693
 30
0.0
 10
111.1394693732568
 20
-152.5005967500693
 30
0.0
 10
111.2431667473628
 20
-152.6042941241753
 30
0.0
 10
111.2431667473628
 20
-152.731418147581
 30
0.0
 10
111.2431667473628
 20
-152.8581976614382
 30
0.0
 10
111.1394693732568
 20
-152.9598279782531
 30
0.0
 10
111.0123453498511
 20
-152.9598279782531
 30
0.0
  0
SPLINE
  5
DF
330
CB
100
AcDbEntity
  8
レイヤー 1
100
AcDbSpline
210
0.0
220
0.0
230
1.0
 70
     9
 71
     3
 72
    44
 73
    40
 74
     0
 42
0.0000000001
 43
0.0000000001
 40
0.0
 40
0.0
 40
0.0
 40
0.0
 40
1.0
 40
1.0
 40
1.0
 40
2.0
 40
2.0
 40
2.0
 40
3.0
 40
3.0
 40
3.0
 40
4.0
 40
4.0
 40
4.0
 40
5.0
 40
5.0
 40
5.0
 40
6.0
 40
6.0
 40
6.0
 40
7.0
 40
7.0
 40
7.0
 40
8.0
 40
8.0
 40
8.0
 40
9.0
 40
9.0
 40
9.0
 40
10.0
 40
10.0
 40
10.0
 40
11.0
 40
11.0
 40
11.0
 40
12.0
 40
12.0
 40
12.0
 40
13.0
 40
13.0
 40
13.0
 40
13.0
 10
110.8028835443479
 20
-153.158609987752
 30
0.0
 10
110.6909179410773
 20
-153.5268906951252
 30
0.0
 10
110.6402750374441
 20
-153.6853650874467
 30
0.0
 10
110.4435600852363
 20
-153.9351345101273
 30
0.0
 10
110.2592474767754
 20
-154.1656113980906
 30
0.0
 10
110.0225694169388
 20
-154.351646554294
 30
0.0
 10
109.743172173085
 20
-154.4450086419443
 30
0.0
 10
109.743172173085
 20
-154.4450086419443
 30
0.0
 10
109.5505913354596
 20
-154.2651746576142
 30
0.0
 10
109.5505913354596
 20
-154.2651746576142
 30
0.0
 10
110.1917236052645
 20
-154.1129014371662
 30
0.0
 10
110.5217637527515
 20
-153.5565185162984
 30
0.0
 10
110.5851535096801
 20
-153.1162353132834
 30
0.0
 10
110.5851535096801
 20
-153.1162353132834
 30
0.0
 10
109.8193087833091
 20
-153.1162353132834
 30
0.0
 10
109.8193087833091
 20
-153.1162353132834
 30
0.0
 10
109.7262912052073
 20
-153.1162353132834
 30
0.0
 10
109.542323106295
 20
-153.1207139374143
 30
0.0
 10
109.3855712617161
 20
-153.1396619625831
 30
0.0
 10
109.3855712617161
 20
-153.1396619625831
 30
0.0
 10
109.3855712617161
 20
-152.9195203610757
 30
0.0
 10
109.3855712617161
 20
-152.9195203610757
 30
0.0
 10
109.4723876679444
 20
-152.9408799530842
 30
0.0
 10
109.7242241479162
 20
-152.9408799530842
 30
0.0
 10
109.8234428978913
 20
-152.9408799530842
 30
0.0
 10
109.8234428978913
 20
-152.9408799530842
 30
0.0
 10
110.2551133621932
 20
-152.9408799530842
 30
0.0
 10
110.2551133621932
 20
-152.9408799530842
 30
0.0
 10
110.2974880366617
 20
-152.9408799530842
 30
0.0
 10
110.5320990392072
 20
-152.9384683862445
 30
0.0
 10
110.5703395990935
 20
-152.9322672143711
 30
0.0
 10
110.6127142735621
 20
-152.9260660424976
 30
0.0
 10
110.6147813308532
 20
-152.9239989852065
 30
0.0
 10
110.6761040304907
 20
-152.8836913680291
 30
0.0
 10
110.6761040304907
 20
-152.8836913680291
 30
0.0
 10
110.8645507535338
 20
-153.0380316457683
 30
0.0
 10
110.8645507535338
 20
-153.0380316457683
 30
0.0
 10
110.8349229323607
 20
-153.0676594669414
 30
0.0
 10
110.8201090217741
 20
-153.0993543454057
 30
0.0
 10
110.8028835443479
 20
-153.158609987752
 30
0.0
  0
HATCH
  5
E0
330
CB
100
AcDbEntity
  8
レイヤー 1
 62
   250
420
  2299925
440
 33554687
100
AcDbHatch
 10
0.0
 20
0.0
 30
0.0
210
0.0
220
0.0
230
1.0
  2
SOLID
 70
     1
 71
     1
 91
        3
 92
        1
 93
        1
 72
     4
 94
        3
 73
     0
 74
     0
 95
       17
 96
       13
 40
0.0
 40
0.0
 40
0.0
 40
0.0
 40
1.0
 40
1.0
 40
1.0
 40
2.0
 40
2.0
 40
2.0
 40
3.0
 40
3.0
 40
3.0
 40
4.0
 40
4.0
 40
4.0
 40
4.0
 10
111.0102782925599
 20
-152.6297878307661
 10
110.9555012743444
 20
-152.6297878307661
 10
110.9110595425847
 20
-152.6742295625258
 10
110.9110595425847
 20
-152.7293510902899
 10
110.9110595425847
 20
-152.7861951657965
 10
110.9555012743444
 20
-152.835115521687
 10
111.0144124071422
 20
-152.835115521687
 10
111.0736680494885
 20
-152.835115521687
 10
111.1139756666659
 20
-152.7841281085053
 10
111.1139756666659
 20
-152.731418147581
 10
111.1139756666659
 20
-152.6742295625258
 10
111.0674668776151
 20
-152.6297878307661
 10
111.0102782925599
 20
-152.6297878307661
 97
        0
 97
        1
330
DD
 92
        1
 93
        1
 72
     4
 94
        3
 73
     0
 74
     0
 95
       17
 96
       13
 40
0.0
 40
0.0
 40
0.0
 40
0.0
 40
1.0
 40
1.0
 40
1.0
 40
2.0
 40
2.0
 40
2.0
 40
3.0
 40
3.0
 40
3.0
 40
4.0
 40
4.0
 40
4.0
 40
4.0
 10
111.0123453498511
 20
-152.9598279782531
 10
110.8855658359939
 20
-152.9598279782531
 10
110.783935519179
 20
-152.8581976614382
 10
110.783935519179
 20
-152.731418147581
 10
110.783935519179
 20
-152.6042941241753
 10
110.8855658359939
 20
-152.5005967500693
 10
111.0123453498511
 20
-152.5005967500693
 10
111.1394693732568
 20
-152.5005967500693
 10
111.2431667473628
 20
-152.6042941241753
 10
111.2431667473628
 20
-152.731418147581
 10
111.2431667473628
 20
-152.8581976614382
 10
111.1394693732568
 20
-152.9598279782531
 10
111.0123453498511
 20
-152.9598279782531
 97
        0
 97
        1
330
DE
 92
        1
 93
        1
 72
     4
 94
        3
 73
     0
 74
     0
 95
       44
 96
       40
 40
0.0
 40
0.0
 40
0.0
 40
0.0
 40
1.0
 40
1.0
 40
1.0
 40
2.0
 40
2.0
 40
2.0
 40
3.0
 40
3.0
 40
3.0
 40
4.0
 40
4.0
 40
4.0
 40
5.0
 40
5.0
 40
5.0
 40
6.0
 40
6.0
 40
6.0
 40
7.0
 40
7.0
 40
7.0
 40
8.0
 40
8.0
 40
8.0
 40
9.0
 40
9.0
 40
9.0
 40
10.0
 40
10.0
 40
10.0
 40
11.0
 40
11.0
 40
11.0
 40
12.0
 40
12.0
 40
12.0
 40
13.0
 40
13.0
 40
13.0
 40
13.0
 10
110.8028835443479
 20
-153.158609987752
 10
110.6909179410773
 20
-153.5268906951252
 10
110.6402750374441
 20
-153.6853650874467
 10
110.4435600852363
 20
-153.9351345101273
 10
110.2592474767754
 20
-154.1656113980906
 10
110.0225694169388
 20
-154.351646554294
 10
109.743172173085
 20
-154.4450086419443
 10
109.743172173085
 20
-154.4450086419443
 10
109.5505913354596
 20
-154.2651746576142
 10
109.5505913354596
 20
-154.2651746576142
 10
110.1917236052645
 20
-154.1129014371662
 10
110.5217637527515
 20
-153.5565185162984
 10
110.5851535096801
 20
-153.1162353132834
 10
110.5851535096801
 20
-153.1162353132834
 10
109.8193087833091
 20
-153.1162353132834
 10
109.8193087833091
 20
-153.1162353132834
 10
109.7262912052073
 20
-153.1162353132834
 10
109.542323106295
 20
-153.1207139374143
 10
109.3855712617161
 20
-153.1396619625831
 10
109.3855712617161
 20
-153.1396619625831
 10
109.3855712617161
 20
-152.9195203610757
 10
109.3855712617161
 20
-152.9195203610757
 10
109.4723876679444
 20
-152.9408799530842
 10
109.7242241479162
 20
-152.9408799530842
 10
109.8234428978913
 20
-152.9408799530842
 10
109.8234428978913
 20
-152.9408799530842
 10
110.2551133621932
 20
-152.9408799530842
 10
110.2551133621932
 20
-152.9408799530842
 10
110.2974880366617
 20
-152.9408799530842
 10
110.5320990392072
 20
-152.9384683862445
 10
110.5703395990935
 20
-152.9322672143711
 10
110.6127142735621
 20
-152.9260660424976
 10
110.6147813308532
 20
-152.9239989852065
 10
110.6761040304907
 20
-152.8836913680291
 10
110.6761040304907
 20
-152.8836913680291
 10
110.8645507535338
 20
-153.0380316457683
 10
110.8645507535338
 20
-153.0380316457683
 10
110.8349229323607
 20
-153.0676594669414
 10
110.8201090217741
 20
-153.0993543454057
 10
110.8028835443479
 20
-153.158609987752
 97
        0
 97
        1
330
DF
 75
     2
 76
     1
 98
        1
 10
0.0
 20
0.0
450
        0
451
        0
460
0.0
461
0.0
452
        0
462
0.0
453
        0
470

  0
ENDBLK
  5
CE
330
CB
100
AcDbEntity
  8
0
100
AcDbBlockEnd
  0
BLOCK
  5
E3
330
E1
100
AcDbEntity
  8
0
100
AcDbBlockBegin
  2
Block_9
 70
     0
 10
0.0
 20
0.0
 30
0.0
  3
Block_9
  1

  0
LWPOLYLINE
  5
E5
330
E1
100
AcDbEntity
  8
レイヤー 1
 62
   250
420
  2299925
370
     9
100
AcDbPolyline
 90
       10
 70
     1
 43
0.0
 10
113.5147665975297
 20
-160.1552696910575
 10
113.6531684313853
 20
-154.6915520304493
 10
115.4336575859607
 20
-153.7303652549707
 10
115.4001549868157
 20
-155.0437738214626
 10
120.4253445958017
 20
-152.2224942934397
 10
120.4228524586757
 20
-152.3155090910672
 10
115.1632745928587
 20
-155.3994754123883
 10
115.1975165971092
 20
-154.0587618465924
 10
113.8791268256208
 20
-154.7681838284935
 10
113.6452182315873
 20
-160.0818382929313
  0
LWPOLYLINE
  5
E6
330
E1
100
AcDbEntity
  8
レイヤー 1
 62
   250
420
  2299925
370
     9
100
AcDbPolyline
 90
        4
 70
     0
 43
0.0
 10
129.3448562310564
 20
-157.6046017561305
 10
120.4228524586757
 20
-152.3155090910672
 10
120.4253445958017
 20
-152.2224942934397
 10
129.3547876308033
 20
-157.5048813586749
  0
LWPOLYLINE
  5
E7
330
E1
100
AcDbEntity
  8
レイヤー 1
 62
   250
420
  2299925
370
     9
100
AcDbPolyline
 90
        4
 70
     0
 43
0.0
 10
122.4369962072911
 20
-165.4443604843411
 10
113.5147665975297
 20
-160.1552696910575
 10
113.6452182315873
 20
-160.0818382929313
 10
122.6064142029689
 20
-165.3458865586338
  0
LINE
  5
E8
330
E1
100
AcDbEntity
  8
レイヤー 1
 62
   250
420
  2299925
370
     9
100
AcDbLine
 10
115.1632745928587
 20
-155.3994754123883
 30
0.0
 11
124.1373737639106
 21
-160.7086594769399
 31
0.0
  0
LINE
  5
E9
330
E1
100
AcDbEntity
  8
レイヤー 1
 62
   250
420
  2299925
370
     9
100
AcDbLine
 10
115.4336575859607
 20
-153.7303652549707
 30
0.0
 11
116.5528323574087
 21
-154.396861237967
 31
0.0
  0
LINE
  5
EA
330
E1
100
AcDbEntity
  8
レイヤー 1
 62
   250
420
  2299925
370
     9
100
AcDbLine
 10
113.8791268256208
 20
-154.7681838284935
 30
0.0
 11
123.9786237679607
 21
-160.7500868758832
 31
0.0
  0
INSERT
  5
EC
330
E1
100
AcDbEntity
  8
レイヤー 1
100
AcDbBlockReference
  2
Block_10
 10
0.0
 20
0.0
 30
0.0
  0
INSERT
  5
F2
330
E1
100
AcDbEntity
  8
レイヤー 1
100
AcDbBlockReference
  2
Block_11
 10
0.0
 20
0.0
 30
0.0
  0
INSERT
  5
F8
330
E1
100
AcDbEntity
  8
レイヤー 1
100
AcDbBlockReference
  2
Block_12
 10
0.0
 20
0.0
 30
0.0
  0
INSERT
  5
FE
330
E1
100
AcDbEntity
  8
レイヤー 1
100
AcDbBlockReference
  2
Block_13
 10
0.0
 20
0.0
 30
0.0
  0
INSERT
  5
104
330
E1
100
AcDbEntity
  8
レイヤー 1
100
AcDbBlockReference
  2
Block_14
 10
0.0
 20
0.0
 30
0.0
  0
INSERT
  5
10A
330
E1
100
AcDbEntity
  8
レイヤー 1
100
AcDbBlockReference
  2
Block_15
 10
0.0
 20
0.0
 30
0.0
  0
INSERT
  5
110
330
E1
100
AcDbEntity
  8
レイヤー 1
100
AcDbBlockReference
  2
Block_16
 10
0.0
 20
0.0
 30
0.0
  0
INSERT
  5
116
330
E1
100
AcDbEntity
  8
レイヤー 1
100
AcDbBlockReference
  2
Block_17
 10
0.0
 20
0.0
 30
0.0
  0
INSERT
  5
11C
330
E1
100
AcDbEntity
  8
レイヤー 1
100
AcDbBlockReference
  2
Block_18
 10
0.0
 20
0.0
 30
0.0
  0
INSERT
  5
122
330
E1
100
AcDbEntity
  8
レイヤー 1
100
AcDbBlockReference
  2
Block_19
 10
0.0
 20
0.0
 30
0.0
  0
INSERT
  5
128
330
E1
100
AcDbEntity
  8
レイヤー 1
100
AcDbBlockReference
  2
Block_20
 10
0.0
 20
0.0
 30
0.0
  0
INSERT
  5
12E
330
E1
100
AcDbEntity
  8
レイヤー 1
100
AcDbBlockReference
  2
Block_21
 10
0.0
 20
0.0
 30
0.0
  0
INSERT
  5
134
330
E1
100
AcDbEntity
  8
レイヤー 1
100
AcDbBlockReference
  2
Block_22
 10
0.0
 20
0.0
 30
0.0
  0
INSERT
  5
13A
330
E1
100
AcDbEntity
  8
レイヤー 1
100
AcDbBlockReference
  2
Block_23
 10
0.0
 20
0.0
 30
0.0
  0
INSERT
  5
140
330
E1
100
AcDbEntity
  8
レイヤー 1
100
AcDbBlockReference
  2
Block_24
 10
0.0
 20
0.0
 30
0.0
  0
INSERT
  5
146
330
E1
100
AcDbEntity
  8
レイヤー 1
100
AcDbBlockReference
  2
Block_25
 10
0.0
 20
0.0
 30
0.0
  0
INSERT
  5
14C
330
E1
100
AcDbEntity
  8
レイヤー 1
100
AcDbBlockReference
  2
Block_26
 10
0.0
 20
0.0
 30
0.0
  0
INSERT
  5
152
330
E1
100
AcDbEntity
  8
レイヤー 1
100
AcDbBlockReference
  2
Block_27
 10
0.0
 20
0.0
 30
0.0
  0
INSERT
  5
158
330
E1
100
AcDbEntity
  8
レイヤー 1
100
AcDbBlockReference
  2
Block_28
 10
0.0
 20
0.0
 30
0.0
  0
INSERT
  5
15E
330
E1
100
AcDbEntity
  8
レイヤー 1
100
AcDbBlockReference
  2
Block_29
 10
0.0
 20
0.0
 30
0.0
  0
ENDBLK
  5
E4
330
E1
100
AcDbEntity
  8
0
100
AcDbBlockEnd
  0
BLOCK
  5
ED
330
EB
100
AcDbEntity
  8
0
100
AcDbBlockBegin
  2
Block_10
 70
     0
 10
0.0
 20
0.0
 30
0.0
  3
Block_10
  1

  0
SPLINE
  5
EF
330
EB
100
AcDbEntity
  8
レイヤー 1
 62
   250
420
  2299925
370
     9
100
AcDbSpline
210
0.0
220
0.0
230
1.0
 70
     8
 71
     3
 72
    11
 73
     7
 74
     0
 42
0.0000000001
 43
0.0000000001
 40
0.0
 40
0.0
 40
0.0
 40
0.0
 40
1.0
 40
1.0
 40
1.0
 40
2.0
 40
2.0
 40
2.0
 40
2.0
 10
115.0744761951239
 20
-157.9697267468153
 30
0.0
 10
115.1429291933775
 20
-157.8233719505499
 30
0.0
 10
115.1196119939729
 20
-157.5926891564346
 30
0.0
 10
115.0000541970226
 20
-157.3749095619909
 30
0.0
 10
114.8442760009973
 20
-157.0913947692235
 30
0.0
 10
114.5823512076791
 20
-156.9341433732357
 30
0.0
 10
114.401782612286
 20
-157.0097824864502
 30
0.0
  0
SPLINE
  5
F0
330
EB
100
AcDbEntity
  8
レイヤー 1
 62
   250
420
  2299925
370
     9
100
AcDbSpline
210
0.0
220
0.0
230
1.0
 70
     9
 71
     3
 72
    17
 73
    13
 74
     0
 42
0.0000000001
 43
0.0000000001
 40
0.0
 40
0.0
 40
0.0
 40
0.0
 40
1.0
 40
1.0
 40
1.0
 40
2.0
 40
2.0
 40
2.0
 40
3.0
 40
3.0
 40
3.0
 40
4.0
 40
4.0
 40
4.0
 40
4.0
 10
115.0970567945488
 20
-157.9597953470691
 30
0.0
 10
114.9164627991562
 20
-158.0587791445437
 30
0.0
 10
114.6384090062494
 20
-157.8997751486002
 30
0.0
 10
114.4761792103877
 20
-157.6043477561369
 30
0.0
 10
114.3139748145269
 20
-157.3089203636743
 30
0.0
 10
114.3288365973262
 20
-156.9889544864548
 30
0.0
 10
114.5094305972814
 20
-156.8897441743682
 30
0.0
 10
114.6899964049336
 20
-156.7905063769002
 30
0.0
 10
114.9678215978451
 20
-156.9497643728371
 30
0.0
 10
115.1300259937072
 20
-157.2449377653063
 30
0.0
 10
115.2922585970856
 20
-157.540619157763
 30
0.0
 10
115.2778793899354
 20
-157.8605829496006
 30
0.0
 10
115.0970567945488
 20
-157.9597953470691
 30
0.0
  0
ENDBLK
  5
EE
330
EB
100
AcDbEntity
  8
0
100
AcDbBlockEnd
  0
BLOCK
  5
F3
330
F1
100
AcDbEntity
  8
0
100
AcDbBlockBegin
  2
Block_11
 70
     0
 10
0.0
 20
0.0
 30
0.0
  3
Block_11
  1

  0
SPLINE
  5
F5
330
F1
100
AcDbEntity
  8
レイヤー 1
 62
   250
420
  2299925
370
     9
100
AcDbSpline
210
0.0
220
0.0
230
1.0
 70
     8
 71
     3
 72
    11
 73
     7
 74
     0
 42
0.0000000001
 43
0.0000000001
 40
0.0
 40
0.0
 40
0.0
 40
0.0
 40
1.0
 40
1.0
 40
1.0
 40
2.0
 40
2.0
 40
2.0
 40
2.0
 10
115.0744761951239
 20
-160.151307291159
 30
0.0
 10
115.1429291933775
 20
-160.0052044857004
 30
0.0
 10
115.1196119939729
 20
-159.7742697007776
 30
0.0
 10
115.0000541970226
 20
-159.5564901063339
 30
0.0
 10
114.8442760009973
 20
-159.2732039135617
 30
0.0
 10
114.5823512076791
 20
-159.1159504859232
 30
0.0
 10
114.401782612286
 20
-159.191365115649
 30
0.0
  0
SPLINE
  5
F6
330
F1
100
AcDbEntity
  8
レイヤー 1
 62
   250
420
  2299925
370
     9
100
AcDbSpline
210
0.0
220
0.0
230
1.0
 70
     9
 71
     3
 72
    17
 73
    13
 74
     0
 42
0.0000000001
 43
0.0000000001
 40
0.0
 40
0.0
 40
0.0
 40
0.0
 40
1.0
 40
1.0
 40
1.0
 40
2.0
 40
2.0
 40
2.0
 40
3.0
 40
3.0
 40
3.0
 40
4.0
 40
4.0
 40
4.0
 40
4.0
 10
115.0970567945488
 20
-160.1413758914127
 30
0.0
 10
114.9164627991562
 20
-160.2405882888812
 30
0.0
 10
114.6384090062494
 20
-160.0813556929432
 30
0.0
 10
114.4761792103877
 20
-159.785674300487
 30
0.0
 10
114.3139748145269
 20
-159.4902469080244
 30
0.0
 10
114.3288365973262
 20
-159.1705117161808
 30
0.0
 10
114.5094305972814
 20
-159.0712993187123
 30
0.0
 10
114.6899964049336
 20
-158.9723409212373
 30
0.0
 10
114.9678215978451
 20
-159.1313195171812
 30
0.0
 10
115.1300259937072
 20
-159.4267469096444
 30
0.0
 10
115.2922585970856
 20
-159.7221743021071
 30
0.0
 10
115.2778793899354
 20
-160.0421634939436
 30
0.0
 10
115.0970567945488
 20
-160.1413758914127
 30
0.0
  0
ENDBLK
  5
F4
330
F1
100
AcDbEntity
  8
0
100
AcDbBlockEnd
  0
BLOCK
  5
F9
330
F7
100
AcDbEntity
  8
0
100
AcDbBlockBegin
  2
Block_12
 70
     0
 10
0.0
 20
0.0
 30
0.0
  3
Block_12
  1

  0
SPLINE
  5
FB
330
F7
100
AcDbEntity
  8
レイヤー 1
 62
   250
420
  2299925
370
     9
100
AcDbSpline
210
0.0
220
0.0
230
1.0
 70
     8
 71
     3
 72
    11
 73
     7
 74
     0
 42
0.0000000001
 43
0.0000000001
 40
0.0
 40
0.0
 40
0.0
 40
0.0
 40
1.0
 40
1.0
 40
1.0
 40
2.0
 40
2.0
 40
2.0
 40
2.0
 10
117.7196575276399
 20
-159.5410977067263
 30
0.0
 10
117.7878565259001
 20
-159.3947683104599
 30
0.0
 10
117.764793326489
 20
-159.1640855163452
 30
0.0
 10
117.6452355295386
 20
-158.946051921908
 30
0.0
 10
117.4894573335134
 20
-158.6625117291409
 30
0.0
 10
117.2272785402016
 20
-158.5055143331466
 30
0.0
 10
117.0469385448025
 20
-158.5809269312231
 30
0.0
  0
SPLINE
  5
FC
330
F7
100
AcDbEntity
  8
レイヤー 1
 62
   250
420
  2299925
370
     9
100
AcDbSpline
210
0.0
220
0.0
230
1.0
 70
     9
 71
     3
 72
    17
 73
    13
 74
     0
 42
0.0000000001
 43
0.0000000001
 40
0.0
 40
0.0
 40
0.0
 40
0.0
 40
1.0
 40
1.0
 40
1.0
 40
2.0
 40
2.0
 40
2.0
 40
3.0
 40
3.0
 40
3.0
 40
4.0
 40
4.0
 40
4.0
 40
4.0
 10
117.7422127270653
 20
-159.5309377069855
 30
0.0
 10
117.561644131671
 20
-159.6301501044547
 30
0.0
 10
117.2835903387655
 20
-159.4709175085173
 30
0.0
 10
117.1213605429038
 20
-159.175490116054
 30
0.0
 10
116.9591307470434
 20
-158.8800627235907
 30
0.0
 10
116.9737611466691
 20
-158.5600735317548
 30
0.0
 10
117.1543551420618
 20
-158.4608611342857
 30
0.0
 10
117.3351805965743
 20
-158.3616487368166
 30
0.0
 10
117.6129775303616
 20
-158.5208813327546
 30
0.0
 10
117.7752073262233
 20
-158.8163087252172
 30
0.0
 10
117.9374371220837
 20
-159.1117361176805
 30
0.0
 10
117.922806722458
 20
-159.431725309517
 30
0.0
 10
117.7422127270653
 20
-159.5309377069855
 30
0.0
  0
ENDBLK
  5
FA
330
F7
100
AcDbEntity
  8
0
100
AcDbBlockEnd
  0
BLOCK
  5
FF
330
FD
100
AcDbEntity
  8
0
100
AcDbBlockBegin
  2
Block_13
 70
     0
 10
0.0
 20
0.0
 30
0.0
  3
Block_13
  1

  0
SPLINE
  5
101
330
FD
100
AcDbEntity
  8
レイヤー 1
 62
   250
420
  2299925
370
     9
100
AcDbSpline
210
0.0
220
0.0
230
1.0
 70
     8
 71
     3
 72
    11
 73
     7
 74
     0
 42
0.0000000001
 43
0.0000000001
 40
0.0
 40
0.0
 40
0.0
 40
0.0
 40
1.0
 40
1.0
 40
1.0
 40
2.0
 40
2.0
 40
2.0
 40
2.0
 10
117.7196575276399
 20
-161.7224242510764
 30
0.0
 10
117.7878565259001
 20
-161.5765774547974
 30
0.0
 10
117.764793326489
 20
-161.3456406606886
 30
0.0
 10
117.6452355295386
 20
-161.1278610662449
 30
0.0
 10
117.4894573335134
 20
-160.8440922734845
 30
0.0
 10
117.2272785402016
 20
-160.6870694774907
 30
0.0
 10
117.0469385448025
 20
-160.7624820755665
 30
0.0
  0
SPLINE
  5
102
330
FD
100
AcDbEntity
  8
レイヤー 1
 62
   250
420
  2299925
370
     9
100
AcDbSpline
210
0.0
220
0.0
230
1.0
 70
     9
 71
     3
 72
    17
 73
    13
 74
     0
 42
0.0000000001
 43
0.0000000001
 40
0.0
 40
0.0
 40
0.0
 40
0.0
 40
1.0
 40
1.0
 40
1.0
 40
2.0
 40
2.0
 40
2.0
 40
3.0
 40
3.0
 40
3.0
 40
4.0
 40
4.0
 40
4.0
 40
4.0
 10
117.7422127270653
 20
-161.7127468513237
 30
0.0
 10
117.561644131671
 20
-161.8117306487977
 30
0.0
 10
117.2835903387655
 20
-161.6527266528542
 30
0.0
 10
117.1213605429038
 20
-161.357045260398
 30
0.0
 10
116.9591307470434
 20
-161.0616432679344
 30
0.0
 10
116.9737611466691
 20
-160.7419080760914
 30
0.0
 10
117.1543551420618
 20
-160.6424416786287
 30
0.0
 10
117.3351805965743
 20
-160.5432038811613
 30
0.0
 10
117.6129775303616
 20
-160.7024618770982
 30
0.0
 10
117.7752073262233
 20
-160.9981432695544
 30
0.0
 10
117.9374371220837
 20
-161.2935452620181
 30
0.0
 10
117.922806722458
 20
-161.6132784852984
 30
0.0
 10
117.7422127270653
 20
-161.7127468513237
 30
0.0
  0
ENDBLK
  5
100
330
FD
100
AcDbEntity
  8
0
100
AcDbBlockEnd
  0
BLOCK
  5
105
330
103
100
AcDbEntity
  8
0
100
AcDbBlockBegin
  2
Block_14
 70
     0
 10
0.0
 20
0.0
 30
0.0
  3
Block_14
  1

  0
SPLINE
  5
107
330
103
100
AcDbEntity
  8
レイヤー 1
 62
   250
420
  2299925
370
     9
100
AcDbSpline
210
0.0
220
0.0
230
1.0
 70
     8
 71
     3
 72
    11
 73
     7
 74
     0
 42
0.0000000001
 43
0.0000000001
 40
0.0
 40
0.0
 40
0.0
 40
0.0
 40
1.0
 40
1.0
 40
1.0
 40
2.0
 40
2.0
 40
2.0
 40
2.0
 10
116.4198887608006
 20
-159.8687830983666
 30
0.0
 10
116.4878365967861
 20
-159.7226823020941
 30
0.0
 10
116.4650245596483
 20
-159.4919995079794
 30
0.0
 10
116.3454667626993
 20
-159.2741924858833
 30
0.0
 10
116.1896885666727
 20
-158.9904511207747
 30
0.0
 10
115.9272585969266
 20
-158.8331743247873
 30
0.0
 10
115.7469411779679
 20
-158.9088409228573
 30
0.0
  0
SPLINE
  5
108
330
103
100
AcDbEntity
  8
レイヤー 1
 62
   250
420
  2299925
370
     9
100
AcDbSpline
210
0.0
220
0.0
230
1.0
 70
     9
 71
     3
 72
    17
 73
    13
 74
     0
 42
0.0000000001
 43
0.0000000001
 40
0.0
 40
0.0
 40
0.0
 40
0.0
 40
1.0
 40
1.0
 40
1.0
 40
2.0
 40
2.0
 40
2.0
 40
3.0
 40
3.0
 40
3.0
 40
4.0
 40
4.0
 40
4.0
 40
4.0
 10
116.4422153602307
 20
-159.8588516986197
 30
0.0
 10
116.2616213648381
 20
-159.957835496095
 30
0.0
 10
115.9838215719248
 20
-159.7988315001515
 30
0.0
 10
115.8215945969529
 20
-159.5034041076882
 30
0.0
 10
115.6588793802153
 20
-159.207976715225
 30
0.0
 10
115.6737665969896
 20
-158.8879875233891
 30
0.0
 10
115.8543323752289
 20
-158.7887751259199
 30
0.0
 10
116.0349009706219
 20
-158.6895627284508
 30
0.0
 10
116.312980163527
 20
-158.8487953243888
 30
0.0
 10
116.4751845593891
 20
-159.1442227168515
 30
0.0
 10
116.6376683552443
 20
-159.4396501093147
 30
0.0
 10
116.6227839556238
 20
-159.7596393011513
 30
0.0
 10
116.4422153602307
 20
-159.8588516986197
 30
0.0
  0
ENDBLK
  5
106
330
103
100
AcDbEntity
  8
0
100
AcDbBlockEnd
  0
BLOCK
  5
10B
330
109
100
AcDbEntity
  8
0
100
AcDbBlockBegin
  2
Block_15
 70
     0
 10
0.0
 20
0.0
 30
0.0
  3
Block_15
  1

  0
SPLINE
  5
10D
330
109
100
AcDbEntity
  8
レイヤー 1
 62
   250
420
  2299925
370
     9
100
AcDbSpline
210
0.0
220
0.0
230
1.0
 70
     8
 71
     3
 72
    11
 73
     7
 74
     0
 42
0.0000000001
 43
0.0000000001
 40
0.0
 40
0.0
 40
0.0
 40
0.0
 40
1.0
 40
1.0
 40
1.0
 40
2.0
 40
2.0
 40
2.0
 40
2.0
 10
120.251961263036
 20
-161.0499846682314
 30
0.0
 10
120.3201602612961
 20
-160.903629871966
 30
0.0
 10
120.2968430618902
 20
-160.6732010778442
 30
0.0
 10
120.1772852649412
 20
-160.4553960834009
 30
0.0
 10
120.0215324689142
 20
-160.1716272906406
 30
0.0
 10
119.7595822755977
 20
-160.0143758946528
 30
0.0
 10
119.5790165960132
 20
-160.0900404856794
 30
0.0
  0
SPLINE
  5
10E
330
109
100
AcDbEntity
  8
レイヤー 1
 62
   250
420
  2299925
370
     9
100
AcDbSpline
210
0.0
220
0.0
230
1.0
 70
     9
 71
     3
 72
    17
 73
    13
 74
     0
 42
0.0000000001
 43
0.0000000001
 40
0.0
 40
0.0
 40
0.0
 40
0.0
 40
1.0
 40
1.0
 40
1.0
 40
2.0
 40
2.0
 40
2.0
 40
3.0
 40
3.0
 40
3.0
 40
4.0
 40
4.0
 40
4.0
 40
4.0
 10
120.2742878624662
 20
-161.0400532684852
 30
0.0
 10
120.0936938670735
 20
-161.1390116659601
 30
0.0
 10
119.8156400741667
 20
-160.9800330700163
 30
0.0
 10
119.6534102783063
 20
-160.684605677553
 30
0.0
 10
119.4912058824443
 20
-160.3891782850904
 30
0.0
 10
119.5060902820648
 20
-160.0691890932538
 30
0.0
 10
119.6864048774643
 20
-159.9699766957847
 30
0.0
 10
119.866998872857
 20
-159.8707642983162
 30
0.0
 10
120.1450526657637
 20
-160.0297682942597
 30
0.0
 10
120.3072824616242
 20
-160.3251702867234
 30
0.0
 10
120.4694868574862
 20
-160.621105679173
 30
0.0
 10
120.4548564578592
 20
-160.9408408710167
 30
0.0
 10
120.2742878624662
 20
-161.0400532684852
 30
0.0
  0
ENDBLK
  5
10C
330
109
100
AcDbEntity
  8
0
100
AcDbBlockEnd
  0
BLOCK
  5
111
330
10F
100
AcDbEntity
  8
0
100
AcDbBlockBegin
  2
Block_16
 70
     0
 10
0.0
 20
0.0
 30
0.0
  3
Block_16
  1

  0
SPLINE
  5
113
330
10F
100
AcDbEntity
  8
レイヤー 1
 62
   250
420
  2299925
370
     9
100
AcDbSpline
210
0.0
220
0.0
230
1.0
 70
     8
 71
     3
 72
    11
 73
     7
 74
     0
 42
0.0000000001
 43
0.0000000001
 40
0.0
 40
0.0
 40
0.0
 40
0.0
 40
1.0
 40
1.0
 40
1.0
 40
2.0
 40
2.0
 40
2.0
 40
2.0
 10
120.251961263036
 20
-163.2317938125696
 30
0.0
 10
120.3201602612961
 20
-163.0854390163029
 30
0.0
 10
120.2968430618902
 20
-162.8547562221882
 30
0.0
 10
120.1772852649412
 20
-162.6369766277439
 30
0.0
 10
120.0215324689142
 20
-162.3534618349777
 30
0.0
 10
119.7595822755977
 20
-162.196208485153
 30
0.0
 10
119.5790165960132
 20
-162.2715976370655
 30
0.0
  0
SPLINE
  5
114
330
10F
100
AcDbEntity
  8
レイヤー 1
 62
   250
420
  2299925
370
     9
100
AcDbSpline
210
0.0
220
0.0
230
1.0
 70
     9
 71
     3
 72
    17
 73
    13
 74
     0
 42
0.0000000001
 43
0.0000000001
 40
0.0
 40
0.0
 40
0.0
 40
0.0
 40
1.0
 40
1.0
 40
1.0
 40
2.0
 40
2.0
 40
2.0
 40
3.0
 40
3.0
 40
3.0
 40
4.0
 40
4.0
 40
4.0
 40
4.0
 10
120.2742878624662
 20
-163.2216338128288
 30
0.0
 10
120.0936938670735
 20
-163.3208462102973
 30
0.0
 10
119.8156400741667
 20
-163.1618422143538
 30
0.0
 10
119.6534102783063
 20
-162.8661608218977
 30
0.0
 10
119.4912058824443
 20
-162.570758829434
 30
0.0
 10
119.5060902820648
 20
-162.2507696375969
 30
0.0
 10
119.6864048774643
 20
-162.1517858401229
 30
0.0
 10
119.866998872857
 20
-162.0525734426538
 30
0.0
 10
120.1450526657637
 20
-162.2115774385972
 30
0.0
 10
120.3072824616242
 20
-162.5070048310605
 30
0.0
 10
120.4694868574862
 20
-162.8024322235232
 30
0.0
 10
120.4548564578592
 20
-163.12239601536
 30
0.0
 10
120.2742878624662
 20
-163.2216338128288
 30
0.0
  0
ENDBLK
  5
112
330
10F
100
AcDbEntity
  8
0
100
AcDbBlockEnd
  0
BLOCK
  5
117
330
115
100
AcDbEntity
  8
0
100
AcDbBlockBegin
  2
Block_17
 70
     0
 10
0.0
 20
0.0
 30
0.0
  3
Block_17
  1

  0
SPLINE
  5
119
330
115
100
AcDbEntity
  8
レイヤー 1
 62
   250
420
  2299925
370
     9
100
AcDbSpline
210
0.0
220
0.0
230
1.0
 70
     8
 71
     3
 72
    11
 73
     7
 74
     0
 42
0.0000000001
 43
0.0000000001
 40
0.0
 40
0.0
 40
0.0
 40
0.0
 40
1.0
 40
1.0
 40
1.0
 40
2.0
 40
2.0
 40
2.0
 40
2.0
 10
118.9519384962018
 20
-161.3778986598656
 30
0.0
 10
119.019908894468
 20
-161.2315438636002
 30
0.0
 10
118.997102596159
 20
-161.0008610694849
 30
0.0
 10
118.8775418981001
 20
-160.7830814750412
 30
0.0
 10
118.7217665962274
 20
-160.4995666822738
 30
0.0
 10
118.4595595087635
 20
-160.3420358862934
 30
0.0
 10
118.2787369133769
 20
-160.417700485598
 30
0.0
  0
SPLINE
  5
11A
330
115
100
AcDbEntity
  8
レイヤー 1
 62
   250
420
  2299925
370
     9
100
AcDbSpline
210
0.0
220
0.0
230
1.0
 70
     9
 71
     3
 72
    17
 73
    13
 74
     0
 42
0.0000000001
 43
0.0000000001
 40
0.0
 40
0.0
 40
0.0
 40
0.0
 40
1.0
 40
1.0
 40
1.0
 40
2.0
 40
2.0
 40
2.0
 40
3.0
 40
3.0
 40
3.0
 40
4.0
 40
4.0
 40
4.0
 40
4.0
 10
118.974265095632
 20
-161.3677132601259
 30
0.0
 10
118.7936965002389
 20
-161.4671796575879
 30
0.0
 10
118.5158713073274
 20
-161.307693061657
 30
0.0
 10
118.3536669114653
 20
-161.0122656691937
 30
0.0
 10
118.1911831156101
 20
-160.7168382767311
 30
0.0
 10
118.2058135152371
 20
-160.3968724856025
 30
0.0
 10
118.3864075106298
 20
-160.2976366874254
 30
0.0
 10
118.5669761060228
 20
-160.1986782899504
 30
0.0
 10
118.8450298989296
 20
-160.3576822858939
 30
0.0
 10
119.0075165961564
 20
-160.6531096783565
 30
0.0
 10
119.1697180906456
 20
-160.9487656708137
 30
0.0
 10
119.1548365961198
 20
-161.2685008626574
 30
0.0
 10
118.974265095632
 20
-161.3677132601259
 30
0.0
  0
ENDBLK
  5
118
330
115
100
AcDbEntity
  8
0
100
AcDbBlockEnd
  0
BLOCK
  5
11D
330
11B
100
AcDbEntity
  8
0
100
AcDbBlockBegin
  2
Block_18
 70
     0
 10
0.0
 20
0.0
 30
0.0
  3
Block_18
  1

  0
SPLINE
  5
11F
330
11B
100
AcDbEntity
  8
レイヤー 1
 62
   250
420
  2299925
370
     9
100
AcDbSpline
210
0.0
220
0.0
230
1.0
 70
     8
 71
     3
 72
    11
 73
     7
 74
     0
 42
0.0000000001
 43
0.0000000001
 40
0.0
 40
0.0
 40
0.0
 40
0.0
 40
1.0
 40
1.0
 40
1.0
 40
2.0
 40
2.0
 40
2.0
 40
2.0
 10
122.8063405952064
 20
-162.5082494310285
 30
0.0
 10
122.8748159961207
 20
-162.3621486347553
 30
0.0
 10
122.8517273967099
 20
-162.1312118406478
 30
0.0
 10
122.7321725952248
 20
-161.9134322462034
 30
0.0
 10
122.5761628037405
 20
-161.6299174534366
 30
0.0
 10
122.3139586104303
 20
-161.4728946574421
 30
0.0
 10
122.1336440150295
 20
-161.548053255525
 30
0.0
  0
SPLINE
  5
120
330
11B
100
AcDbEntity
  8
レイヤー 1
 62
   250
420
  2299925
370
     9
100
AcDbSpline
210
0.0
220
0.0
230
1.0
 70
     9
 71
     3
 72
    17
 73
    13
 74
     0
 42
0.0000000001
 43
0.0000000001
 40
0.0
 40
0.0
 40
0.0
 40
0.0
 40
1.0
 40
1.0
 40
1.0
 40
2.0
 40
2.0
 40
2.0
 40
3.0
 40
3.0
 40
3.0
 40
4.0
 40
4.0
 40
4.0
 40
4.0
 10
122.8289181972924
 20
-162.4983180312816
 30
0.0
 10
122.6483525952457
 20
-162.5975284850533
 30
0.0
 10
122.3702704089929
 20
-162.4382978328134
 30
0.0
 10
122.2082946131261
 20
-162.1426144851663
 30
0.0
 10
122.0458362172705
 20
-161.8471890478933
 30
0.0
 10
122.060720616891
 20
-161.5274538560509
 30
0.0
 10
122.241289212284
 20
-161.4279874585883
 30
0.0
 10
122.4218832076767
 20
-161.3290290611127
 30
0.0
 10
122.6996830005887
 20
-161.4880330570561
 30
0.0
 10
122.8621667964439
 20
-161.7836890495133
 30
0.0
 10
123.024371192306
 20
-162.0791144851821
 30
0.0
 10
123.009740792679
 20
-162.3988516338189
 30
0.0
 10
122.8289181972924
 20
-162.4983180312816
 30
0.0
  0
ENDBLK
  5
11E
330
11B
100
AcDbEntity
  8
0
100
AcDbBlockEnd
  0
BLOCK
  5
123
330
121
100
AcDbEntity
  8
0
100
AcDbBlockBegin
  2
Block_19
 70
     0
 10
0.0
 20
0.0
 30
0.0
  3
Block_19
  1

  0
SPLINE
  5
125
330
121
100
AcDbEntity
  8
レイヤー 1
 62
   250
420
  2299925
370
     9
100
AcDbSpline
210
0.0
220
0.0
230
1.0
 70
     8
 71
     3
 72
    11
 73
     7
 74
     0
 42
0.0000000001
 43
0.0000000001
 40
0.0
 40
0.0
 40
0.0
 40
0.0
 40
1.0
 40
1.0
 40
1.0
 40
2.0
 40
2.0
 40
2.0
 40
2.0
 10
122.8063405952064
 20
-164.6898045753719
 30
0.0
 10
122.8748159961207
 20
-164.5437037791
 30
0.0
 10
122.8517273967099
 20
-164.3130209849847
 30
0.0
 10
122.7321725952248
 20
-164.095241390541
 30
0.0
 10
122.5761628037405
 20
-163.81147259778
 30
0.0
 10
122.3139586104303
 20
-163.6542212017922
 30
0.0
 10
122.1336440150295
 20
-163.7298604847702
 30
0.0
  0
SPLINE
  5
126
330
121
100
AcDbEntity
  8
レイヤー 1
 62
   250
420
  2299925
370
     9
100
AcDbSpline
210
0.0
220
0.0
230
1.0
 70
     9
 71
     3
 72
    17
 73
    13
 74
     0
 42
0.0000000001
 43
0.0000000001
 40
0.0
 40
0.0
 40
0.0
 40
0.0
 40
1.0
 40
1.0
 40
1.0
 40
2.0
 40
2.0
 40
2.0
 40
3.0
 40
3.0
 40
3.0
 40
4.0
 40
4.0
 40
4.0
 40
4.0
 10
122.8289181972924
 20
-164.6798985756246
 30
0.0
 10
122.6483525952457
 20
-164.7788569731002
 30
0.0
 10
122.3702704089929
 20
-164.6198529771567
 30
0.0
 10
122.2082946131261
 20
-164.3244509846931
 30
0.0
 10
122.0458362172705
 20
-164.0290235922298
 30
0.0
 10
122.060720616891
 20
-163.7090324847747
 30
0.0
 10
122.241289212284
 20
-163.6098220029248
 30
0.0
 10
122.4218832076767
 20
-163.5106096054556
 30
0.0
 10
122.6996830005887
 20
-163.6695882014001
 30
0.0
 10
122.8621667964439
 20
-163.9652695938563
 30
0.0
 10
123.024371192306
 20
-164.2606969863196
 30
0.0
 10
123.009740792679
 20
-164.5806607781571
 30
0.0
 10
122.8289181972924
 20
-164.6798985756246
 30
0.0
  0
ENDBLK
  5
124
330
121
100
AcDbEntity
  8
0
100
AcDbBlockEnd
  0
BLOCK
  5
129
330
127
100
AcDbEntity
  8
0
100
AcDbBlockBegin
  2
Block_20
 70
     0
 10
0.0
 20
0.0
 30
0.0
  3
Block_20
  1

  0
SPLINE
  5
12B
330
127
100
AcDbEntity
  8
レイヤー 1
 62
   250
420
  2299925
370
     9
100
AcDbSpline
210
0.0
220
0.0
230
1.0
 70
     8
 71
     3
 72
    11
 73
     7
 74
     0
 42
0.0000000001
 43
0.0000000001
 40
0.0
 40
0.0
 40
0.0
 40
0.0
 40
1.0
 40
1.0
 40
1.0
 40
2.0
 40
2.0
 40
2.0
 40
2.0
 10
121.5065688310281
 20
-162.8359094226692
 30
0.0
 10
121.5747932292878
 20
-162.6900626263895
 30
0.0
 10
121.5517300298754
 20
-162.459125832282
 30
0.0
 10
121.4319182329328
 20
-162.2413462378376
 30
0.0
 10
121.2761400369063
 20
-161.9575774450773
 30
0.0
 10
121.0142152435893
 20
-161.8005546490828
 30
0.0
 10
120.8336212481966
 20
-161.8762212471528
 30
0.0
  0
SPLINE
  5
12C
330
127
100
AcDbEntity
  8
レイヤー 1
 62
   250
420
  2299925
370
     9
100
AcDbSpline
210
0.0
220
0.0
230
1.0
 70
     9
 71
     3
 72
    17
 73
    13
 74
     0
 42
0.0000000001
 43
0.0000000001
 40
0.0
 40
0.0
 40
0.0
 40
0.0
 40
1.0
 40
1.0
 40
1.0
 40
2.0
 40
2.0
 40
2.0
 40
3.0
 40
3.0
 40
3.0
 40
4.0
 40
4.0
 40
4.0
 40
4.0
 10
121.5288954304582
 20
-162.8262320229158
 30
0.0
 10
121.3483268350652
 20
-162.9252158203911
 30
0.0
 10
121.0702730421584
 20
-162.7662118244476
 30
0.0
 10
120.908043246298
 20
-162.4705284850849
 30
0.0
 10
120.7458134504363
 20
-162.1751030395275
 30
0.0
 10
120.7606978500568
 20
-161.8553932476841
 30
0.0
 10
120.9412918454495
 20
-161.756155450216
 30
0.0
 10
121.1218604408425
 20
-161.6566890527533
 30
0.0
 10
121.3996602337558
 20
-161.8156930486968
 30
0.0
 10
121.5618900296162
 20
-162.1116030411475
 30
0.0
 10
121.7243738254714
 20
-162.4070284851
 30
0.0
 10
121.7094894258509
 20
-162.7267656254532
 30
0.0
 10
121.5288954304582
 20
-162.8262320229158
 30
0.0
  0
ENDBLK
  5
12A
330
127
100
AcDbEntity
  8
0
100
AcDbBlockEnd
  0
BLOCK
  5
12F
330
12D
100
AcDbEntity
  8
0
100
AcDbBlockBegin
  2
Block_21
 70
     0
 10
0.0
 20
0.0
 30
0.0
  3
Block_21
  1

  0
SPLINE
  5
131
330
12D
100
AcDbEntity
  8
レイヤー 1
 62
   250
420
  2299925
370
     9
100
AcDbSpline
210
0.0
220
0.0
230
1.0
 70
     8
 71
     3
 72
    11
 73
     7
 74
     0
 42
0.0000000001
 43
0.0000000001
 40
0.0
 40
0.0
 40
0.0
 40
0.0
 40
1.0
 40
1.0
 40
1.0
 40
2.0
 40
2.0
 40
2.0
 40
2.0
 10
117.8538485964442
 20
-154.7922376278804
 30
0.0
 10
117.9215621224887
 20
-154.9529942237789
 30
0.0
 10
118.1599411164071
 20
-155.0720440207421
 30
0.0
 10
118.4441925091555
 20
-155.0720440207421
 30
0.0
 10
118.7284439019039
 20
-155.0720440207421
 30
0.0
 10
118.9668228958224
 20
-154.9529942237789
 30
0.0
 10
119.034539294095
 20
-154.7922376278804
 30
0.0
  0
SPLINE
  5
132
330
12D
100
AcDbEntity
  8
レイヤー 1
 62
   250
420
  2299925
370
     9
100
AcDbSpline
210
0.0
220
0.0
230
1.0
 70
     9
 71
     3
 72
    17
 73
    13
 74
     0
 42
0.0000000001
 43
0.0000000001
 40
0.0
 40
0.0
 40
0.0
 40
0.0
 40
1.0
 40
1.0
 40
1.0
 40
2.0
 40
2.0
 40
2.0
 40
3.0
 40
3.0
 40
3.0
 40
4.0
 40
4.0
 40
4.0
 40
4.0
 10
119.0546306935827
 20
-154.8855064255008
 30
0.0
 10
119.0546306935827
 20
-155.0916274202422
 30
0.0
 10
118.7812759005561
 20
-155.2585816159829
 30
0.0
 10
118.4441925091555
 20
-155.2585816159829
 30
0.0
 10
118.1070865963813
 20
-155.2585816159829
 30
0.0
 10
117.8337543247296
 20
-155.0916274202422
 30
0.0
 10
117.8337543247296
 20
-154.8855064255008
 30
0.0
 10
117.8337543247296
 20
-154.6796394307528
 30
0.0
 10
118.1070865963813
 20
-154.5124544870744
 30
0.0
 10
118.4441925091555
 20
-154.5124544870744
 30
0.0
 10
118.7812759005561
 20
-154.5124544870744
 30
0.0
 10
119.0546306935827
 20
-154.6796394307528
 30
0.0
 10
119.0546306935827
 20
-154.8855064255008
 30
0.0
  0
ENDBLK
  5
130
330
12D
100
AcDbEntity
  8
0
100
AcDbBlockEnd
  0
BLOCK
  5
135
330
133
100
AcDbEntity
  8
0
100
AcDbBlockBegin
  2
Block_22
 70
     0
 10
0.0
 20
0.0
 30
0.0
  3
Block_22
  1

  0
SPLINE
  5
137
330
133
100
AcDbEntity
  8
レイヤー 1
 62
   250
420
  2299925
370
     9
100
AcDbSpline
210
0.0
220
0.0
230
1.0
 70
     8
 71
     3
 72
    11
 73
     7
 74
     0
 42
0.0000000001
 43
0.0000000001
 40
0.0
 40
0.0
 40
0.0
 40
0.0
 40
1.0
 40
1.0
 40
1.0
 40
2.0
 40
2.0
 40
2.0
 40
2.0
 10
120.4875970570237
 20
-155.1313276192295
 30
0.0
 10
120.5555674552899
 20
-155.2923128151219
 30
0.0
 10
120.7936924492148
 20
-155.4113604868498
 30
0.0
 10
121.0779438419632
 20
-155.4113604868498
 30
0.0
 10
121.3624746347047
 20
-155.4113604868498
 30
0.0
 10
121.6006025955085
 20
-155.2923128151219
 30
0.0
 10
121.6685446268962
 20
-155.1313276192295
 30
0.0
  0
SPLINE
  5
138
330
133
100
AcDbEntity
  8
レイヤー 1
 62
   250
420
  2299925
370
     9
100
AcDbSpline
210
0.0
220
0.0
230
1.0
 70
    11
 71
     3
 72
    17
 73
    13
 74
     0
 42
0.0000000001
 43
0.0000000001
 40
0.0
 40
0.0
 40
0.0
 40
0.0
 40
1.0
 40
1.0
 40
1.0
 40
2.0
 40
2.0
 40
2.0
 40
3.0
 40
3.0
 40
3.0
 40
4.0
 40
4.0
 40
4.0
 40
4.0
 10
121.6884074263887
 20
-155.2245964168498
 30
0.0
 10
121.6884074263887
 20
-155.4307174115912
 30
0.0
 10
121.4150526333634
 20
-155.5976462073324
 30
0.0
 10
121.0779438419632
 20
-155.5976462073324
 30
0.0
 10
120.7408604505626
 20
-155.5976462073324
 30
0.0
 10
120.4675085957912
 20
-155.4307174115912
 30
0.0
 10
120.4675085957912
 20
-155.2245964168498
 30
0.0
 10
120.4675085957912
 20
-155.0184754221084
 30
0.0
 10
120.7408604505626
 20
-154.8517752263611
 30
0.0
 10
121.0779438419632
 20
-154.8517752263611
 30
0.0
 10
121.4150526333634
 20
-154.8517752263611
 30
0.0
 10
121.6884074263887
 20
-155.0184754221084
 30
0.0
 10
121.6884074263887
 20
-155.2245964168498
 30
0.0
  0
ENDBLK
  5
136
330
133
100
AcDbEntity
  8
0
100
AcDbBlockEnd
  0
BLOCK
  5
13B
330
139
100
AcDbEntity
  8
0
100
AcDbBlockBegin
  2
Block_23
 70
     0
 10
0.0
 20
0.0
 30
0.0
  3
Block_23
  1

  0
SPLINE
  5
13D
330
139
100
AcDbEntity
  8
レイヤー 1
 62
   250
420
  2299925
370
     9
100
AcDbSpline
210
0.0
220
0.0
230
1.0
 70
     8
 71
     3
 72
    11
 73
     7
 74
     0
 42
0.0000000001
 43
0.0000000001
 40
0.0
 40
0.0
 40
0.0
 40
0.0
 40
1.0
 40
1.0
 40
1.0
 40
2.0
 40
2.0
 40
2.0
 40
2.0
 10
126.4786725942891
 20
-158.6357401298242
 30
0.0
 10
126.5466399024446
 20
-158.7962173257302
 30
0.0
 10
126.7847648963696
 20
-158.9152904859731
 30
0.0
 10
127.0690416891176
 20
-158.9152904859731
 30
0.0
 10
127.353293081866
 20
-158.9152904859731
 30
0.0
 10
127.5916720757844
 20
-158.7962173257302
 30
0.0
 10
127.659617074051
 20
-158.6357401298242
 30
0.0
  0
SPLINE
  5
13E
330
139
100
AcDbEntity
  8
レイヤー 1
 62
   250
420
  2299925
370
     9
100
AcDbSpline
210
0.0
220
0.0
230
1.0
 70
     9
 71
     3
 72
    17
 73
    13
 74
     0
 42
0.0000000001
 43
0.0000000001
 40
0.0
 40
0.0
 40
0.0
 40
0.0
 40
1.0
 40
1.0
 40
1.0
 40
2.0
 40
2.0
 40
2.0
 40
3.0
 40
3.0
 40
3.0
 40
4.0
 40
4.0
 40
4.0
 40
4.0
 10
127.6794798735435
 20
-158.7287549274517
 30
0.0
 10
127.6794798735435
 20
-158.9348759221931
 30
0.0
 10
127.4061250805181
 20
-159.1018047179336
 30
0.0
 10
127.0690416891176
 20
-159.1018047179336
 30
0.0
 10
126.7321868977109
 20
-159.1018047179336
 30
0.0
 10
126.4588321046856
 20
-158.9348759221931
 30
0.0
 10
126.4588321046856
 20
-158.7287549274517
 30
0.0
 10
126.4588321046856
 20
-158.5228604860712
 30
0.0
 10
126.7321868977109
 20
-158.3556797369689
 30
0.0
 10
127.0690416891176
 20
-158.3556797369689
 30
0.0
 10
127.4061250805181
 20
-158.3556797369689
 30
0.0
 10
127.6794798735435
 20
-158.5228604860712
 30
0.0
 10
127.6794798735435
 20
-158.7287549274517
 30
0.0
  0
ENDBLK
  5
13C
330
139
100
AcDbEntity
  8
0
100
AcDbBlockEnd
  0
BLOCK
  5
141
330
13F
100
AcDbEntity
  8
0
100
AcDbBlockBegin
  2
Block_24
 70
     0
 10
0.0
 20
0.0
 30
0.0
  3
Block_24
  1

  0
SPLINE
  5
143
330
13F
100
AcDbEntity
  8
レイヤー 1
 62
   250
420
  2299925
370
     9
100
AcDbSpline
210
0.0
220
0.0
230
1.0
 70
     8
 71
     3
 72
    11
 73
     7
 74
     0
 42
0.0000000001
 43
0.0000000001
 40
0.0
 40
0.0
 40
0.0
 40
0.0
 40
1.0
 40
1.0
 40
1.0
 40
2.0
 40
2.0
 40
2.0
 40
2.0
 10
119.9222946714468
 20
-153.5884808585902
 30
0.0
 10
119.9902650697117
 20
-153.7492120544904
 30
0.0
 10
120.2283900636366
 20
-153.8680332514585
 30
0.0
 10
120.5126668563846
 20
-153.8680332514585
 30
0.0
 10
120.7971722491265
 20
-153.8680332514585
 30
0.0
 10
121.0355258430454
 20
-153.7492120544904
 30
0.0
 10
121.1030165956321
 20
-153.5884808585902
 30
0.0
  0
SPLINE
  5
144
330
13F
100
AcDbEntity
  8
レイヤー 1
 62
   250
420
  2299925
370
     9
100
AcDbSpline
210
0.0
220
0.0
230
1.0
 70
     9
 71
     3
 72
    17
 73
    13
 74
     0
 42
0.0000000001
 43
0.0000000001
 40
0.0
 40
0.0
 40
0.0
 40
0.0
 40
1.0
 40
1.0
 40
1.0
 40
2.0
 40
2.0
 40
2.0
 40
3.0
 40
3.0
 40
3.0
 40
4.0
 40
4.0
 40
4.0
 40
4.0
 10
121.123336595627
 20
-153.6814956562178
 30
0.0
 10
121.123336595627
 20
-153.8878684872308
 30
0.0
 10
120.8500042477787
 20
-154.0545454467003
 30
0.0
 10
120.5126668563846
 20
-154.0545454467003
 30
0.0
 10
120.175812064978
 20
-154.0545454467003
 30
0.0
 10
119.9024572719526
 20
-153.8878684872308
 30
0.0
 10
119.9024572719526
 20
-153.6814956562178
 30
0.0
 10
119.9024572719526
 20
-153.4756032614702
 30
0.0
 10
120.175812064978
 20
-153.3084204657356
 30
0.0
 10
120.5126668563846
 20
-153.3084204657356
 30
0.0
 10
120.8500042477787
 20
-153.3084204657356
 30
0.0
 10
121.123336595627
 20
-153.4756032614702
 30
0.0
 10
121.123336595627
 20
-153.6814956562178
 30
0.0
  0
ENDBLK
  5
142
330
13F
100
AcDbEntity
  8
0
100
AcDbBlockEnd
  0
BLOCK
  5
147
330
145
100
AcDbEntity
  8
0
100
AcDbBlockBegin
  2
Block_25
 70
     0
 10
0.0
 20
0.0
 30
0.0
  3
Block_25
  1

  0
SPLINE
  5
149
330
145
100
AcDbEntity
  8
レイヤー 1
 62
   250
420
  2299925
370
     9
100
AcDbSpline
210
0.0
220
0.0
230
1.0
 70
     8
 71
     3
 72
    11
 73
     7
 74
     0
 42
0.0000000001
 43
0.0000000001
 40
0.0
 40
0.0
 40
0.0
 40
0.0
 40
1.0
 40
1.0
 40
1.0
 40
2.0
 40
2.0
 40
2.0
 40
2.0
 10
120.9735244446269
 20
-156.6347281808742
 30
0.0
 10
121.0414948428931
 20
-156.7954847767728
 30
0.0
 10
121.279619836818
 20
-156.9145324864739
 30
0.0
 10
121.5641252295599
 20
-156.9145324864739
 30
0.0
 10
121.8483766223083
 20
-156.9145324864739
 30
0.0
 10
122.0865045953865
 20
-156.7954847767728
 30
0.0
 10
122.1544720144982
 20
-156.6347281808742
 30
0.0
  0
SPLINE
  5
14A
330
145
100
AcDbEntity
  8
レイヤー 1
 62
   250
420
  2299925
370
     9
100
AcDbSpline
210
0.0
220
0.0
230
1.0
 70
     9
 71
     3
 72
    17
 73
    13
 74
     0
 42
0.0000000001
 43
0.0000000001
 40
0.0
 40
0.0
 40
0.0
 40
0.0
 40
1.0
 40
1.0
 40
1.0
 40
2.0
 40
2.0
 40
2.0
 40
3.0
 40
3.0
 40
3.0
 40
4.0
 40
4.0
 40
4.0
 40
4.0
 10
122.1745634139858
 20
-156.7279969784953
 30
0.0
 10
122.1745634139858
 20
-156.9341433732357
 30
0.0
 10
121.9009800209653
 20
-157.1010721689768
 30
0.0
 10
121.5641252295599
 20
-157.1010721689768
 30
0.0
 10
121.2270418381594
 20
-157.1010721689768
 30
0.0
 10
120.9536870451327
 20
-156.9341433732357
 30
0.0
 10
120.9536870451327
 20
-156.7279969784953
 30
0.0
 10
120.9536870451327
 20
-156.5221299837474
 30
0.0
 10
121.2270418381594
 20
-156.3549471880121
 30
0.0
 10
121.5641252295599
 20
-156.3549471880121
 30
0.0
 10
121.9009800209653
 20
-156.3549471880121
 30
0.0
 10
122.1745634139858
 20
-156.5221299837474
 30
0.0
 10
122.1745634139858
 20
-156.7279969784953
 30
0.0
  0
ENDBLK
  5
148
330
145
100
AcDbEntity
  8
0
100
AcDbBlockEnd
  0
BLOCK
  5
14D
330
14B
100
AcDbEntity
  8
0
100
AcDbBlockBegin
  2
Block_26
 70
     0
 10
0.0
 20
0.0
 30
0.0
  3
Block_26
  1

  0
SPLINE
  5
14F
330
14B
100
AcDbEntity
  8
レイヤー 1
 62
   250
420
  2299925
370
     9
100
AcDbSpline
210
0.0
220
0.0
230
1.0
 70
     8
 71
     3
 72
    11
 73
     7
 74
     0
 42
0.0000000001
 43
0.0000000001
 40
0.0
 40
0.0
 40
0.0
 40
0.0
 40
1.0
 40
1.0
 40
1.0
 40
2.0
 40
2.0
 40
2.0
 40
2.0
 10
123.0424813918434
 20
-155.4309714115848
 30
0.0
 10
123.1101977901161
 20
-155.5917004868037
 30
0.0
 10
123.348322784041
 20
-155.710752404447
 30
0.0
 10
123.6328281767829
 20
-155.710752404447
 30
0.0
 10
123.9171049695297
 20
-155.710752404447
 30
0.0
 10
124.1552299634546
 20
-155.5917004868037
 30
0.0
 10
124.2231749617212
 20
-155.4309714115848
 30
0.0
  0
SPLINE
  5
150
330
14B
100
AcDbEntity
  8
レイヤー 1
 62
   250
420
  2299925
370
     9
100
AcDbSpline
210
0.0
220
0.0
230
1.0
 70
    11
 71
     3
 72
    17
 73
    13
 74
     0
 42
0.0000000001
 43
0.0000000001
 40
0.0
 40
0.0
 40
0.0
 40
0.0
 40
1.0
 40
1.0
 40
1.0
 40
2.0
 40
2.0
 40
2.0
 40
3.0
 40
3.0
 40
3.0
 40
4.0
 40
4.0
 40
4.0
 40
4.0
 10
124.2432917612084
 20
-155.5242402092052
 30
0.0
 10
124.2432917612084
 20
-155.7303612039466
 30
0.0
 10
123.9696829681883
 20
-155.8972899996884
 30
0.0
 10
123.6328281767829
 20
-155.8972899996884
 30
0.0
 10
123.2954907853889
 20
-155.8972899996884
 30
0.0
 10
123.0223899923557
 20
-155.7303612039466
 30
0.0
 10
123.0223899923557
 20
-155.5242402092052
 30
0.0
 10
123.0223899923557
 20
-155.3181192144637
 30
0.0
 10
123.2954907853889
 20
-155.1514190187171
 30
0.0
 10
123.6328281767829
 20
-155.1514190187171
 30
0.0
 10
123.9696829681883
 20
-155.1514190187171
 30
0.0
 10
124.2432917612084
 20
-155.3181192144637
 30
0.0
 10
124.2432917612084
 20
-155.5242402092052
 30
0.0
  0
ENDBLK
  5
14E
330
14B
100
AcDbEntity
  8
0
100
AcDbBlockEnd
  0
BLOCK
  5
153
330
151
100
AcDbEntity
  8
0
100
AcDbBlockBegin
  2
Block_27
 70
     0
 10
0.0
 20
0.0
 30
0.0
  3
Block_27
  1

  0
SPLINE
  5
155
330
151
100
AcDbEntity
  8
レイヤー 1
 62
   250
420
  2299925
370
     9
100
AcDbSpline
210
0.0
220
0.0
230
1.0
 70
     8
 71
     3
 72
    11
 73
     7
 74
     0
 42
0.0000000001
 43
0.0000000001
 40
0.0
 40
0.0
 40
0.0
 40
0.0
 40
1.0
 40
1.0
 40
1.0
 40
2.0
 40
2.0
 40
2.0
 40
2.0
 10
123.5056025950314
 20
-156.9229673735208
 30
0.0
 10
123.5735445782956
 20
-157.0839504864312
 30
0.0
 10
123.8119265949554
 20
-157.2027737663819
 30
0.0
 10
124.0961749649612
 20
-157.2027737663819
 30
0.0
 10
124.3807057577027
 20
-157.2027737663819
 30
0.0
 10
124.6185767516341
 20
-157.0839504864312
 30
0.0
 10
124.6865471499003
 20
-156.9229673735208
 30
0.0
  0
SPLINE
  5
156
330
151
100
AcDbEntity
  8
レイヤー 1
 62
   250
420
  2299925
370
     9
100
AcDbSpline
210
0.0
220
0.0
230
1.0
 70
     9
 71
     3
 72
    17
 73
    13
 74
     0
 42
0.0000000001
 43
0.0000000001
 40
0.0
 40
0.0
 40
0.0
 40
0.0
 40
1.0
 40
1.0
 40
1.0
 40
2.0
 40
2.0
 40
2.0
 40
3.0
 40
3.0
 40
3.0
 40
4.0
 40
4.0
 40
4.0
 40
4.0
 10
124.7063845493945
 20
-157.0162361711412
 30
0.0
 10
124.7063845493945
 20
-157.2223571658826
 30
0.0
 10
124.4332837563614
 20
-157.3892859616244
 30
0.0
 10
124.0961749649612
 20
-157.3892859616244
 30
0.0
 10
123.7590945949685
 20
-157.3892859616244
 30
0.0
 10
123.4857367805353
 20
-157.2223571658826
 30
0.0
 10
123.4857367805353
 20
-157.0162361711412
 30
0.0
 10
123.4857367805353
 20
-156.8103691763933
 30
0.0
 10
123.7590945949685
 20
-156.6431609806596
 30
0.0
 10
124.0961749649612
 20
-156.6431609806596
 30
0.0
 10
124.4332837563614
 20
-156.6431609806596
 30
0.0
 10
124.7063845493945
 20
-156.8103691763933
 30
0.0
 10
124.7063845493945
 20
-157.0162361711412
 30
0.0
  0
ENDBLK
  5
154
330
151
100
AcDbEntity
  8
0
100
AcDbBlockEnd
  0
BLOCK
  5
159
330
157
100
AcDbEntity
  8
0
100
AcDbBlockBegin
  2
Block_28
 70
     0
 10
0.0
 20
0.0
 30
0.0
  3
Block_28
  1

  0
SPLINE
  5
15B
330
157
100
AcDbEntity
  8
レイヤー 1
 62
   250
420
  2299925
370
     9
100
AcDbSpline
210
0.0
220
0.0
230
1.0
 70
     8
 71
     3
 72
    11
 73
     7
 74
     0
 42
0.0000000001
 43
0.0000000001
 40
0.0
 40
0.0
 40
0.0
 40
0.0
 40
1.0
 40
1.0
 40
1.0
 40
2.0
 40
2.0
 40
2.0
 40
2.0
 10
123.9920125949106
 20
-158.4266219351597
 30
0.0
 10
124.0597259658911
 20
-158.5873531310586
 30
0.0
 10
124.2981049598095
 20
-158.7064283280209
 30
0.0
 10
124.5823563525579
 20
-158.7064283280209
 30
0.0
 10
124.8666331453059
 20
-158.7064283280209
 30
0.0
 10
125.1047581392308
 20
-158.5873531310586
 30
0.0
 10
125.1727031374974
 20
-158.4266219351597
 30
0.0
  0
SPLINE
  5
15C
330
157
100
AcDbEntity
  8
レイヤー 1
 62
   250
420
  2299925
370
     9
100
AcDbSpline
210
0.0
220
0.0
230
1.0
 70
     9
 71
     3
 72
    17
 73
    13
 74
     0
 42
0.0000000001
 43
0.0000000001
 40
0.0
 40
0.0
 40
0.0
 40
0.0
 40
1.0
 40
1.0
 40
1.0
 40
2.0
 40
2.0
 40
2.0
 40
3.0
 40
3.0
 40
3.0
 40
4.0
 40
4.0
 40
4.0
 40
4.0
 10
125.1927945369851
 20
-158.5198907327795
 30
0.0
 10
125.1927945369851
 20
-158.725783127527
 30
0.0
 10
124.9192111439646
 20
-158.8929659232623
 30
0.0
 10
124.5823563525579
 20
-158.8929659232623
 30
0.0
 10
124.2450189611639
 20
-158.8929659232623
 30
0.0
 10
123.971918168132
 20
-158.725783127527
 30
0.0
 10
123.971918168132
 20
-158.5198907327795
 30
0.0
 10
123.971918168132
 20
-158.3137697380381
 30
0.0
 10
124.2450189611639
 20
-158.1468409422976
 30
0.0
 10
124.5823563525579
 20
-158.1468409422976
 30
0.0
 10
124.9192111439646
 20
-158.1468409422976
 30
0.0
 10
125.1927945369851
 20
-158.3137697380381
 30
0.0
 10
125.1927945369851
 20
-158.5198907327795
 30
0.0
  0
ENDBLK
  5
15A
330
157
100
AcDbEntity
  8
0
100
AcDbBlockEnd
  0
BLOCK
  5
15F
330
15D
100
AcDbEntity
  8
0
100
AcDbBlockBegin
  2
Block_29
 70
     0
 10
0.0
 20
0.0
 30
0.0
  3
Block_29
  1

  0
SPLINE
  5
161
330
15D
100
AcDbEntity
  8
レイヤー 1
 62
   250
420
  2299925
370
     9
100
AcDbSpline
210
0.0
220
0.0
230
1.0
 70
     8
 71
     3
 72
    11
 73
     7
 74
     0
 42
0.0000000001
 43
0.0000000001
 40
0.0
 40
0.0
 40
0.0
 40
0.0
 40
1.0
 40
1.0
 40
1.0
 40
2.0
 40
2.0
 40
2.0
 40
2.0
 10
126.0604585148492
 20
-157.2226111658761
 30
0.0
 10
126.1284289131141
 20
-157.3833423617756
 30
0.0
 10
126.366553907039
 20
-157.5024175587379
 30
0.0
 10
126.650830699787
 20
-157.5024175587379
 30
0.0
 10
126.9353360925289
 20
-157.5024175587379
 30
0.0
 10
127.1732070864603
 20
-157.3833423617756
 30
0.0
 10
127.2411805940985
 20
-157.2226111658761
 30
0.0
  0
SPLINE
  5
162
330
15D
100
AcDbEntity
  8
レイヤー 1
 62
   250
420
  2299925
370
     9
100
AcDbSpline
210
0.0
220
0.0
230
1.0
 70
     9
 71
     3
 72
    17
 73
    13
 74
     0
 42
0.0000000001
 43
0.0000000001
 40
0.0
 40
0.0
 40
0.0
 40
0.0
 40
1.0
 40
1.0
 40
1.0
 40
2.0
 40
2.0
 40
2.0
 40
3.0
 40
3.0
 40
3.0
 40
4.0
 40
4.0
 40
4.0
 40
4.0
 10
127.2612688842129
 20
-157.3158799634971
 30
0.0
 10
127.2612688842129
 20
-157.521746958245
 30
0.0
 10
126.9881680911811
 20
-157.6889297539791
 30
0.0
 10
126.650830699787
 20
-157.6889297539791
 30
0.0
 10
126.3137219083869
 20
-157.6889297539791
 30
0.0
 10
126.0403671153615
 20
-157.521746958245
 30
0.0
 10
126.0403671153615
 20
-157.3158799634971
 30
0.0
 10
126.0403671153615
 20
-157.1099875687496
 30
0.0
 10
126.3137219083869
 20
-156.9428047730143
 30
0.0
 10
126.650830699787
 20
-156.9428047730143
 30
0.0
 10
126.9881680911811
 20
-156.9428047730143
 30
0.0
 10
127.2612688842129
 20
-157.1099875687496
 30
0.0
 10
127.2612688842129
 20
-157.3158799634971
 30
0.0
  0
ENDBLK
  5
160
330
15D
100
AcDbEntity
  8
0
100
AcDbBlockEnd
  0
ENDSEC
  0
SECTION
  2
ENTITIES
  0
INSERT
  5
7A
330
70
100
AcDbEntity
  8
レイヤー 1
100
AcDbBlockReference
  2
Block_0
 10
0.0
 20
0.0
 30
0.0
  0
INSERT
  5
E2
330
70
100
AcDbEntity
  8
レイヤー 1
100
AcDbBlockReference
  2
Block_9
 10
0.0
 20
0.0
 30
0.0
  0
ENDSEC
  0
SECTION
  2
OBJECTS
  0
DICTIONARY
  5
C
330
0
100
AcDbDictionary
281
     1
  3
ACAD_COLOR
350
63
  3
ACAD_DETAILVIEWSTYLE
350
6A
  3
ACAD_GROUP
350
D
  3
ACAD_LAYOUT
350
62
  3
ACAD_MATERIAL
350
10
  3
ACAD_MLEADERSTYLE
350
66
  3
ACAD_MLINESTYLE
350
5F
  3
ACAD_PLOTSETTINGS
350
61
  3
ACAD_PLOTSTYLENAME
350
E
  3
ACAD_SCALELIST
350
42
  3
ACAD_SECTIONVIEWSTYLE
350
68
  3
ACAD_TABLESTYLE
350
64
  3
ACAD_VISUALSTYLE
350
29
  3
ACDB_RECOMPOSE_DATA
350
16B
  3
AcDbVariableDictionary
350
163
  0
DICTIONARY
  5
63
102
{ACAD_REACTORS
330
C
102
}
330
C
100
AcDbDictionary
281
     1
  0
DICTIONARY
  5
6A
102
{ACAD_REACTORS
330
C
102
}
330
C
100
AcDbDictionary
281
     1
  3
Imperial24
350
6B
  0
DICTIONARY
  5
D
102
{ACAD_REACTORS
330
C
102
}
330
C
100
AcDbDictionary
281
     1
  0
DICTIONARY
  5
62
102
{ACAD_REACTORS
330
C
102
}
330
C
100
AcDbDictionary
281
     1
  3
Layout1
350
6F
  3
Layout2
350
77
  3
Model
350
73
  0
DICTIONARY
  5
10
102
{ACAD_REACTORS
330
C
102
}
330
C
100
AcDbDictionary
281
     1
  3
ByBlock
350
19
  3
ByLayer
350
11
  3
Global
350
21
  0
DICTIONARY
  5
66
102
{ACAD_REACTORS
330
C
102
}
330
C
100
AcDbDictionary
281
     1
  3
Standard
350
67
  0
DICTIONARY
  5
5F
102
{ACAD_REACTORS
330
C
102
}
330
C
100
AcDbDictionary
281
     1
  3
Standard
350
60
  0
DICTIONARY
  5
61
102
{ACAD_REACTORS
330
C
102
}
330
C
100
AcDbDictionary
281
     1
  0
ACDBDICTIONARYWDFLT
  5
E
102
{ACAD_REACTORS
330
C
102
}
330
C
100
AcDbDictionary
281
     1
  3
Normal
350
F
100
AcDbDictionaryWithDefault
340
F
  0
DICTIONARY
  5
42
102
{ACAD_REACTORS
330
C
102
}
330
C
100
AcDbDictionary
281
     1
  3
A0
350
43
  3
A1
350
44
  3
A2
350
45
  3
A3
350
46
  3
A4
350
47
  3
A5
350
48
  3
A6
350
49
  3
A7
350
4A
  3
A8
350
4B
  3
A9
350
4C
  3
B0
350
4D
  3
B1
350
4E
  3
B2
350
4F
  3
B3
350
50
  3
B4
350
51
  3
B5
350
52
  3
B6
350
53
  0
DICTIONARY
  5
68
102
{ACAD_REACTORS
330
C
102
}
330
C
100
AcDbDictionary
281
     1
  3
Imperial24
350
69
  0
DICTIONARY
  5
64
102
{ACAD_REACTORS
330
C
102
}
330
C
100
AcDbDictionary
281
     1
  3
Standard
350
65
  0
DICTIONARY
  5
29
102
{ACAD_REACTORS
330
C
102
}
330
C
100
AcDbDictionary
281
     1
  3
2dWireframe
350
2F
  3
Basic
350
2E
  3
Brighten
350
35
  3
ColorChange
350
39
  3
Conceptual
350
32
  3
Dim
350
34
  3
EdgeColorOff
350
41
  3
Facepattern
350
38
  3
Flat
350
2A
  3
FlatWithEdges
350
2B
  3
Gouraud
350
2C
  3
GouraudWithEdges
350
2D
  3
Hidden
350
31
  3
JitterOff
350
3F
  3
Linepattern
350
37
  3
OverhangOff
350
40
  3
Realistic
350
33
  3
Shaded
350
3E
  3
Shaded with edges
350
3D
  3
Shades of Gray
350
3A
  3
Sketchy
350
3B
  3
Thicken
350
36
  3
Wireframe
350
30
  3
X-Ray
350
3C
  0
XRECORD
  5
16B
102
{ACAD_REACTORS
330
C
102
}
330
C
100
AcDbXrecord
280
     1
 90
        1
330
65
  0
DICTIONARY
  5
163
102
{ACAD_REACTORS
330
C
102
}
330
C
100
AcDbDictionary
281
     1
  3
CANNOSCALE
350
168
  3
CMLEADERSTYLE
350
165
  3
CTABLESTYLE
350
164
  3
CVIEWDETAILSTYLE
350
166
  3
CVIEWSECTIONSTYLE
350
167
  0
ACDBDETAILVIEWSTYLE
  5
6B
102
{ACAD_XDICTIONARY
360
1A0
102
}
102
{ACAD_REACTORS
330
6A
102
}
330
6A
100
AcDbModelDocViewStyle
 70
     0
  3
Imperial24
290
     0
100
AcDbDetailViewStyle
 70
     0
 71
     0
 90
        3
 71
     1
340
55
 62
   256
 40
0.24
340
0
 62
   256
 40
0.24
300

 40
0.36
280
     3
 71
     2
340
5D
 90
       25
 62
   256
 71
     3
340
55
 62
   256
 40
0.24
 90
        1
 40
0.75
 90
        1
300
%<\AcVar ViewType \f "%tc1">% %<\AcVar ViewDetailId>%\PSCALE %<\AcVar ViewScale \f "%sn">%
 71
     4
340
5D
 90
       25
 62
   256
340
5D
 90
       25
 62
   256
280
     0
  0
LAYOUT
  5
6F
102
{ACAD_REACTORS
330
62
102
}
330
62
100
AcDbPlotSettings
  1

  2

  4

  6

 40
0.0
 41
0.0
 42
0.0
 43
0.0
 44
0.0
 45
0.0
 46
0.0
 47
0.0
 48
0.0
 49
0.0
140
0.0
141
0.0
142
1.0
143
1.0
 70
   688
 72
     0
 73
     0
 74
     5
  7

 75
    16
147
1.0
 76
     0
 77
     2
 78
   300
148
0.0
149
0.0
100
AcDbLayout
  1
Layout1
 70
     1
 71
     1
 10
0.0
 20
0.0
 11
12.0
 21
9.0
 12
0.0
 22
0.0
 32
0.0
 14
0.0
 24
0.0
 34
0.0
 15
0.0
 25
0.0
 35
0.0
146
0.0
 13
0.0
 23
0.0
 33
0.0
 16
1.0
 26
0.0
 36
0.0
 17
0.0
 27
1.0
 37
0.0
 76
     0
330
6C
  0
LAYOUT
  5
77
102
{ACAD_REACTORS
330
62
102
}
330
62
100
AcDbPlotSettings
  1

  2

  4

  6

 40
0.0
 41
0.0
 42
0.0
 43
0.0
 44
0.0
 45
0.0
 46
0.0
 47
0.0
 48
0.0
 49
0.0
140
0.0
141
0.0
142
1.0
143
1.0
 70
   688
 72
     0
 73
     0
 74
     5
  7

 75
    16
147
1.0
 76
     0
 77
     2
 78
   300
148
0.0
149
0.0
100
AcDbLayout
  1
Layout2
 70
     1
 71
     2
 10
0.0
 20
0.0
 11
12.0
 21
9.0
 12
0.0
 22
0.0
 32
0.0
 14
0.0
 24
0.0
 34
0.0
 15
0.0
 25
0.0
 35
0.0
146
0.0
 13
0.0
 23
0.0
 33
0.0
 16
1.0
 26
0.0
 36
0.0
 17
0.0
 27
1.0
 37
0.0
 76
     0
330
74
  0
LAYOUT
  5
73
102
{ACAD_REACTORS
330
62
102
}
330
62
100
AcDbPlotSettings
  1

  2

  4

  6

 40
0.0
 41
0.0
 42
0.0
 43
0.0
 44
0.0
 45
0.0
 46
0.0
 47
0.0
 48
0.0
 49
0.0
140
0.0
141
0.0
142
1.0
143
1.0
 70
  1712
 72
     0
 73
     0
 74
     0
  7

 75
     0
147
1.0
 76
     0
 77
     2
 78
   300
148
0.0
149
0.0
100
AcDbLayout
  1
Model
 70
     1
 71
     0
 10
0.0
 20
0.0
 11
12.0
 21
9.0
 12
0.0
 22
0.0
 32
0.0
 14
0.0
 24
0.0
 34
0.0
 15
0.0
 25
0.0
 35
0.0
146
0.0
 13
0.0
 23
0.0
 33
0.0
 16
1.0
 26
0.0
 36
0.0
 17
0.0
 27
1.0
 37
0.0
 76
     0
330
70
  0
MATERIAL
  5
19
102
{ACAD_XDICTIONARY
360
1A
102
}
102
{ACAD_REACTORS
330
10
102
}
330
10
100
AcDbMaterial
  1
ByBlock
 72
     0
 43
0.0208333333333333
 43
0.0
 43
0.0
 43
0.0
 43
0.0
 43
0.0208333333333333
 43
0.0
 43
0.0
 43
0.0
 43
0.0
 43
1.0
 43
0.0
 43
0.0
 43
0.0
 43
0.0
 43
1.0
 77
     0
 47
0.0208333333333333
 47
0.0
 47
0.0
 47
0.0
 47
0.0
 47
0.0208333333333333
 47
0.0
 47
0.0
 47
0.0
 47
0.0
 47
1.0
 47
0.0
 47
0.0
 47
0.0
 47
0.0
 47
1.0
171
     0
 49
0.0208333333333333
 49
0.0
 49
0.0
 49
0.0
 49
0.0
 49
0.0208333333333333
 49
0.0
 49
0.0
 49
0.0
 49
0.0
 49
1.0
 49
0.0
 49
0.0
 49
0.0
 49
0.0
 49
1.0
175
     0
142
0.0208333333333333
142
0.0
142
0.0
142
0.0
142
0.0
142
0.0208333333333333
142
0.0
142
0.0
142
0.0
142
0.0
142
1.0
142
0.0
142
0.0
142
0.0
142
0.0
142
1.0
179
     0
144
0.0208333333333333
144
0.0
144
0.0
144
0.0
144
0.0
144
0.0208333333333333
144
0.0
144
0.0
144
0.0
144
0.0
144
1.0
144
0.0
144
0.0
144
0.0
144
0.0
144
1.0
147
0.0208333333333333
147
0.0
147
0.0
147
0.0
147
0.0
147
0.0208333333333333
147
0.0
147
0.0
147
0.0
147
0.0
147
1.0
147
0.0
147
0.0
147
0.0
147
0.0
147
1.0
  0
MATERIAL
  5
11
102
{ACAD_XDICTIONARY
360
12
102
}
102
{ACAD_REACTORS
330
10
102
}
330
10
100
AcDbMaterial
  1
ByLayer
 72
     0
 43
0.0208333333333333
 43
0.0
 43
0.0
 43
0.0
 43
0.0
 43
0.0208333333333333
 43
0.0
 43
0.0
 43
0.0
 43
0.0
 43
1.0
 43
0.0
 43
0.0
 43
0.0
 43
0.0
 43
1.0
 77
     0
 47
0.0208333333333333
 47
0.0
 47
0.0
 47
0.0
 47
0.0
 47
0.0208333333333333
 47
0.0
 47
0.0
 47
0.0
 47
0.0
 47
1.0
 47
0.0
 47
0.0
 47
0.0
 47
0.0
 47
1.0
171
     0
 49
0.0208333333333333
 49
0.0
 49
0.0
 49
0.0
 49
0.0
 49
0.0208333333333333
 49
0.0
 49
0.0
 49
0.0
 49
0.0
 49
1.0
 49
0.0
 49
0.0
 49
0.0
 49
0.0
 49
1.0
175
     0
142
0.0208333333333333
142
0.0
142
0.0
142
0.0
142
0.0
142
0.0208333333333333
142
0.0
142
0.0
142
0.0
142
0.0
142
1.0
142
0.0
142
0.0
142
0.0
142
0.0
142
1.0
179
     0
144
0.0208333333333333
144
0.0
144
0.0
144
0.0
144
0.0
144
0.0208333333333333
144
0.0
144
0.0
144
0.0
144
0.0
144
1.0
144
0.0
144
0.0
144
0.0
144
0.0
144
1.0
147
0.0208333333333333
147
0.0
147
0.0
147
0.0
147
0.0
147
0.0208333333333333
147
0.0
147
0.0
147
0.0
147
0.0
147
1.0
147
0.0
147
0.0
147
0.0
147
0.0
147
1.0
  0
MATERIAL
  5
21
102
{ACAD_XDICTIONARY
360
22
102
}
102
{ACAD_REACTORS
330
10
102
}
330
10
100
AcDbMaterial
  1
Global
 72
     0
 43
0.0208333333333333
 43
0.0
 43
0.0
 43
0.0
 43
0.0
 43
0.0208333333333333
 43
0.0
 43
0.0
 43
0.0
 43
0.0
 43
1.0
 43
0.0
 43
0.0
 43
0.0
 43
0.0
 43
1.0
 77
     0
 47
0.0208333333333333
 47
0.0
 47
0.0
 47
0.0
 47
0.0
 47
0.0208333333333333
 47
0.0
 47
0.0
 47
0.0
 47
0.0
 47
1.0
 47
0.0
 47
0.0
 47
0.0
 47
0.0
 47
1.0
171
     0
 49
0.0208333333333333
 49
0.0
 49
0.0
 49
0.0
 49
0.0
 49
0.0208333333333333
 49
0.0
 49
0.0
 49
0.0
 49
0.0
 49
1.0
 49
0.0
 49
0.0
 49
0.0
 49
0.0
 49
1.0
175
     0
142
0.0208333333333333
142
0.0
142
0.0
142
0.0
142
0.0
142
0.0208333333333333
142
0.0
142
0.0
142
0.0
142
0.0
142
1.0
142
0.0
142
0.0
142
0.0
142
0.0
142
1.0
179
     0
144
0.0208333333333333
144
0.0
144
0.0
144
0.0
144
0.0
144
0.0208333333333333
144
0.0
144
0.0
144
0.0
144
0.0
144
1.0
144
0.0
144
0.0
144
0.0
144
0.0
144
1.0
147
0.0208333333333333
147
0.0
147
0.0
147
0.0
147
0.0
147
0.0208333333333333
147
0.0
147
0.0
147
0.0
147
0.0
147
1.0
147
0.0
147
0.0
147
0.0
147
0.0
147
1.0
  0
MLEADERSTYLE
  5
67
102
{ACAD_XDICTIONARY
360
19C
102
}
102
{ACAD_REACTORS
330
66
102
}
330
66
100
AcDbMLeaderStyle
179
     2
170
     2
171
     1
172
     0
 90
        2
 40
0.0
 41
0.0
173
     1
 91
-1056964608
340
5B
 92
       -2
290
     1
 42
0.09
291
     1
 43
0.36
  3
Standard
 44
0.18
300

342
55
174
     1
178
     6
175
     1
176
     0
 93
-1056964608
 45
0.18
292
     0
297
     0
 46
0.18
 94
-1056964608
 47
1.0
 49
1.0
140
1.0
293
     1
141
0.0
294
     1
177
     0
142
1.0
295
     0
296
     0
143
0.125
271
     0
272
     9
273
     9
  0
MLINESTYLE
  5
60
102
{ACAD_REACTORS
330
5F
102
}
330
5F
100
AcDbMlineStyle
  2
STANDARD
 70
     0
  3

 62
   256
 51
90.0
 52
90.0
 71
     2
 49
0.5
 62
   256
  6
BYLAYER
 49
-0.5
 62
   256
  6
BYLAYER
  0
ACDBPLACEHOLDER
  5
F
102
{ACAD_REACTORS
330
E
102
}
330
E
  0
SCALE
  5
43
102
{ACAD_REACTORS
330
42
102
}
330
42
100
AcDbScale
 70
     0
300
1:1
140
1.0
141
1.0
290
     1
  0
SCALE
  5
44
102
{ACAD_REACTORS
330
42
102
}
330
42
100
AcDbScale
 70
     0
300
1/128" = 1'-0"
140
0.0078125
141
12.0
290
     0
  0
SCALE
  5
45
102
{ACAD_REACTORS
330
42
102
}
330
42
100
AcDbScale
 70
     0
300
1/64" = 1'-0"
140
0.015625
141
12.0
290
     0
  0
SCALE
  5
46
102
{ACAD_REACTORS
330
42
102
}
330
42
100
AcDbScale
 70
     0
300
1/32" = 1'-0"
140
0.03125
141
12.0
290
     0
  0
SCALE
  5
47
102
{ACAD_REACTORS
330
42
102
}
330
42
100
AcDbScale
 70
     0
300
1/16" = 1'-0"
140
0.0625
141
12.0
290
     0
  0
SCALE
  5
48
102
{ACAD_REACTORS
330
42
102
}
330
42
100
AcDbScale
 70
     0
300
3/32" = 1'-0"
140
0.09375
141
12.0
290
     0
  0
SCALE
  5
49
102
{ACAD_REACTORS
330
42
102
}
330
42
100
AcDbScale
 70
     0
300
1/8" = 1'-0"
140
0.125
141
12.0
290
     0
  0
SCALE
  5
4A
102
{ACAD_REACTORS
330
42
102
}
330
42
100
AcDbScale
 70
     0
300
3/16" = 1'-0"
140
0.1875
141
12.0
290
     0
  0
SCALE
  5
4B
102
{ACAD_REACTORS
330
42
102
}
330
42
100
AcDbScale
 70
     0
300
1/4" = 1'-0"
140
0.25
141
12.0
290
     0
  0
SCALE
  5
4C
102
{ACAD_REACTORS
330
42
102
}
330
42
100
AcDbScale
 70
     0
300
3/8" = 1'-0"
140
0.375
141
12.0
290
     0
  0
SCALE
  5
4D
102
{ACAD_REACTORS
330
42
102
}
330
42
100
AcDbScale
 70
     0
300
1/2" = 1'-0"
140
0.5
141
12.0
290
     0
  0
SCALE
  5
4E
102
{ACAD_REACTORS
330
42
102
}
330
42
100
AcDbScale
 70
     0
300
3/4" = 1'-0"
140
0.75
141
12.0
290
     0
  0
SCALE
  5
4F
102
{ACAD_REACTORS
330
42
102
}
330
42
100
AcDbScale
 70
     0
300
1" = 1'-0"
140
1.0
141
12.0
290
     0
  0
SCALE
  5
50
102
{ACAD_REACTORS
330
42
102
}
330
42
100
AcDbScale
 70
     0
300
1-1/2" = 1'-0"
140
1.5
141
12.0
290
     0
  0
SCALE
  5
51
102
{ACAD_REACTORS
330
42
102
}
330
42
100
AcDbScale
 70
     0
300
3" = 1'-0"
140
3.0
141
12.0
290
     0
  0
SCALE
  5
52
102
{ACAD_REACTORS
330
42
102
}
330
42
100
AcDbScale
 70
     0
300
6" = 1'-0"
140
6.0
141
12.0
290
     0
  0
SCALE
  5
53
102
{ACAD_REACTORS
330
42
102
}
330
42
100
AcDbScale
 70
     0
300
1'-0" = 1'-0"
140
12.0
141
12.0
290
     0
  0
ACDBSECTIONVIEWSTYLE
  5
69
102
{ACAD_XDICTIONARY
360
19E
102
}
102
{ACAD_REACTORS
330
68
102
}
330
68
100
AcDbModelDocViewStyle
 70
     0
  3
Imperial24
290
     0
100
AcDbSectionViewStyle
 70
     0
 71
     0
 90
       78
 71
     1
340
55
 62
   256
 40
0.24
340
0
340
0
 62
   256
 40
0.24
300
I, O, Q, S, X, Z
 40
0.48
 90
        3
 40
0.18
 90
        1
 71
     2
340
5D
 90
       25
 62
   256
340
5D
 90
       50
 62
   256
 40
0.24
 40
0.0
 40
0.24
 71
     3
340
55
 62
   256
 40
0.24
 90
        1
 40
0.75
 90
        1
300
%<\AcVar ViewType \f "%tc1">% %<\AcVar ViewSectionStartId>%-%<\AcVar ViewSectionEndId>%\PSCALE %<\AcVar ViewScale \f "%sn">%
 71
     4
 62
   256
 62
   257
300
ANSI31
 40
1.0
 90
        0
290
     0
290
     0
 90
        6
 40
0.0
 40
1.570796326794896
 40
0.2617993877991494
 40
1.308996938995747
 40
-0.2617993877991494
 40
1.832595714594046
  0
TABLESTYLE
  5
65
102
{ACAD_XDICTIONARY
360
169
102
}
102
{ACAD_REACTORS
330
64
102
}
330
64
100
AcDbTableStyle
280
     0
  3
Standard
 70
     0
 71
     0
 40
0.06
 41
0.06
280
     0
281
     0
  7
Standard
140
0.18
170
     2
 62
     0
 63
     7
283
     0
 90
      512
 91
        0
  1

274
    -2
284
     1
 64
     0
275
    -2
285
     1
 65
     0
276
    -2
286
     1
 66
     0
277
    -2
287
     1
 67
     0
278
    -2
288
     1
 68
     0
279
    -2
289
     1
 69
     0
  7
Standard
140
0.25
170
     5
 62
     0
 63
     7
283
     0
 90
      512
 91
        0
  1

274
    -2
284
     1
 64
     0
275
    -2
285
     1
 65
     0
276
    -2
286
     1
 66
     0
277
    -2
287
     1
 67
     0
278
    -2
288
     1
 68
     0
279
    -2
289
     1
 69
     0
  7
Standard
140
0.18
170
     5
 62
     0
 63
     7
283
     0
 90
      512
 91
        0
  1

274
    -2
284
     1
 64
     0
275
    -2
285
     1
 65
     0
276
    -2
286
     1
 66
     0
277
    -2
287
     1
 67
     0
278
    -2
288
     1
 68
     0
279
    -2
289
     1
 69
     0
  0
VISUALSTYLE
  5
2F
102
{ACAD_XDICTIONARY
360
176
102
}
102
{ACAD_REACTORS
330
29
102
}
330
29
100
AcDbVisualStyle
  2
2dWireframe
 70
     4
177
     2
291
     0
 71
     0
176
     1
 72
     2
176
     1
 73
     0
176
     1
 90
        0
176
     1
 40
0.6
176
     1
 41
30.0
176
     1
 63
     7
421
 16777215
176
     1
 74
     1
176
     1
 91
        4
176
     1
 64
     7
176
     1
 65
   257
176
     1
 75
     1
176
     1
175
     1
176
     1
 42
1.0
176
     1
 92
        0
176
     1
 66
   257
176
     1
 43
1.0
176
     1
 76
     1
176
     1
 77
     6
176
     1
 78
     2
176
     1
 67
     7
176
     1
 79
     5
176
     1
170
     0
176
     1
171
     0
176
     1
290
     0
176
     1
 93
        1
176
     1
 44
0.0
176
     1
173
     0
176
     1
1001
ACAD
1000
AcDbSavedByObjectVersion
1070
     0
  0
VISUALSTYLE
  5
2E
102
{ACAD_XDICTIONARY
360
174
102
}
102
{ACAD_REACTORS
330
29
102
}
330
29
100
AcDbVisualStyle
  2
Basic
 70
     7
177
     2
291
     1
 71
     1
176
     1
 72
     0
176
     1
 73
     1
176
     1
 90
        0
176
     1
 40
0.6
176
     1
 41
30.0
176
     1
 63
     7
421
 16777215
176
     1
 74
     0
176
     1
 91
        4
176
     1
 64
     7
176
     1
 65
   257
176
     1
 75
     1
176
     1
175
     1
176
     1
 42
1.0
176
     1
 92
        8
176
     1
 66
     7
176
     1
 43
1.0
176
     1
 76
     1
176
     1
 77
     6
176
     1
 78
     2
176
     1
 67
     7
176
     1
 79
     5
176
     1
170
     0
176
     1
171
     0
176
     1
290
     0
176
     1
 93
        1
176
     1
 44
0.0
176
     1
173
     0
176
     1
1001
ACAD
1000
AcDbSavedByObjectVersion
1070
     0
  0
VISUALSTYLE
  5
35
102
{ACAD_XDICTIONARY
360
182
102
}
102
{ACAD_REACTORS
330
29
102
}
330
29
100
AcDbVisualStyle
  2
Brighten
 70
    12
177
     2
291
     1
 71
     2
176
     1
 72
     2
176
     1
 73
     0
176
     1
 90
        0
176
     1
 40
0.6
176
     1
 41
30.0
176
     1
 63
     7
421
 16777215
176
     1
 74
     1
176
     1
 91
        4
176
     1
 64
     7
176
     1
 65
   257
176
     1
 75
     1
176
     1
175
     1
176
     1
 42
1.0
176
     1
 92
        8
176
     1
 66
     7
176
     1
 43
1.0
176
     1
 76
     1
176
     1
 77
     6
176
     1
 78
     2
176
     1
 67
     7
176
     1
 79
     5
176
     1
170
     0
176
     1
171
     0
176
     1
290
     0
176
     1
 93
        1
176
     1
 44
50.0
176
     1
173
     0
176
     1
1001
ACAD
1000
AcDbSavedByObjectVersion
1070
     0
  0
VISUALSTYLE
  5
39
102
{ACAD_XDICTIONARY
360
18A
102
}
102
{ACAD_REACTORS
330
29
102
}
330
29
100
AcDbVisualStyle
  2
ColorChange
 70
    16
177
     2
291
     1
 71
     2
176
     1
 72
     2
176
     1
 73
     3
176
     1
 90
        0
176
     1
 40
0.6
176
     1
 41
30.0
176
     1
 63
     8
421
  8421504
176
     1
 74
     1
176
     1
 91
        4
176
     1
 64
     7
176
     1
 65
   257
176
     1
 75
     1
176
     1
175
     1
176
     1
 42
1.0
176
     1
 92
        8
176
     1
 66
     8
424
  8421504
176
     1
 43
1.0
176
     1
 76
     1
176
     1
 77
     6
176
     1
 78
     2
176
     1
 67
     7
176
     1
 79
     5
176
     1
170
     0
176
     1
171
     0
176
     1
290
     0
176
     1
 93
        1
176
     1
 44
0.0
176
     1
173
     0
176
     1
1001
ACAD
1000
AcDbSavedByObjectVersion
1070
     0
  0
VISUALSTYLE
  5
32
102
{ACAD_XDICTIONARY
360
17C
102
}
102
{ACAD_REACTORS
330
29
102
}
330
29
100
AcDbVisualStyle
  2
Conceptual
 70
     9
177
     2
291
     0
 71
     3
176
     1
 72
     2
176
     1
 73
     0
176
     1
 90
        0
176
     1
 40
0.6
176
     1
 41
30.0
176
     1
 63
     7
421
 16777215
176
     1
 74
     2
176
     1
 91
        2
176
     1
 64
     7
176
     1
 65
   257
176
     1
 75
     1
176
     1
175
     1
176
     1
 42
179.0
176
     1
 92
        8
176
     1
 66
     7
176
     1
 43
1.0
176
     1
 76
     1
176
     1
 77
     6
176
     1
 78
     2
176
     1
 67
     7
176
     1
 79
     3
176
     1
170
     0
176
     1
171
     0
176
     1
290
     0
176
     1
 93
        1
176
     1
 44
0.0
176
     1
173
     0
176
     1
1001
ACAD
1000
AcDbSavedByObjectVersion
1070
     0
  0
VISUALSTYLE
  5
34
102
{ACAD_XDICTIONARY
360
180
102
}
102
{ACAD_REACTORS
330
29
102
}
330
29
100
AcDbVisualStyle
  2
Dim
 70
    11
177
     2
291
     1
 71
     2
176
     1
 72
     2
176
     1
 73
     0
176
     1
 90
        0
176
     1
 40
0.6
176
     1
 41
30.0
176
     1
 63
     7
421
 16777215
176
     1
 74
     1
176
     1
 91
        4
176
     1
 64
     7
176
     1
 65
   257
176
     1
 75
     1
176
     1
175
     1
176
     1
 42
1.0
176
     1
 92
        8
176
     1
 66
     7
176
     1
 43
1.0
176
     1
 76
     1
176
     1
 77
     6
176
     1
 78
     2
176
     1
 67
     7
176
     1
 79
     5
176
     1
170
     0
176
     1
171
     0
176
     1
290
     0
176
     1
 93
        1
176
     1
 44
-50.0
176
     1
173
     0
176
     1
1001
ACAD
1000
AcDbSavedByObjectVersion
1070
     0
  0
VISUALSTYLE
  5
41
102
{ACAD_XDICTIONARY
360
19A
102
}
102
{ACAD_REACTORS
330
29
102
}
330
29
100
AcDbVisualStyle
  2
EdgeColorOff
 70
    22
177
     2
291
     1
 71
     2
176
     0
 72
     2
176
     0
 73
     0
176
     0
 90
        0
176
     0
 40
0.6
176
     0
 41
30.0
176
     0
 63
     7
421
 16777215
176
     0
 74
     1
176
     0
 91
        4
176
     0
 64
     7
176
     0
 65
   257
176
     0
 75
     1
176
     0
175
     1
176
     0
 42
1.0
176
     0
 92
        8
176
     2
 66
     7
176
     0
 43
1.0
176
     0
 76
     1
176
     0
 77
     6
176
     0
 78
     2
176
     0
 67
     7
176
     0
 79
     5
176
     0
170
     0
176
     0
171
     0
176
     0
290
     0
176
     0
 93
        1
176
     0
 44
0.0
176
     0
173
     0
176
     0
1001
ACAD
1000
AcDbSavedByObjectVersion
1070
     0
  0
VISUALSTYLE
  5
38
102
{ACAD_XDICTIONARY
360
188
102
}
102
{ACAD_REACTORS
330
29
102
}
330
29
100
AcDbVisualStyle
  2
Facepattern
 70
    15
177
     2
291
     1
 71
     2
176
     1
 72
     2
176
     1
 73
     0
176
     1
 90
        0
176
     1
 40
0.6
176
     1
 41
30.0
176
     1
 63
     7
421
 16777215
176
     1
 74
     1
176
     1
 91
        4
176
     1
 64
     7
176
     1
 65
   257
176
     1
 75
     1
176
     1
175
     1
176
     1
 42
1.0
176
     1
 92
        8
176
     1
 66
     7
176
     1
 43
1.0
176
     1
 76
     1
176
     1
 77
     6
176
     1
 78
     2
176
     1
 67
     7
176
     1
 79
     5
176
     1
170
     0
176
     1
171
     0
176
     1
290
     0
176
     1
 93
        1
176
     1
 44
0.0
176
     1
173
     0
176
     1
1001
ACAD
1000
AcDbSavedByObjectVersion
1070
     0
  0
VISUALSTYLE
  5
2A
102
{ACAD_XDICTIONARY
360
16C
102
}
102
{ACAD_REACTORS
330
29
102
}
330
29
100
AcDbVisualStyle
  2
Flat
 70
     0
177
     2
291
     1
 71
     2
176
     1
 72
     1
176
     1
 73
     1
176
     1
 90
        2
176
     1
 40
0.6
176
     1
 41
30.0
176
     1
 63
     7
421
 16777215
176
     1
 74
     0
176
     1
 91
        0
176
     1
 64
     7
176
     1
 65
   257
176
     1
 75
     1
176
     1
175
     1
176
     1
 42
1.0
176
     1
 92
        8
176
     1
 66
     7
176
     1
 43
1.0
176
     1
 76
     1
176
     1
 77
     6
176
     1
 78
     2
176
     1
 67
     7
176
     1
 79
     5
176
     1
170
     0
176
     1
171
     0
176
     1
290
     0
176
     1
 93
       13
176
     1
 44
0.0
176
     1
173
     0
176
     1
1001
ACAD
1000
AcDbSavedByObjectVersion
1070
     0
  0
VISUALSTYLE
  5
2B
102
{ACAD_XDICTIONARY
360
16E
102
}
102
{ACAD_REACTORS
330
29
102
}
330
29
100
AcDbVisualStyle
  2
FlatWithEdges
 70
     1
177
     2
291
     1
 71
     2
176
     1
 72
     1
176
     1
 73
     1
176
     1
 90
        2
176
     1
 40
0.6
176
     1
 41
30.0
176
     1
 63
     7
421
 16777215
176
     1
 74
     1
176
     1
 91
        0
176
     1
 64
     7
176
     1
 65
   257
176
     1
 75
     1
176
     1
175
     1
176
     1
 42
1.0
176
     1
 92
        0
176
     1
 66
   257
176
     1
 43
1.0
176
     1
 76
     1
176
     1
 77
     6
176
     1
 78
     2
176
     1
 67
     7
176
     1
 79
     5
176
     1
170
     0
176
     1
171
     0
176
     1
290
     0
176
     1
 93
       13
176
     1
 44
0.0
176
     1
173
     0
176
     1
1001
ACAD
1000
AcDbSavedByObjectVersion
1070
     0
  0
VISUALSTYLE
  5
2C
102
{ACAD_XDICTIONARY
360
170
102
}
102
{ACAD_REACTORS
330
29
102
}
330
29
100
AcDbVisualStyle
  2
Gouraud
 70
     2
177
     2
291
     1
 71
     2
176
     1
 72
     2
176
     1
 73
     1
176
     1
 90
        2
176
     1
 40
0.6
176
     1
 41
30.0
176
     1
 63
     7
421
 16777215
176
     1
 74
     0
176
     1
 91
        0
176
     1
 64
     7
176
     1
 65
   257
176
     1
 75
     1
176
     1
175
     1
176
     1
 42
1.0
176
     1
 92
        0
176
     1
 66
     7
176
     1
 43
1.0
176
     1
 76
     1
176
     1
 77
     6
176
     1
 78
     2
176
     1
 67
     7
176
     1
 79
     5
176
     1
170
     0
176
     1
171
     0
176
     1
290
     0
176
     1
 93
       13
176
     1
 44
0.0
176
     1
173
     0
176
     1
1001
ACAD
1000
AcDbSavedByObjectVersion
1070
     0
  0
VISUALSTYLE
  5
2D
102
{ACAD_XDICTIONARY
360
172
102
}
102
{ACAD_REACTORS
330
29
102
}
330
29
100
AcDbVisualStyle
  2
GouraudWithEdges
 70
     3
177
     2
291
     1
 71
     2
176
     1
 72
     2
176
     1
 73
     1
176
     1
 90
        2
176
     1
 40
0.6
176
     1
 41
30.0
176
     1
 63
     7
421
 16777215
176
     1
 74
     1
176
     1
 91
        0
176
     1
 64
     7
176
     1
 65
   257
176
     1
 75
     1
176
     1
175
     1
176
     1
 42
1.0
176
     1
 92
        0
176
     1
 66
   257
176
     1
 43
1.0
176
     1
 76
     1
176
     1
 77
     6
176
     1
 78
     2
176
     1
 67
     7
176
     1
 79
     5
176
     1
170
     0
176
     1
171
     0
176
     1
290
     0
176
     1
 93
       13
176
     1
 44
0.0
176
     1
173
     0
176
     1
1001
ACAD
1000
AcDbSavedByObjectVersion
1070
     0
  0
VISUALSTYLE
  5
31
102
{ACAD_XDICTIONARY
360
17A
102
}
102
{ACAD_REACTORS
330
29
102
}
330
29
100
AcDbVisualStyle
  2
Hidden
 70
     6
177
     2
291
     0
 71
     1
176
     1
 72
     2
176
     1
 73
     2
176
     1
 90
        0
176
     1
 40
0.6
176
     1
 41
30.0
176
     1
 63
     7
421
 16777215
176
     1
 74
     2
176
     1
 91
        2
176
     1
 64
     7
176
     1
 65
   257
176
     1
 75
     2
176
     1
175
     1
176
     1
 42
40.0
176
     1
 92
        0
176
     1
 66
   257
176
     1
 43
1.0
176
     1
 76
     1
176
     1
 77
     6
176
     1
 78
     2
176
     1
 67
     7
176
     1
 79
     3
176
     1
170
     0
176
     1
171
     0
176
     1
290
     0
176
     1
 93
        1
176
     1
 44
0.0
176
     1
173
     0
176
     1
1001
ACAD
1000
AcDbSavedByObjectVersion
1070
     0
  0
VISUALSTYLE
  5
3F
102
{ACAD_XDICTIONARY
360
196
102
}
102
{ACAD_REACTORS
330
29
102
}
330
29
100
AcDbVisualStyle
  2
JitterOff
 70
    20
177
     2
291
     1
 71
     2
176
     0
 72
     2
176
     0
 73
     0
176
     0
 90
        0
176
     0
 40
0.6
176
     0
 41
30.0
176
     0
 63
     7
421
 16777215
176
     0
 74
     1
176
     0
 91
        4
176
     0
 64
     7
176
     0
 65
   257
176
     0
 75
     1
176
     0
175
     1
176
     0
 42
1.0
176
     0
 92
       10
176
     2
 66
     7
176
     0
 43
1.0
176
     0
 76
     1
176
     0
 77
     6
176
     0
 78
     2
176
     0
 67
     7
176
     0
 79
     5
176
     0
170
     0
176
     0
171
     0
176
     0
290
     0
176
     0
 93
        1
176
     0
 44
0.0
176
     0
173
     0
176
     0
1001
ACAD
1000
AcDbSavedByObjectVersion
1070
     0
  0
VISUALSTYLE
  5
37
102
{ACAD_XDICTIONARY
360
186
102
}
102
{ACAD_REACTORS
330
29
102
}
330
29
100
AcDbVisualStyle
  2
Linepattern
 70
    14
177
     2
291
     1
 71
     2
176
     1
 72
     2
176
     1
 73
     0
176
     1
 90
        0
176
     1
 40
0.6
176
     1
 41
30.0
176
     1
 63
     7
421
 16777215
176
     1
 74
     1
176
     1
 91
        4
176
     1
 64
     7
176
     1
 65
   257
176
     1
 75
     7
176
     1
175
     7
176
     1
 42
1.0
176
     1
 92
        8
176
     1
 66
     7
176
     1
 43
1.0
176
     1
 76
     1
176
     1
 77
     6
176
     1
 78
     2
176
     1
 67
     7
176
     1
 79
     5
176
     1
170
     0
176
     1
171
     0
176
     1
290
     0
176
     1
 93
        1
176
     1
 44
0.0
176
     1
173
     0
176
     1
1001
ACAD
1000
AcDbSavedByObjectVersion
1070
     0
  0
VISUALSTYLE
  5
40
102
{ACAD_XDICTIONARY
360
198
102
}
102
{ACAD_REACTORS
330
29
102
}
330
29
100
AcDbVisualStyle
  2
OverhangOff
 70
    21
177
     2
291
     1
 71
     2
176
     0
 72
     2
176
     0
 73
     0
176
     0
 90
        0
176
     0
 40
0.6
176
     0
 41
30.0
176
     0
 63
     7
421
 16777215
176
     0
 74
     1
176
     0
 91
        4
176
     0
 64
     7
176
     0
 65
   257
176
     0
 75
     1
176
     0
175
     1
176
     0
 42
1.0
176
     0
 92
        9
176
     2
 66
     7
176
     0
 43
1.0
176
     0
 76
     1
176
     0
 77
     6
176
     0
 78
     2
176
     0
 67
     7
176
     0
 79
     5
176
     0
170
     0
176
     0
171
     0
176
     0
290
     0
176
     0
 93
        1
176
     0
 44
0.0
176
     0
173
     0
176
     0
1001
ACAD
1000
AcDbSavedByObjectVersion
1070
     0
  0
VISUALSTYLE
  5
33
102
{ACAD_XDICTIONARY
360
17E
102
}
102
{ACAD_REACTORS
330
29
102
}
330
29
100
AcDbVisualStyle
  2
Realistic
 70
     8
177
     2
291
     0
 71
     2
176
     1
 72
     3
176
     1
 73
     0
176
     1
 90
        2
176
     1
 40
0.6
176
     1
 41
30.0
176
     1
 63
     7
421
 16777215
176
     1
 74
     0
176
     1
 91
        0
176
     1
 64
     7
176
     1
 65
   257
176
     1
 75
     1
176
     1
175
     1
176
     1
 42
1.0
176
     1
 92
        8
176
     1
 66
   257
176
     1
 43
1.0
176
     1
 76
     1
176
     1
 77
     6
176
     1
 78
     2
176
     1
 67
     7
176
     1
 79
     3
176
     1
170
     0
176
     1
171
     0
176
     1
290
     0
176
     1
 93
       13
176
     1
 44
0.0
176
     1
173
     0
176
     1
1001
ACAD
1000
AcDbSavedByObjectVersion
1070
     0
  0
VISUALSTYLE
  5
3E
102
{ACAD_XDICTIONARY
360
194
102
}
102
{ACAD_REACTORS
330
29
102
}
330
29
100
AcDbVisualStyle
  2
Shaded
 70
    27
177
     2
291
     0
 71
     2
176
     1
 72
     2
176
     1
 73
     1
176
     1
 90
        2
176
     1
 40
0.6
176
     1
 41
30.0
176
     1
 63
     7
421
 16777215
176
     1
 74
     0
176
     1
 91
        4
176
     1
 64
     7
176
     1
 65
   257
176
     1
 75
     1
176
     1
175
     1
176
     1
 42
1.0
176
     1
 92
        8
176
     1
 66
   257
176
     1
 43
1.0
176
     1
 76
     1
176
     1
 77
     6
176
     1
 78
     2
176
     1
 67
     8
425
  7895160
176
     1
 79
     3
176
     1
170
     0
176
     1
171
     0
176
     1
290
     0
176
     1
 93
        5
176
     1
 44
0.0
176
     1
173
     0
176
     1
1001
ACAD
1000
AcDbSavedByObjectVersion
1070
     0
  0
VISUALSTYLE
  5
3D
102
{ACAD_XDICTIONARY
360
192
102
}
102
{ACAD_REACTORS
330
29
102
}
330
29
100
AcDbVisualStyle
  2
Shaded with edges
 70
    26
177
     2
291
     0
 71
     2
176
     1
 72
     2
176
     1
 73
     1
176
     1
 90
        2
176
     1
 40
0.6
176
     1
 41
30.0
176
     1
 63
     7
421
 16777215
176
     1
 74
     1
176
     1
 91
        2
176
     1
 64
     7
176
     1
 65
   257
176
     1
 75
     2
176
     1
175
     1
176
     1
 42
1.0
176
     1
 92
        8
176
     1
 66
   257
176
     1
 43
1.0
176
     1
 76
     1
176
     1
 77
     6
176
     1
 78
     2
176
     1
 67
     7
176
     1
 79
     3
176
     1
170
     0
176
     1
171
     0
176
     1
290
     0
176
     1
 93
        5
176
     1
 44
0.0
176
     1
173
     0
176
     1
1001
ACAD
1000
AcDbSavedByObjectVersion
1070
     0
  0
VISUALSTYLE
  5
3A
102
{ACAD_XDICTIONARY
360
18C
102
}
102
{ACAD_REACTORS
330
29
102
}
330
29
100
AcDbVisualStyle
  2
Shades of Gray
 70
    23
177
     2
291
     0
 71
     2
176
     1
 72
     2
176
     1
 73
     3
176
     1
 90
        0
176
     1
 40
0.6
176
     1
 41
30.0
176
     1
 63
     7
421
 16777215
176
     1
 74
     2
176
     1
 91
        2
176
     1
 64
     7
176
     1
 65
     7
176
     1
 75
     1
176
     1
175
     1
176
     1
 42
40.0
176
     1
 92
        8
176
     1
 66
     7
176
     1
 43
1.0
176
     1
 76
     1
176
     1
 77
     6
176
     1
 78
     2
176
     1
 67
     7
176
     1
 79
     3
176
     1
170
     0
176
     1
171
     0
176
     1
290
     0
176
     1
 93
        1
176
     1
 44
0.0
176
     1
173
     0
176
     1
1001
ACAD
1000
AcDbSavedByObjectVersion
1070
     0
  0
VISUALSTYLE
  5
3B
102
{ACAD_XDICTIONARY
360
18E
102
}
102
{ACAD_REACTORS
330
29
102
}
330
29
100
AcDbVisualStyle
  2
Sketchy
 70
    24
177
     2
291
     0
 71
     1
176
     1
 72
     2
176
     1
 73
     2
176
     1
 90
        0
176
     1
 40
0.6
176
     1
 41
30.0
176
     1
 63
     7
421
 16777215
176
     1
 74
     2
176
     1
 91
        2
176
     1
 64
     7
176
     1
 65
     7
176
     1
 75
     1
176
     1
175
     1
176
     1
 42
40.0
176
     1
 92
       11
176
     1
 66
     7
176
     1
 43
1.0
176
     1
 76
     1
176
     1
 77
     6
176
     1
 78
     2
176
     1
 67
     7
176
     1
 79
     6
176
     1
170
     0
176
     1
171
     0
176
     1
290
     0
176
     1
 93
        1
176
     1
 44
0.0
176
     1
173
     0
176
     1
1001
ACAD
1000
AcDbSavedByObjectVersion
1070
     0
  0
VISUALSTYLE
  5
36
102
{ACAD_XDICTIONARY
360
184
102
}
102
{ACAD_REACTORS
330
29
102
}
330
29
100
AcDbVisualStyle
  2
Thicken
 70
    13
177
     2
291
     1
 71
     2
176
     1
 72
     2
176
     1
 73
     0
176
     1
 90
        0
176
     1
 40
0.6
176
     1
 41
30.0
176
     1
 63
     7
421
 16777215
176
     1
 74
     1
176
     1
 91
        4
176
     1
 64
     7
176
     1
 65
   257
176
     1
 75
     1
176
     1
175
     1
176
     1
 42
1.0
176
     1
 92
       12
176
     1
 66
     7
176
     1
 43
1.0
176
     1
 76
     1
176
     1
 77
     6
176
     1
 78
     2
176
     1
 67
     7
176
     1
 79
     5
176
     1
170
     0
176
     1
171
     0
176
     1
290
     0
176
     1
 93
        1
176
     1
 44
0.0
176
     1
173
     0
176
     1
1001
ACAD
1000
AcDbSavedByObjectVersion
1070
     0
  0
VISUALSTYLE
  5
30
102
{ACAD_XDICTIONARY
360
178
102
}
102
{ACAD_REACTORS
330
29
102
}
330
29
100
AcDbVisualStyle
  2
Wireframe
 70
     5
177
     2
291
     0
 71
     0
176
     1
 72
     2
176
     1
 73
     0
176
     1
 90
        0
176
     1
 40
0.6
176
     1
 41
30.0
176
     1
 63
     7
421
 16777215
176
     1
 74
     1
176
     1
 91
        4
176
     1
 64
     7
176
     1
 65
   257
176
     1
 75
     1
176
     1
175
     1
176
     1
 42
1.0
176
     1
 92
        0
176
     1
 66
   257
176
     1
 43
1.0
176
     1
 76
     1
176
     1
 77
     6
176
     1
 78
     2
176
     1
 67
     7
176
     1
 79
     3
176
     1
170
     0
176
     1
171
     0
176
     1
290
     0
176
     1
 93
        1
176
     1
 44
0.0
176
     1
173
     0
176
     1
1001
ACAD
1000
AcDbSavedByObjectVersion
1070
     0
  0
VISUALSTYLE
  5
3C
102
{ACAD_XDICTIONARY
360
190
102
}
102
{ACAD_REACTORS
330
29
102
}
330
29
100
AcDbVisualStyle
  2
X-Ray
 70
    25
177
     2
291
     0
 71
     2
176
     1
 72
     2
176
     1
 73
     1
176
     1
 90
        1
176
     1
 40
0.5
176
     1
 41
30.0
176
     1
 63
     7
421
 16777215
176
     1
 74
     1
176
     1
 91
        0
176
     1
 64
     7
176
     1
 65
   257
176
     1
 75
     1
176
     1
175
     1
176
     1
 42
1.0
176
     1
 92
        8
176
     1
 66
     7
176
     1
 43
1.0
176
     1
 76
     1
176
     1
 77
     6
176
     1
 78
     2
176
     1
 67
     7
176
     1
 79
     3
176
     1
170
     0
176
     1
171
     0
176
     1
290
     0
176
     1
 93
       13
176
     1
 44
0.0
176
     1
173
     0
176
     1
1001
ACAD
1000
AcDbSavedByObjectVersion
1070
     0
  0
DICTIONARYVAR
  5
168
102
{ACAD_REACTORS
330
163
102
}
330
163
100
DictionaryVariables
280
     0
  1
1:1
  0
DICTIONARYVAR
  5
165
102
{ACAD_REACTORS
330
163
102
}
330
163
100
DictionaryVariables
280
     0
  1
STANDARD
  0
DICTIONARYVAR
  5
164
102
{ACAD_REACTORS
330
163
102
}
330
163
100
DictionaryVariables
280
     0
  1
STANDARD
  0
DICTIONARYVAR
  5
166
102
{ACAD_REACTORS
330
163
102
}
330
163
100
DictionaryVariables
280
     0
  1
Imperial24
  0
DICTIONARYVAR
  5
167
102
{ACAD_REACTORS
330
163
102
}
330
163
100
DictionaryVariables
280
     0
  1
Imperial24
  0
DICTIONARY
  5
1A0
330
6B
100
AcDbDictionary
280
     1
281
     1
  3
ACAD_XREC_ROUNDTRIP
360
1A1
  0
DICTIONARY
  5
1A
330
19
100
AcDbDictionary
280
     1
281
     1
  3
BUMPTILE
360
1C
  3
DIFFUSETILE
360
1B
  3
OPACITYTILE
360
1F
  3
REFLECTIONTILE
360
1E
  3
REFRACTIONTILE
360
20
  3
SPECULARTILE
360
1D
  0
DICTIONARY
  5
12
330
11
100
AcDbDictionary
280
     1
281
     1
  3
BUMPTILE
360
14
  3
DIFFUSETILE
360
13
  3
OPACITYTILE
360
17
  3
REFLECTIONTILE
360
16
  3
REFRACTIONTILE
360
18
  3
SPECULARTILE
360
15
  0
DICTIONARY
  5
22
330
21
100
AcDbDictionary
280
     1
281
     1
  3
BUMPTILE
360
24
  3
DIFFUSETILE
360
23
  3
OPACITYTILE
360
27
  3
REFLECTIONTILE
360
26
  3
REFRACTIONTILE
360
28
  3
SPECULARTILE
360
25
  0
DICTIONARY
  5
19C
330
67
100
AcDbDictionary
280
     1
281
     1
  3
ACAD_XREC_ROUNDTRIP
360
19D
  0
DICTIONARY
  5
19E
330
69
100
AcDbDictionary
280
     1
281
     1
  3
ACAD_XREC_ROUNDTRIP
360
19F
  0
DICTIONARY
  5
169
330
65
100
AcDbDictionary
280
     1
281
     1
  3
ACAD_ROUNDTRIP_2008_TABLESTYLE_CELLSTYLEMAP
360
16A
  0
DICTIONARY
  5
176
330
2F
100
AcDbDictionary
280
     1
281
     1
  3
ACAD_XREC_ROUNDTRIP
360
177
  0
DICTIONARY
  5
174
330
2E
100
AcDbDictionary
280
     1
281
     1
  3
ACAD_XREC_ROUNDTRIP
360
175
  0
DICTIONARY
  5
182
330
35
100
AcDbDictionary
280
     1
281
     1
  3
ACAD_XREC_ROUNDTRIP
360
183
  0
DICTIONARY
  5
18A
330
39
100
AcDbDictionary
280
     1
281
     1
  3
ACAD_XREC_ROUNDTRIP
360
18B
  0
DICTIONARY
  5
17C
330
32
100
AcDbDictionary
280
     1
281
     1
  3
ACAD_XREC_ROUNDTRIP
360
17D
  0
DICTIONARY
  5
180
330
34
100
AcDbDictionary
280
     1
281
     1
  3
ACAD_XREC_ROUNDTRIP
360
181
  0
DICTIONARY
  5
19A
330
41
100
AcDbDictionary
280
     1
281
     1
  3
ACAD_XREC_ROUNDTRIP
360
19B
  0
DICTIONARY
  5
188
330
38
100
AcDbDictionary
280
     1
281
     1
  3
ACAD_XREC_ROUNDTRIP
360
189
  0
DICTIONARY
  5
16C
330
2A
100
AcDbDictionary
280
     1
281
     1
  3
ACAD_XREC_ROUNDTRIP
360
16D
  0
DICTIONARY
  5
16E
330
2B
100
AcDbDictionary
280
     1
281
     1
  3
ACAD_XREC_ROUNDTRIP
360
16F
  0
DICTIONARY
  5
170
330
2C
100
AcDbDictionary
280
     1
281
     1
  3
ACAD_XREC_ROUNDTRIP
360
171
  0
DICTIONARY
  5
172
330
2D
100
AcDbDictionary
280
     1
281
     1
  3
ACAD_XREC_ROUNDTRIP
360
173
  0
DICTIONARY
  5
17A
330
31
100
AcDbDictionary
280
     1
281
     1
  3
ACAD_XREC_ROUNDTRIP
360
17B
  0
DICTIONARY
  5
196
330
3F
100
AcDbDictionary
280
     1
281
     1
  3
ACAD_XREC_ROUNDTRIP
360
197
  0
DICTIONARY
  5
186
330
37
100
AcDbDictionary
280
     1
281
     1
  3
ACAD_XREC_ROUNDTRIP
360
187
  0
DICTIONARY
  5
198
330
40
100
AcDbDictionary
280
     1
281
     1
  3
ACAD_XREC_ROUNDTRIP
360
199
  0
DICTIONARY
  5
17E
330
33
100
AcDbDictionary
280
     1
281
     1
  3
ACAD_XREC_ROUNDTRIP
360
17F
  0
DICTIONARY
  5
194
330
3E
100
AcDbDictionary
280
     1
281
     1
  3
ACAD_XREC_ROUNDTRIP
360
195
  0
DICTIONARY
  5
192
330
3D
100
AcDbDictionary
280
     1
281
     1
  3
ACAD_XREC_ROUNDTRIP
360
193
  0
DICTIONARY
  5
18C
330
3A
100
AcDbDictionary
280
     1
281
     1
  3
ACAD_XREC_ROUNDTRIP
360
18D
  0
DICTIONARY
  5
18E
330
3B
100
AcDbDictionary
280
     1
281
     1
  3
ACAD_XREC_ROUNDTRIP
360
18F
  0
DICTIONARY
  5
184
330
36
100
AcDbDictionary
280
     1
281
     1
  3
ACAD_XREC_ROUNDTRIP
360
185
  0
DICTIONARY
  5
178
330
30
100
AcDbDictionary
280
     1
281
     1
  3
ACAD_XREC_ROUNDTRIP
360
179
  0
DICTIONARY
  5
190
330
3C
100
AcDbDictionary
280
     1
281
     1
  3
ACAD_XREC_ROUNDTRIP
360
191
  0
XRECORD
  5
1A1
102
{ACAD_REACTORS
330
1A0
102
}
330
1A0
100
AcDbXrecord
280
     1
102
DISPLAYNAME
  1
Imperial24
102
FLAGS
 90
        0
  0
XRECORD
  5
1C
102
{ACAD_REACTORS
330
1A
102
}
330
1A
100
AcDbXrecord
280
     1
270
     1
271
     1
  0
XRECORD
  5
1B
102
{ACAD_REACTORS
330
1A
102
}
330
1A
100
AcDbXrecord
280
     1
270
     1
271
     1
  0
XRECORD
  5
1F
102
{ACAD_REACTORS
330
1A
102
}
330
1A
100
AcDbXrecord
280
     1
270
     1
271
     1
  0
XRECORD
  5
1E
102
{ACAD_REACTORS
330
1A
102
}
330
1A
100
AcDbXrecord
280
     1
270
     1
271
     1
  0
XRECORD
  5
20
102
{ACAD_REACTORS
330
1A
102
}
330
1A
100
AcDbXrecord
280
     1
270
     1
271
     1
  0
XRECORD
  5
1D
102
{ACAD_REACTORS
330
1A
102
}
330
1A
100
AcDbXrecord
280
     1
270
     1
271
     1
  0
XRECORD
  5
14
102
{ACAD_REACTORS
330
12
102
}
330
12
100
AcDbXrecord
280
     1
270
     1
271
     1
  0
XRECORD
  5
13
102
{ACAD_REACTORS
330
12
102
}
330
12
100
AcDbXrecord
280
     1
270
     1
271
     1
  0
XRECORD
  5
17
102
{ACAD_REACTORS
330
12
102
}
330
12
100
AcDbXrecord
280
     1
270
     1
271
     1
  0
XRECORD
  5
16
102
{ACAD_REACTORS
330
12
102
}
330
12
100
AcDbXrecord
280
     1
270
     1
271
     1
  0
XRECORD
  5
18
102
{ACAD_REACTORS
330
12
102
}
330
12
100
AcDbXrecord
280
     1
270
     1
271
     1
  0
XRECORD
  5
15
102
{ACAD_REACTORS
330
12
102
}
330
12
100
AcDbXrecord
280
     1
270
     1
271
     1
  0
XRECORD
  5
24
102
{ACAD_REACTORS
330
22
102
}
330
22
100
AcDbXrecord
280
     1
270
     1
271
     1
  0
XRECORD
  5
23
102
{ACAD_REACTORS
330
22
102
}
330
22
100
AcDbXrecord
280
     1
270
     1
271
     1
  0
XRECORD
  5
27
102
{ACAD_REACTORS
330
22
102
}
330
22
100
AcDbXrecord
280
     1
270
     1
271
     1
  0
XRECORD
  5
26
102
{ACAD_REACTORS
330
22
102
}
330
22
100
AcDbXrecord
280
     1
270
     1
271
     1
  0
XRECORD
  5
28
102
{ACAD_REACTORS
330
22
102
}
330
22
100
AcDbXrecord
280
     1
270
     1
271
     1
  0
XRECORD
  5
25
102
{ACAD_REACTORS
330
22
102
}
330
22
100
AcDbXrecord
280
     1
270
     1
271
     1
  0
XRECORD
  5
19D
102
{ACAD_REACTORS
330
19C
102
}
330
19C
100
AcDbXrecord
280
     1
102
ACAD_ROUNDTRIP_2012_MLEADER_STYLE
298
     1
  0
XRECORD
  5
19F
102
{ACAD_REACTORS
330
19E
102
}
330
19E
100
AcDbXrecord
280
     1
102
DISPLAYNAME
  1
Imperial24
102
FLAGS
 90
        0
  0
CELLSTYLEMAP
  5
16A
102
{ACAD_REACTORS
330
169
102
}
330
169
100
AcDbCellStyleMap
 90
        3
300
CELLSTYLE
  1
TABLEFORMAT_BEGIN
 90
        5
170
     1
 91
        0
 92
    32768
 62
   257
 93
        1
300
CONTENTFORMAT
  1
CONTENTFORMAT_BEGIN
 90
        0
 91
        0
 92
      512
 93
        0
300

 40
0.0
140
1.0
 94
        5
 62
     0
340
55
144
0.25
309
CONTENTFORMAT_END
171
     0
 94
        0
309
TABLEFORMAT_END
  1
CELLSTYLE_BEGIN
 90
        1
 91
        1
300
_TITLE
309
CELLSTYLE_END
300
CELLSTYLE
  1
TABLEFORMAT_BEGIN
 90
        5
170
     1
 91
        0
 92
        0
 62
   257
 93
        1
300
CONTENTFORMAT
  1
CONTENTFORMAT_BEGIN
 90
        0
 91
        0
 92
      512
 93
        0
300

 40
0.0
140
1.0
 94
        5
 62
     0
340
55
144
0.18
309
CONTENTFORMAT_END
171
     0
 94
        0
309
TABLEFORMAT_END
  1
CELLSTYLE_BEGIN
 90
        2
 91
        1
300
_HEADER
309
CELLSTYLE_END
300
CELLSTYLE
  1
TABLEFORMAT_BEGIN
 90
        5
170
     1
 91
        0
 92
        0
 62
   257
 93
        1
300
CONTENTFORMAT
  1
CONTENTFORMAT_BEGIN
 90
        0
 91
        0
 92
      512
 93
        0
300

 40
0.0
140
1.0
 94
        2
 62
     0
340
55
144
0.18
309
CONTENTFORMAT_END
171
     0
 94
        0
309
TABLEFORMAT_END
  1
CELLSTYLE_BEGIN
 90
        3
 91
        2
300
_DATA
309
CELLSTYLE_END
  0
XRECORD
  5
177
102
{ACAD_REACTORS
330
176
102
}
330
176
100
AcDbXrecord
280
     1
102
RTVSPost2010Prop28
280
     1
102
RTVSPost2010PropOp28
 70
     1
102
RTVSPost2010Prop29
280
     1
102
RTVSPost2010PropOp29
 70
     1
102
RTVSPost2010Prop30
280
     0
102
RTVSPost2010PropOp30
 70
     1
102
RTVSPost2010Prop31
280
     0
102
RTVSPost2010PropOp31
 70
     1
102
RTVSPost2010Prop32
280
     0
102
RTVSPost2010PropOp32
 70
     1
102
RTVSPost2010Prop33
280
     0
102
RTVSPost2010PropOp33
 70
     1
102
RTVSPost2010Prop34
280
     0
102
RTVSPost2010PropOp34
 70
     1
102
RTVSPost2010Prop35
280
     0
102
RTVSPost2010PropOp35
 70
     1
102
RTVSPost2010Prop36
280
     0
102
RTVSPost2010PropOp36
 70
     1
102
RTVSPost2010Prop37
 90
       50
102
RTVSPost2010PropOp37
 70
     1
102
RTVSPost2010Prop38
140
0.0
102
RTVSPost2010PropOp38
 70
     1
102
RTVSPost2010Prop39
140
1.0
102
RTVSPost2010PropOp39
 70
     1
102
RTVSPost2010Prop40
 90
        0
102
RTVSPost2010PropOp40
 70
     1
102
RTVSPost2010Prop41ColorIndex
 90
       18
102
RTVSPost2010Prop41ColorRGB
 90
        0
102
RTVSPost2010PropOp41
 70
     1
102
RTVSPost2010Prop42
 90
       50
102
RTVSPost2010PropOp42
 70
     1
102
RTVSPost2010Prop43
 90
        3
102
RTVSPost2010PropOp43
 70
     1
102
RTVSPost2010Prop44ColorIndex
 90
        5
102
RTVSPost2010Prop44ColorRGB
 90
      255
102
RTVSPost2010PropOp44
 70
     1
102
RTVSPost2010Prop45
280
     0
102
RTVSPost2010PropOp45
 70
     1
102
RTVSPost2010Prop46
 90
       50
102
RTVSPost2010PropOp46
 70
     1
102
RTVSPost2010Prop47
 90
       50
102
RTVSPost2010PropOp47
 70
     1
102
RTVSPost2010Prop48
 90
       50
102
RTVSPost2010PropOp48
 70
     1
102
RTVSPost2010Prop49
280
     0
102
RTVSPost2010PropOp49
 70
     1
102
RTVSPost2010Prop50
 90
       50
102
RTVSPost2010PropOp50
 70
     1
102
RTVSPost2010Prop51ColorIndex
 90
      256
102
RTVSPost2010Prop51ColorRGB
 90
-16777216
102
RTVSPost2010PropOp51
 70
     0
102
RTVSPost2010Prop52
140
1.0
102
RTVSPost2010PropOp52
 70
     0
102
RTVSPost2010Prop53
 90
        2
102
RTVSPost2010PropOp53
 70
     1
102
RTVSPost2010Prop54
  1
strokes_ogs.tif
102
RTVSPost2010PropOp54
 70
     1
102
RTVSPost2010Prop55
280
     0
102
RTVSPost2010PropOp55
 70
     1
102
RTVSPost2010Prop56
140
1.0
102
RTVSPost2010PropOp56
 70
     1
102
RTVSPost2010Prop57
140
1.0
102
RTVSPost2010PropOp57
 70
     1
  0
XRECORD
  5
175
102
{ACAD_REACTORS
330
174
102
}
330
174
100
AcDbXrecord
280
     1
102
RTVSPost2010Prop28
280
     0
102
RTVSPost2010PropOp28
 70
     1
102
RTVSPost2010Prop29
280
     1
102
RTVSPost2010PropOp29
 70
     1
102
RTVSPost2010Prop30
280
     1
102
RTVSPost2010PropOp30
 70
     1
102
RTVSPost2010Prop31
280
     0
102
RTVSPost2010PropOp31
 70
     1
102
RTVSPost2010Prop32
280
     0
102
RTVSPost2010PropOp32
 70
     1
102
RTVSPost2010Prop33
280
     0
102
RTVSPost2010PropOp33
 70
     1
102
RTVSPost2010Prop34
280
     0
102
RTVSPost2010PropOp34
 70
     1
102
RTVSPost2010Prop35
280
     0
102
RTVSPost2010PropOp35
 70
     1
102
RTVSPost2010Prop36
280
     0
102
RTVSPost2010PropOp36
 70
     1
102
RTVSPost2010Prop37
 90
       50
102
RTVSPost2010PropOp37
 70
     1
102
RTVSPost2010Prop38
140
0.0
102
RTVSPost2010PropOp38
 70
     1
102
RTVSPost2010Prop39
140
1.0
102
RTVSPost2010PropOp39
 70
     1
102
RTVSPost2010Prop40
 90
        0
102
RTVSPost2010PropOp40
 70
     1
102
RTVSPost2010Prop41ColorIndex
 90
       18
102
RTVSPost2010Prop41ColorRGB
 90
        0
102
RTVSPost2010PropOp41
 70
     1
102
RTVSPost2010Prop42
 90
       50
102
RTVSPost2010PropOp42
 70
     1
102
RTVSPost2010Prop43
 90
        3
102
RTVSPost2010PropOp43
 70
     1
102
RTVSPost2010Prop44ColorIndex
 90
        5
102
RTVSPost2010Prop44ColorRGB
 90
      255
102
RTVSPost2010PropOp44
 70
     1
102
RTVSPost2010Prop45
280
     0
102
RTVSPost2010PropOp45
 70
     1
102
RTVSPost2010Prop46
 90
       50
102
RTVSPost2010PropOp46
 70
     1
102
RTVSPost2010Prop47
 90
       50
102
RTVSPost2010PropOp47
 70
     1
102
RTVSPost2010Prop48
 90
       50
102
RTVSPost2010PropOp48
 70
     1
102
RTVSPost2010Prop49
280
     0
102
RTVSPost2010PropOp49
 70
     1
102
RTVSPost2010Prop50
 90
       50
102
RTVSPost2010PropOp50
 70
     1
102
RTVSPost2010Prop51ColorIndex
 90
      256
102
RTVSPost2010Prop51ColorRGB
 90
-16777216
102
RTVSPost2010PropOp51
 70
     0
102
RTVSPost2010Prop52
140
1.0
102
RTVSPost2010PropOp52
 70
     0
102
RTVSPost2010Prop53
 90
        2
102
RTVSPost2010PropOp53
 70
     1
102
RTVSPost2010Prop54
  1
strokes_ogs.tif
102
RTVSPost2010PropOp54
 70
     1
102
RTVSPost2010Prop55
280
     0
102
RTVSPost2010PropOp55
 70
     1
102
RTVSPost2010Prop56
140
1.0
102
RTVSPost2010PropOp56
 70
     1
102
RTVSPost2010Prop57
140
1.0
102
RTVSPost2010PropOp57
 70
     1
  0
XRECORD
  5
183
102
{ACAD_REACTORS
330
182
102
}
330
182
100
AcDbXrecord
280
     1
102
RTVSPost2010Prop28
280
     0
102
RTVSPost2010PropOp28
 70
     1
102
RTVSPost2010Prop29
280
     1
102
RTVSPost2010PropOp29
 70
     1
102
RTVSPost2010Prop30
280
     1
102
RTVSPost2010PropOp30
 70
     1
102
RTVSPost2010Prop31
280
     0
102
RTVSPost2010PropOp31
 70
     1
102
RTVSPost2010Prop32
280
     0
102
RTVSPost2010PropOp32
 70
     1
102
RTVSPost2010Prop33
280
     0
102
RTVSPost2010PropOp33
 70
     1
102
RTVSPost2010Prop34
280
     0
102
RTVSPost2010PropOp34
 70
     1
102
RTVSPost2010Prop35
280
     0
102
RTVSPost2010PropOp35
 70
     1
102
RTVSPost2010Prop36
280
     0
102
RTVSPost2010PropOp36
 70
     1
102
RTVSPost2010Prop37
 90
       50
102
RTVSPost2010PropOp37
 70
     1
102
RTVSPost2010Prop38
140
0.0
102
RTVSPost2010PropOp38
 70
     1
102
RTVSPost2010Prop39
140
1.0
102
RTVSPost2010PropOp39
 70
     1
102
RTVSPost2010Prop40
 90
        0
102
RTVSPost2010PropOp40
 70
     1
102
RTVSPost2010Prop41ColorIndex
 90
       18
102
RTVSPost2010Prop41ColorRGB
 90
        0
102
RTVSPost2010PropOp41
 70
     1
102
RTVSPost2010Prop42
 90
       50
102
RTVSPost2010PropOp42
 70
     1
102
RTVSPost2010Prop43
 90
        3
102
RTVSPost2010PropOp43
 70
     1
102
RTVSPost2010Prop44ColorIndex
 90
        5
102
RTVSPost2010Prop44ColorRGB
 90
      255
102
RTVSPost2010PropOp44
 70
     1
102
RTVSPost2010Prop45
280
     0
102
RTVSPost2010PropOp45
 70
     1
102
RTVSPost2010Prop46
 90
       50
102
RTVSPost2010PropOp46
 70
     1
102
RTVSPost2010Prop47
 90
       50
102
RTVSPost2010PropOp47
 70
     1
102
RTVSPost2010Prop48
 90
       50
102
RTVSPost2010PropOp48
 70
     1
102
RTVSPost2010Prop49
280
     0
102
RTVSPost2010PropOp49
 70
     1
102
RTVSPost2010Prop50
 90
       50
102
RTVSPost2010PropOp50
 70
     1
102
RTVSPost2010Prop51ColorIndex
 90
      256
102
RTVSPost2010Prop51ColorRGB
 90
-16777216
102
RTVSPost2010PropOp51
 70
     0
102
RTVSPost2010Prop52
140
1.0
102
RTVSPost2010PropOp52
 70
     0
102
RTVSPost2010Prop53
 90
        2
102
RTVSPost2010PropOp53
 70
     1
102
RTVSPost2010Prop54
  1
strokes_ogs.tif
102
RTVSPost2010PropOp54
 70
     1
102
RTVSPost2010Prop55
280
     0
102
RTVSPost2010PropOp55
 70
     1
102
RTVSPost2010Prop56
140
1.0
102
RTVSPost2010PropOp56
 70
     1
102
RTVSPost2010Prop57
140
1.0
102
RTVSPost2010PropOp57
 70
     1
  0
XRECORD
  5
18B
102
{ACAD_REACTORS
330
18A
102
}
330
18A
100
AcDbXrecord
280
     1
102
RTVSPost2010Prop28
280
     0
102
RTVSPost2010PropOp28
 70
     1
102
RTVSPost2010Prop29
280
     1
102
RTVSPost2010PropOp29
 70
     1
102
RTVSPost2010Prop30
280
     1
102
RTVSPost2010PropOp30
 70
     1
102
RTVSPost2010Prop31
280
     0
102
RTVSPost2010PropOp31
 70
     1
102
RTVSPost2010Prop32
280
     0
102
RTVSPost2010PropOp32
 70
     1
102
RTVSPost2010Prop33
280
     0
102
RTVSPost2010PropOp33
 70
     1
102
RTVSPost2010Prop34
280
     0
102
RTVSPost2010PropOp34
 70
     1
102
RTVSPost2010Prop35
280
     0
102
RTVSPost2010PropOp35
 70
     1
102
RTVSPost2010Prop36
280
     0
102
RTVSPost2010PropOp36
 70
     1
102
RTVSPost2010Prop37
 90
       50
102
RTVSPost2010PropOp37
 70
     1
102
RTVSPost2010Prop38
140
0.0
102
RTVSPost2010PropOp38
 70
     1
102
RTVSPost2010Prop39
140
1.0
102
RTVSPost2010PropOp39
 70
     1
102
RTVSPost2010Prop40
 90
        0
102
RTVSPost2010PropOp40
 70
     1
102
RTVSPost2010Prop41ColorIndex
 90
       18
102
RTVSPost2010Prop41ColorRGB
 90
        0
102
RTVSPost2010PropOp41
 70
     1
102
RTVSPost2010Prop42
 90
       50
102
RTVSPost2010PropOp42
 70
     1
102
RTVSPost2010Prop43
 90
        3
102
RTVSPost2010PropOp43
 70
     1
102
RTVSPost2010Prop44ColorIndex
 90
        5
102
RTVSPost2010Prop44ColorRGB
 90
      255
102
RTVSPost2010PropOp44
 70
     1
102
RTVSPost2010Prop45
280
     0
102
RTVSPost2010PropOp45
 70
     1
102
RTVSPost2010Prop46
 90
       50
102
RTVSPost2010PropOp46
 70
     1
102
RTVSPost2010Prop47
 90
       50
102
RTVSPost2010PropOp47
 70
     1
102
RTVSPost2010Prop48
 90
       50
102
RTVSPost2010PropOp48
 70
     1
102
RTVSPost2010Prop49
280
     0
102
RTVSPost2010PropOp49
 70
     1
102
RTVSPost2010Prop50
 90
       50
102
RTVSPost2010PropOp50
 70
     1
102
RTVSPost2010Prop51ColorIndex
 90
      256
102
RTVSPost2010Prop51ColorRGB
 90
-16777216
102
RTVSPost2010PropOp51
 70
     0
102
RTVSPost2010Prop52
140
1.0
102
RTVSPost2010PropOp52
 70
     0
102
RTVSPost2010Prop53
 90
        2
102
RTVSPost2010PropOp53
 70
     1
102
RTVSPost2010Prop54
  1
strokes_ogs.tif
102
RTVSPost2010PropOp54
 70
     1
102
RTVSPost2010Prop55
280
     0
102
RTVSPost2010PropOp55
 70
     1
102
RTVSPost2010Prop56
140
1.0
102
RTVSPost2010PropOp56
 70
     1
102
RTVSPost2010Prop57
140
1.0
102
RTVSPost2010PropOp57
 70
     1
  0
XRECORD
  5
17D
102
{ACAD_REACTORS
330
17C
102
}
330
17C
100
AcDbXrecord
280
     1
102
RTVSPost2010Prop28
280
     0
102
RTVSPost2010PropOp28
 70
     1
102
RTVSPost2010Prop29
280
     1
102
RTVSPost2010PropOp29
 70
     1
102
RTVSPost2010Prop30
280
     1
102
RTVSPost2010PropOp30
 70
     1
102
RTVSPost2010Prop31
280
     0
102
RTVSPost2010PropOp31
 70
     1
102
RTVSPost2010Prop32
280
     0
102
RTVSPost2010PropOp32
 70
     1
102
RTVSPost2010Prop33
280
     0
102
RTVSPost2010PropOp33
 70
     1
102
RTVSPost2010Prop34
280
     0
102
RTVSPost2010PropOp34
 70
     1
102
RTVSPost2010Prop35
280
     0
102
RTVSPost2010PropOp35
 70
     1
102
RTVSPost2010Prop36
280
     0
102
RTVSPost2010PropOp36
 70
     1
102
RTVSPost2010Prop37
 90
       50
102
RTVSPost2010PropOp37
 70
     1
102
RTVSPost2010Prop38
140
0.0
102
RTVSPost2010PropOp38
 70
     1
102
RTVSPost2010Prop39
140
1.0
102
RTVSPost2010PropOp39
 70
     1
102
RTVSPost2010Prop40
 90
        0
102
RTVSPost2010PropOp40
 70
     1
102
RTVSPost2010Prop41ColorIndex
 90
       18
102
RTVSPost2010Prop41ColorRGB
 90
        0
102
RTVSPost2010PropOp41
 70
     1
102
RTVSPost2010Prop42
 90
       50
102
RTVSPost2010PropOp42
 70
     1
102
RTVSPost2010Prop43
 90
        3
102
RTVSPost2010PropOp43
 70
     1
102
RTVSPost2010Prop44ColorIndex
 90
        5
102
RTVSPost2010Prop44ColorRGB
 90
      255
102
RTVSPost2010PropOp44
 70
     1
102
RTVSPost2010Prop45
280
     0
102
RTVSPost2010PropOp45
 70
     1
102
RTVSPost2010Prop46
 90
       50
102
RTVSPost2010PropOp46
 70
     1
102
RTVSPost2010Prop47
 90
       50
102
RTVSPost2010PropOp47
 70
     1
102
RTVSPost2010Prop48
 90
       50
102
RTVSPost2010PropOp48
 70
     1
102
RTVSPost2010Prop49
280
     0
102
RTVSPost2010PropOp49
 70
     1
102
RTVSPost2010Prop50
 90
       50
102
RTVSPost2010PropOp50
 70
     1
102
RTVSPost2010Prop51ColorIndex
 90
      256
102
RTVSPost2010Prop51ColorRGB
 90
-16777216
102
RTVSPost2010PropOp51
 70
     0
102
RTVSPost2010Prop52
140
1.0
102
RTVSPost2010PropOp52
 70
     0
102
RTVSPost2010Prop53
 90
        2
102
RTVSPost2010PropOp53
 70
     1
102
RTVSPost2010Prop54
  1
strokes_ogs.tif
102
RTVSPost2010PropOp54
 70
     1
102
RTVSPost2010Prop55
280
     0
102
RTVSPost2010PropOp55
 70
     1
102
RTVSPost2010Prop56
140
1.0
102
RTVSPost2010PropOp56
 70
     1
102
RTVSPost2010Prop57
140
1.0
102
RTVSPost2010PropOp57
 70
     1
  0
XRECORD
  5
181
102
{ACAD_REACTORS
330
180
102
}
330
180
100
AcDbXrecord
280
     1
102
RTVSPost2010Prop28
280
     0
102
RTVSPost2010PropOp28
 70
     1
102
RTVSPost2010Prop29
280
     1
102
RTVSPost2010PropOp29
 70
     1
102
RTVSPost2010Prop30
280
     1
102
RTVSPost2010PropOp30
 70
     1
102
RTVSPost2010Prop31
280
     0
102
RTVSPost2010PropOp31
 70
     1
102
RTVSPost2010Prop32
280
     0
102
RTVSPost2010PropOp32
 70
     1
102
RTVSPost2010Prop33
280
     0
102
RTVSPost2010PropOp33
 70
     1
102
RTVSPost2010Prop34
280
     0
102
RTVSPost2010PropOp34
 70
     1
102
RTVSPost2010Prop35
280
     0
102
RTVSPost2010PropOp35
 70
     1
102
RTVSPost2010Prop36
280
     0
102
RTVSPost2010PropOp36
 70
     1
102
RTVSPost2010Prop37
 90
       50
102
RTVSPost2010PropOp37
 70
     1
102
RTVSPost2010Prop38
140
0.0
102
RTVSPost2010PropOp38
 70
     1
102
RTVSPost2010Prop39
140
1.0
102
RTVSPost2010PropOp39
 70
     1
102
RTVSPost2010Prop40
 90
        0
102
RTVSPost2010PropOp40
 70
     1
102
RTVSPost2010Prop41ColorIndex
 90
       18
102
RTVSPost2010Prop41ColorRGB
 90
        0
102
RTVSPost2010PropOp41
 70
     1
102
RTVSPost2010Prop42
 90
       50
102
RTVSPost2010PropOp42
 70
     1
102
RTVSPost2010Prop43
 90
        3
102
RTVSPost2010PropOp43
 70
     1
102
RTVSPost2010Prop44ColorIndex
 90
        5
102
RTVSPost2010Prop44ColorRGB
 90
      255
102
RTVSPost2010PropOp44
 70
     1
102
RTVSPost2010Prop45
280
     0
102
RTVSPost2010PropOp45
 70
     1
102
RTVSPost2010Prop46
 90
       50
102
RTVSPost2010PropOp46
 70
     1
102
RTVSPost2010Prop47
 90
       50
102
RTVSPost2010PropOp47
 70
     1
102
RTVSPost2010Prop48
 90
       50
102
RTVSPost2010PropOp48
 70
     1
102
RTVSPost2010Prop49
280
     0
102
RTVSPost2010PropOp49
 70
     1
102
RTVSPost2010Prop50
 90
       50
102
RTVSPost2010PropOp50
 70
     1
102
RTVSPost2010Prop51ColorIndex
 90
      256
102
RTVSPost2010Prop51ColorRGB
 90
-16777216
102
RTVSPost2010PropOp51
 70
     0
102
RTVSPost2010Prop52
140
1.0
102
RTVSPost2010PropOp52
 70
     0
102
RTVSPost2010Prop53
 90
        2
102
RTVSPost2010PropOp53
 70
     1
102
RTVSPost2010Prop54
  1
strokes_ogs.tif
102
RTVSPost2010PropOp54
 70
     1
102
RTVSPost2010Prop55
280
     0
102
RTVSPost2010PropOp55
 70
     1
102
RTVSPost2010Prop56
140
1.0
102
RTVSPost2010PropOp56
 70
     1
102
RTVSPost2010Prop57
140
1.0
102
RTVSPost2010PropOp57
 70
     1
  0
XRECORD
  5
19B
102
{ACAD_REACTORS
330
19A
102
}
330
19A
100
AcDbXrecord
280
     1
102
RTVSPost2010Prop28
280
     0
102
RTVSPost2010PropOp28
 70
     0
102
RTVSPost2010Prop29
280
     1
102
RTVSPost2010PropOp29
 70
     0
102
RTVSPost2010Prop30
280
     1
102
RTVSPost2010PropOp30
 70
     0
102
RTVSPost2010Prop31
280
     0
102
RTVSPost2010PropOp31
 70
     0
102
RTVSPost2010Prop32
280
     0
102
RTVSPost2010PropOp32
 70
     0
102
RTVSPost2010Prop33
280
     0
102
RTVSPost2010PropOp33
 70
     0
102
RTVSPost2010Prop34
280
     0
102
RTVSPost2010PropOp34
 70
     0
102
RTVSPost2010Prop35
280
     0
102
RTVSPost2010PropOp35
 70
     0
102
RTVSPost2010Prop36
280
     0
102
RTVSPost2010PropOp36
 70
     0
102
RTVSPost2010Prop37
 90
       50
102
RTVSPost2010PropOp37
 70
     0
102
RTVSPost2010Prop38
140
0.0
102
RTVSPost2010PropOp38
 70
     0
102
RTVSPost2010Prop39
140
1.0
102
RTVSPost2010PropOp39
 70
     0
102
RTVSPost2010Prop40
 90
        0
102
RTVSPost2010PropOp40
 70
     0
102
RTVSPost2010Prop41ColorIndex
 90
       18
102
RTVSPost2010Prop41ColorRGB
 90
        0
102
RTVSPost2010PropOp41
 70
     0
102
RTVSPost2010Prop42
 90
       50
102
RTVSPost2010PropOp42
 70
     0
102
RTVSPost2010Prop43
 90
        3
102
RTVSPost2010PropOp43
 70
     0
102
RTVSPost2010Prop44ColorIndex
 90
        5
102
RTVSPost2010Prop44ColorRGB
 90
      255
102
RTVSPost2010PropOp44
 70
     0
102
RTVSPost2010Prop45
280
     0
102
RTVSPost2010PropOp45
 70
     0
102
RTVSPost2010Prop46
 90
       50
102
RTVSPost2010PropOp46
 70
     0
102
RTVSPost2010Prop47
 90
       50
102
RTVSPost2010PropOp47
 70
     0
102
RTVSPost2010Prop48
 90
       50
102
RTVSPost2010PropOp48
 70
     0
102
RTVSPost2010Prop49
280
     0
102
RTVSPost2010PropOp49
 70
     0
102
RTVSPost2010Prop50
 90
       50
102
RTVSPost2010PropOp50
 70
     0
102
RTVSPost2010Prop51ColorIndex
 90
      256
102
RTVSPost2010Prop51ColorRGB
 90
-16777216
102
RTVSPost2010PropOp51
 70
     0
102
RTVSPost2010Prop52
140
1.0
102
RTVSPost2010PropOp52
 70
     0
102
RTVSPost2010Prop53
 90
        2
102
RTVSPost2010PropOp53
 70
     0
102
RTVSPost2010Prop54
  1
strokes_ogs.tif
102
RTVSPost2010PropOp54
 70
     0
102
RTVSPost2010Prop55
280
     0
102
RTVSPost2010PropOp55
 70
     0
102
RTVSPost2010Prop56
140
1.0
102
RTVSPost2010PropOp56
 70
     0
102
RTVSPost2010Prop57
140
1.0
102
RTVSPost2010PropOp57
 70
     0
  0
XRECORD
  5
189
102
{ACAD_REACTORS
330
188
102
}
330
188
100
AcDbXrecord
280
     1
102
RTVSPost2010Prop28
280
     0
102
RTVSPost2010PropOp28
 70
     1
102
RTVSPost2010Prop29
280
     1
102
RTVSPost2010PropOp29
 70
     1
102
RTVSPost2010Prop30
280
     1
102
RTVSPost2010PropOp30
 70
     1
102
RTVSPost2010Prop31
280
     0
102
RTVSPost2010PropOp31
 70
     1
102
RTVSPost2010Prop32
280
     0
102
RTVSPost2010PropOp32
 70
     1
102
RTVSPost2010Prop33
280
     0
102
RTVSPost2010PropOp33
 70
     1
102
RTVSPost2010Prop34
280
     0
102
RTVSPost2010PropOp34
 70
     1
102
RTVSPost2010Prop35
280
     0
102
RTVSPost2010PropOp35
 70
     1
102
RTVSPost2010Prop36
280
     0
102
RTVSPost2010PropOp36
 70
     1
102
RTVSPost2010Prop37
 90
       50
102
RTVSPost2010PropOp37
 70
     1
102
RTVSPost2010Prop38
140
0.0
102
RTVSPost2010PropOp38
 70
     1
102
RTVSPost2010Prop39
140
1.0
102
RTVSPost2010PropOp39
 70
     1
102
RTVSPost2010Prop40
 90
        0
102
RTVSPost2010PropOp40
 70
     1
102
RTVSPost2010Prop41ColorIndex
 90
       18
102
RTVSPost2010Prop41ColorRGB
 90
        0
102
RTVSPost2010PropOp41
 70
     1
102
RTVSPost2010Prop42
 90
       50
102
RTVSPost2010PropOp42
 70
     1
102
RTVSPost2010Prop43
 90
        3
102
RTVSPost2010PropOp43
 70
     1
102
RTVSPost2010Prop44ColorIndex
 90
        5
102
RTVSPost2010Prop44ColorRGB
 90
      255
102
RTVSPost2010PropOp44
 70
     1
102
RTVSPost2010Prop45
280
     0
102
RTVSPost2010PropOp45
 70
     1
102
RTVSPost2010Prop46
 90
       50
102
RTVSPost2010PropOp46
 70
     1
102
RTVSPost2010Prop47
 90
       50
102
RTVSPost2010PropOp47
 70
     1
102
RTVSPost2010Prop48
 90
       50
102
RTVSPost2010PropOp48
 70
     1
102
RTVSPost2010Prop49
280
     0
102
RTVSPost2010PropOp49
 70
     1
102
RTVSPost2010Prop50
 90
       50
102
RTVSPost2010PropOp50
 70
     1
102
RTVSPost2010Prop51ColorIndex
 90
      256
102
RTVSPost2010Prop51ColorRGB
 90
-16777216
102
RTVSPost2010PropOp51
 70
     0
102
RTVSPost2010Prop52
140
1.0
102
RTVSPost2010PropOp52
 70
     0
102
RTVSPost2010Prop53
 90
        2
102
RTVSPost2010PropOp53
 70
     1
102
RTVSPost2010Prop54
  1
strokes_ogs.tif
102
RTVSPost2010PropOp54
 70
     1
102
RTVSPost2010Prop55
280
     0
102
RTVSPost2010PropOp55
 70
     1
102
RTVSPost2010Prop56
140
1.0
102
RTVSPost2010PropOp56
 70
     1
102
RTVSPost2010Prop57
140
1.0
102
RTVSPost2010PropOp57
 70
     1
  0
XRECORD
  5
16D
102
{ACAD_REACTORS
330
16C
102
}
330
16C
100
AcDbXrecord
280
     1
102
RTVSPost2010Prop28
280
     0
102
RTVSPost2010PropOp28
 70
     1
102
RTVSPost2010Prop29
280
     1
102
RTVSPost2010PropOp29
 70
     1
102
RTVSPost2010Prop30
280
     1
102
RTVSPost2010PropOp30
 70
     1
102
RTVSPost2010Prop31
280
     0
102
RTVSPost2010PropOp31
 70
     1
102
RTVSPost2010Prop32
280
     0
102
RTVSPost2010PropOp32
 70
     1
102
RTVSPost2010Prop33
280
     0
102
RTVSPost2010PropOp33
 70
     1
102
RTVSPost2010Prop34
280
     0
102
RTVSPost2010PropOp34
 70
     1
102
RTVSPost2010Prop35
280
     0
102
RTVSPost2010PropOp35
 70
     1
102
RTVSPost2010Prop36
280
     0
102
RTVSPost2010PropOp36
 70
     1
102
RTVSPost2010Prop37
 90
       50
102
RTVSPost2010PropOp37
 70
     1
102
RTVSPost2010Prop38
140
0.0
102
RTVSPost2010PropOp38
 70
     1
102
RTVSPost2010Prop39
140
1.0
102
RTVSPost2010PropOp39
 70
     1
102
RTVSPost2010Prop40
 90
        0
102
RTVSPost2010PropOp40
 70
     1
102
RTVSPost2010Prop41ColorIndex
 90
       18
102
RTVSPost2010Prop41ColorRGB
 90
        0
102
RTVSPost2010PropOp41
 70
     1
102
RTVSPost2010Prop42
 90
       50
102
RTVSPost2010PropOp42
 70
     1
102
RTVSPost2010Prop43
 90
        3
102
RTVSPost2010PropOp43
 70
     1
102
RTVSPost2010Prop44ColorIndex
 90
        5
102
RTVSPost2010Prop44ColorRGB
 90
      255
102
RTVSPost2010PropOp44
 70
     1
102
RTVSPost2010Prop45
280
     0
102
RTVSPost2010PropOp45
 70
     1
102
RTVSPost2010Prop46
 90
       50
102
RTVSPost2010PropOp46
 70
     1
102
RTVSPost2010Prop47
 90
       50
102
RTVSPost2010PropOp47
 70
     1
102
RTVSPost2010Prop48
 90
       50
102
RTVSPost2010PropOp48
 70
     1
102
RTVSPost2010Prop49
280
     0
102
RTVSPost2010PropOp49
 70
     1
102
RTVSPost2010Prop50
 90
       50
102
RTVSPost2010PropOp50
 70
     1
102
RTVSPost2010Prop51ColorIndex
 90
      256
102
RTVSPost2010Prop51ColorRGB
 90
-16777216
102
RTVSPost2010PropOp51
 70
     0
102
RTVSPost2010Prop52
140
1.0
102
RTVSPost2010PropOp52
 70
     0
102
RTVSPost2010Prop53
 90
        2
102
RTVSPost2010PropOp53
 70
     1
102
RTVSPost2010Prop54
  1
strokes_ogs.tif
102
RTVSPost2010PropOp54
 70
     1
102
RTVSPost2010Prop55
280
     0
102
RTVSPost2010PropOp55
 70
     1
102
RTVSPost2010Prop56
140
1.0
102
RTVSPost2010PropOp56
 70
     1
102
RTVSPost2010Prop57
140
1.0
102
RTVSPost2010PropOp57
 70
     1
  0
XRECORD
  5
16F
102
{ACAD_REACTORS
330
16E
102
}
330
16E
100
AcDbXrecord
280
     1
102
RTVSPost2010Prop28
280
     0
102
RTVSPost2010PropOp28
 70
     1
102
RTVSPost2010Prop29
280
     1
102
RTVSPost2010PropOp29
 70
     1
102
RTVSPost2010Prop30
280
     1
102
RTVSPost2010PropOp30
 70
     1
102
RTVSPost2010Prop31
280
     0
102
RTVSPost2010PropOp31
 70
     1
102
RTVSPost2010Prop32
280
     0
102
RTVSPost2010PropOp32
 70
     1
102
RTVSPost2010Prop33
280
     0
102
RTVSPost2010PropOp33
 70
     1
102
RTVSPost2010Prop34
280
     0
102
RTVSPost2010PropOp34
 70
     1
102
RTVSPost2010Prop35
280
     0
102
RTVSPost2010PropOp35
 70
     1
102
RTVSPost2010Prop36
280
     0
102
RTVSPost2010PropOp36
 70
     1
102
RTVSPost2010Prop37
 90
       50
102
RTVSPost2010PropOp37
 70
     1
102
RTVSPost2010Prop38
140
0.0
102
RTVSPost2010PropOp38
 70
     1
102
RTVSPost2010Prop39
140
1.0
102
RTVSPost2010PropOp39
 70
     1
102
RTVSPost2010Prop40
 90
        0
102
RTVSPost2010PropOp40
 70
     1
102
RTVSPost2010Prop41ColorIndex
 90
       18
102
RTVSPost2010Prop41ColorRGB
 90
        0
102
RTVSPost2010PropOp41
 70
     1
102
RTVSPost2010Prop42
 90
       50
102
RTVSPost2010PropOp42
 70
     1
102
RTVSPost2010Prop43
 90
        3
102
RTVSPost2010PropOp43
 70
     1
102
RTVSPost2010Prop44ColorIndex
 90
        5
102
RTVSPost2010Prop44ColorRGB
 90
      255
102
RTVSPost2010PropOp44
 70
     1
102
RTVSPost2010Prop45
280
     0
102
RTVSPost2010PropOp45
 70
     1
102
RTVSPost2010Prop46
 90
       50
102
RTVSPost2010PropOp46
 70
     1
102
RTVSPost2010Prop47
 90
       50
102
RTVSPost2010PropOp47
 70
     1
102
RTVSPost2010Prop48
 90
       50
102
RTVSPost2010PropOp48
 70
     1
102
RTVSPost2010Prop49
280
     0
102
RTVSPost2010PropOp49
 70
     1
102
RTVSPost2010Prop50
 90
       50
102
RTVSPost2010PropOp50
 70
     1
102
RTVSPost2010Prop51ColorIndex
 90
      256
102
RTVSPost2010Prop51ColorRGB
 90
-16777216
102
RTVSPost2010PropOp51
 70
     0
102
RTVSPost2010Prop52
140
1.0
102
RTVSPost2010PropOp52
 70
     0
102
RTVSPost2010Prop53
 90
        2
102
RTVSPost2010PropOp53
 70
     1
102
RTVSPost2010Prop54
  1
strokes_ogs.tif
102
RTVSPost2010PropOp54
 70
     1
102
RTVSPost2010Prop55
280
     0
102
RTVSPost2010PropOp55
 70
     1
102
RTVSPost2010Prop56
140
1.0
102
RTVSPost2010PropOp56
 70
     1
102
RTVSPost2010Prop57
140
1.0
102
RTVSPost2010PropOp57
 70
     1
  0
XRECORD
  5
171
102
{ACAD_REACTORS
330
170
102
}
330
170
100
AcDbXrecord
280
     1
102
RTVSPost2010Prop28
280
     0
102
RTVSPost2010PropOp28
 70
     1
102
RTVSPost2010Prop29
280
     1
102
RTVSPost2010PropOp29
 70
     1
102
RTVSPost2010Prop30
280
     1
102
RTVSPost2010PropOp30
 70
     1
102
RTVSPost2010Prop31
280
     0
102
RTVSPost2010PropOp31
 70
     1
102
RTVSPost2010Prop32
280
     0
102
RTVSPost2010PropOp32
 70
     1
102
RTVSPost2010Prop33
280
     0
102
RTVSPost2010PropOp33
 70
     1
102
RTVSPost2010Prop34
280
     0
102
RTVSPost2010PropOp34
 70
     1
102
RTVSPost2010Prop35
280
     0
102
RTVSPost2010PropOp35
 70
     1
102
RTVSPost2010Prop36
280
     0
102
RTVSPost2010PropOp36
 70
     1
102
RTVSPost2010Prop37
 90
       50
102
RTVSPost2010PropOp37
 70
     1
102
RTVSPost2010Prop38
140
0.0
102
RTVSPost2010PropOp38
 70
     1
102
RTVSPost2010Prop39
140
1.0
102
RTVSPost2010PropOp39
 70
     1
102
RTVSPost2010Prop40
 90
        0
102
RTVSPost2010PropOp40
 70
     1
102
RTVSPost2010Prop41ColorIndex
 90
       18
102
RTVSPost2010Prop41ColorRGB
 90
        0
102
RTVSPost2010PropOp41
 70
     1
102
RTVSPost2010Prop42
 90
       50
102
RTVSPost2010PropOp42
 70
     1
102
RTVSPost2010Prop43
 90
        3
102
RTVSPost2010PropOp43
 70
     1
102
RTVSPost2010Prop44ColorIndex
 90
        5
102
RTVSPost2010Prop44ColorRGB
 90
      255
102
RTVSPost2010PropOp44
 70
     1
102
RTVSPost2010Prop45
280
     0
102
RTVSPost2010PropOp45
 70
     1
102
RTVSPost2010Prop46
 90
       50
102
RTVSPost2010PropOp46
 70
     1
102
RTVSPost2010Prop47
 90
       50
102
RTVSPost2010PropOp47
 70
     1
102
RTVSPost2010Prop48
 90
       50
102
RTVSPost2010PropOp48
 70
     1
102
RTVSPost2010Prop49
280
     0
102
RTVSPost2010PropOp49
 70
     1
102
RTVSPost2010Prop50
 90
       50
102
RTVSPost2010PropOp50
 70
     1
102
RTVSPost2010Prop51ColorIndex
 90
      256
102
RTVSPost2010Prop51ColorRGB
 90
-16777216
102
RTVSPost2010PropOp51
 70
     0
102
RTVSPost2010Prop52
140
1.0
102
RTVSPost2010PropOp52
 70
     0
102
RTVSPost2010Prop53
 90
        2
102
RTVSPost2010PropOp53
 70
     1
102
RTVSPost2010Prop54
  1
strokes_ogs.tif
102
RTVSPost2010PropOp54
 70
     1
102
RTVSPost2010Prop55
280
     0
102
RTVSPost2010PropOp55
 70
     1
102
RTVSPost2010Prop56
140
1.0
102
RTVSPost2010PropOp56
 70
     1
102
RTVSPost2010Prop57
140
1.0
102
RTVSPost2010PropOp57
 70
     1
  0
XRECORD
  5
173
102
{ACAD_REACTORS
330
172
102
}
330
172
100
AcDbXrecord
280
     1
102
RTVSPost2010Prop28
280
     0
102
RTVSPost2010PropOp28
 70
     1
102
RTVSPost2010Prop29
280
     1
102
RTVSPost2010PropOp29
 70
     1
102
RTVSPost2010Prop30
280
     1
102
RTVSPost2010PropOp30
 70
     1
102
RTVSPost2010Prop31
280
     0
102
RTVSPost2010PropOp31
 70
     1
102
RTVSPost2010Prop32
280
     0
102
RTVSPost2010PropOp32
 70
     1
102
RTVSPost2010Prop33
280
     0
102
RTVSPost2010PropOp33
 70
     1
102
RTVSPost2010Prop34
280
     0
102
RTVSPost2010PropOp34
 70
     1
102
RTVSPost2010Prop35
280
     0
102
RTVSPost2010PropOp35
 70
     1
102
RTVSPost2010Prop36
280
     0
102
RTVSPost2010PropOp36
 70
     1
102
RTVSPost2010Prop37
 90
       50
102
RTVSPost2010PropOp37
 70
     1
102
RTVSPost2010Prop38
140
0.0
102
RTVSPost2010PropOp38
 70
     1
102
RTVSPost2010Prop39
140
1.0
102
RTVSPost2010PropOp39
 70
     1
102
RTVSPost2010Prop40
 90
        0
102
RTVSPost2010PropOp40
 70
     1
102
RTVSPost2010Prop41ColorIndex
 90
       18
102
RTVSPost2010Prop41ColorRGB
 90
        0
102
RTVSPost2010PropOp41
 70
     1
102
RTVSPost2010Prop42
 90
       50
102
RTVSPost2010PropOp42
 70
     1
102
RTVSPost2010Prop43
 90
        3
102
RTVSPost2010PropOp43
 70
     1
102
RTVSPost2010Prop44ColorIndex
 90
        5
102
RTVSPost2010Prop44ColorRGB
 90
      255
102
RTVSPost2010PropOp44
 70
     1
102
RTVSPost2010Prop45
280
     0
102
RTVSPost2010PropOp45
 70
     1
102
RTVSPost2010Prop46
 90
       50
102
RTVSPost2010PropOp46
 70
     1
102
RTVSPost2010Prop47
 90
       50
102
RTVSPost2010PropOp47
 70
     1
102
RTVSPost2010Prop48
 90
       50
102
RTVSPost2010PropOp48
 70
     1
102
RTVSPost2010Prop49
280
     0
102
RTVSPost2010PropOp49
 70
     1
102
RTVSPost2010Prop50
 90
       50
102
RTVSPost2010PropOp50
 70
     1
102
RTVSPost2010Prop51ColorIndex
 90
      256
102
RTVSPost2010Prop51ColorRGB
 90
-16777216
102
RTVSPost2010PropOp51
 70
     0
102
RTVSPost2010Prop52
140
1.0
102
RTVSPost2010PropOp52
 70
     0
102
RTVSPost2010Prop53
 90
        2
102
RTVSPost2010PropOp53
 70
     1
102
RTVSPost2010Prop54
  1
strokes_ogs.tif
102
RTVSPost2010PropOp54
 70
     1
102
RTVSPost2010Prop55
280
     0
102
RTVSPost2010PropOp55
 70
     1
102
RTVSPost2010Prop56
140
1.0
102
RTVSPost2010PropOp56
 70
     1
102
RTVSPost2010Prop57
140
1.0
102
RTVSPost2010PropOp57
 70
     1
  0
XRECORD
  5
17B
102
{ACAD_REACTORS
330
17A
102
}
330
17A
100
AcDbXrecord
280
     1
102
RTVSPost2010Prop28
280
     0
102
RTVSPost2010PropOp28
 70
     1
102
RTVSPost2010Prop29
280
     1
102
RTVSPost2010PropOp29
 70
     1
102
RTVSPost2010Prop30
280
     1
102
RTVSPost2010PropOp30
 70
     1
102
RTVSPost2010Prop31
280
     0
102
RTVSPost2010PropOp31
 70
     1
102
RTVSPost2010Prop32
280
     0
102
RTVSPost2010PropOp32
 70
     1
102
RTVSPost2010Prop33
280
     0
102
RTVSPost2010PropOp33
 70
     1
102
RTVSPost2010Prop34
280
     0
102
RTVSPost2010PropOp34
 70
     1
102
RTVSPost2010Prop35
280
     0
102
RTVSPost2010PropOp35
 70
     1
102
RTVSPost2010Prop36
280
     0
102
RTVSPost2010PropOp36
 70
     1
102
RTVSPost2010Prop37
 90
       50
102
RTVSPost2010PropOp37
 70
     1
102
RTVSPost2010Prop38
140
0.0
102
RTVSPost2010PropOp38
 70
     1
102
RTVSPost2010Prop39
140
1.0
102
RTVSPost2010PropOp39
 70
     1
102
RTVSPost2010Prop40
 90
        0
102
RTVSPost2010PropOp40
 70
     1
102
RTVSPost2010Prop41ColorIndex
 90
       18
102
RTVSPost2010Prop41ColorRGB
 90
        0
102
RTVSPost2010PropOp41
 70
     1
102
RTVSPost2010Prop42
 90
       50
102
RTVSPost2010PropOp42
 70
     1
102
RTVSPost2010Prop43
 90
        3
102
RTVSPost2010PropOp43
 70
     1
102
RTVSPost2010Prop44ColorIndex
 90
        5
102
RTVSPost2010Prop44ColorRGB
 90
      255
102
RTVSPost2010PropOp44
 70
     1
102
RTVSPost2010Prop45
280
     0
102
RTVSPost2010PropOp45
 70
     1
102
RTVSPost2010Prop46
 90
       50
102
RTVSPost2010PropOp46
 70
     1
102
RTVSPost2010Prop47
 90
       50
102
RTVSPost2010PropOp47
 70
     1
102
RTVSPost2010Prop48
 90
       50
102
RTVSPost2010PropOp48
 70
     1
102
RTVSPost2010Prop49
280
     0
102
RTVSPost2010PropOp49
 70
     1
102
RTVSPost2010Prop50
 90
       50
102
RTVSPost2010PropOp50
 70
     1
102
RTVSPost2010Prop51ColorIndex
 90
      256
102
RTVSPost2010Prop51ColorRGB
 90
-16777216
102
RTVSPost2010PropOp51
 70
     0
102
RTVSPost2010Prop52
140
1.0
102
RTVSPost2010PropOp52
 70
     0
102
RTVSPost2010Prop53
 90
        2
102
RTVSPost2010PropOp53
 70
     1
102
RTVSPost2010Prop54
  1
strokes_ogs.tif
102
RTVSPost2010PropOp54
 70
     1
102
RTVSPost2010Prop55
280
     0
102
RTVSPost2010PropOp55
 70
     1
102
RTVSPost2010Prop56
140
1.0
102
RTVSPost2010PropOp56
 70
     1
102
RTVSPost2010Prop57
140
1.0
102
RTVSPost2010PropOp57
 70
     1
  0
XRECORD
  5
197
102
{ACAD_REACTORS
330
196
102
}
330
196
100
AcDbXrecord
280
     1
102
RTVSPost2010Prop28
280
     0
102
RTVSPost2010PropOp28
 70
     0
102
RTVSPost2010Prop29
280
     1
102
RTVSPost2010PropOp29
 70
     0
102
RTVSPost2010Prop30
280
     1
102
RTVSPost2010PropOp30
 70
     0
102
RTVSPost2010Prop31
280
     0
102
RTVSPost2010PropOp31
 70
     0
102
RTVSPost2010Prop32
280
     0
102
RTVSPost2010PropOp32
 70
     0
102
RTVSPost2010Prop33
280
     0
102
RTVSPost2010PropOp33
 70
     0
102
RTVSPost2010Prop34
280
     0
102
RTVSPost2010PropOp34
 70
     0
102
RTVSPost2010Prop35
280
     0
102
RTVSPost2010PropOp35
 70
     0
102
RTVSPost2010Prop36
280
     0
102
RTVSPost2010PropOp36
 70
     0
102
RTVSPost2010Prop37
 90
       50
102
RTVSPost2010PropOp37
 70
     0
102
RTVSPost2010Prop38
140
0.0
102
RTVSPost2010PropOp38
 70
     0
102
RTVSPost2010Prop39
140
1.0
102
RTVSPost2010PropOp39
 70
     0
102
RTVSPost2010Prop40
 90
        0
102
RTVSPost2010PropOp40
 70
     0
102
RTVSPost2010Prop41ColorIndex
 90
       18
102
RTVSPost2010Prop41ColorRGB
 90
        0
102
RTVSPost2010PropOp41
 70
     0
102
RTVSPost2010Prop42
 90
       50
102
RTVSPost2010PropOp42
 70
     0
102
RTVSPost2010Prop43
 90
        3
102
RTVSPost2010PropOp43
 70
     0
102
RTVSPost2010Prop44ColorIndex
 90
        5
102
RTVSPost2010Prop44ColorRGB
 90
      255
102
RTVSPost2010PropOp44
 70
     0
102
RTVSPost2010Prop45
280
     0
102
RTVSPost2010PropOp45
 70
     0
102
RTVSPost2010Prop46
 90
       50
102
RTVSPost2010PropOp46
 70
     0
102
RTVSPost2010Prop47
 90
       50
102
RTVSPost2010PropOp47
 70
     0
102
RTVSPost2010Prop48
 90
       50
102
RTVSPost2010PropOp48
 70
     0
102
RTVSPost2010Prop49
280
     0
102
RTVSPost2010PropOp49
 70
     0
102
RTVSPost2010Prop50
 90
       50
102
RTVSPost2010PropOp50
 70
     0
102
RTVSPost2010Prop51ColorIndex
 90
      256
102
RTVSPost2010Prop51ColorRGB
 90
-16777216
102
RTVSPost2010PropOp51
 70
     0
102
RTVSPost2010Prop52
140
1.0
102
RTVSPost2010PropOp52
 70
     0
102
RTVSPost2010Prop53
 90
        2
102
RTVSPost2010PropOp53
 70
     0
102
RTVSPost2010Prop54
  1
strokes_ogs.tif
102
RTVSPost2010PropOp54
 70
     0
102
RTVSPost2010Prop55
280
     0
102
RTVSPost2010PropOp55
 70
     0
102
RTVSPost2010Prop56
140
1.0
102
RTVSPost2010PropOp56
 70
     0
102
RTVSPost2010Prop57
140
1.0
102
RTVSPost2010PropOp57
 70
     0
  0
XRECORD
  5
187
102
{ACAD_REACTORS
330
186
102
}
330
186
100
AcDbXrecord
280
     1
102
RTVSPost2010Prop28
280
     0
102
RTVSPost2010PropOp28
 70
     1
102
RTVSPost2010Prop29
280
     1
102
RTVSPost2010PropOp29
 70
     1
102
RTVSPost2010Prop30
280
     1
102
RTVSPost2010PropOp30
 70
     1
102
RTVSPost2010Prop31
280
     0
102
RTVSPost2010PropOp31
 70
     1
102
RTVSPost2010Prop32
280
     0
102
RTVSPost2010PropOp32
 70
     1
102
RTVSPost2010Prop33
280
     0
102
RTVSPost2010PropOp33
 70
     1
102
RTVSPost2010Prop34
280
     0
102
RTVSPost2010PropOp34
 70
     1
102
RTVSPost2010Prop35
280
     0
102
RTVSPost2010PropOp35
 70
     1
102
RTVSPost2010Prop36
280
     0
102
RTVSPost2010PropOp36
 70
     1
102
RTVSPost2010Prop37
 90
       50
102
RTVSPost2010PropOp37
 70
     1
102
RTVSPost2010Prop38
140
0.0
102
RTVSPost2010PropOp38
 70
     1
102
RTVSPost2010Prop39
140
1.0
102
RTVSPost2010PropOp39
 70
     1
102
RTVSPost2010Prop40
 90
        0
102
RTVSPost2010PropOp40
 70
     1
102
RTVSPost2010Prop41ColorIndex
 90
       18
102
RTVSPost2010Prop41ColorRGB
 90
        0
102
RTVSPost2010PropOp41
 70
     1
102
RTVSPost2010Prop42
 90
       50
102
RTVSPost2010PropOp42
 70
     1
102
RTVSPost2010Prop43
 90
        3
102
RTVSPost2010PropOp43
 70
     1
102
RTVSPost2010Prop44ColorIndex
 90
        5
102
RTVSPost2010Prop44ColorRGB
 90
      255
102
RTVSPost2010PropOp44
 70
     1
102
RTVSPost2010Prop45
280
     0
102
RTVSPost2010PropOp45
 70
     1
102
RTVSPost2010Prop46
 90
       50
102
RTVSPost2010PropOp46
 70
     1
102
RTVSPost2010Prop47
 90
       50
102
RTVSPost2010PropOp47
 70
     1
102
RTVSPost2010Prop48
 90
       50
102
RTVSPost2010PropOp48
 70
     1
102
RTVSPost2010Prop49
280
     0
102
RTVSPost2010PropOp49
 70
     1
102
RTVSPost2010Prop50
 90
       50
102
RTVSPost2010PropOp50
 70
     1
102
RTVSPost2010Prop51ColorIndex
 90
      256
102
RTVSPost2010Prop51ColorRGB
 90
-16777216
102
RTVSPost2010PropOp51
 70
     0
102
RTVSPost2010Prop52
140
1.0
102
RTVSPost2010PropOp52
 70
     0
102
RTVSPost2010Prop53
 90
        2
102
RTVSPost2010PropOp53
 70
     1
102
RTVSPost2010Prop54
  1
strokes_ogs.tif
102
RTVSPost2010PropOp54
 70
     1
102
RTVSPost2010Prop55
280
     0
102
RTVSPost2010PropOp55
 70
     1
102
RTVSPost2010Prop56
140
1.0
102
RTVSPost2010PropOp56
 70
     1
102
RTVSPost2010Prop57
140
1.0
102
RTVSPost2010PropOp57
 70
     1
  0
XRECORD
  5
199
102
{ACAD_REACTORS
330
198
102
}
330
198
100
AcDbXrecord
280
     1
102
RTVSPost2010Prop28
280
     0
102
RTVSPost2010PropOp28
 70
     0
102
RTVSPost2010Prop29
280
     1
102
RTVSPost2010PropOp29
 70
     0
102
RTVSPost2010Prop30
280
     1
102
RTVSPost2010PropOp30
 70
     0
102
RTVSPost2010Prop31
280
     0
102
RTVSPost2010PropOp31
 70
     0
102
RTVSPost2010Prop32
280
     0
102
RTVSPost2010PropOp32
 70
     0
102
RTVSPost2010Prop33
280
     0
102
RTVSPost2010PropOp33
 70
     0
102
RTVSPost2010Prop34
280
     0
102
RTVSPost2010PropOp34
 70
     0
102
RTVSPost2010Prop35
280
     0
102
RTVSPost2010PropOp35
 70
     0
102
RTVSPost2010Prop36
280
     0
102
RTVSPost2010PropOp36
 70
     0
102
RTVSPost2010Prop37
 90
       50
102
RTVSPost2010PropOp37
 70
     0
102
RTVSPost2010Prop38
140
0.0
102
RTVSPost2010PropOp38
 70
     0
102
RTVSPost2010Prop39
140
1.0
102
RTVSPost2010PropOp39
 70
     0
102
RTVSPost2010Prop40
 90
        0
102
RTVSPost2010PropOp40
 70
     0
102
RTVSPost2010Prop41ColorIndex
 90
       18
102
RTVSPost2010Prop41ColorRGB
 90
        0
102
RTVSPost2010PropOp41
 70
     0
102
RTVSPost2010Prop42
 90
       50
102
RTVSPost2010PropOp42
 70
     0
102
RTVSPost2010Prop43
 90
        3
102
RTVSPost2010PropOp43
 70
     0
102
RTVSPost2010Prop44ColorIndex
 90
        5
102
RTVSPost2010Prop44ColorRGB
 90
      255
102
RTVSPost2010PropOp44
 70
     0
102
RTVSPost2010Prop45
280
     0
102
RTVSPost2010PropOp45
 70
     0
102
RTVSPost2010Prop46
 90
       50
102
RTVSPost2010PropOp46
 70
     0
102
RTVSPost2010Prop47
 90
       50
102
RTVSPost2010PropOp47
 70
     0
102
RTVSPost2010Prop48
 90
       50
102
RTVSPost2010PropOp48
 70
     0
102
RTVSPost2010Prop49
280
     0
102
RTVSPost2010PropOp49
 70
     0
102
RTVSPost2010Prop50
 90
       50
102
RTVSPost2010PropOp50
 70
     0
102
RTVSPost2010Prop51ColorIndex
 90
      256
102
RTVSPost2010Prop51ColorRGB
 90
-16777216
102
RTVSPost2010PropOp51
 70
     0
102
RTVSPost2010Prop52
140
1.0
102
RTVSPost2010PropOp52
 70
     0
102
RTVSPost2010Prop53
 90
        2
102
RTVSPost2010PropOp53
 70
     0
102
RTVSPost2010Prop54
  1
strokes_ogs.tif
102
RTVSPost2010PropOp54
 70
     0
102
RTVSPost2010Prop55
280
     0
102
RTVSPost2010PropOp55
 70
     0
102
RTVSPost2010Prop56
140
1.0
102
RTVSPost2010PropOp56
 70
     0
102
RTVSPost2010Prop57
140
1.0
102
RTVSPost2010PropOp57
 70
     0
  0
XRECORD
  5
17F
102
{ACAD_REACTORS
330
17E
102
}
330
17E
100
AcDbXrecord
280
     1
102
RTVSPost2010Prop28
280
     0
102
RTVSPost2010PropOp28
 70
     1
102
RTVSPost2010Prop29
280
     1
102
RTVSPost2010PropOp29
 70
     1
102
RTVSPost2010Prop30
280
     1
102
RTVSPost2010PropOp30
 70
     1
102
RTVSPost2010Prop31
280
     0
102
RTVSPost2010PropOp31
 70
     1
102
RTVSPost2010Prop32
280
     0
102
RTVSPost2010PropOp32
 70
     1
102
RTVSPost2010Prop33
280
     0
102
RTVSPost2010PropOp33
 70
     1
102
RTVSPost2010Prop34
280
     0
102
RTVSPost2010PropOp34
 70
     1
102
RTVSPost2010Prop35
280
     0
102
RTVSPost2010PropOp35
 70
     1
102
RTVSPost2010Prop36
280
     0
102
RTVSPost2010PropOp36
 70
     1
102
RTVSPost2010Prop37
 90
       50
102
RTVSPost2010PropOp37
 70
     1
102
RTVSPost2010Prop38
140
0.0
102
RTVSPost2010PropOp38
 70
     1
102
RTVSPost2010Prop39
140
1.0
102
RTVSPost2010PropOp39
 70
     1
102
RTVSPost2010Prop40
 90
        0
102
RTVSPost2010PropOp40
 70
     1
102
RTVSPost2010Prop41ColorIndex
 90
       18
102
RTVSPost2010Prop41ColorRGB
 90
        0
102
RTVSPost2010PropOp41
 70
     1
102
RTVSPost2010Prop42
 90
       50
102
RTVSPost2010PropOp42
 70
     1
102
RTVSPost2010Prop43
 90
        3
102
RTVSPost2010PropOp43
 70
     1
102
RTVSPost2010Prop44ColorIndex
 90
        5
102
RTVSPost2010Prop44ColorRGB
 90
      255
102
RTVSPost2010PropOp44
 70
     1
102
RTVSPost2010Prop45
280
     0
102
RTVSPost2010PropOp45
 70
     1
102
RTVSPost2010Prop46
 90
       50
102
RTVSPost2010PropOp46
 70
     1
102
RTVSPost2010Prop47
 90
       50
102
RTVSPost2010PropOp47
 70
     1
102
RTVSPost2010Prop48
 90
       50
102
RTVSPost2010PropOp48
 70
     1
102
RTVSPost2010Prop49
280
     0
102
RTVSPost2010PropOp49
 70
     1
102
RTVSPost2010Prop50
 90
       50
102
RTVSPost2010PropOp50
 70
     1
102
RTVSPost2010Prop51ColorIndex
 90
      256
102
RTVSPost2010Prop51ColorRGB
 90
-16777216
102
RTVSPost2010PropOp51
 70
     0
102
RTVSPost2010Prop52
140
1.0
102
RTVSPost2010PropOp52
 70
     0
102
RTVSPost2010Prop53
 90
        2
102
RTVSPost2010PropOp53
 70
     1
102
RTVSPost2010Prop54
  1
strokes_ogs.tif
102
RTVSPost2010PropOp54
 70
     1
102
RTVSPost2010Prop55
280
     0
102
RTVSPost2010PropOp55
 70
     1
102
RTVSPost2010Prop56
140
1.0
102
RTVSPost2010PropOp56
 70
     1
102
RTVSPost2010Prop57
140
1.0
102
RTVSPost2010PropOp57
 70
     1
  0
XRECORD
  5
195
102
{ACAD_REACTORS
330
194
102
}
330
194
100
AcDbXrecord
280
     1
102
RTVSPost2010Prop28
280
     0
102
RTVSPost2010PropOp28
 70
     1
102
RTVSPost2010Prop29
280
     1
102
RTVSPost2010PropOp29
 70
     1
102
RTVSPost2010Prop30
280
     1
102
RTVSPost2010PropOp30
 70
     1
102
RTVSPost2010Prop31
280
     0
102
RTVSPost2010PropOp31
 70
     1
102
RTVSPost2010Prop32
280
     0
102
RTVSPost2010PropOp32
 70
     1
102
RTVSPost2010Prop33
280
     0
102
RTVSPost2010PropOp33
 70
     1
102
RTVSPost2010Prop34
280
     0
102
RTVSPost2010PropOp34
 70
     1
102
RTVSPost2010Prop35
280
     0
102
RTVSPost2010PropOp35
 70
     1
102
RTVSPost2010Prop36
280
     0
102
RTVSPost2010PropOp36
 70
     1
102
RTVSPost2010Prop37
 90
       50
102
RTVSPost2010PropOp37
 70
     1
102
RTVSPost2010Prop38
140
0.0
102
RTVSPost2010PropOp38
 70
     1
102
RTVSPost2010Prop39
140
1.0
102
RTVSPost2010PropOp39
 70
     1
102
RTVSPost2010Prop40
 90
        0
102
RTVSPost2010PropOp40
 70
     1
102
RTVSPost2010Prop41ColorIndex
 90
       18
102
RTVSPost2010Prop41ColorRGB
 90
        0
102
RTVSPost2010PropOp41
 70
     1
102
RTVSPost2010Prop42
 90
       50
102
RTVSPost2010PropOp42
 70
     1
102
RTVSPost2010Prop43
 90
        3
102
RTVSPost2010PropOp43
 70
     1
102
RTVSPost2010Prop44ColorIndex
 90
        5
102
RTVSPost2010Prop44ColorRGB
 90
      255
102
RTVSPost2010PropOp44
 70
     1
102
RTVSPost2010Prop45
280
     0
102
RTVSPost2010PropOp45
 70
     1
102
RTVSPost2010Prop46
 90
       50
102
RTVSPost2010PropOp46
 70
     1
102
RTVSPost2010Prop47
 90
       50
102
RTVSPost2010PropOp47
 70
     1
102
RTVSPost2010Prop48
 90
       50
102
RTVSPost2010PropOp48
 70
     1
102
RTVSPost2010Prop49
280
     0
102
RTVSPost2010PropOp49
 70
     1
102
RTVSPost2010Prop50
 90
       50
102
RTVSPost2010PropOp50
 70
     1
102
RTVSPost2010Prop51ColorIndex
 90
      256
102
RTVSPost2010Prop51ColorRGB
 90
-16777216
102
RTVSPost2010PropOp51
 70
     0
102
RTVSPost2010Prop52
140
1.0
102
RTVSPost2010PropOp52
 70
     0
102
RTVSPost2010Prop53
 90
        2
102
RTVSPost2010PropOp53
 70
     1
102
RTVSPost2010Prop54
  1
strokes_ogs.tif
102
RTVSPost2010PropOp54
 70
     1
102
RTVSPost2010Prop55
280
     0
102
RTVSPost2010PropOp55
 70
     1
102
RTVSPost2010Prop56
140
1.0
102
RTVSPost2010PropOp56
 70
     1
102
RTVSPost2010Prop57
140
1.0
102
RTVSPost2010PropOp57
 70
     1
  0
XRECORD
  5
193
102
{ACAD_REACTORS
330
192
102
}
330
192
100
AcDbXrecord
280
     1
102
RTVSPost2010Prop28
280
     0
102
RTVSPost2010PropOp28
 70
     1
102
RTVSPost2010Prop29
280
     1
102
RTVSPost2010PropOp29
 70
     1
102
RTVSPost2010Prop30
280
     1
102
RTVSPost2010PropOp30
 70
     1
102
RTVSPost2010Prop31
280
     0
102
RTVSPost2010PropOp31
 70
     1
102
RTVSPost2010Prop32
280
     0
102
RTVSPost2010PropOp32
 70
     1
102
RTVSPost2010Prop33
280
     0
102
RTVSPost2010PropOp33
 70
     1
102
RTVSPost2010Prop34
280
     0
102
RTVSPost2010PropOp34
 70
     1
102
RTVSPost2010Prop35
280
     0
102
RTVSPost2010PropOp35
 70
     1
102
RTVSPost2010Prop36
280
     0
102
RTVSPost2010PropOp36
 70
     1
102
RTVSPost2010Prop37
 90
       50
102
RTVSPost2010PropOp37
 70
     1
102
RTVSPost2010Prop38
140
0.0
102
RTVSPost2010PropOp38
 70
     1
102
RTVSPost2010Prop39
140
1.0
102
RTVSPost2010PropOp39
 70
     1
102
RTVSPost2010Prop40
 90
        0
102
RTVSPost2010PropOp40
 70
     1
102
RTVSPost2010Prop41ColorIndex
 90
       18
102
RTVSPost2010Prop41ColorRGB
 90
        0
102
RTVSPost2010PropOp41
 70
     1
102
RTVSPost2010Prop42
 90
       50
102
RTVSPost2010PropOp42
 70
     1
102
RTVSPost2010Prop43
 90
        3
102
RTVSPost2010PropOp43
 70
     1
102
RTVSPost2010Prop44ColorIndex
 90
        5
102
RTVSPost2010Prop44ColorRGB
 90
      255
102
RTVSPost2010PropOp44
 70
     1
102
RTVSPost2010Prop45
280
     0
102
RTVSPost2010PropOp45
 70
     1
102
RTVSPost2010Prop46
 90
       50
102
RTVSPost2010PropOp46
 70
     1
102
RTVSPost2010Prop47
 90
       50
102
RTVSPost2010PropOp47
 70
     1
102
RTVSPost2010Prop48
 90
       50
102
RTVSPost2010PropOp48
 70
     1
102
RTVSPost2010Prop49
280
     0
102
RTVSPost2010PropOp49
 70
     1
102
RTVSPost2010Prop50
 90
       50
102
RTVSPost2010PropOp50
 70
     1
102
RTVSPost2010Prop51ColorIndex
 90
      256
102
RTVSPost2010Prop51ColorRGB
 90
-16777216
102
RTVSPost2010PropOp51
 70
     0
102
RTVSPost2010Prop52
140
1.0
102
RTVSPost2010PropOp52
 70
     0
102
RTVSPost2010Prop53
 90
        2
102
RTVSPost2010PropOp53
 70
     1
102
RTVSPost2010Prop54
  1
strokes_ogs.tif
102
RTVSPost2010PropOp54
 70
     1
102
RTVSPost2010Prop55
280
     0
102
RTVSPost2010PropOp55
 70
     1
102
RTVSPost2010Prop56
140
1.0
102
RTVSPost2010PropOp56
 70
     1
102
RTVSPost2010Prop57
140
1.0
102
RTVSPost2010PropOp57
 70
     1
  0
XRECORD
  5
18D
102
{ACAD_REACTORS
330
18C
102
}
330
18C
100
AcDbXrecord
280
     1
102
RTVSPost2010Prop28
280
     0
102
RTVSPost2010PropOp28
 70
     1
102
RTVSPost2010Prop29
280
     1
102
RTVSPost2010PropOp29
 70
     1
102
RTVSPost2010Prop30
280
     1
102
RTVSPost2010PropOp30
 70
     1
102
RTVSPost2010Prop31
280
     0
102
RTVSPost2010PropOp31
 70
     1
102
RTVSPost2010Prop32
280
     0
102
RTVSPost2010PropOp32
 70
     1
102
RTVSPost2010Prop33
280
     0
102
RTVSPost2010PropOp33
 70
     1
102
RTVSPost2010Prop34
280
     0
102
RTVSPost2010PropOp34
 70
     1
102
RTVSPost2010Prop35
280
     0
102
RTVSPost2010PropOp35
 70
     1
102
RTVSPost2010Prop36
280
     0
102
RTVSPost2010PropOp36
 70
     1
102
RTVSPost2010Prop37
 90
       50
102
RTVSPost2010PropOp37
 70
     1
102
RTVSPost2010Prop38
140
0.0
102
RTVSPost2010PropOp38
 70
     1
102
RTVSPost2010Prop39
140
1.0
102
RTVSPost2010PropOp39
 70
     1
102
RTVSPost2010Prop40
 90
        0
102
RTVSPost2010PropOp40
 70
     1
102
RTVSPost2010Prop41ColorIndex
 90
       18
102
RTVSPost2010Prop41ColorRGB
 90
        0
102
RTVSPost2010PropOp41
 70
     1
102
RTVSPost2010Prop42
 90
       50
102
RTVSPost2010PropOp42
 70
     1
102
RTVSPost2010Prop43
 90
        3
102
RTVSPost2010PropOp43
 70
     1
102
RTVSPost2010Prop44ColorIndex
 90
        5
102
RTVSPost2010Prop44ColorRGB
 90
      255
102
RTVSPost2010PropOp44
 70
     1
102
RTVSPost2010Prop45
280
     0
102
RTVSPost2010PropOp45
 70
     1
102
RTVSPost2010Prop46
 90
       50
102
RTVSPost2010PropOp46
 70
     1
102
RTVSPost2010Prop47
 90
       50
102
RTVSPost2010PropOp47
 70
     1
102
RTVSPost2010Prop48
 90
       50
102
RTVSPost2010PropOp48
 70
     1
102
RTVSPost2010Prop49
280
     0
102
RTVSPost2010PropOp49
 70
     1
102
RTVSPost2010Prop50
 90
       50
102
RTVSPost2010PropOp50
 70
     1
102
RTVSPost2010Prop51ColorIndex
 90
      256
102
RTVSPost2010Prop51ColorRGB
 90
-16777216
102
RTVSPost2010PropOp51
 70
     0
102
RTVSPost2010Prop52
140
1.0
102
RTVSPost2010PropOp52
 70
     0
102
RTVSPost2010Prop53
 90
        2
102
RTVSPost2010PropOp53
 70
     1
102
RTVSPost2010Prop54
  1
strokes_ogs.tif
102
RTVSPost2010PropOp54
 70
     1
102
RTVSPost2010Prop55
280
     0
102
RTVSPost2010PropOp55
 70
     1
102
RTVSPost2010Prop56
140
1.0
102
RTVSPost2010PropOp56
 70
     1
102
RTVSPost2010Prop57
140
1.0
102
RTVSPost2010PropOp57
 70
     1
  0
XRECORD
  5
18F
102
{ACAD_REACTORS
330
18E
102
}
330
18E
100
AcDbXrecord
280
     1
102
RTVSPost2010Prop28
280
     0
102
RTVSPost2010PropOp28
 70
     1
102
RTVSPost2010Prop29
280
     1
102
RTVSPost2010PropOp29
 70
     1
102
RTVSPost2010Prop30
280
     1
102
RTVSPost2010PropOp30
 70
     1
102
RTVSPost2010Prop31
280
     0
102
RTVSPost2010PropOp31
 70
     1
102
RTVSPost2010Prop32
280
     0
102
RTVSPost2010PropOp32
 70
     1
102
RTVSPost2010Prop33
280
     0
102
RTVSPost2010PropOp33
 70
     1
102
RTVSPost2010Prop34
280
     0
102
RTVSPost2010PropOp34
 70
     1
102
RTVSPost2010Prop35
280
     0
102
RTVSPost2010PropOp35
 70
     1
102
RTVSPost2010Prop36
280
     0
102
RTVSPost2010PropOp36
 70
     1
102
RTVSPost2010Prop37
 90
       50
102
RTVSPost2010PropOp37
 70
     1
102
RTVSPost2010Prop38
140
0.0
102
RTVSPost2010PropOp38
 70
     1
102
RTVSPost2010Prop39
140
1.0
102
RTVSPost2010PropOp39
 70
     1
102
RTVSPost2010Prop40
 90
        0
102
RTVSPost2010PropOp40
 70
     1
102
RTVSPost2010Prop41ColorIndex
 90
       18
102
RTVSPost2010Prop41ColorRGB
 90
        0
102
RTVSPost2010PropOp41
 70
     1
102
RTVSPost2010Prop42
 90
       50
102
RTVSPost2010PropOp42
 70
     1
102
RTVSPost2010Prop43
 90
        3
102
RTVSPost2010PropOp43
 70
     1
102
RTVSPost2010Prop44ColorIndex
 90
        5
102
RTVSPost2010Prop44ColorRGB
 90
      255
102
RTVSPost2010PropOp44
 70
     1
102
RTVSPost2010Prop45
280
     0
102
RTVSPost2010PropOp45
 70
     1
102
RTVSPost2010Prop46
 90
       50
102
RTVSPost2010PropOp46
 70
     1
102
RTVSPost2010Prop47
 90
       50
102
RTVSPost2010PropOp47
 70
     1
102
RTVSPost2010Prop48
 90
       50
102
RTVSPost2010PropOp48
 70
     1
102
RTVSPost2010Prop49
280
     0
102
RTVSPost2010PropOp49
 70
     1
102
RTVSPost2010Prop50
 90
       50
102
RTVSPost2010PropOp50
 70
     1
102
RTVSPost2010Prop51ColorIndex
 90
      256
102
RTVSPost2010Prop51ColorRGB
 90
-16777216
102
RTVSPost2010PropOp51
 70
     0
102
RTVSPost2010Prop52
140
1.0
102
RTVSPost2010PropOp52
 70
     0
102
RTVSPost2010Prop53
 90
        2
102
RTVSPost2010PropOp53
 70
     1
102
RTVSPost2010Prop54
  1
strokes_ogs.tif
102
RTVSPost2010PropOp54
 70
     1
102
RTVSPost2010Prop55
280
     0
102
RTVSPost2010PropOp55
 70
     1
102
RTVSPost2010Prop56
140
1.0
102
RTVSPost2010PropOp56
 70
     1
102
RTVSPost2010Prop57
140
1.0
102
RTVSPost2010PropOp57
 70
     1
  0
XRECORD
  5
185
102
{ACAD_REACTORS
330
184
102
}
330
184
100
AcDbXrecord
280
     1
102
RTVSPost2010Prop28
280
     0
102
RTVSPost2010PropOp28
 70
     1
102
RTVSPost2010Prop29
280
     1
102
RTVSPost2010PropOp29
 70
     1
102
RTVSPost2010Prop30
280
     1
102
RTVSPost2010PropOp30
 70
     1
102
RTVSPost2010Prop31
280
     0
102
RTVSPost2010PropOp31
 70
     1
102
RTVSPost2010Prop32
280
     0
102
RTVSPost2010PropOp32
 70
     1
102
RTVSPost2010Prop33
280
     0
102
RTVSPost2010PropOp33
 70
     1
102
RTVSPost2010Prop34
280
     0
102
RTVSPost2010PropOp34
 70
     1
102
RTVSPost2010Prop35
280
     0
102
RTVSPost2010PropOp35
 70
     1
102
RTVSPost2010Prop36
280
     0
102
RTVSPost2010PropOp36
 70
     1
102
RTVSPost2010Prop37
 90
       50
102
RTVSPost2010PropOp37
 70
     1
102
RTVSPost2010Prop38
140
0.0
102
RTVSPost2010PropOp38
 70
     1
102
RTVSPost2010Prop39
140
1.0
102
RTVSPost2010PropOp39
 70
     1
102
RTVSPost2010Prop40
 90
        0
102
RTVSPost2010PropOp40
 70
     1
102
RTVSPost2010Prop41ColorIndex
 90
       18
102
RTVSPost2010Prop41ColorRGB
 90
        0
102
RTVSPost2010PropOp41
 70
     1
102
RTVSPost2010Prop42
 90
       50
102
RTVSPost2010PropOp42
 70
     1
102
RTVSPost2010Prop43
 90
        3
102
RTVSPost2010PropOp43
 70
     1
102
RTVSPost2010Prop44ColorIndex
 90
        5
102
RTVSPost2010Prop44ColorRGB
 90
      255
102
RTVSPost2010PropOp44
 70
     1
102
RTVSPost2010Prop45
280
     0
102
RTVSPost2010PropOp45
 70
     1
102
RTVSPost2010Prop46
 90
       50
102
RTVSPost2010PropOp46
 70
     1
102
RTVSPost2010Prop47
 90
       50
102
RTVSPost2010PropOp47
 70
     1
102
RTVSPost2010Prop48
 90
       50
102
RTVSPost2010PropOp48
 70
     1
102
RTVSPost2010Prop49
280
     0
102
RTVSPost2010PropOp49
 70
     1
102
RTVSPost2010Prop50
 90
       50
102
RTVSPost2010PropOp50
 70
     1
102
RTVSPost2010Prop51ColorIndex
 90
      256
102
RTVSPost2010Prop51ColorRGB
 90
-16777216
102
RTVSPost2010PropOp51
 70
     0
102
RTVSPost2010Prop52
140
1.0
102
RTVSPost2010PropOp52
 70
     0
102
RTVSPost2010Prop53
 90
        2
102
RTVSPost2010PropOp53
 70
     1
102
RTVSPost2010Prop54
  1
strokes_ogs.tif
102
RTVSPost2010PropOp54
 70
     1
102
RTVSPost2010Prop55
280
     0
102
RTVSPost2010PropOp55
 70
     1
102
RTVSPost2010Prop56
140
1.0
102
RTVSPost2010PropOp56
 70
     1
102
RTVSPost2010Prop57
140
1.0
102
RTVSPost2010PropOp57
 70
     1
  0
XRECORD
  5
179
102
{ACAD_REACTORS
330
178
102
}
330
178
100
AcDbXrecord
280
     1
102
RTVSPost2010Prop28
280
     0
102
RTVSPost2010PropOp28
 70
     1
102
RTVSPost2010Prop29
280
     1
102
RTVSPost2010PropOp29
 70
     1
102
RTVSPost2010Prop30
280
     1
102
RTVSPost2010PropOp30
 70
     1
102
RTVSPost2010Prop31
280
     0
102
RTVSPost2010PropOp31
 70
     1
102
RTVSPost2010Prop32
280
     0
102
RTVSPost2010PropOp32
 70
     1
102
RTVSPost2010Prop33
280
     0
102
RTVSPost2010PropOp33
 70
     1
102
RTVSPost2010Prop34
280
     0
102
RTVSPost2010PropOp34
 70
     1
102
RTVSPost2010Prop35
280
     0
102
RTVSPost2010PropOp35
 70
     1
102
RTVSPost2010Prop36
280
     0
102
RTVSPost2010PropOp36
 70
     1
102
RTVSPost2010Prop37
 90
       50
102
RTVSPost2010PropOp37
 70
     1
102
RTVSPost2010Prop38
140
0.0
102
RTVSPost2010PropOp38
 70
     1
102
RTVSPost2010Prop39
140
1.0
102
RTVSPost2010PropOp39
 70
     1
102
RTVSPost2010Prop40
 90
        0
102
RTVSPost2010PropOp40
 70
     1
102
RTVSPost2010Prop41ColorIndex
 90
       18
102
RTVSPost2010Prop41ColorRGB
 90
        0
102
RTVSPost2010PropOp41
 70
     1
102
RTVSPost2010Prop42
 90
       50
102
RTVSPost2010PropOp42
 70
     1
102
RTVSPost2010Prop43
 90
        3
102
RTVSPost2010PropOp43
 70
     1
102
RTVSPost2010Prop44ColorIndex
 90
        5
102
RTVSPost2010Prop44ColorRGB
 90
      255
102
RTVSPost2010PropOp44
 70
     1
102
RTVSPost2010Prop45
280
     0
102
RTVSPost2010PropOp45
 70
     1
102
RTVSPost2010Prop46
 90
       50
102
RTVSPost2010PropOp46
 70
     1
102
RTVSPost2010Prop47
 90
       50
102
RTVSPost2010PropOp47
 70
     1
102
RTVSPost2010Prop48
 90
       50
102
RTVSPost2010PropOp48
 70
     1
102
RTVSPost2010Prop49
280
     0
102
RTVSPost2010PropOp49
 70
     1
102
RTVSPost2010Prop50
 90
       50
102
RTVSPost2010PropOp50
 70
     1
102
RTVSPost2010Prop51ColorIndex
 90
      256
102
RTVSPost2010Prop51ColorRGB
 90
-16777216
102
RTVSPost2010PropOp51
 70
     0
102
RTVSPost2010Prop52
140
1.0
102
RTVSPost2010PropOp52
 70
     0
102
RTVSPost2010Prop53
 90
        2
102
RTVSPost2010PropOp53
 70
     1
102
RTVSPost2010Prop54
  1
strokes_ogs.tif
102
RTVSPost2010PropOp54
 70
     1
102
RTVSPost2010Prop55
280
     0
102
RTVSPost2010PropOp55
 70
     1
102
RTVSPost2010Prop56
140
1.0
102
RTVSPost2010PropOp56
 70
     1
102
RTVSPost2010Prop57
140
1.0
102
RTVSPost2010PropOp57
 70
     1
  0
XRECORD
  5
191
102
{ACAD_REACTORS
330
190
102
}
330
190
100
AcDbXrecord
280
     1
102
RTVSPost2010Prop28
280
     0
102
RTVSPost2010PropOp28
 70
     1
102
RTVSPost2010Prop29
280
     1
102
RTVSPost2010PropOp29
 70
     1
102
RTVSPost2010Prop30
280
     1
102
RTVSPost2010PropOp30
 70
     1
102
RTVSPost2010Prop31
280
     0
102
RTVSPost2010PropOp31
 70
     1
102
RTVSPost2010Prop32
280
     0
102
RTVSPost2010PropOp32
 70
     1
102
RTVSPost2010Prop33
280
     0
102
RTVSPost2010PropOp33
 70
     1
102
RTVSPost2010Prop34
280
     0
102
RTVSPost2010PropOp34
 70
     1
102
RTVSPost2010Prop35
280
     0
102
RTVSPost2010PropOp35
 70
     1
102
RTVSPost2010Prop36
280
     0
102
RTVSPost2010PropOp36
 70
     1
102
RTVSPost2010Prop37
 90
       50
102
RTVSPost2010PropOp37
 70
     1
102
RTVSPost2010Prop38
140
0.0
102
RTVSPost2010PropOp38
 70
     1
102
RTVSPost2010Prop39
140
1.0
102
RTVSPost2010PropOp39
 70
     1
102
RTVSPost2010Prop40
 90
        0
102
RTVSPost2010PropOp40
 70
     1
102
RTVSPost2010Prop41ColorIndex
 90
       18
102
RTVSPost2010Prop41ColorRGB
 90
        0
102
RTVSPost2010PropOp41
 70
     1
102
RTVSPost2010Prop42
 90
       50
102
RTVSPost2010PropOp42
 70
     1
102
RTVSPost2010Prop43
 90
        3
102
RTVSPost2010PropOp43
 70
     1
102
RTVSPost2010Prop44ColorIndex
 90
        5
102
RTVSPost2010Prop44ColorRGB
 90
      255
102
RTVSPost2010PropOp44
 70
     1
102
RTVSPost2010Prop45
280
     0
102
RTVSPost2010PropOp45
 70
     1
102
RTVSPost2010Prop46
 90
       50
102
RTVSPost2010PropOp46
 70
     1
102
RTVSPost2010Prop47
 90
       50
102
RTVSPost2010PropOp47
 70
     1
102
RTVSPost2010Prop48
 90
       50
102
RTVSPost2010PropOp48
 70
     1
102
RTVSPost2010Prop49
280
     0
102
RTVSPost2010PropOp49
 70
     1
102
RTVSPost2010Prop50
 90
       50
102
RTVSPost2010PropOp50
 70
     1
102
RTVSPost2010Prop51ColorIndex
 90
      256
102
RTVSPost2010Prop51ColorRGB
 90
-16777216
102
RTVSPost2010PropOp51
 70
     0
102
RTVSPost2010Prop52
140
1.0
102
RTVSPost2010PropOp52
 70
     0
102
RTVSPost2010Prop53
 90
        2
102
RTVSPost2010PropOp53
 70
     1
102
RTVSPost2010Prop54
  1
strokes_ogs.tif
102
RTVSPost2010PropOp54
 70
     1
102
RTVSPost2010Prop55
280
     0
102
RTVSPost2010PropOp55
 70
     1
102
RTVSPost2010Prop56
140
1.0
102
RTVSPost2010PropOp56
 70
     1
102
RTVSPost2010Prop57
140
1.0
102
RTVSPost2010PropOp57
 70
     1
  0
ENDSEC
  0
EOF
