  0
SECTION
  2
HEADER
  9
$ACADVER
  1
AC1024
  9
$ACADMAINTVER
 70
     6
  9
$DWGCODEPAGE
  3
UNDEFINED
  9
$INSBASE
 10
0.0
 20
0.0
 30
0.0
  9
$EXTMIN
 10
1.000000000000000E+20
 20
1.000000000000000E+20
 30
1.000000000000000E+20
  9
$EXTMAX
 10
-1.000000000000000E+20
 20
-1.000000000000000E+20
 30
-1.000000000000000E+20
  9
$LIMMIN
 10
0.0
 20
0.0
  9
$LIMMAX
 10
12.0
 20
9.0
  9
$ORTHOMODE
 70
     0
  9
$REGENMODE
 70
     1
  9
$FILLMODE
 70
     1
  9
$QTEXTMODE
 70
     0
  9
$MIRRTEXT
 70
     1
  9
$LTSCALE
 40
1.0
  9
$ATTMODE
 70
     1
  9
$TEXTSIZE
 40
0.2
  9
$TRACEWID
 40
0.05
  9
$TEXTSTYLE
  7
Standard
  9
$CLAYER
  8
0
  9
$CELTYPE
  6
ByLayer
  9
$CECOLOR
 62
   256
  9
$CELTSCALE
 40
1.0
  9
$DISPSILH
 70
     0
  9
$DIMSCALE
 40
1.0
  9
$DIMASZ
 40
0.18
  9
$DIMEXO
 40
0.0625
  9
$DIMDLI
 40
0.38
  9
$DIMRND
 40
0.0
  9
$DIMDLE
 40
0.0
  9
$DIMEXE
 40
0.18
  9
$DIMTP
 40
0.0
  9
$DIMTM
 40
0.0
  9
$DIMTXT
 40
0.18
  9
$DIMCEN
 40
0.09
  9
$DIMTSZ
 40
0.0
  9
$DIMTOL
 70
     0
  9
$DIMLIM
 70
     0
  9
$DIMTIH
 70
     1
  9
$DIMTOH
 70
     1
  9
$DIMSE1
 70
     0
  9
$DIMSE2
 70
     0
  9
$DIMTAD
 70
     0
  9
$DIMZIN
 70
     0
  9
$DIMBLK
  1

  9
$DIMASO
 70
     1
  9
$DIMSHO
 70
     1
  9
$DIMPOST
  1

  9
$DIMAPOST
  1

  9
$DIMALT
 70
     0
  9
$DIMALTD
 70
     2
  9
$DIMALTF
 40
25.4
  9
$DIMLFAC
 40
1.0
  9
$DIMTOFL
 70
     0
  9
$DIMTVP
 40
0.0
  9
$DIMTIX
 70
     0
  9
$DIMSOXD
 70
     0
  9
$DIMSAH
 70
     0
  9
$DIMBLK1
  1

  9
$DIMBLK2
  1

  9
$DIMSTYLE
  2
Standard
  9
$DIMCLRD
 70
     0
  9
$DIMCLRE
 70
     0
  9
$DIMCLRT
 70
     0
  9
$DIMTFAC
 40
1.0
  9
$DIMGAP
 40
0.09
  9
$DIMJUST
 70
     0
  9
$DIMSD1
 70
     0
  9
$DIMSD2
 70
     0
  9
$DIMTOLJ
 70
     1
  9
$DIMTZIN
 70
     0
  9
$DIMALTZ
 70
     0
  9
$DIMALTTZ
 70
     0
  9
$DIMUPT
 70
     0
  9
$DIMDEC
 70
     4
  9
$DIMTDEC
 70
     4
  9
$DIMALTU
 70
     2
  9
$DIMALTTD
 70
     2
  9
$DIMTXSTY
  7
Standard
  9
$DIMAUNIT
 70
     0
  9
$DIMADEC
 70
     0
  9
$DIMALTRND
 40
0.0
  9
$DIMAZIN
 70
     0
  9
$DIMDSEP
 70
    46
  9
$DIMATFIT
 70
     3
  9
$DIMFRAC
 70
     0
  9
$DIMLDRBLK
  1

  9
$DIMLUNIT
 70
     2
  9
$DIMLWD
 70
    -2
  9
$DIMLWE
 70
    -2
  9
$DIMTMOVE
 70
     0
  9
$DIMFXL
 40
1.0
  9
$DIMFXLON
 70
     0
  9
$DIMJOGANG
 40
0.7853981633974483
  9
$DIMTFILL
 70
     0
  9
$DIMTFILLCLR
 70
     0
  9
$DIMARCSYM
 70
     0
  9
$DIMLTYPE
  6

  9
$DIMLTEX1
  6

  9
$DIMLTEX2
  6

  9
$DIMTXTDIRECTION
 70
     0
  9
$LUNITS
 70
     2
  9
$LUPREC
 70
     4
  9
$SKETCHINC
 40
0.1
  9
$FILLETRAD
 40
0.5
  9
$AUNITS
 70
     0
  9
$AUPREC
 70
     0
  9
$MENU
  1
.
  9
$ELEVATION
 40
0.0
  9
$PELEVATION
 40
0.0
  9
$THICKNESS
 40
0.0
  9
$LIMCHECK
 70
     0
  9
$CHAMFERA
 40
0.5
  9
$CHAMFERB
 40
0.5
  9
$CHAMFERC
 40
1.0
  9
$CHAMFERD
 40
0.0
  9
$SKPOLY
 70
     0
  9
$TDCREATE
 40
2457917.596030093
  9
$TDUCREATE
 40
2457917.221030093
  9
$TDUPDATE
 40
2457917.596030093
  9
$TDUUPDATE
 40
2457917.221030093
  9
$TDINDWG
 40
0.0000000116
  9
$TDUSRTIMER
 40
0.0000000116
  9
$USRTIMER
 70
     1
  9
$ANGBASE
 50
0.0
  9
$ANGDIR
 70
     0
  9
$PDMODE
 70
     0
  9
$PDSIZE
 40
0.0
  9
$PLINEWID
 40
0.0
  9
$SPLFRAME
 70
     0
  9
$SPLINETYPE
 70
     6
  9
$SPLINESEGS
 70
     8
  9
$HANDSEED
  5
C1
  9
$SURFTAB1
 70
     6
  9
$SURFTAB2
 70
     6
  9
$SURFTYPE
 70
     6
  9
$SURFU
 70
     6
  9
$SURFV
 70
     6
  9
$UCSBASE
  2

  9
$UCSNAME
  2

  9
$UCSORG
 10
0.0
 20
0.0
 30
0.0
  9
$UCSXDIR
 10
1.0
 20
0.0
 30
0.0
  9
$UCSYDIR
 10
0.0
 20
1.0
 30
0.0
  9
$UCSORTHOREF
  2

  9
$UCSORTHOVIEW
 70
     0
  9
$UCSORGTOP
 10
0.0
 20
0.0
 30
0.0
  9
$UCSORGBOTTOM
 10
0.0
 20
0.0
 30
0.0
  9
$UCSORGLEFT
 10
0.0
 20
0.0
 30
0.0
  9
$UCSORGRIGHT
 10
0.0
 20
0.0
 30
0.0
  9
$UCSORGFRONT
 10
0.0
 20
0.0
 30
0.0
  9
$UCSORGBACK
 10
0.0
 20
0.0
 30
0.0
  9
$PUCSBASE
  2

  9
$PUCSNAME
  2

  9
$PUCSORG
 10
0.0
 20
0.0
 30
0.0
  9
$PUCSXDIR
 10
1.0
 20
0.0
 30
0.0
  9
$PUCSYDIR
 10
0.0
 20
1.0
 30
0.0
  9
$PUCSORTHOREF
  2

  9
$PUCSORTHOVIEW
 70
     0
  9
$PUCSORGTOP
 10
0.0
 20
0.0
 30
0.0
  9
$PUCSORGBOTTOM
 10
0.0
 20
0.0
 30
0.0
  9
$PUCSORGLEFT
 10
0.0
 20
0.0
 30
0.0
  9
$PUCSORGRIGHT
 10
0.0
 20
0.0
 30
0.0
  9
$PUCSORGFRONT
 10
0.0
 20
0.0
 30
0.0
  9
$PUCSORGBACK
 10
0.0
 20
0.0
 30
0.0
  9
$USERI1
 70
     0
  9
$USERI2
 70
     0
  9
$USERI3
 70
     0
  9
$USERI4
 70
     0
  9
$USERI5
 70
     0
  9
$USERR1
 40
0.0
  9
$USERR2
 40
0.0
  9
$USERR3
 40
0.0
  9
$USERR4
 40
0.0
  9
$USERR5
 40
0.0
  9
$WORLDVIEW
 70
     1
  9
$SHADEDGE
 70
     3
  9
$SHADEDIF
 70
    70
  9
$TILEMODE
 70
     1
  9
$MAXACTVP
 70
    64
  9
$PINSBASE
 10
0.0
 20
0.0
 30
0.0
  9
$PLIMCHECK
 70
     0
  9
$PEXTMIN
 10
1.000000000000000E+20
 20
1.000000000000000E+20
 30
1.000000000000000E+20
  9
$PEXTMAX
 10
-1.000000000000000E+20
 20
-1.000000000000000E+20
 30
-1.000000000000000E+20
  9
$PLIMMIN
 10
0.0
 20
0.0
  9
$PLIMMAX
 10
12.0
 20
9.0
  9
$UNITMODE
 70
     0
  9
$VISRETAIN
 70
     1
  9
$PLINEGEN
 70
     0
  9
$PSLTSCALE
 70
     1
  9
$TREEDEPTH
 70
  3020
  9
$CMLSTYLE
  2
Standard
  9
$CMLJUST
 70
     0
  9
$CMLSCALE
 40
1.0
  9
$PROXYGRAPHICS
 70
     1
  9
$MEASUREMENT
 70
     0
  9
$CELWEIGHT
370
    -1
  9
$ENDCAPS
280
     0
  9
$JOINSTYLE
280
     0
  9
$LWDISPLAY
290
     1
  9
$INSUNITS
 70
     1
  9
$HYPERLINKBASE
  1

  9
$STYLESHEET
  1

  9
$XEDIT
290
     1
  9
$CEPSNTYPE
380
     0
  9
$PSTYLEMODE
290
     1
  9
$FINGERPRINTGUID
  2
{74CB4FDD-B871-0815-DD2D-6F30CC9CD877}
  9
$VERSIONGUID
  2
{FAEB1C32-E019-11D5-929B-00C0DF256EC4}
  9
$EXTNAMES
290
     1
  9
$PSVPSCALE
 40
0.0
  9
$OLESTARTUP
290
     0
  9
$SORTENTS
280
   127
  9
$INDEXCTL
280
     0
  9
$HIDETEXT
280
     1
  9
$XCLIPFRAME
280
     2
  9
$HALOGAP
280
     0
  9
$OBSCOLOR
 70
   257
  9
$OBSLTYPE
280
     0
  9
$INTERSECTIONDISPLAY
280
     0
  9
$INTERSECTIONCOLOR
 70
   257
  9
$DIMASSOC
280
     2
  9
$PROJECTNAME
  1

  9
$CAMERADISPLAY
290
     0
  9
$LENSLENGTH
 40
50.0
  9
$CAMERAHEIGHT
 40
0.0
  9
$STEPSPERSEC
 40
2.0
  9
$STEPSIZE
 40
6.0
  9
$3DDWFPREC
 40
2.0
  9
$PSOLWIDTH
 40
0.25
  9
$PSOLHEIGHT
 40
4.0
  9
$LOFTANG1
 40
1.570796326794897
  9
$LOFTANG2
 40
1.570796326794897
  9
$LOFTMAG1
 40
0.0
  9
$LOFTMAG2
 40
0.0
  9
$LOFTPARAM
 70
     7
  9
$LOFTNORMALS
280
     1
  9
$LATITUDE
 40
37.795
  9
$LONGITUDE
 40
-122.394
  9
$NORTHDIRECTION
 40
0.0
  9
$TIMEZONE
 70
 -8000
  9
$LIGHTGLYPHDISPLAY
280
     1
  9
$TILEMODELIGHTSYNCH
280
     1
  9
$CMATERIAL
347
3C
  9
$SOLIDHIST
280
     1
  9
$SHOWHIST
280
     1
  9
$DWFFRAME
280
     2
  9
$DGNFRAME
280
     2
  9
$REALWORLDSCALE
290
     1
  9
$INTERFERECOLOR
 62
   256
  9
$CSHADOW
280
     0
  9
$SHADOWPLANELOCATION
 40
0.0
  0
ENDSEC
  0
SECTION
  2
CLASSES
  0
CLASS
  1
ACDBDICTIONARYWDFLT
  2
AcDbDictionaryWithDefault
  3
ObjectDBX Classes
 90
        0
 91
        4
280
     0
281
     0
  0
CLASS
  1
VISUALSTYLE
  2
AcDbVisualStyle
  3
ObjectDBX Classes
 90
     4095
 91
        4
280
     0
281
     0
  0
CLASS
  1
MATERIAL
  2
AcDbMaterial
  3
ObjectDBX Classes
 90
     1153
 91
        4
280
     0
281
     0
  0
CLASS
  1
SUN
  2
AcDbSun
  3
SCENEOE
 90
     1024
 91
        4
280
     0
281
     0
  0
ENDSEC
  0
SECTION
  2
TABLES
  0
TABLE
  2
VPORT
  5
8
330
0
100
AcDbSymbolTable
 70
     1
  0
VPORT
  5
29
330
8
100
AcDbSymbolTableRecord
100
AcDbViewportTableRecord
  2
*Active
 70
     0
 10
0.0
 20
0.0
 11
1.0
 21
1.0
 12
0.0
 22
0.0
 13
0.0
 23
0.0
 14
0.5
 24
0.5
 15
0.5
 25
0.5
 16
0.0
 26
0.0
 36
1.0
 17
91.00082462281999
 27
-128.4993055234307
 37
0.0
 40
256.9986110468615
 41
0.7081814508812795
 42
50.0
 43
0.0
 44
0.0
 50
0.0
 51
0.0
 71
     0
 72
   100
 73
     1
 74
     3
 75
     0
 76
     0
 77
     0
 78
     0
281
     0
 65
     1
110
0.0
120
0.0
130
0.0
111
1.0
121
0.0
131
0.0
112
0.0
122
1.0
132
0.0
 79
     0
146
0.0
 60
     3
 61
     5
292
     1
282
     1
141
0.0
142
0.0
 63
   250
361
3F
  0
ENDTAB
  0
TABLE
  2
LTYPE
  5
5
330
0
100
AcDbSymbolTable
 70
     1
  0
LTYPE
  5
14
330
5
100
AcDbSymbolTableRecord
100
AcDbLinetypeTableRecord
  2
ByBlock
 70
     0
  3

 72
    65
 73
     0
 40
0.0
  0
LTYPE
  5
15
330
5
100
AcDbSymbolTableRecord
100
AcDbLinetypeTableRecord
  2
ByLayer
 70
     0
  3

 72
    65
 73
     0
 40
0.0
  0
LTYPE
  5
16
330
5
100
AcDbSymbolTableRecord
100
AcDbLinetypeTableRecord
  2
Continuous
 70
     0
  3
Solid line
 72
    65
 73
     0
 40
0.0
  0
ENDTAB
  0
TABLE
  2
LAYER
  5
2
330
0
100
AcDbSymbolTable
 70
     2
  0
LAYER
  5
10
330
2
100
AcDbSymbolTableRecord
100
AcDbLayerTableRecord
  2
0
 70
     0
 62
     7
  6
Continuous
370
    -3
390
F
347
3E
  0
LAYER
  5
40
330
2
100
AcDbSymbolTableRecord
100
AcDbLayerTableRecord
  2
_U+30EC_U+30A4_U+30E4_U+30FC 1
 70
     0
 62
     7
  6
Continuous
370
    -3
390
F
347
3E
  0
ENDTAB
  0
TABLE
  2
STYLE
  5
3
330
0
100
AcDbSymbolTable
 70
     1
  0
STYLE
  5
11
330
3
100
AcDbSymbolTableRecord
100
AcDbTextStyleTableRecord
  2
Standard
 70
     0
 40
0.0
 41
1.0
 50
0.0
 71
     0
 42
0.2
  3
txt
  4

  0
ENDTAB
  0
TABLE
  2
VIEW
  5
6
330
0
100
AcDbSymbolTable
 70
     0
  0
ENDTAB
  0
TABLE
  2
UCS
  5
7
330
0
100
AcDbSymbolTable
 70
     0
  0
ENDTAB
  0
TABLE
  2
APPID
  5
9
330
0
100
AcDbSymbolTable
 70
     1
  0
APPID
  5
12
330
9
100
AcDbSymbolTableRecord
100
AcDbRegAppTableRecord
  2
ACAD
 70
     0
  0
ENDTAB
  0
TABLE
  2
DIMSTYLE
  5
A
330
0
100
AcDbSymbolTable
 70
     1
100
AcDbDimStyleTable
  0
DIMSTYLE
105
27
330
A
100
AcDbSymbolTableRecord
100
AcDbDimStyleTableRecord
  2
Standard
 70
     0
178
     0
340
11
  0
ENDTAB
  0
TABLE
  2
BLOCK_RECORD
  5
1
330
0
100
AcDbSymbolTable
 70
     5
  0
BLOCK_RECORD
  5
1F
330
1
100
AcDbSymbolTableRecord
100
AcDbBlockTableRecord
  2
*Model_Space
340
22
 70
     0
280
     1
281
     0
  0
BLOCK_RECORD
  5
1B
330
1
100
AcDbSymbolTableRecord
100
AcDbBlockTableRecord
  2
*Paper_Space
340
1E
 70
     0
280
     1
281
     0
  0
BLOCK_RECORD
  5
23
330
1
100
AcDbSymbolTableRecord
100
AcDbBlockTableRecord
  2
*Paper_Space0
340
26
 70
     0
280
     1
281
     0
  0
BLOCK_RECORD
  5
4F
330
1
100
AcDbSymbolTableRecord
100
AcDbBlockTableRecord
  2
block 2
340
0
102
{BLKREFS
331
50
102
}
 70
     0
280
     1
281
     0
  0
BLOCK_RECORD
  5
7E
330
1
100
AcDbSymbolTableRecord
100
AcDbBlockTableRecord
  2
block 3
340
0
102
{BLKREFS
331
7F
102
}
 70
     0
280
     1
281
     0
  0
BLOCK_RECORD
  5
94
330
1
100
AcDbSymbolTableRecord
100
AcDbBlockTableRecord
  2
block 4
340
0
102
{BLKREFS
331
95
102
}
 70
     0
280
     1
281
     0
  0
BLOCK_RECORD
  5
A7
330
1
100
AcDbSymbolTableRecord
100
AcDbBlockTableRecord
  2
block 5
340
0
102
{BLKREFS
331
A8
102
}
 70
     0
280
     1
281
     0
  0
ENDTAB
  0
ENDSEC
  0
SECTION
  2
BLOCKS
  0
BLOCK
  5
20
330
1F
100
AcDbEntity
  8
0
100
AcDbBlockBegin
  2
*Model_Space
 70
     0
 10
0.0
 20
0.0
 30
0.0
  3
*Model_Space
  1

  0
ENDBLK
  5
21
330
1F
100
AcDbEntity
  8
0
100
AcDbBlockEnd
  0
BLOCK
  5
1C
330
1B
100
AcDbEntity
 67
     1
  8
0
100
AcDbBlockBegin
  2
*Paper_Space
 70
     0
 10
0.0
 20
0.0
 30
0.0
  3
*Paper_Space
  1

  0
ENDBLK
  5
1D
330
1B
100
AcDbEntity
 67
     1
  8
0
100
AcDbBlockEnd
  0
BLOCK
  5
24
330
23
100
AcDbEntity
  8
0
100
AcDbBlockBegin
  2
*Paper_Space0
 70
     0
 10
0.0
 20
0.0
 30
0.0
  3
*Paper_Space0
  1

  0
ENDBLK
  5
25
330
23
100
AcDbEntity
  8
0
100
AcDbBlockEnd
  0
BLOCK
  5
51
330
4F
100
AcDbEntity
  8
0
100
AcDbBlockBegin
  2
block 2
 70
     0
 10
0.0
 20
0.0
 30
0.0
  3
block 2
  1

  0
SPLINE
  5
53
330
4F
100
AcDbEntity
  8
_U+30EC_U+30A4_U+30E4_U+30FC 1
370
     0
100
AcDbSpline
210
0.0
220
0.0
230
1.0
 70
    11
 71
     3
 72
    32
 73
    28
 74
     0
 42
0.0000000001
 43
0.0000000001
 12
1.0
 22
0.0
 32
0.0
 13
1.0
 23
0.0
 33
0.0
 40
0.0
 40
0.0
 40
0.0
 40
0.0
 40
1.0
 40
1.0
 40
1.0
 40
2.0
 40
2.0
 40
2.0
 40
3.0
 40
3.0
 40
3.0
 40
4.0
 40
4.0
 40
4.0
 40
5.0
 40
5.0
 40
5.0
 40
6.0
 40
6.0
 40
6.0
 40
7.0
 40
7.0
 40
7.0
 40
8.0
 40
8.0
 40
8.0
 40
9.0
 40
9.0
 40
9.0
 40
9.0
 10
79.18775904053292
 20
-143.2060736404138
 30
0.0
 10
78.67151148206824
 20
-143.2060736404138
 30
0.0
 10
78.66307099812937
 20
-142.6521022863856
 30
0.0
 10
78.66307099812937
 20
-142.4381618567516
 30
0.0
 10
78.66307099812937
 20
-142.2076849687884
 30
0.0
 10
78.68201902329825
 20
-141.5603515271099
 30
0.0
 10
79.22582734564493
 20
-141.5603515271099
 30
0.0
 10
79.39928790332726
 20
-141.5603515271099
 30
0.0
 10
79.64457870187705
 20
-141.6302869654605
 30
0.0
 10
79.68264700698906
 20
-141.9623941702386
 30
0.0
 10
79.68264700698906
 20
-141.9623941702386
 30
0.0
 10
79.46905108690358
 20
-141.9623941702386
 30
0.0
 10
79.46905108690358
 20
-141.9623941702386
 30
0.0
 10
79.45854354567356
 20
-141.9052055851834
 30
0.0
 10
79.426676412435
 20
-141.7570664793177
 30
0.0
 10
79.22358803357952
 20
-141.7570664793177
 30
0.0
 10
78.93178844597887
 20
-141.7570664793177
 30
0.0
 10
78.89148082880143
 20
-142.0850395695135
 30
0.0
 10
78.87890623028028
 20
-142.2900227508858
 30
0.0
 10
78.97192380838202
 20
-142.2118190833707
 30
0.0
 10
79.03961993466719
 20
-142.1525634410244
 30
0.0
 10
79.22152097628837
 20
-142.1525634410244
 30
0.0
 10
79.40135496061842
 20
-142.1525634410244
 30
0.0
 10
79.70383434422335
 20
-142.2607394392612
 30
0.0
 10
79.70383434422335
 20
-142.6669161969722
 30
0.0
 10
79.70383434422335
 20
-142.9862765484548
 30
0.0
 10
79.50505233472444
 20
-143.2060736404138
 30
0.0
 10
79.18775904053292
 20
-143.2060736404138
 30
0.0
  0
SPLINE
  5
54
330
4F
100
AcDbEntity
  8
_U+30EC_U+30A4_U+30E4_U+30FC 1
370
     0
100
AcDbSpline
210
0.0
220
0.0
230
1.0
 70
    11
 71
     3
 72
    17
 73
    13
 74
     0
 42
0.0000000001
 43
0.0000000001
 12
1.0
 22
0.0
 32
0.0
 13
1.0
 23
0.0
 33
0.0
 40
0.0
 40
0.0
 40
0.0
 40
0.0
 40
1.0
 40
1.0
 40
1.0
 40
2.0
 40
2.0
 40
2.0
 40
3.0
 40
3.0
 40
3.0
 40
4.0
 40
4.0
 40
4.0
 40
4.0
 10
79.20464000841065
 20
-142.347211335941
 30
0.0
 10
78.94229598720888
 20
-142.347211335941
 30
0.0
 10
78.90422768209686
 20
-142.5587401987353
 30
0.0
 10
78.90422768209686
 20
-142.6751844261368
 30
0.0
 10
78.90422768209686
 20
-142.8508842958845
 30
0.0
 10
78.99948457226402
 20
-143.0138373123368
 30
0.0
 10
79.18345267117637
 20
-143.0138373123368
 30
0.0
 10
79.30403101316011
 20
-143.0138373123368
 30
0.0
 10
79.47973088290784
 20
-142.9545816699905
 30
0.0
 10
79.47973088290784
 20
-142.6689832542633
 30
0.0
 10
79.47973088290784
 20
-142.4447075381736
 30
0.0
 10
79.34003226098096
 20
-142.347211335941
 30
0.0
 10
79.20464000841065
 20
-142.347211335941
 30
0.0
  0
HATCH
  5
55
330
4F
100
AcDbEntity
  8
_U+30EC_U+30A4_U+30E4_U+30FC 1
 62
     7
420
 16777215
100
AcDbHatch
 10
0.0
 20
0.0
 30
0.0
210
0.0
220
0.0
230
1.0
  2
SOLID
 70
     1
 71
     0
 91
        2
 92
        1
 93
        1
 72
     4
 94
        3
 73
     0
 74
     1
 95
       32
 96
       28
 40
0.0
 40
0.0
 40
0.0
 40
0.0
 40
1.0
 40
1.0
 40
1.0
 40
2.0
 40
2.0
 40
2.0
 40
3.0
 40
3.0
 40
3.0
 40
4.0
 40
4.0
 40
4.0
 40
5.0
 40
5.0
 40
5.0
 40
6.0
 40
6.0
 40
6.0
 40
7.0
 40
7.0
 40
7.0
 40
8.0
 40
8.0
 40
8.0
 40
9.0
 40
9.0
 40
9.0
 40
9.0
 10
79.18775904053292
 20
-143.2060736404138
 10
78.67151148206824
 20
-143.2060736404138
 10
78.66307099812937
 20
-142.6521022863856
 10
78.66307099812937
 20
-142.4381618567516
 10
78.66307099812937
 20
-142.2076849687884
 10
78.68201902329825
 20
-141.5603515271099
 10
79.22582734564493
 20
-141.5603515271099
 10
79.39928790332726
 20
-141.5603515271099
 10
79.64457870187705
 20
-141.6302869654605
 10
79.68264700698906
 20
-141.9623941702386
 10
79.68264700698906
 20
-141.9623941702386
 10
79.46905108690358
 20
-141.9623941702386
 10
79.46905108690358
 20
-141.9623941702386
 10
79.45854354567356
 20
-141.9052055851834
 10
79.426676412435
 20
-141.7570664793177
 10
79.22358803357952
 20
-141.7570664793177
 10
78.93178844597887
 20
-141.7570664793177
 10
78.89148082880143
 20
-142.0850395695135
 10
78.87890623028028
 20
-142.2900227508858
 10
78.97192380838202
 20
-142.2118190833707
 10
79.03961993466719
 20
-142.1525634410244
 10
79.22152097628837
 20
-142.1525634410244
 10
79.40135496061842
 20
-142.1525634410244
 10
79.70383434422335
 20
-142.2607394392612
 10
79.70383434422335
 20
-142.6669161969722
 10
79.70383434422335
 20
-142.9862765484548
 10
79.50505233472444
 20
-143.2060736404138
 10
79.18775904053292
 20
-143.2060736404138
 97
        0
 97
        0
 92
        1
 93
        1
 72
     4
 94
        3
 73
     0
 74
     1
 95
       17
 96
       13
 40
0.0
 40
0.0
 40
0.0
 40
0.0
 40
1.0
 40
1.0
 40
1.0
 40
2.0
 40
2.0
 40
2.0
 40
3.0
 40
3.0
 40
3.0
 40
4.0
 40
4.0
 40
4.0
 40
4.0
 10
79.20464000841065
 20
-142.347211335941
 10
78.94229598720888
 20
-142.347211335941
 10
78.90422768209686
 20
-142.5587401987353
 10
78.90422768209686
 20
-142.6751844261368
 10
78.90422768209686
 20
-142.8508842958845
 10
78.99948457226402
 20
-143.0138373123368
 10
79.18345267117637
 20
-143.0138373123368
 10
79.30403101316011
 20
-143.0138373123368
 10
79.47973088290784
 20
-142.9545816699905
 10
79.47973088290784
 20
-142.6689832542633
 10
79.47973088290784
 20
-142.4447075381736
 10
79.34003226098096
 20
-142.347211335941
 10
79.20464000841065
 20
-142.347211335941
 97
        0
 97
        0
 75
     2
 76
     1
 98
        0
  0
ENDBLK
  5
52
330
4F
100
AcDbEntity
  8
0
100
AcDbBlockEnd
  0
BLOCK
  5
80
330
7E
100
AcDbEntity
  8
0
100
AcDbBlockBegin
  2
block 3
 70
     0
 10
0.0
 20
0.0
 30
0.0
  3
block 3
  1

  0
SPLINE
  5
82
330
7E
100
AcDbEntity
  8
_U+30EC_U+30A4_U+30E4_U+30FC 1
370
     0
100
AcDbSpline
210
0.0
220
0.0
230
1.0
 70
    11
 71
     3
 72
    44
 73
    40
 74
     0
 42
0.0000000001
 43
0.0000000001
 12
1.0
 22
0.0
 32
0.0
 13
1.0
 23
0.0
 33
0.0
 40
0.0
 40
0.0
 40
0.0
 40
0.0
 40
1.0
 40
1.0
 40
1.0
 40
2.0
 40
2.0
 40
2.0
 40
3.0
 40
3.0
 40
3.0
 40
4.0
 40
4.0
 40
4.0
 40
5.0
 40
5.0
 40
5.0
 40
6.0
 40
6.0
 40
6.0
 40
7.0
 40
7.0
 40
7.0
 40
8.0
 40
8.0
 40
8.0
 40
9.0
 40
9.0
 40
9.0
 40
10.0
 40
10.0
 40
10.0
 40
11.0
 40
11.0
 40
11.0
 40
12.0
 40
12.0
 40
12.0
 40
13.0
 40
13.0
 40
13.0
 40
13.0
 10
95.39090438153423
 20
-113.4917805705854
 30
0.0
 10
95.17317434686643
 20
-113.6505994724554
 30
0.0
 10
95.08015676876468
 20
-113.7246690253883
 30
0.0
 10
95.03123641287414
 20
-113.8683295071232
 30
0.0
 10
95.03123641287414
 20
-113.8683295071232
 30
0.0
 10
95.8098279925406
 20
-113.8683295071232
 30
0.0
 10
95.8098279925406
 20
-113.8683295071232
 30
0.0
 10
95.8098279925406
 20
-113.8683295071232
 30
0.0
 10
95.8098279925406
 20
-114.0736571980441
 30
0.0
 10
95.8098279925406
 20
-114.0736571980441
 30
0.0
 10
95.8098279925406
 20
-114.0736571980441
 30
0.0
 10
94.78181149974205
 20
-114.0736571980441
 30
0.0
 10
94.78181149974205
 20
-114.0736571980441
 30
0.0
 10
94.81350637820636
 20
-113.7160562866752
 30
0.0
 10
94.8789631924261
 20
-113.63785261916
 30
0.0
 10
95.26412486767703
 20
-113.3395073501374
 30
0.0
 10
95.5200954622311
 20
-113.1407253406384
 30
0.0
 10
95.58555227645084
 20
-113.072856959579
 30
0.0
 10
95.58555227645084
 20
-112.9353976497175
 30
0.0
 10
95.58555227645084
 20
-112.816886365025
 30
0.0
 10
95.51354978080911
 20
-112.6859727365855
 30
0.0
 10
95.31683482860136
 20
-112.6859727365855
 30
0.0
 10
95.05673011946499
 20
-112.6859727365855
 30
0.0
 10
95.04811738075186
 20
-112.9164496245487
 30
0.0
 10
95.04398326616956
 20
-113.0328938519501
 30
0.0
 10
95.04398326616956
 20
-113.0328938519501
 30
0.0
 10
94.8197075500798
 20
-113.0328938519501
 30
0.0
 10
94.8197075500798
 20
-113.0328938519501
 30
0.0
 10
94.82832028879292
 20
-112.9057698285444
 30
0.0
 10
94.83900008479719
 20
-112.7938042252738
 30
0.0
 10
94.91927080960352
 20
-112.6752929405812
 30
0.0
 10
95.029169355583
 20
-112.51440698142
 30
0.0
 10
95.21554902133501
 20
-112.4806450456646
 30
0.0
 10
95.33164873918793
 20
-112.4806450456646
 30
0.0
 10
95.60897892575053
 20
-112.4806450456646
 30
0.0
 10
95.81637367396257
 20
-112.6646131445769
 30
0.0
 10
95.81637367396257
 20
-112.9374647070087
 30
0.0
 10
95.81637367396257
 20
-113.1662190472293
 30
0.0
 10
95.69992944656113
 20
-113.2654377972045
 30
0.0
 10
95.39090438153423
 20
-113.4917805705854
 30
0.0
  0
HATCH
  5
83
330
7E
100
AcDbEntity
  8
_U+30EC_U+30A4_U+30E4_U+30FC 1
 62
     7
420
 16777215
100
AcDbHatch
 10
0.0
 20
0.0
 30
0.0
210
0.0
220
0.0
230
1.0
  2
SOLID
 70
     1
 71
     0
 91
        1
 92
        1
 93
        1
 72
     4
 94
        3
 73
     0
 74
     1
 95
       44
 96
       40
 40
0.0
 40
0.0
 40
0.0
 40
0.0
 40
1.0
 40
1.0
 40
1.0
 40
2.0
 40
2.0
 40
2.0
 40
3.0
 40
3.0
 40
3.0
 40
4.0
 40
4.0
 40
4.0
 40
5.0
 40
5.0
 40
5.0
 40
6.0
 40
6.0
 40
6.0
 40
7.0
 40
7.0
 40
7.0
 40
8.0
 40
8.0
 40
8.0
 40
9.0
 40
9.0
 40
9.0
 40
10.0
 40
10.0
 40
10.0
 40
11.0
 40
11.0
 40
11.0
 40
12.0
 40
12.0
 40
12.0
 40
13.0
 40
13.0
 40
13.0
 40
13.0
 10
95.39090438153423
 20
-113.4917805705854
 10
95.17317434686643
 20
-113.6505994724554
 10
95.08015676876468
 20
-113.7246690253883
 10
95.03123641287414
 20
-113.8683295071232
 10
95.03123641287414
 20
-113.8683295071232
 10
95.8098279925406
 20
-113.8683295071232
 10
95.8098279925406
 20
-113.8683295071232
 10
95.8098279925406
 20
-113.8683295071232
 10
95.8098279925406
 20
-114.0736571980441
 10
95.8098279925406
 20
-114.0736571980441
 10
95.8098279925406
 20
-114.0736571980441
 10
94.78181149974205
 20
-114.0736571980441
 10
94.78181149974205
 20
-114.0736571980441
 10
94.81350637820636
 20
-113.7160562866752
 10
94.8789631924261
 20
-113.63785261916
 10
95.26412486767703
 20
-113.3395073501374
 10
95.5200954622311
 20
-113.1407253406384
 10
95.58555227645084
 20
-113.072856959579
 10
95.58555227645084
 20
-112.9353976497175
 10
95.58555227645084
 20
-112.816886365025
 10
95.51354978080911
 20
-112.6859727365855
 10
95.31683482860136
 20
-112.6859727365855
 10
95.05673011946499
 20
-112.6859727365855
 10
95.04811738075186
 20
-112.9164496245487
 10
95.04398326616956
 20
-113.0328938519501
 10
95.04398326616956
 20
-113.0328938519501
 10
94.8197075500798
 20
-113.0328938519501
 10
94.8197075500798
 20
-113.0328938519501
 10
94.82832028879292
 20
-112.9057698285444
 10
94.83900008479719
 20
-112.7938042252738
 10
94.91927080960352
 20
-112.6752929405812
 10
95.029169355583
 20
-112.51440698142
 10
95.21554902133501
 20
-112.4806450456646
 10
95.33164873918793
 20
-112.4806450456646
 10
95.60897892575053
 20
-112.4806450456646
 10
95.81637367396257
 20
-112.6646131445769
 10
95.81637367396257
 20
-112.9374647070087
 10
95.81637367396257
 20
-113.1662190472293
 10
95.69992944656113
 20
-113.2654377972045
 10
95.39090438153423
 20
-113.4917805705854
 97
        0
 97
        0
 75
     2
 76
     1
 98
        0
  0
SPLINE
  5
84
330
7E
100
AcDbEntity
  8
_U+30EC_U+30A4_U+30E4_U+30FC 1
370
     0
100
AcDbSpline
210
0.0
220
0.0
230
1.0
 70
    11
 71
     3
 72
    53
 73
    49
 74
     0
 42
0.0000000001
 43
0.0000000001
 12
1.0
 22
0.0
 32
0.0
 13
1.0
 23
0.0
 33
0.0
 40
0.0
 40
0.0
 40
0.0
 40
0.0
 40
1.0
 40
1.0
 40
1.0
 40
2.0
 40
2.0
 40
2.0
 40
3.0
 40
3.0
 40
3.0
 40
4.0
 40
4.0
 40
4.0
 40
5.0
 40
5.0
 40
5.0
 40
6.0
 40
6.0
 40
6.0
 40
7.0
 40
7.0
 40
7.0
 40
8.0
 40
8.0
 40
8.0
 40
9.0
 40
9.0
 40
9.0
 40
10.0
 40
10.0
 40
10.0
 40
11.0
 40
11.0
 40
11.0
 40
12.0
 40
12.0
 40
12.0
 40
13.0
 40
13.0
 40
13.0
 40
14.0
 40
14.0
 40
14.0
 40
15.0
 40
15.0
 40
15.0
 40
16.0
 40
16.0
 40
16.0
 40
16.0
 10
96.45578339602494
 20
-114.1243001016773
 30
0.0
 10
96.37757972850977
 20
-114.1243001016773
 30
0.0
 10
96.27594941169491
 20
-114.1074191337995
 30
0.0
 10
96.17431909488003
 20
-114.0440293768709
 30
0.0
 10
96.00103079197197
 20
-113.9341308308915
 30
0.0
 10
95.97967119996342
 20
-113.8028726929034
 30
0.0
 10
95.96072317479455
 20
-113.6950412042151
 30
0.0
 10
95.96072317479455
 20
-113.6950412042151
 30
0.0
 10
96.18293183359316
 20
-113.6950412042151
 30
0.0
 10
96.18293183359316
 20
-113.6950412042151
 30
0.0
 10
96.23770885180863
 20
-113.893823213714
 30
0.0
 10
96.36483287521435
 20
-113.9234510348872
 30
0.0
 10
96.4578504533161
 20
-113.9234510348872
 30
0.0
 10
96.59737682046871
 20
-113.9234510348872
 30
0.0
 10
96.74965004091676
 20
-113.8238877753635
 30
0.0
 10
96.74965004091676
 20
-113.5913438301091
 30
0.0
 10
96.74965004091676
 20
-113.3353732355551
 30
0.0
 10
96.56981605658672
 20
-113.2654377972045
 30
0.0
 10
96.44923771460297
 20
-113.2654377972045
 30
0.0
 10
96.41754283613868
 20
-113.2654377972045
 30
0.0
 10
96.27594941169491
 20
-113.2654377972045
 30
0.0
 10
96.18706594817546
 20
-113.3946288779014
 30
0.0
 10
96.18706594817546
 20
-113.3946288779014
 30
0.0
 10
96.01136607842771
 20
-113.3756808527325
 30
0.0
 10
96.01136607842771
 20
-113.3756808527325
 30
0.0
 10
96.01136607842771
 20
-113.3756808527325
 30
0.0
 10
96.13194442041146
 20
-112.5292208920066
 30
0.0
 10
96.13194442041146
 20
-112.5292208920066
 30
0.0
 10
96.13194442041146
 20
-112.5292208920066
 30
0.0
 10
96.91053600007793
 20
-112.5292208920066
 30
0.0
 10
96.91053600007793
 20
-112.5292208920066
 30
0.0
 10
96.91053600007793
 20
-112.5292208920066
 30
0.0
 10
96.91053600007793
 20
-112.7238687869232
 30
0.0
 10
96.91053600007793
 20
-112.7238687869232
 30
0.0
 10
96.91053600007793
 20
-112.7238687869232
 30
0.0
 10
96.29489743686378
 20
-112.7238687869232
 30
0.0
 10
96.29489743686378
 20
-112.7238687869232
 30
0.0
 10
96.29489743686378
 20
-112.7238687869232
 30
0.0
 10
96.22944062264403
 20
-113.1469265125119
 30
0.0
 10
96.22944062264403
 20
-113.1469265125119
 30
0.0
 10
96.29076332228148
 20
-113.1131645767564
 30
0.0
 10
96.37310110437895
 20
-113.072856959579
 30
0.0
 10
96.49161238907155
 20
-113.072856959579
 30
0.0
 10
96.74551592633446
 20
-113.072856959579
 30
0.0
 10
96.98253849571965
 20
-113.259236625331
 30
0.0
 10
96.98253849571965
 20
-113.5723958049402
 30
0.0
 10
96.98253849571965
 20
-113.8896890991317
 30
0.0
 10
96.75826277962989
 20
-114.1243001016773
 30
0.0
 10
96.45578339602494
 20
-114.1243001016773
 30
0.0
  0
HATCH
  5
85
330
7E
100
AcDbEntity
  8
_U+30EC_U+30A4_U+30E4_U+30FC 1
 62
     7
420
 16777215
100
AcDbHatch
 10
0.0
 20
0.0
 30
0.0
210
0.0
220
0.0
230
1.0
  2
SOLID
 70
     1
 71
     0
 91
        1
 92
        1
 93
        1
 72
     4
 94
        3
 73
     0
 74
     1
 95
       53
 96
       49
 40
0.0
 40
0.0
 40
0.0
 40
0.0
 40
1.0
 40
1.0
 40
1.0
 40
2.0
 40
2.0
 40
2.0
 40
3.0
 40
3.0
 40
3.0
 40
4.0
 40
4.0
 40
4.0
 40
5.0
 40
5.0
 40
5.0
 40
6.0
 40
6.0
 40
6.0
 40
7.0
 40
7.0
 40
7.0
 40
8.0
 40
8.0
 40
8.0
 40
9.0
 40
9.0
 40
9.0
 40
10.0
 40
10.0
 40
10.0
 40
11.0
 40
11.0
 40
11.0
 40
12.0
 40
12.0
 40
12.0
 40
13.0
 40
13.0
 40
13.0
 40
14.0
 40
14.0
 40
14.0
 40
15.0
 40
15.0
 40
15.0
 40
16.0
 40
16.0
 40
16.0
 40
16.0
 10
96.45578339602494
 20
-114.1243001016773
 10
96.37757972850977
 20
-114.1243001016773
 10
96.27594941169491
 20
-114.1074191337995
 10
96.17431909488003
 20
-114.0440293768709
 10
96.00103079197197
 20
-113.9341308308915
 10
95.97967119996342
 20
-113.8028726929034
 10
95.96072317479455
 20
-113.6950412042151
 10
95.96072317479455
 20
-113.6950412042151
 10
96.18293183359316
 20
-113.6950412042151
 10
96.18293183359316
 20
-113.6950412042151
 10
96.23770885180863
 20
-113.893823213714
 10
96.36483287521435
 20
-113.9234510348872
 10
96.4578504533161
 20
-113.9234510348872
 10
96.59737682046871
 20
-113.9234510348872
 10
96.74965004091676
 20
-113.8238877753635
 10
96.74965004091676
 20
-113.5913438301091
 10
96.74965004091676
 20
-113.3353732355551
 10
96.56981605658672
 20
-113.2654377972045
 10
96.44923771460297
 20
-113.2654377972045
 10
96.41754283613868
 20
-113.2654377972045
 10
96.27594941169491
 20
-113.2654377972045
 10
96.18706594817546
 20
-113.3946288779014
 10
96.18706594817546
 20
-113.3946288779014
 10
96.01136607842771
 20
-113.3756808527325
 10
96.01136607842771
 20
-113.3756808527325
 10
96.01136607842771
 20
-113.3756808527325
 10
96.13194442041146
 20
-112.5292208920066
 10
96.13194442041146
 20
-112.5292208920066
 10
96.13194442041146
 20
-112.5292208920066
 10
96.91053600007793
 20
-112.5292208920066
 10
96.91053600007793
 20
-112.5292208920066
 10
96.91053600007793
 20
-112.5292208920066
 10
96.91053600007793
 20
-112.7238687869232
 10
96.91053600007793
 20
-112.7238687869232
 10
96.91053600007793
 20
-112.7238687869232
 10
96.29489743686378
 20
-112.7238687869232
 10
96.29489743686378
 20
-112.7238687869232
 10
96.29489743686378
 20
-112.7238687869232
 10
96.22944062264403
 20
-113.1469265125119
 10
96.22944062264403
 20
-113.1469265125119
 10
96.29076332228148
 20
-113.1131645767564
 10
96.37310110437895
 20
-113.072856959579
 10
96.49161238907155
 20
-113.072856959579
 10
96.74551592633446
 20
-113.072856959579
 10
96.98253849571965
 20
-113.259236625331
 10
96.98253849571965
 20
-113.5723958049402
 10
96.98253849571965
 20
-113.8896890991317
 10
96.75826277962989
 20
-114.1243001016773
 10
96.45578339602494
 20
-114.1243001016773
 97
        0
 97
        0
 75
     2
 76
     1
 98
        0
  0
ENDBLK
  5
81
330
7E
100
AcDbEntity
  8
0
100
AcDbBlockEnd
  0
BLOCK
  5
96
330
94
100
AcDbEntity
  8
0
100
AcDbBlockBegin
  2
block 4
 70
     0
 10
0.0
 20
0.0
 30
0.0
  3
block 4
  1

  0
SPLINE
  5
98
330
94
100
AcDbEntity
  8
_U+30EC_U+30A4_U+30E4_U+30FC 1
370
     0
100
AcDbSpline
210
0.0
220
0.0
230
1.0
 70
    11
 71
     3
 72
    32
 73
    28
 74
     0
 42
0.0000000001
 43
0.0000000001
 12
1.0
 22
0.0
 32
0.0
 13
1.0
 23
0.0
 33
0.0
 40
0.0
 40
0.0
 40
0.0
 40
0.0
 40
1.0
 40
1.0
 40
1.0
 40
2.0
 40
2.0
 40
2.0
 40
3.0
 40
3.0
 40
3.0
 40
4.0
 40
4.0
 40
4.0
 40
5.0
 40
5.0
 40
5.0
 40
6.0
 40
6.0
 40
6.0
 40
7.0
 40
7.0
 40
7.0
 40
8.0
 40
8.0
 40
8.0
 40
9.0
 40
9.0
 40
9.0
 40
9.0
 10
113.7412054837175
 20
-121.9215847134432
 30
0.0
 10
113.7412054837175
 20
-122.4376600171337
 30
0.0
 10
113.1872341296893
 20
-122.4462727558468
 30
0.0
 10
112.9732937000553
 20
-122.4462727558468
 30
0.0
 10
112.7428168120921
 20
-122.4462727558468
 30
0.0
 10
112.0954833704136
 20
-122.4269802211294
 30
0.0
 10
112.0954833704136
 20
-121.8833441535569
 30
0.0
 10
112.0954833704136
 20
-121.7100558506489
 30
0.0
 10
112.1654188087642
 20
-121.4644205425506
 30
0.0
 10
112.4975260135423
 20
-121.4265244922128
 30
0.0
 10
112.4975260135423
 20
-121.4265244922128
 30
0.0
 10
112.4975260135423
 20
-121.6401204122983
 30
0.0
 10
112.4975260135423
 20
-121.6401204122983
 30
0.0
 10
112.4403374284871
 20
-121.6508002083026
 30
0.0
 10
112.2921983226214
 20
-121.6824950867669
 30
0.0
 10
112.2921983226214
 20
-121.8854112108481
 30
0.0
 10
112.2921983226214
 20
-122.1775553079973
 30
0.0
 10
112.6201714128172
 20
-122.2175184156262
 30
0.0
 10
112.8251545941896
 20
-122.2302652689216
 30
0.0
 10
112.7469509266744
 20
-122.1372476908199
 30
0.0
 10
112.6876952843281
 20
-122.0693793097604
 30
0.0
 10
112.6876952843281
 20
-121.8874782681392
 30
0.0
 10
112.6876952843281
 20
-121.7076442838092
 30
0.0
 10
112.7958712825649
 20
-121.4051649002043
 30
0.0
 10
113.2020480402759
 20
-121.4051649002043
 30
0.0
 10
113.5214083917585
 20
-121.4051649002043
 30
0.0
 10
113.7412054837175
 20
-121.6042914192517
 30
0.0
 10
113.7412054837175
 20
-121.9215847134432
 30
0.0
  0
SPLINE
  5
99
330
94
100
AcDbEntity
  8
_U+30EC_U+30A4_U+30E4_U+30FC 1
370
     0
100
AcDbSpline
210
0.0
220
0.0
230
1.0
 70
    11
 71
     3
 72
    17
 73
    13
 74
     0
 42
0.0000000001
 43
0.0000000001
 12
1.0
 22
0.0
 32
0.0
 13
1.0
 23
0.0
 33
0.0
 40
0.0
 40
0.0
 40
0.0
 40
0.0
 40
1.0
 40
1.0
 40
1.0
 40
2.0
 40
2.0
 40
2.0
 40
3.0
 40
3.0
 40
3.0
 40
4.0
 40
4.0
 40
4.0
 40
4.0
 10
112.8823431792447
 20
-121.9047037455655
 30
0.0
 10
112.8823431792447
 20
-122.166875511993
 30
0.0
 10
113.093872042039
 20
-122.2047715623308
 30
0.0
 10
113.2103162694405
 20
-122.2047715623308
 30
0.0
 10
113.3860161391882
 20
-122.2047715623308
 30
0.0
 10
113.5489691556405
 20
-122.1096869269379
 30
0.0
 10
113.5489691556405
 20
-121.9257188280255
 30
0.0
 10
113.5489691556405
 20
-121.8051404860418
 30
0.0
 10
113.4897135132942
 20
-121.629440616294
 30
0.0
 10
113.204115097567
 20
-121.629440616294
 30
0.0
 10
112.9798393814773
 20
-121.629440616294
 30
0.0
 10
112.8823431792447
 20
-121.7689669834466
 30
0.0
 10
112.8823431792447
 20
-121.9047037455655
 30
0.0
  0
HATCH
  5
9A
330
94
100
AcDbEntity
  8
_U+30EC_U+30A4_U+30E4_U+30FC 1
 62
     7
420
 16777215
100
AcDbHatch
 10
0.0
 20
0.0
 30
0.0
210
0.0
220
0.0
230
1.0
  2
SOLID
 70
     1
 71
     0
 91
        2
 92
        1
 93
        1
 72
     4
 94
        3
 73
     0
 74
     1
 95
       32
 96
       28
 40
0.0
 40
0.0
 40
0.0
 40
0.0
 40
1.0
 40
1.0
 40
1.0
 40
2.0
 40
2.0
 40
2.0
 40
3.0
 40
3.0
 40
3.0
 40
4.0
 40
4.0
 40
4.0
 40
5.0
 40
5.0
 40
5.0
 40
6.0
 40
6.0
 40
6.0
 40
7.0
 40
7.0
 40
7.0
 40
8.0
 40
8.0
 40
8.0
 40
9.0
 40
9.0
 40
9.0
 40
9.0
 10
113.7412054837175
 20
-121.9215847134432
 10
113.7412054837175
 20
-122.4376600171337
 10
113.1872341296893
 20
-122.4462727558468
 10
112.9732937000553
 20
-122.4462727558468
 10
112.7428168120921
 20
-122.4462727558468
 10
112.0954833704136
 20
-122.4269802211294
 10
112.0954833704136
 20
-121.8833441535569
 10
112.0954833704136
 20
-121.7100558506489
 10
112.1654188087642
 20
-121.4644205425506
 10
112.4975260135423
 20
-121.4265244922128
 10
112.4975260135423
 20
-121.4265244922128
 10
112.4975260135423
 20
-121.6401204122983
 10
112.4975260135423
 20
-121.6401204122983
 10
112.4403374284871
 20
-121.6508002083026
 10
112.2921983226214
 20
-121.6824950867669
 10
112.2921983226214
 20
-121.8854112108481
 10
112.2921983226214
 20
-122.1775553079973
 10
112.6201714128172
 20
-122.2175184156262
 10
112.8251545941896
 20
-122.2302652689216
 10
112.7469509266744
 20
-122.1372476908199
 10
112.6876952843281
 20
-122.0693793097604
 10
112.6876952843281
 20
-121.8874782681392
 10
112.6876952843281
 20
-121.7076442838092
 10
112.7958712825649
 20
-121.4051649002043
 10
113.2020480402759
 20
-121.4051649002043
 10
113.5214083917585
 20
-121.4051649002043
 10
113.7412054837175
 20
-121.6042914192517
 10
113.7412054837175
 20
-121.9215847134432
 97
        0
 97
        0
 92
        1
 93
        1
 72
     4
 94
        3
 73
     0
 74
     1
 95
       17
 96
       13
 40
0.0
 40
0.0
 40
0.0
 40
0.0
 40
1.0
 40
1.0
 40
1.0
 40
2.0
 40
2.0
 40
2.0
 40
3.0
 40
3.0
 40
3.0
 40
4.0
 40
4.0
 40
4.0
 40
4.0
 10
112.8823431792447
 20
-121.9047037455655
 10
112.8823431792447
 20
-122.166875511993
 10
113.093872042039
 20
-122.2047715623308
 10
113.2103162694405
 20
-122.2047715623308
 10
113.3860161391882
 20
-122.2047715623308
 10
113.5489691556405
 20
-122.1096869269379
 10
113.5489691556405
 20
-121.9257188280255
 10
113.5489691556405
 20
-121.8051404860418
 10
113.4897135132942
 20
-121.629440616294
 10
113.204115097567
 20
-121.629440616294
 10
112.9798393814773
 20
-121.629440616294
 10
112.8823431792447
 20
-121.7689669834466
 10
112.8823431792447
 20
-121.9047037455655
 97
        0
 97
        0
 75
     2
 76
     1
 98
        0
  0
ENDBLK
  5
97
330
94
100
AcDbEntity
  8
0
100
AcDbBlockEnd
  0
BLOCK
  5
A9
330
A7
100
AcDbEntity
  8
0
100
AcDbBlockBegin
  2
block 5
 70
     0
 10
0.0
 20
0.0
 30
0.0
  3
block 5
  1

  0
SPLINE
  5
AB
330
A7
100
AcDbEntity
  8
_U+30EC_U+30A4_U+30E4_U+30FC 1
370
     0
100
AcDbSpline
210
0.0
220
0.0
230
1.0
 70
    11
 71
     3
 72
    44
 73
    40
 74
     0
 42
0.0000000001
 43
0.0000000001
 12
1.0
 22
0.0
 32
0.0
 13
1.0
 23
0.0
 33
0.0
 40
0.0
 40
0.0
 40
0.0
 40
0.0
 40
1.0
 40
1.0
 40
1.0
 40
2.0
 40
2.0
 40
2.0
 40
3.0
 40
3.0
 40
3.0
 40
4.0
 40
4.0
 40
4.0
 40
5.0
 40
5.0
 40
5.0
 40
6.0
 40
6.0
 40
6.0
 40
7.0
 40
7.0
 40
7.0
 40
8.0
 40
8.0
 40
8.0
 40
9.0
 40
9.0
 40
9.0
 40
10.0
 40
10.0
 40
10.0
 40
11.0
 40
11.0
 40
11.0
 40
12.0
 40
12.0
 40
12.0
 40
13.0
 40
13.0
 40
13.0
 40
13.0
 10
68.93601615030072
 20
-131.9106390729251
 30
0.0
 10
69.09466279739648
 20
-132.1283691075929
 30
0.0
 10
69.16873235032935
 20
-132.2213866856947
 30
0.0
 10
69.31256508683853
 20
-132.2703070415852
 30
0.0
 10
69.31256508683853
 20
-132.2703070415852
 30
0.0
 10
69.31256508683853
 20
-131.4917154619187
 30
0.0
 10
69.31256508683853
 20
-131.4917154619187
 30
0.0
 10
69.31256508683853
 20
-131.4917154619187
 30
0.0
 10
69.51772052298516
 20
-131.4917154619187
 30
0.0
 10
69.51772052298516
 20
-131.4917154619187
 30
0.0
 10
69.51772052298516
 20
-131.4917154619187
 30
0.0
 10
69.51772052298516
 20
-132.5197319547173
 30
0.0
 10
69.51772052298516
 20
-132.5197319547173
 30
0.0
 10
69.16011961161622
 20
-132.488037076253
 30
0.0
 10
69.08191594410106
 20
-132.4225802620333
 30
0.0
 10
68.78357067507842
 20
-132.0374185867823
 30
0.0
 10
68.5847886655795
 20
-131.7814479922283
 30
0.0
 10
68.51709253929434
 20
-131.7159911780085
 30
0.0
 10
68.37963322943287
 20
-131.7159911780085
 30
0.0
 10
68.26112194474028
 20
-131.7159911780085
 30
0.0
 10
68.13003606152652
 20
-131.7879936736502
 30
0.0
 10
68.13003606152652
 20
-131.984708625858
 30
0.0
 10
68.13003606152652
 20
-132.2448133349943
 30
0.0
 10
68.36051294948973
 20
-132.2534260737075
 30
0.0
 10
68.47695717689118
 20
-132.2575601882898
 30
0.0
 10
68.47695717689118
 20
-132.2575601882898
 30
0.0
 10
68.47695717689118
 20
-132.4818359043796
 30
0.0
 10
68.47695717689118
 20
-132.4818359043796
 30
0.0
 10
68.35000540825972
 20
-132.4732231656664
 30
0.0
 10
68.23786755021484
 20
-132.4625433696621
 30
0.0
 10
68.11935626552224
 20
-132.3822726448558
 30
0.0
 10
67.95864256113535
 20
-132.2723740988764
 30
0.0
 10
67.92470837060563
 20
-132.0859944331243
 30
0.0
 10
67.92470837060563
 20
-131.9698947152714
 30
0.0
 10
67.92470837060563
 20
-131.6925645287088
 30
0.0
 10
68.10884872429223
 20
-131.4851697804968
 30
0.0
 10
68.38170028672403
 20
-131.4851697804968
 30
0.0
 10
68.61011011739609
 20
-131.4851697804968
 30
0.0
 10
68.70967337691981
 20
-131.6016140078982
 30
0.0
 10
68.93601615030072
 20
-131.9106390729251
 30
0.0
  0
HATCH
  5
AC
330
A7
100
AcDbEntity
  8
_U+30EC_U+30A4_U+30E4_U+30FC 1
 62
     7
420
 16777215
100
AcDbHatch
 10
0.0
 20
0.0
 30
0.0
210
0.0
220
0.0
230
1.0
  2
SOLID
 70
     1
 71
     0
 91
        1
 92
        1
 93
        1
 72
     4
 94
        3
 73
     0
 74
     1
 95
       44
 96
       40
 40
0.0
 40
0.0
 40
0.0
 40
0.0
 40
1.0
 40
1.0
 40
1.0
 40
2.0
 40
2.0
 40
2.0
 40
3.0
 40
3.0
 40
3.0
 40
4.0
 40
4.0
 40
4.0
 40
5.0
 40
5.0
 40
5.0
 40
6.0
 40
6.0
 40
6.0
 40
7.0
 40
7.0
 40
7.0
 40
8.0
 40
8.0
 40
8.0
 40
9.0
 40
9.0
 40
9.0
 40
10.0
 40
10.0
 40
10.0
 40
11.0
 40
11.0
 40
11.0
 40
12.0
 40
12.0
 40
12.0
 40
13.0
 40
13.0
 40
13.0
 40
13.0
 10
68.93601615030072
 20
-131.9106390729251
 10
69.09466279739648
 20
-132.1283691075929
 10
69.16873235032935
 20
-132.2213866856947
 10
69.31256508683853
 20
-132.2703070415852
 10
69.31256508683853
 20
-132.2703070415852
 10
69.31256508683853
 20
-131.4917154619187
 10
69.31256508683853
 20
-131.4917154619187
 10
69.31256508683853
 20
-131.4917154619187
 10
69.51772052298516
 20
-131.4917154619187
 10
69.51772052298516
 20
-131.4917154619187
 10
69.51772052298516
 20
-131.4917154619187
 10
69.51772052298516
 20
-132.5197319547173
 10
69.51772052298516
 20
-132.5197319547173
 10
69.16011961161622
 20
-132.488037076253
 10
69.08191594410106
 20
-132.4225802620333
 10
68.78357067507842
 20
-132.0374185867823
 10
68.5847886655795
 20
-131.7814479922283
 10
68.51709253929434
 20
-131.7159911780085
 10
68.37963322943287
 20
-131.7159911780085
 10
68.26112194474028
 20
-131.7159911780085
 10
68.13003606152652
 20
-131.7879936736502
 10
68.13003606152652
 20
-131.984708625858
 10
68.13003606152652
 20
-132.2448133349943
 10
68.36051294948973
 20
-132.2534260737075
 10
68.47695717689118
 20
-132.2575601882898
 10
68.47695717689118
 20
-132.2575601882898
 10
68.47695717689118
 20
-132.4818359043796
 10
68.47695717689118
 20
-132.4818359043796
 10
68.35000540825972
 20
-132.4732231656664
 10
68.23786755021484
 20
-132.4625433696621
 10
68.11935626552224
 20
-132.3822726448558
 10
67.95864256113535
 20
-132.2723740988764
 10
67.92470837060563
 20
-132.0859944331243
 10
67.92470837060563
 20
-131.9698947152714
 10
67.92470837060563
 20
-131.6925645287088
 10
68.10884872429223
 20
-131.4851697804968
 10
68.38170028672403
 20
-131.4851697804968
 10
68.61011011739609
 20
-131.4851697804968
 10
68.70967337691981
 20
-131.6016140078982
 10
68.93601615030072
 20
-131.9106390729251
 97
        0
 97
        0
 75
     2
 76
     1
 98
        0
  0
SPLINE
  5
AD
330
A7
100
AcDbEntity
  8
_U+30EC_U+30A4_U+30E4_U+30FC 1
370
     0
100
AcDbSpline
210
0.0
220
0.0
230
1.0
 70
    11
 71
     3
 72
    53
 73
    49
 74
     0
 42
0.0000000001
 43
0.0000000001
 12
1.0
 22
0.0
 32
0.0
 13
1.0
 23
0.0
 33
0.0
 40
0.0
 40
0.0
 40
0.0
 40
0.0
 40
1.0
 40
1.0
 40
1.0
 40
2.0
 40
2.0
 40
2.0
 40
3.0
 40
3.0
 40
3.0
 40
4.0
 40
4.0
 40
4.0
 40
5.0
 40
5.0
 40
5.0
 40
6.0
 40
6.0
 40
6.0
 40
7.0
 40
7.0
 40
7.0
 40
8.0
 40
8.0
 40
8.0
 40
9.0
 40
9.0
 40
9.0
 40
10.0
 40
10.0
 40
10.0
 40
11.0
 40
11.0
 40
11.0
 40
12.0
 40
12.0
 40
12.0
 40
13.0
 40
13.0
 40
13.0
 40
14.0
 40
14.0
 40
14.0
 40
15.0
 40
15.0
 40
15.0
 40
16.0
 40
16.0
 40
16.0
 40
16.0
 10
69.56853568139259
 20
-130.8457600584344
 30
0.0
 10
69.56853568139259
 20
-130.9239637259496
 30
0.0
 10
69.55148245874061
 20
-131.0255940427645
 30
0.0
 10
69.48809270181201
 20
-131.1272243595793
 30
0.0
 10
69.37802190105828
 20
-131.3005126624874
 30
0.0
 10
69.24693601784452
 20
-131.3218722544959
 30
0.0
 10
69.1391045291562
 20
-131.3408202796648
 30
0.0
 10
69.1391045291562
 20
-131.3408202796648
 30
0.0
 10
69.1391045291562
 20
-131.1186116208662
 30
0.0
 10
69.1391045291562
 20
-131.1186116208662
 30
0.0
 10
69.33788653865511
 20
-131.0638346026507
 30
0.0
 10
69.36751435982826
 20
-130.936710579245
 30
0.0
 10
69.36751435982826
 20
-130.8436930011432
 30
0.0
 10
69.36751435982826
 20
-130.7041666339906
 30
0.0
 10
69.2681233550788
 20
-130.5518934135426
 30
0.0
 10
69.03540715505018
 20
-130.5518934135426
 30
0.0
 10
68.77943656049612
 20
-130.5518934135426
 30
0.0
 10
68.70967337691981
 20
-130.7317273978726
 30
0.0
 10
68.70967337691981
 20
-130.8523057398564
 30
0.0
 10
68.70967337691981
 20
-130.8840006183207
 30
0.0
 10
68.70967337691981
 20
-131.0255940427645
 30
0.0
 10
68.83869220284241
 20
-131.1144775062839
 30
0.0
 10
68.83869220284241
 20
-131.1144775062839
 30
0.0
 10
68.81957192289927
 20
-131.2901773760316
 30
0.0
 10
68.81957192289927
 20
-131.2901773760316
 30
0.0
 10
68.81957192289927
 20
-131.2901773760316
 30
0.0
 10
67.97345647172192
 20
-131.1695990340479
 30
0.0
 10
67.97345647172192
 20
-131.1695990340479
 30
0.0
 10
67.97345647172192
 20
-131.1695990340479
 30
0.0
 10
67.97345647172192
 20
-130.3910074543814
 30
0.0
 10
67.97345647172192
 20
-130.3910074543814
 30
0.0
 10
67.97345647172192
 20
-130.3910074543814
 30
0.0
 10
68.16810436663853
 20
-130.3910074543814
 30
0.0
 10
68.16810436663853
 20
-130.3910074543814
 30
0.0
 10
68.16810436663853
 20
-130.3910074543814
 30
0.0
 10
68.16810436663853
 20
-131.0066460175956
 30
0.0
 10
68.16810436663853
 20
-131.0066460175956
 30
0.0
 10
68.16810436663853
 20
-131.0066460175956
 30
0.0
 10
68.59116209222721
 20
-131.0721028318153
 30
0.0
 10
68.59116209222721
 20
-131.0721028318153
 30
0.0
 10
68.5572279016975
 20
-131.0107801321779
 30
0.0
 10
68.51709253929434
 20
-130.9284423500804
 30
0.0
 10
68.51709253929434
 20
-130.8099310653878
 30
0.0
 10
68.51709253929434
 20
-130.5560275281249
 30
0.0
 10
68.7032999502721
 20
-130.3190049587397
 30
0.0
 10
69.01628687510704
 20
-130.3190049587397
 30
0.0
 10
69.33375242407281
 20
-130.3190049587397
 30
0.0
 10
69.56853568139259
 20
-130.5432806748295
 30
0.0
 10
69.56853568139259
 20
-130.8457600584344
 30
0.0
  0
HATCH
  5
AE
330
A7
100
AcDbEntity
  8
_U+30EC_U+30A4_U+30E4_U+30FC 1
 62
     7
420
 16777215
100
AcDbHatch
 10
0.0
 20
0.0
 30
0.0
210
0.0
220
0.0
230
1.0
  2
SOLID
 70
     1
 71
     0
 91
        1
 92
        1
 93
        1
 72
     4
 94
        3
 73
     0
 74
     1
 95
       53
 96
       49
 40
0.0
 40
0.0
 40
0.0
 40
0.0
 40
1.0
 40
1.0
 40
1.0
 40
2.0
 40
2.0
 40
2.0
 40
3.0
 40
3.0
 40
3.0
 40
4.0
 40
4.0
 40
4.0
 40
5.0
 40
5.0
 40
5.0
 40
6.0
 40
6.0
 40
6.0
 40
7.0
 40
7.0
 40
7.0
 40
8.0
 40
8.0
 40
8.0
 40
9.0
 40
9.0
 40
9.0
 40
10.0
 40
10.0
 40
10.0
 40
11.0
 40
11.0
 40
11.0
 40
12.0
 40
12.0
 40
12.0
 40
13.0
 40
13.0
 40
13.0
 40
14.0
 40
14.0
 40
14.0
 40
15.0
 40
15.0
 40
15.0
 40
16.0
 40
16.0
 40
16.0
 40
16.0
 10
69.56853568139259
 20
-130.8457600584344
 10
69.56853568139259
 20
-130.9239637259496
 10
69.55148245874061
 20
-131.0255940427645
 10
69.48809270181201
 20
-131.1272243595793
 10
69.37802190105828
 20
-131.3005126624874
 10
69.24693601784452
 20
-131.3218722544959
 10
69.1391045291562
 20
-131.3408202796648
 10
69.1391045291562
 20
-131.3408202796648
 10
69.1391045291562
 20
-131.1186116208662
 10
69.1391045291562
 20
-131.1186116208662
 10
69.33788653865511
 20
-131.0638346026507
 10
69.36751435982826
 20
-130.936710579245
 10
69.36751435982826
 20
-130.8436930011432
 10
69.36751435982826
 20
-130.7041666339906
 10
69.2681233550788
 20
-130.5518934135426
 10
69.03540715505018
 20
-130.5518934135426
 10
68.77943656049612
 20
-130.5518934135426
 10
68.70967337691981
 20
-130.7317273978726
 10
68.70967337691981
 20
-130.8523057398564
 10
68.70967337691981
 20
-130.8840006183207
 10
68.70967337691981
 20
-131.0255940427645
 10
68.83869220284241
 20
-131.1144775062839
 10
68.83869220284241
 20
-131.1144775062839
 10
68.81957192289927
 20
-131.2901773760316
 10
68.81957192289927
 20
-131.2901773760316
 10
68.81957192289927
 20
-131.2901773760316
 10
67.97345647172192
 20
-131.1695990340479
 10
67.97345647172192
 20
-131.1695990340479
 10
67.97345647172192
 20
-131.1695990340479
 10
67.97345647172192
 20
-130.3910074543814
 10
67.97345647172192
 20
-130.3910074543814
 10
67.97345647172192
 20
-130.3910074543814
 10
68.16810436663853
 20
-130.3910074543814
 10
68.16810436663853
 20
-130.3910074543814
 10
68.16810436663853
 20
-130.3910074543814
 10
68.16810436663853
 20
-131.0066460175956
 10
68.16810436663853
 20
-131.0066460175956
 10
68.16810436663853
 20
-131.0066460175956
 10
68.59116209222721
 20
-131.0721028318153
 10
68.59116209222721
 20
-131.0721028318153
 10
68.5572279016975
 20
-131.0107801321779
 10
68.51709253929434
 20
-130.9284423500804
 10
68.51709253929434
 20
-130.8099310653878
 10
68.51709253929434
 20
-130.5560275281249
 10
68.7032999502721
 20
-130.3190049587397
 10
69.01628687510704
 20
-130.3190049587397
 10
69.33375242407281
 20
-130.3190049587397
 10
69.56853568139259
 20
-130.5432806748295
 10
69.56853568139259
 20
-130.8457600584344
 97
        0
 97
        0
 75
     2
 76
     1
 98
        0
  0
ENDBLK
  5
AA
330
A7
100
AcDbEntity
  8
0
100
AcDbBlockEnd
  0
ENDSEC
  0
SECTION
  2
ENTITIES
  0
SPLINE
  5
41
330
1F
100
AcDbEntity
  8
_U+30EC_U+30A4_U+30E4_U+30FC 1
 62
     7
420
 16777215
370
     9
100
AcDbSpline
210
0.0
220
0.0
230
1.0
 70
    11
 71
     3
 72
    17
 73
    13
 74
     0
 42
0.0000000001
 43
0.0000000001
 12
1.0
 22
0.0
 32
0.0
 13
1.0
 23
0.0
 33
0.0
 40
0.0
 40
0.0
 40
0.0
 40
0.0
 40
1.0
 40
1.0
 40
1.0
 40
2.0
 40
2.0
 40
2.0
 40
3.0
 40
3.0
 40
3.0
 40
4.0
 40
4.0
 40
4.0
 40
4.0
 10
82.08387262808817
 20
-143.8871546862504
 30
0.0
 10
82.08387262808817
 20
-143.9422938529035
 30
0.0
 10
82.12867540472293
 20
-143.987061352892
 30
0.0
 10
82.183779292206
 20
-143.987061352892
 30
0.0
 10
82.23891845746596
 20
-143.987061352892
 30
0.0
 10
82.28368595632384
 20
-143.9422938529035
 30
0.0
 10
82.28368595632384
 20
-143.8871546862504
 30
0.0
 10
82.28368595632384
 20
-143.8320507973755
 30
0.0
 10
82.23891845746596
 20
-143.7872480196088
 30
0.0
 10
82.183779292206
 20
-143.7872480196088
 30
0.0
 10
82.12867540472293
 20
-143.7872480196088
 30
0.0
 10
82.08387262808817
 20
-143.8320507973755
 30
0.0
 10
82.08387262808817
 20
-143.8871546862504
 30
0.0
  0
SPLINE
  5
42
330
1F
100
AcDbEntity
  8
_U+30EC_U+30A4_U+30E4_U+30FC 1
 62
     7
420
 16777215
370
     9
100
AcDbSpline
210
0.0
220
0.0
230
1.0
 70
    11
 71
     3
 72
    17
 73
    13
 74
     0
 42
0.0000000001
 43
0.0000000001
 12
1.0
 22
0.0
 32
0.0
 13
1.0
 23
0.0
 33
0.0
 40
0.0
 40
0.0
 40
0.0
 40
0.0
 40
1.0
 40
1.0
 40
1.0
 40
2.0
 40
2.0
 40
2.0
 40
3.0
 40
3.0
 40
3.0
 40
4.0
 40
4.0
 40
4.0
 40
4.0
 10
76.08389889227136
 20
-143.8871546862504
 30
0.0
 10
76.08389889227136
 20
-143.9422938529035
 30
0.0
 10
76.12870166890613
 20
-143.987061352892
 30
0.0
 10
76.1838055563892
 20
-143.987061352892
 30
0.0
 10
76.23961499940982
 20
-143.987061352892
 30
0.0
 10
76.28441777604459
 20
-143.9422938529035
 30
0.0
 10
76.28441777604459
 20
-143.8871546862504
 30
0.0
 10
76.28441777604459
 20
-143.8320507973755
 30
0.0
 10
76.23961499940982
 20
-143.7872480196088
 30
0.0
 10
76.1838055563892
 20
-143.7872480196088
 30
0.0
 10
76.12870166890613
 20
-143.7872480196088
 30
0.0
 10
76.08389889227136
 20
-143.8320507973755
 30
0.0
 10
76.08389889227136
 20
-143.8871546862504
 30
0.0
  0
POLYLINE
  5
43
330
1F
100
AcDbEntity
  8
_U+30EC_U+30A4_U+30E4_U+30FC 1
 62
     7
420
 16777215
370
     9
100
AcDb2dPolyline
 66
     1
 10
0.0
 20
0.0
 30
0.0
  0
VERTEX
  5
44
330
43
100
AcDbEntity
  8
_U+30EC_U+30A4_U+30E4_U+30FC 1
 62
     7
420
 16777215
370
     9
100
AcDbVertex
100
AcDb2dVertex
 10
76.1838055563892
 20
-127.2315280237476
 30
0.0
  0
VERTEX
  5
45
330
43
100
AcDbEntity
  8
_U+30EC_U+30A4_U+30E4_U+30FC 1
 62
     7
420
 16777215
370
     9
100
AcDbVertex
100
AcDb2dVertex
 10
76.1838055563892
 20
-144.8869269082229
 30
0.0
  0
SEQEND
  5
46
330
43
100
AcDbEntity
  8
_U+30EC_U+30A4_U+30E4_U+30FC 1
 62
     7
420
 16777215
370
     9
  0
POLYLINE
  5
47
330
1F
100
AcDbEntity
  8
_U+30EC_U+30A4_U+30E4_U+30FC 1
 62
     7
420
 16777215
370
     9
100
AcDb2dPolyline
 66
     1
 10
0.0
 20
0.0
 30
0.0
  0
VERTEX
  5
48
330
47
100
AcDbEntity
  8
_U+30EC_U+30A4_U+30E4_U+30FC 1
 62
     7
420
 16777215
370
     9
100
AcDbVertex
100
AcDb2dVertex
 10
76.1838055563892
 20
-143.8871546862504
 30
0.0
  0
VERTEX
  5
49
330
47
100
AcDbEntity
  8
_U+30EC_U+30A4_U+30E4_U+30FC 1
 62
     7
420
 16777215
370
     9
100
AcDbVertex
100
AcDb2dVertex
 10
82.183779292206
 20
-143.8871546862504
 30
0.0
  0
SEQEND
  5
4A
330
47
100
AcDbEntity
  8
_U+30EC_U+30A4_U+30E4_U+30FC 1
 62
     7
420
 16777215
370
     9
  0
POLYLINE
  5
4B
330
1F
100
AcDbEntity
  8
_U+30EC_U+30A4_U+30E4_U+30FC 1
 62
     7
420
 16777215
370
     9
100
AcDb2dPolyline
 66
     1
 10
0.0
 20
0.0
 30
0.0
  0
VERTEX
  5
4C
330
4B
100
AcDbEntity
  8
_U+30EC_U+30A4_U+30E4_U+30FC 1
 62
     7
420
 16777215
370
     9
100
AcDbVertex
100
AcDb2dVertex
 10
82.183779292206
 20
-127.2315280237476
 30
0.0
  0
VERTEX
  5
4D
330
4B
100
AcDbEntity
  8
_U+30EC_U+30A4_U+30E4_U+30FC 1
 62
     7
420
 16777215
370
     9
100
AcDbVertex
100
AcDb2dVertex
 10
82.183779292206
 20
-144.8869269082229
 30
0.0
  0
SEQEND
  5
4E
330
4B
100
AcDbEntity
  8
_U+30EC_U+30A4_U+30E4_U+30FC 1
 62
     7
420
 16777215
370
     9
  0
INSERT
  5
50
330
1F
100
AcDbEntity
  8
_U+30EC_U+30A4_U+30E4_U+30FC 1
100
AcDbBlockReference
  2
block 2
 10
0.0
 20
0.0
 30
0.0
  0
POLYLINE
  5
56
330
1F
100
AcDbEntity
  8
_U+30EC_U+30A4_U+30E4_U+30FC 1
 62
     7
420
 16777215
370
    25
100
AcDb2dPolyline
 66
     1
 10
0.0
 20
0.0
 30
0.0
  0
VERTEX
  5
57
330
56
100
AcDbEntity
  8
_U+30EC_U+30A4_U+30E4_U+30FC 1
 62
     7
420
 16777215
370
    25
100
AcDbVertex
100
AcDb2dVertex
 10
76.28163083167124
 20
-119.8342013589303
 30
0.0
  0
VERTEX
  5
58
330
56
100
AcDbEntity
  8
_U+30EC_U+30A4_U+30E4_U+30FC 1
 62
     7
420
 16777215
370
    25
100
AcDbVertex
100
AcDb2dVertex
 10
75.6325902926741
 20
-143.8258419084878
 30
0.0
  0
SEQEND
  5
59
330
56
100
AcDbEntity
  8
_U+30EC_U+30A4_U+30E4_U+30FC 1
 62
     7
420
 16777215
370
    25
  0
POLYLINE
  5
5A
330
1F
100
AcDbEntity
  8
_U+30EC_U+30A4_U+30E4_U+30FC 1
 62
     7
420
 16777215
370
    25
100
AcDb2dPolyline
 66
     1
 10
0.0
 20
0.0
 30
0.0
  0
VERTEX
  5
5B
330
5A
100
AcDbEntity
  8
_U+30EC_U+30A4_U+30E4_U+30FC 1
 62
     7
420
 16777215
370
    25
100
AcDbVertex
100
AcDb2dVertex
 10
75.6325902926741
 20
-143.8258419084878
 30
0.0
  0
VERTEX
  5
5C
330
5A
100
AcDbEntity
  8
_U+30EC_U+30A4_U+30E4_U+30FC 1
 62
     7
420
 16777215
370
    25
100
AcDbVertex
100
AcDb2dVertex
 10
75.23225808066519
 20
-143.8148352418241
 30
0.0
  0
SEQEND
  5
5D
330
5A
100
AcDbEntity
  8
_U+30EC_U+30A4_U+30E4_U+30FC 1
 62
     7
420
 16777215
370
    25
  0
POLYLINE
  5
5E
330
1F
100
AcDbEntity
  8
_U+30EC_U+30A4_U+30E4_U+30FC 1
 62
     7
420
 16777215
370
    25
100
AcDb2dPolyline
 66
     1
 10
0.0
 20
0.0
 30
0.0
  0
VERTEX
  5
5F
330
5E
100
AcDbEntity
  8
_U+30EC_U+30A4_U+30E4_U+30FC 1
 62
     7
420
 16777215
370
    25
100
AcDbVertex
100
AcDb2dVertex
 10
75.23225808066519
 20
-143.8148352418241
 30
0.0
  0
VERTEX
  5
60
330
5E
100
AcDbEntity
  8
_U+30EC_U+30A4_U+30E4_U+30FC 1
 62
     7
420
 16777215
370
    25
100
AcDbVertex
100
AcDb2dVertex
 10
75.28704446815637
 20
-118.8151321925186
 30
0.0
  0
SEQEND
  5
61
330
5E
100
AcDbEntity
  8
_U+30EC_U+30A4_U+30E4_U+30FC 1
 62
     7
420
 16777215
370
    25
  0
POLYLINE
  5
62
330
1F
100
AcDbEntity
  8
_U+30EC_U+30A4_U+30E4_U+30FC 1
 62
     7
420
 16777215
370
    25
100
AcDb2dPolyline
 66
     1
 10
0.0
 20
0.0
 30
0.0
  0
VERTEX
  5
63
330
62
100
AcDbEntity
  8
_U+30EC_U+30A4_U+30E4_U+30FC 1
 62
     7
420
 16777215
370
    25
100
AcDbVertex
100
AcDb2dVertex
 10
82.30644012241
 20
-126.0739583018149
 30
0.0
  0
VERTEX
  5
64
330
62
100
AcDbEntity
  8
_U+30EC_U+30A4_U+30E4_U+30FC 1
 62
     7
420
 16777215
370
    25
100
AcDbVertex
100
AcDb2dVertex
 10
108.2976244593196
 20
-125.4249177464216
 30
0.0
  0
SEQEND
  5
65
330
62
100
AcDbEntity
  8
_U+30EC_U+30A4_U+30E4_U+30FC 1
 62
     7
420
 16777215
370
    25
  0
POLYLINE
  5
66
330
1F
100
AcDbEntity
  8
_U+30EC_U+30A4_U+30E4_U+30FC 1
 62
     7
420
 16777215
370
    25
100
AcDb2dPolyline
 66
     1
 10
0.0
 20
0.0
 30
0.0
  0
VERTEX
  5
67
330
66
100
AcDbEntity
  8
_U+30EC_U+30A4_U+30E4_U+30FC 1
 62
     7
420
 16777215
370
    25
100
AcDbVertex
100
AcDb2dVertex
 10
108.2976244593196
 20
-125.4249177464216
 30
0.0
  0
VERTEX
  5
68
330
66
100
AcDbEntity
  8
_U+30EC_U+30A4_U+30E4_U+30FC 1
 62
     7
420
 16777215
370
    25
100
AcDbVertex
100
AcDb2dVertex
 10
108.2872880706945
 20
-125.0245855242996
 30
0.0
  0
SEQEND
  5
69
330
66
100
AcDbEntity
  8
_U+30EC_U+30A4_U+30E4_U+30FC 1
 62
     7
420
 16777215
370
    25
  0
POLYLINE
  5
6A
330
1F
100
AcDbEntity
  8
_U+30EC_U+30A4_U+30E4_U+30FC 1
 62
     7
420
 16777215
370
    25
100
AcDb2dPolyline
 66
     1
 10
0.0
 20
0.0
 30
0.0
  0
VERTEX
  5
6B
330
6A
100
AcDbEntity
  8
_U+30EC_U+30A4_U+30E4_U+30FC 1
 62
     7
420
 16777215
370
    25
100
AcDbVertex
100
AcDb2dVertex
 10
108.2872880706945
 20
-125.0245855242996
 30
0.0
  0
VERTEX
  5
6C
330
6A
100
AcDbEntity
  8
_U+30EC_U+30A4_U+30E4_U+30FC 1
 62
     7
420
 16777215
370
    25
100
AcDbVertex
100
AcDb2dVertex
 10
83.28691537517376
 20
-125.0796894131745
 30
0.0
  0
SEQEND
  5
6D
330
6A
100
AcDbEntity
  8
_U+30EC_U+30A4_U+30E4_U+30FC 1
 62
     7
420
 16777215
370
    25
  0
SPLINE
  5
6E
330
1F
100
AcDbEntity
  8
_U+30EC_U+30A4_U+30E4_U+30FC 1
 62
     7
420
 16777215
370
     9
100
AcDbSpline
210
0.0
220
0.0
230
1.0
 70
    11
 71
     3
 72
    17
 73
    13
 74
     0
 42
0.0000000001
 43
0.0000000001
 12
1.0
 22
0.0
 32
0.0
 13
1.0
 23
0.0
 33
0.0
 40
0.0
 40
0.0
 40
0.0
 40
0.0
 40
1.0
 40
1.0
 40
1.0
 40
2.0
 40
2.0
 40
2.0
 40
3.0
 40
3.0
 40
3.0
 40
4.0
 40
4.0
 40
4.0
 40
4.0
 10
83.28691537517376
 20
-114.8153730268517
 30
0.0
 10
83.28691537517376
 20
-114.8705121935045
 30
0.0
 10
83.33168287403166
 20
-114.9152796934934
 30
0.0
 10
83.3868220392916
 20
-114.9152796934934
 30
0.0
 10
83.44192592677467
 20
-114.9152796934934
 30
0.0
 10
83.48672870340944
 20
-114.8705121935045
 30
0.0
 10
83.48672870340944
 20
-114.8153730268517
 30
0.0
 10
83.48672870340944
 20
-114.7602691379765
 30
0.0
 10
83.44192592677467
 20
-114.7154663602101
 30
0.0
 10
83.3868220392916
 20
-114.7154663602101
 30
0.0
 10
83.33168287403166
 20
-114.7154663602101
 30
0.0
 10
83.28691537517376
 20
-114.7602691379765
 30
0.0
 10
83.28691537517376
 20
-114.8153730268517
 30
0.0
  0
SPLINE
  5
6F
330
1F
100
AcDbEntity
  8
_U+30EC_U+30A4_U+30E4_U+30FC 1
 62
     7
420
 16777215
370
     9
100
AcDbSpline
210
0.0
220
0.0
230
1.0
 70
    11
 71
     3
 72
    17
 73
    13
 74
     0
 42
0.0000000001
 43
0.0000000001
 12
1.0
 22
0.0
 32
0.0
 13
1.0
 23
0.0
 33
0.0
 40
0.0
 40
0.0
 40
0.0
 40
0.0
 40
1.0
 40
1.0
 40
1.0
 40
2.0
 40
2.0
 40
2.0
 40
3.0
 40
3.0
 40
3.0
 40
4.0
 40
4.0
 40
4.0
 40
4.0
 10
70.16040737672556
 20
-118.9150388591602
 30
0.0
 10
70.16040737672556
 20
-118.970178025813
 30
0.0
 10
70.20517487558344
 20
-119.0149455258019
 30
0.0
 10
70.26031404084338
 20
-119.0149455258019
 30
0.0
 10
70.31541792832645
 20
-119.0149455258019
 30
0.0
 10
70.36022070496122
 20
-118.970178025813
 30
0.0
 10
70.36022070496122
 20
-118.9150388591602
 30
0.0
 10
70.36022070496122
 20
-118.8592294147298
 30
0.0
 10
70.31541792832645
 20
-118.8151321925186
 30
0.0
 10
70.26031404084338
 20
-118.8151321925186
 30
0.0
 10
70.20517487558344
 20
-118.8151321925186
 30
0.0
 10
70.16040737672556
 20
-118.8592294147298
 30
0.0
 10
70.16040737672556
 20
-118.9150388591602
 30
0.0
  0
SPLINE
  5
70
330
1F
100
AcDbEntity
  8
_U+30EC_U+30A4_U+30E4_U+30FC 1
 62
     7
420
 16777215
370
     9
100
AcDbSpline
210
0.0
220
0.0
230
1.0
 70
    11
 71
     3
 72
    17
 73
    13
 74
     0
 42
0.0000000001
 43
0.0000000001
 12
1.0
 22
0.0
 32
0.0
 13
1.0
 23
0.0
 33
0.0
 40
0.0
 40
0.0
 40
0.0
 40
0.0
 40
1.0
 40
1.0
 40
1.0
 40
2.0
 40
2.0
 40
2.0
 40
3.0
 40
3.0
 40
3.0
 40
4.0
 40
4.0
 40
4.0
 40
4.0
 10
108.2865825151569
 20
-114.8153730268517
 30
0.0
 10
108.2865825151569
 20
-114.8705121935045
 30
0.0
 10
108.3313852917917
 20
-114.9152796934934
 30
0.0
 10
108.3868419570435
 20
-114.9152796934934
 30
0.0
 10
108.4419458445266
 20
-114.9152796934934
 30
0.0
 10
108.4867486211614
 20
-114.8705121935045
 30
0.0
 10
108.4867486211614
 20
-114.8153730268517
 30
0.0
 10
108.4867486211614
 20
-114.7602691379765
 30
0.0
 10
108.4419458445266
 20
-114.7154663602101
 30
0.0
 10
108.3868419570435
 20
-114.7154663602101
 30
0.0
 10
108.3313852917917
 20
-114.7154663602101
 30
0.0
 10
108.2865825151569
 20
-114.7602691379765
 30
0.0
 10
108.2865825151569
 20
-114.8153730268517
 30
0.0
  0
SPLINE
  5
71
330
1F
100
AcDbEntity
  8
_U+30EC_U+30A4_U+30E4_U+30FC 1
 62
     7
420
 16777215
370
     9
100
AcDbSpline
210
0.0
220
0.0
230
1.0
 70
    11
 71
     3
 72
    17
 73
    13
 74
     0
 42
0.0000000001
 43
0.0000000001
 12
1.0
 22
0.0
 32
0.0
 13
1.0
 23
0.0
 33
0.0
 40
0.0
 40
0.0
 40
0.0
 40
0.0
 40
1.0
 40
1.0
 40
1.0
 40
2.0
 40
2.0
 40
2.0
 40
3.0
 40
3.0
 40
3.0
 40
4.0
 40
4.0
 40
4.0
 40
4.0
 10
70.16040737672556
 20
-143.9147419084657
 30
0.0
 10
70.16040737672556
 20
-143.9698457973406
 30
0.0
 10
70.20517487558344
 20
-144.0146485751073
 30
0.0
 10
70.26031404084338
 20
-144.0146485751073
 30
0.0
 10
70.31541792832645
 20
-144.0146485751073
 30
0.0
 10
70.36022070496122
 20
-143.9698457973406
 30
0.0
 10
70.36022070496122
 20
-143.9147419084657
 30
0.0
 10
70.36022070496122
 20
-143.8596027418126
 30
0.0
 10
70.31541792832645
 20
-143.8148352418241
 30
0.0
 10
70.26031404084338
 20
-143.8148352418241
 30
0.0
 10
70.20517487558344
 20
-143.8148352418241
 30
0.0
 10
70.16040737672556
 20
-143.8596027418126
 30
0.0
 10
70.16040737672556
 20
-143.9147419084657
 30
0.0
  0
POLYLINE
  5
72
330
1F
100
AcDbEntity
  8
_U+30EC_U+30A4_U+30E4_U+30FC 1
 62
     7
420
 16777215
370
     9
100
AcDb2dPolyline
 66
     1
 10
0.0
 20
0.0
 30
0.0
  0
VERTEX
  5
73
330
72
100
AcDbEntity
  8
_U+30EC_U+30A4_U+30E4_U+30FC 1
 62
     7
420
 16777215
370
     9
100
AcDbVertex
100
AcDb2dVertex
 10
108.3868419570435
 20
-114.8153730268517
 30
0.0
  0
VERTEX
  5
74
330
72
100
AcDbEntity
  8
_U+30EC_U+30A4_U+30E4_U+30FC 1
 62
     7
420
 16777215
370
     9
100
AcDbVertex
100
AcDb2dVertex
 10
83.3868220392916
 20
-114.8153730268517
 30
0.0
  0
SEQEND
  5
75
330
72
100
AcDbEntity
  8
_U+30EC_U+30A4_U+30E4_U+30FC 1
 62
     7
420
 16777215
370
     9
  0
POLYLINE
  5
76
330
1F
100
AcDbEntity
  8
_U+30EC_U+30A4_U+30E4_U+30FC 1
 62
     7
420
 16777215
370
     9
100
AcDb2dPolyline
 66
     1
 10
0.0
 20
0.0
 30
0.0
  0
VERTEX
  5
77
330
76
100
AcDbEntity
  8
_U+30EC_U+30A4_U+30E4_U+30FC 1
 62
     7
420
 16777215
370
     9
100
AcDbVertex
100
AcDb2dVertex
 10
108.3868419570435
 20
-117.0753733040644
 30
0.0
  0
VERTEX
  5
78
330
76
100
AcDbEntity
  8
_U+30EC_U+30A4_U+30E4_U+30FC 1
 62
     7
420
 16777215
370
     9
100
AcDbVertex
100
AcDb2dVertex
 10
108.3868419570435
 20
-113.8156360826573
 30
0.0
  0
SEQEND
  5
79
330
76
100
AcDbEntity
  8
_U+30EC_U+30A4_U+30E4_U+30FC 1
 62
     7
420
 16777215
370
     9
  0
POLYLINE
  5
7A
330
1F
100
AcDbEntity
  8
_U+30EC_U+30A4_U+30E4_U+30FC 1
 62
     7
420
 16777215
370
     9
100
AcDb2dPolyline
 66
     1
 10
0.0
 20
0.0
 30
0.0
  0
VERTEX
  5
7B
330
7A
100
AcDbEntity
  8
_U+30EC_U+30A4_U+30E4_U+30FC 1
 62
     7
420
 16777215
370
     9
100
AcDbVertex
100
AcDb2dVertex
 10
83.3868220392916
 20
-116.8755599707811
 30
0.0
  0
VERTEX
  5
7C
330
7A
100
AcDbEntity
  8
_U+30EC_U+30A4_U+30E4_U+30FC 1
 62
     7
420
 16777215
370
     9
100
AcDbVertex
100
AcDb2dVertex
 10
83.3868220392916
 20
-113.8156360826573
 30
0.0
  0
SEQEND
  5
7D
330
7A
100
AcDbEntity
  8
_U+30EC_U+30A4_U+30E4_U+30FC 1
 62
     7
420
 16777215
370
     9
  0
INSERT
  5
7F
330
1F
100
AcDbEntity
  8
_U+30EC_U+30A4_U+30E4_U+30FC 1
100
AcDbBlockReference
  2
block 3
 10
0.0
 20
0.0
 30
0.0
  0
SPLINE
  5
86
330
1F
100
AcDbEntity
  8
_U+30EC_U+30A4_U+30E4_U+30FC 1
 62
     7
420
 16777215
370
     9
100
AcDbSpline
210
0.0
220
0.0
230
1.0
 70
    11
 71
     3
 72
    17
 73
    13
 74
     0
 42
0.0000000001
 43
0.0000000001
 12
1.0
 22
0.0
 32
0.0
 13
1.0
 23
0.0
 33
0.0
 40
0.0
 40
0.0
 40
0.0
 40
0.0
 40
1.0
 40
1.0
 40
1.0
 40
2.0
 40
2.0
 40
2.0
 40
3.0
 40
3.0
 40
3.0
 40
4.0
 40
4.0
 40
4.0
 40
4.0
 10
111.2335116066411
 20
-125.0245855242996
 30
0.0
 10
111.2886507719011
 20
-125.0245855242996
 30
0.0
 10
111.333418270759
 20
-124.9797827465328
 30
0.0
 10
111.333418270759
 20
-124.9246788576576
 30
0.0
 10
111.333418270759
 20
-124.8695396910049
 30
0.0
 10
111.2886507719011
 20
-124.824772191016
 30
0.0
 10
111.2335116066411
 20
-124.824772191016
 30
0.0
 10
111.1784077191581
 20
-124.824772191016
 30
0.0
 10
111.1336049425233
 20
-124.8695396910049
 30
0.0
 10
111.1336049425233
 20
-124.9246788576576
 30
0.0
 10
111.1336049425233
 20
-124.9797827465328
 30
0.0
 10
111.1784077191581
 20
-125.0245855242996
 30
0.0
 10
111.2335116066411
 20
-125.0245855242996
 30
0.0
  0
SPLINE
  5
87
330
1F
100
AcDbEntity
  8
_U+30EC_U+30A4_U+30E4_U+30FC 1
 62
     7
420
 16777215
370
     9
100
AcDbSpline
210
0.0
220
0.0
230
1.0
 70
    11
 71
     3
 72
    17
 73
    13
 74
     0
 42
0.0000000001
 43
0.0000000001
 12
1.0
 22
0.0
 32
0.0
 13
1.0
 23
0.0
 33
0.0
 40
0.0
 40
0.0
 40
0.0
 40
0.0
 40
1.0
 40
1.0
 40
1.0
 40
2.0
 40
2.0
 40
2.0
 40
3.0
 40
3.0
 40
3.0
 40
4.0
 40
4.0
 40
4.0
 40
4.0
 10
111.2335116066411
 20
-119.0252819146883
 30
0.0
 10
111.2886507719011
 20
-119.0252819146883
 30
0.0
 10
111.333418270759
 20
-118.9805144146994
 30
0.0
 10
111.333418270759
 20
-118.9247049702689
 30
0.0
 10
111.333418270759
 20
-118.8695658036159
 30
0.0
 10
111.2886507719011
 20
-118.8247983036273
 30
0.0
 10
111.2335116066411
 20
-118.8247983036273
 30
0.0
 10
111.1784077191581
 20
-118.8247983036273
 30
0.0
 10
111.1336049425233
 20
-118.8695658036159
 30
0.0
 10
111.1336049425233
 20
-118.9247049702689
 30
0.0
 10
111.1336049425233
 20
-118.9805144146994
 30
0.0
 10
111.1784077191581
 20
-119.0252819146883
 30
0.0
 10
111.2335116066411
 20
-119.0252819146883
 30
0.0
  0
POLYLINE
  5
88
330
1F
100
AcDbEntity
  8
_U+30EC_U+30A4_U+30E4_U+30FC 1
 62
     7
420
 16777215
370
     9
100
AcDb2dPolyline
 66
     1
 10
0.0
 20
0.0
 30
0.0
  0
VERTEX
  5
89
330
88
100
AcDbEntity
  8
_U+30EC_U+30A4_U+30E4_U+30FC 1
 62
     7
420
 16777215
370
     9
100
AcDbVertex
100
AcDb2dVertex
 10
111.2335116066411
 20
-118.9247049702689
 30
0.0
  0
VERTEX
  5
8A
330
88
100
AcDbEntity
  8
_U+30EC_U+30A4_U+30E4_U+30FC 1
 62
     7
420
 16777215
370
     9
100
AcDbVertex
100
AcDb2dVertex
 10
111.2335116066411
 20
-124.9246788576576
 30
0.0
  0
SEQEND
  5
8B
330
88
100
AcDbEntity
  8
_U+30EC_U+30A4_U+30E4_U+30FC 1
 62
     7
420
 16777215
370
     9
  0
POLYLINE
  5
8C
330
1F
100
AcDbEntity
  8
_U+30EC_U+30A4_U+30E4_U+30FC 1
 62
     7
420
 16777215
370
     9
100
AcDb2dPolyline
 66
     1
 10
0.0
 20
0.0
 30
0.0
  0
VERTEX
  5
8D
330
8C
100
AcDbEntity
  8
_U+30EC_U+30A4_U+30E4_U+30FC 1
 62
     7
420
 16777215
370
     9
100
AcDbVertex
100
AcDb2dVertex
 10
112.2215715814336
 20
-118.9247049702689
 30
0.0
  0
VERTEX
  5
8E
330
8C
100
AcDbEntity
  8
_U+30EC_U+30A4_U+30E4_U+30FC 1
 62
     7
420
 16777215
370
     9
100
AcDbVertex
100
AcDb2dVertex
 10
108.9618344423742
 20
-118.9247049702689
 30
0.0
  0
SEQEND
  5
8F
330
8C
100
AcDbEntity
  8
_U+30EC_U+30A4_U+30E4_U+30FC 1
 62
     7
420
 16777215
370
     9
  0
POLYLINE
  5
90
330
1F
100
AcDbEntity
  8
_U+30EC_U+30A4_U+30E4_U+30FC 1
 62
     7
420
 16777215
370
     9
100
AcDb2dPolyline
 66
     1
 10
0.0
 20
0.0
 30
0.0
  0
VERTEX
  5
91
330
90
100
AcDbEntity
  8
_U+30EC_U+30A4_U+30E4_U+30FC 1
 62
     7
420
 16777215
370
     9
100
AcDbVertex
100
AcDb2dVertex
 10
112.2215715814336
 20
-124.9246788576576
 30
0.0
  0
VERTEX
  5
92
330
90
100
AcDbEntity
  8
_U+30EC_U+30A4_U+30E4_U+30FC 1
 62
     7
420
 16777215
370
     9
100
AcDbVertex
100
AcDb2dVertex
 10
109.1616477706099
 20
-124.9246788576576
 30
0.0
  0
SEQEND
  5
93
330
90
100
AcDbEntity
  8
_U+30EC_U+30A4_U+30E4_U+30FC 1
 62
     7
420
 16777215
370
     9
  0
INSERT
  5
95
330
1F
100
AcDbEntity
  8
_U+30EC_U+30A4_U+30E4_U+30FC 1
100
AcDbBlockReference
  2
block 4
 10
0.0
 20
0.0
 30
0.0
  0
POLYLINE
  5
9B
330
1F
100
AcDbEntity
  8
_U+30EC_U+30A4_U+30E4_U+30FC 1
 62
     7
420
 16777215
370
     9
100
AcDb2dPolyline
 66
     1
 10
0.0
 20
0.0
 30
0.0
  0
VERTEX
  5
9C
330
9B
100
AcDbEntity
  8
_U+30EC_U+30A4_U+30E4_U+30FC 1
 62
     7
420
 16777215
370
     9
100
AcDbVertex
100
AcDb2dVertex
 10
70.26031404084338
 20
-118.9150388591602
 30
0.0
  0
VERTEX
  5
9D
330
9B
100
AcDbEntity
  8
_U+30EC_U+30A4_U+30E4_U+30FC 1
 62
     7
420
 16777215
370
     9
100
AcDbVertex
100
AcDb2dVertex
 10
70.26031404084338
 20
-143.9147419084657
 30
0.0
  0
SEQEND
  5
9E
330
9B
100
AcDbEntity
  8
_U+30EC_U+30A4_U+30E4_U+30FC 1
 62
     7
420
 16777215
370
     9
  0
POLYLINE
  5
9F
330
1F
100
AcDbEntity
  8
_U+30EC_U+30A4_U+30E4_U+30FC 1
 62
     7
420
 16777215
370
     9
100
AcDb2dPolyline
 66
     1
 10
0.0
 20
0.0
 30
0.0
  0
VERTEX
  5
A0
330
9F
100
AcDbEntity
  8
_U+30EC_U+30A4_U+30E4_U+30FC 1
 62
     7
420
 16777215
370
     9
100
AcDbVertex
100
AcDb2dVertex
 10
68.9704526848616
 20
-118.9150388591602
 30
0.0
  0
VERTEX
  5
A1
330
9F
100
AcDbEntity
  8
_U+30EC_U+30A4_U+30E4_U+30FC 1
 62
     7
420
 16777215
370
     9
100
AcDbVertex
100
AcDb2dVertex
 10
73.33057424029231
 20
-118.9150388591602
 30
0.0
  0
SEQEND
  5
A2
330
9F
100
AcDbEntity
  8
_U+30EC_U+30A4_U+30E4_U+30FC 1
 62
     7
420
 16777215
370
     9
  0
POLYLINE
  5
A3
330
1F
100
AcDbEntity
  8
_U+30EC_U+30A4_U+30E4_U+30FC 1
 62
     7
420
 16777215
370
     9
100
AcDb2dPolyline
 66
     1
 10
0.0
 20
0.0
 30
0.0
  0
VERTEX
  5
A4
330
A3
100
AcDbEntity
  8
_U+30EC_U+30A4_U+30E4_U+30FC 1
 62
     7
420
 16777215
370
     9
100
AcDbVertex
100
AcDb2dVertex
 10
68.9704526848616
 20
-143.9147419084657
 30
0.0
  0
VERTEX
  5
A5
330
A3
100
AcDbEntity
  8
_U+30EC_U+30A4_U+30E4_U+30FC 1
 62
     7
420
 16777215
370
     9
100
AcDbVertex
100
AcDb2dVertex
 10
73.33057424029231
 20
-143.9147419084657
 30
0.0
  0
SEQEND
  5
A6
330
A3
100
AcDbEntity
  8
_U+30EC_U+30A4_U+30E4_U+30FC 1
 62
     7
420
 16777215
370
     9
  0
INSERT
  5
A8
330
1F
100
AcDbEntity
  8
_U+30EC_U+30A4_U+30E4_U+30FC 1
100
AcDbBlockReference
  2
block 5
 10
0.0
 20
0.0
 30
0.0
  0
POLYLINE
  5
AF
330
1F
100
AcDbEntity
  8
_U+30EC_U+30A4_U+30E4_U+30FC 1
 62
     7
420
 16777215
370
    25
100
AcDb2dPolyline
 66
     1
 10
0.0
 20
0.0
 30
0.0
  0
VERTEX
  5
B0
330
AF
100
AcDbEntity
  8
_U+30EC_U+30A4_U+30E4_U+30FC 1
 62
     7
420
 16777215
370
    25
100
AcDbVertex
100
AcDb2dVertex
 10
76.28163083167124
 20
-119.8342013589303
 30
0.0
  0
VERTEX
  5
B1
330
AF
100
AcDbEntity
  8
_U+30EC_U+30A4_U+30E4_U+30FC 1
 62
     7
420
 16777215
370
    25
100
AcDbVertex
100
AcDb2dVertex
 10
82.28163984526493
 20
-119.8342013589303
 30
0.0
  0
SEQEND
  5
B2
330
AF
100
AcDbEntity
  8
_U+30EC_U+30A4_U+30E4_U+30FC 1
 62
     7
420
 16777215
370
    25
  0
POLYLINE
  5
B3
330
1F
100
AcDbEntity
  8
_U+30EC_U+30A4_U+30E4_U+30FC 1
 62
     7
420
 16777215
370
    25
100
AcDb2dPolyline
 66
     1
 10
0.0
 20
0.0
 30
0.0
  0
VERTEX
  5
B4
330
B3
100
AcDbEntity
  8
_U+30EC_U+30A4_U+30E4_U+30FC 1
 62
     7
420
 16777215
370
    25
100
AcDbVertex
100
AcDb2dVertex
 10
75.28704446815637
 20
-118.8151321925186
 30
0.0
  0
VERTEX
  5
B5
330
B3
100
AcDbEntity
  8
_U+30EC_U+30A4_U+30E4_U+30FC 1
 62
     7
420
 16777215
370
    25
100
AcDbVertex
100
AcDb2dVertex
 10
83.28691537517376
 20
-118.8151321925186
 30
0.0
  0
SEQEND
  5
B6
330
B3
100
AcDbEntity
  8
_U+30EC_U+30A4_U+30E4_U+30FC 1
 62
     7
420
 16777215
370
    25
  0
POLYLINE
  5
B7
330
1F
100
AcDbEntity
  8
_U+30EC_U+30A4_U+30E4_U+30FC 1
 62
     7
420
 16777215
370
    25
100
AcDb2dPolyline
 66
     1
 10
0.0
 20
0.0
 30
0.0
  0
VERTEX
  5
B8
330
B7
100
AcDbEntity
  8
_U+30EC_U+30A4_U+30E4_U+30FC 1
 62
     7
420
 16777215
370
    25
100
AcDbVertex
100
AcDb2dVertex
 10
83.28691537517376
 20
-124.9515605243177
 30
0.0
  0
VERTEX
  5
B9
330
B7
100
AcDbEntity
  8
_U+30EC_U+30A4_U+30E4_U+30FC 1
 62
     7
420
 16777215
370
    25
100
AcDbVertex
100
AcDb2dVertex
 10
83.28691537517376
 20
-118.9515513591509
 30
0.0
  0
SEQEND
  5
BA
330
B7
100
AcDbEntity
  8
_U+30EC_U+30A4_U+30E4_U+30FC 1
 62
     7
420
 16777215
370
    25
  0
POLYLINE
  5
BB
330
1F
100
AcDbEntity
  8
_U+30EC_U+30A4_U+30E4_U+30FC 1
 62
     7
420
 16777215
370
    25
100
AcDb2dPolyline
 66
     1
 10
0.0
 20
0.0
 30
0.0
  0
VERTEX
  5
BC
330
BB
100
AcDbEntity
  8
_U+30EC_U+30A4_U+30E4_U+30FC 1
 62
     7
420
 16777215
370
    25
100
AcDbVertex
100
AcDb2dVertex
 10
82.28163984526493
 20
-126.011939968497
 30
0.0
  0
VERTEX
  5
BD
330
BB
100
AcDbEntity
  8
_U+30EC_U+30A4_U+30E4_U+30FC 1
 62
     7
420
 16777215
370
    25
100
AcDbVertex
100
AcDb2dVertex
 10
82.28163984526493
 20
-119.8342013589303
 30
0.0
  0
SEQEND
  5
BE
330
BB
100
AcDbEntity
  8
_U+30EC_U+30A4_U+30E4_U+30FC 1
 62
     7
420
 16777215
370
    25
  0
ENDSEC
  0
SECTION
  2
OBJECTS
  0
DICTIONARY
  5
C
330
0
100
AcDbDictionary
281
     1
  3
ACAD_GROUP
350
D
  3
ACAD_LAYOUT
350
1A
  3
ACAD_MATERIAL
350
3B
  3
ACAD_MLEADERSTYLE
350
C0
  3
ACAD_MLINESTYLE
350
17
  3
ACAD_PLOTSETTINGS
350
19
  3
ACAD_PLOTSTYLENAME
350
E
  3
ACAD_TABLESTYLE
350
BF
  3
ACAD_VISUALSTYLE
350
2A
  0
SUN
  5
3F
330
29
100
AcDbSun
 90
        1
290
     0
 63
     7
421
 16777215
 40
1.0
291
     1
 91
  2455826
 92
 54000000
292
     0
 70
     2
 71
   256
280
     1
  0
DICTIONARY
  5
D
102
{ACAD_REACTORS
330
C
102
}
330
C
100
AcDbDictionary
281
     1
  0
DICTIONARY
  5
1A
102
{ACAD_REACTORS
330
C
102
}
330
C
100
AcDbDictionary
281
     1
  3
Layout1
350
1E
  3
Layout2
350
26
  3
Model
350
22
  0
DICTIONARY
  5
3B
102
{ACAD_REACTORS
330
C
102
}
330
C
100
AcDbDictionary
281
     1
  3
ByBlock
350
3D
  3
ByLayer
350
3C
  3
Global
350
3E
  0
DICTIONARY
  5
C0
102
{ACAD_REACTORS
330
C
102
}
330
C
100
AcDbDictionary
281
     1
  0
DICTIONARY
  5
17
102
{ACAD_REACTORS
330
C
102
}
330
C
100
AcDbDictionary
281
     1
  3
Standard
350
18
  0
DICTIONARY
  5
19
102
{ACAD_REACTORS
330
C
102
}
330
C
100
AcDbDictionary
281
     1
  0
ACDBDICTIONARYWDFLT
  5
E
102
{ACAD_REACTORS
330
C
102
}
330
C
100
AcDbDictionary
281
     1
  3
Normal
350
F
100
AcDbDictionaryWithDefault
340
F
  0
DICTIONARY
  5
BF
102
{ACAD_REACTORS
330
C
102
}
330
C
100
AcDbDictionary
281
     1
  0
DICTIONARY
  5
2A
102
{ACAD_REACTORS
330
C
102
}
330
C
100
AcDbDictionary
281
     1
  3
2dWireframe
350
2F
  3
3D Hidden
350
31
  3
3dWireframe
350
30
  3
Basic
350
32
  3
Brighten
350
36
  3
ColorChange
350
3A
  3
Conceptual
350
34
  3
Dim
350
35
  3
Facepattern
350
39
  3
Flat
350
2B
  3
FlatWithEdges
350
2C
  3
Gouraud
350
2D
  3
GouraudWithEdges
350
2E
  3
Linepattern
350
38
  3
Realistic
350
33
  3
Thicken
350
37
  0
LAYOUT
  5
1E
102
{ACAD_REACTORS
330
1A
102
}
330
1A
100
AcDbPlotSettings
  1

  2
none_device
  4

  6

 40
0.0
 41
0.0
 42
0.0
 43
0.0
 44
0.0
 45
0.0
 46
0.0
 47
0.0
 48
0.0
 49
0.0
140
0.0
141
0.0
142
1.0
143
1.0
 70
   688
 72
     0
 73
     0
 74
     5
  7

 75
    16
 76
     0
 77
     2
 78
   300
147
1.0
148
0.0
149
0.0
100
AcDbLayout
  1
Layout1
 70
     1
 71
     1
 10
0.0
 20
0.0
 11
12.0
 21
9.0
 12
0.0
 22
0.0
 32
0.0
 14
1.000000000000000E+20
 24
1.000000000000000E+20
 34
1.000000000000000E+20
 15
-1.000000000000000E+20
 25
-1.000000000000000E+20
 35
-1.000000000000000E+20
146
0.0
 13
0.0
 23
0.0
 33
0.0
 16
1.0
 26
0.0
 36
0.0
 17
0.0
 27
1.0
 37
0.0
 76
     0
330
1B
  0
LAYOUT
  5
26
102
{ACAD_REACTORS
330
1A
102
}
330
1A
100
AcDbPlotSettings
  1

  2
none_device
  4

  6

 40
0.0
 41
0.0
 42
0.0
 43
0.0
 44
0.0
 45
0.0
 46
0.0
 47
0.0
 48
0.0
 49
0.0
140
0.0
141
0.0
142
1.0
143
1.0
 70
   688
 72
     0
 73
     0
 74
     5
  7

 75
    16
 76
     0
 77
     2
 78
   300
147
1.0
148
0.0
149
0.0
100
AcDbLayout
  1
Layout2
 70
     1
 71
     2
 10
0.0
 20
0.0
 11
0.0
 21
0.0
 12
0.0
 22
0.0
 32
0.0
 14
0.0
 24
0.0
 34
0.0
 15
0.0
 25
0.0
 35
0.0
146
0.0
 13
0.0
 23
0.0
 33
0.0
 16
1.0
 26
0.0
 36
0.0
 17
0.0
 27
1.0
 37
0.0
 76
     0
330
23
  0
LAYOUT
  5
22
102
{ACAD_REACTORS
330
1A
102
}
330
1A
100
AcDbPlotSettings
  1

  2
none_device
  4

  6

 40
0.0
 41
0.0
 42
0.0
 43
0.0
 44
0.0
 45
0.0
 46
0.0
 47
0.0
 48
0.0
 49
0.0
140
0.0
141
0.0
142
1.0
143
1.0
 70
  1712
 72
     0
 73
     0
 74
     0
  7

 75
     0
 76
     0
 77
     2
 78
   300
147
1.0
148
0.0
149
0.0
100
AcDbLayout
  1
Model
 70
     1
 71
     0
 10
0.0
 20
0.0
 11
12.0
 21
9.0
 12
0.0
 22
0.0
 32
0.0
 14
1.000000000000000E+20
 24
1.000000000000000E+20
 34
1.000000000000000E+20
 15
-1.000000000000000E+20
 25
-1.000000000000000E+20
 35
-1.000000000000000E+20
146
0.0
 13
0.0
 23
0.0
 33
0.0
 16
1.0
 26
0.0
 36
0.0
 17
0.0
 27
1.0
 37
0.0
 76
     0
330
1F
331
29
  0
MATERIAL
  5
3D
102
{ACAD_REACTORS
330
3B
102
}
330
3B
100
AcDbMaterial
  1
ByBlock
 72
     1
 94
      127
  0
MATERIAL
  5
3C
102
{ACAD_REACTORS
330
3B
102
}
330
3B
100
AcDbMaterial
  1
ByLayer
 72
     1
 94
      127
  0
MATERIAL
  5
3E
102
{ACAD_REACTORS
330
3B
102
}
330
3B
100
AcDbMaterial
  1
Global
 72
     1
 94
      127
  0
MLINESTYLE
  5
18
102
{ACAD_REACTORS
330
17
102
}
330
17
100
AcDbMlineStyle
  2
Standard
 70
     0
  3

 62
   256
 51
90.0
 52
90.0
 71
     2
 49
0.5
 62
   256
  6
BYLAYER
 49
-0.5
 62
   256
  6
BYLAYER
  0
ACDBPLACEHOLDER
  5
F
102
{ACAD_REACTORS
330
E
102
}
330
E
  0
VISUALSTYLE
  5
2F
102
{ACAD_REACTORS
330
2A
102
}
330
2A
100
AcDbVisualStyle
  2
2dWireframe
 70
     4
177
     2
291
     0
 71
     0
176
     1
 72
     2
176
     1
 73
     0
176
     1
 90
        0
176
     1
 40
-0.6
176
     1
 41
-30.0
176
     1
 62
     5
 63
     7
421
 16777215
176
     1
 74
     1
176
     1
 91
        4
176
     1
 64
     7
176
     1
 65
   257
176
     1
 75
     1
176
     1
175
     1
176
     1
 42
1.0
176
     1
 92
        0
176
     1
 66
   257
176
     1
 43
1.0
176
     1
 76
     1
176
     1
 77
     6
176
     1
 78
     2
176
     1
 67
     7
176
     1
 79
     5
176
     1
170
     0
176
     1
171
     0
176
     1
290
     0
176
     1
 93
        1
176
     1
 44
0.0
176
     1
173
     0
176
     1
  0
VISUALSTYLE
  5
31
102
{ACAD_REACTORS
330
2A
102
}
330
2A
100
AcDbVisualStyle
  2
3D Hidden
 70
     6
177
     2
291
     0
 71
     1
176
     1
 72
     2
176
     1
 73
     2
176
     1
 90
        0
176
     1
 40
-0.6
176
     1
 41
-30.0
176
     1
 62
     5
 63
     7
421
 16777215
176
     1
 74
     2
176
     1
 91
        2
176
     1
 64
     7
176
     1
 65
   257
176
     1
 75
     2
176
     1
175
     1
176
     1
 42
40.0
176
     1
 92
        0
176
     1
 66
   257
176
     1
 43
1.0
176
     1
 76
     1
176
     1
 77
     6
176
     1
 78
     2
176
     1
 67
     7
176
     1
 79
     3
176
     1
170
     0
176
     1
171
     0
176
     1
290
     0
176
     1
 93
        1
176
     1
 44
0.0
176
     1
173
     0
176
     1
  0
VISUALSTYLE
  5
30
102
{ACAD_REACTORS
330
2A
102
}
330
2A
100
AcDbVisualStyle
  2
3dWireframe
 70
     5
177
     2
291
     0
 71
     0
176
     1
 72
     2
176
     1
 73
     0
176
     1
 90
        0
176
     1
 40
-0.6
176
     1
 41
-30.0
176
     1
 62
     5
 63
     7
421
 16777215
176
     1
 74
     1
176
     1
 91
        4
176
     1
 64
     7
176
     1
 65
   257
176
     1
 75
     1
176
     1
175
     1
176
     1
 42
1.0
176
     1
 92
        0
176
     1
 66
   257
176
     1
 43
1.0
176
     1
 76
     1
176
     1
 77
     6
176
     1
 78
     2
176
     1
 67
     7
176
     1
 79
     5
176
     1
170
     0
176
     1
171
     0
176
     1
290
     0
176
     1
 93
        1
176
     1
 44
0.0
176
     1
173
     0
176
     1
  0
VISUALSTYLE
  5
32
102
{ACAD_REACTORS
330
2A
102
}
330
2A
100
AcDbVisualStyle
  2
Basic
 70
     7
177
     2
291
     1
 71
     1
176
     1
 72
     0
176
     1
 73
     1
176
     1
 90
        0
176
     1
 40
-0.6
176
     1
 41
-30.0
176
     1
 62
     5
 63
     7
421
 16777215
176
     1
 74
     0
176
     1
 91
        4
176
     1
 64
     7
176
     1
 65
   257
176
     1
 75
     1
176
     1
175
     1
176
     1
 42
1.0
176
     1
 92
        8
176
     1
 66
     7
176
     1
 43
1.0
176
     1
 76
     1
176
     1
 77
     6
176
     1
 78
     2
176
     1
 67
     7
176
     1
 79
     5
176
     1
170
     0
176
     1
171
     0
176
     1
290
     0
176
     1
 93
        1
176
     1
 44
0.0
176
     1
173
     0
176
     1
  0
VISUALSTYLE
  5
36
102
{ACAD_REACTORS
330
2A
102
}
330
2A
100
AcDbVisualStyle
  2
Brighten
 70
    12
177
     2
291
     1
 71
     2
176
     1
 72
     2
176
     1
 73
     0
176
     1
 90
        0
176
     1
 40
-0.6
176
     1
 41
-30.0
176
     1
 62
     5
 63
     7
421
 16777215
176
     1
 74
     1
176
     1
 91
        4
176
     1
 64
     7
176
     1
 65
   257
176
     1
 75
     1
176
     1
175
     1
176
     1
 42
1.0
176
     1
 92
        8
176
     1
 66
     7
176
     1
 43
1.0
176
     1
 76
     1
176
     1
 77
     6
176
     1
 78
     2
176
     1
 67
     7
176
     1
 79
     5
176
     1
170
     0
176
     1
171
     0
176
     1
290
     0
176
     1
 93
        1
176
     1
 44
50.0
176
     1
173
     0
176
     1
  0
VISUALSTYLE
  5
3A
102
{ACAD_REACTORS
330
2A
102
}
330
2A
100
AcDbVisualStyle
  2
ColorChange
 70
    16
177
     2
291
     1
 71
     2
176
     1
 72
     2
176
     1
 73
     3
176
     1
 90
        0
176
     1
 40
-0.6
176
     1
 41
-30.0
176
     1
 62
     5
 63
     8
421
  8421504
176
     1
 74
     1
176
     1
 91
        4
176
     1
 64
     7
176
     1
 65
   257
176
     1
 75
     1
176
     1
175
     1
176
     1
 42
1.0
176
     1
 92
        8
176
     1
 66
     8
424
  8421504
176
     1
 43
1.0
176
     1
 76
     1
176
     1
 77
     6
176
     1
 78
     2
176
     1
 67
     7
176
     1
 79
     5
176
     1
170
     0
176
     1
171
     0
176
     1
290
     0
176
     1
 93
        1
176
     1
 44
0.0
176
     1
173
     0
176
     1
  0
VISUALSTYLE
  5
34
102
{ACAD_REACTORS
330
2A
102
}
330
2A
100
AcDbVisualStyle
  2
Conceptual
 70
     9
177
     2
291
     0
 71
     3
176
     1
 72
     2
176
     1
 73
     0
176
     1
 90
        0
176
     1
 40
-0.6
176
     1
 41
-30.0
176
     1
 62
     5
 63
     7
421
 16777215
176
     1
 74
     2
176
     1
 91
        2
176
     1
 64
     7
176
     1
 65
   257
176
     1
 75
     1
176
     1
175
     1
176
     1
 42
40.0
176
     1
 92
        8
176
     1
 66
     7
176
     1
 43
1.0
176
     1
 76
     1
176
     1
 77
     6
176
     1
 78
     2
176
     1
 67
     7
176
     1
 79
     3
176
     1
170
     0
176
     1
171
     0
176
     1
290
     0
176
     1
 93
        1
176
     1
 44
0.0
176
     1
173
     0
176
     1
  0
VISUALSTYLE
  5
35
102
{ACAD_REACTORS
330
2A
102
}
330
2A
100
AcDbVisualStyle
  2
Dim
 70
    11
177
     2
291
     1
 71
     2
176
     1
 72
     2
176
     1
 73
     0
176
     1
 90
        0
176
     1
 40
-0.6
176
     1
 41
-30.0
176
     1
 62
     5
 63
     7
421
 16777215
176
     1
 74
     1
176
     1
 91
        4
176
     1
 64
     7
176
     1
 65
   257
176
     1
 75
     1
176
     1
175
     1
176
     1
 42
1.0
176
     1
 92
        8
176
     1
 66
     7
176
     1
 43
1.0
176
     1
 76
     1
176
     1
 77
     6
176
     1
 78
     2
176
     1
 67
     7
176
     1
 79
     5
176
     1
170
     0
176
     1
171
     0
176
     1
290
     0
176
     1
 93
        1
176
     1
 44
-50.0
176
     1
173
     0
176
     1
  0
VISUALSTYLE
  5
39
102
{ACAD_REACTORS
330
2A
102
}
330
2A
100
AcDbVisualStyle
  2
Facepattern
 70
    15
177
     2
291
     1
 71
     2
176
     1
 72
     2
176
     1
 73
     0
176
     1
 90
        0
176
     1
 40
-0.6
176
     1
 41
-30.0
176
     1
 62
     5
 63
     7
421
 16777215
176
     1
 74
     1
176
     1
 91
        4
176
     1
 64
     7
176
     1
 65
   257
176
     1
 75
     1
176
     1
175
     1
176
     1
 42
1.0
176
     1
 92
        8
176
     1
 66
     7
176
     1
 43
1.0
176
     1
 76
     1
176
     1
 77
     6
176
     1
 78
     2
176
     1
 67
     7
176
     1
 79
     5
176
     1
170
     0
176
     1
171
     0
176
     1
290
     0
176
     1
 93
        1
176
     1
 44
0.0
176
     1
173
     0
176
     1
  0
VISUALSTYLE
  5
2B
102
{ACAD_REACTORS
330
2A
102
}
330
2A
100
AcDbVisualStyle
  2
Flat
 70
     0
177
     2
291
     1
 71
     2
176
     1
 72
     1
176
     1
 73
     1
176
     1
 90
        2
176
     1
 40
-0.6
176
     1
 41
30.0
176
     1
 62
     5
 63
     7
421
 16777215
176
     1
 74
     0
176
     1
 91
        4
176
     1
 64
     7
176
     1
 65
   257
176
     1
 75
     1
176
     1
175
     1
176
     1
 42
1.0
176
     1
 92
        8
176
     1
 66
     7
176
     1
 43
1.0
176
     1
 76
     1
176
     1
 77
     6
176
     1
 78
     2
176
     1
 67
     7
176
     1
 79
     5
176
     1
170
     0
176
     1
171
     0
176
     1
290
     0
176
     1
 93
       13
176
     1
 44
0.0
176
     1
173
     0
176
     1
  0
VISUALSTYLE
  5
2C
102
{ACAD_REACTORS
330
2A
102
}
330
2A
100
AcDbVisualStyle
  2
FlatWithEdges
 70
     1
177
     2
291
     1
 71
     2
176
     1
 72
     1
176
     1
 73
     1
176
     1
 90
        2
176
     1
 40
-0.6
176
     1
 41
30.0
176
     1
 62
     5
 63
     7
421
 16777215
176
     1
 74
     1
176
     1
 91
        4
176
     1
 64
     7
176
     1
 65
   257
176
     1
 75
     1
176
     1
175
     1
176
     1
 42
1.0
176
     1
 92
        0
176
     1
 66
   257
176
     1
 43
1.0
176
     1
 76
     1
176
     1
 77
     6
176
     1
 78
     2
176
     1
 67
     7
176
     1
 79
     5
176
     1
170
     0
176
     1
171
     0
176
     1
290
     0
176
     1
 93
       13
176
     1
 44
0.0
176
     1
173
     0
176
     1
  0
VISUALSTYLE
  5
2D
102
{ACAD_REACTORS
330
2A
102
}
330
2A
100
AcDbVisualStyle
  2
Gouraud
 70
     2
177
     2
291
     1
 71
     2
176
     1
 72
     2
176
     1
 73
     1
176
     1
 90
        2
176
     1
 40
-0.6
176
     1
 41
30.0
176
     1
 62
     5
 63
     7
421
 16777215
176
     1
 74
     0
176
     1
 91
        4
176
     1
 64
     7
176
     1
 65
   257
176
     1
 75
     1
176
     1
175
     1
176
     1
 42
1.0
176
     1
 92
        0
176
     1
 66
     7
176
     1
 43
1.0
176
     1
 76
     1
176
     1
 77
     6
176
     1
 78
     2
176
     1
 67
     7
176
     1
 79
     5
176
     1
170
     0
176
     1
171
     0
176
     1
290
     0
176
     1
 93
       13
176
     1
 44
0.0
176
     1
173
     0
176
     1
  0
VISUALSTYLE
  5
2E
102
{ACAD_REACTORS
330
2A
102
}
330
2A
100
AcDbVisualStyle
  2
GouraudWithEdges
 70
     3
177
     2
291
     1
 71
     2
176
     1
 72
     2
176
     1
 73
     1
176
     1
 90
        2
176
     1
 40
-0.6
176
     1
 41
30.0
176
     1
 62
     5
 63
     7
421
 16777215
176
     1
 74
     1
176
     1
 91
        4
176
     1
 64
     7
176
     1
 65
   257
176
     1
 75
     1
176
     1
175
     1
176
     1
 42
1.0
176
     1
 92
        0
176
     1
 66
   257
176
     1
 43
1.0
176
     1
 76
     1
176
     1
 77
     6
176
     1
 78
     2
176
     1
 67
     7
176
     1
 79
     5
176
     1
170
     0
176
     1
171
     0
176
     1
290
     0
176
     1
 93
       13
176
     1
 44
0.0
176
     1
173
     0
176
     1
  0
VISUALSTYLE
  5
38
102
{ACAD_REACTORS
330
2A
102
}
330
2A
100
AcDbVisualStyle
  2
Linepattern
 70
    14
177
     2
291
     1
 71
     2
176
     1
 72
     2
176
     1
 73
     0
176
     1
 90
        0
176
     1
 40
-0.6
176
     1
 41
-30.0
176
     1
 62
     5
 63
     7
421
 16777215
176
     1
 74
     1
176
     1
 91
        4
176
     1
 64
     7
176
     1
 65
   257
176
     1
 75
     7
176
     1
175
     7
176
     1
 42
1.0
176
     1
 92
        8
176
     1
 66
     7
176
     1
 43
1.0
176
     1
 76
     1
176
     1
 77
     6
176
     1
 78
     2
176
     1
 67
     7
176
     1
 79
     5
176
     1
170
     0
176
     1
171
     0
176
     1
290
     0
176
     1
 93
        1
176
     1
 44
0.0
176
     1
173
     0
176
     1
  0
VISUALSTYLE
  5
33
102
{ACAD_REACTORS
330
2A
102
}
330
2A
100
AcDbVisualStyle
  2
Realistic
 70
     8
177
     2
291
     0
 71
     2
176
     1
 72
     2
176
     1
 73
     0
176
     1
 90
        0
176
     1
 40
-0.6
176
     1
 41
-30.0
176
     1
 62
     5
 63
     7
421
 16777215
176
     1
 74
     1
176
     1
 91
        0
176
     1
 64
     7
176
     1
 65
   257
176
     1
 75
     1
176
     1
175
     1
176
     1
 42
1.0
176
     1
 92
        8
176
     1
 66
     8
424
  7895160
176
     1
 43
1.0
176
     1
 76
     1
176
     1
 77
     6
176
     1
 78
     2
176
     1
 67
     7
176
     1
 79
     5
176
     1
170
     0
176
     1
171
     0
176
     1
290
     0
176
     1
 93
       13
176
     1
 44
0.0
176
     1
173
     0
176
     1
  0
VISUALSTYLE
  5
37
102
{ACAD_REACTORS
330
2A
102
}
330
2A
100
AcDbVisualStyle
  2
Thicken
 70
    13
177
     2
291
     1
 71
     2
176
     1
 72
     2
176
     1
 73
     0
176
     1
 90
        0
176
     1
 40
-0.6
176
     1
 41
-30.0
176
     1
 62
     5
 63
     7
421
 16777215
176
     1
 74
     1
176
     1
 91
        4
176
     1
 64
     7
176
     1
 65
   257
176
     1
 75
     1
176
     1
175
     1
176
     1
 42
1.0
176
     1
 92
       12
176
     1
 66
     7
176
     1
 43
1.0
176
     1
 76
     1
176
     1
 77
     6
176
     1
 78
     2
176
     1
 67
     7
176
     1
 79
     5
176
     1
170
     0
176
     1
171
     0
176
     1
290
     0
176
     1
 93
        1
176
     1
 44
0.0
176
     1
173
     0
176
     1
  0
ENDSEC
  0
EOF
