  0
SECTION
  2
HEADER
  9
$ACADVER
  1
AC1024
  9
$ACADMAINTVER
 70
   226
  9
$DWGCODEPAGE
  3
ANSI_932
  9
$INSBASE
 10
0.0
 20
0.0
 30
0.0
  9
$EXTMIN
 10
1.000000000000000E+20
 20
1.000000000000000E+20
 30
1.000000000000000E+20
  9
$EXTMAX
 10
-1.000000000000000E+20
 20
-1.000000000000000E+20
 30
-1.000000000000000E+20
  9
$LIMMIN
 10
0.0
 20
0.0
  9
$LIMMAX
 10
12.0
 20
9.0
  9
$ORTHOMODE
 70
     0
  9
$REGENMODE
 70
     1
  9
$FILLMODE
 70
     1
  9
$QTEXTMODE
 70
     0
  9
$MIRRTEXT
 70
     0
  9
$LTSCALE
 40
1.0
  9
$ATTMODE
 70
     1
  9
$TEXTSIZE
 40
0.2
  9
$TRACEWID
 40
0.05
  9
$TEXTSTYLE
  7
Standard
  9
$CLAYER
  8
0
  9
$CELTYPE
  6
ByLayer
  9
$CECOLOR
 62
   256
  9
$CELTSCALE
 40
1.0
  9
$DISPSILH
 70
     0
  9
$DIMSCALE
 40
1.0
  9
$DIMASZ
 40
0.18
  9
$DIMEXO
 40
0.0625
  9
$DIMDLI
 40
0.38
  9
$DIMRND
 40
0.0
  9
$DIMDLE
 40
0.0
  9
$DIMEXE
 40
0.18
  9
$DIMTP
 40
0.0
  9
$DIMTM
 40
0.0
  9
$DIMTXT
 40
0.18
  9
$DIMCEN
 40
0.09
  9
$DIMTSZ
 40
0.0
  9
$DIMTOL
 70
     0
  9
$DIMLIM
 70
     0
  9
$DIMTIH
 70
     1
  9
$DIMTOH
 70
     1
  9
$DIMSE1
 70
     0
  9
$DIMSE2
 70
     0
  9
$DIMTAD
 70
     0
  9
$DIMZIN
 70
     0
  9
$DIMBLK
  1

  9
$DIMASO
 70
     1
  9
$DIMSHO
 70
     1
  9
$DIMPOST
  1

  9
$DIMAPOST
  1

  9
$DIMALT
 70
     0
  9
$DIMALTD
 70
     2
  9
$DIMALTF
 40
25.4
  9
$DIMLFAC
 40
1.0
  9
$DIMTOFL
 70
     0
  9
$DIMTVP
 40
0.0
  9
$DIMTIX
 70
     0
  9
$DIMSOXD
 70
     0
  9
$DIMSAH
 70
     0
  9
$DIMBLK1
  1

  9
$DIMBLK2
  1

  9
$DIMSTYLE
  2
Standard
  9
$DIMCLRD
 70
     0
  9
$DIMCLRE
 70
     0
  9
$DIMCLRT
 70
     0
  9
$DIMTFAC
 40
1.0
  9
$DIMGAP
 40
0.09
  9
$DIMJUST
 70
     0
  9
$DIMSD1
 70
     0
  9
$DIMSD2
 70
     0
  9
$DIMTOLJ
 70
     1
  9
$DIMTZIN
 70
     0
  9
$DIMALTZ
 70
     0
  9
$DIMALTTZ
 70
     0
  9
$DIMUPT
 70
     0
  9
$DIMDEC
 70
     4
  9
$DIMTDEC
 70
     4
  9
$DIMALTU
 70
     2
  9
$DIMALTTD
 70
     2
  9
$DIMTXSTY
  7
Standard
  9
$DIMAUNIT
 70
     0
  9
$DIMADEC
 70
     0
  9
$DIMALTRND
 40
0.0
  9
$DIMAZIN
 70
     0
  9
$DIMDSEP
 70
    46
  9
$DIMATFIT
 70
     3
  9
$DIMFRAC
 70
     0
  9
$DIMLDRBLK
  1

  9
$DIMLUNIT
 70
     2
  9
$DIMLWD
 70
    -2
  9
$DIMLWE
 70
    -2
  9
$DIMTMOVE
 70
     0
  9
$DIMFXL
 40
1.0
  9
$DIMFXLON
 70
     0
  9
$DIMJOGANG
 40
0.7853981633974483
  9
$DIMTFILL
 70
     0
  9
$DIMTFILLCLR
 70
     0
  9
$DIMARCSYM
 70
     0
  9
$DIMLTYPE
  6

  9
$DIMLTEX1
  6

  9
$DIMLTEX2
  6

  9
$DIMTXTDIRECTION
 70
     0
  9
$LUNITS
 70
     2
  9
$LUPREC
 70
     4
  9
$SKETCHINC
 40
0.1
  9
$FILLETRAD
 40
0.0
  9
$AUNITS
 70
     0
  9
$AUPREC
 70
     0
  9
$MENU
  1
.
  9
$ELEVATION
 40
0.0
  9
$PELEVATION
 40
0.0
  9
$THICKNESS
 40
0.0
  9
$LIMCHECK
 70
     0
  9
$CHAMFERA
 40
0.0
  9
$CHAMFERB
 40
0.0
  9
$CHAMFERC
 40
0.0
  9
$CHAMFERD
 40
0.0
  9
$SKPOLY
 70
     0
  9
$TDCREATE
 40
2459569.503182871
  9
$TDUCREATE
 40
2459569.128182870
  9
$TDUPDATE
 40
2459569.503182871
  9
$TDUUPDATE
 40
2459569.128182870
  9
$TDINDWG
 40
0.0000000000
  9
$TDUSRTIMER
 40
0.0000000000
  9
$USRTIMER
 70
     1
  9
$ANGBASE
 50
0.0
  9
$ANGDIR
 70
     0
  9
$PDMODE
 70
     0
  9
$PDSIZE
 40
0.0
  9
$PLINEWID
 40
0.0
  9
$SPLFRAME
 70
     0
  9
$SPLINETYPE
 70
     6
  9
$SPLINESEGS
 70
     8
  9
$HANDSEED
  5
1A1
  9
$SURFTAB1
 70
     6
  9
$SURFTAB2
 70
     6
  9
$SURFTYPE
 70
     6
  9
$SURFU
 70
     6
  9
$SURFV
 70
     6
  9
$UCSBASE
  2

  9
$UCSNAME
  2

  9
$UCSORG
 10
0.0
 20
0.0
 30
0.0
  9
$UCSXDIR
 10
1.0
 20
0.0
 30
0.0
  9
$UCSYDIR
 10
0.0
 20
1.0
 30
0.0
  9
$UCSORTHOREF
  2

  9
$UCSORTHOVIEW
 70
     0
  9
$UCSORGTOP
 10
0.0
 20
0.0
 30
0.0
  9
$UCSORGBOTTOM
 10
0.0
 20
0.0
 30
0.0
  9
$UCSORGLEFT
 10
0.0
 20
0.0
 30
0.0
  9
$UCSORGRIGHT
 10
0.0
 20
0.0
 30
0.0
  9
$UCSORGFRONT
 10
0.0
 20
0.0
 30
0.0
  9
$UCSORGBACK
 10
0.0
 20
0.0
 30
0.0
  9
$PUCSBASE
  2

  9
$PUCSNAME
  2

  9
$PUCSORG
 10
0.0
 20
0.0
 30
0.0
  9
$PUCSXDIR
 10
1.0
 20
0.0
 30
0.0
  9
$PUCSYDIR
 10
0.0
 20
1.0
 30
0.0
  9
$PUCSORTHOREF
  2

  9
$PUCSORTHOVIEW
 70
     0
  9
$PUCSORGTOP
 10
0.0
 20
0.0
 30
0.0
  9
$PUCSORGBOTTOM
 10
0.0
 20
0.0
 30
0.0
  9
$PUCSORGLEFT
 10
0.0
 20
0.0
 30
0.0
  9
$PUCSORGRIGHT
 10
0.0
 20
0.0
 30
0.0
  9
$PUCSORGFRONT
 10
0.0
 20
0.0
 30
0.0
  9
$PUCSORGBACK
 10
0.0
 20
0.0
 30
0.0
  9
$USERI1
 70
     0
  9
$USERI2
 70
     0
  9
$USERI3
 70
     0
  9
$USERI4
 70
     0
  9
$USERI5
 70
     0
  9
$USERR1
 40
0.0
  9
$USERR2
 40
0.0
  9
$USERR3
 40
0.0
  9
$USERR4
 40
0.0
  9
$USERR5
 40
0.0
  9
$WORLDVIEW
 70
     1
  9
$SHADEDGE
 70
     3
  9
$SHADEDIF
 70
    70
  9
$TILEMODE
 70
     1
  9
$MAXACTVP
 70
    64
  9
$PINSBASE
 10
0.0
 20
0.0
 30
0.0
  9
$PLIMCHECK
 70
     0
  9
$PEXTMIN
 10
1.000000000000000E+20
 20
1.000000000000000E+20
 30
1.000000000000000E+20
  9
$PEXTMAX
 10
-1.000000000000000E+20
 20
-1.000000000000000E+20
 30
-1.000000000000000E+20
  9
$PLIMMIN
 10
0.0
 20
0.0
  9
$PLIMMAX
 10
12.0
 20
9.0
  9
$UNITMODE
 70
     0
  9
$VISRETAIN
 70
     1
  9
$PLINEGEN
 70
     0
  9
$PSLTSCALE
 70
     1
  9
$TREEDEPTH
 70
  3020
  9
$CMLSTYLE
  2
Standard
  9
$CMLJUST
 70
     0
  9
$CMLSCALE
 40
1.0
  9
$PROXYGRAPHICS
 70
     1
  9
$MEASUREMENT
 70
     0
  9
$CELWEIGHT
370
    -1
  9
$ENDCAPS
280
     0
  9
$JOINSTYLE
280
     0
  9
$LWDISPLAY
290
     1
  9
$INSUNITS
 70
     4
  9
$HYPERLINKBASE
  1

  9
$STYLESHEET
  1

  9
$XEDIT
290
     1
  9
$CEPSNTYPE
380
     0
  9
$PSTYLEMODE
290
     1
  9
$FINGERPRINTGUID
  2
{8F8BBA12-93AD-684A-88DA-361C3DFC0324}
  9
$VERSIONGUID
  2
{C7A28193-C877-D74E-8E97-1677C2A79B16}
  9
$EXTNAMES
290
     1
  9
$PSVPSCALE
 40
0.0
  9
$OLESTARTUP
290
     0
  9
$SORTENTS
280
   127
  9
$INDEXCTL
280
     0
  9
$HIDETEXT
280
     1
  9
$XCLIPFRAME
280
     2
  9
$HALOGAP
280
     0
  9
$OBSCOLOR
 70
   257
  9
$OBSLTYPE
280
     0
  9
$INTERSECTIONDISPLAY
280
     0
  9
$INTERSECTIONCOLOR
 70
   257
  9
$DIMASSOC
280
     2
  9
$PROJECTNAME
  1

  9
$CAMERADISPLAY
290
     0
  9
$LENSLENGTH
 40
50.0
  9
$CAMERAHEIGHT
 40
0.0
  9
$STEPSPERSEC
 40
2.0
  9
$STEPSIZE
 40
6.0
  9
$3DDWFPREC
 40
2.0
  9
$PSOLWIDTH
 40
0.25
  9
$PSOLHEIGHT
 40
4.0
  9
$LOFTANG1
 40
1.570796326794896
  9
$LOFTANG2
 40
1.570796326794896
  9
$LOFTMAG1
 40
0.0
  9
$LOFTMAG2
 40
0.0
  9
$LOFTPARAM
 70
     7
  9
$LOFTNORMALS
280
     1
  9
$LATITUDE
 40
37.795
  9
$LONGITUDE
 40
-122.394
  9
$NORTHDIRECTION
 40
0.0
  9
$TIMEZONE
 70
 -8000
  9
$LIGHTGLYPHDISPLAY
280
     1
  9
$TILEMODELIGHTSYNCH
280
     1
  9
$CMATERIAL
347
11
  9
$SOLIDHIST
280
     0
  9
$SHOWHIST
280
     1
  9
$DWFFRAME
280
     2
  9
$DGNFRAME
280
     0
  9
$REALWORLDSCALE
290
     1
  9
$INTERFERECOLOR
 62
     1
  9
$INTERFEREOBJVS
345
33
  9
$INTERFEREVPVS
346
30
  9
$CSHADOW
280
     0
  9
$SHADOWPLANELOCATION
 40
0.0
  0
ENDSEC
  0
SECTION
  2
CLASSES
  0
CLASS
  1
ACDBDICTIONARYWDFLT
  2
AcDbDictionaryWithDefault
  3
ObjectDBX Classes
 90
        0
 91
        1
280
     0
281
     0
  0
CLASS
  1
MATERIAL
  2
AcDbMaterial
  3
ObjectDBX Classes
 90
     1153
 91
        3
280
     0
281
     0
  0
CLASS
  1
VISUALSTYLE
  2
AcDbVisualStyle
  3
ObjectDBX Classes
 90
     4095
 91
       24
280
     0
281
     0
  0
CLASS
  1
SCALE
  2
AcDbScale
  3
ObjectDBX Classes
 90
     1153
 91
       17
280
     0
281
     0
  0
CLASS
  1
TABLESTYLE
  2
AcDbTableStyle
  3
ObjectDBX Classes
 90
     4095
 91
        1
280
     0
281
     0
  0
CLASS
  1
MLEADERSTYLE
  2
AcDbMLeaderStyle
  3
ACDB_MLEADERSTYLE_CLASS
 90
     4095
 91
        1
280
     0
281
     0
  0
CLASS
  1
ACDBSECTIONVIEWSTYLE
  2
AcDbSectionViewStyle
  3
ObjectDBX Classes
 90
     1025
 91
        1
280
     0
281
     0
  0
CLASS
  1
ACDBDETAILVIEWSTYLE
  2
AcDbDetailViewStyle
  3
ObjectDBX Classes
 90
     1025
 91
        1
280
     0
281
     0
  0
CLASS
  1
DICTIONARYVAR
  2
AcDbDictionaryVar
  3
ObjectDBX Classes
 90
        0
 91
        5
280
     0
281
     0
  0
CLASS
  1
CELLSTYLEMAP
  2
AcDbCellStyleMap
  3
ObjectDBX Classes
 90
     1152
 91
        1
280
     0
281
     0
  0
ENDSEC
  0
SECTION
  2
TABLES
  0
TABLE
  2
VPORT
  5
8
330
0
100
AcDbSymbolTable
 70
     1
  0
VPORT
  5
57
330
8
100
AcDbSymbolTableRecord
100
AcDbViewportTableRecord
  2
*Active
 70
     0
 10
0.0
 20
0.0
 11
1.0
 21
1.0
 12
0.0
 22
0.0
 13
0.0
 23
0.0
 14
1.0
 24
1.0
 15
0.0
 25
0.0
 16
0.0
 26
0.0
 36
1.0
 17
104.9999999737534
 27
-148.4999999628701
 37
0.0
 40
302.939999924255
 41
0.7070707070707534
 42
50.0
 43
0.0
 44
0.0
 50
0.0
 51
0.0
 71
     0
 72
   100
 73
     1
 74
     0
 75
     1
 76
     0
 77
     0
 78
     0
281
     0
 65
     1
110
0.0
120
0.0
130
0.0
111
1.0
121
0.0
131
0.0
112
0.0
122
1.0
132
0.0
 79
     0
146
0.0
 60
     3
 61
     5
292
     1
282
     1
141
0.0
142
0.0
 63
   250
421
  3355443
  0
ENDTAB
  0
TABLE
  2
LTYPE
  5
5
330
0
100
AcDbSymbolTable
 70
     3
  0
LTYPE
  5
5B
330
5
100
AcDbSymbolTableRecord
100
AcDbLinetypeTableRecord
  2
ByBlock
 70
     0
  3

 72
    65
 73
     0
 40
0.0
  0
LTYPE
  5
5C
330
5
100
AcDbSymbolTableRecord
100
AcDbLinetypeTableRecord
  2
ByLayer
 70
     0
  3

 72
    65
 73
     0
 40
0.0
  0
LTYPE
  5
5D
330
5
100
AcDbSymbolTableRecord
100
AcDbLinetypeTableRecord
  2
Continuous
 70
     0
  3
Solid line
 72
    65
 73
     0
 40
0.0
  0
LTYPE
  5
100
330
5
100
AcDbSymbolTableRecord
100
AcDbLinetypeTableRecord
  2
AI-Linetype-0
 70
     0
  3
Adobe Illustrator Linetype No. 0
 72
    65
 73
     2
 40
1.411111110758333
 49
0.7055555553791667
 74
     0
 49
-0.7055555553791667
 74
     0
  0
LTYPE
  5
102
330
5
100
AcDbSymbolTableRecord
100
AcDbLinetypeTableRecord
  2
AI-Linetype-1
 70
     0
  3
Adobe Illustrator Linetype No. 1
 72
    65
 73
     2
 40
1.411111110758333
 49
0.7055555553791667
 74
     0
 49
-0.7055555553791667
 74
     0
  0
ENDTAB
  0
TABLE
  2
LAYER
  5
2
330
0
100
AcDbSymbolTable
 70
     2
  0
LAYER
  5
54
330
2
100
AcDbSymbolTableRecord
100
AcDbLayerTableRecord
  2
0
 70
     0
 62
     7
  6
Continuous
370
    -3
390
F
347
21
  0
LAYER
  5
78
330
2
100
AcDbSymbolTableRecord
100
AcDbLayerTableRecord
  2
レイヤー 1
 70
     0
 62
     7
  6
Continuous
370
     0
390
F
347
21
  0
ENDTAB
  0
TABLE
  2
STYLE
  5
3
330
0
100
AcDbSymbolTable
 70
     2
  0
STYLE
  5
55
330
3
100
AcDbSymbolTableRecord
100
AcDbTextStyleTableRecord
  2
Standard
 70
     0
 40
0.0
 41
1.0
 50
0.0
 71
     0
 42
0.2
  3
txt
  4

  0
STYLE
  5
5A
330
3
100
AcDbSymbolTableRecord
100
AcDbTextStyleTableRecord
  2
Annotative
 70
     0
 40
0.0
 41
1.0
 50
0.0
 71
     0
 42
0.2
  3
txt
  4

1001
AcadAnnotative
1000
AnnotativeData
1002
{
1070
     1
1070
     1
1002
}
  0
ENDTAB
  0
TABLE
  2
VIEW
  5
6
330
0
100
AcDbSymbolTable
 70
     0
  0
ENDTAB
  0
TABLE
  2
UCS
  5
7
330
0
100
AcDbSymbolTable
 70
     0
  0
ENDTAB
  0
TABLE
  2
APPID
  5
9
330
0
100
AcDbSymbolTable
 70
     2
  0
APPID
  5
56
330
9
100
AcDbSymbolTableRecord
100
AcDbRegAppTableRecord
  2
ACAD
 70
     0
  0
APPID
  5
5E
330
9
100
AcDbSymbolTableRecord
100
AcDbRegAppTableRecord
  2
AcadAnnotative
 70
     0
  0
ENDTAB
  0
TABLE
  2
DIMSTYLE
  5
A
330
0
100
AcDbSymbolTable
 70
     2
100
AcDbDimStyleTable
 71
     0
  0
DIMSTYLE
105
58
330
A
100
AcDbSymbolTableRecord
100
AcDbDimStyleTableRecord
  2
Standard
 70
     0
340
55
  0
DIMSTYLE
105
59
330
A
100
AcDbSymbolTableRecord
100
AcDbDimStyleTableRecord
  2
Annotative
 70
     0
340
55
1001
AcadAnnotative
1000
AnnotativeData
1002
{
1070
     1
1070
     1
1002
}
  0
ENDTAB
  0
TABLE
  2
BLOCK_RECORD
  5
1
330
0
100
AcDbSymbolTable
 70
    31
  0
BLOCK_RECORD
  5
70
330
1
100
AcDbSymbolTableRecord
100
AcDbBlockTableRecord
  2
*Model_Space
340
73
 70
     0
280
     1
281
     0
  0
BLOCK_RECORD
  5
6C
330
1
100
AcDbSymbolTableRecord
100
AcDbBlockTableRecord
  2
*Paper_Space
340
6F
 70
     0
280
     1
281
     0
  0
BLOCK_RECORD
  5
74
330
1
100
AcDbSymbolTableRecord
100
AcDbBlockTableRecord
  2
*Paper_Space0
340
77
 70
     0
280
     1
281
     0
  0
BLOCK_RECORD
  5
79
330
1
100
AcDbSymbolTableRecord
100
AcDbBlockTableRecord
  2
Block_0
340
0
102
{BLKREFS
331
7A
102
}
 70
     0
280
     1
281
     0
  0
BLOCK_RECORD
  5
83
330
1
100
AcDbSymbolTableRecord
100
AcDbBlockTableRecord
  2
Block_1
340
0
102
{BLKREFS
331
84
102
}
 70
     0
280
     1
281
     0
  0
BLOCK_RECORD
  5
89
330
1
100
AcDbSymbolTableRecord
100
AcDbBlockTableRecord
  2
Block_2
340
0
102
{BLKREFS
331
8A
102
}
 70
     0
280
     1
281
     0
  0
BLOCK_RECORD
  5
8F
330
1
100
AcDbSymbolTableRecord
100
AcDbBlockTableRecord
  2
Block_3
340
0
102
{BLKREFS
331
90
102
}
 70
     0
280
     1
281
     0
  0
BLOCK_RECORD
  5
95
330
1
100
AcDbSymbolTableRecord
100
AcDbBlockTableRecord
  2
Block_4
340
0
102
{BLKREFS
331
96
102
}
 70
     0
280
     1
281
     0
  0
BLOCK_RECORD
  5
9B
330
1
100
AcDbSymbolTableRecord
100
AcDbBlockTableRecord
  2
Block_5
340
0
102
{BLKREFS
331
9C
102
}
 70
     0
280
     1
281
     0
  0
BLOCK_RECORD
  5
A1
330
1
100
AcDbSymbolTableRecord
100
AcDbBlockTableRecord
  2
Block_6
340
0
102
{BLKREFS
331
A2
102
}
 70
     0
280
     1
281
     0
  0
BLOCK_RECORD
  5
A7
330
1
100
AcDbSymbolTableRecord
100
AcDbBlockTableRecord
  2
Block_7
340
0
102
{BLKREFS
331
A8
102
}
 70
     0
280
     1
281
     0
  0
BLOCK_RECORD
  5
AD
330
1
100
AcDbSymbolTableRecord
100
AcDbBlockTableRecord
  2
Block_8
340
0
102
{BLKREFS
331
AE
102
}
 70
     0
280
     1
281
     0
  0
BLOCK_RECORD
  5
B3
330
1
100
AcDbSymbolTableRecord
100
AcDbBlockTableRecord
  2
Block_9
340
0
102
{BLKREFS
331
B4
102
}
 70
     0
280
     1
281
     0
  0
BLOCK_RECORD
  5
B9
330
1
100
AcDbSymbolTableRecord
100
AcDbBlockTableRecord
  2
Block_10
340
0
102
{BLKREFS
331
BA
102
}
 70
     0
280
     1
281
     0
  0
BLOCK_RECORD
  5
BF
330
1
100
AcDbSymbolTableRecord
100
AcDbBlockTableRecord
  2
Block_11
340
0
102
{BLKREFS
331
C0
102
}
 70
     0
280
     1
281
     0
  0
BLOCK_RECORD
  5
C5
330
1
100
AcDbSymbolTableRecord
100
AcDbBlockTableRecord
  2
Block_12
340
0
102
{BLKREFS
331
C6
102
}
 70
     0
280
     1
281
     0
  0
BLOCK_RECORD
  5
CB
330
1
100
AcDbSymbolTableRecord
100
AcDbBlockTableRecord
  2
Block_13
340
0
102
{BLKREFS
331
CC
102
}
 70
     0
280
     1
281
     0
  0
BLOCK_RECORD
  5
D1
330
1
100
AcDbSymbolTableRecord
100
AcDbBlockTableRecord
  2
Block_14
340
0
102
{BLKREFS
331
D2
102
}
 70
     0
280
     1
281
     0
  0
BLOCK_RECORD
  5
D7
330
1
100
AcDbSymbolTableRecord
100
AcDbBlockTableRecord
  2
Block_15
340
0
102
{BLKREFS
331
D8
102
}
 70
     0
280
     1
281
     0
  0
BLOCK_RECORD
  5
DD
330
1
100
AcDbSymbolTableRecord
100
AcDbBlockTableRecord
  2
Block_16
340
0
102
{BLKREFS
331
DE
102
}
 70
     0
280
     1
281
     0
  0
BLOCK_RECORD
  5
E3
330
1
100
AcDbSymbolTableRecord
100
AcDbBlockTableRecord
  2
Block_17
340
0
102
{BLKREFS
331
E4
102
}
 70
     0
280
     1
281
     0
  0
BLOCK_RECORD
  5
E9
330
1
100
AcDbSymbolTableRecord
100
AcDbBlockTableRecord
  2
Block_18
340
0
102
{BLKREFS
331
EA
102
}
 70
     0
280
     1
281
     0
  0
BLOCK_RECORD
  5
EF
330
1
100
AcDbSymbolTableRecord
100
AcDbBlockTableRecord
  2
Block_19
340
0
102
{BLKREFS
331
F0
102
}
 70
     0
280
     1
281
     0
  0
BLOCK_RECORD
  5
F5
330
1
100
AcDbSymbolTableRecord
100
AcDbBlockTableRecord
  2
Block_20
340
0
102
{BLKREFS
331
F6
102
}
 70
     0
280
     1
281
     0
  0
BLOCK_RECORD
  5
FB
330
1
100
AcDbSymbolTableRecord
100
AcDbBlockTableRecord
  2
Block_21
340
0
102
{BLKREFS
331
FC
102
}
 70
     0
280
     1
281
     0
  0
BLOCK_RECORD
  5
108
330
1
100
AcDbSymbolTableRecord
100
AcDbBlockTableRecord
  2
Block_22
340
0
102
{BLKREFS
331
109
102
}
 70
     0
280
     1
281
     0
  0
BLOCK_RECORD
  5
11B
330
1
100
AcDbSymbolTableRecord
100
AcDbBlockTableRecord
  2
Block_23
340
0
102
{BLKREFS
331
11C
102
}
 70
     0
280
     1
281
     0
  0
BLOCK_RECORD
  5
11F
330
1
100
AcDbSymbolTableRecord
100
AcDbBlockTableRecord
  2
Block_24
340
0
102
{BLKREFS
331
120
102
}
 70
     0
280
     1
281
     0
  0
BLOCK_RECORD
  5
12C
330
1
100
AcDbSymbolTableRecord
100
AcDbBlockTableRecord
  2
Block_25
340
0
102
{BLKREFS
331
12D
102
}
 70
     0
280
     1
281
     0
  0
BLOCK_RECORD
  5
136
330
1
100
AcDbSymbolTableRecord
100
AcDbBlockTableRecord
  2
Block_26
340
0
102
{BLKREFS
331
137
102
}
 70
     0
280
     1
281
     0
  0
BLOCK_RECORD
  5
13A
330
1
100
AcDbSymbolTableRecord
100
AcDbBlockTableRecord
  2
Block_27
340
0
102
{BLKREFS
331
13B
102
}
 70
     0
280
     1
281
     0
  0
BLOCK_RECORD
  5
148
330
1
100
AcDbSymbolTableRecord
100
AcDbBlockTableRecord
  2
Block_28
340
0
102
{BLKREFS
331
149
102
}
 70
     0
280
     1
281
     0
  0
BLOCK_RECORD
  5
14C
330
1
100
AcDbSymbolTableRecord
100
AcDbBlockTableRecord
  2
Block_29
340
0
102
{BLKREFS
331
14D
102
}
 70
     0
280
     1
281
     0
  0
ENDTAB
  0
ENDSEC
  0
SECTION
  2
BLOCKS
  0
BLOCK
  5
71
330
70
100
AcDbEntity
  8
0
100
AcDbBlockBegin
  2
*Model_Space
 70
     0
 10
0.0
 20
0.0
 30
0.0
  3
*Model_Space
  1

  0
ENDBLK
  5
72
330
70
100
AcDbEntity
  8
0
100
AcDbBlockEnd
  0
BLOCK
  5
6D
330
6C
100
AcDbEntity
 67
     1
  8
0
100
AcDbBlockBegin
  2
*Paper_Space
 70
     0
 10
0.0
 20
0.0
 30
0.0
  3
*Paper_Space
  1

  0
ENDBLK
  5
6E
330
6C
100
AcDbEntity
 67
     1
  8
0
100
AcDbBlockEnd
  0
BLOCK
  5
75
330
74
100
AcDbEntity
 67
     1
  8
0
100
AcDbBlockBegin
  2
*Paper_Space0
 70
     0
 10
0.0
 20
0.0
 30
0.0
  3
*Paper_Space0
  1

  0
ENDBLK
  5
76
330
74
100
AcDbEntity
 67
     1
  8
0
100
AcDbBlockEnd
  0
BLOCK
  5
7B
330
79
100
AcDbEntity
  8
0
100
AcDbBlockBegin
  2
Block_0
 70
     0
 10
0.0
 20
0.0
 30
0.0
  3
Block_0
  1

  0
LWPOLYLINE
  5
7D
330
79
100
AcDbEntity
  8
レイヤー 1
 62
   250
420
  2299925
370
     9
100
AcDbPolyline
 90
       10
 70
     1
 43
0.0
 10
112.8115738722754
 20
-160.0005842078639
 10
112.9559474685919
 20
-154.3003671532884
 10
114.1284650248092
 20
-153.6822327690587
 10
114.0934864395709
 20
-155.0528167340922
 10
119.3361987058184
 20
-152.1092362091888
 10
119.3332269058937
 20
-152.2063404067116
 10
113.8461920458796
 20
-155.4235043246349
 10
113.8819044449688
 20
-154.024904160316
 10
113.1915832625808
 20
-154.3802247512514
 10
112.9475146688078
 20
-159.9236984098248
  0
LWPOLYLINE
  5
7E
330
79
100
AcDbEntity
  8
レイヤー 1
 62
   250
420
  2299925
370
     9
100
AcDbPolyline
 90
        4
 70
     0
 43
0.0
 10
128.6414376684215
 20
-157.7240330659434
 10
119.3332269058937
 20
-152.2063404067116
 10
119.3361987058184
 20
-152.1092362091888
 10
128.6515976681622
 20
-157.6199692685984
  0
LWPOLYLINE
  5
7F
330
79
100
AcDbEntity
  8
レイヤー 1
 62
   250
420
  2299925
370
     9
100
AcDbPolyline
 90
        4
 70
     0
 43
0.0
 10
122.1197846348032
 20
-165.5184038670924
 10
112.8115738722754
 20
-160.0005842078639
 10
112.9475146688078
 20
-159.9236984098248
 10
122.2966448302906
 20
-165.4157116697122
  0
LINE
  5
80
330
79
100
AcDbEntity
  8
レイヤー 1
 62
   250
420
  2299925
370
     9
100
AcDbLine
 10
113.8461920458796
 20
-155.4235043246349
 30
0.0
 11
123.2084794070288
 21
-160.9625329833224
 31
0.0
  0
LINE
  5
81
330
79
100
AcDbEntity
  8
レイヤー 1
 62
   250
420
  2299925
370
     9
100
AcDbLine
 10
114.1284650248092
 20
-153.6822327690587
 30
0.0
 11
115.2960240088913
 21
-154.377633951317
 31
0.0
  0
LINE
  5
82
330
79
100
AcDbEntity
  8
レイヤー 1
 62
   250
420
  2299925
370
     9
100
AcDbLine
 10
113.1915832625808
 20
-154.3802247512514
 30
0.0
 11
113.8625496454633
 21
-154.7854022989307
 31
0.0
  0
INSERT
  5
84
330
79
100
AcDbEntity
  8
レイヤー 1
100
AcDbBlockReference
  2
Block_1
 10
0.0
 20
0.0
 30
0.0
  0
INSERT
  5
8A
330
79
100
AcDbEntity
  8
レイヤー 1
100
AcDbBlockReference
  2
Block_2
 10
0.0
 20
0.0
 30
0.0
  0
INSERT
  5
90
330
79
100
AcDbEntity
  8
レイヤー 1
100
AcDbBlockReference
  2
Block_3
 10
0.0
 20
0.0
 30
0.0
  0
INSERT
  5
96
330
79
100
AcDbEntity
  8
レイヤー 1
100
AcDbBlockReference
  2
Block_4
 10
0.0
 20
0.0
 30
0.0
  0
INSERT
  5
9C
330
79
100
AcDbEntity
  8
レイヤー 1
100
AcDbBlockReference
  2
Block_5
 10
0.0
 20
0.0
 30
0.0
  0
INSERT
  5
A2
330
79
100
AcDbEntity
  8
レイヤー 1
100
AcDbBlockReference
  2
Block_6
 10
0.0
 20
0.0
 30
0.0
  0
INSERT
  5
A8
330
79
100
AcDbEntity
  8
レイヤー 1
100
AcDbBlockReference
  2
Block_7
 10
0.0
 20
0.0
 30
0.0
  0
INSERT
  5
AE
330
79
100
AcDbEntity
  8
レイヤー 1
100
AcDbBlockReference
  2
Block_8
 10
0.0
 20
0.0
 30
0.0
  0
INSERT
  5
B4
330
79
100
AcDbEntity
  8
レイヤー 1
100
AcDbBlockReference
  2
Block_9
 10
0.0
 20
0.0
 30
0.0
  0
INSERT
  5
BA
330
79
100
AcDbEntity
  8
レイヤー 1
100
AcDbBlockReference
  2
Block_10
 10
0.0
 20
0.0
 30
0.0
  0
INSERT
  5
C0
330
79
100
AcDbEntity
  8
レイヤー 1
100
AcDbBlockReference
  2
Block_11
 10
0.0
 20
0.0
 30
0.0
  0
INSERT
  5
C6
330
79
100
AcDbEntity
  8
レイヤー 1
100
AcDbBlockReference
  2
Block_12
 10
0.0
 20
0.0
 30
0.0
  0
INSERT
  5
CC
330
79
100
AcDbEntity
  8
レイヤー 1
100
AcDbBlockReference
  2
Block_13
 10
0.0
 20
0.0
 30
0.0
  0
INSERT
  5
D2
330
79
100
AcDbEntity
  8
レイヤー 1
100
AcDbBlockReference
  2
Block_14
 10
0.0
 20
0.0
 30
0.0
  0
INSERT
  5
D8
330
79
100
AcDbEntity
  8
レイヤー 1
100
AcDbBlockReference
  2
Block_15
 10
0.0
 20
0.0
 30
0.0
  0
INSERT
  5
DE
330
79
100
AcDbEntity
  8
レイヤー 1
100
AcDbBlockReference
  2
Block_16
 10
0.0
 20
0.0
 30
0.0
  0
INSERT
  5
E4
330
79
100
AcDbEntity
  8
レイヤー 1
100
AcDbBlockReference
  2
Block_17
 10
0.0
 20
0.0
 30
0.0
  0
INSERT
  5
EA
330
79
100
AcDbEntity
  8
レイヤー 1
100
AcDbBlockReference
  2
Block_18
 10
0.0
 20
0.0
 30
0.0
  0
INSERT
  5
F0
330
79
100
AcDbEntity
  8
レイヤー 1
100
AcDbBlockReference
  2
Block_19
 10
0.0
 20
0.0
 30
0.0
  0
INSERT
  5
F6
330
79
100
AcDbEntity
  8
レイヤー 1
100
AcDbBlockReference
  2
Block_20
 10
0.0
 20
0.0
 30
0.0
  0
ENDBLK
  5
7C
330
79
100
AcDbEntity
  8
0
100
AcDbBlockEnd
  0
BLOCK
  5
85
330
83
100
AcDbEntity
  8
0
100
AcDbBlockBegin
  2
Block_1
 70
     0
 10
0.0
 20
0.0
 30
0.0
  3
Block_1
  1

  0
SPLINE
  5
87
330
83
100
AcDbEntity
  8
レイヤー 1
 62
   250
420
  2299925
370
     9
100
AcDbSpline
210
0.0
220
0.0
230
1.0
 70
     8
 71
     3
 72
    11
 73
     7
 74
     0
 42
0.0000000001
 43
0.0000000001
 40
0.0
 40
0.0
 40
0.0
 40
0.0
 40
1.0
 40
1.0
 40
1.0
 40
2.0
 40
2.0
 40
2.0
 40
2.0
 10
114.4387740307616
 20
-157.7202992660388
 30
0.0
 10
114.5101988289399
 20
-157.5677468699304
 30
0.0
 10
114.4858910295595
 20
-157.3271580760685
 30
0.0
 10
114.3611290247502
 20
-157.099929681866
 30
0.0
 10
114.1986678368877
 20
-156.8040196894153
 30
0.0
 10
113.9253130438611
 20
-156.6399356936014
 30
0.0
 10
113.7367970249065
 20
-156.7187010915915
 30
0.0
  0
SPLINE
  5
88
330
83
100
AcDbEntity
  8
レイヤー 1
 62
   250
420
  2299925
370
     9
100
AcDbSpline
210
0.0
220
0.0
230
1.0
 70
     9
 71
     3
 72
    17
 73
    13
 74
     0
 42
0.0000000001
 43
0.0000000001
 40
0.0
 40
0.0
 40
0.0
 40
0.0
 40
1.0
 40
1.0
 40
1.0
 40
2.0
 40
2.0
 40
2.0
 40
3.0
 40
3.0
 40
3.0
 40
4.0
 40
4.0
 40
4.0
 40
4.0
 10
114.462345230161
 20
-157.7098852663044
 30
0.0
 10
114.27382643497
 20
-157.8133140636657
 30
0.0
 10
113.9838600423674
 20
-157.647375867899
 30
0.0
 10
113.8146960466831
 20
-157.3391722757621
 30
0.0
 10
113.6452780510053
 20
-157.0308670836275
 30
0.0
 10
113.6608990506068
 20
-156.6971110921423
 30
0.0
 10
113.8489098458108
 20
-156.5936822947812
 30
0.0
 10
114.0374286410018
 20
-156.4901010974236
 30
0.0
 10
114.3273950336031
 20
-156.6561916931867
 30
0.0
 10
114.4968130292809
 20
-156.9643698853239
 30
0.0
 10
114.6659770249651
 20
-157.2725702983091
 30
0.0
 10
114.6506100253572
 20
-157.6063262982249
 30
0.0
 10
114.462345230161
 20
-157.7098852663044
 30
0.0
  0
ENDBLK
  5
86
330
83
100
AcDbEntity
  8
0
100
AcDbBlockEnd
  0
BLOCK
  5
8B
330
89
100
AcDbEntity
  8
0
100
AcDbBlockBegin
  2
Block_2
 70
     0
 10
0.0
 20
0.0
 30
0.0
  3
Block_2
  1

  0
SPLINE
  5
8D
330
89
100
AcDbEntity
  8
レイヤー 1
 62
   250
420
  2299925
370
     9
100
AcDbSpline
210
0.0
220
0.0
230
1.0
 70
     8
 71
     3
 72
    11
 73
     7
 74
     0
 42
0.0000000001
 43
0.0000000001
 40
0.0
 40
0.0
 40
0.0
 40
0.0
 40
1.0
 40
1.0
 40
1.0
 40
2.0
 40
2.0
 40
2.0
 40
2.0
 10
114.4387740307616
 20
-159.9963678079712
 30
0.0
 10
114.5101988289399
 20
-159.8438408118624
 30
0.0
 10
114.4858910295595
 20
-159.6032266180015
 30
0.0
 10
114.3611290247502
 20
-159.376023623798
 30
0.0
 10
114.1986678368877
 20
-159.0800882313476
 30
0.0
 10
113.9253130438611
 20
-158.9160042355338
 30
0.0
 10
113.7367970249065
 20
-158.9947696335246
 30
0.0
  0
SPLINE
  5
8E
330
89
100
AcDbEntity
  8
レイヤー 1
 62
   250
420
  2299925
370
     9
100
AcDbSpline
210
0.0
220
0.0
230
1.0
 70
     9
 71
     3
 72
    17
 73
    13
 74
     0
 42
0.0000000001
 43
0.0000000001
 40
0.0
 40
0.0
 40
0.0
 40
0.0
 40
1.0
 40
1.0
 40
1.0
 40
2.0
 40
2.0
 40
2.0
 40
3.0
 40
3.0
 40
3.0
 40
4.0
 40
4.0
 40
4.0
 40
4.0
 10
114.462345230161
 20
-159.9859538082369
 30
0.0
 10
114.27382643497
 20
-160.0894080055977
 30
0.0
 10
113.9838600423674
 20
-159.9232158098374
 30
0.0
 10
113.8146960466831
 20
-159.6151392176974
 30
0.0
 10
113.6452780510053
 20
-159.3068086255638
 30
0.0
 10
113.6608990506068
 20
-158.9730526340786
 30
0.0
 10
113.8489098458108
 20
-158.8697508367136
 30
0.0
 10
114.0374286410018
 20
-158.7660680393589
 30
0.0
 10
114.3273950336031
 20
-158.9322602351184
 30
0.0
 10
114.4968130292809
 20
-159.2403368272591
 30
0.0
 10
114.6659770249651
 20
-159.5486642977399
 30
0.0
 10
114.6506100253572
 20
-159.8825250108757
 30
0.0
 10
114.462345230161
 20
-159.9859538082369
 30
0.0
  0
ENDBLK
  5
8C
330
89
100
AcDbEntity
  8
0
100
AcDbBlockEnd
  0
BLOCK
  5
91
330
8F
100
AcDbEntity
  8
0
100
AcDbBlockBegin
  2
Block_3
 70
     0
 10
0.0
 20
0.0
 30
0.0
  3
Block_3
  1

  0
SPLINE
  5
93
330
8F
100
AcDbEntity
  8
レイヤー 1
 62
   250
420
  2299925
370
     9
100
AcDbSpline
210
0.0
220
0.0
230
1.0
 70
     8
 71
     3
 72
    11
 73
     7
 74
     0
 42
0.0000000001
 43
0.0000000001
 40
0.0
 40
0.0
 40
0.0
 40
0.0
 40
1.0
 40
1.0
 40
1.0
 40
2.0
 40
2.0
 40
2.0
 40
2.0
 10
117.1985347603547
 20
-159.3593866242224
 30
0.0
 10
117.2694769585443
 20
-159.2070882281076
 30
0.0
 10
117.2456771591523
 20
-158.9663724342483
 30
0.0
 10
117.1206583623413
 20
-158.7391440400457
 30
0.0
 10
116.9581745664874
 20
-158.4432340475951
 30
0.0
 10
116.6845911734668
 20
-158.2791500517812
 30
0.0
 10
116.4965803782628
 20
-158.3580424497681
 30
0.0
  0
SPLINE
  5
94
330
8F
100
AcDbEntity
  8
レイヤー 1
 62
   250
420
  2299925
370
     9
100
AcDbSpline
210
0.0
220
0.0
230
1.0
 70
     9
 71
     3
 72
    17
 73
    13
 74
     0
 42
0.0000000001
 43
0.0000000001
 40
0.0
 40
0.0
 40
0.0
 40
0.0
 40
1.0
 40
1.0
 40
1.0
 40
2.0
 40
2.0
 40
2.0
 40
3.0
 40
3.0
 40
3.0
 40
4.0
 40
4.0
 40
4.0
 40
4.0
 10
117.2218519597593
 20
-159.3492266244816
 30
0.0
 10
117.0333331645696
 20
-159.4526522977638
 30
0.0
 10
116.7436207719606
 20
-159.2864632260826
 30
0.0
 10
116.5742027762828
 20
-158.9782596339458
 30
0.0
 10
116.404784780605
 20
-158.6700782979594
 30
0.0
 10
116.4201771802125
 20
-158.3361984503254
 30
0.0
 10
116.6086959754023
 20
-158.2327696529648
 30
0.0
 10
116.7971893705936
 20
-158.129340855603
 30
0.0
 10
117.0869271632023
 20
-158.2952790513697
 30
0.0
 10
117.2563451588801
 20
-158.6034826435071
 30
0.0
 10
117.4257631545579
 20
-158.9119148356379
 30
0.0
 10
117.4103707549503
 20
-159.2455438271263
 30
0.0
 10
117.2218519597593
 20
-159.3492266244816
 30
0.0
  0
ENDBLK
  5
92
330
8F
100
AcDbEntity
  8
0
100
AcDbBlockEnd
  0
BLOCK
  5
97
330
95
100
AcDbEntity
  8
0
100
AcDbBlockBegin
  2
Block_4
 70
     0
 10
0.0
 20
0.0
 30
0.0
  3
Block_4
  1

  0
SPLINE
  5
99
330
95
100
AcDbEntity
  8
レイヤー 1
 62
   250
420
  2299925
370
     9
100
AcDbSpline
210
0.0
220
0.0
230
1.0
 70
     8
 71
     3
 72
    11
 73
     7
 74
     0
 42
0.0000000001
 43
0.0000000001
 40
0.0
 40
0.0
 40
0.0
 40
0.0
 40
1.0
 40
1.0
 40
1.0
 40
2.0
 40
2.0
 40
2.0
 40
2.0
 10
117.1985347603547
 20
-161.6354805661544
 30
0.0
 10
117.2694769585443
 20
-161.4831821700396
 30
0.0
 10
117.2456771591523
 20
-161.2425679761781
 30
0.0
 10
117.1206583623413
 20
-161.015110981981
 30
0.0
 10
116.9581745664874
 20
-160.7192009895303
 30
0.0
 10
116.6845911734668
 20
-160.5552185937142
 30
0.0
 10
116.4965803782628
 20
-160.6341109917011
 30
0.0
  0
SPLINE
  5
9A
330
95
100
AcDbEntity
  8
レイヤー 1
 62
   250
420
  2299925
370
     9
100
AcDbSpline
210
0.0
220
0.0
230
1.0
 70
     9
 71
     3
 72
    17
 73
    13
 74
     0
 42
0.0000000001
 43
0.0000000001
 40
0.0
 40
0.0
 40
0.0
 40
0.0
 40
1.0
 40
1.0
 40
1.0
 40
2.0
 40
2.0
 40
2.0
 40
3.0
 40
3.0
 40
3.0
 40
4.0
 40
4.0
 40
4.0
 40
4.0
 10
117.2218519597593
 20
-161.6252951664134
 30
0.0
 10
117.0333331645696
 20
-161.7287462971946
 30
0.0
 10
116.7436207719606
 20
-161.5625571680146
 30
0.0
 10
116.5742027762828
 20
-161.2544805758745
 30
0.0
 10
116.404784780605
 20
-160.9461499837403
 30
0.0
 10
116.4201771802125
 20
-160.6122923922574
 30
0.0
 10
116.6086959754023
 20
-160.5088381948972
 30
0.0
 10
116.7971893705936
 20
-160.4054062975258
 30
0.0
 10
117.0869271632023
 20
-160.5713475933027
 30
0.0
 10
117.2563451588801
 20
-160.8796781854357
 30
0.0
 10
117.4257631545579
 20
-161.1880087775699
 30
0.0
 10
117.4103707549503
 20
-161.5216123690587
 30
0.0
 10
117.2218519597593
 20
-161.6252951664134
 30
0.0
  0
ENDBLK
  5
98
330
95
100
AcDbEntity
  8
0
100
AcDbBlockEnd
  0
BLOCK
  5
9D
330
9B
100
AcDbEntity
  8
0
100
AcDbBlockBegin
  2
Block_5
 70
     0
 10
0.0
 20
0.0
 30
0.0
  3
Block_5
  1

  0
SPLINE
  5
9F
330
9B
100
AcDbEntity
  8
レイヤー 1
 62
   250
420
  2299925
370
     9
100
AcDbSpline
210
0.0
220
0.0
230
1.0
 70
     8
 71
     3
 72
    11
 73
     7
 74
     0
 42
0.0000000001
 43
0.0000000001
 40
0.0
 40
0.0
 40
0.0
 40
0.0
 40
1.0
 40
1.0
 40
1.0
 40
2.0
 40
2.0
 40
2.0
 40
2.0
 10
115.8422255949576
 20
-159.7017024154885
 30
0.0
 10
115.9134217931407
 20
-159.5491500193808
 30
0.0
 10
115.8893425937555
 20
-159.3083072255253
 30
0.0
 10
115.7643237969445
 20
-159.0812058313189
 30
0.0
 10
115.6021194010824
 20
-158.7852958388682
 30
0.0
 10
115.3285106080635
 20
-158.6212118430543
 30
0.0
 10
115.1402458128661
 20
-158.6999518410455
 30
0.0
  0
SPLINE
  5
A0
330
9B
100
AcDbEntity
  8
レイヤー 1
 62
   250
420
  2299925
370
     9
100
AcDbSpline
210
0.0
220
0.0
230
1.0
 70
     9
 71
     3
 72
    17
 73
    13
 74
     0
 42
0.0000000001
 43
0.0000000001
 40
0.0
 40
0.0
 40
0.0
 40
0.0
 40
1.0
 40
1.0
 40
1.0
 40
2.0
 40
2.0
 40
2.0
 40
3.0
 40
3.0
 40
3.0
 40
4.0
 40
4.0
 40
4.0
 40
4.0
 10
115.8655427943622
 20
-159.6912884157541
 30
0.0
 10
115.6772779991647
 20
-159.7947172131159
 30
0.0
 10
115.3873116065634
 20
-159.6285250173558
 30
0.0
 10
115.218125024536
 20
-159.3201944252215
 30
0.0
 10
115.0487296152013
 20
-159.0121178330815
 30
0.0
 10
115.0640966148093
 20
-158.6783872415959
 30
0.0
 10
115.2523614100055
 20
-158.5748282979831
 30
0.0
 10
115.4408830244807
 20
-158.4713772468772
 30
0.0
 10
115.7305925978056
 20
-158.6373408426428
 30
0.0
 10
115.9002645934769
 20
-158.9456460347768
 30
0.0
 10
116.0694285891611
 20
-159.2539766269116
 30
0.0
 10
116.0540615895532
 20
-159.5876056183994
 30
0.0
 10
115.8655427943622
 20
-159.6912884157541
 30
0.0
  0
ENDBLK
  5
9E
330
9B
100
AcDbEntity
  8
0
100
AcDbBlockEnd
  0
BLOCK
  5
A3
330
A1
100
AcDbEntity
  8
0
100
AcDbBlockBegin
  2
Block_6
 70
     0
 10
0.0
 20
0.0
 30
0.0
  3
Block_6
  1

  0
SPLINE
  5
A5
330
A1
100
AcDbEntity
  8
レイヤー 1
 62
   250
420
  2299925
370
     9
100
AcDbSpline
210
0.0
220
0.0
230
1.0
 70
     8
 71
     3
 72
    11
 73
     7
 74
     0
 42
0.0000000001
 43
0.0000000001
 40
0.0
 40
0.0
 40
0.0
 40
0.0
 40
1.0
 40
1.0
 40
1.0
 40
2.0
 40
2.0
 40
2.0
 40
2.0
 10
119.8402362929591
 20
-160.9337547840564
 30
0.0
 10
119.9111784911499
 20
-160.7814563879416
 30
0.0
 10
119.8871246917631
 20
-160.5408421940807
 30
0.0
 10
119.7623598949456
 20
-160.3136391998772
 30
0.0
 10
119.5996250234413
 20
-160.0177038074269
 30
0.0
 10
119.3262927060711
 20
-159.8534928116162
 30
0.0
 10
119.1380279108736
 20
-159.9323852096038
 30
0.0
  0
SPLINE
  5
A6
330
A1
100
AcDbEntity
  8
レイヤー 1
 62
   250
420
  2299925
370
     9
100
AcDbSpline
210
0.0
220
0.0
230
1.0
 70
     9
 71
     3
 72
    17
 73
    13
 74
     0
 42
0.0000000001
 43
0.0000000001
 40
0.0
 40
0.0
 40
0.0
 40
0.0
 40
1.0
 40
1.0
 40
1.0
 40
2.0
 40
2.0
 40
2.0
 40
3.0
 40
3.0
 40
3.0
 40
4.0
 40
4.0
 40
4.0
 40
4.0
 10
119.8635534923649
 20
-160.9235662973958
 30
0.0
 10
119.6750346971739
 20
-161.0270235816775
 30
0.0
 10
119.3850683045714
 20
-160.8608282974114
 30
0.0
 10
119.2156503088936
 20
-160.5527547937766
 30
0.0
 10
119.0464863132093
 20
-160.244424201643
 30
0.0
 10
119.0618787128169
 20
-159.9105666101607
 30
0.0
 10
119.2503750235281
 20
-159.8071124127992
 30
0.0
 10
119.4386623032041
 20
-159.7036836154387
 30
0.0
 10
119.7286286958066
 20
-159.8696218112047
 30
0.0
 10
119.8980466914844
 20
-160.1779524033383
 30
0.0
 10
120.0674392871626
 20
-160.4862829954725
 30
0.0
 10
120.0520722875547
 20
-160.819886586962
 30
0.0
 10
119.8635534923649
 20
-160.9235662973958
 30
0.0
  0
ENDBLK
  5
A4
330
A1
100
AcDbEntity
  8
0
100
AcDbBlockEnd
  0
BLOCK
  5
A9
330
A7
100
AcDbEntity
  8
0
100
AcDbBlockBegin
  2
Block_7
 70
     0
 10
0.0
 20
0.0
 30
0.0
  3
Block_7
  1

  0
SPLINE
  5
AB
330
A7
100
AcDbEntity
  8
レイヤー 1
 62
   250
420
  2299925
370
     9
100
AcDbSpline
210
0.0
220
0.0
230
1.0
 70
     8
 71
     3
 72
    11
 73
     7
 74
     0
 42
0.0000000001
 43
0.0000000001
 40
0.0
 40
0.0
 40
0.0
 40
0.0
 40
1.0
 40
1.0
 40
1.0
 40
2.0
 40
2.0
 40
2.0
 40
2.0
 10
119.8402362929591
 20
-163.2098202968241
 30
0.0
 10
119.9111784911499
 20
-163.0575249298747
 30
0.0
 10
119.8871246917631
 20
-162.8169107360131
 30
0.0
 10
119.7623598949456
 20
-162.5897077418096
 30
0.0
 10
119.5996250234413
 20
-162.2935437493653
 30
0.0
 10
119.3262927060711
 20
-162.1295867535482
 30
0.0
 10
119.1380279108736
 20
-162.2084537515362
 30
0.0
  0
SPLINE
  5
AC
330
A7
100
AcDbEntity
  8
レイヤー 1
 62
   250
420
  2299925
370
     9
100
AcDbSpline
210
0.0
220
0.0
230
1.0
 70
     9
 71
     3
 72
    17
 73
    13
 74
     0
 42
0.0000000001
 43
0.0000000001
 40
0.0
 40
0.0
 40
0.0
 40
0.0
 40
1.0
 40
1.0
 40
1.0
 40
2.0
 40
2.0
 40
2.0
 40
3.0
 40
3.0
 40
3.0
 40
4.0
 40
4.0
 40
4.0
 40
4.0
 10
119.8635534923649
 20
-163.1996602968266
 30
0.0
 10
119.6750346971739
 20
-163.3030921236098
 30
0.0
 10
119.3850683045714
 20
-163.1368999278496
 30
0.0
 10
119.2156503088936
 20
-162.82882029692
 30
0.0
 10
119.0464863132093
 20
-162.5204927435754
 30
0.0
 10
119.0618787128169
 20
-162.186635152093
 30
0.0
 10
119.2503750235281
 20
-162.0832063547312
 30
0.0
 10
119.4386623032041
 20
-161.9797521573711
 30
0.0
 10
119.7286286958066
 20
-162.1457157531367
 30
0.0
 10
119.8980466914844
 20
-162.4540209452713
 30
0.0
 10
120.0674392871626
 20
-162.7623515374056
 30
0.0
 10
120.0520722875547
 20
-163.095980528894
 30
0.0
 10
119.8635534923649
 20
-163.1996602968266
 30
0.0
  0
ENDBLK
  5
AA
330
A7
100
AcDbEntity
  8
0
100
AcDbBlockEnd
  0
BLOCK
  5
AF
330
AD
100
AcDbEntity
  8
0
100
AcDbBlockBegin
  2
Block_8
 70
     0
 10
0.0
 20
0.0
 30
0.0
  3
Block_8
  1

  0
SPLINE
  5
B1
330
AD
100
AcDbEntity
  8
レイヤー 1
 62
   250
420
  2299925
370
     9
100
AcDbSpline
210
0.0
220
0.0
230
1.0
 70
     8
 71
     3
 72
    11
 73
     7
 74
     0
 42
0.0000000001
 43
0.0000000001
 40
0.0
 40
0.0
 40
0.0
 40
0.0
 40
1.0
 40
1.0
 40
1.0
 40
2.0
 40
2.0
 40
2.0
 40
2.0
 10
118.4839271275619
 20
-161.2760451753241
 30
0.0
 10
118.5550979257454
 20
-161.1234927792158
 30
0.0
 10
118.531047023708
 20
-160.8829039853539
 30
0.0
 10
118.4060253295488
 20
-160.6554469911568
 30
0.0
 10
118.2435669336932
 20
-160.3597655987006
 30
0.0
 10
117.9702150238486
 20
-160.19555460289
 30
0.0
 10
117.7819473454704
 20
-160.2744470008769
 30
0.0
  0
SPLINE
  5
B2
330
AD
100
AcDbEntity
  8
レイヤー 1
 62
   250
420
  2299925
370
     9
100
AcDbSpline
210
0.0
220
0.0
230
1.0
 70
     9
 71
     3
 72
    17
 73
    13
 74
     0
 42
0.0000000001
 43
0.0000000001
 40
0.0
 40
0.0
 40
0.0
 40
0.0
 40
1.0
 40
1.0
 40
1.0
 40
2.0
 40
2.0
 40
2.0
 40
3.0
 40
3.0
 40
3.0
 40
4.0
 40
4.0
 40
4.0
 40
4.0
 10
118.5072443269665
 20
-161.2656311755898
 30
0.0
 10
118.3187255317768
 20
-161.369059972951
 30
0.0
 10
118.0290131391677
 20
-161.2028677771908
 30
0.0
 10
117.8595951434899
 20
-160.8948165850503
 30
0.0
 10
117.6901771478121
 20
-160.5864859929161
 30
0.0
 10
117.7055470239143
 20
-160.2526030014342
 30
0.0
 10
117.8940629426098
 20
-160.149174204073
 30
0.0
 10
118.0825817378008
 20
-160.0457422976158
 30
0.0
 10
118.3725510237474
 20
-160.211937602472
 30
0.0
 10
118.5419690237053
 20
-160.5200141946121
 30
0.0
 10
118.7111330236633
 20
-160.8283162974195
 30
0.0
 10
118.6957631221575
 20
-161.1619483782345
 30
0.0
 10
118.5072443269665
 20
-161.2656311755898
 30
0.0
  0
ENDBLK
  5
B0
330
AD
100
AcDbEntity
  8
0
100
AcDbBlockEnd
  0
BLOCK
  5
B5
330
B3
100
AcDbEntity
  8
0
100
AcDbBlockBegin
  2
Block_9
 70
     0
 10
0.0
 20
0.0
 30
0.0
  3
Block_9
  1

  0
SPLINE
  5
B7
330
B3
100
AcDbEntity
  8
レイヤー 1
 62
   250
420
  2299925
370
     9
100
AcDbSpline
210
0.0
220
0.0
230
1.0
 70
     8
 71
     3
 72
    11
 73
     7
 74
     0
 42
0.0000000001
 43
0.0000000001
 40
0.0
 40
0.0
 40
0.0
 40
0.0
 40
1.0
 40
1.0
 40
1.0
 40
2.0
 40
2.0
 40
2.0
 40
2.0
 10
122.5055090249628
 20
-162.45526554524
 30
0.0
 10
122.5764512231524
 20
-162.3027131491316
 30
0.0
 10
122.5523750227028
 20
-162.0618703552755
 30
0.0
 10
122.4276072269497
 20
-161.8348959610665
 30
0.0
 10
122.2648948311006
 20
-161.5389859686158
 30
0.0
 10
121.9915430228434
 20
-161.3747749728052
 30
0.0
 10
121.8032752428777
 20
-161.4536642972636
 30
0.0
  0
SPLINE
  5
B8
330
B3
100
AcDbEntity
  8
レイヤー 1
 62
   250
420
  2299925
370
     9
100
AcDbSpline
210
0.0
220
0.0
230
1.0
 70
     9
 71
     3
 72
    17
 73
    13
 74
     0
 42
0.0000000001
 43
0.0000000001
 40
0.0
 40
0.0
 40
0.0
 40
0.0
 40
1.0
 40
1.0
 40
1.0
 40
2.0
 40
2.0
 40
2.0
 40
3.0
 40
3.0
 40
3.0
 40
4.0
 40
4.0
 40
4.0
 40
4.0
 10
122.5288262243674
 20
-162.444851545505
 30
0.0
 10
122.3403074291777
 20
-162.5485343428597
 30
0.0
 10
122.0503410365751
 20
-162.3823421471001
 30
0.0
 10
121.8811770408908
 20
-162.0740115549666
 30
0.0
 10
121.711759045213
 20
-161.7659349628259
 30
0.0
 10
121.7268750229091
 20
-161.4320742972689
 30
0.0
 10
121.9153908400172
 20
-161.3286485739824
 30
0.0
 10
122.1039096352082
 20
-161.2251943766209
 30
0.0
 10
122.3938790227421
 20
-161.3909039723937
 30
0.0
 10
122.5630430227001
 20
-161.6992091645283
 30
0.0
 10
122.732461022658
 20
-162.0075397566619
 30
0.0
 10
122.7170910195649
 20
-162.3414227481438
 30
0.0
 10
122.5288262243674
 20
-162.444851545505
 30
0.0
  0
ENDBLK
  5
B6
330
B3
100
AcDbEntity
  8
0
100
AcDbBlockEnd
  0
BLOCK
  5
BB
330
B9
100
AcDbEntity
  8
0
100
AcDbBlockBegin
  2
Block_10
 70
     0
 10
0.0
 20
0.0
 30
0.0
  3
Block_10
  1

  0
SPLINE
  5
BD
330
B9
100
AcDbEntity
  8
レイヤー 1
 62
   250
420
  2299925
370
     9
100
AcDbSpline
210
0.0
220
0.0
230
1.0
 70
     8
 71
     3
 72
    11
 73
     7
 74
     0
 42
0.0000000001
 43
0.0000000001
 40
0.0
 40
0.0
 40
0.0
 40
0.0
 40
1.0
 40
1.0
 40
1.0
 40
2.0
 40
2.0
 40
2.0
 40
2.0
 10
122.5055090249628
 20
-164.7313340871724
 30
0.0
 10
122.5764512231524
 20
-164.5788070910637
 30
0.0
 10
122.5523750227028
 20
-164.3379388972086
 30
0.0
 10
122.4276072269497
 20
-164.1109899029979
 30
0.0
 10
122.2648948311006
 20
-163.8150545105489
 30
0.0
 10
121.9915430228434
 20
-163.6508435147382
 30
0.0
 10
121.8032752428777
 20
-163.7297359127251
 30
0.0
  0
SPLINE
  5
BE
330
B9
100
AcDbEntity
  8
レイヤー 1
 62
   250
420
  2299925
370
     9
100
AcDbSpline
210
0.0
220
0.0
230
1.0
 70
     9
 71
     3
 72
    17
 73
    13
 74
     0
 42
0.0000000001
 43
0.0000000001
 40
0.0
 40
0.0
 40
0.0
 40
0.0
 40
1.0
 40
1.0
 40
1.0
 40
2.0
 40
2.0
 40
2.0
 40
3.0
 40
3.0
 40
3.0
 40
4.0
 40
4.0
 40
4.0
 40
4.0
 10
122.5288262243674
 20
-164.7209200874381
 30
0.0
 10
122.3403074291777
 20
-164.8243742847982
 30
0.0
 10
122.0503410365751
 20
-164.6584106890325
 30
0.0
 10
121.8811770408908
 20
-164.3501054968986
 30
0.0
 10
121.711759045213
 20
-164.0420289047579
 30
0.0
 10
121.7268750229091
 20
-163.7079142967004
 30
0.0
 10
121.9153908400172
 20
-163.6047171159147
 30
0.0
 10
122.1039096352082
 20
-163.5010343185594
 30
0.0
 10
122.3938790227421
 20
-163.6669725143268
 30
0.0
 10
122.5630430227001
 20
-163.9753031064603
 30
0.0
 10
122.732461022658
 20
-164.2836336985939
 30
0.0
 10
122.7170910195649
 20
-164.6172342964726
 30
0.0
 10
122.5288262243674
 20
-164.7209200874381
 30
0.0
  0
ENDBLK
  5
BC
330
B9
100
AcDbEntity
  8
0
100
AcDbBlockEnd
  0
BLOCK
  5
C1
330
BF
100
AcDbEntity
  8
0
100
AcDbBlockBegin
  2
Block_11
 70
     0
 10
0.0
 20
0.0
 30
0.0
  3
Block_11
  1

  0
SPLINE
  5
C3
330
BF
100
AcDbEntity
  8
レイヤー 1
 62
   250
420
  2299925
370
     9
100
AcDbSpline
210
0.0
220
0.0
230
1.0
 70
     8
 71
     3
 72
    11
 73
     7
 74
     0
 42
0.0000000001
 43
0.0000000001
 40
0.0
 40
0.0
 40
0.0
 40
0.0
 40
1.0
 40
1.0
 40
1.0
 40
2.0
 40
2.0
 40
2.0
 40
2.0
 10
121.149174459566
 20
-162.7970702969273
 30
0.0
 10
121.2201166577556
 20
-162.6447749404048
 30
0.0
 10
121.1963168583623
 20
-162.4041607465433
 30
0.0
 10
121.0715550230731
 20
-162.1769577523397
 30
0.0
 10
120.9088142656974
 20
-161.8807937598955
 30
0.0
 10
120.6354848726703
 20
-161.7168367640783
 30
0.0
 10
120.4469690232295
 20
-161.7957037620663
 30
0.0
  0
SPLINE
  5
C4
330
BF
100
AcDbEntity
  8
レイヤー 1
 62
   250
420
  2299925
370
     9
100
AcDbSpline
210
0.0
220
0.0
230
1.0
 70
     9
 71
     3
 72
    17
 73
    13
 74
     0
 42
0.0000000001
 43
0.0000000001
 40
0.0
 40
0.0
 40
0.0
 40
0.0
 40
1.0
 40
1.0
 40
1.0
 40
2.0
 40
2.0
 40
2.0
 40
3.0
 40
3.0
 40
3.0
 40
4.0
 40
4.0
 40
4.0
 40
4.0
 10
121.1724916589707
 20
-162.7866562969305
 30
0.0
 10
120.9842268637732
 20
-162.89034213414
 30
0.0
 10
120.6940064711783
 20
-162.7241499383798
 30
0.0
 10
120.5248424754941
 20
-162.4160702970226
 30
0.0
 10
120.3554244798163
 20
-162.1077427541055
 30
0.0
 10
120.3710708794161
 20
-161.7738851626232
 30
0.0
 10
120.5593356746136
 20
-161.6704563652614
 30
0.0
 10
120.747600469811
 20
-161.5670021679012
 30
0.0
 10
121.0378208624059
 20
-161.7329657636669
 30
0.0
 10
121.2069848580901
 20
-162.0412709558014
 30
0.0
 10
121.3764028537679
 20
-162.3496015479357
 30
0.0
 10
121.3610104541616
 20
-162.6832305394241
 30
0.0
 10
121.1724916589707
 20
-162.7866562969305
 30
0.0
  0
ENDBLK
  5
C2
330
BF
100
AcDbEntity
  8
0
100
AcDbBlockEnd
  0
BLOCK
  5
C7
330
C5
100
AcDbEntity
  8
0
100
AcDbBlockBegin
  2
Block_12
 70
     0
 10
0.0
 20
0.0
 30
0.0
  3
Block_12
  1

  0
SPLINE
  5
C9
330
C5
100
AcDbEntity
  8
レイヤー 1
 62
   250
420
  2299925
370
     9
100
AcDbSpline
210
0.0
220
0.0
230
1.0
 70
     8
 71
     3
 72
    11
 73
     7
 74
     0
 42
0.0000000001
 43
0.0000000001
 40
0.0
 40
0.0
 40
0.0
 40
0.0
 40
1.0
 40
1.0
 40
1.0
 40
2.0
 40
2.0
 40
2.0
 40
2.0
 10
116.6530951742703
 20
-154.7901299407933
 30
0.0
 10
116.7237833724664
 20
-154.9579223365129
 30
0.0
 10
116.9723223661256
 20
-155.0820742988564
 30
0.0
 10
117.2689943585569
 20
-155.0820742988564
 30
0.0
 10
117.5656409509886
 20
-155.0820742988564
 30
0.0
 10
117.8142053446474
 20
-154.9579223365129
 30
0.0
 10
117.8851250238697
 20
-154.7901299407933
 30
0.0
  0
ELLIPSE
  5
CA
330
C5
100
AcDbEntity
  8
レイヤー 1
 62
   250
420
  2299925
370
     9
100
AcDbEllipse
 10
117.2689943585572
 20
-154.8874881383097
 30
0.0
 11
0.6369811837490637
 21
0.0
 31
0.0
210
0.0
220
0.0
230
1.0
 40
0.6109737618629705
 41
0.0
 42
6.283185307179586
  0
ENDBLK
  5
C8
330
C5
100
AcDbEntity
  8
0
100
AcDbBlockEnd
  0
BLOCK
  5
CD
330
CB
100
AcDbEntity
  8
0
100
AcDbBlockBegin
  2
Block_13
 70
     0
 10
0.0
 20
0.0
 30
0.0
  3
Block_13
  1

  0
SPLINE
  5
CF
330
CB
100
AcDbEntity
  8
レイヤー 1
 62
   250
420
  2299925
370
     9
100
AcDbSpline
210
0.0
220
0.0
230
1.0
 70
     8
 71
     3
 72
    11
 73
     7
 74
     0
 42
0.0000000001
 43
0.0000000001
 40
0.0
 40
0.0
 40
0.0
 40
0.0
 40
1.0
 40
1.0
 40
1.0
 40
2.0
 40
2.0
 40
2.0
 40
2.0
 10
119.4006893041728
 20
-155.1439519317666
 30
0.0
 10
119.4716315023637
 20
-155.3117697274857
 30
0.0
 10
119.7201958960213
 20
-155.435797924321
 30
0.0
 10
120.0168424884542
 20
-155.435797924321
 30
0.0
 10
120.3135144808855
 20
-155.435797924321
 30
0.0
 10
120.5620534745447
 20
-155.3117697274857
 30
0.0
 10
120.6327416727408
 20
-155.1439519317666
 30
0.0
  0
SPLINE
  5
D0
330
CB
100
AcDbEntity
  8
レイヤー 1
 62
   250
420
  2299925
370
     9
100
AcDbSpline
210
0.0
220
0.0
230
1.0
 70
     9
 71
     3
 72
    17
 73
    13
 74
     0
 42
0.0000000001
 43
0.0000000001
 40
0.0
 40
0.0
 40
0.0
 40
0.0
 40
1.0
 40
1.0
 40
1.0
 40
2.0
 40
2.0
 40
2.0
 40
3.0
 40
3.0
 40
3.0
 40
4.0
 40
4.0
 40
4.0
 40
4.0
 10
120.653595072209
 20
-155.2412085292851
 30
0.0
 10
120.653595072209
 20
-155.4561179238026
 30
0.0
 10
120.3685816794801
 20
-155.6305143193536
 30
0.0
 10
120.0168424884542
 20
-155.6305143193536
 30
0.0
 10
119.6651286974267
 20
-155.6305143193536
 30
0.0
 10
119.3798613047042
 20
-155.4561179238026
 30
0.0
 10
119.3798613047042
 20
-155.2412085292851
 30
0.0
 10
119.3798613047042
 20
-155.0262737347694
 30
0.0
 10
119.6651286974267
 20
-154.8520043392151
 30
0.0
 10
120.0168424884542
 20
-154.8520043392151
 30
0.0
 10
120.3685816794801
 20
-154.8520043392151
 30
0.0
 10
120.653595072209
 20
-155.0262737347694
 30
0.0
 10
120.653595072209
 20
-155.2412085292851
 30
0.0
  0
ENDBLK
  5
CE
330
CB
100
AcDbEntity
  8
0
100
AcDbBlockEnd
  0
BLOCK
  5
D3
330
D1
100
AcDbEntity
  8
0
100
AcDbBlockBegin
  2
Block_14
 70
     0
 10
0.0
 20
0.0
 30
0.0
  3
Block_14
  1

  0
SPLINE
  5
D5
330
D1
100
AcDbEntity
  8
レイヤー 1
 62
   250
420
  2299925
370
     9
100
AcDbSpline
210
0.0
220
0.0
230
1.0
 70
     8
 71
     3
 72
    11
 73
     7
 74
     0
 42
0.0000000001
 43
0.0000000001
 40
0.0
 40
0.0
 40
0.0
 40
0.0
 40
1.0
 40
1.0
 40
1.0
 40
2.0
 40
2.0
 40
2.0
 40
2.0
 10
125.6509941447143
 20
-158.7997992384984
 30
0.0
 10
125.7219363429052
 20
-158.9674900342202
 30
0.0
 10
125.9704753365644
 20
-159.0916198310532
 30
0.0
 10
126.2671250217737
 20
-159.0916198310532
 30
0.0
 10
126.5637970217
 20
-159.0916198310532
 30
0.0
 10
126.8123329150866
 20
-158.9674900342202
 30
0.0
 10
126.8832751132762
 20
-158.7997992384984
 30
0.0
  0
SPLINE
  5
D6
330
D1
100
AcDbEntity
  8
レイヤー 1
 62
   250
420
  2299925
370
     9
100
AcDbSpline
210
0.0
220
0.0
230
1.0
 70
     9
 71
     3
 72
    17
 73
    13
 74
     0
 42
0.0000000001
 43
0.0000000001
 40
0.0
 40
0.0
 40
0.0
 40
0.0
 40
1.0
 40
1.0
 40
1.0
 40
2.0
 40
2.0
 40
2.0
 40
3.0
 40
3.0
 40
3.0
 40
4.0
 40
4.0
 40
4.0
 40
4.0
 10
126.9038745127509
 20
-158.8970304360173
 30
0.0
 10
126.9038745127509
 20
-159.1120922305312
 30
0.0
 10
126.6188611200219
 20
-159.2862092260884
 30
0.0
 10
126.2671250217737
 20
-159.2862092260884
 30
0.0
 10
125.9154081379685
 20
-159.2862092260884
 30
0.0
 10
125.6303947452396
 20
-159.1120922305312
 30
0.0
 10
125.6303947452396
 20
-158.8970304360173
 30
0.0
 10
125.6303947452396
 20
-158.6820956415015
 30
0.0
 10
125.9154081379685
 20
-158.5079786459436
 30
0.0
 10
126.2671250217737
 20
-158.5079786459436
 30
0.0
 10
126.6188611200219
 20
-158.5079786459436
 30
0.0
 10
126.9038745127509
 20
-158.6820956415015
 30
0.0
 10
126.9038745127509
 20
-158.8970304360173
 30
0.0
  0
ENDBLK
  5
D4
330
D1
100
AcDbEntity
  8
0
100
AcDbBlockEnd
  0
BLOCK
  5
D9
330
D7
100
AcDbEntity
  8
0
100
AcDbBlockBegin
  2
Block_15
 70
     0
 10
0.0
 20
0.0
 30
0.0
  3
Block_15
  1

  0
SPLINE
  5
DB
330
D7
100
AcDbEntity
  8
レイヤー 1
 62
   250
420
  2299925
370
     9
100
AcDbSpline
210
0.0
220
0.0
230
1.0
 70
     8
 71
     3
 72
    11
 73
     7
 74
     0
 42
0.0000000001
 43
0.0000000001
 40
0.0
 40
0.0
 40
0.0
 40
0.0
 40
1.0
 40
1.0
 40
1.0
 40
2.0
 40
2.0
 40
2.0
 40
2.0
 10
118.8113331192091
 20
-153.5342523728331
 30
0.0
 10
118.8820467174048
 20
-153.7019431685554
 30
0.0
 10
119.130585711064
 20
-153.8262253653842
 30
0.0
 10
119.4270037035017
 20
-153.8262253653842
 30
0.0
 10
119.7236502959334
 20
-153.8262253653842
 30
0.0
 10
119.9721892895927
 20
-153.7019431685554
 30
0.0
 10
120.0431314877835
 20
-153.5342523728331
 30
0.0
  0
SPLINE
  5
DC
330
D7
100
AcDbEntity
  8
レイヤー 1
 62
   250
420
  2299925
370
     9
100
AcDbSpline
210
0.0
220
0.0
230
1.0
 70
     9
 71
     3
 72
    17
 73
    13
 74
     0
 42
0.0000000001
 43
0.0000000001
 40
0.0
 40
0.0
 40
0.0
 40
0.0
 40
1.0
 40
1.0
 40
1.0
 40
2.0
 40
2.0
 40
2.0
 40
3.0
 40
3.0
 40
3.0
 40
4.0
 40
4.0
 40
4.0
 40
4.0
 10
120.0639848872505
 20
-153.6315089703522
 30
0.0
 10
120.0639848872505
 20
-153.8464183648691
 30
0.0
 10
119.7789714945228
 20
-154.020687760424
 30
0.0
 10
119.4270037035017
 20
-154.020687760424
 30
0.0
 10
119.0755185124694
 20
-154.020687760424
 30
0.0
 10
118.7905051197404
 20
-153.8464183648691
 30
0.0
 10
118.7905051197404
 20
-153.6315089703522
 30
0.0
 10
118.7905051197404
 20
-153.4167011758326
 30
0.0
 10
119.0755185124694
 20
-153.2423047802822
 30
0.0
 10
119.4270037035017
 20
-153.2423047802822
 30
0.0
 10
119.7789714945228
 20
-153.2423047802822
 30
0.0
 10
120.0639848872505
 20
-153.4167011758326
 30
0.0
 10
120.0639848872505
 20
-153.6315089703522
 30
0.0
  0
ENDBLK
  5
DA
330
D7
100
AcDbEntity
  8
0
100
AcDbBlockEnd
  0
BLOCK
  5
DF
330
DD
100
AcDbEntity
  8
0
100
AcDbBlockBegin
  2
Block_16
 70
     0
 10
0.0
 20
0.0
 30
0.0
  3
Block_16
  1

  0
SPLINE
  5
E1
330
DD
100
AcDbEntity
  8
レイヤー 1
 62
   250
420
  2299925
370
     9
100
AcDbSpline
210
0.0
220
0.0
230
1.0
 70
     8
 71
     3
 72
    11
 73
     7
 74
     0
 42
0.0000000001
 43
0.0000000001
 40
0.0
 40
0.0
 40
0.0
 40
0.0
 40
1.0
 40
1.0
 40
1.0
 40
2.0
 40
2.0
 40
2.0
 40
2.0
 10
119.9079526912317
 20
-156.7124780917503
 30
0.0
 10
119.9786408894278
 20
-156.880168887472
 30
0.0
 10
120.2272052830867
 20
-157.0043240843047
 30
0.0
 10
120.5238518755183
 20
-157.0043240843047
 30
0.0
 10
120.8205238679496
 20
-157.0043240843047
 30
0.0
 10
121.0690628616088
 20
-156.880168887472
 30
0.0
 10
121.1397510598062
 20
-156.7124780917503
 30
0.0
  0
SPLINE
  5
E2
330
DD
100
AcDbEntity
  8
レイヤー 1
 62
   250
420
  2299925
370
     9
100
AcDbSpline
210
0.0
220
0.0
230
1.0
 70
     9
 71
     3
 72
    17
 73
    13
 74
     0
 42
0.0000000001
 43
0.0000000001
 40
0.0
 40
0.0
 40
0.0
 40
0.0
 40
1.0
 40
1.0
 40
1.0
 40
2.0
 40
2.0
 40
2.0
 40
3.0
 40
3.0
 40
3.0
 40
4.0
 40
4.0
 40
4.0
 40
4.0
 10
121.1606044592744
 20
-156.8097092892698
 30
0.0
 10
121.1606044592744
 20
-157.0246440837863
 30
0.0
 10
120.8755910665455
 20
-157.1989102983274
 30
0.0
 10
120.5238518755183
 20
-157.1989102983274
 30
0.0
 10
120.1721410232978
 20
-157.1989102983274
 30
0.0
 10
119.8868706917696
 20
-157.0246440837863
 30
0.0
 10
119.8868706917696
 20
-156.8097092892698
 30
0.0
 10
119.8868706917696
 20
-156.5947998947524
 30
0.0
 10
120.1721410232978
 20
-156.4205304991981
 30
0.0
 10
120.5238518755183
 20
-156.4205304991981
 30
0.0
 10
120.8755910665455
 20
-156.4205304991981
 30
0.0
 10
121.1606044592744
 20
-156.5947998947524
 30
0.0
 10
121.1606044592744
 20
-156.8097092892698
 30
0.0
  0
ENDBLK
  5
E0
330
DD
100
AcDbEntity
  8
0
100
AcDbBlockEnd
  0
BLOCK
  5
E5
330
E3
100
AcDbEntity
  8
0
100
AcDbBlockBegin
  2
Block_17
 70
     0
 10
0.0
 20
0.0
 30
0.0
  3
Block_17
  1

  0
SPLINE
  5
E7
330
E3
100
AcDbEntity
  8
レイヤー 1
 62
   250
420
  2299925
370
     9
100
AcDbSpline
210
0.0
220
0.0
230
1.0
 70
     8
 71
     3
 72
    11
 73
     7
 74
     0
 42
0.0000000001
 43
0.0000000001
 40
0.0
 40
0.0
 40
0.0
 40
0.0
 40
1.0
 40
1.0
 40
1.0
 40
2.0
 40
2.0
 40
2.0
 40
2.0
 10
122.0659650228249
 20
-155.4564989237929
 30
0.0
 10
122.1366502343727
 20
-155.6241897195146
 30
0.0
 10
122.3851892280319
 20
-155.7483162986896
 30
0.0
 10
122.6821152204567
 20
-155.7483162986896
 30
0.0
 10
122.9787872128879
 20
-155.7483162986896
 30
0.0
 10
123.2273262065472
 20
-155.6241897195146
 30
0.0
 10
123.2980144047445
 20
-155.4564989237929
 30
0.0
  0
SPLINE
  5
E8
330
E3
100
AcDbEntity
  8
レイヤー 1
 62
   250
420
  2299925
370
     9
100
AcDbSpline
210
0.0
220
0.0
230
1.0
 70
    11
 71
     3
 72
    17
 73
    13
 74
     0
 42
0.0000000001
 43
0.0000000001
 40
0.0
 40
0.0
 40
0.0
 40
0.0
 40
1.0
 40
1.0
 40
1.0
 40
2.0
 40
2.0
 40
2.0
 40
3.0
 40
3.0
 40
3.0
 40
4.0
 40
4.0
 40
4.0
 40
4.0
 10
123.3188424042132
 20
-155.5537301213124
 30
0.0
 10
123.3188424042132
 20
-155.7686649158289
 30
0.0
 10
123.0336004114903
 20
-155.9429343113831
 30
0.0
 10
122.6821152204567
 20
-155.9429343113831
 30
0.0
 10
122.3303790227579
 20
-155.9429343113831
 30
0.0
 10
122.04539102283
 20
-155.7686649158289
 30
0.0
 10
122.04539102283
 20
-155.5537301213124
 30
0.0
 10
122.04539102283
 20
-155.338795326796
 30
0.0
 10
122.3303790227579
 20
-155.1646783312381
 30
0.0
 10
122.6821152204567
 20
-155.1646783312381
 30
0.0
 10
123.0336004114903
 20
-155.1646783312381
 30
0.0
 10
123.3188424042132
 20
-155.338795326796
 30
0.0
 10
123.3188424042132
 20
-155.5537301213124
 30
0.0
  0
ENDBLK
  5
E6
330
E3
100
AcDbEntity
  8
0
100
AcDbBlockEnd
  0
BLOCK
  5
EB
330
E9
100
AcDbEntity
  8
0
100
AcDbBlockBegin
  2
Block_18
 70
     0
 10
0.0
 20
0.0
 30
0.0
  3
Block_18
  1

  0
SPLINE
  5
ED
330
E9
100
AcDbEntity
  8
レイヤー 1
 62
   250
420
  2299925
370
     9
100
AcDbSpline
210
0.0
220
0.0
230
1.0
 70
     8
 71
     3
 72
    11
 73
     7
 74
     0
 42
0.0000000001
 43
0.0000000001
 40
0.0
 40
0.0
 40
0.0
 40
0.0
 40
1.0
 40
1.0
 40
1.0
 40
2.0
 40
2.0
 40
2.0
 40
2.0
 10
122.5494002238425
 20
-157.0132362983735
 30
0.0
 10
122.6203424220334
 20
-157.1809302797992
 30
0.0
 10
122.8688814156926
 20
-157.3050600766316
 30
0.0
 10
123.1655534081239
 20
-157.3050600766316
 30
0.0
 10
123.4622254005552
 20
-157.3050600766316
 30
0.0
 10
123.7107643942144
 20
-157.1809302797992
 30
0.0
 10
123.7814525924105
 20
-157.0132362983735
 30
0.0
  0
SPLINE
  5
EE
330
E9
100
AcDbEntity
  8
レイヤー 1
 62
   250
420
  2299925
370
     9
100
AcDbSpline
210
0.0
220
0.0
230
1.0
 70
     9
 71
     3
 72
    17
 73
    13
 74
     0
 42
0.0000000001
 43
0.0000000001
 40
0.0
 40
0.0
 40
0.0
 40
0.0
 40
1.0
 40
1.0
 40
1.0
 40
2.0
 40
2.0
 40
2.0
 40
3.0
 40
3.0
 40
3.0
 40
4.0
 40
4.0
 40
4.0
 40
4.0
 10
123.8022805918791
 20
-157.110470681597
 30
0.0
 10
123.8022805918791
 20
-157.3254022982953
 30
0.0
 10
123.5172925991498
 20
-157.4996748716671
 30
0.0
 10
123.1655534081239
 20
-157.4996748716671
 30
0.0
 10
122.8138142170968
 20
-157.4996748716671
 30
0.0
 10
122.5288262243674
 20
-157.3254022982953
 30
0.0
 10
122.5288262243674
 20
-157.110470681597
 30
0.0
 10
122.5288262243674
 20
-156.89553588708
 30
0.0
 10
122.8138142170968
 20
-156.7212918915253
 30
0.0
 10
123.1655534081239
 20
-156.7212918915253
 30
0.0
 10
123.5172925991498
 20
-156.7212918915253
 30
0.0
 10
123.8022805918791
 20
-156.89553588708
 30
0.0
 10
123.8022805918791
 20
-157.110470681597
 30
0.0
  0
ENDBLK
  5
EC
330
E9
100
AcDbEntity
  8
0
100
AcDbBlockEnd
  0
BLOCK
  5
F1
330
EF
100
AcDbEntity
  8
0
100
AcDbBlockBegin
  2
Block_19
 70
     0
 10
0.0
 20
0.0
 30
0.0
  3
Block_19
  1

  0
SPLINE
  5
F3
330
EF
100
AcDbEntity
  8
レイヤー 1
 62
   250
420
  2299925
370
     9
100
AcDbSpline
210
0.0
220
0.0
230
1.0
 70
     8
 71
     3
 72
    11
 73
     7
 74
     0
 42
0.0000000001
 43
0.0000000001
 40
0.0
 40
0.0
 40
0.0
 40
0.0
 40
1.0
 40
1.0
 40
1.0
 40
2.0
 40
2.0
 40
2.0
 40
2.0
 10
123.0566636109014
 20
-158.5816386440644
 30
0.0
 10
123.1273518090975
 20
-158.7493262979398
 30
0.0
 10
123.3758908027567
 20
-158.8734592366192
 30
0.0
 10
123.672562795188
 20
-158.8734592366192
 30
0.0
 10
123.9692347876193
 20
-158.8734592366192
 30
0.0
 10
124.2177737812785
 20
-158.7493262979398
 30
0.0
 10
124.288465022269
 20
-158.5816386440644
 30
0.0
  0
SPLINE
  5
F4
330
EF
100
AcDbEntity
  8
レイヤー 1
 62
   250
420
  2299925
370
     9
100
AcDbSpline
210
0.0
220
0.0
230
1.0
 70
     9
 71
     3
 72
    17
 73
    13
 74
     0
 42
0.0000000001
 43
0.0000000001
 40
0.0
 40
0.0
 40
0.0
 40
0.0
 40
1.0
 40
1.0
 40
1.0
 40
2.0
 40
2.0
 40
2.0
 40
3.0
 40
3.0
 40
3.0
 40
4.0
 40
4.0
 40
4.0
 40
4.0
 10
124.3092930222638
 20
-158.6788698415833
 30
0.0
 10
124.3092930222638
 20
-158.8938046361004
 30
0.0
 10
124.0243050223346
 20
-159.0682010316508
 30
0.0
 10
123.672562795188
 20
-159.0682010316508
 30
0.0
 10
123.3210776041556
 20
-159.0682010316508
 30
0.0
 10
123.0358356114328
 20
-158.8938046361004
 30
0.0
 10
123.0358356114328
 20
-158.6788698415833
 30
0.0
 10
123.0358356114328
 20
-158.4639350470669
 30
0.0
 10
123.3210776041556
 20
-158.289818051509
 30
0.0
 10
123.672562795188
 20
-158.289818051509
 30
0.0
 10
124.0243050223346
 20
-158.289818051509
 30
0.0
 10
124.3092930222638
 20
-158.4639350470669
 30
0.0
 10
124.3092930222638
 20
-158.6788698415833
 30
0.0
  0
ENDBLK
  5
F2
330
EF
100
AcDbEntity
  8
0
100
AcDbBlockEnd
  0
BLOCK
  5
F7
330
F5
100
AcDbEntity
  8
0
100
AcDbBlockBegin
  2
Block_20
 70
     0
 10
0.0
 20
0.0
 30
0.0
  3
Block_20
  1

  0
SPLINE
  5
F9
330
F5
100
AcDbEntity
  8
レイヤー 1
 62
   250
420
  2299925
370
     9
100
AcDbSpline
210
0.0
220
0.0
230
1.0
 70
     8
 71
     3
 72
    11
 73
     7
 74
     0
 42
0.0000000001
 43
0.0000000001
 40
0.0
 40
0.0
 40
0.0
 40
0.0
 40
1.0
 40
1.0
 40
1.0
 40
2.0
 40
2.0
 40
2.0
 40
2.0
 10
125.2146729558463
 20
-157.3257864761031
 30
0.0
 10
125.2856151540359
 20
-157.4934518718259
 30
0.0
 10
125.5339001477016
 20
-157.6176070686585
 30
0.0
 10
125.8308261401264
 20
-157.6176070686585
 30
0.0
 10
126.127472732558
 20
-157.6176070686585
 30
0.0
 10
126.3760371262169
 20
-157.4934518718259
 30
0.0
 10
126.4467253244142
 20
-157.3257864761031
 30
0.0
  0
SPLINE
  5
FA
330
F5
100
AcDbEntity
  8
レイヤー 1
 62
   250
420
  2299925
370
     9
100
AcDbSpline
210
0.0
220
0.0
230
1.0
 70
     9
 71
     3
 72
    17
 73
    13
 74
     0
 42
0.0000000001
 43
0.0000000001
 40
0.0
 40
0.0
 40
0.0
 40
0.0
 40
1.0
 40
1.0
 40
1.0
 40
2.0
 40
2.0
 40
2.0
 40
3.0
 40
3.0
 40
3.0
 40
4.0
 40
4.0
 40
4.0
 40
4.0
 10
126.4675533238829
 20
-157.4230176736233
 30
0.0
 10
126.4675533238829
 20
-157.6379524681391
 30
0.0
 10
126.18231133116
 20
-157.8121964636938
 30
0.0
 10
125.8308261401264
 20
-157.8121964636938
 30
0.0
 10
125.4790869491005
 20
-157.8121964636938
 30
0.0
 10
125.1940735563715
 20
-157.6379524681391
 30
0.0
 10
125.1940735563715
 20
-157.4230176736233
 30
0.0
 10
125.1940735563715
 20
-157.2080828791062
 30
0.0
 10
125.4790869491005
 20
-157.0337118835548
 30
0.0
 10
125.8308261401264
 20
-157.0337118835548
 30
0.0
 10
126.18231133116
 20
-157.0337118835548
 30
0.0
 10
126.4675533238829
 20
-157.2080828791062
 30
0.0
 10
126.4675533238829
 20
-157.4230176736233
 30
0.0
  0
ENDBLK
  5
F8
330
F5
100
AcDbEntity
  8
0
100
AcDbBlockEnd
  0
BLOCK
  5
FD
330
FB
100
AcDbEntity
  8
0
100
AcDbBlockBegin
  2
Block_21
 70
     0
 10
0.0
 20
0.0
 30
0.0
  3
Block_21
  1

  0
LINE
  5
FF
330
FB
100
AcDbEntity
  8
レイヤー 1
  6
AI-Linetype-0
 62
   154
420
    23468
370
    25
100
AcDbLine
 10
88.24770496279649
 20
-163.6907477912946
 30
0.0
 11
88.24770496279649
 21
-148.6908134517526
 31
0.0
  0
LINE
  5
101
330
FB
100
AcDbEntity
  8
レイヤー 1
  6
AI-Linetype-1
 62
   154
420
    23468
370
    25
100
AcDbLine
 10
103.9454690067582
 20
-143.8745502412924
 30
0.0
 11
118.9454033462996
 21
-143.8745502412924
 31
0.0
  0
SPLINE
  5
103
330
FB
100
AcDbEntity
  8
レイヤー 1
 62
    18
420
        0
370
     9
100
AcDbSpline
210
0.0
220
0.0
230
1.0
 70
     9
 71
     3
 72
    17
 73
    13
 74
     0
 42
0.0000000001
 43
0.0000000001
 40
0.0
 40
0.0
 40
0.0
 40
0.0
 40
1.0
 40
1.0
 40
1.0
 40
2.0
 40
2.0
 40
2.0
 40
3.0
 40
3.0
 40
3.0
 40
4.0
 40
4.0
 40
4.0
 40
4.0
 10
92.73182790395287
 20
-163.752095845285
 30
0.0
 10
92.73182790395287
 20
-163.8071997327681
 30
0.0
 10
92.77663068058762
 20
-163.8520025094029
 30
0.0
 10
92.83173456807068
 20
-163.8520025094029
 30
0.0
 10
92.88687373333031
 20
-163.8520025094029
 30
0.0
 10
92.9316765099654
 20
-163.8071997327681
 30
0.0
 10
92.9316765099654
 20
-163.752095845285
 30
0.0
 10
92.9316765099654
 20
-163.6969566800251
 30
0.0
 10
92.88687373333031
 20
-163.6521539033903
 30
0.0
 10
92.83173456807068
 20
-163.6521539033903
 30
0.0
 10
92.77663068058762
 20
-163.6521539033903
 30
0.0
 10
92.73182790395287
 20
-163.6969566800251
 30
0.0
 10
92.73182790395287
 20
-163.752095845285
 30
0.0
  0
SPLINE
  5
104
330
FB
100
AcDbEntity
  8
レイヤー 1
 62
    18
420
        0
370
     9
100
AcDbSpline
210
0.0
220
0.0
230
1.0
 70
     9
 71
     3
 72
    17
 73
    13
 74
     0
 42
0.0000000001
 43
0.0000000001
 40
0.0
 40
0.0
 40
0.0
 40
0.0
 40
1.0
 40
1.0
 40
1.0
 40
2.0
 40
2.0
 40
2.0
 40
3.0
 40
3.0
 40
3.0
 40
4.0
 40
4.0
 40
4.0
 40
4.0
 10
89.73219381381291
 20
-163.752095845285
 30
0.0
 10
89.73219381381291
 20
-163.8071997327681
 30
0.0
 10
89.776996590448
 20
-163.8520025094029
 30
0.0
 10
89.83210263813516
 20
-163.8520025094029
 30
0.0
 10
89.8879099209517
 20
-163.8520025094029
 30
0.0
 10
89.93271269758613
 20
-163.8071997327681
 30
0.0
 10
89.93271269758613
 20
-163.752095845285
 30
0.0
 10
89.93271269758613
 20
-163.6969566800251
 30
0.0
 10
89.8879099209517
 20
-163.6521539033903
 30
0.0
 10
89.83210263813516
 20
-163.6521539033903
 30
0.0
 10
89.776996590448
 20
-163.6521539033903
 30
0.0
 10
89.73219381381291
 20
-163.6969566800251
 30
0.0
 10
89.73219381381291
 20
-163.752095845285
 30
0.0
  0
LINE
  5
105
330
FB
100
AcDbEntity
  8
レイヤー 1
 62
    18
420
        0
370
     9
100
AcDbLine
 10
89.83210263813516
 20
-147.0965754368694
 30
0.0
 11
89.83210263813516
 21
-164.752534292137
 31
0.0
  0
LINE
  5
106
330
FB
100
AcDbEntity
  8
レイヤー 1
 62
    18
420
        0
370
     9
100
AcDbLine
 10
89.83210263813516
 20
-163.752095845285
 30
0.0
 11
92.83173456807068
 21
-163.752095845285
 31
0.0
  0
LINE
  5
107
330
FB
100
AcDbEntity
  8
レイヤー 1
 62
    18
420
        0
370
     9
100
AcDbLine
 10
92.83173456807068
 20
-147.0965754368694
 30
0.0
 11
92.83173456807068
 21
-164.752534292137
 31
0.0
  0
INSERT
  5
109
330
FB
100
AcDbEntity
  8
レイヤー 1
100
AcDbBlockReference
  2
Block_22
 10
0.0
 20
0.0
 30
0.0
  0
LINE
  5
10E
330
FB
100
AcDbEntity
  8
レイヤー 1
 62
    18
420
        0
370
    25
100
AcDbLine
 10
89.92996103099031
 20
-139.6996370144699
 30
0.0
 11
89.28123799198473
 21
-163.6907477912946
 31
0.0
  0
LINE
  5
10F
330
FB
100
AcDbEntity
  8
レイヤー 1
 62
    18
420
        0
370
    25
100
AcDbLine
 10
89.28123799198473
 20
-163.6907477912946
 30
0.0
 11
88.88090577997616
 21
-163.6804114026694
 31
0.0
  0
LINE
  5
110
330
FB
100
AcDbEntity
  8
レイヤー 1
 62
    18
420
        0
370
    25
100
AcDbLine
 10
88.88090577997616
 20
-163.6804114026694
 30
0.0
 11
88.93534152724779
 21
-138.6802150960331
 31
0.0
  0
LINE
  5
111
330
FB
100
AcDbEntity
  8
レイヤー 1
 62
    18
420
        0
370
    25
100
AcDbLine
 10
92.95439539827437
 20
-145.9393937997249
 30
0.0
 11
118.9454033462996
 21
-145.2903179829509
 31
0.0
  0
LINE
  5
112
330
FB
100
AcDbEntity
  8
レイヤー 1
 62
    18
420
        0
370
    25
100
AcDbLine
 10
118.9454033462996
 20
-145.2903179829509
 30
0.0
 11
118.9350669576744
 21
-144.8900210487189
 31
0.0
  0
LINE
  5
113
330
FB
100
AcDbEntity
  8
レイヤー 1
 62
    18
420
        0
370
    25
100
AcDbLine
 10
118.9350669576744
 20
-144.8900210487189
 30
0.0
 11
93.93487065103846
 21
-144.9447676304219
 31
0.0
  0
CIRCLE
  5
114
330
FB
100
AcDbEntity
  8
レイヤー 1
 62
    18
420
        0
370
     9
100
AcDbCircle
 10
94.03477731515629
 20
-134.6808088091776
 30
0.0
 40
0.0999066641178353
  0
SPLINE
  5
115
330
FB
100
AcDbEntity
  8
レイヤー 1
 62
    18
420
        0
370
     9
100
AcDbSpline
210
0.0
220
0.0
230
1.0
 70
     9
 71
     3
 72
    17
 73
    13
 74
     0
 42
0.0000000001
 43
0.0000000001
 40
0.0
 40
0.0
 40
0.0
 40
0.0
 40
1.0
 40
1.0
 40
1.0
 40
2.0
 40
2.0
 40
2.0
 40
3.0
 40
3.0
 40
3.0
 40
4.0
 40
4.0
 40
4.0
 40
4.0
 10
83.80905507603653
 20
-138.780121760151
 30
0.0
 10
83.80905507603653
 20
-138.8352609254109
 30
0.0
 10
83.85382257489409
 20
-138.8800284242691
 30
0.0
 10
83.90896375072706
 20
-138.8800284242691
 30
0.0
 10
83.96406562763711
 20
-138.8800284242691
 30
0.0
 10
84.00886840427187
 20
-138.8352609254109
 30
0.0
 10
84.00886840427187
 20
-138.780121760151
 30
0.0
 10
84.00886840427187
 20
-138.7243123171303
 30
0.0
 10
83.96406562763711
 20
-138.6802150960331
 30
0.0
 10
83.90896375072706
 20
-138.6802150960331
 30
0.0
 10
83.85382257489409
 20
-138.6802150960331
 30
0.0
 10
83.80905507603653
 20
-138.7243123171303
 30
0.0
 10
83.80905507603653
 20
-138.780121760151
 30
0.0
  0
SPLINE
  5
116
330
FB
100
AcDbEntity
  8
レイヤー 1
 62
    18
420
        0
370
     9
100
AcDbSpline
210
0.0
220
0.0
230
1.0
 70
     9
 71
     3
 72
    17
 73
    13
 74
     0
 42
0.0000000001
 43
0.0000000001
 40
0.0
 40
0.0
 40
0.0
 40
0.0
 40
1.0
 40
1.0
 40
1.0
 40
2.0
 40
2.0
 40
2.0
 40
3.0
 40
3.0
 40
3.0
 40
4.0
 40
4.0
 40
4.0
 40
4.0
 10
118.9343614021369
 20
-134.6808088091776
 30
0.0
 10
118.9343614021369
 20
-134.7359479744375
 30
0.0
 10
118.9791641787716
 20
-134.7807154732954
 30
0.0
 10
119.0343033440316
 20
-134.7807154732954
 30
0.0
 10
119.0894072315146
 20
-134.7807154732954
 30
0.0
 10
119.1342100081494
 20
-134.7359479744375
 30
0.0
 10
119.1342100081494
 20
-134.6808088091776
 30
0.0
 10
119.1342100081494
 20
-134.6257049216945
 30
0.0
 10
119.0894072315146
 20
-134.5809021450597
 30
0.0
 10
119.0343033440316
 20
-134.5809021450597
 30
0.0
 10
118.9791641787716
 20
-134.5809021450597
 30
0.0
 10
118.9343614021369
 20
-134.6257049216945
 30
0.0
 10
118.9343614021369
 20
-134.6808088091776
 30
0.0
  0
SPLINE
  5
117
330
FB
100
AcDbEntity
  8
レイヤー 1
 62
    18
420
        0
370
     9
100
AcDbSpline
210
0.0
220
0.0
230
1.0
 70
     9
 71
     3
 72
    17
 73
    13
 74
     0
 42
0.0000000001
 43
0.0000000001
 40
0.0
 40
0.0
 40
0.0
 40
0.0
 40
1.0
 40
1.0
 40
1.0
 40
2.0
 40
2.0
 40
2.0
 40
3.0
 40
3.0
 40
3.0
 40
4.0
 40
4.0
 40
4.0
 40
4.0
 10
83.80905507603653
 20
-163.7796477890266
 30
0.0
 10
83.80905507603653
 20
-163.8347516765097
 30
0.0
 10
83.85382257489409
 20
-163.8795544531444
 30
0.0
 10
83.90896375072706
 20
-163.8795544531444
 30
0.0
 10
83.96406562763711
 20
-163.8795544531444
 30
0.0
 10
84.00886840427187
 20
-163.8347516765097
 30
0.0
 10
84.00886840427187
 20
-163.7796477890266
 30
0.0
 10
84.00886840427187
 20
-163.7245086237666
 30
0.0
 10
83.96406562763711
 20
-163.6797370701826
 30
0.0
 10
83.90896375072706
 20
-163.6797370701826
 30
0.0
 10
83.85382257489409
 20
-163.6797370701826
 30
0.0
 10
83.80905507603653
 20
-163.7245086237666
 30
0.0
 10
83.80905507603653
 20
-163.7796477890266
 30
0.0
  0
LINE
  5
118
330
FB
100
AcDbEntity
  8
レイヤー 1
 62
    18
420
        0
370
     9
100
AcDbLine
 10
119.0343033440316
 20
-134.6808088091776
 30
0.0
 11
94.03477731515629
 21
-134.6808088091776
 31
0.0
  0
LINE
  5
119
330
FB
100
AcDbEntity
  8
レイヤー 1
 62
    18
420
        0
370
     9
100
AcDbLine
 10
119.0343033440316
 20
-136.940809029298
 30
0.0
 11
119.0343033440316
 21
-133.6810366124617
 31
0.0
  0
LINE
  5
11A
330
FB
100
AcDbEntity
  8
レイヤー 1
 62
    18
420
        0
370
     9
100
AcDbLine
 10
94.03477731515629
 20
-136.7409957010623
 30
0.0
 11
94.03477731515629
 21
-133.6810366124617
 31
0.0
  0
INSERT
  5
11C
330
FB
100
AcDbEntity
  8
レイヤー 1
100
AcDbBlockReference
  2
Block_23
 10
0.0
 20
0.0
 30
0.0
  0
SPLINE
  5
127
330
FB
100
AcDbEntity
  8
レイヤー 1
 62
    18
420
        0
370
     9
100
AcDbSpline
210
0.0
220
0.0
230
1.0
 70
     9
 71
     3
 72
    17
 73
    13
 74
     0
 42
0.0000000001
 43
0.0000000001
 40
0.0
 40
0.0
 40
0.0
 40
0.0
 40
1.0
 40
1.0
 40
1.0
 40
2.0
 40
2.0
 40
2.0
 40
3.0
 40
3.0
 40
3.0
 40
4.0
 40
4.0
 40
4.0
 40
4.0
 10
121.881325771398
 20
-144.8900210487189
 30
0.0
 10
121.936429658881
 20
-144.8900210487189
 30
0.0
 10
121.9812324355158
 20
-144.8452182720841
 30
0.0
 10
121.9812324355158
 20
-144.790114384601
 30
0.0
 10
121.9812324355158
 20
-144.7349752193408
 30
0.0
 10
121.936429658881
 20
-144.6902077204832
 30
0.0
 10
121.881325771398
 20
-144.6902077204832
 30
0.0
 10
121.826186606138
 20
-144.6902077204832
 30
0.0
 10
121.7814220745915
 20
-144.7349752193408
 30
0.0
 10
121.7814220745915
 20
-144.790114384601
 30
0.0
 10
121.7814220745915
 20
-144.8452182720841
 30
0.0
 10
121.826186606138
 20
-144.8900210487189
 30
0.0
 10
121.881325771398
 20
-144.8900210487189
 30
0.0
  0
SPLINE
  5
128
330
FB
100
AcDbEntity
  8
レイヤー 1
 62
    18
420
        0
370
     9
100
AcDbSpline
210
0.0
220
0.0
230
1.0
 70
     9
 71
     3
 72
    17
 73
    13
 74
     0
 42
0.0000000001
 43
0.0000000001
 40
0.0
 40
0.0
 40
0.0
 40
0.0
 40
1.0
 40
1.0
 40
1.0
 40
2.0
 40
2.0
 40
2.0
 40
3.0
 40
3.0
 40
3.0
 40
4.0
 40
4.0
 40
4.0
 40
4.0
 10
121.881325771398
 20
-138.890364812894
 30
0.0
 10
121.936429658881
 20
-138.890364812894
 30
0.0
 10
121.9812324355158
 20
-138.8455926319471
 30
0.0
 10
121.9812324355158
 20
-138.7901053710073
 30
0.0
 10
121.9812324355158
 20
-138.7350014835243
 30
0.0
 10
121.936429658881
 20
-138.6901987068895
 30
0.0
 10
121.881325771398
 20
-138.6901987068895
 30
0.0
 10
121.826186606138
 20
-138.6901987068895
 30
0.0
 10
121.7814220745915
 20
-138.7350014835243
 30
0.0
 10
121.7814220745915
 20
-138.7901053710073
 30
0.0
 10
121.7814220745915
 20
-138.8455926319471
 30
0.0
 10
121.826186606138
 20
-138.890364812894
 30
0.0
 10
121.881325771398
 20
-138.890364812894
 30
0.0
  0
LINE
  5
129
330
FB
100
AcDbEntity
  8
レイヤー 1
 62
    18
420
        0
370
     9
100
AcDbLine
 10
121.881325771398
 20
-138.7901053710073
 30
0.0
 11
121.881325771398
 21
-144.790114384601
 31
0.0
  0
LINE
  5
12A
330
FB
100
AcDbEntity
  8
レイヤー 1
 62
    18
420
        0
370
     9
100
AcDbLine
 10
122.8907288012015
 20
-138.7901053710073
 30
0.0
 11
119.6309916621421
 21
-138.7901053710073
 31
0.0
  0
LINE
  5
12B
330
FB
100
AcDbEntity
  8
レイヤー 1
 62
    18
420
        0
370
     9
100
AcDbLine
 10
122.8907288012015
 20
-144.790114384601
 30
0.0
 11
119.8308049903778
 21
-144.790114384601
 31
0.0
  0
INSERT
  5
12D
330
FB
100
AcDbEntity
  8
レイヤー 1
100
AcDbBlockReference
  2
Block_25
 10
0.0
 20
0.0
 30
0.0
  0
LINE
  5
133
330
FB
100
AcDbEntity
  8
レイヤー 1
 62
    18
420
        0
370
     9
100
AcDbLine
 10
83.90896375072706
 20
-138.780121760151
 30
0.0
 11
83.90896375072706
 21
-163.7796477890266
 31
0.0
  0
LINE
  5
134
330
FB
100
AcDbEntity
  8
レイヤー 1
 62
    18
420
        0
370
     9
100
AcDbLine
 10
82.61910038417225
 20
-138.780121760151
 30
0.0
 11
86.97922193960328
 21
-138.780121760151
 31
0.0
  0
LINE
  5
135
330
FB
100
AcDbEntity
  8
レイヤー 1
 62
    18
420
        0
370
     9
100
AcDbLine
 10
82.61910038417225
 20
-163.7796477890266
 30
0.0
 11
86.97922193960328
 21
-163.7796477890266
 31
0.0
  0
INSERT
  5
137
330
FB
100
AcDbEntity
  8
レイヤー 1
100
AcDbBlockReference
  2
Block_26
 10
0.0
 20
0.0
 30
0.0
  0
LINE
  5
142
330
FB
100
AcDbEntity
  8
レイヤー 1
 62
    18
420
        0
370
    25
100
AcDbLine
 10
89.92996103099031
 20
-139.6996370144699
 30
0.0
 11
92.92959512112963
 21
-139.6996370144699
 31
0.0
  0
LINE
  5
143
330
FB
100
AcDbEntity
  8
レイヤー 1
 62
    18
420
        0
370
    25
100
AcDbLine
 10
88.93534152724779
 20
-138.6802150960331
 30
0.0
 11
93.93487065103846
 21
-138.6802150960331
 31
0.0
  0
LINE
  5
144
330
FB
100
AcDbEntity
  8
レイヤー 1
 62
    18
420
        0
370
    25
100
AcDbLine
 10
93.93487065103846
 20
-144.816960772805
 30
0.0
 11
93.93487065103846
 21
-138.8169870369882
 31
0.0
  0
LINE
  5
145
330
FB
100
AcDbEntity
  8
レイヤー 1
 62
    18
420
        0
370
    25
100
AcDbLine
 10
92.92959512112963
 20
-145.8773754679738
 30
0.0
 11
92.92959512112963
 21
-139.6996370144699
 31
0.0
  0
LINE
  5
146
330
FB
100
AcDbEntity
  8
レイヤー 1
 62
   250
420
  2299925
370
     9
100
AcDbLine
 10
98.18524304260243
 20
-153.5184361063675
 30
0.0
 11
88.43097301367681
 21
-153.5184361063675
 31
0.0
  0
LINE
  5
147
330
FB
100
AcDbEntity
  8
レイヤー 1
 62
   250
420
  2299925
370
     9
100
AcDbLine
 10
105.997365621076
 20
-143.9513852393321
 30
0.0
 11
105.997365621076
 21
-152.009993644851
 31
0.0
  0
INSERT
  5
149
330
FB
100
AcDbEntity
  8
レイヤー 1
100
AcDbBlockReference
  2
Block_28
 10
0.0
 20
0.0
 30
0.0
  0
ENDBLK
  5
FE
330
FB
100
AcDbEntity
  8
0
100
AcDbBlockEnd
  0
BLOCK
  5
10A
330
108
100
AcDbEntity
  8
0
100
AcDbBlockBegin
  2
Block_22
 70
     0
 10
0.0
 20
0.0
 30
0.0
  3
Block_22
  1

  0
SPLINE
  5
10C
330
108
100
AcDbEntity
  8
レイヤー 1
100
AcDbSpline
210
0.0
220
0.0
230
1.0
 70
     9
 71
     3
 72
    62
 73
    58
 74
     0
 42
0.0000000001
 43
0.0000000001
 40
0.0
 40
0.0
 40
0.0
 40
0.0
 40
1.0
 40
1.0
 40
1.0
 40
2.0
 40
2.0
 40
2.0
 40
3.0
 40
3.0
 40
3.0
 40
4.0
 40
4.0
 40
4.0
 40
5.0
 40
5.0
 40
5.0
 40
6.0
 40
6.0
 40
6.0
 40
7.0
 40
7.0
 40
7.0
 40
8.0
 40
8.0
 40
8.0
 40
9.0
 40
9.0
 40
9.0
 40
10.0
 40
10.0
 40
10.0
 40
11.0
 40
11.0
 40
11.0
 40
12.0
 40
12.0
 40
12.0
 40
13.0
 40
13.0
 40
13.0
 40
14.0
 40
14.0
 40
14.0
 40
15.0
 40
15.0
 40
15.0
 40
16.0
 40
16.0
 40
16.0
 40
17.0
 40
17.0
 40
17.0
 40
18.0
 40
18.0
 40
18.0
 40
19.0
 40
19.0
 40
19.0
 40
19.0
 10
91.32379690642252
 20
-163.1369845512296
 30
0.0
 10
91.22854001625537
 20
-163.1369845512296
 30
0.0
 10
91.01063772681332
 20
-163.1159694687696
 30
0.0
 10
90.88592527024728
 20
-162.9299343125661
 30
0.0
 10
90.8118557173144
 20
-162.817624199747
 30
0.0
 10
90.80754934795784
 20
-162.7184054497718
 30
0.0
 10
90.80341523337555
 20
-162.6336561008346
 30
0.0
 10
90.80341523337555
 20
-162.6336561008346
 30
0.0
 10
91.02338458010875
 20
-162.6336561008346
 30
0.0
 10
91.02338458010875
 20
-162.6336561008346
 30
0.0
 10
91.02545163739989
 20
-162.7077256537675
 30
0.0
 10
91.03613143340416
 20
-162.942336656313
 30
0.0
 10
91.31949053706597
 20
-162.942336656313
 30
0.0
 10
91.4571221017017
 20
-162.942336656313
 30
0.0
 10
91.60939532214973
 20
-162.8727457275109
 30
0.0
 10
91.60939532214973
 20
-162.6443358968389
 30
0.0
 10
91.60939532214973
 20
-162.5278916694375
 30
0.0
 10
91.57132701703773
 20
-162.4793158230954
 30
0.0
 10
91.53963213857343
 20
-162.4476209446311
 30
0.0
 10
91.46556258564055
 20
-162.3735513916983
 30
0.0
 10
91.34911835823912
 20
-162.3608045384028
 30
0.0
 10
91.29416908524937
 20
-162.3608045384028
 30
0.0
 10
91.27522106008051
 20
-162.3608045384028
 30
0.0
 10
91.23921981225965
 20
-162.362871595694
 30
0.0
 10
91.21165904837765
 20
-162.3670057102763
 30
0.0
 10
91.21165904837765
 20
-162.3670057102763
 30
0.0
 10
91.21165904837765
 20
-162.1723578153597
 30
0.0
 10
91.21165904837765
 20
-162.1723578153597
 30
0.0
 10
91.24972735348967
 20
-162.1789034967816
 30
0.0
 10
91.29210202795823
 20
-162.1809705540728
 30
0.0
 10
91.29847545460593
 20
-162.1809705540728
 30
0.0
 10
91.36393226882569
 20
-162.1809705540728
 30
0.0
 10
91.56288653309886
 20
-162.1596109620643
 30
0.0
 10
91.56288653309886
 20
-161.9229329022276
 30
0.0
 10
91.56288653309886
 20
-161.7451659751887
 30
0.0
 10
91.43162839511084
 20
-161.6900444474247
 30
0.0
 10
91.32172984913138
 20
-161.6900444474247
 30
0.0
 10
91.05731877063844
 20
-161.6900444474247
 30
0.0
 10
91.04870603192534
 20
-161.9229329022276
 30
0.0
 10
91.04457191734303
 20
-161.9945908883208
 30
0.0
 10
91.04457191734303
 20
-161.9945908883208
 30
0.0
 10
90.84148353848755
 20
-161.9945908883208
 30
0.0
 10
90.84148353848755
 20
-161.9945908883208
 30
0.0
 10
90.8499240224264
 20
-161.8698784317547
 30
0.0
 10
90.87748478630841
 20
-161.4933294952169
 30
0.0
 10
91.33430444765254
 20
-161.4933294952169
 30
0.0
 10
91.5585801637423
 20
-161.4933294952169
 30
0.0
 10
91.79973684770979
 20
-161.6204535186226
 30
0.0
 10
91.79973684770979
 20
-161.9163872208056
 30
0.0
 10
91.79973684770979
 20
-162.1027668865576
 30
0.0
 10
91.7046522123169
 20
-162.1851046686551
 30
0.0
 10
91.60508895279319
 20
-162.2464273682925
 30
0.0
 10
91.66658390720488
 20
-162.2739881321745
 30
0.0
 10
91.84848494882608
 20
-162.3542588569809
 30
0.0
 10
91.84848494882608
 20
-162.6315890435435
 30
0.0
 10
91.84848494882608
 20
-162.969897420195
 30
0.0
 10
91.60095483821088
 20
-163.1369845512296
 30
0.0
 10
91.32379690642252
 20
-163.1369845512296
 30
0.0
  0
HATCH
  5
10D
330
108
100
AcDbEntity
  8
レイヤー 1
 62
    18
420
        0
440
 33554687
100
AcDbHatch
 10
0.0
 20
0.0
 30
0.0
210
0.0
220
0.0
230
1.0
  2
SOLID
 70
     1
 71
     1
 91
        1
 92
        1
 93
        1
 72
     4
 94
        3
 73
     0
 74
     0
 95
       62
 96
       58
 40
0.0
 40
0.0
 40
0.0
 40
0.0
 40
1.0
 40
1.0
 40
1.0
 40
2.0
 40
2.0
 40
2.0
 40
3.0
 40
3.0
 40
3.0
 40
4.0
 40
4.0
 40
4.0
 40
5.0
 40
5.0
 40
5.0
 40
6.0
 40
6.0
 40
6.0
 40
7.0
 40
7.0
 40
7.0
 40
8.0
 40
8.0
 40
8.0
 40
9.0
 40
9.0
 40
9.0
 40
10.0
 40
10.0
 40
10.0
 40
11.0
 40
11.0
 40
11.0
 40
12.0
 40
12.0
 40
12.0
 40
13.0
 40
13.0
 40
13.0
 40
14.0
 40
14.0
 40
14.0
 40
15.0
 40
15.0
 40
15.0
 40
16.0
 40
16.0
 40
16.0
 40
17.0
 40
17.0
 40
17.0
 40
18.0
 40
18.0
 40
18.0
 40
19.0
 40
19.0
 40
19.0
 40
19.0
 10
91.32379690642252
 20
-163.1369845512296
 10
91.22854001625537
 20
-163.1369845512296
 10
91.01063772681332
 20
-163.1159694687696
 10
90.88592527024728
 20
-162.9299343125661
 10
90.8118557173144
 20
-162.817624199747
 10
90.80754934795784
 20
-162.7184054497718
 10
90.80341523337555
 20
-162.6336561008346
 10
90.80341523337555
 20
-162.6336561008346
 10
91.02338458010875
 20
-162.6336561008346
 10
91.02338458010875
 20
-162.6336561008346
 10
91.02545163739989
 20
-162.7077256537675
 10
91.03613143340416
 20
-162.942336656313
 10
91.31949053706597
 20
-162.942336656313
 10
91.4571221017017
 20
-162.942336656313
 10
91.60939532214973
 20
-162.8727457275109
 10
91.60939532214973
 20
-162.6443358968389
 10
91.60939532214973
 20
-162.5278916694375
 10
91.57132701703773
 20
-162.4793158230954
 10
91.53963213857343
 20
-162.4476209446311
 10
91.46556258564055
 20
-162.3735513916983
 10
91.34911835823912
 20
-162.3608045384028
 10
91.29416908524937
 20
-162.3608045384028
 10
91.27522106008051
 20
-162.3608045384028
 10
91.23921981225965
 20
-162.362871595694
 10
91.21165904837765
 20
-162.3670057102763
 10
91.21165904837765
 20
-162.3670057102763
 10
91.21165904837765
 20
-162.1723578153597
 10
91.21165904837765
 20
-162.1723578153597
 10
91.24972735348967
 20
-162.1789034967816
 10
91.29210202795823
 20
-162.1809705540728
 10
91.29847545460593
 20
-162.1809705540728
 10
91.36393226882569
 20
-162.1809705540728
 10
91.56288653309886
 20
-162.1596109620643
 10
91.56288653309886
 20
-161.9229329022276
 10
91.56288653309886
 20
-161.7451659751887
 10
91.43162839511084
 20
-161.6900444474247
 10
91.32172984913138
 20
-161.6900444474247
 10
91.05731877063844
 20
-161.6900444474247
 10
91.04870603192534
 20
-161.9229329022276
 10
91.04457191734303
 20
-161.9945908883208
 10
91.04457191734303
 20
-161.9945908883208
 10
90.84148353848755
 20
-161.9945908883208
 10
90.84148353848755
 20
-161.9945908883208
 10
90.8499240224264
 20
-161.8698784317547
 10
90.87748478630841
 20
-161.4933294952169
 10
91.33430444765254
 20
-161.4933294952169
 10
91.5585801637423
 20
-161.4933294952169
 10
91.79973684770979
 20
-161.6204535186226
 10
91.79973684770979
 20
-161.9163872208056
 10
91.79973684770979
 20
-162.1027668865576
 10
91.7046522123169
 20
-162.1851046686551
 10
91.60508895279319
 20
-162.2464273682925
 10
91.66658390720488
 20
-162.2739881321745
 10
91.84848494882608
 20
-162.3542588569809
 10
91.84848494882608
 20
-162.6315890435435
 10
91.84848494882608
 20
-162.969897420195
 10
91.60095483821088
 20
-163.1369845512296
 10
91.32379690642252
 20
-163.1369845512296
 97
        0
 97
        1
330
10C
 75
     2
 76
     1
 98
        1
 10
0.0
 20
0.0
450
        0
451
        0
460
0.0
461
0.0
452
        0
462
0.0
453
        0
470

  0
ENDBLK
  5
10B
330
108
100
AcDbEntity
  8
0
100
AcDbBlockEnd
  0
BLOCK
  5
11D
330
11B
100
AcDbEntity
  8
0
100
AcDbBlockBegin
  2
Block_23
 70
     0
 10
0.0
 20
0.0
 30
0.0
  3
Block_23
  1

  0
INSERT
  5
120
330
11B
100
AcDbEntity
  8
レイヤー 1
100
AcDbBlockReference
  2
Block_24
 10
0.0
 20
0.0
 30
0.0
  0
ENDBLK
  5
11E
330
11B
100
AcDbEntity
  8
0
100
AcDbBlockEnd
  0
BLOCK
  5
121
330
11F
100
AcDbEntity
  8
0
100
AcDbBlockBegin
  2
Block_24
 70
     0
 10
0.0
 20
0.0
 30
0.0
  3
Block_24
  1

  0
SPLINE
  5
123
330
11F
100
AcDbEntity
  8
レイヤー 1
100
AcDbSpline
210
0.0
220
0.0
230
1.0
 70
     9
 71
     3
 72
    44
 73
    40
 74
     0
 42
0.0000000001
 43
0.0000000001
 40
0.0
 40
0.0
 40
0.0
 40
0.0
 40
1.0
 40
1.0
 40
1.0
 40
2.0
 40
2.0
 40
2.0
 40
3.0
 40
3.0
 40
3.0
 40
4.0
 40
4.0
 40
4.0
 40
5.0
 40
5.0
 40
5.0
 40
6.0
 40
6.0
 40
6.0
 40
7.0
 40
7.0
 40
7.0
 40
8.0
 40
8.0
 40
8.0
 40
9.0
 40
9.0
 40
9.0
 40
10.0
 40
10.0
 40
10.0
 40
11.0
 40
11.0
 40
11.0
 40
12.0
 40
12.0
 40
12.0
 40
13.0
 40
13.0
 40
13.0
 40
13.0
 10
106.0414170741841
 20
-133.3558566289874
 30
0.0
 10
105.8236870395163
 20
-133.5146755308574
 30
0.0
 10
105.7306694614145
 20
-133.5887450837903
 30
0.0
 10
105.681749105524
 20
-133.7324055655252
 30
0.0
 10
105.681749105524
 20
-133.7324055655252
 30
0.0
 10
106.4603406851905
 20
-133.7324055655252
 30
0.0
 10
106.4603406851905
 20
-133.7324055655252
 30
0.0
 10
106.4603406851905
 20
-133.7324055655252
 30
0.0
 10
106.4603406851905
 20
-133.9377332564461
 30
0.0
 10
106.4603406851905
 20
-133.9377332564461
 30
0.0
 10
106.4603406851905
 20
-133.9377332564461
 30
0.0
 10
105.4321519376176
 20
-133.9377332564461
 30
0.0
 10
105.4321519376176
 20
-133.9377332564461
 30
0.0
 10
105.4638468160819
 20
-133.5801323450772
 30
0.0
 10
105.5294758850759
 20
-133.501928677562
 30
0.0
 10
105.9146375603269
 20
-133.2035834085394
 30
0.0
 10
106.1706081548809
 20
-133.0048013990404
 30
0.0
 10
106.2360649691007
 20
-132.936933017981
 30
0.0
 10
106.2360649691007
 20
-132.7994737081196
 30
0.0
 10
106.2360649691007
 20
-132.680962423427
 30
0.0
 10
106.1640624734589
 20
-132.5500487949875
 30
0.0
 10
105.9673475212512
 20
-132.5500487949875
 30
0.0
 10
105.7072428121148
 20
-132.5500487949875
 30
0.0
 10
105.6986300734017
 20
-132.7805256829507
 30
0.0
 10
105.6944959588194
 20
-132.8969699103521
 30
0.0
 10
105.6944959588194
 20
-132.8969699103521
 30
0.0
 10
105.4700479879554
 20
-132.8969699103521
 30
0.0
 10
105.4700479879554
 20
-132.8969699103521
 30
0.0
 10
105.4786607266685
 20
-132.7698458869464
 30
0.0
 10
105.489512777447
 20
-132.6578802836758
 30
0.0
 10
105.5697835022534
 20
-132.5393689989832
 30
0.0
 10
105.6796820482328
 20
-132.378483039822
 30
0.0
 10
105.8660617139848
 20
-132.3447211040666
 30
0.0
 10
105.9821614318378
 20
-132.3447211040666
 30
0.0
 10
106.2594916184004
 20
-132.3447211040666
 30
0.0
 10
106.4668863666124
 20
-132.5286892029789
 30
0.0
 10
106.4668863666124
 20
-132.8015407654107
 30
0.0
 10
106.4668863666124
 20
-133.0302951056313
 30
0.0
 10
106.350442139211
 20
-133.1295138556065
 30
0.0
 10
106.0414170741841
 20
-133.3558566289874
 30
0.0
  0
HATCH
  5
124
330
11F
100
AcDbEntity
  8
レイヤー 1
 62
    18
420
        0
440
 33554687
100
AcDbHatch
 10
0.0
 20
0.0
 30
0.0
210
0.0
220
0.0
230
1.0
  2
SOLID
 70
     1
 71
     1
 91
        1
 92
        1
 93
        1
 72
     4
 94
        3
 73
     0
 74
     0
 95
       44
 96
       40
 40
0.0
 40
0.0
 40
0.0
 40
0.0
 40
1.0
 40
1.0
 40
1.0
 40
2.0
 40
2.0
 40
2.0
 40
3.0
 40
3.0
 40
3.0
 40
4.0
 40
4.0
 40
4.0
 40
5.0
 40
5.0
 40
5.0
 40
6.0
 40
6.0
 40
6.0
 40
7.0
 40
7.0
 40
7.0
 40
8.0
 40
8.0
 40
8.0
 40
9.0
 40
9.0
 40
9.0
 40
10.0
 40
10.0
 40
10.0
 40
11.0
 40
11.0
 40
11.0
 40
12.0
 40
12.0
 40
12.0
 40
13.0
 40
13.0
 40
13.0
 40
13.0
 10
106.0414170741841
 20
-133.3558566289874
 10
105.8236870395163
 20
-133.5146755308574
 10
105.7306694614145
 20
-133.5887450837903
 10
105.681749105524
 20
-133.7324055655252
 10
105.681749105524
 20
-133.7324055655252
 10
106.4603406851905
 20
-133.7324055655252
 10
106.4603406851905
 20
-133.7324055655252
 10
106.4603406851905
 20
-133.7324055655252
 10
106.4603406851905
 20
-133.9377332564461
 10
106.4603406851905
 20
-133.9377332564461
 10
106.4603406851905
 20
-133.9377332564461
 10
105.4321519376176
 20
-133.9377332564461
 10
105.4321519376176
 20
-133.9377332564461
 10
105.4638468160819
 20
-133.5801323450772
 10
105.5294758850759
 20
-133.501928677562
 10
105.9146375603269
 20
-133.2035834085394
 10
106.1706081548809
 20
-133.0048013990404
 10
106.2360649691007
 20
-132.936933017981
 10
106.2360649691007
 20
-132.7994737081196
 10
106.2360649691007
 20
-132.680962423427
 10
106.1640624734589
 20
-132.5500487949875
 10
105.9673475212512
 20
-132.5500487949875
 10
105.7072428121148
 20
-132.5500487949875
 10
105.6986300734017
 20
-132.7805256829507
 10
105.6944959588194
 20
-132.8969699103521
 10
105.6944959588194
 20
-132.8969699103521
 10
105.4700479879554
 20
-132.8969699103521
 10
105.4700479879554
 20
-132.8969699103521
 10
105.4786607266685
 20
-132.7698458869464
 10
105.489512777447
 20
-132.6578802836758
 10
105.5697835022534
 20
-132.5393689989832
 10
105.6796820482328
 20
-132.378483039822
 10
105.8660617139848
 20
-132.3447211040666
 10
105.9821614318378
 20
-132.3447211040666
 10
106.2594916184004
 20
-132.3447211040666
 10
106.4668863666124
 20
-132.5286892029789
 10
106.4668863666124
 20
-132.8015407654107
 10
106.4668863666124
 20
-133.0302951056313
 10
106.350442139211
 20
-133.1295138556065
 10
106.0414170741841
 20
-133.3558566289874
 97
        0
 97
        1
330
123
 75
     2
 76
     1
 98
        1
 10
0.0
 20
0.0
450
        0
451
        0
460
0.0
461
0.0
452
        0
462
0.0
453
        0
470

  0
SPLINE
  5
125
330
11F
100
AcDbEntity
  8
レイヤー 1
100
AcDbSpline
210
0.0
220
0.0
230
1.0
 70
     9
 71
     3
 72
    53
 73
    49
 74
     0
 42
0.0000000001
 43
0.0000000001
 40
0.0
 40
0.0
 40
0.0
 40
0.0
 40
1.0
 40
1.0
 40
1.0
 40
2.0
 40
2.0
 40
2.0
 40
3.0
 40
3.0
 40
3.0
 40
4.0
 40
4.0
 40
4.0
 40
5.0
 40
5.0
 40
5.0
 40
6.0
 40
6.0
 40
6.0
 40
7.0
 40
7.0
 40
7.0
 40
8.0
 40
8.0
 40
8.0
 40
9.0
 40
9.0
 40
9.0
 40
10.0
 40
10.0
 40
10.0
 40
11.0
 40
11.0
 40
11.0
 40
12.0
 40
12.0
 40
12.0
 40
13.0
 40
13.0
 40
13.0
 40
14.0
 40
14.0
 40
14.0
 40
15.0
 40
15.0
 40
15.0
 40
16.0
 40
16.0
 40
16.0
 40
16.0
 10
107.1062960886748
 20
-133.9883761600793
 30
0.0
 10
107.0280924211596
 20
-133.9883761600793
 30
0.0
 10
106.9264621043447
 20
-133.9714951922016
 30
0.0
 10
106.8248317875299
 20
-133.908105435273
 30
0.0
 10
106.6515434846218
 20
-133.7982068892935
 30
0.0
 10
106.6301838926133
 20
-133.6669487513055
 30
0.0
 10
106.6112358674444
 20
-133.5591172626171
 30
0.0
 10
106.6112358674444
 20
-133.5591172626171
 30
0.0
 10
106.833444526243
 20
-133.5591172626171
 30
0.0
 10
106.833444526243
 20
-133.5591172626171
 30
0.0
 10
106.8882215444585
 20
-133.757899272116
 30
0.0
 10
107.0153455678642
 20
-133.7875270932892
 30
0.0
 10
107.1083631459659
 20
-133.7875270932892
 30
0.0
 10
107.2478895131186
 20
-133.7875270932892
 30
0.0
 10
107.4001627335666
 20
-133.6879638337655
 30
0.0
 10
107.4001627335666
 20
-133.4554198885111
 30
0.0
 10
107.4001627335666
 20
-133.1994492939571
 30
0.0
 10
107.2203287492366
 20
-133.1295138556065
 30
0.0
 10
107.0997504072528
 20
-133.1295138556065
 30
0.0
 10
107.0680555287885
 20
-133.1295138556065
 30
0.0
 10
106.9264621043447
 20
-133.1295138556065
 30
0.0
 10
106.8375786408253
 20
-133.2587049363034
 30
0.0
 10
106.8375786408253
 20
-133.2587049363034
 30
0.0
 10
106.6618787710776
 20
-133.2397569111345
 30
0.0
 10
106.6618787710776
 20
-133.2397569111345
 30
0.0
 10
106.6618787710776
 20
-133.2397569111345
 30
0.0
 10
106.7824571130613
 20
-132.3932969504086
 30
0.0
 10
106.7824571130613
 20
-132.3932969504086
 30
0.0
 10
106.7824571130613
 20
-132.3932969504086
 30
0.0
 10
107.5610486927278
 20
-132.3932969504086
 30
0.0
 10
107.5610486927278
 20
-132.3932969504086
 30
0.0
 10
107.5610486927278
 20
-132.3932969504086
 30
0.0
 10
107.5610486927278
 20
-132.5879448453252
 30
0.0
 10
107.5610486927278
 20
-132.5879448453252
 30
0.0
 10
107.5610486927278
 20
-132.5879448453252
 30
0.0
 10
106.9454101295136
 20
-132.5879448453252
 30
0.0
 10
106.9454101295136
 20
-132.5879448453252
 30
0.0
 10
106.9454101295136
 20
-132.5879448453252
 30
0.0
 10
106.8799533152939
 20
-133.0110025709139
 30
0.0
 10
106.8799533152939
 20
-133.0110025709139
 30
0.0
 10
106.9412760149313
 20
-132.9772406351585
 30
0.0
 10
107.0236137970288
 20
-132.936933017981
 30
0.0
 10
107.1421250817214
 20
-132.936933017981
 30
0.0
 10
107.3960286189843
 20
-132.936933017981
 30
0.0
 10
107.6330511883695
 20
-133.123312683733
 30
0.0
 10
107.6330511883695
 20
-133.4364718633423
 30
0.0
 10
107.6330511883695
 20
-133.7537651575338
 30
0.0
 10
107.4087754722797
 20
-133.9883761600793
 30
0.0
 10
107.1062960886748
 20
-133.9883761600793
 30
0.0
  0
HATCH
  5
126
330
11F
100
AcDbEntity
  8
レイヤー 1
 62
    18
420
        0
440
 33554687
100
AcDbHatch
 10
0.0
 20
0.0
 30
0.0
210
0.0
220
0.0
230
1.0
  2
SOLID
 70
     1
 71
     1
 91
        1
 92
        1
 93
        1
 72
     4
 94
        3
 73
     0
 74
     0
 95
       53
 96
       49
 40
0.0
 40
0.0
 40
0.0
 40
0.0
 40
1.0
 40
1.0
 40
1.0
 40
2.0
 40
2.0
 40
2.0
 40
3.0
 40
3.0
 40
3.0
 40
4.0
 40
4.0
 40
4.0
 40
5.0
 40
5.0
 40
5.0
 40
6.0
 40
6.0
 40
6.0
 40
7.0
 40
7.0
 40
7.0
 40
8.0
 40
8.0
 40
8.0
 40
9.0
 40
9.0
 40
9.0
 40
10.0
 40
10.0
 40
10.0
 40
11.0
 40
11.0
 40
11.0
 40
12.0
 40
12.0
 40
12.0
 40
13.0
 40
13.0
 40
13.0
 40
14.0
 40
14.0
 40
14.0
 40
15.0
 40
15.0
 40
15.0
 40
16.0
 40
16.0
 40
16.0
 40
16.0
 10
107.1062960886748
 20
-133.9883761600793
 10
107.0280924211596
 20
-133.9883761600793
 10
106.9264621043447
 20
-133.9714951922016
 10
106.8248317875299
 20
-133.908105435273
 10
106.6515434846218
 20
-133.7982068892935
 10
106.6301838926133
 20
-133.6669487513055
 10
106.6112358674444
 20
-133.5591172626171
 10
106.6112358674444
 20
-133.5591172626171
 10
106.833444526243
 20
-133.5591172626171
 10
106.833444526243
 20
-133.5591172626171
 10
106.8882215444585
 20
-133.757899272116
 10
107.0153455678642
 20
-133.7875270932892
 10
107.1083631459659
 20
-133.7875270932892
 10
107.2478895131186
 20
-133.7875270932892
 10
107.4001627335666
 20
-133.6879638337655
 10
107.4001627335666
 20
-133.4554198885111
 10
107.4001627335666
 20
-133.1994492939571
 10
107.2203287492366
 20
-133.1295138556065
 10
107.0997504072528
 20
-133.1295138556065
 10
107.0680555287885
 20
-133.1295138556065
 10
106.9264621043447
 20
-133.1295138556065
 10
106.8375786408253
 20
-133.2587049363034
 10
106.8375786408253
 20
-133.2587049363034
 10
106.6618787710776
 20
-133.2397569111345
 10
106.6618787710776
 20
-133.2397569111345
 10
106.6618787710776
 20
-133.2397569111345
 10
106.7824571130613
 20
-132.3932969504086
 10
106.7824571130613
 20
-132.3932969504086
 10
106.7824571130613
 20
-132.3932969504086
 10
107.5610486927278
 20
-132.3932969504086
 10
107.5610486927278
 20
-132.3932969504086
 10
107.5610486927278
 20
-132.3932969504086
 10
107.5610486927278
 20
-132.5879448453252
 10
107.5610486927278
 20
-132.5879448453252
 10
107.5610486927278
 20
-132.5879448453252
 10
106.9454101295136
 20
-132.5879448453252
 10
106.9454101295136
 20
-132.5879448453252
 10
106.9454101295136
 20
-132.5879448453252
 10
106.8799533152939
 20
-133.0110025709139
 10
106.8799533152939
 20
-133.0110025709139
 10
106.9412760149313
 20
-132.9772406351585
 10
107.0236137970288
 20
-132.936933017981
 10
107.1421250817214
 20
-132.936933017981
 10
107.3960286189843
 20
-132.936933017981
 10
107.6330511883695
 20
-133.123312683733
 10
107.6330511883695
 20
-133.4364718633423
 10
107.6330511883695
 20
-133.7537651575338
 10
107.4087754722797
 20
-133.9883761600793
 10
107.1062960886748
 20
-133.9883761600793
 97
        0
 97
        1
330
125
 75
     2
 76
     1
 98
        1
 10
0.0
 20
0.0
450
        0
451
        0
460
0.0
461
0.0
452
        0
462
0.0
453
        0
470

  0
ENDBLK
  5
122
330
11F
100
AcDbEntity
  8
0
100
AcDbBlockEnd
  0
BLOCK
  5
12E
330
12C
100
AcDbEntity
  8
0
100
AcDbBlockBegin
  2
Block_25
 70
     0
 10
0.0
 20
0.0
 30
0.0
  3
Block_25
  1

  0
SPLINE
  5
130
330
12C
100
AcDbEntity
  8
レイヤー 1
100
AcDbSpline
210
0.0
220
0.0
230
1.0
 70
     9
 71
     3
 72
    17
 73
    13
 74
     0
 42
0.0000000001
 43
0.0000000001
 40
0.0
 40
0.0
 40
0.0
 40
0.0
 40
1.0
 40
1.0
 40
1.0
 40
2.0
 40
2.0
 40
2.0
 40
3.0
 40
3.0
 40
3.0
 40
4.0
 40
4.0
 40
4.0
 40
4.0
 10
123.4684325863204
 20
-141.767746275322
 30
0.0
 10
123.4684325863204
 20
-142.0299180417495
 30
0.0
 10
123.6799614491147
 20
-142.0678140920872
 30
0.0
 10
123.7964056765162
 20
-142.0678140920872
 30
0.0
 10
123.9721055462639
 20
-142.0678140920872
 30
0.0
 10
124.1350585627162
 20
-141.9727294566943
 30
0.0
 10
124.1350585627162
 20
-141.788761357782
 30
0.0
 10
124.1350585627162
 20
-141.6681830157982
 30
0.0
 10
124.0758029203699
 20
-141.4924831460505
 30
0.0
 10
123.7902045046427
 20
-141.4924831460505
 30
0.0
 10
123.5659287885529
 20
-141.4924831460505
 30
0.0
 10
123.4684325863204
 20
-141.6320095132031
 30
0.0
 10
123.4684325863204
 20
-141.767746275322
 30
0.0
  0
SPLINE
  5
131
330
12C
100
AcDbEntity
  8
レイヤー 1
100
AcDbSpline
210
0.0
220
0.0
230
1.0
 70
     9
 71
     3
 72
    32
 73
    28
 74
     0
 42
0.0000000001
 43
0.0000000001
 40
0.0
 40
0.0
 40
0.0
 40
0.0
 40
1.0
 40
1.0
 40
1.0
 40
2.0
 40
2.0
 40
2.0
 40
3.0
 40
3.0
 40
3.0
 40
4.0
 40
4.0
 40
4.0
 40
5.0
 40
5.0
 40
5.0
 40
6.0
 40
6.0
 40
6.0
 40
7.0
 40
7.0
 40
7.0
 40
8.0
 40
8.0
 40
8.0
 40
9.0
 40
9.0
 40
9.0
 40
9.0
 10
124.3272948907932
 20
-141.7846272431997
 30
0.0
 10
124.3272948907932
 20
-142.3007025468901
 30
0.0
 10
123.773323536765
 20
-142.3093152856032
 30
0.0
 10
123.559383107131
 20
-142.3093152856032
 30
0.0
 10
123.3289062191678
 20
-142.3093152856032
 30
0.0
 10
122.6815727774893
 20
-142.2900227508858
 30
0.0
 10
122.6815727774893
 20
-141.7463866833134
 30
0.0
 10
122.6815727774893
 20
-141.5730983804053
 30
0.0
 10
122.7515082158399
 20
-141.327463072307
 30
0.0
 10
123.083615420618
 20
-141.2895670219693
 30
0.0
 10
123.083615420618
 20
-141.2895670219693
 30
0.0
 10
123.083615420618
 20
-141.5031629420547
 30
0.0
 10
123.083615420618
 20
-141.5031629420547
 30
0.0
 10
123.0264268355628
 20
-141.513842738059
 30
0.0
 10
122.8782877296971
 20
-141.5455376165233
 30
0.0
 10
122.8782877296971
 20
-141.7484537406045
 30
0.0
 10
122.8782877296971
 20
-142.0405978377537
 30
0.0
 10
123.2062608198929
 20
-142.0805609453826
 30
0.0
 10
123.4112440012652
 20
-142.0933077986781
 30
0.0
 10
123.33304033375
 20
-142.0002902205763
 30
0.0
 10
123.2737846914037
 20
-141.9324218395169
 30
0.0
 10
123.2737846914037
 20
-141.7505207978957
 30
0.0
 10
123.2737846914037
 20
-141.5706868135656
 30
0.0
 10
123.3819606896406
 20
-141.2682074299607
 30
0.0
 10
123.7881374473516
 20
-141.2682074299607
 30
0.0
 10
124.1074977988342
 20
-141.2682074299607
 30
0.0
 10
124.3272948907932
 20
-141.4673339490082
 30
0.0
 10
124.3272948907932
 20
-141.7846272431997
 30
0.0
  0
HATCH
  5
132
330
12C
100
AcDbEntity
  8
レイヤー 1
 62
    18
420
        0
440
 33554687
100
AcDbHatch
 10
0.0
 20
0.0
 30
0.0
210
0.0
220
0.0
230
1.0
  2
SOLID
 70
     1
 71
     1
 91
        2
 92
        1
 93
        1
 72
     4
 94
        3
 73
     0
 74
     0
 95
       17
 96
       13
 40
0.0
 40
0.0
 40
0.0
 40
0.0
 40
1.0
 40
1.0
 40
1.0
 40
2.0
 40
2.0
 40
2.0
 40
3.0
 40
3.0
 40
3.0
 40
4.0
 40
4.0
 40
4.0
 40
4.0
 10
123.4684325863204
 20
-141.767746275322
 10
123.4684325863204
 20
-142.0299180417495
 10
123.6799614491147
 20
-142.0678140920872
 10
123.7964056765162
 20
-142.0678140920872
 10
123.9721055462639
 20
-142.0678140920872
 10
124.1350585627162
 20
-141.9727294566943
 10
124.1350585627162
 20
-141.788761357782
 10
124.1350585627162
 20
-141.6681830157982
 10
124.0758029203699
 20
-141.4924831460505
 10
123.7902045046427
 20
-141.4924831460505
 10
123.5659287885529
 20
-141.4924831460505
 10
123.4684325863204
 20
-141.6320095132031
 10
123.4684325863204
 20
-141.767746275322
 97
        0
 97
        1
330
130
 92
        1
 93
        1
 72
     4
 94
        3
 73
     0
 74
     0
 95
       32
 96
       28
 40
0.0
 40
0.0
 40
0.0
 40
0.0
 40
1.0
 40
1.0
 40
1.0
 40
2.0
 40
2.0
 40
2.0
 40
3.0
 40
3.0
 40
3.0
 40
4.0
 40
4.0
 40
4.0
 40
5.0
 40
5.0
 40
5.0
 40
6.0
 40
6.0
 40
6.0
 40
7.0
 40
7.0
 40
7.0
 40
8.0
 40
8.0
 40
8.0
 40
9.0
 40
9.0
 40
9.0
 40
9.0
 10
124.3272948907932
 20
-141.7846272431997
 10
124.3272948907932
 20
-142.3007025468901
 10
123.773323536765
 20
-142.3093152856032
 10
123.559383107131
 20
-142.3093152856032
 10
123.3289062191678
 20
-142.3093152856032
 10
122.6815727774893
 20
-142.2900227508858
 10
122.6815727774893
 20
-141.7463866833134
 10
122.6815727774893
 20
-141.5730983804053
 10
122.7515082158399
 20
-141.327463072307
 10
123.083615420618
 20
-141.2895670219693
 10
123.083615420618
 20
-141.2895670219693
 10
123.083615420618
 20
-141.5031629420547
 10
123.083615420618
 20
-141.5031629420547
 10
123.0264268355628
 20
-141.513842738059
 10
122.8782877296971
 20
-141.5455376165233
 10
122.8782877296971
 20
-141.7484537406045
 10
122.8782877296971
 20
-142.0405978377537
 10
123.2062608198929
 20
-142.0805609453826
 10
123.4112440012652
 20
-142.0933077986781
 10
123.33304033375
 20
-142.0002902205763
 10
123.2737846914037
 20
-141.9324218395169
 10
123.2737846914037
 20
-141.7505207978957
 10
123.2737846914037
 20
-141.5706868135656
 10
123.3819606896406
 20
-141.2682074299607
 10
123.7881374473516
 20
-141.2682074299607
 10
124.1074977988342
 20
-141.2682074299607
 10
124.3272948907932
 20
-141.4673339490082
 10
124.3272948907932
 20
-141.7846272431997
 97
        0
 97
        1
330
131
 75
     2
 76
     1
 98
        1
 10
0.0
 20
0.0
450
        0
451
        0
460
0.0
461
0.0
452
        0
462
0.0
453
        0
470

  0
ENDBLK
  5
12F
330
12C
100
AcDbEntity
  8
0
100
AcDbBlockEnd
  0
BLOCK
  5
138
330
136
100
AcDbEntity
  8
0
100
AcDbBlockBegin
  2
Block_26
 70
     0
 10
0.0
 20
0.0
 30
0.0
  3
Block_26
  1

  0
INSERT
  5
13B
330
136
100
AcDbEntity
  8
レイヤー 1
100
AcDbBlockReference
  2
Block_27
 10
0.0
 20
0.0
 30
0.0
  0
ENDBLK
  5
139
330
136
100
AcDbEntity
  8
0
100
AcDbBlockEnd
  0
BLOCK
  5
13C
330
13A
100
AcDbEntity
  8
0
100
AcDbBlockBegin
  2
Block_27
 70
     0
 10
0.0
 20
0.0
 30
0.0
  3
Block_27
  1

  0
SPLINE
  5
13E
330
13A
100
AcDbEntity
  8
レイヤー 1
100
AcDbSpline
210
0.0
220
0.0
230
1.0
 70
     9
 71
     3
 72
    44
 73
    40
 74
     0
 42
0.0000000001
 43
0.0000000001
 40
0.0
 40
0.0
 40
0.0
 40
0.0
 40
1.0
 40
1.0
 40
1.0
 40
2.0
 40
2.0
 40
2.0
 40
3.0
 40
3.0
 40
3.0
 40
4.0
 40
4.0
 40
4.0
 40
5.0
 40
5.0
 40
5.0
 40
6.0
 40
6.0
 40
6.0
 40
7.0
 40
7.0
 40
7.0
 40
8.0
 40
8.0
 40
8.0
 40
9.0
 40
9.0
 40
9.0
 40
10.0
 40
10.0
 40
10.0
 40
11.0
 40
11.0
 40
11.0
 40
12.0
 40
12.0
 40
12.0
 40
13.0
 40
13.0
 40
13.0
 40
13.0
 10
82.58582897240911
 20
-151.7747151313271
 30
0.0
 10
82.74447561950486
 20
-151.9924451659949
 30
0.0
 10
82.81854517243772
 20
-152.0854627440967
 30
0.0
 10
82.96237790894691
 20
-152.1343830999872
 30
0.0
 10
82.96237790894691
 20
-152.1343830999872
 30
0.0
 10
82.96237790894691
 20
-151.3557915203208
 30
0.0
 10
82.96237790894691
 20
-151.3557915203208
 30
0.0
 10
82.96237790894691
 20
-151.3557915203208
 30
0.0
 10
83.16753334509353
 20
-151.3557915203208
 30
0.0
 10
83.16753334509353
 20
-151.3557915203208
 30
0.0
 10
83.16753334509353
 20
-151.3557915203208
 30
0.0
 10
83.16753334509353
 20
-152.3838080131193
 30
0.0
 10
83.16753334509353
 20
-152.3838080131193
 30
0.0
 10
82.8099324337246
 20
-152.352113134655
 30
0.0
 10
82.73172876620943
 20
-152.2866563204353
 30
0.0
 10
82.4333834971868
 20
-151.9014946451843
 30
0.0
 10
82.23460148768788
 20
-151.6455240506303
 30
0.0
 10
82.16690536140273
 20
-151.5800672364105
 30
0.0
 10
82.02944605154126
 20
-151.5800672364105
 30
0.0
 10
81.91093476684866
 20
-151.5800672364105
 30
0.0
 10
81.77984888363489
 20
-151.6520697320522
 30
0.0
 10
81.77984888363489
 20
-151.84878468426
 30
0.0
 10
81.77984888363489
 20
-152.1088893933964
 30
0.0
 10
82.01032577159812
 20
-152.1175021321095
 30
0.0
 10
82.12676999899956
 20
-152.1216362466918
 30
0.0
 10
82.12676999899956
 20
-152.1216362466918
 30
0.0
 10
82.12676999899956
 20
-152.3459119627815
 30
0.0
 10
82.12676999899956
 20
-152.3459119627815
 30
0.0
 10
81.99981823036811
 20
-152.3372992240684
 30
0.0
 10
81.88768037232321
 20
-152.3266194280642
 30
0.0
 10
81.76916908763063
 20
-152.2463487032578
 30
0.0
 10
81.60845538324371
 20
-152.1364501572784
 30
0.0
 10
81.57452119271402
 20
-151.9500704915264
 30
0.0
 10
81.57452119271402
 20
-151.8339707736734
 30
0.0
 10
81.57452119271402
 20
-151.5566405871108
 30
0.0
 10
81.75866154640061
 20
-151.3492458388988
 30
0.0
 10
82.03151310883241
 20
-151.3492458388988
 30
0.0
 10
82.25992293950445
 20
-151.3492458388988
 30
0.0
 10
82.35948619902819
 20
-151.4656900663002
 30
0.0
 10
82.58582897240911
 20
-151.7747151313271
 30
0.0
  0
HATCH
  5
13F
330
13A
100
AcDbEntity
  8
レイヤー 1
 62
    18
420
        0
440
 33554687
100
AcDbHatch
 10
0.0
 20
0.0
 30
0.0
210
0.0
220
0.0
230
1.0
  2
SOLID
 70
     1
 71
     1
 91
        1
 92
        1
 93
        1
 72
     4
 94
        3
 73
     0
 74
     0
 95
       44
 96
       40
 40
0.0
 40
0.0
 40
0.0
 40
0.0
 40
1.0
 40
1.0
 40
1.0
 40
2.0
 40
2.0
 40
2.0
 40
3.0
 40
3.0
 40
3.0
 40
4.0
 40
4.0
 40
4.0
 40
5.0
 40
5.0
 40
5.0
 40
6.0
 40
6.0
 40
6.0
 40
7.0
 40
7.0
 40
7.0
 40
8.0
 40
8.0
 40
8.0
 40
9.0
 40
9.0
 40
9.0
 40
10.0
 40
10.0
 40
10.0
 40
11.0
 40
11.0
 40
11.0
 40
12.0
 40
12.0
 40
12.0
 40
13.0
 40
13.0
 40
13.0
 40
13.0
 10
82.58582897240911
 20
-151.7747151313271
 10
82.74447561950486
 20
-151.9924451659949
 10
82.81854517243772
 20
-152.0854627440967
 10
82.96237790894691
 20
-152.1343830999872
 10
82.96237790894691
 20
-152.1343830999872
 10
82.96237790894691
 20
-151.3557915203208
 10
82.96237790894691
 20
-151.3557915203208
 10
82.96237790894691
 20
-151.3557915203208
 10
83.16753334509353
 20
-151.3557915203208
 10
83.16753334509353
 20
-151.3557915203208
 10
83.16753334509353
 20
-151.3557915203208
 10
83.16753334509353
 20
-152.3838080131193
 10
83.16753334509353
 20
-152.3838080131193
 10
82.8099324337246
 20
-152.352113134655
 10
82.73172876620943
 20
-152.2866563204353
 10
82.4333834971868
 20
-151.9014946451843
 10
82.23460148768788
 20
-151.6455240506303
 10
82.16690536140273
 20
-151.5800672364105
 10
82.02944605154126
 20
-151.5800672364105
 10
81.91093476684866
 20
-151.5800672364105
 10
81.77984888363489
 20
-151.6520697320522
 10
81.77984888363489
 20
-151.84878468426
 10
81.77984888363489
 20
-152.1088893933964
 10
82.01032577159812
 20
-152.1175021321095
 10
82.12676999899956
 20
-152.1216362466918
 10
82.12676999899956
 20
-152.1216362466918
 10
82.12676999899956
 20
-152.3459119627815
 10
82.12676999899956
 20
-152.3459119627815
 10
81.99981823036811
 20
-152.3372992240684
 10
81.88768037232321
 20
-152.3266194280642
 10
81.76916908763063
 20
-152.2463487032578
 10
81.60845538324371
 20
-152.1364501572784
 10
81.57452119271402
 20
-151.9500704915264
 10
81.57452119271402
 20
-151.8339707736734
 10
81.57452119271402
 20
-151.5566405871108
 10
81.75866154640061
 20
-151.3492458388988
 10
82.03151310883241
 20
-151.3492458388988
 10
82.25992293950445
 20
-151.3492458388988
 10
82.35948619902819
 20
-151.4656900663002
 10
82.58582897240911
 20
-151.7747151313271
 97
        0
 97
        1
330
13E
 75
     2
 76
     1
 98
        1
 10
0.0
 20
0.0
450
        0
451
        0
460
0.0
461
0.0
452
        0
462
0.0
453
        0
470

  0
SPLINE
  5
140
330
13A
100
AcDbEntity
  8
レイヤー 1
100
AcDbSpline
210
0.0
220
0.0
230
1.0
 70
     9
 71
     3
 72
    53
 73
    49
 74
     0
 42
0.0000000001
 43
0.0000000001
 40
0.0
 40
0.0
 40
0.0
 40
0.0
 40
1.0
 40
1.0
 40
1.0
 40
2.0
 40
2.0
 40
2.0
 40
3.0
 40
3.0
 40
3.0
 40
4.0
 40
4.0
 40
4.0
 40
5.0
 40
5.0
 40
5.0
 40
6.0
 40
6.0
 40
6.0
 40
7.0
 40
7.0
 40
7.0
 40
8.0
 40
8.0
 40
8.0
 40
9.0
 40
9.0
 40
9.0
 40
10.0
 40
10.0
 40
10.0
 40
11.0
 40
11.0
 40
11.0
 40
12.0
 40
12.0
 40
12.0
 40
13.0
 40
13.0
 40
13.0
 40
14.0
 40
14.0
 40
14.0
 40
15.0
 40
15.0
 40
15.0
 40
16.0
 40
16.0
 40
16.0
 40
16.0
 10
83.21834850350098
 20
-150.7098361168364
 30
0.0
 10
83.21834850350098
 20
-150.7880397843516
 30
0.0
 10
83.20129528084898
 20
-150.8896701011664
 30
0.0
 10
83.1379055239204
 20
-150.9913004179813
 30
0.0
 10
83.02783472316667
 20
-151.1645887208894
 30
0.0
 10
82.8967488399529
 20
-151.1859483128979
 30
0.0
 10
82.78891735126459
 20
-151.2048963380668
 30
0.0
 10
82.78891735126459
 20
-151.2048963380668
 30
0.0
 10
82.78891735126459
 20
-150.9826876792682
 30
0.0
 10
82.78891735126459
 20
-150.9826876792682
 30
0.0
 10
82.9876993607635
 20
-150.9279106610527
 30
0.0
 10
83.01732718193665
 20
-150.800786637647
 30
0.0
 10
83.01732718193665
 20
-150.7077690595453
 30
0.0
 10
83.01732718193665
 20
-150.5682426923926
 30
0.0
 10
82.91793617718719
 20
-150.4159694719446
 30
0.0
 10
82.68521997715856
 20
-150.4159694719446
 30
0.0
 10
82.42924938260449
 20
-150.4159694719446
 30
0.0
 10
82.35948619902819
 20
-150.5958034562747
 30
0.0
 10
82.35948619902819
 20
-150.7163817982584
 30
0.0
 10
82.35948619902819
 20
-150.7480766767227
 30
0.0
 10
82.35948619902819
 20
-150.8896701011664
 30
0.0
 10
82.48850502495079
 20
-150.9785535646859
 30
0.0
 10
82.48850502495079
 20
-150.9785535646859
 30
0.0
 10
82.46938474500765
 20
-151.1542534344336
 30
0.0
 10
82.46938474500765
 20
-151.1542534344336
 30
0.0
 10
82.46938474500765
 20
-151.1542534344336
 30
0.0
 10
81.62326929383031
 20
-151.0336750924499
 30
0.0
 10
81.62326929383031
 20
-151.0336750924499
 30
0.0
 10
81.62326929383031
 20
-151.0336750924499
 30
0.0
 10
81.62326929383031
 20
-150.2550835127834
 30
0.0
 10
81.62326929383031
 20
-150.2550835127834
 30
0.0
 10
81.62326929383031
 20
-150.2550835127834
 30
0.0
 10
81.81791718874691
 20
-150.2550835127834
 30
0.0
 10
81.81791718874691
 20
-150.2550835127834
 30
0.0
 10
81.81791718874691
 20
-150.2550835127834
 30
0.0
 10
81.81791718874691
 20
-150.8707220759976
 30
0.0
 10
81.81791718874691
 20
-150.8707220759976
 30
0.0
 10
81.81791718874691
 20
-150.8707220759976
 30
0.0
 10
82.24097491433559
 20
-150.9361788902173
 30
0.0
 10
82.24097491433559
 20
-150.9361788902173
 30
0.0
 10
82.20704072380589
 20
-150.8748561905799
 30
0.0
 10
82.16690536140273
 20
-150.7925184084824
 30
0.0
 10
82.16690536140273
 20
-150.6740071237898
 30
0.0
 10
82.16690536140273
 20
-150.4201035865269
 30
0.0
 10
82.35311277238047
 20
-150.1830810171417
 30
0.0
 10
82.66609969721542
 20
-150.1830810171417
 30
0.0
 10
82.98356524618119
 20
-150.1830810171417
 30
0.0
 10
83.21834850350098
 20
-150.4073567332315
 30
0.0
 10
83.21834850350098
 20
-150.7098361168364
 30
0.0
  0
HATCH
  5
141
330
13A
100
AcDbEntity
  8
レイヤー 1
 62
    18
420
        0
440
 33554687
100
AcDbHatch
 10
0.0
 20
0.0
 30
0.0
210
0.0
220
0.0
230
1.0
  2
SOLID
 70
     1
 71
     1
 91
        1
 92
        1
 93
        1
 72
     4
 94
        3
 73
     0
 74
     0
 95
       53
 96
       49
 40
0.0
 40
0.0
 40
0.0
 40
0.0
 40
1.0
 40
1.0
 40
1.0
 40
2.0
 40
2.0
 40
2.0
 40
3.0
 40
3.0
 40
3.0
 40
4.0
 40
4.0
 40
4.0
 40
5.0
 40
5.0
 40
5.0
 40
6.0
 40
6.0
 40
6.0
 40
7.0
 40
7.0
 40
7.0
 40
8.0
 40
8.0
 40
8.0
 40
9.0
 40
9.0
 40
9.0
 40
10.0
 40
10.0
 40
10.0
 40
11.0
 40
11.0
 40
11.0
 40
12.0
 40
12.0
 40
12.0
 40
13.0
 40
13.0
 40
13.0
 40
14.0
 40
14.0
 40
14.0
 40
15.0
 40
15.0
 40
15.0
 40
16.0
 40
16.0
 40
16.0
 40
16.0
 10
83.21834850350098
 20
-150.7098361168364
 10
83.21834850350098
 20
-150.7880397843516
 10
83.20129528084898
 20
-150.8896701011664
 10
83.1379055239204
 20
-150.9913004179813
 10
83.02783472316667
 20
-151.1645887208894
 10
82.8967488399529
 20
-151.1859483128979
 10
82.78891735126459
 20
-151.2048963380668
 10
82.78891735126459
 20
-151.2048963380668
 10
82.78891735126459
 20
-150.9826876792682
 10
82.78891735126459
 20
-150.9826876792682
 10
82.9876993607635
 20
-150.9279106610527
 10
83.01732718193665
 20
-150.800786637647
 10
83.01732718193665
 20
-150.7077690595453
 10
83.01732718193665
 20
-150.5682426923926
 10
82.91793617718719
 20
-150.4159694719446
 10
82.68521997715856
 20
-150.4159694719446
 10
82.42924938260449
 20
-150.4159694719446
 10
82.35948619902819
 20
-150.5958034562747
 10
82.35948619902819
 20
-150.7163817982584
 10
82.35948619902819
 20
-150.7480766767227
 10
82.35948619902819
 20
-150.8896701011664
 10
82.48850502495079
 20
-150.9785535646859
 10
82.48850502495079
 20
-150.9785535646859
 10
82.46938474500765
 20
-151.1542534344336
 10
82.46938474500765
 20
-151.1542534344336
 10
82.46938474500765
 20
-151.1542534344336
 10
81.62326929383031
 20
-151.0336750924499
 10
81.62326929383031
 20
-151.0336750924499
 10
81.62326929383031
 20
-151.0336750924499
 10
81.62326929383031
 20
-150.2550835127834
 10
81.62326929383031
 20
-150.2550835127834
 10
81.62326929383031
 20
-150.2550835127834
 10
81.81791718874691
 20
-150.2550835127834
 10
81.81791718874691
 20
-150.2550835127834
 10
81.81791718874691
 20
-150.2550835127834
 10
81.81791718874691
 20
-150.8707220759976
 10
81.81791718874691
 20
-150.8707220759976
 10
81.81791718874691
 20
-150.8707220759976
 10
82.24097491433559
 20
-150.9361788902173
 10
82.24097491433559
 20
-150.9361788902173
 10
82.20704072380589
 20
-150.8748561905799
 10
82.16690536140273
 20
-150.7925184084824
 10
82.16690536140273
 20
-150.6740071237898
 10
82.16690536140273
 20
-150.4201035865269
 10
82.35311277238047
 20
-150.1830810171417
 10
82.66609969721542
 20
-150.1830810171417
 10
82.98356524618119
 20
-150.1830810171417
 10
83.21834850350098
 20
-150.4073567332315
 10
83.21834850350098
 20
-150.7098361168364
 97
        0
 97
        1
330
140
 75
     2
 76
     1
 98
        1
 10
0.0
 20
0.0
450
        0
451
        0
460
0.0
461
0.0
452
        0
462
0.0
453
        0
470

  0
ENDBLK
  5
13D
330
13A
100
AcDbEntity
  8
0
100
AcDbBlockEnd
  0
BLOCK
  5
14A
330
148
100
AcDbEntity
  8
0
100
AcDbBlockBegin
  2
Block_28
 70
     0
 10
0.0
 20
0.0
 30
0.0
  3
Block_28
  1

  0
INSERT
  5
14D
330
148
100
AcDbEntity
  8
レイヤー 1
100
AcDbBlockReference
  2
Block_29
 10
0.0
 20
0.0
 30
0.0
  0
ENDBLK
  5
14B
330
148
100
AcDbEntity
  8
0
100
AcDbBlockEnd
  0
BLOCK
  5
14E
330
14C
100
AcDbEntity
  8
0
100
AcDbBlockBegin
  2
Block_29
 70
     0
 10
0.0
 20
0.0
 30
0.0
  3
Block_29
  1

  0
SPLINE
  5
150
330
14C
100
AcDbEntity
  8
レイヤー 1
100
AcDbSpline
210
0.0
220
0.0
230
1.0
 70
     9
 71
     3
 72
    17
 73
    13
 74
     0
 42
0.0000000001
 43
0.0000000001
 40
0.0
 40
0.0
 40
0.0
 40
0.0
 40
1.0
 40
1.0
 40
1.0
 40
2.0
 40
2.0
 40
2.0
 40
3.0
 40
3.0
 40
3.0
 40
4.0
 40
4.0
 40
4.0
 40
4.0
 10
100.417470949288
 20
-153.8266140023419
 30
0.0
 10
100.4005899814103
 20
-153.8562418235151
 30
0.0
 10
100.3499470777771
 20
-153.9492594016168
 30
0.0
 10
100.3392672817728
 20
-153.9682074267857
 30
0.0
 10
100.5297810621071
 20
-154.027463069132
 30
0.0
 10
100.5507961445671
 20
-154.034008750554
 30
0.0
 10
100.6227986402089
 20
-154.061569514436
 30
0.0
 10
100.6779201679729
 20
-153.9747531082077
 30
0.0
 10
100.701002307724
 20
-153.9006835552748
 30
0.0
 10
100.7158162183106
 20
-153.8266140023419
 30
0.0
 10
100.7158162183106
 20
-153.8266140023419
 30
0.0
 10
100.417470949288
 20
-153.8266140023419
 30
0.0
 10
100.417470949288
 20
-153.8266140023419
 30
0.0
  0
SPLINE
  5
151
330
14C
100
AcDbEntity
  8
レイヤー 1
100
AcDbSpline
210
0.0
220
0.0
230
1.0
 70
    11
 71
     3
 72
    20
 73
    16
 74
     0
 42
0.0000000001
 43
0.0000000001
 40
0.0
 40
0.0
 40
0.0
 40
0.0
 40
1.0
 40
1.0
 40
1.0
 40
2.0
 40
2.0
 40
2.0
 40
3.0
 40
3.0
 40
3.0
 40
4.0
 40
4.0
 40
4.0
 40
5.0
 40
5.0
 40
5.0
 40
5.0
 10
100.3540811923594
 20
-152.9763644365823
 30
0.0
 10
100.3540811923594
 20
-152.9763644365823
 30
0.0
 10
100.3223863138951
 20
-152.9763644365823
 30
0.0
 10
100.3223863138951
 20
-152.9763644365823
 30
0.0
 10
100.3688951029459
 20
-153.0755831865575
 30
0.0
 10
100.4005899814103
 20
-153.1558539113638
 30
0.0
 10
100.4343519171657
 20
-153.2829779347695
 30
0.0
 10
100.4343519171657
 20
-153.2829779347695
 30
0.0
 10
100.6417466653777
 20
-153.2829779347695
 30
0.0
 10
100.6417466653777
 20
-153.2829779347695
 30
0.0
 10
100.673441543842
 20
-153.1899603566678
 30
0.0
 10
100.6968681931417
 20
-153.1052110077306
 30
0.0
 10
100.7199503328929
 20
-152.9763644365823
 30
0.0
 10
100.7199503328929
 20
-152.9763644365823
 30
0.0
 10
100.3540811923594
 20
-152.9763644365823
 30
0.0
 10
100.3540811923594
 20
-152.9763644365823
 30
0.0
  0
SPLINE
  5
152
330
14C
100
AcDbEntity
  8
レイヤー 1
100
AcDbSpline
210
0.0
220
0.0
230
1.0
 70
     9
 71
     3
 72
   242
 73
   238
 74
     0
 42
0.0000000001
 43
0.0000000001
 40
0.0
 40
0.0
 40
0.0
 40
0.0
 40
1.0
 40
1.0
 40
1.0
 40
2.0
 40
2.0
 40
2.0
 40
3.0
 40
3.0
 40
3.0
 40
4.0
 40
4.0
 40
4.0
 40
5.0
 40
5.0
 40
5.0
 40
6.0
 40
6.0
 40
6.0
 40
7.0
 40
7.0
 40
7.0
 40
8.0
 40
8.0
 40
8.0
 40
9.0
 40
9.0
 40
9.0
 40
10.0
 40
10.0
 40
10.0
 40
11.0
 40
11.0
 40
11.0
 40
12.0
 40
12.0
 40
12.0
 40
13.0
 40
13.0
 40
13.0
 40
14.0
 40
14.0
 40
14.0
 40
15.0
 40
15.0
 40
15.0
 40
16.0
 40
16.0
 40
16.0
 40
17.0
 40
17.0
 40
17.0
 40
18.0
 40
18.0
 40
18.0
 40
19.0
 40
19.0
 40
19.0
 40
20.0
 40
20.0
 40
20.0
 40
21.0
 40
21.0
 40
21.0
 40
22.0
 40
22.0
 40
22.0
 40
23.0
 40
23.0
 40
23.0
 40
24.0
 40
24.0
 40
24.0
 40
25.0
 40
25.0
 40
25.0
 40
26.0
 40
26.0
 40
26.0
 40
27.0
 40
27.0
 40
27.0
 40
28.0
 40
28.0
 40
28.0
 40
29.0
 40
29.0
 40
29.0
 40
30.0
 40
30.0
 40
30.0
 40
31.0
 40
31.0
 40
31.0
 40
32.0
 40
32.0
 40
32.0
 40
33.0
 40
33.0
 40
33.0
 40
34.0
 40
34.0
 40
34.0
 40
35.0
 40
35.0
 40
35.0
 40
36.0
 40
36.0
 40
36.0
 40
37.0
 40
37.0
 40
37.0
 40
38.0
 40
38.0
 40
38.0
 40
39.0
 40
39.0
 40
39.0
 40
40.0
 40
40.0
 40
40.0
 40
41.0
 40
41.0
 40
41.0
 40
42.0
 40
42.0
 40
42.0
 40
43.0
 40
43.0
 40
43.0
 40
44.0
 40
44.0
 40
44.0
 40
45.0
 40
45.0
 40
45.0
 40
46.0
 40
46.0
 40
46.0
 40
47.0
 40
47.0
 40
47.0
 40
48.0
 40
48.0
 40
48.0
 40
49.0
 40
49.0
 40
49.0
 40
50.0
 40
50.0
 40
50.0
 40
51.0
 40
51.0
 40
51.0
 40
52.0
 40
52.0
 40
52.0
 40
53.0
 40
53.0
 40
53.0
 40
54.0
 40
54.0
 40
54.0
 40
55.0
 40
55.0
 40
55.0
 40
56.0
 40
56.0
 40
56.0
 40
57.0
 40
57.0
 40
57.0
 40
58.0
 40
58.0
 40
58.0
 40
59.0
 40
59.0
 40
59.0
 40
60.0
 40
60.0
 40
60.0
 40
61.0
 40
61.0
 40
61.0
 40
62.0
 40
62.0
 40
62.0
 40
63.0
 40
63.0
 40
63.0
 40
64.0
 40
64.0
 40
64.0
 40
65.0
 40
65.0
 40
65.0
 40
66.0
 40
66.0
 40
66.0
 40
67.0
 40
67.0
 40
67.0
 40
68.0
 40
68.0
 40
68.0
 40
69.0
 40
69.0
 40
69.0
 40
70.0
 40
70.0
 40
70.0
 40
71.0
 40
71.0
 40
71.0
 40
72.0
 40
72.0
 40
72.0
 40
73.0
 40
73.0
 40
73.0
 40
74.0
 40
74.0
 40
74.0
 40
75.0
 40
75.0
 40
75.0
 40
76.0
 40
76.0
 40
76.0
 40
77.0
 40
77.0
 40
77.0
 40
78.0
 40
78.0
 40
78.0
 40
79.0
 40
79.0
 40
79.0
 40
79.0
 10
100.982466608869
 20
-153.441452327091
 30
0.0
 10
100.982466608869
 20
-153.441452327091
 30
0.0
 10
100.728563071606
 20
-153.441452327091
 30
0.0
 10
100.728563071606
 20
-153.441452327091
 30
0.0
 10
100.728563071606
 20
-153.441452327091
 30
0.0
 10
100.4515773945919
 20
-153.441452327091
 30
0.0
 10
100.4515773945919
 20
-153.441452327091
 30
0.0
 10
100.4515773945919
 20
-153.441452327091
 30
0.0
 10
100.5783569084491
 20
-153.4838270015596
 30
0.0
 10
100.5783569084491
 20
-153.4838270015596
 30
0.0
 10
100.5890367044534
 20
-153.4883056256904
 30
0.0
 10
100.6014390482003
 20
-153.4945067975638
 30
0.0
 10
100.6014390482003
 20
-153.5072536508593
 30
0.0
 10
100.6014390482003
 20
-153.5282687333193
 30
0.0
 10
100.569744169736
 20
-153.5348144147413
 30
0.0
 10
100.548729087276
 20
-153.5389485293236
 30
0.0
 10
100.5380492912717
 20
-153.5620306690747
 30
0.0
 10
100.5084214700986
 20
-153.627831992843
 30
0.0
 10
100.4894734449297
 20
-153.6722737246027
 30
0.0
 10
100.4894734449297
 20
-153.6722737246027
 30
0.0
 10
100.7602579500703
 20
-153.6722737246027
 30
0.0
 10
100.7602579500703
 20
-153.6722737246027
 30
0.0
 10
100.8512084708809
 20
-153.6722737246027
 30
0.0
 10
101.0479234230887
 20
-153.6677951004719
 30
0.0
 10
101.189861357081
 20
-153.6595268713073
 30
0.0
 10
101.189861357081
 20
-153.6595268713073
 30
0.0
 10
101.189861357081
 20
-153.8372937983462
 30
0.0
 10
101.189861357081
 20
-153.8372937983462
 30
0.0
 10
101.107179065435
 20
-153.8328151742154
 30
0.0
 10
101.086163982975
 20
-153.8328151742154
 30
0.0
 10
100.9063299986449
 20
-153.8286810596331
 30
0.0
 10
100.8746351201806
 20
-153.9830213373723
 30
0.0
 10
100.8301933884209
 20
-154.0636365717271
 30
0.0
 10
100.7857516566612
 20
-154.1332275005292
 30
0.0
 10
100.9063299986449
 20
-154.1924831428755
 30
0.0
 10
101.0120944300421
 20
-154.2603515239349
 30
0.0
 10
101.1157918041481
 20
-154.3426893060324
 30
0.0
 10
101.1157918041481
 20
-154.3426893060324
 30
0.0
 10
100.9972805194555
 20
-154.509776437067
 30
0.0
 10
100.9972805194555
 20
-154.509776437067
 30
0.0
 10
100.9738538701558
 20
-154.4908284118981
 30
0.0
 10
100.9611070168604
 20
-154.4825601827335
 30
0.0
 10
100.8491414135898
 20
-154.3978108337964
 30
0.0
 10
100.8005655672477
 20
-154.3595702739101
 30
0.0
 10
100.7413099249015
 20
-154.3237412808635
 30
0.0
 10
100.6606946905466
 20
-154.2792995491038
 30
0.0
 10
100.4491658277523
 20
-154.4656792148558
 30
0.0
 10
100.2441826463799
 20
-154.488761354607
 30
0.0
 10
99.95410560652189
 20
-154.5183891757801
 30
0.0
 10
99.95410560652189
 20
-154.5183891757801
 30
0.0
 10
99.85075274196439
 20
-154.3385551914501
 30
0.0
 10
99.85075274196439
 20
-154.3385551914501
 30
0.0
 10
100.1680460361559
 20
-154.3344210768678
 30
0.0
 10
100.3434013963551
 20
-154.3089273702769
 30
0.0
 10
100.4956746168031
 20
-154.1990288242975
 30
0.0
 10
100.3775078416591
 20
-154.1480414111157
 30
0.0
 10
100.2886243781396
 20
-154.1208251567823
 30
0.0
 10
100.2524508755445
 20
-154.1080783034868
 30
0.0
 10
100.2335028503756
 20
-154.1356390673689
 30
0.0
 10
100.2186889397891
 20
-154.1545870925377
 30
0.0
 10
100.191128175907
 20
-154.1883490282932
 30
0.0
 10
100.191128175907
 20
-154.1883490282932
 30
0.0
 10
99.99441322369932
 20
-154.1060112461957
 30
0.0
 10
99.99441322369932
 20
-154.1060112461957
 30
0.0
 10
100.0770955153453
 20
-154.0253960118409
 30
0.0
 10
100.1384182149827
 20
-153.9303113764479
 30
0.0
 10
100.1956068000379
 20
-153.8286810596331
 30
0.0
 10
100.0050930197036
 20
-153.8328151742154
 30
0.0
 10
99.98373342769504
 20
-153.8328151742154
 30
0.0
 10
99.90139564559758
 20
-153.8372937983462
 30
0.0
 10
99.90139564559758
 20
-153.8372937983462
 30
0.0
 10
99.90139564559758
 20
-153.6595268713073
 30
0.0
 10
99.90139564559758
 20
-153.6595268713073
 30
0.0
 10
100.0409220127502
 20
-153.6657280431808
 30
0.0
 10
100.2503838182533
 20
-153.6702066673116
 30
0.0
 10
100.2758775248442
 20
-153.6702066673116
 30
0.0
 10
100.2927584927219
 20
-153.6361002220076
 30
0.0
 10
100.3478800204859
 20
-153.5155218800239
 30
0.0
 10
100.3668280456548
 20
-153.441452327091
 30
0.0
 10
100.3478800204859
 20
-153.441452327091
 30
0.0
 10
100.170113093447
 20
-153.447998008513
 30
0.0
 10
99.97546519853045
 20
-153.4607448618084
 30
0.0
 10
99.97546519853045
 20
-153.4607448618084
 30
0.0
 10
99.97546519853045
 20
-153.5940700570876
 30
0.0
 10
99.97546519853045
 20
-153.5940700570876
 30
0.0
 10
99.92688935218843
 20
-153.6192192541299
 30
0.0
 10
99.86763370984213
 20
-153.6509141325942
 30
0.0
 10
99.73430851456296
 20
-153.7167154563625
 30
0.0
 10
99.73430851456296
 20
-153.7167154563625
 30
0.0
 10
99.73430851456296
 20
-153.8624429953885
 30
0.0
 10
99.73430851456296
 20
-153.8624429953885
 30
0.0
 10
99.73430851456296
 20
-153.8624429953885
 30
0.0
 10
99.73430851456296
 20
-154.3302869622855
 30
0.0
 10
99.73430851456296
 20
-154.3302869622855
 30
0.0
 10
99.73430851456296
 20
-154.4570664761427
 30
0.0
 10
99.69813501196783
 20
-154.516322118489
 30
0.0
 10
99.41494816308029
 20
-154.5077093797758
 30
0.0
 10
99.41494816308029
 20
-154.5077093797758
 30
0.0
 10
99.31125078897428
 20
-154.3006591411123
 30
0.0
 10
99.31125078897428
 20
-154.3006591411123
 30
0.0
 10
99.37464054590288
 20
-154.3130614848592
 30
0.0
 10
99.42321639224489
 20
-154.3175401089901
 30
0.0
 10
99.46352400942231
 20
-154.3175401089901
 30
0.0
 10
99.53966061964635
 20
-154.3175401089901
 30
0.0
 10
99.55034041565061
 20
-154.2941134596904
 30
0.0
 10
99.55034041565061
 20
-154.2286566454706
 30
0.0
 10
99.55034041565061
 20
-154.2286566454706
 30
0.0
 10
99.55034041565061
 20
-153.7990532384599
 30
0.0
 10
99.55034041565061
 20
-153.7990532384599
 30
0.0
 10
99.45284421341805
 20
-153.8393608556374
 30
0.0
 10
99.43596324554032
 20
-153.8455620275108
 30
0.0
 10
99.38945445648945
 20
-153.8648545622282
 30
0.0
 10
99.38532034190714
 20
-153.8858696446882
 30
0.0
 10
99.38084171777632
 20
-153.9154974658614
 30
0.0
 10
99.36189369260745
 20
-153.9154974658614
 30
0.0
 10
99.35362546344286
 20
-153.9154974658614
 30
0.0
 10
99.34294566743858
 20
-153.9113633512791
 30
0.0
 10
99.33639998601661
 20
-153.8879367019794
 30
0.0
 10
99.33639998601661
 20
-153.8879367019794
 30
0.0
 10
99.28369002509228
 20
-153.6953558643539
 30
0.0
 10
99.28369002509228
 20
-153.6953558643539
 30
0.0
 10
99.42976207366687
 20
-153.6488470753031
 30
0.0
 10
99.49521888788662
 20
-153.6257649355519
 30
0.0
 10
99.55034041565061
 20
-153.6044053435433
 30
0.0
 10
99.55034041565061
 20
-153.6044053435433
 30
0.0
 10
99.55034041565061
 20
-153.1920274139589
 30
0.0
 10
99.55034041565061
 20
-153.1920274139589
 30
0.0
 10
99.55034041565061
 20
-153.1920274139589
 30
0.0
 10
99.49728594517777
 20
-153.1920274139589
 30
0.0
 10
99.49728594517777
 20
-153.1920274139589
 30
0.0
 10
99.49728594517777
 20
-153.1920274139589
 30
0.0
 10
99.4190822776626
 20
-153.1920274139589
 30
0.0
 10
99.4190822776626
 20
-153.1920274139589
 30
0.0
 10
99.35121389660316
 20
-153.1920274139589
 30
0.0
 10
99.34294566743858
 20
-153.1920274139589
 30
0.0
 10
99.30677216484346
 20
-153.1982285858324
 30
0.0
 10
99.30677216484346
 20
-153.1982285858324
 30
0.0
 10
99.30677216484346
 20
-153.0035806909158
 30
0.0
 10
99.30677216484346
 20
-153.0035806909158
 30
0.0
 10
99.33433292872544
 20
-153.0101263723377
 30
0.0
 10
99.34294566743858
 20
-153.0101263723377
 30
0.0
 10
99.41253659624061
 20
-153.0101263723377
 30
0.0
 10
99.41253659624061
 20
-153.0101263723377
 30
0.0
 10
99.54586179151979
 20
-153.0101263723377
 30
0.0
 10
99.54586179151979
 20
-153.0101263723377
 30
0.0
 10
99.54586179151979
 20
-152.9401909339871
 30
0.0
 10
99.54586179151979
 20
-152.8578531518897
 30
0.0
 10
99.54379473422864
 20
-152.8533745277589
 30
0.0
 10
99.53552650506404
 20
-152.6735405434288
 30
0.0
 10
99.53552650506404
 20
-152.6545925182599
 30
0.0
 10
99.53311493822436
 20
-152.6080837292091
 30
0.0
 10
99.53311493822436
 20
-152.6080837292091
 30
0.0
 10
99.74912242514953
 20
-152.6166964679222
 30
0.0
 10
99.74912242514953
 20
-152.6166964679222
 30
0.0
 10
99.75980222115381
 20
-152.6166964679222
 30
0.0
 10
99.78081730361383
 20
-152.6187635252133
 30
0.0
 10
99.78081730361383
 20
-152.6356444930911
 30
0.0
 10
99.78081730361383
 20
-152.6545925182599
 30
0.0
 10
99.76600339302725
 20
-152.6652723142642
 30
0.0
 10
99.74050968643641
 20
-152.6842203394331
 30
0.0
 10
99.74050968643641
 20
-152.7348632430663
 30
0.0
 10
99.73430851456296
 20
-152.9636175832869
 30
0.0
 10
99.73637557185412
 20
-153.0101263723377
 30
0.0
 10
99.86556665255097
 20
-153.0101263723377
 30
0.0
 10
99.87796899629787
 20
-153.0101263723377
 30
0.0
 10
99.97546519853045
 20
-153.0015136336246
 30
0.0
 10
99.97546519853045
 20
-153.0015136336246
 30
0.0
 10
99.97546519853045
 20
-153.1961615285412
 30
0.0
 10
99.97546519853045
 20
-153.1961615285412
 30
0.0
 10
99.93722463864417
 20
-153.19409447125
 30
0.0
 10
99.86970076713326
 20
-153.1899603566678
 30
0.0
 10
99.73430851456296
 20
-153.1920274139589
 30
0.0
 10
99.73430851456296
 20
-153.1920274139589
 30
0.0
 10
99.73430851456296
 20
-153.5303357906105
 30
0.0
 10
99.73430851456296
 20
-153.5303357906105
 30
0.0
 10
99.78908553277843
 20
-153.5072536508593
 30
0.0
 10
99.8548868565467
 20
-153.4796928869773
 30
0.0
 10
99.90346270288872
 20
-153.4562662376776
 30
0.0
 10
99.90346270288872
 20
-153.4562662376776
 30
0.0
 10
99.90346270288872
 20
-153.2788438201872
 30
0.0
 10
99.90346270288872
 20
-153.2788438201872
 30
0.0
 10
100.017839872999
 20
-153.2912461639341
 30
0.0
 10
100.1363511576916
 20
-153.2912461639341
 30
0.0
 10
100.2524508755445
 20
-153.2912461639341
 30
0.0
 10
100.2293687357933
 20
-153.1961615285412
 30
0.0
 10
100.2018079719113
 20
-153.1138237464437
 30
0.0
 10
100.1384182149827
 20
-152.9804985511646
 30
0.0
 10
100.093976483223
 20
-152.9825656084557
 30
0.0
 10
100.011294191577
 20
-152.986699723038
 30
0.0
 10
99.97339814123931
 20
-152.9887667803292
 30
0.0
 10
99.97339814123931
 20
-152.9887667803292
 30
0.0
 10
99.97339814123931
 20
-152.8089327959991
 30
0.0
 10
99.97339814123931
 20
-152.8089327959991
 30
0.0
 10
100.0981105978053
 20
-152.8175455347122
 30
0.0
 10
100.2717434102619
 20
-152.8216796492946
 30
0.0
 10
100.3540811923594
 20
-152.8216796492946
 30
0.0
 10
100.3540811923594
 20
-152.8216796492946
 30
0.0
 10
100.4367634840054
 20
-152.8216796492946
 30
0.0
 10
100.4367634840054
 20
-152.8216796492946
 30
0.0
 10
100.4367634840054
 20
-152.6587266328423
 30
0.0
 10
100.4367634840054
 20
-152.6483913463865
 30
0.0
 10
100.4343519171657
 20
-152.5932698186225
 30
0.0
 10
100.4343519171657
 20
-152.5932698186225
 30
0.0
 10
100.6586276332555
 20
-152.6187635252133
 30
0.0
 10
100.6586276332555
 20
-152.6187635252133
 30
0.0
 10
100.6631062573863
 20
-152.6187635252133
 30
0.0
 10
100.6841213398463
 20
-152.6208305825045
 30
0.0
 10
100.6841213398463
 20
-152.6377115503822
 30
0.0
 10
100.6841213398463
 20
-152.6525254609688
 30
0.0
 10
100.673441543842
 20
-152.6611381996819
 30
0.0
 10
100.64588077996
 20
-152.6759521102685
 30
0.0
 10
100.6396796080866
 20
-152.7414089244882
 30
0.0
 10
100.6376125507954
 20
-152.7624240069483
 30
0.0
 10
100.6376125507954
 20
-152.8216796492946
 30
0.0
 10
100.6376125507954
 20
-152.8216796492946
 30
0.0
 10
100.7326971861883
 20
-152.8216796492946
 30
0.0
 10
100.7326971861883
 20
-152.8216796492946
 30
0.0
 10
100.8153794778343
 20
-152.8216796492946
 30
0.0
 10
100.9886677807424
 20
-152.8175455347122
 30
0.0
 10
101.113724746857
 20
-152.8089327959991
 30
0.0
 10
101.113724746857
 20
-152.8089327959991
 30
0.0
 10
101.113724746857
 20
-152.9887667803292
 30
0.0
 10
101.113724746857
 20
-152.9887667803292
 30
0.0
 10
101.0840969256838
 20
-152.986699723038
 30
0.0
 10
100.9655856409912
 20
-152.9825656084557
 30
0.0
 10
100.9252780238138
 20
-152.9804985511646
 30
0.0
 10
100.9104641132272
 20
-153.0311414547978
 30
0.0
 10
100.8767021774718
 20
-153.1434515676169
 30
0.0
 10
100.8109008537035
 20
-153.2829779347695
 30
0.0
 10
100.8532755281721
 20
-153.2829779347695
 30
0.0
 10
101.1306057147347
 20
-153.2640299096007
 30
0.0
 10
101.1919284143721
 20
-153.261618342761
 30
0.0
 10
101.1919284143721
 20
-153.261618342761
 30
0.0
 10
101.1919284143721
 20
-153.4459309512218
 30
0.0
 10
101.1919284143721
 20
-153.4459309512218
 30
0.0
 10
101.162300593199
 20
-153.4459309512218
 30
0.0
 10
101.1454196253213
 20
-153.441452327091
 30
0.0
 10
100.982466608869
 20
-153.441452327091
 30
0.0
  0
HATCH
  5
153
330
14C
100
AcDbEntity
  8
レイヤー 1
 62
   250
420
  2299925
440
 33554687
100
AcDbHatch
 10
0.0
 20
0.0
 30
0.0
210
0.0
220
0.0
230
1.0
  2
SOLID
 70
     1
 71
     1
 91
        3
 92
        1
 93
        1
 72
     4
 94
        3
 73
     0
 74
     0
 95
       17
 96
       13
 40
0.0
 40
0.0
 40
0.0
 40
0.0
 40
1.0
 40
1.0
 40
1.0
 40
2.0
 40
2.0
 40
2.0
 40
3.0
 40
3.0
 40
3.0
 40
4.0
 40
4.0
 40
4.0
 40
4.0
 10
100.417470949288
 20
-153.8266140023419
 10
100.4005899814103
 20
-153.8562418235151
 10
100.3499470777771
 20
-153.9492594016168
 10
100.3392672817728
 20
-153.9682074267857
 10
100.5297810621071
 20
-154.027463069132
 10
100.5507961445671
 20
-154.034008750554
 10
100.6227986402089
 20
-154.061569514436
 10
100.6779201679729
 20
-153.9747531082077
 10
100.701002307724
 20
-153.9006835552748
 10
100.7158162183106
 20
-153.8266140023419
 10
100.7158162183106
 20
-153.8266140023419
 10
100.417470949288
 20
-153.8266140023419
 10
100.417470949288
 20
-153.8266140023419
 97
        0
 97
        1
330
150
 92
        1
 93
        1
 72
     4
 94
        3
 73
     0
 74
     0
 95
       20
 96
       16
 40
0.0
 40
0.0
 40
0.0
 40
0.0
 40
1.0
 40
1.0
 40
1.0
 40
2.0
 40
2.0
 40
2.0
 40
3.0
 40
3.0
 40
3.0
 40
4.0
 40
4.0
 40
4.0
 40
5.0
 40
5.0
 40
5.0
 40
5.0
 10
100.3540811923594
 20
-152.9763644365823
 10
100.3540811923594
 20
-152.9763644365823
 10
100.3223863138951
 20
-152.9763644365823
 10
100.3223863138951
 20
-152.9763644365823
 10
100.3688951029459
 20
-153.0755831865575
 10
100.4005899814103
 20
-153.1558539113638
 10
100.4343519171657
 20
-153.2829779347695
 10
100.4343519171657
 20
-153.2829779347695
 10
100.6417466653777
 20
-153.2829779347695
 10
100.6417466653777
 20
-153.2829779347695
 10
100.673441543842
 20
-153.1899603566678
 10
100.6968681931417
 20
-153.1052110077306
 10
100.7199503328929
 20
-152.9763644365823
 10
100.7199503328929
 20
-152.9763644365823
 10
100.3540811923594
 20
-152.9763644365823
 10
100.3540811923594
 20
-152.9763644365823
 97
        0
 97
        1
330
151
 92
        1
 93
        1
 72
     4
 94
        3
 73
     0
 74
     0
 95
      242
 96
      238
 40
0.0
 40
0.0
 40
0.0
 40
0.0
 40
1.0
 40
1.0
 40
1.0
 40
2.0
 40
2.0
 40
2.0
 40
3.0
 40
3.0
 40
3.0
 40
4.0
 40
4.0
 40
4.0
 40
5.0
 40
5.0
 40
5.0
 40
6.0
 40
6.0
 40
6.0
 40
7.0
 40
7.0
 40
7.0
 40
8.0
 40
8.0
 40
8.0
 40
9.0
 40
9.0
 40
9.0
 40
10.0
 40
10.0
 40
10.0
 40
11.0
 40
11.0
 40
11.0
 40
12.0
 40
12.0
 40
12.0
 40
13.0
 40
13.0
 40
13.0
 40
14.0
 40
14.0
 40
14.0
 40
15.0
 40
15.0
 40
15.0
 40
16.0
 40
16.0
 40
16.0
 40
17.0
 40
17.0
 40
17.0
 40
18.0
 40
18.0
 40
18.0
 40
19.0
 40
19.0
 40
19.0
 40
20.0
 40
20.0
 40
20.0
 40
21.0
 40
21.0
 40
21.0
 40
22.0
 40
22.0
 40
22.0
 40
23.0
 40
23.0
 40
23.0
 40
24.0
 40
24.0
 40
24.0
 40
25.0
 40
25.0
 40
25.0
 40
26.0
 40
26.0
 40
26.0
 40
27.0
 40
27.0
 40
27.0
 40
28.0
 40
28.0
 40
28.0
 40
29.0
 40
29.0
 40
29.0
 40
30.0
 40
30.0
 40
30.0
 40
31.0
 40
31.0
 40
31.0
 40
32.0
 40
32.0
 40
32.0
 40
33.0
 40
33.0
 40
33.0
 40
34.0
 40
34.0
 40
34.0
 40
35.0
 40
35.0
 40
35.0
 40
36.0
 40
36.0
 40
36.0
 40
37.0
 40
37.0
 40
37.0
 40
38.0
 40
38.0
 40
38.0
 40
39.0
 40
39.0
 40
39.0
 40
40.0
 40
40.0
 40
40.0
 40
41.0
 40
41.0
 40
41.0
 40
42.0
 40
42.0
 40
42.0
 40
43.0
 40
43.0
 40
43.0
 40
44.0
 40
44.0
 40
44.0
 40
45.0
 40
45.0
 40
45.0
 40
46.0
 40
46.0
 40
46.0
 40
47.0
 40
47.0
 40
47.0
 40
48.0
 40
48.0
 40
48.0
 40
49.0
 40
49.0
 40
49.0
 40
50.0
 40
50.0
 40
50.0
 40
51.0
 40
51.0
 40
51.0
 40
52.0
 40
52.0
 40
52.0
 40
53.0
 40
53.0
 40
53.0
 40
54.0
 40
54.0
 40
54.0
 40
55.0
 40
55.0
 40
55.0
 40
56.0
 40
56.0
 40
56.0
 40
57.0
 40
57.0
 40
57.0
 40
58.0
 40
58.0
 40
58.0
 40
59.0
 40
59.0
 40
59.0
 40
60.0
 40
60.0
 40
60.0
 40
61.0
 40
61.0
 40
61.0
 40
62.0
 40
62.0
 40
62.0
 40
63.0
 40
63.0
 40
63.0
 40
64.0
 40
64.0
 40
64.0
 40
65.0
 40
65.0
 40
65.0
 40
66.0
 40
66.0
 40
66.0
 40
67.0
 40
67.0
 40
67.0
 40
68.0
 40
68.0
 40
68.0
 40
69.0
 40
69.0
 40
69.0
 40
70.0
 40
70.0
 40
70.0
 40
71.0
 40
71.0
 40
71.0
 40
72.0
 40
72.0
 40
72.0
 40
73.0
 40
73.0
 40
73.0
 40
74.0
 40
74.0
 40
74.0
 40
75.0
 40
75.0
 40
75.0
 40
76.0
 40
76.0
 40
76.0
 40
77.0
 40
77.0
 40
77.0
 40
78.0
 40
78.0
 40
78.0
 40
79.0
 40
79.0
 40
79.0
 40
79.0
 10
100.982466608869
 20
-153.441452327091
 10
100.982466608869
 20
-153.441452327091
 10
100.728563071606
 20
-153.441452327091
 10
100.728563071606
 20
-153.441452327091
 10
100.728563071606
 20
-153.441452327091
 10
100.4515773945919
 20
-153.441452327091
 10
100.4515773945919
 20
-153.441452327091
 10
100.4515773945919
 20
-153.441452327091
 10
100.5783569084491
 20
-153.4838270015596
 10
100.5783569084491
 20
-153.4838270015596
 10
100.5890367044534
 20
-153.4883056256904
 10
100.6014390482003
 20
-153.4945067975638
 10
100.6014390482003
 20
-153.5072536508593
 10
100.6014390482003
 20
-153.5282687333193
 10
100.569744169736
 20
-153.5348144147413
 10
100.548729087276
 20
-153.5389485293236
 10
100.5380492912717
 20
-153.5620306690747
 10
100.5084214700986
 20
-153.627831992843
 10
100.4894734449297
 20
-153.6722737246027
 10
100.4894734449297
 20
-153.6722737246027
 10
100.7602579500703
 20
-153.6722737246027
 10
100.7602579500703
 20
-153.6722737246027
 10
100.8512084708809
 20
-153.6722737246027
 10
101.0479234230887
 20
-153.6677951004719
 10
101.189861357081
 20
-153.6595268713073
 10
101.189861357081
 20
-153.6595268713073
 10
101.189861357081
 20
-153.8372937983462
 10
101.189861357081
 20
-153.8372937983462
 10
101.107179065435
 20
-153.8328151742154
 10
101.086163982975
 20
-153.8328151742154
 10
100.9063299986449
 20
-153.8286810596331
 10
100.8746351201806
 20
-153.9830213373723
 10
100.8301933884209
 20
-154.0636365717271
 10
100.7857516566612
 20
-154.1332275005292
 10
100.9063299986449
 20
-154.1924831428755
 10
101.0120944300421
 20
-154.2603515239349
 10
101.1157918041481
 20
-154.3426893060324
 10
101.1157918041481
 20
-154.3426893060324
 10
100.9972805194555
 20
-154.509776437067
 10
100.9972805194555
 20
-154.509776437067
 10
100.9738538701558
 20
-154.4908284118981
 10
100.9611070168604
 20
-154.4825601827335
 10
100.8491414135898
 20
-154.3978108337964
 10
100.8005655672477
 20
-154.3595702739101
 10
100.7413099249015
 20
-154.3237412808635
 10
100.6606946905466
 20
-154.2792995491038
 10
100.4491658277523
 20
-154.4656792148558
 10
100.2441826463799
 20
-154.488761354607
 10
99.95410560652189
 20
-154.5183891757801
 10
99.95410560652189
 20
-154.5183891757801
 10
99.85075274196439
 20
-154.3385551914501
 10
99.85075274196439
 20
-154.3385551914501
 10
100.1680460361559
 20
-154.3344210768678
 10
100.3434013963551
 20
-154.3089273702769
 10
100.4956746168031
 20
-154.1990288242975
 10
100.3775078416591
 20
-154.1480414111157
 10
100.2886243781396
 20
-154.1208251567823
 10
100.2524508755445
 20
-154.1080783034868
 10
100.2335028503756
 20
-154.1356390673689
 10
100.2186889397891
 20
-154.1545870925377
 10
100.191128175907
 20
-154.1883490282932
 10
100.191128175907
 20
-154.1883490282932
 10
99.99441322369932
 20
-154.1060112461957
 10
99.99441322369932
 20
-154.1060112461957
 10
100.0770955153453
 20
-154.0253960118409
 10
100.1384182149827
 20
-153.9303113764479
 10
100.1956068000379
 20
-153.8286810596331
 10
100.0050930197036
 20
-153.8328151742154
 10
99.98373342769504
 20
-153.8328151742154
 10
99.90139564559758
 20
-153.8372937983462
 10
99.90139564559758
 20
-153.8372937983462
 10
99.90139564559758
 20
-153.6595268713073
 10
99.90139564559758
 20
-153.6595268713073
 10
100.0409220127502
 20
-153.6657280431808
 10
100.2503838182533
 20
-153.6702066673116
 10
100.2758775248442
 20
-153.6702066673116
 10
100.2927584927219
 20
-153.6361002220076
 10
100.3478800204859
 20
-153.5155218800239
 10
100.3668280456548
 20
-153.441452327091
 10
100.3478800204859
 20
-153.441452327091
 10
100.170113093447
 20
-153.447998008513
 10
99.97546519853045
 20
-153.4607448618084
 10
99.97546519853045
 20
-153.4607448618084
 10
99.97546519853045
 20
-153.5940700570876
 10
99.97546519853045
 20
-153.5940700570876
 10
99.92688935218843
 20
-153.6192192541299
 10
99.86763370984213
 20
-153.6509141325942
 10
99.73430851456296
 20
-153.7167154563625
 10
99.73430851456296
 20
-153.7167154563625
 10
99.73430851456296
 20
-153.8624429953885
 10
99.73430851456296
 20
-153.8624429953885
 10
99.73430851456296
 20
-153.8624429953885
 10
99.73430851456296
 20
-154.3302869622855
 10
99.73430851456296
 20
-154.3302869622855
 10
99.73430851456296
 20
-154.4570664761427
 10
99.69813501196783
 20
-154.516322118489
 10
99.41494816308029
 20
-154.5077093797758
 10
99.41494816308029
 20
-154.5077093797758
 10
99.31125078897428
 20
-154.3006591411123
 10
99.31125078897428
 20
-154.3006591411123
 10
99.37464054590288
 20
-154.3130614848592
 10
99.42321639224489
 20
-154.3175401089901
 10
99.46352400942231
 20
-154.3175401089901
 10
99.53966061964635
 20
-154.3175401089901
 10
99.55034041565061
 20
-154.2941134596904
 10
99.55034041565061
 20
-154.2286566454706
 10
99.55034041565061
 20
-154.2286566454706
 10
99.55034041565061
 20
-153.7990532384599
 10
99.55034041565061
 20
-153.7990532384599
 10
99.45284421341805
 20
-153.8393608556374
 10
99.43596324554032
 20
-153.8455620275108
 10
99.38945445648945
 20
-153.8648545622282
 10
99.38532034190714
 20
-153.8858696446882
 10
99.38084171777632
 20
-153.9154974658614
 10
99.36189369260745
 20
-153.9154974658614
 10
99.35362546344286
 20
-153.9154974658614
 10
99.34294566743858
 20
-153.9113633512791
 10
99.33639998601661
 20
-153.8879367019794
 10
99.33639998601661
 20
-153.8879367019794
 10
99.28369002509228
 20
-153.6953558643539
 10
99.28369002509228
 20
-153.6953558643539
 10
99.42976207366687
 20
-153.6488470753031
 10
99.49521888788662
 20
-153.6257649355519
 10
99.55034041565061
 20
-153.6044053435433
 10
99.55034041565061
 20
-153.6044053435433
 10
99.55034041565061
 20
-153.1920274139589
 10
99.55034041565061
 20
-153.1920274139589
 10
99.55034041565061
 20
-153.1920274139589
 10
99.49728594517777
 20
-153.1920274139589
 10
99.49728594517777
 20
-153.1920274139589
 10
99.49728594517777
 20
-153.1920274139589
 10
99.4190822776626
 20
-153.1920274139589
 10
99.4190822776626
 20
-153.1920274139589
 10
99.35121389660316
 20
-153.1920274139589
 10
99.34294566743858
 20
-153.1920274139589
 10
99.30677216484346
 20
-153.1982285858324
 10
99.30677216484346
 20
-153.1982285858324
 10
99.30677216484346
 20
-153.0035806909158
 10
99.30677216484346
 20
-153.0035806909158
 10
99.33433292872544
 20
-153.0101263723377
 10
99.34294566743858
 20
-153.0101263723377
 10
99.41253659624061
 20
-153.0101263723377
 10
99.41253659624061
 20
-153.0101263723377
 10
99.54586179151979
 20
-153.0101263723377
 10
99.54586179151979
 20
-153.0101263723377
 10
99.54586179151979
 20
-152.9401909339871
 10
99.54586179151979
 20
-152.8578531518897
 10
99.54379473422864
 20
-152.8533745277589
 10
99.53552650506404
 20
-152.6735405434288
 10
99.53552650506404
 20
-152.6545925182599
 10
99.53311493822436
 20
-152.6080837292091
 10
99.53311493822436
 20
-152.6080837292091
 10
99.74912242514953
 20
-152.6166964679222
 10
99.74912242514953
 20
-152.6166964679222
 10
99.75980222115381
 20
-152.6166964679222
 10
99.78081730361383
 20
-152.6187635252133
 10
99.78081730361383
 20
-152.6356444930911
 10
99.78081730361383
 20
-152.6545925182599
 10
99.76600339302725
 20
-152.6652723142642
 10
99.74050968643641
 20
-152.6842203394331
 10
99.74050968643641
 20
-152.7348632430663
 10
99.73430851456296
 20
-152.9636175832869
 10
99.73637557185412
 20
-153.0101263723377
 10
99.86556665255097
 20
-153.0101263723377
 10
99.87796899629787
 20
-153.0101263723377
 10
99.97546519853045
 20
-153.0015136336246
 10
99.97546519853045
 20
-153.0015136336246
 10
99.97546519853045
 20
-153.1961615285412
 10
99.97546519853045
 20
-153.1961615285412
 10
99.93722463864417
 20
-153.19409447125
 10
99.86970076713326
 20
-153.1899603566678
 10
99.73430851456296
 20
-153.1920274139589
 10
99.73430851456296
 20
-153.1920274139589
 10
99.73430851456296
 20
-153.5303357906105
 10
99.73430851456296
 20
-153.5303357906105
 10
99.78908553277843
 20
-153.5072536508593
 10
99.8548868565467
 20
-153.4796928869773
 10
99.90346270288872
 20
-153.4562662376776
 10
99.90346270288872
 20
-153.4562662376776
 10
99.90346270288872
 20
-153.2788438201872
 10
99.90346270288872
 20
-153.2788438201872
 10
100.017839872999
 20
-153.2912461639341
 10
100.1363511576916
 20
-153.2912461639341
 10
100.2524508755445
 20
-153.2912461639341
 10
100.2293687357933
 20
-153.1961615285412
 10
100.2018079719113
 20
-153.1138237464437
 10
100.1384182149827
 20
-152.9804985511646
 10
100.093976483223
 20
-152.9825656084557
 10
100.011294191577
 20
-152.986699723038
 10
99.97339814123931
 20
-152.9887667803292
 10
99.97339814123931
 20
-152.9887667803292
 10
99.97339814123931
 20
-152.8089327959991
 10
99.97339814123931
 20
-152.8089327959991
 10
100.0981105978053
 20
-152.8175455347122
 10
100.2717434102619
 20
-152.8216796492946
 10
100.3540811923594
 20
-152.8216796492946
 10
100.3540811923594
 20
-152.8216796492946
 10
100.4367634840054
 20
-152.8216796492946
 10
100.4367634840054
 20
-152.8216796492946
 10
100.4367634840054
 20
-152.6587266328423
 10
100.4367634840054
 20
-152.6483913463865
 10
100.4343519171657
 20
-152.5932698186225
 10
100.4343519171657
 20
-152.5932698186225
 10
100.6586276332555
 20
-152.6187635252133
 10
100.6586276332555
 20
-152.6187635252133
 10
100.6631062573863
 20
-152.6187635252133
 10
100.6841213398463
 20
-152.6208305825045
 10
100.6841213398463
 20
-152.6377115503822
 10
100.6841213398463
 20
-152.6525254609688
 10
100.673441543842
 20
-152.6611381996819
 10
100.64588077996
 20
-152.6759521102685
 10
100.6396796080866
 20
-152.7414089244882
 10
100.6376125507954
 20
-152.7624240069483
 10
100.6376125507954
 20
-152.8216796492946
 10
100.6376125507954
 20
-152.8216796492946
 10
100.7326971861883
 20
-152.8216796492946
 10
100.7326971861883
 20
-152.8216796492946
 10
100.8153794778343
 20
-152.8216796492946
 10
100.9886677807424
 20
-152.8175455347122
 10
101.113724746857
 20
-152.8089327959991
 10
101.113724746857
 20
-152.8089327959991
 10
101.113724746857
 20
-152.9887667803292
 10
101.113724746857
 20
-152.9887667803292
 10
101.0840969256838
 20
-152.986699723038
 10
100.9655856409912
 20
-152.9825656084557
 10
100.9252780238138
 20
-152.9804985511646
 10
100.9104641132272
 20
-153.0311414547978
 10
100.8767021774718
 20
-153.1434515676169
 10
100.8109008537035
 20
-153.2829779347695
 10
100.8532755281721
 20
-153.2829779347695
 10
101.1306057147347
 20
-153.2640299096007
 10
101.1919284143721
 20
-153.261618342761
 10
101.1919284143721
 20
-153.261618342761
 10
101.1919284143721
 20
-153.4459309512218
 10
101.1919284143721
 20
-153.4459309512218
 10
101.162300593199
 20
-153.4459309512218
 10
101.1454196253213
 20
-153.441452327091
 10
100.982466608869
 20
-153.441452327091
 97
        0
 97
        1
330
152
 75
     2
 76
     1
 98
        1
 10
0.0
 20
0.0
450
        0
451
        0
460
0.0
461
0.0
452
        0
462
0.0
453
        0
470

  0
SPLINE
  5
154
330
14C
100
AcDbEntity
  8
レイヤー 1
100
AcDbSpline
210
0.0
220
0.0
230
1.0
 70
    11
 71
     3
 72
    17
 73
    13
 74
     0
 42
0.0000000001
 43
0.0000000001
 40
0.0
 40
0.0
 40
0.0
 40
0.0
 40
1.0
 40
1.0
 40
1.0
 40
2.0
 40
2.0
 40
2.0
 40
3.0
 40
3.0
 40
3.0
 40
4.0
 40
4.0
 40
4.0
 40
4.0
 10
102.8390285658701
 20
-154.241403498766
 30
0.0
 10
102.8390285658701
 20
-154.241403498766
 30
0.0
 10
102.1324394818453
 20
-154.241403498766
 30
0.0
 10
102.1324394818453
 20
-154.241403498766
 30
0.0
 10
102.1324394818453
 20
-154.241403498766
 30
0.0
 10
102.1324394818453
 20
-154.3554361593278
 30
0.0
 10
102.1324394818453
 20
-154.3554361593278
 30
0.0
 10
102.1324394818453
 20
-154.3554361593278
 30
0.0
 10
102.8390285658701
 20
-154.3554361593278
 30
0.0
 10
102.8390285658701
 20
-154.3554361593278
 30
0.0
 10
102.8390285658701
 20
-154.3554361593278
 30
0.0
 10
102.8390285658701
 20
-154.241403498766
 30
0.0
 10
102.8390285658701
 20
-154.241403498766
 30
0.0
  0
SPLINE
  5
155
330
14C
100
AcDbEntity
  8
レイヤー 1
100
AcDbSpline
210
0.0
220
0.0
230
1.0
 70
    11
 71
     3
 72
    17
 73
    13
 74
     0
 42
0.0000000001
 43
0.0000000001
 40
0.0
 40
0.0
 40
0.0
 40
0.0
 40
1.0
 40
1.0
 40
1.0
 40
2.0
 40
2.0
 40
2.0
 40
3.0
 40
3.0
 40
3.0
 40
4.0
 40
4.0
 40
4.0
 40
4.0
 10
102.8390285658701
 20
-153.9978352479588
 30
0.0
 10
102.8390285658701
 20
-153.9978352479588
 30
0.0
 10
102.1324394818453
 20
-153.9978352479588
 30
0.0
 10
102.1324394818453
 20
-153.9978352479588
 30
0.0
 10
102.1324394818453
 20
-153.9978352479588
 30
0.0
 10
102.1324394818453
 20
-154.1122124180691
 30
0.0
 10
102.1324394818453
 20
-154.1122124180691
 30
0.0
 10
102.1324394818453
 20
-154.1122124180691
 30
0.0
 10
102.8390285658701
 20
-154.1122124180691
 30
0.0
 10
102.8390285658701
 20
-154.1122124180691
 30
0.0
 10
102.8390285658701
 20
-154.1122124180691
 30
0.0
 10
102.8390285658701
 20
-153.9978352479588
 30
0.0
 10
102.8390285658701
 20
-153.9978352479588
 30
0.0
  0
SPLINE
  5
156
330
14C
100
AcDbEntity
  8
レイヤー 1
100
AcDbSpline
210
0.0
220
0.0
230
1.0
 70
    11
 71
     3
 72
    17
 73
    13
 74
     0
 42
0.0000000001
 43
0.0000000001
 40
0.0
 40
0.0
 40
0.0
 40
0.0
 40
1.0
 40
1.0
 40
1.0
 40
2.0
 40
2.0
 40
2.0
 40
3.0
 40
3.0
 40
3.0
 40
4.0
 40
4.0
 40
4.0
 40
4.0
 10
102.8390285658701
 20
-153.7652913027045
 30
0.0
 10
102.8390285658701
 20
-153.7652913027045
 30
0.0
 10
102.1324394818453
 20
-153.7652913027045
 30
0.0
 10
102.1324394818453
 20
-153.7652913027045
 30
0.0
 10
102.1324394818453
 20
-153.7652913027045
 30
0.0
 10
102.1324394818453
 20
-153.8731227913928
 30
0.0
 10
102.1324394818453
 20
-153.8731227913928
 30
0.0
 10
102.1324394818453
 20
-153.8731227913928
 30
0.0
 10
102.8390285658701
 20
-153.8731227913928
 30
0.0
 10
102.8390285658701
 20
-153.8731227913928
 30
0.0
 10
102.8390285658701
 20
-153.8731227913928
 30
0.0
 10
102.8390285658701
 20
-153.7652913027045
 30
0.0
 10
102.8390285658701
 20
-153.7652913027045
 30
0.0
  0
SPLINE
  5
157
330
14C
100
AcDbEntity
  8
レイヤー 1
100
AcDbSpline
210
0.0
220
0.0
230
1.0
 70
     9
 71
     3
 72
   203
 73
   199
 74
     0
 42
0.0000000001
 43
0.0000000001
 40
0.0
 40
0.0
 40
0.0
 40
0.0
 40
1.0
 40
1.0
 40
1.0
 40
2.0
 40
2.0
 40
2.0
 40
3.0
 40
3.0
 40
3.0
 40
4.0
 40
4.0
 40
4.0
 40
5.0
 40
5.0
 40
5.0
 40
6.0
 40
6.0
 40
6.0
 40
7.0
 40
7.0
 40
7.0
 40
8.0
 40
8.0
 40
8.0
 40
9.0
 40
9.0
 40
9.0
 40
10.0
 40
10.0
 40
10.0
 40
11.0
 40
11.0
 40
11.0
 40
12.0
 40
12.0
 40
12.0
 40
13.0
 40
13.0
 40
13.0
 40
14.0
 40
14.0
 40
14.0
 40
15.0
 40
15.0
 40
15.0
 40
16.0
 40
16.0
 40
16.0
 40
17.0
 40
17.0
 40
17.0
 40
18.0
 40
18.0
 40
18.0
 40
19.0
 40
19.0
 40
19.0
 40
20.0
 40
20.0
 40
20.0
 40
21.0
 40
21.0
 40
21.0
 40
22.0
 40
22.0
 40
22.0
 40
23.0
 40
23.0
 40
23.0
 40
24.0
 40
24.0
 40
24.0
 40
25.0
 40
25.0
 40
25.0
 40
26.0
 40
26.0
 40
26.0
 40
27.0
 40
27.0
 40
27.0
 40
28.0
 40
28.0
 40
28.0
 40
29.0
 40
29.0
 40
29.0
 40
30.0
 40
30.0
 40
30.0
 40
31.0
 40
31.0
 40
31.0
 40
32.0
 40
32.0
 40
32.0
 40
33.0
 40
33.0
 40
33.0
 40
34.0
 40
34.0
 40
34.0
 40
35.0
 40
35.0
 40
35.0
 40
36.0
 40
36.0
 40
36.0
 40
37.0
 40
37.0
 40
37.0
 40
38.0
 40
38.0
 40
38.0
 40
39.0
 40
39.0
 40
39.0
 40
40.0
 40
40.0
 40
40.0
 40
41.0
 40
41.0
 40
41.0
 40
42.0
 40
42.0
 40
42.0
 40
43.0
 40
43.0
 40
43.0
 40
44.0
 40
44.0
 40
44.0
 40
45.0
 40
45.0
 40
45.0
 40
46.0
 40
46.0
 40
46.0
 40
47.0
 40
47.0
 40
47.0
 40
48.0
 40
48.0
 40
48.0
 40
49.0
 40
49.0
 40
49.0
 40
50.0
 40
50.0
 40
50.0
 40
51.0
 40
51.0
 40
51.0
 40
52.0
 40
52.0
 40
52.0
 40
53.0
 40
53.0
 40
53.0
 40
54.0
 40
54.0
 40
54.0
 40
55.0
 40
55.0
 40
55.0
 40
56.0
 40
56.0
 40
56.0
 40
57.0
 40
57.0
 40
57.0
 40
58.0
 40
58.0
 40
58.0
 40
59.0
 40
59.0
 40
59.0
 40
60.0
 40
60.0
 40
60.0
 40
61.0
 40
61.0
 40
61.0
 40
62.0
 40
62.0
 40
62.0
 40
63.0
 40
63.0
 40
63.0
 40
64.0
 40
64.0
 40
64.0
 40
65.0
 40
65.0
 40
65.0
 40
66.0
 40
66.0
 40
66.0
 40
66.0
 10
102.6740084921266
 20
-153.5093207081504
 30
0.0
 10
102.6740084921266
 20
-153.5093207081504
 30
0.0
 10
102.1152140044191
 20
-153.5093207081504
 30
0.0
 10
102.1152140044191
 20
-153.5093207081504
 30
0.0
 10
102.1048787179633
 20
-153.5537624399101
 30
0.0
 10
102.0962659792502
 20
-153.5854573183744
 30
0.0
 10
102.0835191259548
 20
-153.6236978782607
 30
0.0
 10
102.1090128325456
 20
-153.6236978782607
 30
0.0
 10
102.1238267431322
 20
-153.6257649355519
 30
0.0
 10
102.1300279150057
 20
-153.6257649355519
 30
0.0
 10
102.1300279150057
 20
-153.6257649355519
 30
0.0
 10
102.3184746380488
 20
-153.6257649355519
 30
0.0
 10
102.3184746380488
 20
-153.6257649355519
 30
0.0
 10
102.3184746380488
 20
-153.6257649355519
 30
0.0
 10
102.6929565172955
 20
-153.6257649355519
 30
0.0
 10
102.6929565172955
 20
-153.6257649355519
 30
0.0
 10
102.7435994209287
 20
-153.6257649355519
 30
0.0
 10
103.0271307793647
 20
-153.6130180822564
 30
0.0
 10
103.058825657829
 20
-153.6130180822564
 30
0.0
 10
103.0567586005379
 20
-153.6405788461385
 30
0.0
 10
103.0546915432467
 20
-153.6595268713073
 30
0.0
 10
103.0546915432467
 20
-153.6891546924804
 30
0.0
 10
103.0526244859556
 20
-153.7208495709448
 30
0.0
 10
103.0526244859556
 20
-153.8562418235151
 30
0.0
 10
103.0526244859556
 20
-153.8838025873971
 30
0.0
 10
103.0526244859556
 20
-153.8838025873971
 30
0.0
 10
103.0526244859556
 20
-154.1290933859469
 30
0.0
 10
103.0526244859556
 20
-154.1290933859469
 30
0.0
 10
103.0526244859556
 20
-154.1735351177066
 30
0.0
 10
103.0567586005379
 20
-154.3702500699144
 30
0.0
 10
103.0608927151202
 20
-154.5225232903624
 30
0.0
 10
103.0608927151202
 20
-154.5225232903624
 30
0.0
 10
102.8345499417393
 20
-154.5225232903624
 30
0.0
 10
102.8345499417393
 20
-154.5225232903624
 30
0.0
 10
102.8345499417393
 20
-154.5225232903624
 30
0.0
 10
102.8366169990304
 20
-154.488761354607
 30
0.0
 10
102.8366169990304
 20
-154.488761354607
 30
0.0
 10
102.8366169990304
 20
-154.488761354607
 30
0.0
 10
102.1345065391365
 20
-154.488761354607
 30
0.0
 10
102.1345065391365
 20
-154.488761354607
 30
0.0
 10
102.1345065391365
 20
-154.488761354607
 30
0.0
 10
102.1365735964276
 20
-154.5225232903624
 30
0.0
 10
102.1365735964276
 20
-154.5225232903624
 30
0.0
 10
102.1365735964276
 20
-154.5225232903624
 30
0.0
 10
101.9184990522113
 20
-154.5225232903624
 30
0.0
 10
101.9184990522113
 20
-154.5225232903624
 30
0.0
 10
101.9229776763421
 20
-154.4677462721469
 30
0.0
 10
101.9229776763421
 20
-154.4549994188515
 30
0.0
 10
101.9291788482156
 20
-154.3406222487412
 30
0.0
 10
101.9312459055067
 20
-154.3130614848592
 30
0.0
 10
101.9333129627979
 20
-154.1800807991286
 30
0.0
 10
101.9333129627979
 20
-154.1607882644112
 30
0.0
 10
101.9333129627979
 20
-154.1607882644112
 30
0.0
 10
101.9333129627979
 20
-153.95787214033
 30
0.0
 10
101.9333129627979
 20
-153.95787214033
 30
0.0
 10
101.7937865956453
 20
-154.207297053462
 30
0.0
 10
101.6246324073195
 20
-154.3385551914501
 30
0.0
 10
101.5188679759223
 20
-154.4040120056698
 30
0.0
 10
101.5188679759223
 20
-154.4040120056698
 30
0.0
 10
101.3452351634658
 20
-154.2644856385172
 30
0.0
 10
101.3452351634658
 20
-154.2644856385172
 30
0.0
 10
101.4341186269852
 20
-154.213842734884
 30
0.0
 10
101.5781236182686
 20
-154.1270263286557
 30
0.0
 10
101.7155829281301
 20
-153.9323784337391
 30
0.0
 10
101.8065334489407
 20
-153.8055989198819
 30
0.0
 10
101.8719902631605
 20
-153.6615939285985
 30
0.0
 10
101.9057521989159
 20
-153.5093207081504
 30
0.0
 10
101.6773423682438
 20
-153.5113877654416
 30
0.0
 10
101.4975083839138
 20
-153.5179334468636
 30
0.0
 10
101.4024237485209
 20
-153.5200005041547
 30
0.0
 10
101.4024237485209
 20
-153.5200005041547
 30
0.0
 10
101.4024237485209
 20
-153.3422335771158
 30
0.0
 10
101.4024237485209
 20
-153.3422335771158
 30
0.0
 10
101.5991387007287
 20
-153.3484347489893
 30
0.0
 10
101.8826700591647
 20
-153.3529133731201
 30
0.0
 10
102.0328762223216
 20
-153.3529133731201
 30
0.0
 10
102.0328762223216
 20
-153.3529133731201
 30
0.0
 10
102.2464721424071
 20
-153.3529133731201
 30
0.0
 10
102.2464721424071
 20
-153.3529133731201
 30
0.0
 10
102.2464721424071
 20
-153.3529133731201
 30
0.0
 10
102.2464721424071
 20
-153.2447373748832
 30
0.0
 10
102.2464721424071
 20
-153.2447373748832
 30
0.0
 10
102.2464721424071
 20
-153.2447373748832
 30
0.0
 10
102.1004000938325
 20
-153.2447373748832
 30
0.0
 10
102.1004000938325
 20
-153.2447373748832
 30
0.0
 10
101.9312459055067
 20
-153.2447373748832
 30
0.0
 10
101.762091717181
 20
-153.2492159990141
 30
0.0
 10
101.5950045861464
 20
-153.2554171708875
 30
0.0
 10
101.5950045861464
 20
-153.2554171708875
 30
0.0
 10
101.5950045861464
 20
-153.0841959252706
 30
0.0
 10
101.5950045861464
 20
-153.0841959252706
 30
0.0
 10
101.7493448638856
 20
-153.0945312117264
 30
0.0
 10
101.935380020089
 20
-153.0945312117264
 30
0.0
 10
102.1004000938325
 20
-153.0945312117264
 30
0.0
 10
102.1004000938325
 20
-153.0945312117264
 30
0.0
 10
102.2464721424071
 20
-153.0945312117264
 30
0.0
 10
102.2464721424071
 20
-153.0945312117264
 30
0.0
 10
102.2464721424071
 20
-153.0945312117264
 30
0.0
 10
102.2464721424071
 20
-152.9763644365823
 30
0.0
 10
102.2464721424071
 20
-152.9763644365823
 30
0.0
 10
102.2464721424071
 20
-152.9763644365823
 30
0.0
 10
102.1152140044191
 20
-152.9763644365823
 30
0.0
 10
102.1152140044191
 20
-152.9763644365823
 30
0.0
 10
102.0687052153682
 20
-152.9763644365823
 30
0.0
 10
101.865789091287
 20
-152.9846326657469
 30
0.0
 10
101.8234144168184
 20
-152.9846326657469
 30
0.0
 10
101.6204982927372
 20
-152.9887667803292
 30
0.0
 10
101.5440171729647
 20
-152.9908338376203
 30
0.0
 10
101.4658135054495
 20
-152.99324540446
 30
0.0
 10
101.4658135054495
 20
-152.99324540446
 30
0.0
 10
101.4658135054495
 20
-152.8089327959991
 30
0.0
 10
101.4658135054495
 20
-152.8089327959991
 30
0.0
 10
101.5801906755598
 20
-152.8175455347122
 30
0.0
 10
101.6246324073195
 20
-152.8175455347122
 30
0.0
 10
102.0073825157308
 20
-152.8261582734254
 30
0.0
 10
101.9439927588022
 20
-152.730729128484
 30
0.0
 10
101.9164319949202
 20
-152.703168364602
 30
0.0
 10
101.8806030018736
 20
-152.6673393715554
 30
0.0
 10
101.8806030018736
 20
-152.6673393715554
 30
0.0
 10
102.0559583620728
 20
-152.5846570799094
 30
0.0
 10
102.0559583620728
 20
-152.5846570799094
 30
0.0
 10
102.0962659792502
 20
-152.6208305825045
 30
0.0
 10
102.1407077110099
 20
-152.6632052569731
 30
0.0
 10
102.2147772639428
 20
-152.7731038029525
 30
0.0
 10
102.2147772639428
 20
-152.7731038029525
 30
0.0
 10
102.1004000938325
 20
-152.8282253307165
 30
0.0
 10
102.1004000938325
 20
-152.8282253307165
 30
0.0
 10
102.1004000938325
 20
-152.8282253307165
 30
0.0
 10
102.1110798898368
 20
-152.8282253307165
 30
0.0
 10
102.1110798898368
 20
-152.8282253307165
 30
0.0
 10
102.1110798898368
 20
-152.8282253307165
 30
0.0
 10
102.6337008749492
 20
-152.8282253307165
 30
0.0
 10
102.6337008749492
 20
-152.8282253307165
 30
0.0
 10
102.6337008749492
 20
-152.8282253307165
 30
0.0
 10
102.5386162395563
 20
-152.7837835989568
 30
0.0
 10
102.5386162395563
 20
-152.7837835989568
 30
0.0
 10
102.5658324938898
 20
-152.7455430390705
 30
0.0
 10
102.6230210789449
 20
-152.6652723142642
 30
0.0
 10
102.6378349895315
 20
-152.5912027613314
 30
0.0
 10
102.6378349895315
 20
-152.5912027613314
 30
0.0
 10
102.851430909617
 20
-152.6545925182599
 30
0.0
 10
102.851430909617
 20
-152.6545925182599
 30
0.0
 10
102.8600436483301
 20
-152.6566595755511
 30
0.0
 10
102.8810587307901
 20
-152.6673393715554
 30
0.0
 10
102.8810587307901
 20
-152.6883544540154
 30
0.0
 10
102.8810587307901
 20
-152.7265950139017
 30
0.0
 10
102.8156019165704
 20
-152.7265950139017
 30
0.0
 10
102.7966538914015
 20
-152.7265950139017
 30
0.0
 10
102.7859740953972
 20
-152.7455430390705
 30
0.0
 10
102.7625474460975
 20
-152.785850656248
 30
0.0
 10
102.7329196249244
 20
-152.8261582734254
 30
0.0
 10
103.1328952107619
 20
-152.8196125920034
 30
0.0
 10
103.162523031935
 20
-152.8175455347122
 30
0.0
 10
103.2386596421591
 20
-152.8113443628388
 30
0.0
 10
103.2386596421591
 20
-152.8113443628388
 30
0.0
 10
103.2386596421591
 20
-152.99324540446
 30
0.0
 10
103.2386596421591
 20
-152.99324540446
 30
0.0
 10
103.2197116169902
 20
-152.99324540446
 30
0.0
 10
103.1942179103993
 20
-152.9908338376203
 30
0.0
 10
102.9744208184404
 20
-152.9825656084557
 30
0.0
 10
102.9234334052587
 20
-152.9804985511646
 30
0.0
 10
102.7036363132998
 20
-152.9763644365823
 30
0.0
 10
102.65919458154
 20
-152.9763644365823
 30
0.0
 10
102.65919458154
 20
-152.9763644365823
 30
0.0
 10
102.4431870946149
 20
-152.9763644365823
 30
0.0
 10
102.4431870946149
 20
-152.9763644365823
 30
0.0
 10
102.4431870946149
 20
-152.9763644365823
 30
0.0
 10
102.4431870946149
 20
-153.0945312117264
 30
0.0
 10
102.4431870946149
 20
-153.0945312117264
 30
0.0
 10
102.4431870946149
 20
-153.0945312117264
 30
0.0
 10
102.6168199070715
 20
-153.0945312117264
 30
0.0
 10
102.6168199070715
 20
-153.0945312117264
 30
0.0
 10
102.7797729235238
 20
-153.0945312117264
 30
0.0
 10
102.9699421943096
 20
-153.0945312117264
 30
0.0
 10
103.1266940388885
 20
-153.0841959252706
 30
0.0
 10
103.1266940388885
 20
-153.0841959252706
 30
0.0
 10
103.1266940388885
 20
-153.2554171708875
 30
0.0
 10
103.1266940388885
 20
-153.2554171708875
 30
0.0
 10
102.9172322333852
 20
-153.2471489417229
 30
0.0
 10
102.7205172811775
 20
-153.2447373748832
 30
0.0
 10
102.6168199070715
 20
-153.2447373748832
 30
0.0
 10
102.6168199070715
 20
-153.2447373748832
 30
0.0
 10
102.4431870946149
 20
-153.2447373748832
 30
0.0
 10
102.4431870946149
 20
-153.2447373748832
 30
0.0
 10
102.4431870946149
 20
-153.2447373748832
 30
0.0
 10
102.4431870946149
 20
-153.3529133731201
 30
0.0
 10
102.4431870946149
 20
-153.3529133731201
 30
0.0
 10
102.4431870946149
 20
-153.3529133731201
 30
0.0
 10
102.6740084921266
 20
-153.3529133731201
 30
0.0
 10
102.6740084921266
 20
-153.3529133731201
 30
0.0
 10
102.8069891778573
 20
-153.3529133731201
 30
0.0
 10
103.0949991604241
 20
-153.3484347489893
 30
0.0
 10
103.3041164563788
 20
-153.3422335771158
 30
0.0
 10
103.3041164563788
 20
-153.3422335771158
 30
0.0
 10
103.3041164563788
 20
-153.5200005041547
 30
0.0
 10
103.3041164563788
 20
-153.5200005041547
 30
0.0
 10
103.1118801283019
 20
-153.5134548227327
 30
0.0
 10
102.7987209486927
 20
-153.5093207081504
 30
0.0
 10
102.6740084921266
 20
-153.5093207081504
 30
0.0
  0
HATCH
  5
158
330
14C
100
AcDbEntity
  8
レイヤー 1
 62
   250
420
  2299925
440
 33554687
100
AcDbHatch
 10
0.0
 20
0.0
 30
0.0
210
0.0
220
0.0
230
1.0
  2
SOLID
 70
     1
 71
     1
 91
        4
 92
        1
 93
        1
 72
     4
 94
        3
 73
     0
 74
     0
 95
       17
 96
       13
 40
0.0
 40
0.0
 40
0.0
 40
0.0
 40
1.0
 40
1.0
 40
1.0
 40
2.0
 40
2.0
 40
2.0
 40
3.0
 40
3.0
 40
3.0
 40
4.0
 40
4.0
 40
4.0
 40
4.0
 10
102.8390285658701
 20
-154.241403498766
 10
102.8390285658701
 20
-154.241403498766
 10
102.1324394818453
 20
-154.241403498766
 10
102.1324394818453
 20
-154.241403498766
 10
102.1324394818453
 20
-154.241403498766
 10
102.1324394818453
 20
-154.3554361593278
 10
102.1324394818453
 20
-154.3554361593278
 10
102.1324394818453
 20
-154.3554361593278
 10
102.8390285658701
 20
-154.3554361593278
 10
102.8390285658701
 20
-154.3554361593278
 10
102.8390285658701
 20
-154.3554361593278
 10
102.8390285658701
 20
-154.241403498766
 10
102.8390285658701
 20
-154.241403498766
 97
        0
 97
        1
330
154
 92
        1
 93
        1
 72
     4
 94
        3
 73
     0
 74
     0
 95
       17
 96
       13
 40
0.0
 40
0.0
 40
0.0
 40
0.0
 40
1.0
 40
1.0
 40
1.0
 40
2.0
 40
2.0
 40
2.0
 40
3.0
 40
3.0
 40
3.0
 40
4.0
 40
4.0
 40
4.0
 40
4.0
 10
102.8390285658701
 20
-153.9978352479588
 10
102.8390285658701
 20
-153.9978352479588
 10
102.1324394818453
 20
-153.9978352479588
 10
102.1324394818453
 20
-153.9978352479588
 10
102.1324394818453
 20
-153.9978352479588
 10
102.1324394818453
 20
-154.1122124180691
 10
102.1324394818453
 20
-154.1122124180691
 10
102.1324394818453
 20
-154.1122124180691
 10
102.8390285658701
 20
-154.1122124180691
 10
102.8390285658701
 20
-154.1122124180691
 10
102.8390285658701
 20
-154.1122124180691
 10
102.8390285658701
 20
-153.9978352479588
 10
102.8390285658701
 20
-153.9978352479588
 97
        0
 97
        1
330
155
 92
        1
 93
        1
 72
     4
 94
        3
 73
     0
 74
     0
 95
       17
 96
       13
 40
0.0
 40
0.0
 40
0.0
 40
0.0
 40
1.0
 40
1.0
 40
1.0
 40
2.0
 40
2.0
 40
2.0
 40
3.0
 40
3.0
 40
3.0
 40
4.0
 40
4.0
 40
4.0
 40
4.0
 10
102.8390285658701
 20
-153.7652913027045
 10
102.8390285658701
 20
-153.7652913027045
 10
102.1324394818453
 20
-153.7652913027045
 10
102.1324394818453
 20
-153.7652913027045
 10
102.1324394818453
 20
-153.7652913027045
 10
102.1324394818453
 20
-153.8731227913928
 10
102.1324394818453
 20
-153.8731227913928
 10
102.1324394818453
 20
-153.8731227913928
 10
102.8390285658701
 20
-153.8731227913928
 10
102.8390285658701
 20
-153.8731227913928
 10
102.8390285658701
 20
-153.8731227913928
 10
102.8390285658701
 20
-153.7652913027045
 10
102.8390285658701
 20
-153.7652913027045
 97
        0
 97
        1
330
156
 92
        1
 93
        1
 72
     4
 94
        3
 73
     0
 74
     0
 95
      203
 96
      199
 40
0.0
 40
0.0
 40
0.0
 40
0.0
 40
1.0
 40
1.0
 40
1.0
 40
2.0
 40
2.0
 40
2.0
 40
3.0
 40
3.0
 40
3.0
 40
4.0
 40
4.0
 40
4.0
 40
5.0
 40
5.0
 40
5.0
 40
6.0
 40
6.0
 40
6.0
 40
7.0
 40
7.0
 40
7.0
 40
8.0
 40
8.0
 40
8.0
 40
9.0
 40
9.0
 40
9.0
 40
10.0
 40
10.0
 40
10.0
 40
11.0
 40
11.0
 40
11.0
 40
12.0
 40
12.0
 40
12.0
 40
13.0
 40
13.0
 40
13.0
 40
14.0
 40
14.0
 40
14.0
 40
15.0
 40
15.0
 40
15.0
 40
16.0
 40
16.0
 40
16.0
 40
17.0
 40
17.0
 40
17.0
 40
18.0
 40
18.0
 40
18.0
 40
19.0
 40
19.0
 40
19.0
 40
20.0
 40
20.0
 40
20.0
 40
21.0
 40
21.0
 40
21.0
 40
22.0
 40
22.0
 40
22.0
 40
23.0
 40
23.0
 40
23.0
 40
24.0
 40
24.0
 40
24.0
 40
25.0
 40
25.0
 40
25.0
 40
26.0
 40
26.0
 40
26.0
 40
27.0
 40
27.0
 40
27.0
 40
28.0
 40
28.0
 40
28.0
 40
29.0
 40
29.0
 40
29.0
 40
30.0
 40
30.0
 40
30.0
 40
31.0
 40
31.0
 40
31.0
 40
32.0
 40
32.0
 40
32.0
 40
33.0
 40
33.0
 40
33.0
 40
34.0
 40
34.0
 40
34.0
 40
35.0
 40
35.0
 40
35.0
 40
36.0
 40
36.0
 40
36.0
 40
37.0
 40
37.0
 40
37.0
 40
38.0
 40
38.0
 40
38.0
 40
39.0
 40
39.0
 40
39.0
 40
40.0
 40
40.0
 40
40.0
 40
41.0
 40
41.0
 40
41.0
 40
42.0
 40
42.0
 40
42.0
 40
43.0
 40
43.0
 40
43.0
 40
44.0
 40
44.0
 40
44.0
 40
45.0
 40
45.0
 40
45.0
 40
46.0
 40
46.0
 40
46.0
 40
47.0
 40
47.0
 40
47.0
 40
48.0
 40
48.0
 40
48.0
 40
49.0
 40
49.0
 40
49.0
 40
50.0
 40
50.0
 40
50.0
 40
51.0
 40
51.0
 40
51.0
 40
52.0
 40
52.0
 40
52.0
 40
53.0
 40
53.0
 40
53.0
 40
54.0
 40
54.0
 40
54.0
 40
55.0
 40
55.0
 40
55.0
 40
56.0
 40
56.0
 40
56.0
 40
57.0
 40
57.0
 40
57.0
 40
58.0
 40
58.0
 40
58.0
 40
59.0
 40
59.0
 40
59.0
 40
60.0
 40
60.0
 40
60.0
 40
61.0
 40
61.0
 40
61.0
 40
62.0
 40
62.0
 40
62.0
 40
63.0
 40
63.0
 40
63.0
 40
64.0
 40
64.0
 40
64.0
 40
65.0
 40
65.0
 40
65.0
 40
66.0
 40
66.0
 40
66.0
 40
66.0
 10
102.6740084921266
 20
-153.5093207081504
 10
102.6740084921266
 20
-153.5093207081504
 10
102.1152140044191
 20
-153.5093207081504
 10
102.1152140044191
 20
-153.5093207081504
 10
102.1048787179633
 20
-153.5537624399101
 10
102.0962659792502
 20
-153.5854573183744
 10
102.0835191259548
 20
-153.6236978782607
 10
102.1090128325456
 20
-153.6236978782607
 10
102.1238267431322
 20
-153.6257649355519
 10
102.1300279150057
 20
-153.6257649355519
 10
102.1300279150057
 20
-153.6257649355519
 10
102.3184746380488
 20
-153.6257649355519
 10
102.3184746380488
 20
-153.6257649355519
 10
102.3184746380488
 20
-153.6257649355519
 10
102.6929565172955
 20
-153.6257649355519
 10
102.6929565172955
 20
-153.6257649355519
 10
102.7435994209287
 20
-153.6257649355519
 10
103.0271307793647
 20
-153.6130180822564
 10
103.058825657829
 20
-153.6130180822564
 10
103.0567586005379
 20
-153.6405788461385
 10
103.0546915432467
 20
-153.6595268713073
 10
103.0546915432467
 20
-153.6891546924804
 10
103.0526244859556
 20
-153.7208495709448
 10
103.0526244859556
 20
-153.8562418235151
 10
103.0526244859556
 20
-153.8838025873971
 10
103.0526244859556
 20
-153.8838025873971
 10
103.0526244859556
 20
-154.1290933859469
 10
103.0526244859556
 20
-154.1290933859469
 10
103.0526244859556
 20
-154.1735351177066
 10
103.0567586005379
 20
-154.3702500699144
 10
103.0608927151202
 20
-154.5225232903624
 10
103.0608927151202
 20
-154.5225232903624
 10
102.8345499417393
 20
-154.5225232903624
 10
102.8345499417393
 20
-154.5225232903624
 10
102.8345499417393
 20
-154.5225232903624
 10
102.8366169990304
 20
-154.488761354607
 10
102.8366169990304
 20
-154.488761354607
 10
102.8366169990304
 20
-154.488761354607
 10
102.1345065391365
 20
-154.488761354607
 10
102.1345065391365
 20
-154.488761354607
 10
102.1345065391365
 20
-154.488761354607
 10
102.1365735964276
 20
-154.5225232903624
 10
102.1365735964276
 20
-154.5225232903624
 10
102.1365735964276
 20
-154.5225232903624
 10
101.9184990522113
 20
-154.5225232903624
 10
101.9184990522113
 20
-154.5225232903624
 10
101.9229776763421
 20
-154.4677462721469
 10
101.9229776763421
 20
-154.4549994188515
 10
101.9291788482156
 20
-154.3406222487412
 10
101.9312459055067
 20
-154.3130614848592
 10
101.9333129627979
 20
-154.1800807991286
 10
101.9333129627979
 20
-154.1607882644112
 10
101.9333129627979
 20
-154.1607882644112
 10
101.9333129627979
 20
-153.95787214033
 10
101.9333129627979
 20
-153.95787214033
 10
101.7937865956453
 20
-154.207297053462
 10
101.6246324073195
 20
-154.3385551914501
 10
101.5188679759223
 20
-154.4040120056698
 10
101.5188679759223
 20
-154.4040120056698
 10
101.3452351634658
 20
-154.2644856385172
 10
101.3452351634658
 20
-154.2644856385172
 10
101.4341186269852
 20
-154.213842734884
 10
101.5781236182686
 20
-154.1270263286557
 10
101.7155829281301
 20
-153.9323784337391
 10
101.8065334489407
 20
-153.8055989198819
 10
101.8719902631605
 20
-153.6615939285985
 10
101.9057521989159
 20
-153.5093207081504
 10
101.6773423682438
 20
-153.5113877654416
 10
101.4975083839138
 20
-153.5179334468636
 10
101.4024237485209
 20
-153.5200005041547
 10
101.4024237485209
 20
-153.5200005041547
 10
101.4024237485209
 20
-153.3422335771158
 10
101.4024237485209
 20
-153.3422335771158
 10
101.5991387007287
 20
-153.3484347489893
 10
101.8826700591647
 20
-153.3529133731201
 10
102.0328762223216
 20
-153.3529133731201
 10
102.0328762223216
 20
-153.3529133731201
 10
102.2464721424071
 20
-153.3529133731201
 10
102.2464721424071
 20
-153.3529133731201
 10
102.2464721424071
 20
-153.3529133731201
 10
102.2464721424071
 20
-153.2447373748832
 10
102.2464721424071
 20
-153.2447373748832
 10
102.2464721424071
 20
-153.2447373748832
 10
102.1004000938325
 20
-153.2447373748832
 10
102.1004000938325
 20
-153.2447373748832
 10
101.9312459055067
 20
-153.2447373748832
 10
101.762091717181
 20
-153.2492159990141
 10
101.5950045861464
 20
-153.2554171708875
 10
101.5950045861464
 20
-153.2554171708875
 10
101.5950045861464
 20
-153.0841959252706
 10
101.5950045861464
 20
-153.0841959252706
 10
101.7493448638856
 20
-153.0945312117264
 10
101.935380020089
 20
-153.0945312117264
 10
102.1004000938325
 20
-153.0945312117264
 10
102.1004000938325
 20
-153.0945312117264
 10
102.2464721424071
 20
-153.0945312117264
 10
102.2464721424071
 20
-153.0945312117264
 10
102.2464721424071
 20
-153.0945312117264
 10
102.2464721424071
 20
-152.9763644365823
 10
102.2464721424071
 20
-152.9763644365823
 10
102.2464721424071
 20
-152.9763644365823
 10
102.1152140044191
 20
-152.9763644365823
 10
102.1152140044191
 20
-152.9763644365823
 10
102.0687052153682
 20
-152.9763644365823
 10
101.865789091287
 20
-152.9846326657469
 10
101.8234144168184
 20
-152.9846326657469
 10
101.6204982927372
 20
-152.9887667803292
 10
101.5440171729647
 20
-152.9908338376203
 10
101.4658135054495
 20
-152.99324540446
 10
101.4658135054495
 20
-152.99324540446
 10
101.4658135054495
 20
-152.8089327959991
 10
101.4658135054495
 20
-152.8089327959991
 10
101.5801906755598
 20
-152.8175455347122
 10
101.6246324073195
 20
-152.8175455347122
 10
102.0073825157308
 20
-152.8261582734254
 10
101.9439927588022
 20
-152.730729128484
 10
101.9164319949202
 20
-152.703168364602
 10
101.8806030018736
 20
-152.6673393715554
 10
101.8806030018736
 20
-152.6673393715554
 10
102.0559583620728
 20
-152.5846570799094
 10
102.0559583620728
 20
-152.5846570799094
 10
102.0962659792502
 20
-152.6208305825045
 10
102.1407077110099
 20
-152.6632052569731
 10
102.2147772639428
 20
-152.7731038029525
 10
102.2147772639428
 20
-152.7731038029525
 10
102.1004000938325
 20
-152.8282253307165
 10
102.1004000938325
 20
-152.8282253307165
 10
102.1004000938325
 20
-152.8282253307165
 10
102.1110798898368
 20
-152.8282253307165
 10
102.1110798898368
 20
-152.8282253307165
 10
102.1110798898368
 20
-152.8282253307165
 10
102.6337008749492
 20
-152.8282253307165
 10
102.6337008749492
 20
-152.8282253307165
 10
102.6337008749492
 20
-152.8282253307165
 10
102.5386162395563
 20
-152.7837835989568
 10
102.5386162395563
 20
-152.7837835989568
 10
102.5658324938898
 20
-152.7455430390705
 10
102.6230210789449
 20
-152.6652723142642
 10
102.6378349895315
 20
-152.5912027613314
 10
102.6378349895315
 20
-152.5912027613314
 10
102.851430909617
 20
-152.6545925182599
 10
102.851430909617
 20
-152.6545925182599
 10
102.8600436483301
 20
-152.6566595755511
 10
102.8810587307901
 20
-152.6673393715554
 10
102.8810587307901
 20
-152.6883544540154
 10
102.8810587307901
 20
-152.7265950139017
 10
102.8156019165704
 20
-152.7265950139017
 10
102.7966538914015
 20
-152.7265950139017
 10
102.7859740953972
 20
-152.7455430390705
 10
102.7625474460975
 20
-152.785850656248
 10
102.7329196249244
 20
-152.8261582734254
 10
103.1328952107619
 20
-152.8196125920034
 10
103.162523031935
 20
-152.8175455347122
 10
103.2386596421591
 20
-152.8113443628388
 10
103.2386596421591
 20
-152.8113443628388
 10
103.2386596421591
 20
-152.99324540446
 10
103.2386596421591
 20
-152.99324540446
 10
103.2197116169902
 20
-152.99324540446
 10
103.1942179103993
 20
-152.9908338376203
 10
102.9744208184404
 20
-152.9825656084557
 10
102.9234334052587
 20
-152.9804985511646
 10
102.7036363132998
 20
-152.9763644365823
 10
102.65919458154
 20
-152.9763644365823
 10
102.65919458154
 20
-152.9763644365823
 10
102.4431870946149
 20
-152.9763644365823
 10
102.4431870946149
 20
-152.9763644365823
 10
102.4431870946149
 20
-152.9763644365823
 10
102.4431870946149
 20
-153.0945312117264
 10
102.4431870946149
 20
-153.0945312117264
 10
102.4431870946149
 20
-153.0945312117264
 10
102.6168199070715
 20
-153.0945312117264
 10
102.6168199070715
 20
-153.0945312117264
 10
102.7797729235238
 20
-153.0945312117264
 10
102.9699421943096
 20
-153.0945312117264
 10
103.1266940388885
 20
-153.0841959252706
 10
103.1266940388885
 20
-153.0841959252706
 10
103.1266940388885
 20
-153.2554171708875
 10
103.1266940388885
 20
-153.2554171708875
 10
102.9172322333852
 20
-153.2471489417229
 10
102.7205172811775
 20
-153.2447373748832
 10
102.6168199070715
 20
-153.2447373748832
 10
102.6168199070715
 20
-153.2447373748832
 10
102.4431870946149
 20
-153.2447373748832
 10
102.4431870946149
 20
-153.2447373748832
 10
102.4431870946149
 20
-153.2447373748832
 10
102.4431870946149
 20
-153.3529133731201
 10
102.4431870946149
 20
-153.3529133731201
 10
102.4431870946149
 20
-153.3529133731201
 10
102.6740084921266
 20
-153.3529133731201
 10
102.6740084921266
 20
-153.3529133731201
 10
102.8069891778573
 20
-153.3529133731201
 10
103.0949991604241
 20
-153.3484347489893
 10
103.3041164563788
 20
-153.3422335771158
 10
103.3041164563788
 20
-153.3422335771158
 10
103.3041164563788
 20
-153.5200005041547
 10
103.3041164563788
 20
-153.5200005041547
 10
103.1118801283019
 20
-153.5134548227327
 10
102.7987209486927
 20
-153.5093207081504
 10
102.6740084921266
 20
-153.5093207081504
 97
        0
 97
        1
330
157
 75
     2
 76
     1
 98
        1
 10
0.0
 20
0.0
450
        0
451
        0
460
0.0
461
0.0
452
        0
462
0.0
453
        0
470

  0
SPLINE
  5
159
330
14C
100
AcDbEntity
  8
レイヤー 1
100
AcDbSpline
210
0.0
220
0.0
230
1.0
 70
     9
 71
     3
 72
    29
 73
    25
 74
     0
 42
0.0000000001
 43
0.0000000001
 40
0.0
 40
0.0
 40
0.0
 40
0.0
 40
1.0
 40
1.0
 40
1.0
 40
2.0
 40
2.0
 40
2.0
 40
3.0
 40
3.0
 40
3.0
 40
4.0
 40
4.0
 40
4.0
 40
5.0
 40
5.0
 40
5.0
 40
6.0
 40
6.0
 40
6.0
 40
7.0
 40
7.0
 40
7.0
 40
8.0
 40
8.0
 40
8.0
 40
8.0
 10
104.5491739647481
 20
-152.9570719018649
 30
0.0
 10
104.5491739647481
 20
-152.9570719018649
 30
0.0
 10
104.19605167751
 20
-152.9570719018649
 30
0.0
 10
104.19605167751
 20
-152.9570719018649
 30
0.0
 10
104.0837415646908
 20
-152.9570719018649
 30
0.0
 10
103.9442151975382
 20
-152.9636175832869
 30
0.0
 10
103.8363837088499
 20
-152.9763644365823
 30
0.0
 10
103.8363837088499
 20
-152.9763644365823
 30
0.0
 10
103.8363837088499
 20
-152.7414089244882
 30
0.0
 10
103.8363837088499
 20
-152.7414089244882
 30
0.0
 10
103.954550483994
 20
-152.7562228350748
 30
0.0
 10
104.1388630924549
 20
-152.7603569496571
 30
0.0
 10
104.19605167751
 20
-152.7603569496571
 30
0.0
 10
104.19605167751
 20
-152.7603569496571
 30
0.0
 10
104.5491739647481
 20
-152.7603569496571
 30
0.0
 10
104.5491739647481
 20
-152.7603569496571
 30
0.0
 10
104.568121989917
 20
-152.7603569496571
 30
0.0
 10
104.7713826235467
 20
-152.7603569496571
 30
0.0
 10
104.9129760479905
 20
-152.7414089244882
 30
0.0
 10
104.9129760479905
 20
-152.7414089244882
 30
0.0
 10
104.9129760479905
 20
-152.9763644365823
 30
0.0
 10
104.9129760479905
 20
-152.9763644365823
 30
0.0
 10
104.7565687129601
 20
-152.9570719018649
 30
0.0
 10
104.5660549326258
 20
-152.9570719018649
 30
0.0
 10
104.5491739647481
 20
-152.9570719018649
 30
0.0
  0
SPLINE
  5
15A
330
14C
100
AcDbEntity
  8
レイヤー 1
100
AcDbSpline
210
0.0
220
0.0
230
1.0
 70
     9
 71
     3
 72
    47
 73
    43
 74
     0
 42
0.0000000001
 43
0.0000000001
 40
0.0
 40
0.0
 40
0.0
 40
0.0
 40
1.0
 40
1.0
 40
1.0
 40
2.0
 40
2.0
 40
2.0
 40
3.0
 40
3.0
 40
3.0
 40
4.0
 40
4.0
 40
4.0
 40
5.0
 40
5.0
 40
5.0
 40
6.0
 40
6.0
 40
6.0
 40
7.0
 40
7.0
 40
7.0
 40
8.0
 40
8.0
 40
8.0
 40
9.0
 40
9.0
 40
9.0
 40
10.0
 40
10.0
 40
10.0
 40
11.0
 40
11.0
 40
11.0
 40
12.0
 40
12.0
 40
12.0
 40
13.0
 40
13.0
 40
13.0
 40
14.0
 40
14.0
 40
14.0
 40
14.0
 10
104.650804281563
 20
-153.4858940588507
 30
0.0
 10
104.650804281563
 20
-153.4858940588507
 30
0.0
 10
104.5491739647481
 20
-153.4858940588507
 30
0.0
 10
104.5491739647481
 20
-153.4858940588507
 30
0.0
 10
104.5491739647481
 20
-153.572710465079
 30
0.0
 10
104.5281588822881
 20
-153.9620062549123
 30
0.0
 10
104.3310994205318
 20
-154.1821478564197
 30
0.0
 10
104.1788262000838
 20
-154.3513020447455
 30
0.0
 10
103.9717759614202
 20
-154.4212374830961
 30
0.0
 10
103.8870266124831
 20
-154.4484537374295
 30
0.0
 10
103.8870266124831
 20
-154.4484537374295
 30
0.0
 10
103.6923787175665
 20
-154.2813666063949
 30
0.0
 10
103.6923787175665
 20
-154.2813666063949
 30
0.0
 10
103.7895304102505
 20
-154.2686197530995
 30
0.0
 10
103.9652302799983
 20
-154.2455376133483
 30
0.0
 10
104.1536770030414
 20
-154.0570908903051
 30
0.0
 10
104.2277465559743
 20
-153.985432904212
 30
0.0
 10
104.3310994205318
 20
-153.8455620275108
 30
0.0
 10
104.3310994205318
 20
-153.4858940588507
 30
0.0
 10
104.3310994205318
 20
-153.4858940588507
 30
0.0
 10
104.1006225325686
 20
-153.4858940588507
 30
0.0
 10
104.1006225325686
 20
-153.4858940588507
 30
0.0
 10
103.9145873763651
 20
-153.4858940588507
 30
0.0
 10
103.7282077106131
 20
-153.4903726829815
 30
0.0
 10
103.5421725544096
 20
-153.5051865935681
 30
0.0
 10
103.5421725544096
 20
-153.5051865935681
 30
0.0
 10
103.5421725544096
 20
-153.2850449920607
 30
0.0
 10
103.5421725544096
 20
-153.2850449920607
 30
0.0
 10
103.7306192774527
 20
-153.2998589026472
 30
0.0
 10
104.01621769318
 20
-153.3039930172295
 30
0.0
 10
104.1006225325686
 20
-153.3039930172295
 30
0.0
 10
104.1006225325686
 20
-153.3039930172295
 30
0.0
 10
104.650804281563
 20
-153.3039930172295
 30
0.0
 10
104.650804281563
 20
-153.3039930172295
 30
0.0
 10
104.6697523067319
 20
-153.3039930172295
 30
0.0
 10
104.9870456009234
 20
-153.3039930172295
 30
0.0
 10
105.2154554315954
 20
-153.2850449920607
 30
0.0
 10
105.2154554315954
 20
-153.2850449920607
 30
0.0
 10
105.2154554315954
 20
-153.5051865935681
 30
0.0
 10
105.2154554315954
 20
-153.5051865935681
 30
0.0
 10
105.0273532181008
 20
-153.4903726829815
 30
0.0
 10
104.8389064950576
 20
-153.4858940588507
 30
0.0
 10
104.650804281563
 20
-153.4858940588507
 30
0.0
  0
HATCH
  5
15B
330
14C
100
AcDbEntity
  8
レイヤー 1
 62
   250
420
  2299925
440
 33554687
100
AcDbHatch
 10
0.0
 20
0.0
 30
0.0
210
0.0
220
0.0
230
1.0
  2
SOLID
 70
     1
 71
     1
 91
        2
 92
        1
 93
        1
 72
     4
 94
        3
 73
     0
 74
     0
 95
       29
 96
       25
 40
0.0
 40
0.0
 40
0.0
 40
0.0
 40
1.0
 40
1.0
 40
1.0
 40
2.0
 40
2.0
 40
2.0
 40
3.0
 40
3.0
 40
3.0
 40
4.0
 40
4.0
 40
4.0
 40
5.0
 40
5.0
 40
5.0
 40
6.0
 40
6.0
 40
6.0
 40
7.0
 40
7.0
 40
7.0
 40
8.0
 40
8.0
 40
8.0
 40
8.0
 10
104.5491739647481
 20
-152.9570719018649
 10
104.5491739647481
 20
-152.9570719018649
 10
104.19605167751
 20
-152.9570719018649
 10
104.19605167751
 20
-152.9570719018649
 10
104.0837415646908
 20
-152.9570719018649
 10
103.9442151975382
 20
-152.9636175832869
 10
103.8363837088499
 20
-152.9763644365823
 10
103.8363837088499
 20
-152.9763644365823
 10
103.8363837088499
 20
-152.7414089244882
 10
103.8363837088499
 20
-152.7414089244882
 10
103.954550483994
 20
-152.7562228350748
 10
104.1388630924549
 20
-152.7603569496571
 10
104.19605167751
 20
-152.7603569496571
 10
104.19605167751
 20
-152.7603569496571
 10
104.5491739647481
 20
-152.7603569496571
 10
104.5491739647481
 20
-152.7603569496571
 10
104.568121989917
 20
-152.7603569496571
 10
104.7713826235467
 20
-152.7603569496571
 10
104.9129760479905
 20
-152.7414089244882
 10
104.9129760479905
 20
-152.7414089244882
 10
104.9129760479905
 20
-152.9763644365823
 10
104.9129760479905
 20
-152.9763644365823
 10
104.7565687129601
 20
-152.9570719018649
 10
104.5660549326258
 20
-152.9570719018649
 10
104.5491739647481
 20
-152.9570719018649
 97
        0
 97
        1
330
159
 92
        1
 93
        1
 72
     4
 94
        3
 73
     0
 74
     0
 95
       47
 96
       43
 40
0.0
 40
0.0
 40
0.0
 40
0.0
 40
1.0
 40
1.0
 40
1.0
 40
2.0
 40
2.0
 40
2.0
 40
3.0
 40
3.0
 40
3.0
 40
4.0
 40
4.0
 40
4.0
 40
5.0
 40
5.0
 40
5.0
 40
6.0
 40
6.0
 40
6.0
 40
7.0
 40
7.0
 40
7.0
 40
8.0
 40
8.0
 40
8.0
 40
9.0
 40
9.0
 40
9.0
 40
10.0
 40
10.0
 40
10.0
 40
11.0
 40
11.0
 40
11.0
 40
12.0
 40
12.0
 40
12.0
 40
13.0
 40
13.0
 40
13.0
 40
14.0
 40
14.0
 40
14.0
 40
14.0
 10
104.650804281563
 20
-153.4858940588507
 10
104.650804281563
 20
-153.4858940588507
 10
104.5491739647481
 20
-153.4858940588507
 10
104.5491739647481
 20
-153.4858940588507
 10
104.5491739647481
 20
-153.572710465079
 10
104.5281588822881
 20
-153.9620062549123
 10
104.3310994205318
 20
-154.1821478564197
 10
104.1788262000838
 20
-154.3513020447455
 10
103.9717759614202
 20
-154.4212374830961
 10
103.8870266124831
 20
-154.4484537374295
 10
103.8870266124831
 20
-154.4484537374295
 10
103.6923787175665
 20
-154.2813666063949
 10
103.6923787175665
 20
-154.2813666063949
 10
103.7895304102505
 20
-154.2686197530995
 10
103.9652302799983
 20
-154.2455376133483
 10
104.1536770030414
 20
-154.0570908903051
 10
104.2277465559743
 20
-153.985432904212
 10
104.3310994205318
 20
-153.8455620275108
 10
104.3310994205318
 20
-153.4858940588507
 10
104.3310994205318
 20
-153.4858940588507
 10
104.1006225325686
 20
-153.4858940588507
 10
104.1006225325686
 20
-153.4858940588507
 10
103.9145873763651
 20
-153.4858940588507
 10
103.7282077106131
 20
-153.4903726829815
 10
103.5421725544096
 20
-153.5051865935681
 10
103.5421725544096
 20
-153.5051865935681
 10
103.5421725544096
 20
-153.2850449920607
 10
103.5421725544096
 20
-153.2850449920607
 10
103.7306192774527
 20
-153.2998589026472
 10
104.01621769318
 20
-153.3039930172295
 10
104.1006225325686
 20
-153.3039930172295
 10
104.1006225325686
 20
-153.3039930172295
 10
104.650804281563
 20
-153.3039930172295
 10
104.650804281563
 20
-153.3039930172295
 10
104.6697523067319
 20
-153.3039930172295
 10
104.9870456009234
 20
-153.3039930172295
 10
105.2154554315954
 20
-153.2850449920607
 10
105.2154554315954
 20
-153.2850449920607
 10
105.2154554315954
 20
-153.5051865935681
 10
105.2154554315954
 20
-153.5051865935681
 10
105.0273532181008
 20
-153.4903726829815
 10
104.8389064950576
 20
-153.4858940588507
 10
104.650804281563
 20
-153.4858940588507
 97
        0
 97
        1
330
15A
 75
     2
 76
     1
 98
        1
 10
0.0
 20
0.0
450
        0
451
        0
460
0.0
461
0.0
452
        0
462
0.0
453
        0
470

  0
SPLINE
  5
15C
330
14C
100
AcDbEntity
  8
レイヤー 1
100
AcDbSpline
210
0.0
220
0.0
230
1.0
 70
     9
 71
     3
 72
    29
 73
    25
 74
     0
 42
0.0000000001
 43
0.0000000001
 40
0.0
 40
0.0
 40
0.0
 40
0.0
 40
1.0
 40
1.0
 40
1.0
 40
2.0
 40
2.0
 40
2.0
 40
3.0
 40
3.0
 40
3.0
 40
4.0
 40
4.0
 40
4.0
 40
5.0
 40
5.0
 40
5.0
 40
6.0
 40
6.0
 40
6.0
 40
7.0
 40
7.0
 40
7.0
 40
8.0
 40
8.0
 40
8.0
 40
8.0
 10
106.4968586973341
 20
-153.6488470753031
 30
0.0
 10
106.4968586973341
 20
-153.6488470753031
 30
0.0
 10
106.012478272108
 20
-153.6488470753031
 30
0.0
 10
106.012478272108
 20
-153.6488470753031
 30
0.0
 10
105.984917508226
 20
-153.6488470753031
 30
0.0
 10
105.6676242140345
 20
-153.6488470753031
 30
0.0
 10
105.4559230964658
 20
-153.6743407818939
 30
0.0
 10
105.4559230964658
 20
-153.6743407818939
 30
0.0
 10
105.4559230964658
 20
-153.4438638939307
 30
0.0
 10
105.4559230964658
 20
-153.4438638939307
 30
0.0
 10
105.6145697435616
 20
-153.4669460336819
 30
0.0
 10
105.8050835238959
 20
-153.469013090973
 30
0.0
 10
106.012478272108
 20
-153.469013090973
 30
0.0
 10
106.012478272108
 20
-153.469013090973
 30
0.0
 10
106.4968586973341
 20
-153.469013090973
 30
0.0
 10
106.4968586973341
 20
-153.469013090973
 30
0.0
 10
106.6828938535376
 20
-153.469013090973
 30
0.0
 10
106.8692735192896
 20
-153.4669460336819
 30
0.0
 10
107.0532416182019
 20
-153.4438638939307
 30
0.0
 10
107.0532416182019
 20
-153.4438638939307
 30
0.0
 10
107.0532416182019
 20
-153.6743407818939
 30
0.0
 10
107.0532416182019
 20
-153.6743407818939
 30
0.0
 10
106.8692735192896
 20
-153.6509141325942
 30
0.0
 10
106.6215711539001
 20
-153.6488470753031
 30
0.0
 10
106.4968586973341
 20
-153.6488470753031
 30
0.0
  0
HATCH
  5
15D
330
14C
100
AcDbEntity
  8
レイヤー 1
 62
   250
420
  2299925
440
 33554687
100
AcDbHatch
 10
0.0
 20
0.0
 30
0.0
210
0.0
220
0.0
230
1.0
  2
SOLID
 70
     1
 71
     1
 91
        1
 92
        1
 93
        1
 72
     4
 94
        3
 73
     0
 74
     0
 95
       29
 96
       25
 40
0.0
 40
0.0
 40
0.0
 40
0.0
 40
1.0
 40
1.0
 40
1.0
 40
2.0
 40
2.0
 40
2.0
 40
3.0
 40
3.0
 40
3.0
 40
4.0
 40
4.0
 40
4.0
 40
5.0
 40
5.0
 40
5.0
 40
6.0
 40
6.0
 40
6.0
 40
7.0
 40
7.0
 40
7.0
 40
8.0
 40
8.0
 40
8.0
 40
8.0
 10
106.4968586973341
 20
-153.6488470753031
 10
106.4968586973341
 20
-153.6488470753031
 10
106.012478272108
 20
-153.6488470753031
 10
106.012478272108
 20
-153.6488470753031
 10
105.984917508226
 20
-153.6488470753031
 10
105.6676242140345
 20
-153.6488470753031
 10
105.4559230964658
 20
-153.6743407818939
 10
105.4559230964658
 20
-153.6743407818939
 10
105.4559230964658
 20
-153.4438638939307
 10
105.4559230964658
 20
-153.4438638939307
 10
105.6145697435616
 20
-153.4669460336819
 10
105.8050835238959
 20
-153.469013090973
 10
106.012478272108
 20
-153.469013090973
 10
106.012478272108
 20
-153.469013090973
 10
106.4968586973341
 20
-153.469013090973
 10
106.4968586973341
 20
-153.469013090973
 10
106.6828938535376
 20
-153.469013090973
 10
106.8692735192896
 20
-153.4669460336819
 10
107.0532416182019
 20
-153.4438638939307
 10
107.0532416182019
 20
-153.4438638939307
 10
107.0532416182019
 20
-153.6743407818939
 10
107.0532416182019
 20
-153.6743407818939
 10
106.8692735192896
 20
-153.6509141325942
 10
106.6215711539001
 20
-153.6488470753031
 10
106.4968586973341
 20
-153.6488470753031
 97
        0
 97
        1
330
15C
 75
     2
 76
     1
 98
        1
 10
0.0
 20
0.0
450
        0
451
        0
460
0.0
461
0.0
452
        0
462
0.0
453
        0
470

  0
SPLINE
  5
15E
330
14C
100
AcDbEntity
  8
レイヤー 1
100
AcDbSpline
210
0.0
220
0.0
230
1.0
 70
     9
 71
     3
 72
    17
 73
    13
 74
     0
 42
0.0000000001
 43
0.0000000001
 40
0.0
 40
0.0
 40
0.0
 40
0.0
 40
1.0
 40
1.0
 40
1.0
 40
2.0
 40
2.0
 40
2.0
 40
3.0
 40
3.0
 40
3.0
 40
4.0
 40
4.0
 40
4.0
 40
4.0
 10
108.915660237528
 20
-152.6821532821419
 30
0.0
 10
108.8608832193125
 20
-152.6821532821419
 30
0.0
 10
108.8164414875528
 20
-152.7265950139017
 30
0.0
 10
108.8164414875528
 20
-152.7817165416657
 30
0.0
 10
108.8164414875528
 20
-152.8385606171723
 30
0.0
 10
108.8608832193125
 20
-152.8874809730628
 30
0.0
 10
108.9197943521103
 20
-152.8874809730628
 30
0.0
 10
108.9790499944566
 20
-152.8874809730628
 30
0.0
 10
109.019357611634
 20
-152.8364935598811
 30
0.0
 10
109.019357611634
 20
-152.7837835989568
 30
0.0
 10
109.019357611634
 20
-152.7265950139017
 30
0.0
 10
108.9728488225832
 20
-152.6821532821419
 30
0.0
 10
108.915660237528
 20
-152.6821532821419
 30
0.0
  0
SPLINE
  5
15F
330
14C
100
AcDbEntity
  8
レイヤー 1
100
AcDbSpline
210
0.0
220
0.0
230
1.0
 70
     9
 71
     3
 72
    17
 73
    13
 74
     0
 42
0.0000000001
 43
0.0000000001
 40
0.0
 40
0.0
 40
0.0
 40
0.0
 40
1.0
 40
1.0
 40
1.0
 40
2.0
 40
2.0
 40
2.0
 40
3.0
 40
3.0
 40
3.0
 40
4.0
 40
4.0
 40
4.0
 40
4.0
 10
108.9177272948192
 20
-153.0121934296289
 30
0.0
 10
108.790947780962
 20
-153.0121934296289
 30
0.0
 10
108.6893174641471
 20
-152.910563112814
 30
0.0
 10
108.6893174641471
 20
-152.7837835989568
 30
0.0
 10
108.6893174641471
 20
-152.6566595755511
 30
0.0
 10
108.790947780962
 20
-152.5529622014451
 30
0.0
 10
108.9177272948192
 20
-152.5529622014451
 30
0.0
 10
109.0448513182249
 20
-152.5529622014451
 30
0.0
 10
109.1485486923309
 20
-152.6566595755511
 30
0.0
 10
109.1485486923309
 20
-152.7837835989568
 30
0.0
 10
109.1485486923309
 20
-152.910563112814
 30
0.0
 10
109.0448513182249
 20
-153.0121934296289
 30
0.0
 10
108.9177272948192
 20
-153.0121934296289
 30
0.0
  0
SPLINE
  5
160
330
14C
100
AcDbEntity
  8
レイヤー 1
100
AcDbSpline
210
0.0
220
0.0
230
1.0
 70
     9
 71
     3
 72
    44
 73
    40
 74
     0
 42
0.0000000001
 43
0.0000000001
 40
0.0
 40
0.0
 40
0.0
 40
0.0
 40
1.0
 40
1.0
 40
1.0
 40
2.0
 40
2.0
 40
2.0
 40
3.0
 40
3.0
 40
3.0
 40
4.0
 40
4.0
 40
4.0
 40
5.0
 40
5.0
 40
5.0
 40
6.0
 40
6.0
 40
6.0
 40
7.0
 40
7.0
 40
7.0
 40
8.0
 40
8.0
 40
8.0
 40
9.0
 40
9.0
 40
9.0
 40
10.0
 40
10.0
 40
10.0
 40
11.0
 40
11.0
 40
11.0
 40
12.0
 40
12.0
 40
12.0
 40
13.0
 40
13.0
 40
13.0
 40
13.0
 10
108.708265489316
 20
-153.2109754391278
 30
0.0
 10
108.5962998860454
 20
-153.579256146501
 30
0.0
 10
108.5456569824122
 20
-153.7377305388225
 30
0.0
 10
108.3489420302044
 20
-153.9874999615031
 30
0.0
 10
108.1646294217435
 20
-154.2179768494663
 30
0.0
 10
107.9279513619069
 20
-154.4040120056698
 30
0.0
 10
107.6485541180531
 20
-154.4973740933201
 30
0.0
 10
107.6485541180531
 20
-154.4973740933201
 30
0.0
 10
107.4559732804277
 20
-154.3175401089901
 30
0.0
 10
107.4559732804277
 20
-154.3175401089901
 30
0.0
 10
108.0971055502326
 20
-154.165266888542
 30
0.0
 10
108.4271456977196
 20
-153.6088839676741
 30
0.0
 10
108.4905354546482
 20
-153.1686007646592
 30
0.0
 10
108.4905354546482
 20
-153.1686007646592
 30
0.0
 10
107.7246907282771
 20
-153.1686007646592
 30
0.0
 10
107.7246907282771
 20
-153.1686007646592
 30
0.0
 10
107.6316731501754
 20
-153.1686007646592
 30
0.0
 10
107.4477050512631
 20
-153.17307938879
 30
0.0
 10
107.2909532066842
 20
-153.1920274139589
 30
0.0
 10
107.2909532066842
 20
-153.1920274139589
 30
0.0
 10
107.2909532066842
 20
-152.9718858124515
 30
0.0
 10
107.2909532066842
 20
-152.9718858124515
 30
0.0
 10
107.3777696129125
 20
-152.99324540446
 30
0.0
 10
107.6296060928843
 20
-152.99324540446
 30
0.0
 10
107.7288248428594
 20
-152.99324540446
 30
0.0
 10
107.7288248428594
 20
-152.99324540446
 30
0.0
 10
108.1604953071612
 20
-152.99324540446
 30
0.0
 10
108.1604953071612
 20
-152.99324540446
 30
0.0
 10
108.2028699816298
 20
-152.99324540446
 30
0.0
 10
108.4374809841753
 20
-152.9908338376203
 30
0.0
 10
108.4757215440616
 20
-152.9846326657469
 30
0.0
 10
108.5180962185302
 20
-152.9784314938734
 30
0.0
 10
108.5201632758213
 20
-152.9763644365823
 30
0.0
 10
108.5814859754588
 20
-152.9360568194048
 30
0.0
 10
108.5814859754588
 20
-152.9360568194048
 30
0.0
 10
108.7699326985019
 20
-153.090397097144
 30
0.0
 10
108.7699326985019
 20
-153.090397097144
 30
0.0
 10
108.7403048773288
 20
-153.1200249183172
 30
0.0
 10
108.7254909667422
 20
-153.1517197967815
 30
0.0
 10
108.708265489316
 20
-153.2109754391278
 30
0.0
  0
HATCH
  5
161
330
14C
100
AcDbEntity
  8
レイヤー 1
 62
   250
420
  2299925
440
 33554687
100
AcDbHatch
 10
0.0
 20
0.0
 30
0.0
210
0.0
220
0.0
230
1.0
  2
SOLID
 70
     1
 71
     1
 91
        3
 92
        1
 93
        1
 72
     4
 94
        3
 73
     0
 74
     0
 95
       17
 96
       13
 40
0.0
 40
0.0
 40
0.0
 40
0.0
 40
1.0
 40
1.0
 40
1.0
 40
2.0
 40
2.0
 40
2.0
 40
3.0
 40
3.0
 40
3.0
 40
4.0
 40
4.0
 40
4.0
 40
4.0
 10
108.915660237528
 20
-152.6821532821419
 10
108.8608832193125
 20
-152.6821532821419
 10
108.8164414875528
 20
-152.7265950139017
 10
108.8164414875528
 20
-152.7817165416657
 10
108.8164414875528
 20
-152.8385606171723
 10
108.8608832193125
 20
-152.8874809730628
 10
108.9197943521103
 20
-152.8874809730628
 10
108.9790499944566
 20
-152.8874809730628
 10
109.019357611634
 20
-152.8364935598811
 10
109.019357611634
 20
-152.7837835989568
 10
109.019357611634
 20
-152.7265950139017
 10
108.9728488225832
 20
-152.6821532821419
 10
108.915660237528
 20
-152.6821532821419
 97
        0
 97
        1
330
15E
 92
        1
 93
        1
 72
     4
 94
        3
 73
     0
 74
     0
 95
       17
 96
       13
 40
0.0
 40
0.0
 40
0.0
 40
0.0
 40
1.0
 40
1.0
 40
1.0
 40
2.0
 40
2.0
 40
2.0
 40
3.0
 40
3.0
 40
3.0
 40
4.0
 40
4.0
 40
4.0
 40
4.0
 10
108.9177272948192
 20
-153.0121934296289
 10
108.790947780962
 20
-153.0121934296289
 10
108.6893174641471
 20
-152.910563112814
 10
108.6893174641471
 20
-152.7837835989568
 10
108.6893174641471
 20
-152.6566595755511
 10
108.790947780962
 20
-152.5529622014451
 10
108.9177272948192
 20
-152.5529622014451
 10
109.0448513182249
 20
-152.5529622014451
 10
109.1485486923309
 20
-152.6566595755511
 10
109.1485486923309
 20
-152.7837835989568
 10
109.1485486923309
 20
-152.910563112814
 10
109.0448513182249
 20
-153.0121934296289
 10
108.9177272948192
 20
-153.0121934296289
 97
        0
 97
        1
330
15F
 92
        1
 93
        1
 72
     4
 94
        3
 73
     0
 74
     0
 95
       44
 96
       40
 40
0.0
 40
0.0
 40
0.0
 40
0.0
 40
1.0
 40
1.0
 40
1.0
 40
2.0
 40
2.0
 40
2.0
 40
3.0
 40
3.0
 40
3.0
 40
4.0
 40
4.0
 40
4.0
 40
5.0
 40
5.0
 40
5.0
 40
6.0
 40
6.0
 40
6.0
 40
7.0
 40
7.0
 40
7.0
 40
8.0
 40
8.0
 40
8.0
 40
9.0
 40
9.0
 40
9.0
 40
10.0
 40
10.0
 40
10.0
 40
11.0
 40
11.0
 40
11.0
 40
12.0
 40
12.0
 40
12.0
 40
13.0
 40
13.0
 40
13.0
 40
13.0
 10
108.708265489316
 20
-153.2109754391278
 10
108.5962998860454
 20
-153.579256146501
 10
108.5456569824122
 20
-153.7377305388225
 10
108.3489420302044
 20
-153.9874999615031
 10
108.1646294217435
 20
-154.2179768494663
 10
107.9279513619069
 20
-154.4040120056698
 10
107.6485541180531
 20
-154.4973740933201
 10
107.6485541180531
 20
-154.4973740933201
 10
107.4559732804277
 20
-154.3175401089901
 10
107.4559732804277
 20
-154.3175401089901
 10
108.0971055502326
 20
-154.165266888542
 10
108.4271456977196
 20
-153.6088839676741
 10
108.4905354546482
 20
-153.1686007646592
 10
108.4905354546482
 20
-153.1686007646592
 10
107.7246907282771
 20
-153.1686007646592
 10
107.7246907282771
 20
-153.1686007646592
 10
107.6316731501754
 20
-153.1686007646592
 10
107.4477050512631
 20
-153.17307938879
 10
107.2909532066842
 20
-153.1920274139589
 10
107.2909532066842
 20
-153.1920274139589
 10
107.2909532066842
 20
-152.9718858124515
 10
107.2909532066842
 20
-152.9718858124515
 10
107.3777696129125
 20
-152.99324540446
 10
107.6296060928843
 20
-152.99324540446
 10
107.7288248428594
 20
-152.99324540446
 10
107.7288248428594
 20
-152.99324540446
 10
108.1604953071612
 20
-152.99324540446
 10
108.1604953071612
 20
-152.99324540446
 10
108.2028699816298
 20
-152.99324540446
 10
108.4374809841753
 20
-152.9908338376203
 10
108.4757215440616
 20
-152.9846326657469
 10
108.5180962185302
 20
-152.9784314938734
 10
108.5201632758213
 20
-152.9763644365823
 10
108.5814859754588
 20
-152.9360568194048
 10
108.5814859754588
 20
-152.9360568194048
 10
108.7699326985019
 20
-153.090397097144
 10
108.7699326985019
 20
-153.090397097144
 10
108.7403048773288
 20
-153.1200249183172
 10
108.7254909667422
 20
-153.1517197967815
 10
108.708265489316
 20
-153.2109754391278
 97
        0
 97
        1
330
160
 75
     2
 76
     1
 98
        1
 10
0.0
 20
0.0
450
        0
451
        0
460
0.0
461
0.0
452
        0
462
0.0
453
        0
470

  0
ENDBLK
  5
14F
330
14C
100
AcDbEntity
  8
0
100
AcDbBlockEnd
  0
ENDSEC
  0
SECTION
  2
ENTITIES
  0
INSERT
  5
7A
330
70
100
AcDbEntity
  8
レイヤー 1
100
AcDbBlockReference
  2
Block_0
 10
0.0
 20
0.0
 30
0.0
  0
INSERT
  5
FC
330
70
100
AcDbEntity
  8
レイヤー 1
100
AcDbBlockReference
  2
Block_21
 10
0.0
 20
0.0
 30
0.0
  0
ENDSEC
  0
SECTION
  2
OBJECTS
  0
DICTIONARY
  5
C
330
0
100
AcDbDictionary
281
     1
  3
ACAD_COLOR
350
63
  3
ACAD_DETAILVIEWSTYLE
350
6A
  3
ACAD_GROUP
350
D
  3
ACAD_LAYOUT
350
62
  3
ACAD_MATERIAL
350
10
  3
ACAD_MLEADERSTYLE
350
66
  3
ACAD_MLINESTYLE
350
5F
  3
ACAD_PLOTSETTINGS
350
61
  3
ACAD_PLOTSTYLENAME
350
E
  3
ACAD_SCALELIST
350
42
  3
ACAD_SECTIONVIEWSTYLE
350
68
  3
ACAD_TABLESTYLE
350
64
  3
ACAD_VISUALSTYLE
350
29
  3
ACDB_RECOMPOSE_DATA
350
16A
  3
AcDbVariableDictionary
350
162
  0
DICTIONARY
  5
63
102
{ACAD_REACTORS
330
C
102
}
330
C
100
AcDbDictionary
281
     1
  0
DICTIONARY
  5
6A
102
{ACAD_REACTORS
330
C
102
}
330
C
100
AcDbDictionary
281
     1
  3
Imperial24
350
6B
  0
DICTIONARY
  5
D
102
{ACAD_REACTORS
330
C
102
}
330
C
100
AcDbDictionary
281
     1
  0
DICTIONARY
  5
62
102
{ACAD_REACTORS
330
C
102
}
330
C
100
AcDbDictionary
281
     1
  3
Layout1
350
6F
  3
Layout2
350
77
  3
Model
350
73
  0
DICTIONARY
  5
10
102
{ACAD_REACTORS
330
C
102
}
330
C
100
AcDbDictionary
281
     1
  3
ByBlock
350
19
  3
ByLayer
350
11
  3
Global
350
21
  0
DICTIONARY
  5
66
102
{ACAD_REACTORS
330
C
102
}
330
C
100
AcDbDictionary
281
     1
  3
Standard
350
67
  0
DICTIONARY
  5
5F
102
{ACAD_REACTORS
330
C
102
}
330
C
100
AcDbDictionary
281
     1
  3
Standard
350
60
  0
DICTIONARY
  5
61
102
{ACAD_REACTORS
330
C
102
}
330
C
100
AcDbDictionary
281
     1
  0
ACDBDICTIONARYWDFLT
  5
E
102
{ACAD_REACTORS
330
C
102
}
330
C
100
AcDbDictionary
281
     1
  3
Normal
350
F
100
AcDbDictionaryWithDefault
340
F
  0
DICTIONARY
  5
42
102
{ACAD_REACTORS
330
C
102
}
330
C
100
AcDbDictionary
281
     1
  3
A0
350
43
  3
A1
350
44
  3
A2
350
45
  3
A3
350
46
  3
A4
350
47
  3
A5
350
48
  3
A6
350
49
  3
A7
350
4A
  3
A8
350
4B
  3
A9
350
4C
  3
B0
350
4D
  3
B1
350
4E
  3
B2
350
4F
  3
B3
350
50
  3
B4
350
51
  3
B5
350
52
  3
B6
350
53
  0
DICTIONARY
  5
68
102
{ACAD_REACTORS
330
C
102
}
330
C
100
AcDbDictionary
281
     1
  3
Imperial24
350
69
  0
DICTIONARY
  5
64
102
{ACAD_REACTORS
330
C
102
}
330
C
100
AcDbDictionary
281
     1
  3
Standard
350
65
  0
DICTIONARY
  5
29
102
{ACAD_REACTORS
330
C
102
}
330
C
100
AcDbDictionary
281
     1
  3
2dWireframe
350
2F
  3
Basic
350
2E
  3
Brighten
350
35
  3
ColorChange
350
39
  3
Conceptual
350
32
  3
Dim
350
34
  3
EdgeColorOff
350
41
  3
Facepattern
350
38
  3
Flat
350
2A
  3
FlatWithEdges
350
2B
  3
Gouraud
350
2C
  3
GouraudWithEdges
350
2D
  3
Hidden
350
31
  3
JitterOff
350
3F
  3
Linepattern
350
37
  3
OverhangOff
350
40
  3
Realistic
350
33
  3
Shaded
350
3E
  3
Shaded with edges
350
3D
  3
Shades of Gray
350
3A
  3
Sketchy
350
3B
  3
Thicken
350
36
  3
Wireframe
350
30
  3
X-Ray
350
3C
  0
XRECORD
  5
16A
102
{ACAD_REACTORS
330
C
102
}
330
C
100
AcDbXrecord
280
     1
 90
        1
330
65
  0
DICTIONARY
  5
162
102
{ACAD_REACTORS
330
C
102
}
330
C
100
AcDbDictionary
281
     1
  3
CANNOSCALE
350
167
  3
CMLEADERSTYLE
350
164
  3
CTABLESTYLE
350
163
  3
CVIEWDETAILSTYLE
350
165
  3
CVIEWSECTIONSTYLE
350
166
  0
ACDBDETAILVIEWSTYLE
  5
6B
102
{ACAD_XDICTIONARY
360
19F
102
}
102
{ACAD_REACTORS
330
6A
102
}
330
6A
100
AcDbModelDocViewStyle
 70
     0
  3
Imperial24
290
     0
100
AcDbDetailViewStyle
 70
     0
 71
     0
 90
        3
 71
     1
340
55
 62
   256
 40
0.24
340
0
 62
   256
 40
0.24
300

 40
0.36
280
     3
 71
     2
340
5D
 90
       25
 62
   256
 71
     3
340
55
 62
   256
 40
0.24
 90
        1
 40
0.75
 90
        1
300
%<\AcVar ViewType \f "%tc1">% %<\AcVar ViewDetailId>%\PSCALE %<\AcVar ViewScale \f "%sn">%
 71
     4
340
5D
 90
       25
 62
   256
340
5D
 90
       25
 62
   256
280
     0
  0
LAYOUT
  5
6F
102
{ACAD_REACTORS
330
62
102
}
330
62
100
AcDbPlotSettings
  1

  2

  4

  6

 40
0.0
 41
0.0
 42
0.0
 43
0.0
 44
0.0
 45
0.0
 46
0.0
 47
0.0
 48
0.0
 49
0.0
140
0.0
141
0.0
142
1.0
143
1.0
 70
   688
 72
     0
 73
     0
 74
     5
  7

 75
    16
147
1.0
 76
     0
 77
     2
 78
   300
148
0.0
149
0.0
100
AcDbLayout
  1
Layout1
 70
     1
 71
     1
 10
0.0
 20
0.0
 11
12.0
 21
9.0
 12
0.0
 22
0.0
 32
0.0
 14
0.0
 24
0.0
 34
0.0
 15
0.0
 25
0.0
 35
0.0
146
0.0
 13
0.0
 23
0.0
 33
0.0
 16
1.0
 26
0.0
 36
0.0
 17
0.0
 27
1.0
 37
0.0
 76
     0
330
6C
  0
LAYOUT
  5
77
102
{ACAD_REACTORS
330
62
102
}
330
62
100
AcDbPlotSettings
  1

  2

  4

  6

 40
0.0
 41
0.0
 42
0.0
 43
0.0
 44
0.0
 45
0.0
 46
0.0
 47
0.0
 48
0.0
 49
0.0
140
0.0
141
0.0
142
1.0
143
1.0
 70
   688
 72
     0
 73
     0
 74
     5
  7

 75
    16
147
1.0
 76
     0
 77
     2
 78
   300
148
0.0
149
0.0
100
AcDbLayout
  1
Layout2
 70
     1
 71
     2
 10
0.0
 20
0.0
 11
12.0
 21
9.0
 12
0.0
 22
0.0
 32
0.0
 14
0.0
 24
0.0
 34
0.0
 15
0.0
 25
0.0
 35
0.0
146
0.0
 13
0.0
 23
0.0
 33
0.0
 16
1.0
 26
0.0
 36
0.0
 17
0.0
 27
1.0
 37
0.0
 76
     0
330
74
  0
LAYOUT
  5
73
102
{ACAD_REACTORS
330
62
102
}
330
62
100
AcDbPlotSettings
  1

  2

  4

  6

 40
0.0
 41
0.0
 42
0.0
 43
0.0
 44
0.0
 45
0.0
 46
0.0
 47
0.0
 48
0.0
 49
0.0
140
0.0
141
0.0
142
1.0
143
1.0
 70
  1712
 72
     0
 73
     0
 74
     0
  7

 75
     0
147
1.0
 76
     0
 77
     2
 78
   300
148
0.0
149
0.0
100
AcDbLayout
  1
Model
 70
     1
 71
     0
 10
0.0
 20
0.0
 11
12.0
 21
9.0
 12
0.0
 22
0.0
 32
0.0
 14
0.0
 24
0.0
 34
0.0
 15
0.0
 25
0.0
 35
0.0
146
0.0
 13
0.0
 23
0.0
 33
0.0
 16
1.0
 26
0.0
 36
0.0
 17
0.0
 27
1.0
 37
0.0
 76
     0
330
70
  0
MATERIAL
  5
19
102
{ACAD_XDICTIONARY
360
1A
102
}
102
{ACAD_REACTORS
330
10
102
}
330
10
100
AcDbMaterial
  1
ByBlock
 72
     0
 43
0.0208333333333333
 43
0.0
 43
0.0
 43
0.0
 43
0.0
 43
0.0208333333333333
 43
0.0
 43
0.0
 43
0.0
 43
0.0
 43
1.0
 43
0.0
 43
0.0
 43
0.0
 43
0.0
 43
1.0
 77
     0
 47
0.0208333333333333
 47
0.0
 47
0.0
 47
0.0
 47
0.0
 47
0.0208333333333333
 47
0.0
 47
0.0
 47
0.0
 47
0.0
 47
1.0
 47
0.0
 47
0.0
 47
0.0
 47
0.0
 47
1.0
171
     0
 49
0.0208333333333333
 49
0.0
 49
0.0
 49
0.0
 49
0.0
 49
0.0208333333333333
 49
0.0
 49
0.0
 49
0.0
 49
0.0
 49
1.0
 49
0.0
 49
0.0
 49
0.0
 49
0.0
 49
1.0
175
     0
142
0.0208333333333333
142
0.0
142
0.0
142
0.0
142
0.0
142
0.0208333333333333
142
0.0
142
0.0
142
0.0
142
0.0
142
1.0
142
0.0
142
0.0
142
0.0
142
0.0
142
1.0
179
     0
144
0.0208333333333333
144
0.0
144
0.0
144
0.0
144
0.0
144
0.0208333333333333
144
0.0
144
0.0
144
0.0
144
0.0
144
1.0
144
0.0
144
0.0
144
0.0
144
0.0
144
1.0
147
0.0208333333333333
147
0.0
147
0.0
147
0.0
147
0.0
147
0.0208333333333333
147
0.0
147
0.0
147
0.0
147
0.0
147
1.0
147
0.0
147
0.0
147
0.0
147
0.0
147
1.0
  0
MATERIAL
  5
11
102
{ACAD_XDICTIONARY
360
12
102
}
102
{ACAD_REACTORS
330
10
102
}
330
10
100
AcDbMaterial
  1
ByLayer
 72
     0
 43
0.0208333333333333
 43
0.0
 43
0.0
 43
0.0
 43
0.0
 43
0.0208333333333333
 43
0.0
 43
0.0
 43
0.0
 43
0.0
 43
1.0
 43
0.0
 43
0.0
 43
0.0
 43
0.0
 43
1.0
 77
     0
 47
0.0208333333333333
 47
0.0
 47
0.0
 47
0.0
 47
0.0
 47
0.0208333333333333
 47
0.0
 47
0.0
 47
0.0
 47
0.0
 47
1.0
 47
0.0
 47
0.0
 47
0.0
 47
0.0
 47
1.0
171
     0
 49
0.0208333333333333
 49
0.0
 49
0.0
 49
0.0
 49
0.0
 49
0.0208333333333333
 49
0.0
 49
0.0
 49
0.0
 49
0.0
 49
1.0
 49
0.0
 49
0.0
 49
0.0
 49
0.0
 49
1.0
175
     0
142
0.0208333333333333
142
0.0
142
0.0
142
0.0
142
0.0
142
0.0208333333333333
142
0.0
142
0.0
142
0.0
142
0.0
142
1.0
142
0.0
142
0.0
142
0.0
142
0.0
142
1.0
179
     0
144
0.0208333333333333
144
0.0
144
0.0
144
0.0
144
0.0
144
0.0208333333333333
144
0.0
144
0.0
144
0.0
144
0.0
144
1.0
144
0.0
144
0.0
144
0.0
144
0.0
144
1.0
147
0.0208333333333333
147
0.0
147
0.0
147
0.0
147
0.0
147
0.0208333333333333
147
0.0
147
0.0
147
0.0
147
0.0
147
1.0
147
0.0
147
0.0
147
0.0
147
0.0
147
1.0
  0
MATERIAL
  5
21
102
{ACAD_XDICTIONARY
360
22
102
}
102
{ACAD_REACTORS
330
10
102
}
330
10
100
AcDbMaterial
  1
Global
 72
     0
 43
0.0208333333333333
 43
0.0
 43
0.0
 43
0.0
 43
0.0
 43
0.0208333333333333
 43
0.0
 43
0.0
 43
0.0
 43
0.0
 43
1.0
 43
0.0
 43
0.0
 43
0.0
 43
0.0
 43
1.0
 77
     0
 47
0.0208333333333333
 47
0.0
 47
0.0
 47
0.0
 47
0.0
 47
0.0208333333333333
 47
0.0
 47
0.0
 47
0.0
 47
0.0
 47
1.0
 47
0.0
 47
0.0
 47
0.0
 47
0.0
 47
1.0
171
     0
 49
0.0208333333333333
 49
0.0
 49
0.0
 49
0.0
 49
0.0
 49
0.0208333333333333
 49
0.0
 49
0.0
 49
0.0
 49
0.0
 49
1.0
 49
0.0
 49
0.0
 49
0.0
 49
0.0
 49
1.0
175
     0
142
0.0208333333333333
142
0.0
142
0.0
142
0.0
142
0.0
142
0.0208333333333333
142
0.0
142
0.0
142
0.0
142
0.0
142
1.0
142
0.0
142
0.0
142
0.0
142
0.0
142
1.0
179
     0
144
0.0208333333333333
144
0.0
144
0.0
144
0.0
144
0.0
144
0.0208333333333333
144
0.0
144
0.0
144
0.0
144
0.0
144
1.0
144
0.0
144
0.0
144
0.0
144
0.0
144
1.0
147
0.0208333333333333
147
0.0
147
0.0
147
0.0
147
0.0
147
0.0208333333333333
147
0.0
147
0.0
147
0.0
147
0.0
147
1.0
147
0.0
147
0.0
147
0.0
147
0.0
147
1.0
  0
MLEADERSTYLE
  5
67
102
{ACAD_XDICTIONARY
360
19B
102
}
102
{ACAD_REACTORS
330
66
102
}
330
66
100
AcDbMLeaderStyle
179
     2
170
     2
171
     1
172
     0
 90
        2
 40
0.0
 41
0.0
173
     1
 91
-1056964608
340
5B
 92
       -2
290
     1
 42
0.09
291
     1
 43
0.36
  3
Standard
 44
0.18
300

342
55
174
     1
178
     6
175
     1
176
     0
 93
-1056964608
 45
0.18
292
     0
297
     0
 46
0.18
 94
-1056964608
 47
1.0
 49
1.0
140
1.0
293
     1
141
0.0
294
     1
177
     0
142
1.0
295
     0
296
     0
143
0.125
271
     0
272
     9
273
     9
  0
MLINESTYLE
  5
60
102
{ACAD_REACTORS
330
5F
102
}
330
5F
100
AcDbMlineStyle
  2
STANDARD
 70
     0
  3

 62
   256
 51
90.0
 52
90.0
 71
     2
 49
0.5
 62
   256
  6
BYLAYER
 49
-0.5
 62
   256
  6
BYLAYER
  0
ACDBPLACEHOLDER
  5
F
102
{ACAD_REACTORS
330
E
102
}
330
E
  0
SCALE
  5
43
102
{ACAD_REACTORS
330
42
102
}
330
42
100
AcDbScale
 70
     0
300
1:1
140
1.0
141
1.0
290
     1
  0
SCALE
  5
44
102
{ACAD_REACTORS
330
42
102
}
330
42
100
AcDbScale
 70
     0
300
1/128" = 1'-0"
140
0.0078125
141
12.0
290
     0
  0
SCALE
  5
45
102
{ACAD_REACTORS
330
42
102
}
330
42
100
AcDbScale
 70
     0
300
1/64" = 1'-0"
140
0.015625
141
12.0
290
     0
  0
SCALE
  5
46
102
{ACAD_REACTORS
330
42
102
}
330
42
100
AcDbScale
 70
     0
300
1/32" = 1'-0"
140
0.03125
141
12.0
290
     0
  0
SCALE
  5
47
102
{ACAD_REACTORS
330
42
102
}
330
42
100
AcDbScale
 70
     0
300
1/16" = 1'-0"
140
0.0625
141
12.0
290
     0
  0
SCALE
  5
48
102
{ACAD_REACTORS
330
42
102
}
330
42
100
AcDbScale
 70
     0
300
3/32" = 1'-0"
140
0.09375
141
12.0
290
     0
  0
SCALE
  5
49
102
{ACAD_REACTORS
330
42
102
}
330
42
100
AcDbScale
 70
     0
300
1/8" = 1'-0"
140
0.125
141
12.0
290
     0
  0
SCALE
  5
4A
102
{ACAD_REACTORS
330
42
102
}
330
42
100
AcDbScale
 70
     0
300
3/16" = 1'-0"
140
0.1875
141
12.0
290
     0
  0
SCALE
  5
4B
102
{ACAD_REACTORS
330
42
102
}
330
42
100
AcDbScale
 70
     0
300
1/4" = 1'-0"
140
0.25
141
12.0
290
     0
  0
SCALE
  5
4C
102
{ACAD_REACTORS
330
42
102
}
330
42
100
AcDbScale
 70
     0
300
3/8" = 1'-0"
140
0.375
141
12.0
290
     0
  0
SCALE
  5
4D
102
{ACAD_REACTORS
330
42
102
}
330
42
100
AcDbScale
 70
     0
300
1/2" = 1'-0"
140
0.5
141
12.0
290
     0
  0
SCALE
  5
4E
102
{ACAD_REACTORS
330
42
102
}
330
42
100
AcDbScale
 70
     0
300
3/4" = 1'-0"
140
0.75
141
12.0
290
     0
  0
SCALE
  5
4F
102
{ACAD_REACTORS
330
42
102
}
330
42
100
AcDbScale
 70
     0
300
1" = 1'-0"
140
1.0
141
12.0
290
     0
  0
SCALE
  5
50
102
{ACAD_REACTORS
330
42
102
}
330
42
100
AcDbScale
 70
     0
300
1-1/2" = 1'-0"
140
1.5
141
12.0
290
     0
  0
SCALE
  5
51
102
{ACAD_REACTORS
330
42
102
}
330
42
100
AcDbScale
 70
     0
300
3" = 1'-0"
140
3.0
141
12.0
290
     0
  0
SCALE
  5
52
102
{ACAD_REACTORS
330
42
102
}
330
42
100
AcDbScale
 70
     0
300
6" = 1'-0"
140
6.0
141
12.0
290
     0
  0
SCALE
  5
53
102
{ACAD_REACTORS
330
42
102
}
330
42
100
AcDbScale
 70
     0
300
1'-0" = 1'-0"
140
12.0
141
12.0
290
     0
  0
ACDBSECTIONVIEWSTYLE
  5
69
102
{ACAD_XDICTIONARY
360
19D
102
}
102
{ACAD_REACTORS
330
68
102
}
330
68
100
AcDbModelDocViewStyle
 70
     0
  3
Imperial24
290
     0
100
AcDbSectionViewStyle
 70
     0
 71
     0
 90
       78
 71
     1
340
55
 62
   256
 40
0.24
340
0
340
0
 62
   256
 40
0.24
300
I, O, Q, S, X, Z
 40
0.48
 90
        3
 40
0.18
 90
        1
 71
     2
340
5D
 90
       25
 62
   256
340
5D
 90
       50
 62
   256
 40
0.24
 40
0.0
 40
0.24
 71
     3
340
55
 62
   256
 40
0.24
 90
        1
 40
0.75
 90
        1
300
%<\AcVar ViewType \f "%tc1">% %<\AcVar ViewSectionStartId>%-%<\AcVar ViewSectionEndId>%\PSCALE %<\AcVar ViewScale \f "%sn">%
 71
     4
 62
   256
 62
   257
300
ANSI31
 40
1.0
 90
        0
290
     0
290
     0
 90
        6
 40
0.0
 40
1.570796326794896
 40
0.2617993877991494
 40
1.308996938995747
 40
-0.2617993877991494
 40
1.832595714594046
  0
TABLESTYLE
  5
65
102
{ACAD_XDICTIONARY
360
168
102
}
102
{ACAD_REACTORS
330
64
102
}
330
64
100
AcDbTableStyle
280
     0
  3
Standard
 70
     0
 71
     0
 40
0.06
 41
0.06
280
     0
281
     0
  7
Standard
140
0.18
170
     2
 62
     0
 63
     7
283
     0
 90
      512
 91
        0
  1

274
    -2
284
     1
 64
     0
275
    -2
285
     1
 65
     0
276
    -2
286
     1
 66
     0
277
    -2
287
     1
 67
     0
278
    -2
288
     1
 68
     0
279
    -2
289
     1
 69
     0
  7
Standard
140
0.25
170
     5
 62
     0
 63
     7
283
     0
 90
      512
 91
        0
  1

274
    -2
284
     1
 64
     0
275
    -2
285
     1
 65
     0
276
    -2
286
     1
 66
     0
277
    -2
287
     1
 67
     0
278
    -2
288
     1
 68
     0
279
    -2
289
     1
 69
     0
  7
Standard
140
0.18
170
     5
 62
     0
 63
     7
283
     0
 90
      512
 91
        0
  1

274
    -2
284
     1
 64
     0
275
    -2
285
     1
 65
     0
276
    -2
286
     1
 66
     0
277
    -2
287
     1
 67
     0
278
    -2
288
     1
 68
     0
279
    -2
289
     1
 69
     0
  0
VISUALSTYLE
  5
2F
102
{ACAD_XDICTIONARY
360
175
102
}
102
{ACAD_REACTORS
330
29
102
}
330
29
100
AcDbVisualStyle
  2
2dWireframe
 70
     4
177
     2
291
     0
 71
     0
176
     1
 72
     2
176
     1
 73
     0
176
     1
 90
        0
176
     1
 40
0.6
176
     1
 41
30.0
176
     1
 63
     7
421
 16777215
176
     1
 74
     1
176
     1
 91
        4
176
     1
 64
     7
176
     1
 65
   257
176
     1
 75
     1
176
     1
175
     1
176
     1
 42
1.0
176
     1
 92
        0
176
     1
 66
   257
176
     1
 43
1.0
176
     1
 76
     1
176
     1
 77
     6
176
     1
 78
     2
176
     1
 67
     7
176
     1
 79
     5
176
     1
170
     0
176
     1
171
     0
176
     1
290
     0
176
     1
 93
        1
176
     1
 44
0.0
176
     1
173
     0
176
     1
1001
ACAD
1000
AcDbSavedByObjectVersion
1070
     0
  0
VISUALSTYLE
  5
2E
102
{ACAD_XDICTIONARY
360
173
102
}
102
{ACAD_REACTORS
330
29
102
}
330
29
100
AcDbVisualStyle
  2
Basic
 70
     7
177
     2
291
     1
 71
     1
176
     1
 72
     0
176
     1
 73
     1
176
     1
 90
        0
176
     1
 40
0.6
176
     1
 41
30.0
176
     1
 63
     7
421
 16777215
176
     1
 74
     0
176
     1
 91
        4
176
     1
 64
     7
176
     1
 65
   257
176
     1
 75
     1
176
     1
175
     1
176
     1
 42
1.0
176
     1
 92
        8
176
     1
 66
     7
176
     1
 43
1.0
176
     1
 76
     1
176
     1
 77
     6
176
     1
 78
     2
176
     1
 67
     7
176
     1
 79
     5
176
     1
170
     0
176
     1
171
     0
176
     1
290
     0
176
     1
 93
        1
176
     1
 44
0.0
176
     1
173
     0
176
     1
1001
ACAD
1000
AcDbSavedByObjectVersion
1070
     0
  0
VISUALSTYLE
  5
35
102
{ACAD_XDICTIONARY
360
181
102
}
102
{ACAD_REACTORS
330
29
102
}
330
29
100
AcDbVisualStyle
  2
Brighten
 70
    12
177
     2
291
     1
 71
     2
176
     1
 72
     2
176
     1
 73
     0
176
     1
 90
        0
176
     1
 40
0.6
176
     1
 41
30.0
176
     1
 63
     7
421
 16777215
176
     1
 74
     1
176
     1
 91
        4
176
     1
 64
     7
176
     1
 65
   257
176
     1
 75
     1
176
     1
175
     1
176
     1
 42
1.0
176
     1
 92
        8
176
     1
 66
     7
176
     1
 43
1.0
176
     1
 76
     1
176
     1
 77
     6
176
     1
 78
     2
176
     1
 67
     7
176
     1
 79
     5
176
     1
170
     0
176
     1
171
     0
176
     1
290
     0
176
     1
 93
        1
176
     1
 44
50.0
176
     1
173
     0
176
     1
1001
ACAD
1000
AcDbSavedByObjectVersion
1070
     0
  0
VISUALSTYLE
  5
39
102
{ACAD_XDICTIONARY
360
189
102
}
102
{ACAD_REACTORS
330
29
102
}
330
29
100
AcDbVisualStyle
  2
ColorChange
 70
    16
177
     2
291
     1
 71
     2
176
     1
 72
     2
176
     1
 73
     3
176
     1
 90
        0
176
     1
 40
0.6
176
     1
 41
30.0
176
     1
 63
     8
421
  8421504
176
     1
 74
     1
176
     1
 91
        4
176
     1
 64
     7
176
     1
 65
   257
176
     1
 75
     1
176
     1
175
     1
176
     1
 42
1.0
176
     1
 92
        8
176
     1
 66
     8
424
  8421504
176
     1
 43
1.0
176
     1
 76
     1
176
     1
 77
     6
176
     1
 78
     2
176
     1
 67
     7
176
     1
 79
     5
176
     1
170
     0
176
     1
171
     0
176
     1
290
     0
176
     1
 93
        1
176
     1
 44
0.0
176
     1
173
     0
176
     1
1001
ACAD
1000
AcDbSavedByObjectVersion
1070
     0
  0
VISUALSTYLE
  5
32
102
{ACAD_XDICTIONARY
360
17B
102
}
102
{ACAD_REACTORS
330
29
102
}
330
29
100
AcDbVisualStyle
  2
Conceptual
 70
     9
177
     2
291
     0
 71
     3
176
     1
 72
     2
176
     1
 73
     0
176
     1
 90
        0
176
     1
 40
0.6
176
     1
 41
30.0
176
     1
 63
     7
421
 16777215
176
     1
 74
     2
176
     1
 91
        2
176
     1
 64
     7
176
     1
 65
   257
176
     1
 75
     1
176
     1
175
     1
176
     1
 42
179.0
176
     1
 92
        8
176
     1
 66
     7
176
     1
 43
1.0
176
     1
 76
     1
176
     1
 77
     6
176
     1
 78
     2
176
     1
 67
     7
176
     1
 79
     3
176
     1
170
     0
176
     1
171
     0
176
     1
290
     0
176
     1
 93
        1
176
     1
 44
0.0
176
     1
173
     0
176
     1
1001
ACAD
1000
AcDbSavedByObjectVersion
1070
     0
  0
VISUALSTYLE
  5
34
102
{ACAD_XDICTIONARY
360
17F
102
}
102
{ACAD_REACTORS
330
29
102
}
330
29
100
AcDbVisualStyle
  2
Dim
 70
    11
177
     2
291
     1
 71
     2
176
     1
 72
     2
176
     1
 73
     0
176
     1
 90
        0
176
     1
 40
0.6
176
     1
 41
30.0
176
     1
 63
     7
421
 16777215
176
     1
 74
     1
176
     1
 91
        4
176
     1
 64
     7
176
     1
 65
   257
176
     1
 75
     1
176
     1
175
     1
176
     1
 42
1.0
176
     1
 92
        8
176
     1
 66
     7
176
     1
 43
1.0
176
     1
 76
     1
176
     1
 77
     6
176
     1
 78
     2
176
     1
 67
     7
176
     1
 79
     5
176
     1
170
     0
176
     1
171
     0
176
     1
290
     0
176
     1
 93
        1
176
     1
 44
-50.0
176
     1
173
     0
176
     1
1001
ACAD
1000
AcDbSavedByObjectVersion
1070
     0
  0
VISUALSTYLE
  5
41
102
{ACAD_XDICTIONARY
360
199
102
}
102
{ACAD_REACTORS
330
29
102
}
330
29
100
AcDbVisualStyle
  2
EdgeColorOff
 70
    22
177
     2
291
     1
 71
     2
176
     0
 72
     2
176
     0
 73
     0
176
     0
 90
        0
176
     0
 40
0.6
176
     0
 41
30.0
176
     0
 63
     7
421
 16777215
176
     0
 74
     1
176
     0
 91
        4
176
     0
 64
     7
176
     0
 65
   257
176
     0
 75
     1
176
     0
175
     1
176
     0
 42
1.0
176
     0
 92
        8
176
     2
 66
     7
176
     0
 43
1.0
176
     0
 76
     1
176
     0
 77
     6
176
     0
 78
     2
176
     0
 67
     7
176
     0
 79
     5
176
     0
170
     0
176
     0
171
     0
176
     0
290
     0
176
     0
 93
        1
176
     0
 44
0.0
176
     0
173
     0
176
     0
1001
ACAD
1000
AcDbSavedByObjectVersion
1070
     0
  0
VISUALSTYLE
  5
38
102
{ACAD_XDICTIONARY
360
187
102
}
102
{ACAD_REACTORS
330
29
102
}
330
29
100
AcDbVisualStyle
  2
Facepattern
 70
    15
177
     2
291
     1
 71
     2
176
     1
 72
     2
176
     1
 73
     0
176
     1
 90
        0
176
     1
 40
0.6
176
     1
 41
30.0
176
     1
 63
     7
421
 16777215
176
     1
 74
     1
176
     1
 91
        4
176
     1
 64
     7
176
     1
 65
   257
176
     1
 75
     1
176
     1
175
     1
176
     1
 42
1.0
176
     1
 92
        8
176
     1
 66
     7
176
     1
 43
1.0
176
     1
 76
     1
176
     1
 77
     6
176
     1
 78
     2
176
     1
 67
     7
176
     1
 79
     5
176
     1
170
     0
176
     1
171
     0
176
     1
290
     0
176
     1
 93
        1
176
     1
 44
0.0
176
     1
173
     0
176
     1
1001
ACAD
1000
AcDbSavedByObjectVersion
1070
     0
  0
VISUALSTYLE
  5
2A
102
{ACAD_XDICTIONARY
360
16B
102
}
102
{ACAD_REACTORS
330
29
102
}
330
29
100
AcDbVisualStyle
  2
Flat
 70
     0
177
     2
291
     1
 71
     2
176
     1
 72
     1
176
     1
 73
     1
176
     1
 90
        2
176
     1
 40
0.6
176
     1
 41
30.0
176
     1
 63
     7
421
 16777215
176
     1
 74
     0
176
     1
 91
        0
176
     1
 64
     7
176
     1
 65
   257
176
     1
 75
     1
176
     1
175
     1
176
     1
 42
1.0
176
     1
 92
        8
176
     1
 66
     7
176
     1
 43
1.0
176
     1
 76
     1
176
     1
 77
     6
176
     1
 78
     2
176
     1
 67
     7
176
     1
 79
     5
176
     1
170
     0
176
     1
171
     0
176
     1
290
     0
176
     1
 93
       13
176
     1
 44
0.0
176
     1
173
     0
176
     1
1001
ACAD
1000
AcDbSavedByObjectVersion
1070
     0
  0
VISUALSTYLE
  5
2B
102
{ACAD_XDICTIONARY
360
16D
102
}
102
{ACAD_REACTORS
330
29
102
}
330
29
100
AcDbVisualStyle
  2
FlatWithEdges
 70
     1
177
     2
291
     1
 71
     2
176
     1
 72
     1
176
     1
 73
     1
176
     1
 90
        2
176
     1
 40
0.6
176
     1
 41
30.0
176
     1
 63
     7
421
 16777215
176
     1
 74
     1
176
     1
 91
        0
176
     1
 64
     7
176
     1
 65
   257
176
     1
 75
     1
176
     1
175
     1
176
     1
 42
1.0
176
     1
 92
        0
176
     1
 66
   257
176
     1
 43
1.0
176
     1
 76
     1
176
     1
 77
     6
176
     1
 78
     2
176
     1
 67
     7
176
     1
 79
     5
176
     1
170
     0
176
     1
171
     0
176
     1
290
     0
176
     1
 93
       13
176
     1
 44
0.0
176
     1
173
     0
176
     1
1001
ACAD
1000
AcDbSavedByObjectVersion
1070
     0
  0
VISUALSTYLE
  5
2C
102
{ACAD_XDICTIONARY
360
16F
102
}
102
{ACAD_REACTORS
330
29
102
}
330
29
100
AcDbVisualStyle
  2
Gouraud
 70
     2
177
     2
291
     1
 71
     2
176
     1
 72
     2
176
     1
 73
     1
176
     1
 90
        2
176
     1
 40
0.6
176
     1
 41
30.0
176
     1
 63
     7
421
 16777215
176
     1
 74
     0
176
     1
 91
        0
176
     1
 64
     7
176
     1
 65
   257
176
     1
 75
     1
176
     1
175
     1
176
     1
 42
1.0
176
     1
 92
        0
176
     1
 66
     7
176
     1
 43
1.0
176
     1
 76
     1
176
     1
 77
     6
176
     1
 78
     2
176
     1
 67
     7
176
     1
 79
     5
176
     1
170
     0
176
     1
171
     0
176
     1
290
     0
176
     1
 93
       13
176
     1
 44
0.0
176
     1
173
     0
176
     1
1001
ACAD
1000
AcDbSavedByObjectVersion
1070
     0
  0
VISUALSTYLE
  5
2D
102
{ACAD_XDICTIONARY
360
171
102
}
102
{ACAD_REACTORS
330
29
102
}
330
29
100
AcDbVisualStyle
  2
GouraudWithEdges
 70
     3
177
     2
291
     1
 71
     2
176
     1
 72
     2
176
     1
 73
     1
176
     1
 90
        2
176
     1
 40
0.6
176
     1
 41
30.0
176
     1
 63
     7
421
 16777215
176
     1
 74
     1
176
     1
 91
        0
176
     1
 64
     7
176
     1
 65
   257
176
     1
 75
     1
176
     1
175
     1
176
     1
 42
1.0
176
     1
 92
        0
176
     1
 66
   257
176
     1
 43
1.0
176
     1
 76
     1
176
     1
 77
     6
176
     1
 78
     2
176
     1
 67
     7
176
     1
 79
     5
176
     1
170
     0
176
     1
171
     0
176
     1
290
     0
176
     1
 93
       13
176
     1
 44
0.0
176
     1
173
     0
176
     1
1001
ACAD
1000
AcDbSavedByObjectVersion
1070
     0
  0
VISUALSTYLE
  5
31
102
{ACAD_XDICTIONARY
360
179
102
}
102
{ACAD_REACTORS
330
29
102
}
330
29
100
AcDbVisualStyle
  2
Hidden
 70
     6
177
     2
291
     0
 71
     1
176
     1
 72
     2
176
     1
 73
     2
176
     1
 90
        0
176
     1
 40
0.6
176
     1
 41
30.0
176
     1
 63
     7
421
 16777215
176
     1
 74
     2
176
     1
 91
        2
176
     1
 64
     7
176
     1
 65
   257
176
     1
 75
     2
176
     1
175
     1
176
     1
 42
40.0
176
     1
 92
        0
176
     1
 66
   257
176
     1
 43
1.0
176
     1
 76
     1
176
     1
 77
     6
176
     1
 78
     2
176
     1
 67
     7
176
     1
 79
     3
176
     1
170
     0
176
     1
171
     0
176
     1
290
     0
176
     1
 93
        1
176
     1
 44
0.0
176
     1
173
     0
176
     1
1001
ACAD
1000
AcDbSavedByObjectVersion
1070
     0
  0
VISUALSTYLE
  5
3F
102
{ACAD_XDICTIONARY
360
195
102
}
102
{ACAD_REACTORS
330
29
102
}
330
29
100
AcDbVisualStyle
  2
JitterOff
 70
    20
177
     2
291
     1
 71
     2
176
     0
 72
     2
176
     0
 73
     0
176
     0
 90
        0
176
     0
 40
0.6
176
     0
 41
30.0
176
     0
 63
     7
421
 16777215
176
     0
 74
     1
176
     0
 91
        4
176
     0
 64
     7
176
     0
 65
   257
176
     0
 75
     1
176
     0
175
     1
176
     0
 42
1.0
176
     0
 92
       10
176
     2
 66
     7
176
     0
 43
1.0
176
     0
 76
     1
176
     0
 77
     6
176
     0
 78
     2
176
     0
 67
     7
176
     0
 79
     5
176
     0
170
     0
176
     0
171
     0
176
     0
290
     0
176
     0
 93
        1
176
     0
 44
0.0
176
     0
173
     0
176
     0
1001
ACAD
1000
AcDbSavedByObjectVersion
1070
     0
  0
VISUALSTYLE
  5
37
102
{ACAD_XDICTIONARY
360
185
102
}
102
{ACAD_REACTORS
330
29
102
}
330
29
100
AcDbVisualStyle
  2
Linepattern
 70
    14
177
     2
291
     1
 71
     2
176
     1
 72
     2
176
     1
 73
     0
176
     1
 90
        0
176
     1
 40
0.6
176
     1
 41
30.0
176
     1
 63
     7
421
 16777215
176
     1
 74
     1
176
     1
 91
        4
176
     1
 64
     7
176
     1
 65
   257
176
     1
 75
     7
176
     1
175
     7
176
     1
 42
1.0
176
     1
 92
        8
176
     1
 66
     7
176
     1
 43
1.0
176
     1
 76
     1
176
     1
 77
     6
176
     1
 78
     2
176
     1
 67
     7
176
     1
 79
     5
176
     1
170
     0
176
     1
171
     0
176
     1
290
     0
176
     1
 93
        1
176
     1
 44
0.0
176
     1
173
     0
176
     1
1001
ACAD
1000
AcDbSavedByObjectVersion
1070
     0
  0
VISUALSTYLE
  5
40
102
{ACAD_XDICTIONARY
360
197
102
}
102
{ACAD_REACTORS
330
29
102
}
330
29
100
AcDbVisualStyle
  2
OverhangOff
 70
    21
177
     2
291
     1
 71
     2
176
     0
 72
     2
176
     0
 73
     0
176
     0
 90
        0
176
     0
 40
0.6
176
     0
 41
30.0
176
     0
 63
     7
421
 16777215
176
     0
 74
     1
176
     0
 91
        4
176
     0
 64
     7
176
     0
 65
   257
176
     0
 75
     1
176
     0
175
     1
176
     0
 42
1.0
176
     0
 92
        9
176
     2
 66
     7
176
     0
 43
1.0
176
     0
 76
     1
176
     0
 77
     6
176
     0
 78
     2
176
     0
 67
     7
176
     0
 79
     5
176
     0
170
     0
176
     0
171
     0
176
     0
290
     0
176
     0
 93
        1
176
     0
 44
0.0
176
     0
173
     0
176
     0
1001
ACAD
1000
AcDbSavedByObjectVersion
1070
     0
  0
VISUALSTYLE
  5
33
102
{ACAD_XDICTIONARY
360
17D
102
}
102
{ACAD_REACTORS
330
29
102
}
330
29
100
AcDbVisualStyle
  2
Realistic
 70
     8
177
     2
291
     0
 71
     2
176
     1
 72
     3
176
     1
 73
     0
176
     1
 90
        2
176
     1
 40
0.6
176
     1
 41
30.0
176
     1
 63
     7
421
 16777215
176
     1
 74
     0
176
     1
 91
        0
176
     1
 64
     7
176
     1
 65
   257
176
     1
 75
     1
176
     1
175
     1
176
     1
 42
1.0
176
     1
 92
        8
176
     1
 66
   257
176
     1
 43
1.0
176
     1
 76
     1
176
     1
 77
     6
176
     1
 78
     2
176
     1
 67
     7
176
     1
 79
     3
176
     1
170
     0
176
     1
171
     0
176
     1
290
     0
176
     1
 93
       13
176
     1
 44
0.0
176
     1
173
     0
176
     1
1001
ACAD
1000
AcDbSavedByObjectVersion
1070
     0
  0
VISUALSTYLE
  5
3E
102
{ACAD_XDICTIONARY
360
193
102
}
102
{ACAD_REACTORS
330
29
102
}
330
29
100
AcDbVisualStyle
  2
Shaded
 70
    27
177
     2
291
     0
 71
     2
176
     1
 72
     2
176
     1
 73
     1
176
     1
 90
        2
176
     1
 40
0.6
176
     1
 41
30.0
176
     1
 63
     7
421
 16777215
176
     1
 74
     0
176
     1
 91
        4
176
     1
 64
     7
176
     1
 65
   257
176
     1
 75
     1
176
     1
175
     1
176
     1
 42
1.0
176
     1
 92
        8
176
     1
 66
   257
176
     1
 43
1.0
176
     1
 76
     1
176
     1
 77
     6
176
     1
 78
     2
176
     1
 67
     8
425
  7895160
176
     1
 79
     3
176
     1
170
     0
176
     1
171
     0
176
     1
290
     0
176
     1
 93
        5
176
     1
 44
0.0
176
     1
173
     0
176
     1
1001
ACAD
1000
AcDbSavedByObjectVersion
1070
     0
  0
VISUALSTYLE
  5
3D
102
{ACAD_XDICTIONARY
360
191
102
}
102
{ACAD_REACTORS
330
29
102
}
330
29
100
AcDbVisualStyle
  2
Shaded with edges
 70
    26
177
     2
291
     0
 71
     2
176
     1
 72
     2
176
     1
 73
     1
176
     1
 90
        2
176
     1
 40
0.6
176
     1
 41
30.0
176
     1
 63
     7
421
 16777215
176
     1
 74
     1
176
     1
 91
        2
176
     1
 64
     7
176
     1
 65
   257
176
     1
 75
     2
176
     1
175
     1
176
     1
 42
1.0
176
     1
 92
        8
176
     1
 66
   257
176
     1
 43
1.0
176
     1
 76
     1
176
     1
 77
     6
176
     1
 78
     2
176
     1
 67
     7
176
     1
 79
     3
176
     1
170
     0
176
     1
171
     0
176
     1
290
     0
176
     1
 93
        5
176
     1
 44
0.0
176
     1
173
     0
176
     1
1001
ACAD
1000
AcDbSavedByObjectVersion
1070
     0
  0
VISUALSTYLE
  5
3A
102
{ACAD_XDICTIONARY
360
18B
102
}
102
{ACAD_REACTORS
330
29
102
}
330
29
100
AcDbVisualStyle
  2
Shades of Gray
 70
    23
177
     2
291
     0
 71
     2
176
     1
 72
     2
176
     1
 73
     3
176
     1
 90
        0
176
     1
 40
0.6
176
     1
 41
30.0
176
     1
 63
     7
421
 16777215
176
     1
 74
     2
176
     1
 91
        2
176
     1
 64
     7
176
     1
 65
     7
176
     1
 75
     1
176
     1
175
     1
176
     1
 42
40.0
176
     1
 92
        8
176
     1
 66
     7
176
     1
 43
1.0
176
     1
 76
     1
176
     1
 77
     6
176
     1
 78
     2
176
     1
 67
     7
176
     1
 79
     3
176
     1
170
     0
176
     1
171
     0
176
     1
290
     0
176
     1
 93
        1
176
     1
 44
0.0
176
     1
173
     0
176
     1
1001
ACAD
1000
AcDbSavedByObjectVersion
1070
     0
  0
VISUALSTYLE
  5
3B
102
{ACAD_XDICTIONARY
360
18D
102
}
102
{ACAD_REACTORS
330
29
102
}
330
29
100
AcDbVisualStyle
  2
Sketchy
 70
    24
177
     2
291
     0
 71
     1
176
     1
 72
     2
176
     1
 73
     2
176
     1
 90
        0
176
     1
 40
0.6
176
     1
 41
30.0
176
     1
 63
     7
421
 16777215
176
     1
 74
     2
176
     1
 91
        2
176
     1
 64
     7
176
     1
 65
     7
176
     1
 75
     1
176
     1
175
     1
176
     1
 42
40.0
176
     1
 92
       11
176
     1
 66
     7
176
     1
 43
1.0
176
     1
 76
     1
176
     1
 77
     6
176
     1
 78
     2
176
     1
 67
     7
176
     1
 79
     6
176
     1
170
     0
176
     1
171
     0
176
     1
290
     0
176
     1
 93
        1
176
     1
 44
0.0
176
     1
173
     0
176
     1
1001
ACAD
1000
AcDbSavedByObjectVersion
1070
     0
  0
VISUALSTYLE
  5
36
102
{ACAD_XDICTIONARY
360
183
102
}
102
{ACAD_REACTORS
330
29
102
}
330
29
100
AcDbVisualStyle
  2
Thicken
 70
    13
177
     2
291
     1
 71
     2
176
     1
 72
     2
176
     1
 73
     0
176
     1
 90
        0
176
     1
 40
0.6
176
     1
 41
30.0
176
     1
 63
     7
421
 16777215
176
     1
 74
     1
176
     1
 91
        4
176
     1
 64
     7
176
     1
 65
   257
176
     1
 75
     1
176
     1
175
     1
176
     1
 42
1.0
176
     1
 92
       12
176
     1
 66
     7
176
     1
 43
1.0
176
     1
 76
     1
176
     1
 77
     6
176
     1
 78
     2
176
     1
 67
     7
176
     1
 79
     5
176
     1
170
     0
176
     1
171
     0
176
     1
290
     0
176
     1
 93
        1
176
     1
 44
0.0
176
     1
173
     0
176
     1
1001
ACAD
1000
AcDbSavedByObjectVersion
1070
     0
  0
VISUALSTYLE
  5
30
102
{ACAD_XDICTIONARY
360
177
102
}
102
{ACAD_REACTORS
330
29
102
}
330
29
100
AcDbVisualStyle
  2
Wireframe
 70
     5
177
     2
291
     0
 71
     0
176
     1
 72
     2
176
     1
 73
     0
176
     1
 90
        0
176
     1
 40
0.6
176
     1
 41
30.0
176
     1
 63
     7
421
 16777215
176
     1
 74
     1
176
     1
 91
        4
176
     1
 64
     7
176
     1
 65
   257
176
     1
 75
     1
176
     1
175
     1
176
     1
 42
1.0
176
     1
 92
        0
176
     1
 66
   257
176
     1
 43
1.0
176
     1
 76
     1
176
     1
 77
     6
176
     1
 78
     2
176
     1
 67
     7
176
     1
 79
     3
176
     1
170
     0
176
     1
171
     0
176
     1
290
     0
176
     1
 93
        1
176
     1
 44
0.0
176
     1
173
     0
176
     1
1001
ACAD
1000
AcDbSavedByObjectVersion
1070
     0
  0
VISUALSTYLE
  5
3C
102
{ACAD_XDICTIONARY
360
18F
102
}
102
{ACAD_REACTORS
330
29
102
}
330
29
100
AcDbVisualStyle
  2
X-Ray
 70
    25
177
     2
291
     0
 71
     2
176
     1
 72
     2
176
     1
 73
     1
176
     1
 90
        1
176
     1
 40
0.5
176
     1
 41
30.0
176
     1
 63
     7
421
 16777215
176
     1
 74
     1
176
     1
 91
        0
176
     1
 64
     7
176
     1
 65
   257
176
     1
 75
     1
176
     1
175
     1
176
     1
 42
1.0
176
     1
 92
        8
176
     1
 66
     7
176
     1
 43
1.0
176
     1
 76
     1
176
     1
 77
     6
176
     1
 78
     2
176
     1
 67
     7
176
     1
 79
     3
176
     1
170
     0
176
     1
171
     0
176
     1
290
     0
176
     1
 93
       13
176
     1
 44
0.0
176
     1
173
     0
176
     1
1001
ACAD
1000
AcDbSavedByObjectVersion
1070
     0
  0
DICTIONARYVAR
  5
167
102
{ACAD_REACTORS
330
162
102
}
330
162
100
DictionaryVariables
280
     0
  1
1:1
  0
DICTIONARYVAR
  5
164
102
{ACAD_REACTORS
330
162
102
}
330
162
100
DictionaryVariables
280
     0
  1
STANDARD
  0
DICTIONARYVAR
  5
163
102
{ACAD_REACTORS
330
162
102
}
330
162
100
DictionaryVariables
280
     0
  1
STANDARD
  0
DICTIONARYVAR
  5
165
102
{ACAD_REACTORS
330
162
102
}
330
162
100
DictionaryVariables
280
     0
  1
Imperial24
  0
DICTIONARYVAR
  5
166
102
{ACAD_REACTORS
330
162
102
}
330
162
100
DictionaryVariables
280
     0
  1
Imperial24
  0
DICTIONARY
  5
19F
330
6B
100
AcDbDictionary
280
     1
281
     1
  3
ACAD_XREC_ROUNDTRIP
360
1A0
  0
DICTIONARY
  5
1A
330
19
100
AcDbDictionary
280
     1
281
     1
  3
BUMPTILE
360
1C
  3
DIFFUSETILE
360
1B
  3
OPACITYTILE
360
1F
  3
REFLECTIONTILE
360
1E
  3
REFRACTIONTILE
360
20
  3
SPECULARTILE
360
1D
  0
DICTIONARY
  5
12
330
11
100
AcDbDictionary
280
     1
281
     1
  3
BUMPTILE
360
14
  3
DIFFUSETILE
360
13
  3
OPACITYTILE
360
17
  3
REFLECTIONTILE
360
16
  3
REFRACTIONTILE
360
18
  3
SPECULARTILE
360
15
  0
DICTIONARY
  5
22
330
21
100
AcDbDictionary
280
     1
281
     1
  3
BUMPTILE
360
24
  3
DIFFUSETILE
360
23
  3
OPACITYTILE
360
27
  3
REFLECTIONTILE
360
26
  3
REFRACTIONTILE
360
28
  3
SPECULARTILE
360
25
  0
DICTIONARY
  5
19B
330
67
100
AcDbDictionary
280
     1
281
     1
  3
ACAD_XREC_ROUNDTRIP
360
19C
  0
DICTIONARY
  5
19D
330
69
100
AcDbDictionary
280
     1
281
     1
  3
ACAD_XREC_ROUNDTRIP
360
19E
  0
DICTIONARY
  5
168
330
65
100
AcDbDictionary
280
     1
281
     1
  3
ACAD_ROUNDTRIP_2008_TABLESTYLE_CELLSTYLEMAP
360
169
  0
DICTIONARY
  5
175
330
2F
100
AcDbDictionary
280
     1
281
     1
  3
ACAD_XREC_ROUNDTRIP
360
176
  0
DICTIONARY
  5
173
330
2E
100
AcDbDictionary
280
     1
281
     1
  3
ACAD_XREC_ROUNDTRIP
360
174
  0
DICTIONARY
  5
181
330
35
100
AcDbDictionary
280
     1
281
     1
  3
ACAD_XREC_ROUNDTRIP
360
182
  0
DICTIONARY
  5
189
330
39
100
AcDbDictionary
280
     1
281
     1
  3
ACAD_XREC_ROUNDTRIP
360
18A
  0
DICTIONARY
  5
17B
330
32
100
AcDbDictionary
280
     1
281
     1
  3
ACAD_XREC_ROUNDTRIP
360
17C
  0
DICTIONARY
  5
17F
330
34
100
AcDbDictionary
280
     1
281
     1
  3
ACAD_XREC_ROUNDTRIP
360
180
  0
DICTIONARY
  5
199
330
41
100
AcDbDictionary
280
     1
281
     1
  3
ACAD_XREC_ROUNDTRIP
360
19A
  0
DICTIONARY
  5
187
330
38
100
AcDbDictionary
280
     1
281
     1
  3
ACAD_XREC_ROUNDTRIP
360
188
  0
DICTIONARY
  5
16B
330
2A
100
AcDbDictionary
280
     1
281
     1
  3
ACAD_XREC_ROUNDTRIP
360
16C
  0
DICTIONARY
  5
16D
330
2B
100
AcDbDictionary
280
     1
281
     1
  3
ACAD_XREC_ROUNDTRIP
360
16E
  0
DICTIONARY
  5
16F
330
2C
100
AcDbDictionary
280
     1
281
     1
  3
ACAD_XREC_ROUNDTRIP
360
170
  0
DICTIONARY
  5
171
330
2D
100
AcDbDictionary
280
     1
281
     1
  3
ACAD_XREC_ROUNDTRIP
360
172
  0
DICTIONARY
  5
179
330
31
100
AcDbDictionary
280
     1
281
     1
  3
ACAD_XREC_ROUNDTRIP
360
17A
  0
DICTIONARY
  5
195
330
3F
100
AcDbDictionary
280
     1
281
     1
  3
ACAD_XREC_ROUNDTRIP
360
196
  0
DICTIONARY
  5
185
330
37
100
AcDbDictionary
280
     1
281
     1
  3
ACAD_XREC_ROUNDTRIP
360
186
  0
DICTIONARY
  5
197
330
40
100
AcDbDictionary
280
     1
281
     1
  3
ACAD_XREC_ROUNDTRIP
360
198
  0
DICTIONARY
  5
17D
330
33
100
AcDbDictionary
280
     1
281
     1
  3
ACAD_XREC_ROUNDTRIP
360
17E
  0
DICTIONARY
  5
193
330
3E
100
AcDbDictionary
280
     1
281
     1
  3
ACAD_XREC_ROUNDTRIP
360
194
  0
DICTIONARY
  5
191
330
3D
100
AcDbDictionary
280
     1
281
     1
  3
ACAD_XREC_ROUNDTRIP
360
192
  0
DICTIONARY
  5
18B
330
3A
100
AcDbDictionary
280
     1
281
     1
  3
ACAD_XREC_ROUNDTRIP
360
18C
  0
DICTIONARY
  5
18D
330
3B
100
AcDbDictionary
280
     1
281
     1
  3
ACAD_XREC_ROUNDTRIP
360
18E
  0
DICTIONARY
  5
183
330
36
100
AcDbDictionary
280
     1
281
     1
  3
ACAD_XREC_ROUNDTRIP
360
184
  0
DICTIONARY
  5
177
330
30
100
AcDbDictionary
280
     1
281
     1
  3
ACAD_XREC_ROUNDTRIP
360
178
  0
DICTIONARY
  5
18F
330
3C
100
AcDbDictionary
280
     1
281
     1
  3
ACAD_XREC_ROUNDTRIP
360
190
  0
XRECORD
  5
1A0
102
{ACAD_REACTORS
330
19F
102
}
330
19F
100
AcDbXrecord
280
     1
102
DISPLAYNAME
  1
Imperial24
102
FLAGS
 90
        0
  0
XRECORD
  5
1C
102
{ACAD_REACTORS
330
1A
102
}
330
1A
100
AcDbXrecord
280
     1
270
     1
271
     1
  0
XRECORD
  5
1B
102
{ACAD_REACTORS
330
1A
102
}
330
1A
100
AcDbXrecord
280
     1
270
     1
271
     1
  0
XRECORD
  5
1F
102
{ACAD_REACTORS
330
1A
102
}
330
1A
100
AcDbXrecord
280
     1
270
     1
271
     1
  0
XRECORD
  5
1E
102
{ACAD_REACTORS
330
1A
102
}
330
1A
100
AcDbXrecord
280
     1
270
     1
271
     1
  0
XRECORD
  5
20
102
{ACAD_REACTORS
330
1A
102
}
330
1A
100
AcDbXrecord
280
     1
270
     1
271
     1
  0
XRECORD
  5
1D
102
{ACAD_REACTORS
330
1A
102
}
330
1A
100
AcDbXrecord
280
     1
270
     1
271
     1
  0
XRECORD
  5
14
102
{ACAD_REACTORS
330
12
102
}
330
12
100
AcDbXrecord
280
     1
270
     1
271
     1
  0
XRECORD
  5
13
102
{ACAD_REACTORS
330
12
102
}
330
12
100
AcDbXrecord
280
     1
270
     1
271
     1
  0
XRECORD
  5
17
102
{ACAD_REACTORS
330
12
102
}
330
12
100
AcDbXrecord
280
     1
270
     1
271
     1
  0
XRECORD
  5
16
102
{ACAD_REACTORS
330
12
102
}
330
12
100
AcDbXrecord
280
     1
270
     1
271
     1
  0
XRECORD
  5
18
102
{ACAD_REACTORS
330
12
102
}
330
12
100
AcDbXrecord
280
     1
270
     1
271
     1
  0
XRECORD
  5
15
102
{ACAD_REACTORS
330
12
102
}
330
12
100
AcDbXrecord
280
     1
270
     1
271
     1
  0
XRECORD
  5
24
102
{ACAD_REACTORS
330
22
102
}
330
22
100
AcDbXrecord
280
     1
270
     1
271
     1
  0
XRECORD
  5
23
102
{ACAD_REACTORS
330
22
102
}
330
22
100
AcDbXrecord
280
     1
270
     1
271
     1
  0
XRECORD
  5
27
102
{ACAD_REACTORS
330
22
102
}
330
22
100
AcDbXrecord
280
     1
270
     1
271
     1
  0
XRECORD
  5
26
102
{ACAD_REACTORS
330
22
102
}
330
22
100
AcDbXrecord
280
     1
270
     1
271
     1
  0
XRECORD
  5
28
102
{ACAD_REACTORS
330
22
102
}
330
22
100
AcDbXrecord
280
     1
270
     1
271
     1
  0
XRECORD
  5
25
102
{ACAD_REACTORS
330
22
102
}
330
22
100
AcDbXrecord
280
     1
270
     1
271
     1
  0
XRECORD
  5
19C
102
{ACAD_REACTORS
330
19B
102
}
330
19B
100
AcDbXrecord
280
     1
102
ACAD_ROUNDTRIP_2012_MLEADER_STYLE
298
     1
  0
XRECORD
  5
19E
102
{ACAD_REACTORS
330
19D
102
}
330
19D
100
AcDbXrecord
280
     1
102
DISPLAYNAME
  1
Imperial24
102
FLAGS
 90
        0
  0
CELLSTYLEMAP
  5
169
102
{ACAD_REACTORS
330
168
102
}
330
168
100
AcDbCellStyleMap
 90
        3
300
CELLSTYLE
  1
TABLEFORMAT_BEGIN
 90
        5
170
     1
 91
        0
 92
    32768
 62
   257
 93
        1
300
CONTENTFORMAT
  1
CONTENTFORMAT_BEGIN
 90
        0
 91
        0
 92
      512
 93
        0
300

 40
0.0
140
1.0
 94
        5
 62
     0
340
55
144
0.25
309
CONTENTFORMAT_END
171
     0
 94
        0
309
TABLEFORMAT_END
  1
CELLSTYLE_BEGIN
 90
        1
 91
        1
300
_TITLE
309
CELLSTYLE_END
300
CELLSTYLE
  1
TABLEFORMAT_BEGIN
 90
        5
170
     1
 91
        0
 92
        0
 62
   257
 93
        1
300
CONTENTFORMAT
  1
CONTENTFORMAT_BEGIN
 90
        0
 91
        0
 92
      512
 93
        0
300

 40
0.0
140
1.0
 94
        5
 62
     0
340
55
144
0.18
309
CONTENTFORMAT_END
171
     0
 94
        0
309
TABLEFORMAT_END
  1
CELLSTYLE_BEGIN
 90
        2
 91
        1
300
_HEADER
309
CELLSTYLE_END
300
CELLSTYLE
  1
TABLEFORMAT_BEGIN
 90
        5
170
     1
 91
        0
 92
        0
 62
   257
 93
        1
300
CONTENTFORMAT
  1
CONTENTFORMAT_BEGIN
 90
        0
 91
        0
 92
      512
 93
        0
300

 40
0.0
140
1.0
 94
        2
 62
     0
340
55
144
0.18
309
CONTENTFORMAT_END
171
     0
 94
        0
309
TABLEFORMAT_END
  1
CELLSTYLE_BEGIN
 90
        3
 91
        2
300
_DATA
309
CELLSTYLE_END
  0
XRECORD
  5
176
102
{ACAD_REACTORS
330
175
102
}
330
175
100
AcDbXrecord
280
     1
102
RTVSPost2010Prop28
280
     1
102
RTVSPost2010PropOp28
 70
     1
102
RTVSPost2010Prop29
280
     1
102
RTVSPost2010PropOp29
 70
     1
102
RTVSPost2010Prop30
280
     0
102
RTVSPost2010PropOp30
 70
     1
102
RTVSPost2010Prop31
280
     0
102
RTVSPost2010PropOp31
 70
     1
102
RTVSPost2010Prop32
280
     0
102
RTVSPost2010PropOp32
 70
     1
102
RTVSPost2010Prop33
280
     0
102
RTVSPost2010PropOp33
 70
     1
102
RTVSPost2010Prop34
280
     0
102
RTVSPost2010PropOp34
 70
     1
102
RTVSPost2010Prop35
280
     0
102
RTVSPost2010PropOp35
 70
     1
102
RTVSPost2010Prop36
280
     0
102
RTVSPost2010PropOp36
 70
     1
102
RTVSPost2010Prop37
 90
       50
102
RTVSPost2010PropOp37
 70
     1
102
RTVSPost2010Prop38
140
0.0
102
RTVSPost2010PropOp38
 70
     1
102
RTVSPost2010Prop39
140
1.0
102
RTVSPost2010PropOp39
 70
     1
102
RTVSPost2010Prop40
 90
        0
102
RTVSPost2010PropOp40
 70
     1
102
RTVSPost2010Prop41ColorIndex
 90
       18
102
RTVSPost2010Prop41ColorRGB
 90
        0
102
RTVSPost2010PropOp41
 70
     1
102
RTVSPost2010Prop42
 90
       50
102
RTVSPost2010PropOp42
 70
     1
102
RTVSPost2010Prop43
 90
        3
102
RTVSPost2010PropOp43
 70
     1
102
RTVSPost2010Prop44ColorIndex
 90
        5
102
RTVSPost2010Prop44ColorRGB
 90
      255
102
RTVSPost2010PropOp44
 70
     1
102
RTVSPost2010Prop45
280
     0
102
RTVSPost2010PropOp45
 70
     1
102
RTVSPost2010Prop46
 90
       50
102
RTVSPost2010PropOp46
 70
     1
102
RTVSPost2010Prop47
 90
       50
102
RTVSPost2010PropOp47
 70
     1
102
RTVSPost2010Prop48
 90
       50
102
RTVSPost2010PropOp48
 70
     1
102
RTVSPost2010Prop49
280
     0
102
RTVSPost2010PropOp49
 70
     1
102
RTVSPost2010Prop50
 90
       50
102
RTVSPost2010PropOp50
 70
     1
102
RTVSPost2010Prop51ColorIndex
 90
      256
102
RTVSPost2010Prop51ColorRGB
 90
-16777216
102
RTVSPost2010PropOp51
 70
     0
102
RTVSPost2010Prop52
140
1.0
102
RTVSPost2010PropOp52
 70
     0
102
RTVSPost2010Prop53
 90
        2
102
RTVSPost2010PropOp53
 70
     1
102
RTVSPost2010Prop54
  1
strokes_ogs.tif
102
RTVSPost2010PropOp54
 70
     1
102
RTVSPost2010Prop55
280
     0
102
RTVSPost2010PropOp55
 70
     1
102
RTVSPost2010Prop56
140
1.0
102
RTVSPost2010PropOp56
 70
     1
102
RTVSPost2010Prop57
140
1.0
102
RTVSPost2010PropOp57
 70
     1
  0
XRECORD
  5
174
102
{ACAD_REACTORS
330
173
102
}
330
173
100
AcDbXrecord
280
     1
102
RTVSPost2010Prop28
280
     0
102
RTVSPost2010PropOp28
 70
     1
102
RTVSPost2010Prop29
280
     1
102
RTVSPost2010PropOp29
 70
     1
102
RTVSPost2010Prop30
280
     1
102
RTVSPost2010PropOp30
 70
     1
102
RTVSPost2010Prop31
280
     0
102
RTVSPost2010PropOp31
 70
     1
102
RTVSPost2010Prop32
280
     0
102
RTVSPost2010PropOp32
 70
     1
102
RTVSPost2010Prop33
280
     0
102
RTVSPost2010PropOp33
 70
     1
102
RTVSPost2010Prop34
280
     0
102
RTVSPost2010PropOp34
 70
     1
102
RTVSPost2010Prop35
280
     0
102
RTVSPost2010PropOp35
 70
     1
102
RTVSPost2010Prop36
280
     0
102
RTVSPost2010PropOp36
 70
     1
102
RTVSPost2010Prop37
 90
       50
102
RTVSPost2010PropOp37
 70
     1
102
RTVSPost2010Prop38
140
0.0
102
RTVSPost2010PropOp38
 70
     1
102
RTVSPost2010Prop39
140
1.0
102
RTVSPost2010PropOp39
 70
     1
102
RTVSPost2010Prop40
 90
        0
102
RTVSPost2010PropOp40
 70
     1
102
RTVSPost2010Prop41ColorIndex
 90
       18
102
RTVSPost2010Prop41ColorRGB
 90
        0
102
RTVSPost2010PropOp41
 70
     1
102
RTVSPost2010Prop42
 90
       50
102
RTVSPost2010PropOp42
 70
     1
102
RTVSPost2010Prop43
 90
        3
102
RTVSPost2010PropOp43
 70
     1
102
RTVSPost2010Prop44ColorIndex
 90
        5
102
RTVSPost2010Prop44ColorRGB
 90
      255
102
RTVSPost2010PropOp44
 70
     1
102
RTVSPost2010Prop45
280
     0
102
RTVSPost2010PropOp45
 70
     1
102
RTVSPost2010Prop46
 90
       50
102
RTVSPost2010PropOp46
 70
     1
102
RTVSPost2010Prop47
 90
       50
102
RTVSPost2010PropOp47
 70
     1
102
RTVSPost2010Prop48
 90
       50
102
RTVSPost2010PropOp48
 70
     1
102
RTVSPost2010Prop49
280
     0
102
RTVSPost2010PropOp49
 70
     1
102
RTVSPost2010Prop50
 90
       50
102
RTVSPost2010PropOp50
 70
     1
102
RTVSPost2010Prop51ColorIndex
 90
      256
102
RTVSPost2010Prop51ColorRGB
 90
-16777216
102
RTVSPost2010PropOp51
 70
     0
102
RTVSPost2010Prop52
140
1.0
102
RTVSPost2010PropOp52
 70
     0
102
RTVSPost2010Prop53
 90
        2
102
RTVSPost2010PropOp53
 70
     1
102
RTVSPost2010Prop54
  1
strokes_ogs.tif
102
RTVSPost2010PropOp54
 70
     1
102
RTVSPost2010Prop55
280
     0
102
RTVSPost2010PropOp55
 70
     1
102
RTVSPost2010Prop56
140
1.0
102
RTVSPost2010PropOp56
 70
     1
102
RTVSPost2010Prop57
140
1.0
102
RTVSPost2010PropOp57
 70
     1
  0
XRECORD
  5
182
102
{ACAD_REACTORS
330
181
102
}
330
181
100
AcDbXrecord
280
     1
102
RTVSPost2010Prop28
280
     0
102
RTVSPost2010PropOp28
 70
     1
102
RTVSPost2010Prop29
280
     1
102
RTVSPost2010PropOp29
 70
     1
102
RTVSPost2010Prop30
280
     1
102
RTVSPost2010PropOp30
 70
     1
102
RTVSPost2010Prop31
280
     0
102
RTVSPost2010PropOp31
 70
     1
102
RTVSPost2010Prop32
280
     0
102
RTVSPost2010PropOp32
 70
     1
102
RTVSPost2010Prop33
280
     0
102
RTVSPost2010PropOp33
 70
     1
102
RTVSPost2010Prop34
280
     0
102
RTVSPost2010PropOp34
 70
     1
102
RTVSPost2010Prop35
280
     0
102
RTVSPost2010PropOp35
 70
     1
102
RTVSPost2010Prop36
280
     0
102
RTVSPost2010PropOp36
 70
     1
102
RTVSPost2010Prop37
 90
       50
102
RTVSPost2010PropOp37
 70
     1
102
RTVSPost2010Prop38
140
0.0
102
RTVSPost2010PropOp38
 70
     1
102
RTVSPost2010Prop39
140
1.0
102
RTVSPost2010PropOp39
 70
     1
102
RTVSPost2010Prop40
 90
        0
102
RTVSPost2010PropOp40
 70
     1
102
RTVSPost2010Prop41ColorIndex
 90
       18
102
RTVSPost2010Prop41ColorRGB
 90
        0
102
RTVSPost2010PropOp41
 70
     1
102
RTVSPost2010Prop42
 90
       50
102
RTVSPost2010PropOp42
 70
     1
102
RTVSPost2010Prop43
 90
        3
102
RTVSPost2010PropOp43
 70
     1
102
RTVSPost2010Prop44ColorIndex
 90
        5
102
RTVSPost2010Prop44ColorRGB
 90
      255
102
RTVSPost2010PropOp44
 70
     1
102
RTVSPost2010Prop45
280
     0
102
RTVSPost2010PropOp45
 70
     1
102
RTVSPost2010Prop46
 90
       50
102
RTVSPost2010PropOp46
 70
     1
102
RTVSPost2010Prop47
 90
       50
102
RTVSPost2010PropOp47
 70
     1
102
RTVSPost2010Prop48
 90
       50
102
RTVSPost2010PropOp48
 70
     1
102
RTVSPost2010Prop49
280
     0
102
RTVSPost2010PropOp49
 70
     1
102
RTVSPost2010Prop50
 90
       50
102
RTVSPost2010PropOp50
 70
     1
102
RTVSPost2010Prop51ColorIndex
 90
      256
102
RTVSPost2010Prop51ColorRGB
 90
-16777216
102
RTVSPost2010PropOp51
 70
     0
102
RTVSPost2010Prop52
140
1.0
102
RTVSPost2010PropOp52
 70
     0
102
RTVSPost2010Prop53
 90
        2
102
RTVSPost2010PropOp53
 70
     1
102
RTVSPost2010Prop54
  1
strokes_ogs.tif
102
RTVSPost2010PropOp54
 70
     1
102
RTVSPost2010Prop55
280
     0
102
RTVSPost2010PropOp55
 70
     1
102
RTVSPost2010Prop56
140
1.0
102
RTVSPost2010PropOp56
 70
     1
102
RTVSPost2010Prop57
140
1.0
102
RTVSPost2010PropOp57
 70
     1
  0
XRECORD
  5
18A
102
{ACAD_REACTORS
330
189
102
}
330
189
100
AcDbXrecord
280
     1
102
RTVSPost2010Prop28
280
     0
102
RTVSPost2010PropOp28
 70
     1
102
RTVSPost2010Prop29
280
     1
102
RTVSPost2010PropOp29
 70
     1
102
RTVSPost2010Prop30
280
     1
102
RTVSPost2010PropOp30
 70
     1
102
RTVSPost2010Prop31
280
     0
102
RTVSPost2010PropOp31
 70
     1
102
RTVSPost2010Prop32
280
     0
102
RTVSPost2010PropOp32
 70
     1
102
RTVSPost2010Prop33
280
     0
102
RTVSPost2010PropOp33
 70
     1
102
RTVSPost2010Prop34
280
     0
102
RTVSPost2010PropOp34
 70
     1
102
RTVSPost2010Prop35
280
     0
102
RTVSPost2010PropOp35
 70
     1
102
RTVSPost2010Prop36
280
     0
102
RTVSPost2010PropOp36
 70
     1
102
RTVSPost2010Prop37
 90
       50
102
RTVSPost2010PropOp37
 70
     1
102
RTVSPost2010Prop38
140
0.0
102
RTVSPost2010PropOp38
 70
     1
102
RTVSPost2010Prop39
140
1.0
102
RTVSPost2010PropOp39
 70
     1
102
RTVSPost2010Prop40
 90
        0
102
RTVSPost2010PropOp40
 70
     1
102
RTVSPost2010Prop41ColorIndex
 90
       18
102
RTVSPost2010Prop41ColorRGB
 90
        0
102
RTVSPost2010PropOp41
 70
     1
102
RTVSPost2010Prop42
 90
       50
102
RTVSPost2010PropOp42
 70
     1
102
RTVSPost2010Prop43
 90
        3
102
RTVSPost2010PropOp43
 70
     1
102
RTVSPost2010Prop44ColorIndex
 90
        5
102
RTVSPost2010Prop44ColorRGB
 90
      255
102
RTVSPost2010PropOp44
 70
     1
102
RTVSPost2010Prop45
280
     0
102
RTVSPost2010PropOp45
 70
     1
102
RTVSPost2010Prop46
 90
       50
102
RTVSPost2010PropOp46
 70
     1
102
RTVSPost2010Prop47
 90
       50
102
RTVSPost2010PropOp47
 70
     1
102
RTVSPost2010Prop48
 90
       50
102
RTVSPost2010PropOp48
 70
     1
102
RTVSPost2010Prop49
280
     0
102
RTVSPost2010PropOp49
 70
     1
102
RTVSPost2010Prop50
 90
       50
102
RTVSPost2010PropOp50
 70
     1
102
RTVSPost2010Prop51ColorIndex
 90
      256
102
RTVSPost2010Prop51ColorRGB
 90
-16777216
102
RTVSPost2010PropOp51
 70
     0
102
RTVSPost2010Prop52
140
1.0
102
RTVSPost2010PropOp52
 70
     0
102
RTVSPost2010Prop53
 90
        2
102
RTVSPost2010PropOp53
 70
     1
102
RTVSPost2010Prop54
  1
strokes_ogs.tif
102
RTVSPost2010PropOp54
 70
     1
102
RTVSPost2010Prop55
280
     0
102
RTVSPost2010PropOp55
 70
     1
102
RTVSPost2010Prop56
140
1.0
102
RTVSPost2010PropOp56
 70
     1
102
RTVSPost2010Prop57
140
1.0
102
RTVSPost2010PropOp57
 70
     1
  0
XRECORD
  5
17C
102
{ACAD_REACTORS
330
17B
102
}
330
17B
100
AcDbXrecord
280
     1
102
RTVSPost2010Prop28
280
     0
102
RTVSPost2010PropOp28
 70
     1
102
RTVSPost2010Prop29
280
     1
102
RTVSPost2010PropOp29
 70
     1
102
RTVSPost2010Prop30
280
     1
102
RTVSPost2010PropOp30
 70
     1
102
RTVSPost2010Prop31
280
     0
102
RTVSPost2010PropOp31
 70
     1
102
RTVSPost2010Prop32
280
     0
102
RTVSPost2010PropOp32
 70
     1
102
RTVSPost2010Prop33
280
     0
102
RTVSPost2010PropOp33
 70
     1
102
RTVSPost2010Prop34
280
     0
102
RTVSPost2010PropOp34
 70
     1
102
RTVSPost2010Prop35
280
     0
102
RTVSPost2010PropOp35
 70
     1
102
RTVSPost2010Prop36
280
     0
102
RTVSPost2010PropOp36
 70
     1
102
RTVSPost2010Prop37
 90
       50
102
RTVSPost2010PropOp37
 70
     1
102
RTVSPost2010Prop38
140
0.0
102
RTVSPost2010PropOp38
 70
     1
102
RTVSPost2010Prop39
140
1.0
102
RTVSPost2010PropOp39
 70
     1
102
RTVSPost2010Prop40
 90
        0
102
RTVSPost2010PropOp40
 70
     1
102
RTVSPost2010Prop41ColorIndex
 90
       18
102
RTVSPost2010Prop41ColorRGB
 90
        0
102
RTVSPost2010PropOp41
 70
     1
102
RTVSPost2010Prop42
 90
       50
102
RTVSPost2010PropOp42
 70
     1
102
RTVSPost2010Prop43
 90
        3
102
RTVSPost2010PropOp43
 70
     1
102
RTVSPost2010Prop44ColorIndex
 90
        5
102
RTVSPost2010Prop44ColorRGB
 90
      255
102
RTVSPost2010PropOp44
 70
     1
102
RTVSPost2010Prop45
280
     0
102
RTVSPost2010PropOp45
 70
     1
102
RTVSPost2010Prop46
 90
       50
102
RTVSPost2010PropOp46
 70
     1
102
RTVSPost2010Prop47
 90
       50
102
RTVSPost2010PropOp47
 70
     1
102
RTVSPost2010Prop48
 90
       50
102
RTVSPost2010PropOp48
 70
     1
102
RTVSPost2010Prop49
280
     0
102
RTVSPost2010PropOp49
 70
     1
102
RTVSPost2010Prop50
 90
       50
102
RTVSPost2010PropOp50
 70
     1
102
RTVSPost2010Prop51ColorIndex
 90
      256
102
RTVSPost2010Prop51ColorRGB
 90
-16777216
102
RTVSPost2010PropOp51
 70
     0
102
RTVSPost2010Prop52
140
1.0
102
RTVSPost2010PropOp52
 70
     0
102
RTVSPost2010Prop53
 90
        2
102
RTVSPost2010PropOp53
 70
     1
102
RTVSPost2010Prop54
  1
strokes_ogs.tif
102
RTVSPost2010PropOp54
 70
     1
102
RTVSPost2010Prop55
280
     0
102
RTVSPost2010PropOp55
 70
     1
102
RTVSPost2010Prop56
140
1.0
102
RTVSPost2010PropOp56
 70
     1
102
RTVSPost2010Prop57
140
1.0
102
RTVSPost2010PropOp57
 70
     1
  0
XRECORD
  5
180
102
{ACAD_REACTORS
330
17F
102
}
330
17F
100
AcDbXrecord
280
     1
102
RTVSPost2010Prop28
280
     0
102
RTVSPost2010PropOp28
 70
     1
102
RTVSPost2010Prop29
280
     1
102
RTVSPost2010PropOp29
 70
     1
102
RTVSPost2010Prop30
280
     1
102
RTVSPost2010PropOp30
 70
     1
102
RTVSPost2010Prop31
280
     0
102
RTVSPost2010PropOp31
 70
     1
102
RTVSPost2010Prop32
280
     0
102
RTVSPost2010PropOp32
 70
     1
102
RTVSPost2010Prop33
280
     0
102
RTVSPost2010PropOp33
 70
     1
102
RTVSPost2010Prop34
280
     0
102
RTVSPost2010PropOp34
 70
     1
102
RTVSPost2010Prop35
280
     0
102
RTVSPost2010PropOp35
 70
     1
102
RTVSPost2010Prop36
280
     0
102
RTVSPost2010PropOp36
 70
     1
102
RTVSPost2010Prop37
 90
       50
102
RTVSPost2010PropOp37
 70
     1
102
RTVSPost2010Prop38
140
0.0
102
RTVSPost2010PropOp38
 70
     1
102
RTVSPost2010Prop39
140
1.0
102
RTVSPost2010PropOp39
 70
     1
102
RTVSPost2010Prop40
 90
        0
102
RTVSPost2010PropOp40
 70
     1
102
RTVSPost2010Prop41ColorIndex
 90
       18
102
RTVSPost2010Prop41ColorRGB
 90
        0
102
RTVSPost2010PropOp41
 70
     1
102
RTVSPost2010Prop42
 90
       50
102
RTVSPost2010PropOp42
 70
     1
102
RTVSPost2010Prop43
 90
        3
102
RTVSPost2010PropOp43
 70
     1
102
RTVSPost2010Prop44ColorIndex
 90
        5
102
RTVSPost2010Prop44ColorRGB
 90
      255
102
RTVSPost2010PropOp44
 70
     1
102
RTVSPost2010Prop45
280
     0
102
RTVSPost2010PropOp45
 70
     1
102
RTVSPost2010Prop46
 90
       50
102
RTVSPost2010PropOp46
 70
     1
102
RTVSPost2010Prop47
 90
       50
102
RTVSPost2010PropOp47
 70
     1
102
RTVSPost2010Prop48
 90
       50
102
RTVSPost2010PropOp48
 70
     1
102
RTVSPost2010Prop49
280
     0
102
RTVSPost2010PropOp49
 70
     1
102
RTVSPost2010Prop50
 90
       50
102
RTVSPost2010PropOp50
 70
     1
102
RTVSPost2010Prop51ColorIndex
 90
      256
102
RTVSPost2010Prop51ColorRGB
 90
-16777216
102
RTVSPost2010PropOp51
 70
     0
102
RTVSPost2010Prop52
140
1.0
102
RTVSPost2010PropOp52
 70
     0
102
RTVSPost2010Prop53
 90
        2
102
RTVSPost2010PropOp53
 70
     1
102
RTVSPost2010Prop54
  1
strokes_ogs.tif
102
RTVSPost2010PropOp54
 70
     1
102
RTVSPost2010Prop55
280
     0
102
RTVSPost2010PropOp55
 70
     1
102
RTVSPost2010Prop56
140
1.0
102
RTVSPost2010PropOp56
 70
     1
102
RTVSPost2010Prop57
140
1.0
102
RTVSPost2010PropOp57
 70
     1
  0
XRECORD
  5
19A
102
{ACAD_REACTORS
330
199
102
}
330
199
100
AcDbXrecord
280
     1
102
RTVSPost2010Prop28
280
     0
102
RTVSPost2010PropOp28
 70
     0
102
RTVSPost2010Prop29
280
     1
102
RTVSPost2010PropOp29
 70
     0
102
RTVSPost2010Prop30
280
     1
102
RTVSPost2010PropOp30
 70
     0
102
RTVSPost2010Prop31
280
     0
102
RTVSPost2010PropOp31
 70
     0
102
RTVSPost2010Prop32
280
     0
102
RTVSPost2010PropOp32
 70
     0
102
RTVSPost2010Prop33
280
     0
102
RTVSPost2010PropOp33
 70
     0
102
RTVSPost2010Prop34
280
     0
102
RTVSPost2010PropOp34
 70
     0
102
RTVSPost2010Prop35
280
     0
102
RTVSPost2010PropOp35
 70
     0
102
RTVSPost2010Prop36
280
     0
102
RTVSPost2010PropOp36
 70
     0
102
RTVSPost2010Prop37
 90
       50
102
RTVSPost2010PropOp37
 70
     0
102
RTVSPost2010Prop38
140
0.0
102
RTVSPost2010PropOp38
 70
     0
102
RTVSPost2010Prop39
140
1.0
102
RTVSPost2010PropOp39
 70
     0
102
RTVSPost2010Prop40
 90
        0
102
RTVSPost2010PropOp40
 70
     0
102
RTVSPost2010Prop41ColorIndex
 90
       18
102
RTVSPost2010Prop41ColorRGB
 90
        0
102
RTVSPost2010PropOp41
 70
     0
102
RTVSPost2010Prop42
 90
       50
102
RTVSPost2010PropOp42
 70
     0
102
RTVSPost2010Prop43
 90
        3
102
RTVSPost2010PropOp43
 70
     0
102
RTVSPost2010Prop44ColorIndex
 90
        5
102
RTVSPost2010Prop44ColorRGB
 90
      255
102
RTVSPost2010PropOp44
 70
     0
102
RTVSPost2010Prop45
280
     0
102
RTVSPost2010PropOp45
 70
     0
102
RTVSPost2010Prop46
 90
       50
102
RTVSPost2010PropOp46
 70
     0
102
RTVSPost2010Prop47
 90
       50
102
RTVSPost2010PropOp47
 70
     0
102
RTVSPost2010Prop48
 90
       50
102
RTVSPost2010PropOp48
 70
     0
102
RTVSPost2010Prop49
280
     0
102
RTVSPost2010PropOp49
 70
     0
102
RTVSPost2010Prop50
 90
       50
102
RTVSPost2010PropOp50
 70
     0
102
RTVSPost2010Prop51ColorIndex
 90
      256
102
RTVSPost2010Prop51ColorRGB
 90
-16777216
102
RTVSPost2010PropOp51
 70
     0
102
RTVSPost2010Prop52
140
1.0
102
RTVSPost2010PropOp52
 70
     0
102
RTVSPost2010Prop53
 90
        2
102
RTVSPost2010PropOp53
 70
     0
102
RTVSPost2010Prop54
  1
strokes_ogs.tif
102
RTVSPost2010PropOp54
 70
     0
102
RTVSPost2010Prop55
280
     0
102
RTVSPost2010PropOp55
 70
     0
102
RTVSPost2010Prop56
140
1.0
102
RTVSPost2010PropOp56
 70
     0
102
RTVSPost2010Prop57
140
1.0
102
RTVSPost2010PropOp57
 70
     0
  0
XRECORD
  5
188
102
{ACAD_REACTORS
330
187
102
}
330
187
100
AcDbXrecord
280
     1
102
RTVSPost2010Prop28
280
     0
102
RTVSPost2010PropOp28
 70
     1
102
RTVSPost2010Prop29
280
     1
102
RTVSPost2010PropOp29
 70
     1
102
RTVSPost2010Prop30
280
     1
102
RTVSPost2010PropOp30
 70
     1
102
RTVSPost2010Prop31
280
     0
102
RTVSPost2010PropOp31
 70
     1
102
RTVSPost2010Prop32
280
     0
102
RTVSPost2010PropOp32
 70
     1
102
RTVSPost2010Prop33
280
     0
102
RTVSPost2010PropOp33
 70
     1
102
RTVSPost2010Prop34
280
     0
102
RTVSPost2010PropOp34
 70
     1
102
RTVSPost2010Prop35
280
     0
102
RTVSPost2010PropOp35
 70
     1
102
RTVSPost2010Prop36
280
     0
102
RTVSPost2010PropOp36
 70
     1
102
RTVSPost2010Prop37
 90
       50
102
RTVSPost2010PropOp37
 70
     1
102
RTVSPost2010Prop38
140
0.0
102
RTVSPost2010PropOp38
 70
     1
102
RTVSPost2010Prop39
140
1.0
102
RTVSPost2010PropOp39
 70
     1
102
RTVSPost2010Prop40
 90
        0
102
RTVSPost2010PropOp40
 70
     1
102
RTVSPost2010Prop41ColorIndex
 90
       18
102
RTVSPost2010Prop41ColorRGB
 90
        0
102
RTVSPost2010PropOp41
 70
     1
102
RTVSPost2010Prop42
 90
       50
102
RTVSPost2010PropOp42
 70
     1
102
RTVSPost2010Prop43
 90
        3
102
RTVSPost2010PropOp43
 70
     1
102
RTVSPost2010Prop44ColorIndex
 90
        5
102
RTVSPost2010Prop44ColorRGB
 90
      255
102
RTVSPost2010PropOp44
 70
     1
102
RTVSPost2010Prop45
280
     0
102
RTVSPost2010PropOp45
 70
     1
102
RTVSPost2010Prop46
 90
       50
102
RTVSPost2010PropOp46
 70
     1
102
RTVSPost2010Prop47
 90
       50
102
RTVSPost2010PropOp47
 70
     1
102
RTVSPost2010Prop48
 90
       50
102
RTVSPost2010PropOp48
 70
     1
102
RTVSPost2010Prop49
280
     0
102
RTVSPost2010PropOp49
 70
     1
102
RTVSPost2010Prop50
 90
       50
102
RTVSPost2010PropOp50
 70
     1
102
RTVSPost2010Prop51ColorIndex
 90
      256
102
RTVSPost2010Prop51ColorRGB
 90
-16777216
102
RTVSPost2010PropOp51
 70
     0
102
RTVSPost2010Prop52
140
1.0
102
RTVSPost2010PropOp52
 70
     0
102
RTVSPost2010Prop53
 90
        2
102
RTVSPost2010PropOp53
 70
     1
102
RTVSPost2010Prop54
  1
strokes_ogs.tif
102
RTVSPost2010PropOp54
 70
     1
102
RTVSPost2010Prop55
280
     0
102
RTVSPost2010PropOp55
 70
     1
102
RTVSPost2010Prop56
140
1.0
102
RTVSPost2010PropOp56
 70
     1
102
RTVSPost2010Prop57
140
1.0
102
RTVSPost2010PropOp57
 70
     1
  0
XRECORD
  5
16C
102
{ACAD_REACTORS
330
16B
102
}
330
16B
100
AcDbXrecord
280
     1
102
RTVSPost2010Prop28
280
     0
102
RTVSPost2010PropOp28
 70
     1
102
RTVSPost2010Prop29
280
     1
102
RTVSPost2010PropOp29
 70
     1
102
RTVSPost2010Prop30
280
     1
102
RTVSPost2010PropOp30
 70
     1
102
RTVSPost2010Prop31
280
     0
102
RTVSPost2010PropOp31
 70
     1
102
RTVSPost2010Prop32
280
     0
102
RTVSPost2010PropOp32
 70
     1
102
RTVSPost2010Prop33
280
     0
102
RTVSPost2010PropOp33
 70
     1
102
RTVSPost2010Prop34
280
     0
102
RTVSPost2010PropOp34
 70
     1
102
RTVSPost2010Prop35
280
     0
102
RTVSPost2010PropOp35
 70
     1
102
RTVSPost2010Prop36
280
     0
102
RTVSPost2010PropOp36
 70
     1
102
RTVSPost2010Prop37
 90
       50
102
RTVSPost2010PropOp37
 70
     1
102
RTVSPost2010Prop38
140
0.0
102
RTVSPost2010PropOp38
 70
     1
102
RTVSPost2010Prop39
140
1.0
102
RTVSPost2010PropOp39
 70
     1
102
RTVSPost2010Prop40
 90
        0
102
RTVSPost2010PropOp40
 70
     1
102
RTVSPost2010Prop41ColorIndex
 90
       18
102
RTVSPost2010Prop41ColorRGB
 90
        0
102
RTVSPost2010PropOp41
 70
     1
102
RTVSPost2010Prop42
 90
       50
102
RTVSPost2010PropOp42
 70
     1
102
RTVSPost2010Prop43
 90
        3
102
RTVSPost2010PropOp43
 70
     1
102
RTVSPost2010Prop44ColorIndex
 90
        5
102
RTVSPost2010Prop44ColorRGB
 90
      255
102
RTVSPost2010PropOp44
 70
     1
102
RTVSPost2010Prop45
280
     0
102
RTVSPost2010PropOp45
 70
     1
102
RTVSPost2010Prop46
 90
       50
102
RTVSPost2010PropOp46
 70
     1
102
RTVSPost2010Prop47
 90
       50
102
RTVSPost2010PropOp47
 70
     1
102
RTVSPost2010Prop48
 90
       50
102
RTVSPost2010PropOp48
 70
     1
102
RTVSPost2010Prop49
280
     0
102
RTVSPost2010PropOp49
 70
     1
102
RTVSPost2010Prop50
 90
       50
102
RTVSPost2010PropOp50
 70
     1
102
RTVSPost2010Prop51ColorIndex
 90
      256
102
RTVSPost2010Prop51ColorRGB
 90
-16777216
102
RTVSPost2010PropOp51
 70
     0
102
RTVSPost2010Prop52
140
1.0
102
RTVSPost2010PropOp52
 70
     0
102
RTVSPost2010Prop53
 90
        2
102
RTVSPost2010PropOp53
 70
     1
102
RTVSPost2010Prop54
  1
strokes_ogs.tif
102
RTVSPost2010PropOp54
 70
     1
102
RTVSPost2010Prop55
280
     0
102
RTVSPost2010PropOp55
 70
     1
102
RTVSPost2010Prop56
140
1.0
102
RTVSPost2010PropOp56
 70
     1
102
RTVSPost2010Prop57
140
1.0
102
RTVSPost2010PropOp57
 70
     1
  0
XRECORD
  5
16E
102
{ACAD_REACTORS
330
16D
102
}
330
16D
100
AcDbXrecord
280
     1
102
RTVSPost2010Prop28
280
     0
102
RTVSPost2010PropOp28
 70
     1
102
RTVSPost2010Prop29
280
     1
102
RTVSPost2010PropOp29
 70
     1
102
RTVSPost2010Prop30
280
     1
102
RTVSPost2010PropOp30
 70
     1
102
RTVSPost2010Prop31
280
     0
102
RTVSPost2010PropOp31
 70
     1
102
RTVSPost2010Prop32
280
     0
102
RTVSPost2010PropOp32
 70
     1
102
RTVSPost2010Prop33
280
     0
102
RTVSPost2010PropOp33
 70
     1
102
RTVSPost2010Prop34
280
     0
102
RTVSPost2010PropOp34
 70
     1
102
RTVSPost2010Prop35
280
     0
102
RTVSPost2010PropOp35
 70
     1
102
RTVSPost2010Prop36
280
     0
102
RTVSPost2010PropOp36
 70
     1
102
RTVSPost2010Prop37
 90
       50
102
RTVSPost2010PropOp37
 70
     1
102
RTVSPost2010Prop38
140
0.0
102
RTVSPost2010PropOp38
 70
     1
102
RTVSPost2010Prop39
140
1.0
102
RTVSPost2010PropOp39
 70
     1
102
RTVSPost2010Prop40
 90
        0
102
RTVSPost2010PropOp40
 70
     1
102
RTVSPost2010Prop41ColorIndex
 90
       18
102
RTVSPost2010Prop41ColorRGB
 90
        0
102
RTVSPost2010PropOp41
 70
     1
102
RTVSPost2010Prop42
 90
       50
102
RTVSPost2010PropOp42
 70
     1
102
RTVSPost2010Prop43
 90
        3
102
RTVSPost2010PropOp43
 70
     1
102
RTVSPost2010Prop44ColorIndex
 90
        5
102
RTVSPost2010Prop44ColorRGB
 90
      255
102
RTVSPost2010PropOp44
 70
     1
102
RTVSPost2010Prop45
280
     0
102
RTVSPost2010PropOp45
 70
     1
102
RTVSPost2010Prop46
 90
       50
102
RTVSPost2010PropOp46
 70
     1
102
RTVSPost2010Prop47
 90
       50
102
RTVSPost2010PropOp47
 70
     1
102
RTVSPost2010Prop48
 90
       50
102
RTVSPost2010PropOp48
 70
     1
102
RTVSPost2010Prop49
280
     0
102
RTVSPost2010PropOp49
 70
     1
102
RTVSPost2010Prop50
 90
       50
102
RTVSPost2010PropOp50
 70
     1
102
RTVSPost2010Prop51ColorIndex
 90
      256
102
RTVSPost2010Prop51ColorRGB
 90
-16777216
102
RTVSPost2010PropOp51
 70
     0
102
RTVSPost2010Prop52
140
1.0
102
RTVSPost2010PropOp52
 70
     0
102
RTVSPost2010Prop53
 90
        2
102
RTVSPost2010PropOp53
 70
     1
102
RTVSPost2010Prop54
  1
strokes_ogs.tif
102
RTVSPost2010PropOp54
 70
     1
102
RTVSPost2010Prop55
280
     0
102
RTVSPost2010PropOp55
 70
     1
102
RTVSPost2010Prop56
140
1.0
102
RTVSPost2010PropOp56
 70
     1
102
RTVSPost2010Prop57
140
1.0
102
RTVSPost2010PropOp57
 70
     1
  0
XRECORD
  5
170
102
{ACAD_REACTORS
330
16F
102
}
330
16F
100
AcDbXrecord
280
     1
102
RTVSPost2010Prop28
280
     0
102
RTVSPost2010PropOp28
 70
     1
102
RTVSPost2010Prop29
280
     1
102
RTVSPost2010PropOp29
 70
     1
102
RTVSPost2010Prop30
280
     1
102
RTVSPost2010PropOp30
 70
     1
102
RTVSPost2010Prop31
280
     0
102
RTVSPost2010PropOp31
 70
     1
102
RTVSPost2010Prop32
280
     0
102
RTVSPost2010PropOp32
 70
     1
102
RTVSPost2010Prop33
280
     0
102
RTVSPost2010PropOp33
 70
     1
102
RTVSPost2010Prop34
280
     0
102
RTVSPost2010PropOp34
 70
     1
102
RTVSPost2010Prop35
280
     0
102
RTVSPost2010PropOp35
 70
     1
102
RTVSPost2010Prop36
280
     0
102
RTVSPost2010PropOp36
 70
     1
102
RTVSPost2010Prop37
 90
       50
102
RTVSPost2010PropOp37
 70
     1
102
RTVSPost2010Prop38
140
0.0
102
RTVSPost2010PropOp38
 70
     1
102
RTVSPost2010Prop39
140
1.0
102
RTVSPost2010PropOp39
 70
     1
102
RTVSPost2010Prop40
 90
        0
102
RTVSPost2010PropOp40
 70
     1
102
RTVSPost2010Prop41ColorIndex
 90
       18
102
RTVSPost2010Prop41ColorRGB
 90
        0
102
RTVSPost2010PropOp41
 70
     1
102
RTVSPost2010Prop42
 90
       50
102
RTVSPost2010PropOp42
 70
     1
102
RTVSPost2010Prop43
 90
        3
102
RTVSPost2010PropOp43
 70
     1
102
RTVSPost2010Prop44ColorIndex
 90
        5
102
RTVSPost2010Prop44ColorRGB
 90
      255
102
RTVSPost2010PropOp44
 70
     1
102
RTVSPost2010Prop45
280
     0
102
RTVSPost2010PropOp45
 70
     1
102
RTVSPost2010Prop46
 90
       50
102
RTVSPost2010PropOp46
 70
     1
102
RTVSPost2010Prop47
 90
       50
102
RTVSPost2010PropOp47
 70
     1
102
RTVSPost2010Prop48
 90
       50
102
RTVSPost2010PropOp48
 70
     1
102
RTVSPost2010Prop49
280
     0
102
RTVSPost2010PropOp49
 70
     1
102
RTVSPost2010Prop50
 90
       50
102
RTVSPost2010PropOp50
 70
     1
102
RTVSPost2010Prop51ColorIndex
 90
      256
102
RTVSPost2010Prop51ColorRGB
 90
-16777216
102
RTVSPost2010PropOp51
 70
     0
102
RTVSPost2010Prop52
140
1.0
102
RTVSPost2010PropOp52
 70
     0
102
RTVSPost2010Prop53
 90
        2
102
RTVSPost2010PropOp53
 70
     1
102
RTVSPost2010Prop54
  1
strokes_ogs.tif
102
RTVSPost2010PropOp54
 70
     1
102
RTVSPost2010Prop55
280
     0
102
RTVSPost2010PropOp55
 70
     1
102
RTVSPost2010Prop56
140
1.0
102
RTVSPost2010PropOp56
 70
     1
102
RTVSPost2010Prop57
140
1.0
102
RTVSPost2010PropOp57
 70
     1
  0
XRECORD
  5
172
102
{ACAD_REACTORS
330
171
102
}
330
171
100
AcDbXrecord
280
     1
102
RTVSPost2010Prop28
280
     0
102
RTVSPost2010PropOp28
 70
     1
102
RTVSPost2010Prop29
280
     1
102
RTVSPost2010PropOp29
 70
     1
102
RTVSPost2010Prop30
280
     1
102
RTVSPost2010PropOp30
 70
     1
102
RTVSPost2010Prop31
280
     0
102
RTVSPost2010PropOp31
 70
     1
102
RTVSPost2010Prop32
280
     0
102
RTVSPost2010PropOp32
 70
     1
102
RTVSPost2010Prop33
280
     0
102
RTVSPost2010PropOp33
 70
     1
102
RTVSPost2010Prop34
280
     0
102
RTVSPost2010PropOp34
 70
     1
102
RTVSPost2010Prop35
280
     0
102
RTVSPost2010PropOp35
 70
     1
102
RTVSPost2010Prop36
280
     0
102
RTVSPost2010PropOp36
 70
     1
102
RTVSPost2010Prop37
 90
       50
102
RTVSPost2010PropOp37
 70
     1
102
RTVSPost2010Prop38
140
0.0
102
RTVSPost2010PropOp38
 70
     1
102
RTVSPost2010Prop39
140
1.0
102
RTVSPost2010PropOp39
 70
     1
102
RTVSPost2010Prop40
 90
        0
102
RTVSPost2010PropOp40
 70
     1
102
RTVSPost2010Prop41ColorIndex
 90
       18
102
RTVSPost2010Prop41ColorRGB
 90
        0
102
RTVSPost2010PropOp41
 70
     1
102
RTVSPost2010Prop42
 90
       50
102
RTVSPost2010PropOp42
 70
     1
102
RTVSPost2010Prop43
 90
        3
102
RTVSPost2010PropOp43
 70
     1
102
RTVSPost2010Prop44ColorIndex
 90
        5
102
RTVSPost2010Prop44ColorRGB
 90
      255
102
RTVSPost2010PropOp44
 70
     1
102
RTVSPost2010Prop45
280
     0
102
RTVSPost2010PropOp45
 70
     1
102
RTVSPost2010Prop46
 90
       50
102
RTVSPost2010PropOp46
 70
     1
102
RTVSPost2010Prop47
 90
       50
102
RTVSPost2010PropOp47
 70
     1
102
RTVSPost2010Prop48
 90
       50
102
RTVSPost2010PropOp48
 70
     1
102
RTVSPost2010Prop49
280
     0
102
RTVSPost2010PropOp49
 70
     1
102
RTVSPost2010Prop50
 90
       50
102
RTVSPost2010PropOp50
 70
     1
102
RTVSPost2010Prop51ColorIndex
 90
      256
102
RTVSPost2010Prop51ColorRGB
 90
-16777216
102
RTVSPost2010PropOp51
 70
     0
102
RTVSPost2010Prop52
140
1.0
102
RTVSPost2010PropOp52
 70
     0
102
RTVSPost2010Prop53
 90
        2
102
RTVSPost2010PropOp53
 70
     1
102
RTVSPost2010Prop54
  1
strokes_ogs.tif
102
RTVSPost2010PropOp54
 70
     1
102
RTVSPost2010Prop55
280
     0
102
RTVSPost2010PropOp55
 70
     1
102
RTVSPost2010Prop56
140
1.0
102
RTVSPost2010PropOp56
 70
     1
102
RTVSPost2010Prop57
140
1.0
102
RTVSPost2010PropOp57
 70
     1
  0
XRECORD
  5
17A
102
{ACAD_REACTORS
330
179
102
}
330
179
100
AcDbXrecord
280
     1
102
RTVSPost2010Prop28
280
     0
102
RTVSPost2010PropOp28
 70
     1
102
RTVSPost2010Prop29
280
     1
102
RTVSPost2010PropOp29
 70
     1
102
RTVSPost2010Prop30
280
     1
102
RTVSPost2010PropOp30
 70
     1
102
RTVSPost2010Prop31
280
     0
102
RTVSPost2010PropOp31
 70
     1
102
RTVSPost2010Prop32
280
     0
102
RTVSPost2010PropOp32
 70
     1
102
RTVSPost2010Prop33
280
     0
102
RTVSPost2010PropOp33
 70
     1
102
RTVSPost2010Prop34
280
     0
102
RTVSPost2010PropOp34
 70
     1
102
RTVSPost2010Prop35
280
     0
102
RTVSPost2010PropOp35
 70
     1
102
RTVSPost2010Prop36
280
     0
102
RTVSPost2010PropOp36
 70
     1
102
RTVSPost2010Prop37
 90
       50
102
RTVSPost2010PropOp37
 70
     1
102
RTVSPost2010Prop38
140
0.0
102
RTVSPost2010PropOp38
 70
     1
102
RTVSPost2010Prop39
140
1.0
102
RTVSPost2010PropOp39
 70
     1
102
RTVSPost2010Prop40
 90
        0
102
RTVSPost2010PropOp40
 70
     1
102
RTVSPost2010Prop41ColorIndex
 90
       18
102
RTVSPost2010Prop41ColorRGB
 90
        0
102
RTVSPost2010PropOp41
 70
     1
102
RTVSPost2010Prop42
 90
       50
102
RTVSPost2010PropOp42
 70
     1
102
RTVSPost2010Prop43
 90
        3
102
RTVSPost2010PropOp43
 70
     1
102
RTVSPost2010Prop44ColorIndex
 90
        5
102
RTVSPost2010Prop44ColorRGB
 90
      255
102
RTVSPost2010PropOp44
 70
     1
102
RTVSPost2010Prop45
280
     0
102
RTVSPost2010PropOp45
 70
     1
102
RTVSPost2010Prop46
 90
       50
102
RTVSPost2010PropOp46
 70
     1
102
RTVSPost2010Prop47
 90
       50
102
RTVSPost2010PropOp47
 70
     1
102
RTVSPost2010Prop48
 90
       50
102
RTVSPost2010PropOp48
 70
     1
102
RTVSPost2010Prop49
280
     0
102
RTVSPost2010PropOp49
 70
     1
102
RTVSPost2010Prop50
 90
       50
102
RTVSPost2010PropOp50
 70
     1
102
RTVSPost2010Prop51ColorIndex
 90
      256
102
RTVSPost2010Prop51ColorRGB
 90
-16777216
102
RTVSPost2010PropOp51
 70
     0
102
RTVSPost2010Prop52
140
1.0
102
RTVSPost2010PropOp52
 70
     0
102
RTVSPost2010Prop53
 90
        2
102
RTVSPost2010PropOp53
 70
     1
102
RTVSPost2010Prop54
  1
strokes_ogs.tif
102
RTVSPost2010PropOp54
 70
     1
102
RTVSPost2010Prop55
280
     0
102
RTVSPost2010PropOp55
 70
     1
102
RTVSPost2010Prop56
140
1.0
102
RTVSPost2010PropOp56
 70
     1
102
RTVSPost2010Prop57
140
1.0
102
RTVSPost2010PropOp57
 70
     1
  0
XRECORD
  5
196
102
{ACAD_REACTORS
330
195
102
}
330
195
100
AcDbXrecord
280
     1
102
RTVSPost2010Prop28
280
     0
102
RTVSPost2010PropOp28
 70
     0
102
RTVSPost2010Prop29
280
     1
102
RTVSPost2010PropOp29
 70
     0
102
RTVSPost2010Prop30
280
     1
102
RTVSPost2010PropOp30
 70
     0
102
RTVSPost2010Prop31
280
     0
102
RTVSPost2010PropOp31
 70
     0
102
RTVSPost2010Prop32
280
     0
102
RTVSPost2010PropOp32
 70
     0
102
RTVSPost2010Prop33
280
     0
102
RTVSPost2010PropOp33
 70
     0
102
RTVSPost2010Prop34
280
     0
102
RTVSPost2010PropOp34
 70
     0
102
RTVSPost2010Prop35
280
     0
102
RTVSPost2010PropOp35
 70
     0
102
RTVSPost2010Prop36
280
     0
102
RTVSPost2010PropOp36
 70
     0
102
RTVSPost2010Prop37
 90
       50
102
RTVSPost2010PropOp37
 70
     0
102
RTVSPost2010Prop38
140
0.0
102
RTVSPost2010PropOp38
 70
     0
102
RTVSPost2010Prop39
140
1.0
102
RTVSPost2010PropOp39
 70
     0
102
RTVSPost2010Prop40
 90
        0
102
RTVSPost2010PropOp40
 70
     0
102
RTVSPost2010Prop41ColorIndex
 90
       18
102
RTVSPost2010Prop41ColorRGB
 90
        0
102
RTVSPost2010PropOp41
 70
     0
102
RTVSPost2010Prop42
 90
       50
102
RTVSPost2010PropOp42
 70
     0
102
RTVSPost2010Prop43
 90
        3
102
RTVSPost2010PropOp43
 70
     0
102
RTVSPost2010Prop44ColorIndex
 90
        5
102
RTVSPost2010Prop44ColorRGB
 90
      255
102
RTVSPost2010PropOp44
 70
     0
102
RTVSPost2010Prop45
280
     0
102
RTVSPost2010PropOp45
 70
     0
102
RTVSPost2010Prop46
 90
       50
102
RTVSPost2010PropOp46
 70
     0
102
RTVSPost2010Prop47
 90
       50
102
RTVSPost2010PropOp47
 70
     0
102
RTVSPost2010Prop48
 90
       50
102
RTVSPost2010PropOp48
 70
     0
102
RTVSPost2010Prop49
280
     0
102
RTVSPost2010PropOp49
 70
     0
102
RTVSPost2010Prop50
 90
       50
102
RTVSPost2010PropOp50
 70
     0
102
RTVSPost2010Prop51ColorIndex
 90
      256
102
RTVSPost2010Prop51ColorRGB
 90
-16777216
102
RTVSPost2010PropOp51
 70
     0
102
RTVSPost2010Prop52
140
1.0
102
RTVSPost2010PropOp52
 70
     0
102
RTVSPost2010Prop53
 90
        2
102
RTVSPost2010PropOp53
 70
     0
102
RTVSPost2010Prop54
  1
strokes_ogs.tif
102
RTVSPost2010PropOp54
 70
     0
102
RTVSPost2010Prop55
280
     0
102
RTVSPost2010PropOp55
 70
     0
102
RTVSPost2010Prop56
140
1.0
102
RTVSPost2010PropOp56
 70
     0
102
RTVSPost2010Prop57
140
1.0
102
RTVSPost2010PropOp57
 70
     0
  0
XRECORD
  5
186
102
{ACAD_REACTORS
330
185
102
}
330
185
100
AcDbXrecord
280
     1
102
RTVSPost2010Prop28
280
     0
102
RTVSPost2010PropOp28
 70
     1
102
RTVSPost2010Prop29
280
     1
102
RTVSPost2010PropOp29
 70
     1
102
RTVSPost2010Prop30
280
     1
102
RTVSPost2010PropOp30
 70
     1
102
RTVSPost2010Prop31
280
     0
102
RTVSPost2010PropOp31
 70
     1
102
RTVSPost2010Prop32
280
     0
102
RTVSPost2010PropOp32
 70
     1
102
RTVSPost2010Prop33
280
     0
102
RTVSPost2010PropOp33
 70
     1
102
RTVSPost2010Prop34
280
     0
102
RTVSPost2010PropOp34
 70
     1
102
RTVSPost2010Prop35
280
     0
102
RTVSPost2010PropOp35
 70
     1
102
RTVSPost2010Prop36
280
     0
102
RTVSPost2010PropOp36
 70
     1
102
RTVSPost2010Prop37
 90
       50
102
RTVSPost2010PropOp37
 70
     1
102
RTVSPost2010Prop38
140
0.0
102
RTVSPost2010PropOp38
 70
     1
102
RTVSPost2010Prop39
140
1.0
102
RTVSPost2010PropOp39
 70
     1
102
RTVSPost2010Prop40
 90
        0
102
RTVSPost2010PropOp40
 70
     1
102
RTVSPost2010Prop41ColorIndex
 90
       18
102
RTVSPost2010Prop41ColorRGB
 90
        0
102
RTVSPost2010PropOp41
 70
     1
102
RTVSPost2010Prop42
 90
       50
102
RTVSPost2010PropOp42
 70
     1
102
RTVSPost2010Prop43
 90
        3
102
RTVSPost2010PropOp43
 70
     1
102
RTVSPost2010Prop44ColorIndex
 90
        5
102
RTVSPost2010Prop44ColorRGB
 90
      255
102
RTVSPost2010PropOp44
 70
     1
102
RTVSPost2010Prop45
280
     0
102
RTVSPost2010PropOp45
 70
     1
102
RTVSPost2010Prop46
 90
       50
102
RTVSPost2010PropOp46
 70
     1
102
RTVSPost2010Prop47
 90
       50
102
RTVSPost2010PropOp47
 70
     1
102
RTVSPost2010Prop48
 90
       50
102
RTVSPost2010PropOp48
 70
     1
102
RTVSPost2010Prop49
280
     0
102
RTVSPost2010PropOp49
 70
     1
102
RTVSPost2010Prop50
 90
       50
102
RTVSPost2010PropOp50
 70
     1
102
RTVSPost2010Prop51ColorIndex
 90
      256
102
RTVSPost2010Prop51ColorRGB
 90
-16777216
102
RTVSPost2010PropOp51
 70
     0
102
RTVSPost2010Prop52
140
1.0
102
RTVSPost2010PropOp52
 70
     0
102
RTVSPost2010Prop53
 90
        2
102
RTVSPost2010PropOp53
 70
     1
102
RTVSPost2010Prop54
  1
strokes_ogs.tif
102
RTVSPost2010PropOp54
 70
     1
102
RTVSPost2010Prop55
280
     0
102
RTVSPost2010PropOp55
 70
     1
102
RTVSPost2010Prop56
140
1.0
102
RTVSPost2010PropOp56
 70
     1
102
RTVSPost2010Prop57
140
1.0
102
RTVSPost2010PropOp57
 70
     1
  0
XRECORD
  5
198
102
{ACAD_REACTORS
330
197
102
}
330
197
100
AcDbXrecord
280
     1
102
RTVSPost2010Prop28
280
     0
102
RTVSPost2010PropOp28
 70
     0
102
RTVSPost2010Prop29
280
     1
102
RTVSPost2010PropOp29
 70
     0
102
RTVSPost2010Prop30
280
     1
102
RTVSPost2010PropOp30
 70
     0
102
RTVSPost2010Prop31
280
     0
102
RTVSPost2010PropOp31
 70
     0
102
RTVSPost2010Prop32
280
     0
102
RTVSPost2010PropOp32
 70
     0
102
RTVSPost2010Prop33
280
     0
102
RTVSPost2010PropOp33
 70
     0
102
RTVSPost2010Prop34
280
     0
102
RTVSPost2010PropOp34
 70
     0
102
RTVSPost2010Prop35
280
     0
102
RTVSPost2010PropOp35
 70
     0
102
RTVSPost2010Prop36
280
     0
102
RTVSPost2010PropOp36
 70
     0
102
RTVSPost2010Prop37
 90
       50
102
RTVSPost2010PropOp37
 70
     0
102
RTVSPost2010Prop38
140
0.0
102
RTVSPost2010PropOp38
 70
     0
102
RTVSPost2010Prop39
140
1.0
102
RTVSPost2010PropOp39
 70
     0
102
RTVSPost2010Prop40
 90
        0
102
RTVSPost2010PropOp40
 70
     0
102
RTVSPost2010Prop41ColorIndex
 90
       18
102
RTVSPost2010Prop41ColorRGB
 90
        0
102
RTVSPost2010PropOp41
 70
     0
102
RTVSPost2010Prop42
 90
       50
102
RTVSPost2010PropOp42
 70
     0
102
RTVSPost2010Prop43
 90
        3
102
RTVSPost2010PropOp43
 70
     0
102
RTVSPost2010Prop44ColorIndex
 90
        5
102
RTVSPost2010Prop44ColorRGB
 90
      255
102
RTVSPost2010PropOp44
 70
     0
102
RTVSPost2010Prop45
280
     0
102
RTVSPost2010PropOp45
 70
     0
102
RTVSPost2010Prop46
 90
       50
102
RTVSPost2010PropOp46
 70
     0
102
RTVSPost2010Prop47
 90
       50
102
RTVSPost2010PropOp47
 70
     0
102
RTVSPost2010Prop48
 90
       50
102
RTVSPost2010PropOp48
 70
     0
102
RTVSPost2010Prop49
280
     0
102
RTVSPost2010PropOp49
 70
     0
102
RTVSPost2010Prop50
 90
       50
102
RTVSPost2010PropOp50
 70
     0
102
RTVSPost2010Prop51ColorIndex
 90
      256
102
RTVSPost2010Prop51ColorRGB
 90
-16777216
102
RTVSPost2010PropOp51
 70
     0
102
RTVSPost2010Prop52
140
1.0
102
RTVSPost2010PropOp52
 70
     0
102
RTVSPost2010Prop53
 90
        2
102
RTVSPost2010PropOp53
 70
     0
102
RTVSPost2010Prop54
  1
strokes_ogs.tif
102
RTVSPost2010PropOp54
 70
     0
102
RTVSPost2010Prop55
280
     0
102
RTVSPost2010PropOp55
 70
     0
102
RTVSPost2010Prop56
140
1.0
102
RTVSPost2010PropOp56
 70
     0
102
RTVSPost2010Prop57
140
1.0
102
RTVSPost2010PropOp57
 70
     0
  0
XRECORD
  5
17E
102
{ACAD_REACTORS
330
17D
102
}
330
17D
100
AcDbXrecord
280
     1
102
RTVSPost2010Prop28
280
     0
102
RTVSPost2010PropOp28
 70
     1
102
RTVSPost2010Prop29
280
     1
102
RTVSPost2010PropOp29
 70
     1
102
RTVSPost2010Prop30
280
     1
102
RTVSPost2010PropOp30
 70
     1
102
RTVSPost2010Prop31
280
     0
102
RTVSPost2010PropOp31
 70
     1
102
RTVSPost2010Prop32
280
     0
102
RTVSPost2010PropOp32
 70
     1
102
RTVSPost2010Prop33
280
     0
102
RTVSPost2010PropOp33
 70
     1
102
RTVSPost2010Prop34
280
     0
102
RTVSPost2010PropOp34
 70
     1
102
RTVSPost2010Prop35
280
     0
102
RTVSPost2010PropOp35
 70
     1
102
RTVSPost2010Prop36
280
     0
102
RTVSPost2010PropOp36
 70
     1
102
RTVSPost2010Prop37
 90
       50
102
RTVSPost2010PropOp37
 70
     1
102
RTVSPost2010Prop38
140
0.0
102
RTVSPost2010PropOp38
 70
     1
102
RTVSPost2010Prop39
140
1.0
102
RTVSPost2010PropOp39
 70
     1
102
RTVSPost2010Prop40
 90
        0
102
RTVSPost2010PropOp40
 70
     1
102
RTVSPost2010Prop41ColorIndex
 90
       18
102
RTVSPost2010Prop41ColorRGB
 90
        0
102
RTVSPost2010PropOp41
 70
     1
102
RTVSPost2010Prop42
 90
       50
102
RTVSPost2010PropOp42
 70
     1
102
RTVSPost2010Prop43
 90
        3
102
RTVSPost2010PropOp43
 70
     1
102
RTVSPost2010Prop44ColorIndex
 90
        5
102
RTVSPost2010Prop44ColorRGB
 90
      255
102
RTVSPost2010PropOp44
 70
     1
102
RTVSPost2010Prop45
280
     0
102
RTVSPost2010PropOp45
 70
     1
102
RTVSPost2010Prop46
 90
       50
102
RTVSPost2010PropOp46
 70
     1
102
RTVSPost2010Prop47
 90
       50
102
RTVSPost2010PropOp47
 70
     1
102
RTVSPost2010Prop48
 90
       50
102
RTVSPost2010PropOp48
 70
     1
102
RTVSPost2010Prop49
280
     0
102
RTVSPost2010PropOp49
 70
     1
102
RTVSPost2010Prop50
 90
       50
102
RTVSPost2010PropOp50
 70
     1
102
RTVSPost2010Prop51ColorIndex
 90
      256
102
RTVSPost2010Prop51ColorRGB
 90
-16777216
102
RTVSPost2010PropOp51
 70
     0
102
RTVSPost2010Prop52
140
1.0
102
RTVSPost2010PropOp52
 70
     0
102
RTVSPost2010Prop53
 90
        2
102
RTVSPost2010PropOp53
 70
     1
102
RTVSPost2010Prop54
  1
strokes_ogs.tif
102
RTVSPost2010PropOp54
 70
     1
102
RTVSPost2010Prop55
280
     0
102
RTVSPost2010PropOp55
 70
     1
102
RTVSPost2010Prop56
140
1.0
102
RTVSPost2010PropOp56
 70
     1
102
RTVSPost2010Prop57
140
1.0
102
RTVSPost2010PropOp57
 70
     1
  0
XRECORD
  5
194
102
{ACAD_REACTORS
330
193
102
}
330
193
100
AcDbXrecord
280
     1
102
RTVSPost2010Prop28
280
     0
102
RTVSPost2010PropOp28
 70
     1
102
RTVSPost2010Prop29
280
     1
102
RTVSPost2010PropOp29
 70
     1
102
RTVSPost2010Prop30
280
     1
102
RTVSPost2010PropOp30
 70
     1
102
RTVSPost2010Prop31
280
     0
102
RTVSPost2010PropOp31
 70
     1
102
RTVSPost2010Prop32
280
     0
102
RTVSPost2010PropOp32
 70
     1
102
RTVSPost2010Prop33
280
     0
102
RTVSPost2010PropOp33
 70
     1
102
RTVSPost2010Prop34
280
     0
102
RTVSPost2010PropOp34
 70
     1
102
RTVSPost2010Prop35
280
     0
102
RTVSPost2010PropOp35
 70
     1
102
RTVSPost2010Prop36
280
     0
102
RTVSPost2010PropOp36
 70
     1
102
RTVSPost2010Prop37
 90
       50
102
RTVSPost2010PropOp37
 70
     1
102
RTVSPost2010Prop38
140
0.0
102
RTVSPost2010PropOp38
 70
     1
102
RTVSPost2010Prop39
140
1.0
102
RTVSPost2010PropOp39
 70
     1
102
RTVSPost2010Prop40
 90
        0
102
RTVSPost2010PropOp40
 70
     1
102
RTVSPost2010Prop41ColorIndex
 90
       18
102
RTVSPost2010Prop41ColorRGB
 90
        0
102
RTVSPost2010PropOp41
 70
     1
102
RTVSPost2010Prop42
 90
       50
102
RTVSPost2010PropOp42
 70
     1
102
RTVSPost2010Prop43
 90
        3
102
RTVSPost2010PropOp43
 70
     1
102
RTVSPost2010Prop44ColorIndex
 90
        5
102
RTVSPost2010Prop44ColorRGB
 90
      255
102
RTVSPost2010PropOp44
 70
     1
102
RTVSPost2010Prop45
280
     0
102
RTVSPost2010PropOp45
 70
     1
102
RTVSPost2010Prop46
 90
       50
102
RTVSPost2010PropOp46
 70
     1
102
RTVSPost2010Prop47
 90
       50
102
RTVSPost2010PropOp47
 70
     1
102
RTVSPost2010Prop48
 90
       50
102
RTVSPost2010PropOp48
 70
     1
102
RTVSPost2010Prop49
280
     0
102
RTVSPost2010PropOp49
 70
     1
102
RTVSPost2010Prop50
 90
       50
102
RTVSPost2010PropOp50
 70
     1
102
RTVSPost2010Prop51ColorIndex
 90
      256
102
RTVSPost2010Prop51ColorRGB
 90
-16777216
102
RTVSPost2010PropOp51
 70
     0
102
RTVSPost2010Prop52
140
1.0
102
RTVSPost2010PropOp52
 70
     0
102
RTVSPost2010Prop53
 90
        2
102
RTVSPost2010PropOp53
 70
     1
102
RTVSPost2010Prop54
  1
strokes_ogs.tif
102
RTVSPost2010PropOp54
 70
     1
102
RTVSPost2010Prop55
280
     0
102
RTVSPost2010PropOp55
 70
     1
102
RTVSPost2010Prop56
140
1.0
102
RTVSPost2010PropOp56
 70
     1
102
RTVSPost2010Prop57
140
1.0
102
RTVSPost2010PropOp57
 70
     1
  0
XRECORD
  5
192
102
{ACAD_REACTORS
330
191
102
}
330
191
100
AcDbXrecord
280
     1
102
RTVSPost2010Prop28
280
     0
102
RTVSPost2010PropOp28
 70
     1
102
RTVSPost2010Prop29
280
     1
102
RTVSPost2010PropOp29
 70
     1
102
RTVSPost2010Prop30
280
     1
102
RTVSPost2010PropOp30
 70
     1
102
RTVSPost2010Prop31
280
     0
102
RTVSPost2010PropOp31
 70
     1
102
RTVSPost2010Prop32
280
     0
102
RTVSPost2010PropOp32
 70
     1
102
RTVSPost2010Prop33
280
     0
102
RTVSPost2010PropOp33
 70
     1
102
RTVSPost2010Prop34
280
     0
102
RTVSPost2010PropOp34
 70
     1
102
RTVSPost2010Prop35
280
     0
102
RTVSPost2010PropOp35
 70
     1
102
RTVSPost2010Prop36
280
     0
102
RTVSPost2010PropOp36
 70
     1
102
RTVSPost2010Prop37
 90
       50
102
RTVSPost2010PropOp37
 70
     1
102
RTVSPost2010Prop38
140
0.0
102
RTVSPost2010PropOp38
 70
     1
102
RTVSPost2010Prop39
140
1.0
102
RTVSPost2010PropOp39
 70
     1
102
RTVSPost2010Prop40
 90
        0
102
RTVSPost2010PropOp40
 70
     1
102
RTVSPost2010Prop41ColorIndex
 90
       18
102
RTVSPost2010Prop41ColorRGB
 90
        0
102
RTVSPost2010PropOp41
 70
     1
102
RTVSPost2010Prop42
 90
       50
102
RTVSPost2010PropOp42
 70
     1
102
RTVSPost2010Prop43
 90
        3
102
RTVSPost2010PropOp43
 70
     1
102
RTVSPost2010Prop44ColorIndex
 90
        5
102
RTVSPost2010Prop44ColorRGB
 90
      255
102
RTVSPost2010PropOp44
 70
     1
102
RTVSPost2010Prop45
280
     0
102
RTVSPost2010PropOp45
 70
     1
102
RTVSPost2010Prop46
 90
       50
102
RTVSPost2010PropOp46
 70
     1
102
RTVSPost2010Prop47
 90
       50
102
RTVSPost2010PropOp47
 70
     1
102
RTVSPost2010Prop48
 90
       50
102
RTVSPost2010PropOp48
 70
     1
102
RTVSPost2010Prop49
280
     0
102
RTVSPost2010PropOp49
 70
     1
102
RTVSPost2010Prop50
 90
       50
102
RTVSPost2010PropOp50
 70
     1
102
RTVSPost2010Prop51ColorIndex
 90
      256
102
RTVSPost2010Prop51ColorRGB
 90
-16777216
102
RTVSPost2010PropOp51
 70
     0
102
RTVSPost2010Prop52
140
1.0
102
RTVSPost2010PropOp52
 70
     0
102
RTVSPost2010Prop53
 90
        2
102
RTVSPost2010PropOp53
 70
     1
102
RTVSPost2010Prop54
  1
strokes_ogs.tif
102
RTVSPost2010PropOp54
 70
     1
102
RTVSPost2010Prop55
280
     0
102
RTVSPost2010PropOp55
 70
     1
102
RTVSPost2010Prop56
140
1.0
102
RTVSPost2010PropOp56
 70
     1
102
RTVSPost2010Prop57
140
1.0
102
RTVSPost2010PropOp57
 70
     1
  0
XRECORD
  5
18C
102
{ACAD_REACTORS
330
18B
102
}
330
18B
100
AcDbXrecord
280
     1
102
RTVSPost2010Prop28
280
     0
102
RTVSPost2010PropOp28
 70
     1
102
RTVSPost2010Prop29
280
     1
102
RTVSPost2010PropOp29
 70
     1
102
RTVSPost2010Prop30
280
     1
102
RTVSPost2010PropOp30
 70
     1
102
RTVSPost2010Prop31
280
     0
102
RTVSPost2010PropOp31
 70
     1
102
RTVSPost2010Prop32
280
     0
102
RTVSPost2010PropOp32
 70
     1
102
RTVSPost2010Prop33
280
     0
102
RTVSPost2010PropOp33
 70
     1
102
RTVSPost2010Prop34
280
     0
102
RTVSPost2010PropOp34
 70
     1
102
RTVSPost2010Prop35
280
     0
102
RTVSPost2010PropOp35
 70
     1
102
RTVSPost2010Prop36
280
     0
102
RTVSPost2010PropOp36
 70
     1
102
RTVSPost2010Prop37
 90
       50
102
RTVSPost2010PropOp37
 70
     1
102
RTVSPost2010Prop38
140
0.0
102
RTVSPost2010PropOp38
 70
     1
102
RTVSPost2010Prop39
140
1.0
102
RTVSPost2010PropOp39
 70
     1
102
RTVSPost2010Prop40
 90
        0
102
RTVSPost2010PropOp40
 70
     1
102
RTVSPost2010Prop41ColorIndex
 90
       18
102
RTVSPost2010Prop41ColorRGB
 90
        0
102
RTVSPost2010PropOp41
 70
     1
102
RTVSPost2010Prop42
 90
       50
102
RTVSPost2010PropOp42
 70
     1
102
RTVSPost2010Prop43
 90
        3
102
RTVSPost2010PropOp43
 70
     1
102
RTVSPost2010Prop44ColorIndex
 90
        5
102
RTVSPost2010Prop44ColorRGB
 90
      255
102
RTVSPost2010PropOp44
 70
     1
102
RTVSPost2010Prop45
280
     0
102
RTVSPost2010PropOp45
 70
     1
102
RTVSPost2010Prop46
 90
       50
102
RTVSPost2010PropOp46
 70
     1
102
RTVSPost2010Prop47
 90
       50
102
RTVSPost2010PropOp47
 70
     1
102
RTVSPost2010Prop48
 90
       50
102
RTVSPost2010PropOp48
 70
     1
102
RTVSPost2010Prop49
280
     0
102
RTVSPost2010PropOp49
 70
     1
102
RTVSPost2010Prop50
 90
       50
102
RTVSPost2010PropOp50
 70
     1
102
RTVSPost2010Prop51ColorIndex
 90
      256
102
RTVSPost2010Prop51ColorRGB
 90
-16777216
102
RTVSPost2010PropOp51
 70
     0
102
RTVSPost2010Prop52
140
1.0
102
RTVSPost2010PropOp52
 70
     0
102
RTVSPost2010Prop53
 90
        2
102
RTVSPost2010PropOp53
 70
     1
102
RTVSPost2010Prop54
  1
strokes_ogs.tif
102
RTVSPost2010PropOp54
 70
     1
102
RTVSPost2010Prop55
280
     0
102
RTVSPost2010PropOp55
 70
     1
102
RTVSPost2010Prop56
140
1.0
102
RTVSPost2010PropOp56
 70
     1
102
RTVSPost2010Prop57
140
1.0
102
RTVSPost2010PropOp57
 70
     1
  0
XRECORD
  5
18E
102
{ACAD_REACTORS
330
18D
102
}
330
18D
100
AcDbXrecord
280
     1
102
RTVSPost2010Prop28
280
     0
102
RTVSPost2010PropOp28
 70
     1
102
RTVSPost2010Prop29
280
     1
102
RTVSPost2010PropOp29
 70
     1
102
RTVSPost2010Prop30
280
     1
102
RTVSPost2010PropOp30
 70
     1
102
RTVSPost2010Prop31
280
     0
102
RTVSPost2010PropOp31
 70
     1
102
RTVSPost2010Prop32
280
     0
102
RTVSPost2010PropOp32
 70
     1
102
RTVSPost2010Prop33
280
     0
102
RTVSPost2010PropOp33
 70
     1
102
RTVSPost2010Prop34
280
     0
102
RTVSPost2010PropOp34
 70
     1
102
RTVSPost2010Prop35
280
     0
102
RTVSPost2010PropOp35
 70
     1
102
RTVSPost2010Prop36
280
     0
102
RTVSPost2010PropOp36
 70
     1
102
RTVSPost2010Prop37
 90
       50
102
RTVSPost2010PropOp37
 70
     1
102
RTVSPost2010Prop38
140
0.0
102
RTVSPost2010PropOp38
 70
     1
102
RTVSPost2010Prop39
140
1.0
102
RTVSPost2010PropOp39
 70
     1
102
RTVSPost2010Prop40
 90
        0
102
RTVSPost2010PropOp40
 70
     1
102
RTVSPost2010Prop41ColorIndex
 90
       18
102
RTVSPost2010Prop41ColorRGB
 90
        0
102
RTVSPost2010PropOp41
 70
     1
102
RTVSPost2010Prop42
 90
       50
102
RTVSPost2010PropOp42
 70
     1
102
RTVSPost2010Prop43
 90
        3
102
RTVSPost2010PropOp43
 70
     1
102
RTVSPost2010Prop44ColorIndex
 90
        5
102
RTVSPost2010Prop44ColorRGB
 90
      255
102
RTVSPost2010PropOp44
 70
     1
102
RTVSPost2010Prop45
280
     0
102
RTVSPost2010PropOp45
 70
     1
102
RTVSPost2010Prop46
 90
       50
102
RTVSPost2010PropOp46
 70
     1
102
RTVSPost2010Prop47
 90
       50
102
RTVSPost2010PropOp47
 70
     1
102
RTVSPost2010Prop48
 90
       50
102
RTVSPost2010PropOp48
 70
     1
102
RTVSPost2010Prop49
280
     0
102
RTVSPost2010PropOp49
 70
     1
102
RTVSPost2010Prop50
 90
       50
102
RTVSPost2010PropOp50
 70
     1
102
RTVSPost2010Prop51ColorIndex
 90
      256
102
RTVSPost2010Prop51ColorRGB
 90
-16777216
102
RTVSPost2010PropOp51
 70
     0
102
RTVSPost2010Prop52
140
1.0
102
RTVSPost2010PropOp52
 70
     0
102
RTVSPost2010Prop53
 90
        2
102
RTVSPost2010PropOp53
 70
     1
102
RTVSPost2010Prop54
  1
strokes_ogs.tif
102
RTVSPost2010PropOp54
 70
     1
102
RTVSPost2010Prop55
280
     0
102
RTVSPost2010PropOp55
 70
     1
102
RTVSPost2010Prop56
140
1.0
102
RTVSPost2010PropOp56
 70
     1
102
RTVSPost2010Prop57
140
1.0
102
RTVSPost2010PropOp57
 70
     1
  0
XRECORD
  5
184
102
{ACAD_REACTORS
330
183
102
}
330
183
100
AcDbXrecord
280
     1
102
RTVSPost2010Prop28
280
     0
102
RTVSPost2010PropOp28
 70
     1
102
RTVSPost2010Prop29
280
     1
102
RTVSPost2010PropOp29
 70
     1
102
RTVSPost2010Prop30
280
     1
102
RTVSPost2010PropOp30
 70
     1
102
RTVSPost2010Prop31
280
     0
102
RTVSPost2010PropOp31
 70
     1
102
RTVSPost2010Prop32
280
     0
102
RTVSPost2010PropOp32
 70
     1
102
RTVSPost2010Prop33
280
     0
102
RTVSPost2010PropOp33
 70
     1
102
RTVSPost2010Prop34
280
     0
102
RTVSPost2010PropOp34
 70
     1
102
RTVSPost2010Prop35
280
     0
102
RTVSPost2010PropOp35
 70
     1
102
RTVSPost2010Prop36
280
     0
102
RTVSPost2010PropOp36
 70
     1
102
RTVSPost2010Prop37
 90
       50
102
RTVSPost2010PropOp37
 70
     1
102
RTVSPost2010Prop38
140
0.0
102
RTVSPost2010PropOp38
 70
     1
102
RTVSPost2010Prop39
140
1.0
102
RTVSPost2010PropOp39
 70
     1
102
RTVSPost2010Prop40
 90
        0
102
RTVSPost2010PropOp40
 70
     1
102
RTVSPost2010Prop41ColorIndex
 90
       18
102
RTVSPost2010Prop41ColorRGB
 90
        0
102
RTVSPost2010PropOp41
 70
     1
102
RTVSPost2010Prop42
 90
       50
102
RTVSPost2010PropOp42
 70
     1
102
RTVSPost2010Prop43
 90
        3
102
RTVSPost2010PropOp43
 70
     1
102
RTVSPost2010Prop44ColorIndex
 90
        5
102
RTVSPost2010Prop44ColorRGB
 90
      255
102
RTVSPost2010PropOp44
 70
     1
102
RTVSPost2010Prop45
280
     0
102
RTVSPost2010PropOp45
 70
     1
102
RTVSPost2010Prop46
 90
       50
102
RTVSPost2010PropOp46
 70
     1
102
RTVSPost2010Prop47
 90
       50
102
RTVSPost2010PropOp47
 70
     1
102
RTVSPost2010Prop48
 90
       50
102
RTVSPost2010PropOp48
 70
     1
102
RTVSPost2010Prop49
280
     0
102
RTVSPost2010PropOp49
 70
     1
102
RTVSPost2010Prop50
 90
       50
102
RTVSPost2010PropOp50
 70
     1
102
RTVSPost2010Prop51ColorIndex
 90
      256
102
RTVSPost2010Prop51ColorRGB
 90
-16777216
102
RTVSPost2010PropOp51
 70
     0
102
RTVSPost2010Prop52
140
1.0
102
RTVSPost2010PropOp52
 70
     0
102
RTVSPost2010Prop53
 90
        2
102
RTVSPost2010PropOp53
 70
     1
102
RTVSPost2010Prop54
  1
strokes_ogs.tif
102
RTVSPost2010PropOp54
 70
     1
102
RTVSPost2010Prop55
280
     0
102
RTVSPost2010PropOp55
 70
     1
102
RTVSPost2010Prop56
140
1.0
102
RTVSPost2010PropOp56
 70
     1
102
RTVSPost2010Prop57
140
1.0
102
RTVSPost2010PropOp57
 70
     1
  0
XRECORD
  5
178
102
{ACAD_REACTORS
330
177
102
}
330
177
100
AcDbXrecord
280
     1
102
RTVSPost2010Prop28
280
     0
102
RTVSPost2010PropOp28
 70
     1
102
RTVSPost2010Prop29
280
     1
102
RTVSPost2010PropOp29
 70
     1
102
RTVSPost2010Prop30
280
     1
102
RTVSPost2010PropOp30
 70
     1
102
RTVSPost2010Prop31
280
     0
102
RTVSPost2010PropOp31
 70
     1
102
RTVSPost2010Prop32
280
     0
102
RTVSPost2010PropOp32
 70
     1
102
RTVSPost2010Prop33
280
     0
102
RTVSPost2010PropOp33
 70
     1
102
RTVSPost2010Prop34
280
     0
102
RTVSPost2010PropOp34
 70
     1
102
RTVSPost2010Prop35
280
     0
102
RTVSPost2010PropOp35
 70
     1
102
RTVSPost2010Prop36
280
     0
102
RTVSPost2010PropOp36
 70
     1
102
RTVSPost2010Prop37
 90
       50
102
RTVSPost2010PropOp37
 70
     1
102
RTVSPost2010Prop38
140
0.0
102
RTVSPost2010PropOp38
 70
     1
102
RTVSPost2010Prop39
140
1.0
102
RTVSPost2010PropOp39
 70
     1
102
RTVSPost2010Prop40
 90
        0
102
RTVSPost2010PropOp40
 70
     1
102
RTVSPost2010Prop41ColorIndex
 90
       18
102
RTVSPost2010Prop41ColorRGB
 90
        0
102
RTVSPost2010PropOp41
 70
     1
102
RTVSPost2010Prop42
 90
       50
102
RTVSPost2010PropOp42
 70
     1
102
RTVSPost2010Prop43
 90
        3
102
RTVSPost2010PropOp43
 70
     1
102
RTVSPost2010Prop44ColorIndex
 90
        5
102
RTVSPost2010Prop44ColorRGB
 90
      255
102
RTVSPost2010PropOp44
 70
     1
102
RTVSPost2010Prop45
280
     0
102
RTVSPost2010PropOp45
 70
     1
102
RTVSPost2010Prop46
 90
       50
102
RTVSPost2010PropOp46
 70
     1
102
RTVSPost2010Prop47
 90
       50
102
RTVSPost2010PropOp47
 70
     1
102
RTVSPost2010Prop48
 90
       50
102
RTVSPost2010PropOp48
 70
     1
102
RTVSPost2010Prop49
280
     0
102
RTVSPost2010PropOp49
 70
     1
102
RTVSPost2010Prop50
 90
       50
102
RTVSPost2010PropOp50
 70
     1
102
RTVSPost2010Prop51ColorIndex
 90
      256
102
RTVSPost2010Prop51ColorRGB
 90
-16777216
102
RTVSPost2010PropOp51
 70
     0
102
RTVSPost2010Prop52
140
1.0
102
RTVSPost2010PropOp52
 70
     0
102
RTVSPost2010Prop53
 90
        2
102
RTVSPost2010PropOp53
 70
     1
102
RTVSPost2010Prop54
  1
strokes_ogs.tif
102
RTVSPost2010PropOp54
 70
     1
102
RTVSPost2010Prop55
280
     0
102
RTVSPost2010PropOp55
 70
     1
102
RTVSPost2010Prop56
140
1.0
102
RTVSPost2010PropOp56
 70
     1
102
RTVSPost2010Prop57
140
1.0
102
RTVSPost2010PropOp57
 70
     1
  0
XRECORD
  5
190
102
{ACAD_REACTORS
330
18F
102
}
330
18F
100
AcDbXrecord
280
     1
102
RTVSPost2010Prop28
280
     0
102
RTVSPost2010PropOp28
 70
     1
102
RTVSPost2010Prop29
280
     1
102
RTVSPost2010PropOp29
 70
     1
102
RTVSPost2010Prop30
280
     1
102
RTVSPost2010PropOp30
 70
     1
102
RTVSPost2010Prop31
280
     0
102
RTVSPost2010PropOp31
 70
     1
102
RTVSPost2010Prop32
280
     0
102
RTVSPost2010PropOp32
 70
     1
102
RTVSPost2010Prop33
280
     0
102
RTVSPost2010PropOp33
 70
     1
102
RTVSPost2010Prop34
280
     0
102
RTVSPost2010PropOp34
 70
     1
102
RTVSPost2010Prop35
280
     0
102
RTVSPost2010PropOp35
 70
     1
102
RTVSPost2010Prop36
280
     0
102
RTVSPost2010PropOp36
 70
     1
102
RTVSPost2010Prop37
 90
       50
102
RTVSPost2010PropOp37
 70
     1
102
RTVSPost2010Prop38
140
0.0
102
RTVSPost2010PropOp38
 70
     1
102
RTVSPost2010Prop39
140
1.0
102
RTVSPost2010PropOp39
 70
     1
102
RTVSPost2010Prop40
 90
        0
102
RTVSPost2010PropOp40
 70
     1
102
RTVSPost2010Prop41ColorIndex
 90
       18
102
RTVSPost2010Prop41ColorRGB
 90
        0
102
RTVSPost2010PropOp41
 70
     1
102
RTVSPost2010Prop42
 90
       50
102
RTVSPost2010PropOp42
 70
     1
102
RTVSPost2010Prop43
 90
        3
102
RTVSPost2010PropOp43
 70
     1
102
RTVSPost2010Prop44ColorIndex
 90
        5
102
RTVSPost2010Prop44ColorRGB
 90
      255
102
RTVSPost2010PropOp44
 70
     1
102
RTVSPost2010Prop45
280
     0
102
RTVSPost2010PropOp45
 70
     1
102
RTVSPost2010Prop46
 90
       50
102
RTVSPost2010PropOp46
 70
     1
102
RTVSPost2010Prop47
 90
       50
102
RTVSPost2010PropOp47
 70
     1
102
RTVSPost2010Prop48
 90
       50
102
RTVSPost2010PropOp48
 70
     1
102
RTVSPost2010Prop49
280
     0
102
RTVSPost2010PropOp49
 70
     1
102
RTVSPost2010Prop50
 90
       50
102
RTVSPost2010PropOp50
 70
     1
102
RTVSPost2010Prop51ColorIndex
 90
      256
102
RTVSPost2010Prop51ColorRGB
 90
-16777216
102
RTVSPost2010PropOp51
 70
     0
102
RTVSPost2010Prop52
140
1.0
102
RTVSPost2010PropOp52
 70
     0
102
RTVSPost2010Prop53
 90
        2
102
RTVSPost2010PropOp53
 70
     1
102
RTVSPost2010Prop54
  1
strokes_ogs.tif
102
RTVSPost2010PropOp54
 70
     1
102
RTVSPost2010Prop55
280
     0
102
RTVSPost2010PropOp55
 70
     1
102
RTVSPost2010Prop56
140
1.0
102
RTVSPost2010PropOp56
 70
     1
102
RTVSPost2010Prop57
140
1.0
102
RTVSPost2010PropOp57
 70
     1
  0
ENDSEC
  0
EOF
