  0
SECTION
  2
HEADER
  9
$ACADVER
  1
AC1024
  9
$ACADMAINTVER
 70
     6
  9
$DWGCODEPAGE
  3
UNDEFINED
  9
$INSBASE
 10
0.0
 20
0.0
 30
0.0
  9
$EXTMIN
 10
1.000000000000000E+20
 20
1.000000000000000E+20
 30
1.000000000000000E+20
  9
$EXTMAX
 10
-1.000000000000000E+20
 20
-1.000000000000000E+20
 30
-1.000000000000000E+20
  9
$LIMMIN
 10
0.0
 20
0.0
  9
$LIMMAX
 10
12.0
 20
9.0
  9
$ORTHOMODE
 70
     0
  9
$REGENMODE
 70
     1
  9
$FILLMODE
 70
     1
  9
$QTEXTMODE
 70
     0
  9
$MIRRTEXT
 70
     1
  9
$LTSCALE
 40
1.0
  9
$ATTMODE
 70
     1
  9
$TEXTSIZE
 40
0.2
  9
$TRACEWID
 40
0.05
  9
$TEXTSTYLE
  7
Standard
  9
$CLAYER
  8
0
  9
$CELTYPE
  6
ByLayer
  9
$CECOLOR
 62
   256
  9
$CELTSCALE
 40
1.0
  9
$DISPSILH
 70
     0
  9
$DIMSCALE
 40
1.0
  9
$DIMASZ
 40
0.18
  9
$DIMEXO
 40
0.0625
  9
$DIMDLI
 40
0.38
  9
$DIMRND
 40
0.0
  9
$DIMDLE
 40
0.0
  9
$DIMEXE
 40
0.18
  9
$DIMTP
 40
0.0
  9
$DIMTM
 40
0.0
  9
$DIMTXT
 40
0.18
  9
$DIMCEN
 40
0.09
  9
$DIMTSZ
 40
0.0
  9
$DIMTOL
 70
     0
  9
$DIMLIM
 70
     0
  9
$DIMTIH
 70
     1
  9
$DIMTOH
 70
     1
  9
$DIMSE1
 70
     0
  9
$DIMSE2
 70
     0
  9
$DIMTAD
 70
     0
  9
$DIMZIN
 70
     0
  9
$DIMBLK
  1

  9
$DIMASO
 70
     1
  9
$DIMSHO
 70
     1
  9
$DIMPOST
  1

  9
$DIMAPOST
  1

  9
$DIMALT
 70
     0
  9
$DIMALTD
 70
     2
  9
$DIMALTF
 40
25.4
  9
$DIMLFAC
 40
1.0
  9
$DIMTOFL
 70
     0
  9
$DIMTVP
 40
0.0
  9
$DIMTIX
 70
     0
  9
$DIMSOXD
 70
     0
  9
$DIMSAH
 70
     0
  9
$DIMBLK1
  1

  9
$DIMBLK2
  1

  9
$DIMSTYLE
  2
Standard
  9
$DIMCLRD
 70
     0
  9
$DIMCLRE
 70
     0
  9
$DIMCLRT
 70
     0
  9
$DIMTFAC
 40
1.0
  9
$DIMGAP
 40
0.09
  9
$DIMJUST
 70
     0
  9
$DIMSD1
 70
     0
  9
$DIMSD2
 70
     0
  9
$DIMTOLJ
 70
     1
  9
$DIMTZIN
 70
     0
  9
$DIMALTZ
 70
     0
  9
$DIMALTTZ
 70
     0
  9
$DIMUPT
 70
     0
  9
$DIMDEC
 70
     4
  9
$DIMTDEC
 70
     4
  9
$DIMALTU
 70
     2
  9
$DIMALTTD
 70
     2
  9
$DIMTXSTY
  7
Standard
  9
$DIMAUNIT
 70
     0
  9
$DIMADEC
 70
     0
  9
$DIMALTRND
 40
0.0
  9
$DIMAZIN
 70
     0
  9
$DIMDSEP
 70
    46
  9
$DIMATFIT
 70
     3
  9
$DIMFRAC
 70
     0
  9
$DIMLDRBLK
  1

  9
$DIMLUNIT
 70
     2
  9
$DIMLWD
 70
    -2
  9
$DIMLWE
 70
    -2
  9
$DIMTMOVE
 70
     0
  9
$DIMFXL
 40
1.0
  9
$DIMFXLON
 70
     0
  9
$DIMJOGANG
 40
0.7853981633974483
  9
$DIMTFILL
 70
     0
  9
$DIMTFILLCLR
 70
     0
  9
$DIMARCSYM
 70
     0
  9
$DIMLTYPE
  6

  9
$DIMLTEX1
  6

  9
$DIMLTEX2
  6

  9
$DIMTXTDIRECTION
 70
     0
  9
$LUNITS
 70
     2
  9
$LUPREC
 70
     4
  9
$SKETCHINC
 40
0.1
  9
$FILLETRAD
 40
0.5
  9
$AUNITS
 70
     0
  9
$AUPREC
 70
     0
  9
$MENU
  1
.
  9
$ELEVATION
 40
0.0
  9
$PELEVATION
 40
0.0
  9
$THICKNESS
 40
0.0
  9
$LIMCHECK
 70
     0
  9
$CHAMFERA
 40
0.5
  9
$CHAMFERB
 40
0.5
  9
$CHAMFERC
 40
1.0
  9
$CHAMFERD
 40
0.0
  9
$SKPOLY
 70
     0
  9
$TDCREATE
 40
2457917.597291655
  9
$TDUCREATE
 40
2457917.222291667
  9
$TDUPDATE
 40
2457917.597291655
  9
$TDUUPDATE
 40
2457917.222291667
  9
$TDINDWG
 40
0.0000000116
  9
$TDUSRTIMER
 40
0.0000000116
  9
$USRTIMER
 70
     1
  9
$ANGBASE
 50
0.0
  9
$ANGDIR
 70
     0
  9
$PDMODE
 70
     0
  9
$PDSIZE
 40
0.0
  9
$PLINEWID
 40
0.0
  9
$SPLFRAME
 70
     0
  9
$SPLINETYPE
 70
     6
  9
$SPLINESEGS
 70
     8
  9
$HANDSEED
  5
FA
  9
$SURFTAB1
 70
     6
  9
$SURFTAB2
 70
     6
  9
$SURFTYPE
 70
     6
  9
$SURFU
 70
     6
  9
$SURFV
 70
     6
  9
$UCSBASE
  2

  9
$UCSNAME
  2

  9
$UCSORG
 10
0.0
 20
0.0
 30
0.0
  9
$UCSXDIR
 10
1.0
 20
0.0
 30
0.0
  9
$UCSYDIR
 10
0.0
 20
1.0
 30
0.0
  9
$UCSORTHOREF
  2

  9
$UCSORTHOVIEW
 70
     0
  9
$UCSORGTOP
 10
0.0
 20
0.0
 30
0.0
  9
$UCSORGBOTTOM
 10
0.0
 20
0.0
 30
0.0
  9
$UCSORGLEFT
 10
0.0
 20
0.0
 30
0.0
  9
$UCSORGRIGHT
 10
0.0
 20
0.0
 30
0.0
  9
$UCSORGFRONT
 10
0.0
 20
0.0
 30
0.0
  9
$UCSORGBACK
 10
0.0
 20
0.0
 30
0.0
  9
$PUCSBASE
  2

  9
$PUCSNAME
  2

  9
$PUCSORG
 10
0.0
 20
0.0
 30
0.0
  9
$PUCSXDIR
 10
1.0
 20
0.0
 30
0.0
  9
$PUCSYDIR
 10
0.0
 20
1.0
 30
0.0
  9
$PUCSORTHOREF
  2

  9
$PUCSORTHOVIEW
 70
     0
  9
$PUCSORGTOP
 10
0.0
 20
0.0
 30
0.0
  9
$PUCSORGBOTTOM
 10
0.0
 20
0.0
 30
0.0
  9
$PUCSORGLEFT
 10
0.0
 20
0.0
 30
0.0
  9
$PUCSORGRIGHT
 10
0.0
 20
0.0
 30
0.0
  9
$PUCSORGFRONT
 10
0.0
 20
0.0
 30
0.0
  9
$PUCSORGBACK
 10
0.0
 20
0.0
 30
0.0
  9
$USERI1
 70
     0
  9
$USERI2
 70
     0
  9
$USERI3
 70
     0
  9
$USERI4
 70
     0
  9
$USERI5
 70
     0
  9
$USERR1
 40
0.0
  9
$USERR2
 40
0.0
  9
$USERR3
 40
0.0
  9
$USERR4
 40
0.0
  9
$USERR5
 40
0.0
  9
$WORLDVIEW
 70
     1
  9
$SHADEDGE
 70
     3
  9
$SHADEDIF
 70
    70
  9
$TILEMODE
 70
     1
  9
$MAXACTVP
 70
    64
  9
$PINSBASE
 10
0.0
 20
0.0
 30
0.0
  9
$PLIMCHECK
 70
     0
  9
$PEXTMIN
 10
1.000000000000000E+20
 20
1.000000000000000E+20
 30
1.000000000000000E+20
  9
$PEXTMAX
 10
-1.000000000000000E+20
 20
-1.000000000000000E+20
 30
-1.000000000000000E+20
  9
$PLIMMIN
 10
0.0
 20
0.0
  9
$PLIMMAX
 10
12.0
 20
9.0
  9
$UNITMODE
 70
     0
  9
$VISRETAIN
 70
     1
  9
$PLINEGEN
 70
     0
  9
$PSLTSCALE
 70
     1
  9
$TREEDEPTH
 70
  3020
  9
$CMLSTYLE
  2
Standard
  9
$CMLJUST
 70
     0
  9
$CMLSCALE
 40
1.0
  9
$PROXYGRAPHICS
 70
     1
  9
$MEASUREMENT
 70
     0
  9
$CELWEIGHT
370
    -1
  9
$ENDCAPS
280
     0
  9
$JOINSTYLE
280
     0
  9
$LWDISPLAY
290
     1
  9
$INSUNITS
 70
     1
  9
$HYPERLINKBASE
  1

  9
$STYLESHEET
  1

  9
$XEDIT
290
     1
  9
$CEPSNTYPE
380
     0
  9
$PSTYLEMODE
290
     1
  9
$FINGERPRINTGUID
  2
{292D9BE9-5BE2-843A-0EE7-1E3C62044805}
  9
$VERSIONGUID
  2
{FAEB1C32-E019-11D5-929B-00C0DF256EC4}
  9
$EXTNAMES
290
     1
  9
$PSVPSCALE
 40
0.0
  9
$OLESTARTUP
290
     0
  9
$SORTENTS
280
   127
  9
$INDEXCTL
280
     0
  9
$HIDETEXT
280
     1
  9
$XCLIPFRAME
280
     2
  9
$HALOGAP
280
     0
  9
$OBSCOLOR
 70
   257
  9
$OBSLTYPE
280
     0
  9
$INTERSECTIONDISPLAY
280
     0
  9
$INTERSECTIONCOLOR
 70
   257
  9
$DIMASSOC
280
     2
  9
$PROJECTNAME
  1

  9
$CAMERADISPLAY
290
     0
  9
$LENSLENGTH
 40
50.0
  9
$CAMERAHEIGHT
 40
0.0
  9
$STEPSPERSEC
 40
2.0
  9
$STEPSIZE
 40
6.0
  9
$3DDWFPREC
 40
2.0
  9
$PSOLWIDTH
 40
0.25
  9
$PSOLHEIGHT
 40
4.0
  9
$LOFTANG1
 40
1.570796326794897
  9
$LOFTANG2
 40
1.570796326794897
  9
$LOFTMAG1
 40
0.0
  9
$LOFTMAG2
 40
0.0
  9
$LOFTPARAM
 70
     7
  9
$LOFTNORMALS
280
     1
  9
$LATITUDE
 40
37.795
  9
$LONGITUDE
 40
-122.394
  9
$NORTHDIRECTION
 40
0.0
  9
$TIMEZONE
 70
 -8000
  9
$LIGHTGLYPHDISPLAY
280
     1
  9
$TILEMODELIGHTSYNCH
280
     1
  9
$CMATERIAL
347
3C
  9
$SOLIDHIST
280
     1
  9
$SHOWHIST
280
     1
  9
$DWFFRAME
280
     2
  9
$DGNFRAME
280
     2
  9
$REALWORLDSCALE
290
     1
  9
$INTERFERECOLOR
 62
   256
  9
$CSHADOW
280
     0
  9
$SHADOWPLANELOCATION
 40
0.0
  0
ENDSEC
  0
SECTION
  2
CLASSES
  0
CLASS
  1
ACDBDICTIONARYWDFLT
  2
AcDbDictionaryWithDefault
  3
ObjectDBX Classes
 90
        0
 91
        4
280
     0
281
     0
  0
CLASS
  1
VISUALSTYLE
  2
AcDbVisualStyle
  3
ObjectDBX Classes
 90
     4095
 91
        4
280
     0
281
     0
  0
CLASS
  1
MATERIAL
  2
AcDbMaterial
  3
ObjectDBX Classes
 90
     1153
 91
        4
280
     0
281
     0
  0
CLASS
  1
SUN
  2
AcDbSun
  3
SCENEOE
 90
     1024
 91
        4
280
     0
281
     0
  0
ENDSEC
  0
SECTION
  2
TABLES
  0
TABLE
  2
VPORT
  5
8
330
0
100
AcDbSymbolTable
 70
     1
  0
VPORT
  5
29
330
8
100
AcDbSymbolTableRecord
100
AcDbViewportTableRecord
  2
*Active
 70
     0
 10
0.0
 20
0.0
 11
1.0
 21
1.0
 12
0.0
 22
0.0
 13
0.0
 23
0.0
 14
0.5
 24
0.5
 15
0.5
 25
0.5
 16
0.0
 26
0.0
 36
1.0
 17
91.00082462281999
 27
-128.4993055234307
 37
0.0
 40
256.9986110468615
 41
0.7081814508812795
 42
50.0
 43
0.0
 44
0.0
 50
0.0
 51
0.0
 71
     0
 72
   100
 73
     1
 74
     3
 75
     0
 76
     0
 77
     0
 78
     0
281
     0
 65
     1
110
0.0
120
0.0
130
0.0
111
1.0
121
0.0
131
0.0
112
0.0
122
1.0
132
0.0
 79
     0
146
0.0
 60
     3
 61
     5
292
     1
282
     1
141
0.0
142
0.0
 63
   250
361
3F
  0
ENDTAB
  0
TABLE
  2
LTYPE
  5
5
330
0
100
AcDbSymbolTable
 70
     3
  0
LTYPE
  5
14
330
5
100
AcDbSymbolTableRecord
100
AcDbLinetypeTableRecord
  2
ByBlock
 70
     0
  3

 72
    65
 73
     0
 40
0.0
  0
LTYPE
  5
15
330
5
100
AcDbSymbolTableRecord
100
AcDbLinetypeTableRecord
  2
ByLayer
 70
     0
  3

 72
    65
 73
     0
 40
0.0
  0
LTYPE
  5
16
330
5
100
AcDbSymbolTableRecord
100
AcDbLinetypeTableRecord
  2
Continuous
 70
     0
  3
Solid line
 72
    65
 73
     0
 40
0.0
  0
LTYPE
  5
44
330
5
100
AcDbSymbolTableRecord
100
AcDbLinetypeTableRecord
  2
AI-Linetype-1
 70
     0
  3
Adobe Illustrator Linetype No. 1
 72
    65
 73
     2
 40
1.411111110758333
 49
0.7055555553791667
 74
     0
 49
-0.7055555553791667
 74
     0
  0
LTYPE
  5
49
330
5
100
AcDbSymbolTableRecord
100
AcDbLinetypeTableRecord
  2
AI-Linetype-2
 70
     0
  3
Adobe Illustrator Linetype No. 2
 72
    65
 73
     2
 40
1.411111110758333
 49
0.7055555553791667
 74
     0
 49
-0.7055555553791667
 74
     0
  0
ENDTAB
  0
TABLE
  2
LAYER
  5
2
330
0
100
AcDbSymbolTable
 70
     2
  0
LAYER
  5
10
330
2
100
AcDbSymbolTableRecord
100
AcDbLayerTableRecord
  2
0
 70
     0
 62
     7
  6
Continuous
370
    -3
390
F
347
3E
  0
LAYER
  5
40
330
2
100
AcDbSymbolTableRecord
100
AcDbLayerTableRecord
  2
_U+30EC_U+30A4_U+30E4_U+30FC 1
 70
     0
 62
     7
  6
Continuous
370
    -3
390
F
347
3E
  0
ENDTAB
  0
TABLE
  2
STYLE
  5
3
330
0
100
AcDbSymbolTable
 70
     1
  0
STYLE
  5
11
330
3
100
AcDbSymbolTableRecord
100
AcDbTextStyleTableRecord
  2
Standard
 70
     0
 40
0.0
 41
1.0
 50
0.0
 71
     0
 42
0.2
  3
txt
  4

  0
ENDTAB
  0
TABLE
  2
VIEW
  5
6
330
0
100
AcDbSymbolTable
 70
     0
  0
ENDTAB
  0
TABLE
  2
UCS
  5
7
330
0
100
AcDbSymbolTable
 70
     0
  0
ENDTAB
  0
TABLE
  2
APPID
  5
9
330
0
100
AcDbSymbolTable
 70
     1
  0
APPID
  5
12
330
9
100
AcDbSymbolTableRecord
100
AcDbRegAppTableRecord
  2
ACAD
 70
     0
  0
ENDTAB
  0
TABLE
  2
DIMSTYLE
  5
A
330
0
100
AcDbSymbolTable
 70
     1
100
AcDbDimStyleTable
  0
DIMSTYLE
105
27
330
A
100
AcDbSymbolTableRecord
100
AcDbDimStyleTableRecord
  2
Standard
 70
     0
178
     0
340
11
  0
ENDTAB
  0
TABLE
  2
BLOCK_RECORD
  5
1
330
0
100
AcDbSymbolTable
 70
     6
  0
BLOCK_RECORD
  5
1F
330
1
100
AcDbSymbolTableRecord
100
AcDbBlockTableRecord
  2
*Model_Space
340
22
 70
     0
280
     1
281
     0
  0
BLOCK_RECORD
  5
1B
330
1
100
AcDbSymbolTableRecord
100
AcDbBlockTableRecord
  2
*Paper_Space
340
1E
 70
     0
280
     1
281
     0
  0
BLOCK_RECORD
  5
23
330
1
100
AcDbSymbolTableRecord
100
AcDbBlockTableRecord
  2
*Paper_Space0
340
26
 70
     0
280
     1
281
     0
  0
BLOCK_RECORD
  5
59
330
1
100
AcDbSymbolTableRecord
100
AcDbBlockTableRecord
  2
block 2
340
0
102
{BLKREFS
331
5A
102
}
 70
     0
280
     1
281
     0
  0
BLOCK_RECORD
  5
87
330
1
100
AcDbSymbolTableRecord
100
AcDbBlockTableRecord
  2
block 3
340
0
102
{BLKREFS
331
88
102
}
 70
     0
280
     1
281
     0
  0
BLOCK_RECORD
  5
9D
330
1
100
AcDbSymbolTableRecord
100
AcDbBlockTableRecord
  2
block 4
340
0
102
{BLKREFS
331
9E
102
}
 70
     0
280
     1
281
     0
  0
BLOCK_RECORD
  5
B0
330
1
100
AcDbSymbolTableRecord
100
AcDbBlockTableRecord
  2
block 5
340
0
102
{BLKREFS
331
B1
102
}
 70
     0
280
     1
281
     0
  0
BLOCK_RECORD
  5
D0
330
1
100
AcDbSymbolTableRecord
100
AcDbBlockTableRecord
  2
block 6
340
0
102
{BLKREFS
331
D1
102
}
 70
     0
280
     1
281
     0
  0
ENDTAB
  0
ENDSEC
  0
SECTION
  2
BLOCKS
  0
BLOCK
  5
20
330
1F
100
AcDbEntity
  8
0
100
AcDbBlockBegin
  2
*Model_Space
 70
     0
 10
0.0
 20
0.0
 30
0.0
  3
*Model_Space
  1

  0
ENDBLK
  5
21
330
1F
100
AcDbEntity
  8
0
100
AcDbBlockEnd
  0
BLOCK
  5
1C
330
1B
100
AcDbEntity
 67
     1
  8
0
100
AcDbBlockBegin
  2
*Paper_Space
 70
     0
 10
0.0
 20
0.0
 30
0.0
  3
*Paper_Space
  1

  0
ENDBLK
  5
1D
330
1B
100
AcDbEntity
 67
     1
  8
0
100
AcDbBlockEnd
  0
BLOCK
  5
24
330
23
100
AcDbEntity
  8
0
100
AcDbBlockBegin
  2
*Paper_Space0
 70
     0
 10
0.0
 20
0.0
 30
0.0
  3
*Paper_Space0
  1

  0
ENDBLK
  5
25
330
23
100
AcDbEntity
  8
0
100
AcDbBlockEnd
  0
BLOCK
  5
5B
330
59
100
AcDbEntity
  8
0
100
AcDbBlockBegin
  2
block 2
 70
     0
 10
0.0
 20
0.0
 30
0.0
  3
block 2
  1

  0
SPLINE
  5
5D
330
59
100
AcDbEntity
  8
_U+30EC_U+30A4_U+30E4_U+30FC 1
370
     0
100
AcDbSpline
210
0.0
220
0.0
230
1.0
 70
    11
 71
     3
 72
    62
 73
    58
 74
     0
 42
0.0000000001
 43
0.0000000001
 12
1.0
 22
0.0
 32
0.0
 13
1.0
 23
0.0
 33
0.0
 40
0.0
 40
0.0
 40
0.0
 40
0.0
 40
1.0
 40
1.0
 40
1.0
 40
2.0
 40
2.0
 40
2.0
 40
3.0
 40
3.0
 40
3.0
 40
4.0
 40
4.0
 40
4.0
 40
5.0
 40
5.0
 40
5.0
 40
6.0
 40
6.0
 40
6.0
 40
7.0
 40
7.0
 40
7.0
 40
8.0
 40
8.0
 40
8.0
 40
9.0
 40
9.0
 40
9.0
 40
10.0
 40
10.0
 40
10.0
 40
11.0
 40
11.0
 40
11.0
 40
12.0
 40
12.0
 40
12.0
 40
13.0
 40
13.0
 40
13.0
 40
14.0
 40
14.0
 40
14.0
 40
15.0
 40
15.0
 40
15.0
 40
16.0
 40
16.0
 40
16.0
 40
17.0
 40
17.0
 40
17.0
 40
18.0
 40
18.0
 40
18.0
 40
19.0
 40
19.0
 40
19.0
 40
19.0
 10
79.2420192944256
 20
-143.3590358799589
 30
0.0
 10
79.14676240425845
 20
-143.3590358799589
 30
0.0
 10
78.9288601148164
 20
-143.3380207974988
 30
0.0
 10
78.80414765825036
 20
-143.1519856412953
 30
0.0
 10
78.73007810531749
 20
-143.0396755284762
 30
0.0
 10
78.72577173596092
 20
-142.940456778501
 30
0.0
 10
78.72163762137862
 20
-142.8557074295639
 30
0.0
 10
78.72163762137862
 20
-142.8557074295639
 30
0.0
 10
78.94160696811183
 20
-142.8557074295639
 30
0.0
 10
78.94160696811183
 20
-142.8557074295639
 30
0.0
 10
78.94367402540297
 20
-142.9297769824967
 30
0.0
 10
78.95435382140725
 20
-143.1643879850423
 30
0.0
 10
79.23771292506905
 20
-143.1643879850423
 30
0.0
 10
79.37534448970477
 20
-143.1643879850423
 30
0.0
 10
79.52761771015282
 20
-143.0947970562402
 30
0.0
 10
79.52761771015282
 20
-142.8663872255681
 30
0.0
 10
79.52761771015282
 20
-142.7499429981667
 30
0.0
 10
79.4895494050408
 20
-142.7013671518247
 30
0.0
 10
79.45785452657651
 20
-142.6696722733604
 30
0.0
 10
79.38378497364364
 20
-142.5956027204275
 30
0.0
 10
79.2673407462422
 20
-142.5828558671321
 30
0.0
 10
79.21239147325247
 20
-142.5828558671321
 30
0.0
 10
79.19344344808358
 20
-142.5828558671321
 30
0.0
 10
79.15744220026272
 20
-142.5849229244232
 30
0.0
 10
79.12988143638073
 20
-142.5890570390055
 30
0.0
 10
79.12988143638073
 20
-142.5890570390055
 30
0.0
 10
79.12988143638073
 20
-142.3944091440889
 30
0.0
 10
79.12988143638073
 20
-142.3944091440889
 30
0.0
 10
79.16794974149273
 20
-142.4009548255109
 30
0.0
 10
79.21032441596131
 20
-142.403021882802
 30
0.0
 10
79.21669784260902
 20
-142.403021882802
 30
0.0
 10
79.28215465682877
 20
-142.403021882802
 30
0.0
 10
79.48110892110195
 20
-142.3816622907935
 30
0.0
 10
79.48110892110195
 20
-142.1449842309568
 30
0.0
 10
79.48110892110195
 20
-141.9672173039179
 30
0.0
 10
79.34985078311394
 20
-141.9120957761539
 30
0.0
 10
79.23995223713446
 20
-141.9120957761539
 30
0.0
 10
78.97554115864153
 20
-141.9120957761539
 30
0.0
 10
78.96692841992841
 20
-142.1449842309568
 30
0.0
 10
78.96279430534611
 20
-142.21664221705
 30
0.0
 10
78.96279430534611
 20
-142.21664221705
 30
0.0
 10
78.75970592649064
 20
-142.21664221705
 30
0.0
 10
78.75970592649064
 20
-142.21664221705
 30
0.0
 10
78.7681464104295
 20
-142.091929760484
 30
0.0
 10
78.79570717431149
 20
-141.7153808239462
 30
0.0
 10
79.25252683565562
 20
-141.7153808239462
 30
0.0
 10
79.47680255174538
 20
-141.7153808239462
 30
0.0
 10
79.71795923571287
 20
-141.8425048473519
 30
0.0
 10
79.71795923571287
 20
-142.1384385495348
 30
0.0
 10
79.71795923571287
 20
-142.3248182152869
 30
0.0
 10
79.62287460031997
 20
-142.4071559973843
 30
0.0
 10
79.52331134079625
 20
-142.4684786970218
 30
0.0
 10
79.58480629520797
 20
-142.4960394609038
 30
0.0
 10
79.76670733682916
 20
-142.5763101857101
 30
0.0
 10
79.76670733682916
 20
-142.8536403722727
 30
0.0
 10
79.76670733682916
 20
-143.1919487489242
 30
0.0
 10
79.51917722621396
 20
-143.3590358799589
 30
0.0
 10
79.2420192944256
 20
-143.3590358799589
 30
0.0
  0
HATCH
  5
5E
330
59
100
AcDbEntity
  8
_U+30EC_U+30A4_U+30E4_U+30FC 1
 62
     7
420
 16777215
100
AcDbHatch
 10
0.0
 20
0.0
 30
0.0
210
0.0
220
0.0
230
1.0
  2
SOLID
 70
     1
 71
     0
 91
        1
 92
        1
 93
        1
 72
     4
 94
        3
 73
     0
 74
     1
 95
       62
 96
       58
 40
0.0
 40
0.0
 40
0.0
 40
0.0
 40
1.0
 40
1.0
 40
1.0
 40
2.0
 40
2.0
 40
2.0
 40
3.0
 40
3.0
 40
3.0
 40
4.0
 40
4.0
 40
4.0
 40
5.0
 40
5.0
 40
5.0
 40
6.0
 40
6.0
 40
6.0
 40
7.0
 40
7.0
 40
7.0
 40
8.0
 40
8.0
 40
8.0
 40
9.0
 40
9.0
 40
9.0
 40
10.0
 40
10.0
 40
10.0
 40
11.0
 40
11.0
 40
11.0
 40
12.0
 40
12.0
 40
12.0
 40
13.0
 40
13.0
 40
13.0
 40
14.0
 40
14.0
 40
14.0
 40
15.0
 40
15.0
 40
15.0
 40
16.0
 40
16.0
 40
16.0
 40
17.0
 40
17.0
 40
17.0
 40
18.0
 40
18.0
 40
18.0
 40
19.0
 40
19.0
 40
19.0
 40
19.0
 10
79.2420192944256
 20
-143.3590358799589
 10
79.14676240425845
 20
-143.3590358799589
 10
78.9288601148164
 20
-143.3380207974988
 10
78.80414765825036
 20
-143.1519856412953
 10
78.73007810531749
 20
-143.0396755284762
 10
78.72577173596092
 20
-142.940456778501
 10
78.72163762137862
 20
-142.8557074295639
 10
78.72163762137862
 20
-142.8557074295639
 10
78.94160696811183
 20
-142.8557074295639
 10
78.94160696811183
 20
-142.8557074295639
 10
78.94367402540297
 20
-142.9297769824967
 10
78.95435382140725
 20
-143.1643879850423
 10
79.23771292506905
 20
-143.1643879850423
 10
79.37534448970477
 20
-143.1643879850423
 10
79.52761771015282
 20
-143.0947970562402
 10
79.52761771015282
 20
-142.8663872255681
 10
79.52761771015282
 20
-142.7499429981667
 10
79.4895494050408
 20
-142.7013671518247
 10
79.45785452657651
 20
-142.6696722733604
 10
79.38378497364364
 20
-142.5956027204275
 10
79.2673407462422
 20
-142.5828558671321
 10
79.21239147325247
 20
-142.5828558671321
 10
79.19344344808358
 20
-142.5828558671321
 10
79.15744220026272
 20
-142.5849229244232
 10
79.12988143638073
 20
-142.5890570390055
 10
79.12988143638073
 20
-142.5890570390055
 10
79.12988143638073
 20
-142.3944091440889
 10
79.12988143638073
 20
-142.3944091440889
 10
79.16794974149273
 20
-142.4009548255109
 10
79.21032441596131
 20
-142.403021882802
 10
79.21669784260902
 20
-142.403021882802
 10
79.28215465682877
 20
-142.403021882802
 10
79.48110892110195
 20
-142.3816622907935
 10
79.48110892110195
 20
-142.1449842309568
 10
79.48110892110195
 20
-141.9672173039179
 10
79.34985078311394
 20
-141.9120957761539
 10
79.23995223713446
 20
-141.9120957761539
 10
78.97554115864153
 20
-141.9120957761539
 10
78.96692841992841
 20
-142.1449842309568
 10
78.96279430534611
 20
-142.21664221705
 10
78.96279430534611
 20
-142.21664221705
 10
78.75970592649064
 20
-142.21664221705
 10
78.75970592649064
 20
-142.21664221705
 10
78.7681464104295
 20
-142.091929760484
 10
78.79570717431149
 20
-141.7153808239462
 10
79.25252683565562
 20
-141.7153808239462
 10
79.47680255174538
 20
-141.7153808239462
 10
79.71795923571287
 20
-141.8425048473519
 10
79.71795923571287
 20
-142.1384385495348
 10
79.71795923571287
 20
-142.3248182152869
 10
79.62287460031997
 20
-142.4071559973843
 10
79.52331134079625
 20
-142.4684786970218
 10
79.58480629520797
 20
-142.4960394609038
 10
79.76670733682916
 20
-142.5763101857101
 10
79.76670733682916
 20
-142.8536403722727
 10
79.76670733682916
 20
-143.1919487489242
 10
79.51917722621396
 20
-143.3590358799589
 10
79.2420192944256
 20
-143.3590358799589
 97
        0
 97
        0
 75
     2
 76
     1
 98
        0
  0
ENDBLK
  5
5C
330
59
100
AcDbEntity
  8
0
100
AcDbBlockEnd
  0
BLOCK
  5
89
330
87
100
AcDbEntity
  8
0
100
AcDbBlockBegin
  2
block 3
 70
     0
 10
0.0
 20
0.0
 30
0.0
  3
block 3
  1

  0
SPLINE
  5
8B
330
87
100
AcDbEntity
  8
_U+30EC_U+30A4_U+30E4_U+30FC 1
370
     0
100
AcDbSpline
210
0.0
220
0.0
230
1.0
 70
    11
 71
     3
 72
    44
 73
    40
 74
     0
 42
0.0000000001
 43
0.0000000001
 12
1.0
 22
0.0
 32
0.0
 13
1.0
 23
0.0
 33
0.0
 40
0.0
 40
0.0
 40
0.0
 40
0.0
 40
1.0
 40
1.0
 40
1.0
 40
2.0
 40
2.0
 40
2.0
 40
3.0
 40
3.0
 40
3.0
 40
4.0
 40
4.0
 40
4.0
 40
5.0
 40
5.0
 40
5.0
 40
6.0
 40
6.0
 40
6.0
 40
7.0
 40
7.0
 40
7.0
 40
8.0
 40
8.0
 40
8.0
 40
9.0
 40
9.0
 40
9.0
 40
10.0
 40
10.0
 40
10.0
 40
11.0
 40
11.0
 40
11.0
 40
12.0
 40
12.0
 40
12.0
 40
13.0
 40
13.0
 40
13.0
 40
13.0
 10
93.95981171696144
 20
-113.5779079577166
 30
0.0
 10
93.74208168229364
 20
-113.7367268595867
 30
0.0
 10
93.64906410419191
 20
-113.8107964125195
 30
0.0
 10
93.60014374830136
 20
-113.9544568942544
 30
0.0
 10
93.60014374830136
 20
-113.9544568942544
 30
0.0
 10
94.37873532796782
 20
-113.9544568942544
 30
0.0
 10
94.37873532796782
 20
-113.9544568942544
 30
0.0
 10
94.37873532796782
 20
-113.9544568942544
 30
0.0
 10
94.37873532796782
 20
-114.1597845851753
 30
0.0
 10
94.37873532796782
 20
-114.1597845851753
 30
0.0
 10
94.37873532796782
 20
-114.1597845851753
 30
0.0
 10
93.35071883516927
 20
-114.1597845851753
 30
0.0
 10
93.35071883516927
 20
-114.1597845851753
 30
0.0
 10
93.38241371363357
 20
-113.8021836738064
 30
0.0
 10
93.44787052785331
 20
-113.7239800062912
 30
0.0
 10
93.83303220310425
 20
-113.4256347372686
 30
0.0
 10
94.08900279765831
 20
-113.2268527277697
 30
0.0
 10
94.15445961187805
 20
-113.1589843467103
 30
0.0
 10
94.15445961187805
 20
-113.0215250368488
 30
0.0
 10
94.15445961187805
 20
-112.9030137521562
 30
0.0
 10
94.08245711623634
 20
-112.7721001237167
 30
0.0
 10
93.88574216402857
 20
-112.7721001237167
 30
0.0
 10
93.6256374548922
 20
-112.7721001237167
 30
0.0
 10
93.61702471617909
 20
-113.0025770116799
 30
0.0
 10
93.61289060159679
 20
-113.1190212390814
 30
0.0
 10
93.61289060159679
 20
-113.1190212390814
 30
0.0
 10
93.38861488550701
 20
-113.1190212390814
 30
0.0
 10
93.38861488550701
 20
-113.1190212390814
 30
0.0
 10
93.39722762422014
 20
-112.9918972156756
 30
0.0
 10
93.40790742022442
 20
-112.879931612405
 30
0.0
 10
93.48817814503074
 20
-112.7614203277124
 30
0.0
 10
93.5980766910102
 20
-112.6005343685513
 30
0.0
 10
93.78445635676222
 20
-112.5667724327958
 30
0.0
 10
93.90055607461514
 20
-112.5667724327958
 30
0.0
 10
94.17788626117776
 20
-112.5667724327958
 30
0.0
 10
94.3852810093898
 20
-112.7507405317081
 30
0.0
 10
94.3852810093898
 20
-113.0235920941399
 30
0.0
 10
94.3852810093898
 20
-113.2523464343605
 30
0.0
 10
94.26883678198836
 20
-113.3515651843357
 30
0.0
 10
93.95981171696144
 20
-113.5779079577166
 30
0.0
  0
HATCH
  5
8C
330
87
100
AcDbEntity
  8
_U+30EC_U+30A4_U+30E4_U+30FC 1
 62
     7
420
 16777215
100
AcDbHatch
 10
0.0
 20
0.0
 30
0.0
210
0.0
220
0.0
230
1.0
  2
SOLID
 70
     1
 71
     0
 91
        1
 92
        1
 93
        1
 72
     4
 94
        3
 73
     0
 74
     1
 95
       44
 96
       40
 40
0.0
 40
0.0
 40
0.0
 40
0.0
 40
1.0
 40
1.0
 40
1.0
 40
2.0
 40
2.0
 40
2.0
 40
3.0
 40
3.0
 40
3.0
 40
4.0
 40
4.0
 40
4.0
 40
5.0
 40
5.0
 40
5.0
 40
6.0
 40
6.0
 40
6.0
 40
7.0
 40
7.0
 40
7.0
 40
8.0
 40
8.0
 40
8.0
 40
9.0
 40
9.0
 40
9.0
 40
10.0
 40
10.0
 40
10.0
 40
11.0
 40
11.0
 40
11.0
 40
12.0
 40
12.0
 40
12.0
 40
13.0
 40
13.0
 40
13.0
 40
13.0
 10
93.95981171696144
 20
-113.5779079577166
 10
93.74208168229364
 20
-113.7367268595867
 10
93.64906410419191
 20
-113.8107964125195
 10
93.60014374830136
 20
-113.9544568942544
 10
93.60014374830136
 20
-113.9544568942544
 10
94.37873532796782
 20
-113.9544568942544
 10
94.37873532796782
 20
-113.9544568942544
 10
94.37873532796782
 20
-113.9544568942544
 10
94.37873532796782
 20
-114.1597845851753
 10
94.37873532796782
 20
-114.1597845851753
 10
94.37873532796782
 20
-114.1597845851753
 10
93.35071883516927
 20
-114.1597845851753
 10
93.35071883516927
 20
-114.1597845851753
 10
93.38241371363357
 20
-113.8021836738064
 10
93.44787052785331
 20
-113.7239800062912
 10
93.83303220310425
 20
-113.4256347372686
 10
94.08900279765831
 20
-113.2268527277697
 10
94.15445961187805
 20
-113.1589843467103
 10
94.15445961187805
 20
-113.0215250368488
 10
94.15445961187805
 20
-112.9030137521562
 10
94.08245711623634
 20
-112.7721001237167
 10
93.88574216402857
 20
-112.7721001237167
 10
93.6256374548922
 20
-112.7721001237167
 10
93.61702471617909
 20
-113.0025770116799
 10
93.61289060159679
 20
-113.1190212390814
 10
93.61289060159679
 20
-113.1190212390814
 10
93.38861488550701
 20
-113.1190212390814
 10
93.38861488550701
 20
-113.1190212390814
 10
93.39722762422014
 20
-112.9918972156756
 10
93.40790742022442
 20
-112.879931612405
 10
93.48817814503074
 20
-112.7614203277124
 10
93.5980766910102
 20
-112.6005343685513
 10
93.78445635676222
 20
-112.5667724327958
 10
93.90055607461514
 20
-112.5667724327958
 10
94.17788626117776
 20
-112.5667724327958
 10
94.3852810093898
 20
-112.7507405317081
 10
94.3852810093898
 20
-113.0235920941399
 10
94.3852810093898
 20
-113.2523464343605
 10
94.26883678198836
 20
-113.3515651843357
 10
93.95981171696144
 20
-113.5779079577166
 97
        0
 97
        0
 75
     2
 76
     1
 98
        0
  0
SPLINE
  5
8D
330
87
100
AcDbEntity
  8
_U+30EC_U+30A4_U+30E4_U+30FC 1
370
     0
100
AcDbSpline
210
0.0
220
0.0
230
1.0
 70
    11
 71
     3
 72
    53
 73
    49
 74
     0
 42
0.0000000001
 43
0.0000000001
 12
1.0
 22
0.0
 32
0.0
 13
1.0
 23
0.0
 33
0.0
 40
0.0
 40
0.0
 40
0.0
 40
0.0
 40
1.0
 40
1.0
 40
1.0
 40
2.0
 40
2.0
 40
2.0
 40
3.0
 40
3.0
 40
3.0
 40
4.0
 40
4.0
 40
4.0
 40
5.0
 40
5.0
 40
5.0
 40
6.0
 40
6.0
 40
6.0
 40
7.0
 40
7.0
 40
7.0
 40
8.0
 40
8.0
 40
8.0
 40
9.0
 40
9.0
 40
9.0
 40
10.0
 40
10.0
 40
10.0
 40
11.0
 40
11.0
 40
11.0
 40
12.0
 40
12.0
 40
12.0
 40
13.0
 40
13.0
 40
13.0
 40
14.0
 40
14.0
 40
14.0
 40
15.0
 40
15.0
 40
15.0
 40
16.0
 40
16.0
 40
16.0
 40
16.0
 10
95.02469073145217
 20
-114.2104274888085
 30
0.0
 10
94.946487063937
 20
-114.2104274888085
 30
0.0
 10
94.84485674712212
 20
-114.1935465209308
 30
0.0
 10
94.74322643030726
 20
-114.1301567640022
 30
0.0
 10
94.56993812739918
 20
-114.0202582180227
 30
0.0
 10
94.54857853539063
 20
-113.8890000800347
 30
0.0
 10
94.52963051022176
 20
-113.7811685913464
 30
0.0
 10
94.52963051022176
 20
-113.7811685913464
 30
0.0
 10
94.75183916902037
 20
-113.7811685913464
 30
0.0
 10
94.75183916902037
 20
-113.7811685913464
 30
0.0
 10
94.80661618723585
 20
-113.9799506008453
 30
0.0
 10
94.93374021064157
 20
-114.0095784220184
 30
0.0
 10
95.02675778874331
 20
-114.0095784220184
 30
0.0
 10
95.16628415589594
 20
-114.0095784220184
 30
0.0
 10
95.31855737634397
 20
-113.9100151624947
 30
0.0
 10
95.31855737634397
 20
-113.6774712172404
 30
0.0
 10
95.31855737634397
 20
-113.4215006226863
 30
0.0
 10
95.13872339201393
 20
-113.3515651843357
 30
0.0
 10
95.01814505003018
 20
-113.3515651843357
 30
0.0
 10
94.98645017156589
 20
-113.3515651843357
 30
0.0
 10
94.84485674712212
 20
-113.3515651843357
 30
0.0
 10
94.75597328360267
 20
-113.4807562650326
 30
0.0
 10
94.75597328360267
 20
-113.4807562650326
 30
0.0
 10
94.58027341385494
 20
-113.4618082398637
 30
0.0
 10
94.58027341385494
 20
-113.4618082398637
 30
0.0
 10
94.58027341385494
 20
-113.4618082398637
 30
0.0
 10
94.70085175583868
 20
-112.6153482791378
 30
0.0
 10
94.70085175583868
 20
-112.6153482791378
 30
0.0
 10
94.70085175583868
 20
-112.6153482791378
 30
0.0
 10
95.47944333550514
 20
-112.6153482791378
 30
0.0
 10
95.47944333550514
 20
-112.6153482791378
 30
0.0
 10
95.47944333550514
 20
-112.6153482791378
 30
0.0
 10
95.47944333550514
 20
-112.8099961740544
 30
0.0
 10
95.47944333550514
 20
-112.8099961740544
 30
0.0
 10
95.47944333550514
 20
-112.8099961740544
 30
0.0
 10
94.863804772291
 20
-112.8099961740544
 30
0.0
 10
94.863804772291
 20
-112.8099961740544
 30
0.0
 10
94.863804772291
 20
-112.8099961740544
 30
0.0
 10
94.79834795807125
 20
-113.2330538996431
 30
0.0
 10
94.79834795807125
 20
-113.2330538996431
 30
0.0
 10
94.8596706577087
 20
-113.1992919638877
 30
0.0
 10
94.94200843980617
 20
-113.1589843467103
 30
0.0
 10
95.06051972449876
 20
-113.1589843467103
 30
0.0
 10
95.31442326176168
 20
-113.1589843467103
 30
0.0
 10
95.55144583114686
 20
-113.3453640124623
 30
0.0
 10
95.55144583114686
 20
-113.6585231920715
 30
0.0
 10
95.55144583114686
 20
-113.975816486263
 30
0.0
 10
95.3271701150571
 20
-114.2104274888085
 30
0.0
 10
95.02469073145217
 20
-114.2104274888085
 30
0.0
  0
HATCH
  5
8E
330
87
100
AcDbEntity
  8
_U+30EC_U+30A4_U+30E4_U+30FC 1
 62
     7
420
 16777215
100
AcDbHatch
 10
0.0
 20
0.0
 30
0.0
210
0.0
220
0.0
230
1.0
  2
SOLID
 70
     1
 71
     0
 91
        1
 92
        1
 93
        1
 72
     4
 94
        3
 73
     0
 74
     1
 95
       53
 96
       49
 40
0.0
 40
0.0
 40
0.0
 40
0.0
 40
1.0
 40
1.0
 40
1.0
 40
2.0
 40
2.0
 40
2.0
 40
3.0
 40
3.0
 40
3.0
 40
4.0
 40
4.0
 40
4.0
 40
5.0
 40
5.0
 40
5.0
 40
6.0
 40
6.0
 40
6.0
 40
7.0
 40
7.0
 40
7.0
 40
8.0
 40
8.0
 40
8.0
 40
9.0
 40
9.0
 40
9.0
 40
10.0
 40
10.0
 40
10.0
 40
11.0
 40
11.0
 40
11.0
 40
12.0
 40
12.0
 40
12.0
 40
13.0
 40
13.0
 40
13.0
 40
14.0
 40
14.0
 40
14.0
 40
15.0
 40
15.0
 40
15.0
 40
16.0
 40
16.0
 40
16.0
 40
16.0
 10
95.02469073145217
 20
-114.2104274888085
 10
94.946487063937
 20
-114.2104274888085
 10
94.84485674712212
 20
-114.1935465209308
 10
94.74322643030726
 20
-114.1301567640022
 10
94.56993812739918
 20
-114.0202582180227
 10
94.54857853539063
 20
-113.8890000800347
 10
94.52963051022176
 20
-113.7811685913464
 10
94.52963051022176
 20
-113.7811685913464
 10
94.75183916902037
 20
-113.7811685913464
 10
94.75183916902037
 20
-113.7811685913464
 10
94.80661618723585
 20
-113.9799506008453
 10
94.93374021064157
 20
-114.0095784220184
 10
95.02675778874331
 20
-114.0095784220184
 10
95.16628415589594
 20
-114.0095784220184
 10
95.31855737634397
 20
-113.9100151624947
 10
95.31855737634397
 20
-113.6774712172404
 10
95.31855737634397
 20
-113.4215006226863
 10
95.13872339201393
 20
-113.3515651843357
 10
95.01814505003018
 20
-113.3515651843357
 10
94.98645017156589
 20
-113.3515651843357
 10
94.84485674712212
 20
-113.3515651843357
 10
94.75597328360267
 20
-113.4807562650326
 10
94.75597328360267
 20
-113.4807562650326
 10
94.58027341385494
 20
-113.4618082398637
 10
94.58027341385494
 20
-113.4618082398637
 10
94.58027341385494
 20
-113.4618082398637
 10
94.70085175583868
 20
-112.6153482791378
 10
94.70085175583868
 20
-112.6153482791378
 10
94.70085175583868
 20
-112.6153482791378
 10
95.47944333550514
 20
-112.6153482791378
 10
95.47944333550514
 20
-112.6153482791378
 10
95.47944333550514
 20
-112.6153482791378
 10
95.47944333550514
 20
-112.8099961740544
 10
95.47944333550514
 20
-112.8099961740544
 10
95.47944333550514
 20
-112.8099961740544
 10
94.863804772291
 20
-112.8099961740544
 10
94.863804772291
 20
-112.8099961740544
 10
94.863804772291
 20
-112.8099961740544
 10
94.79834795807125
 20
-113.2330538996431
 10
94.79834795807125
 20
-113.2330538996431
 10
94.8596706577087
 20
-113.1992919638877
 10
94.94200843980617
 20
-113.1589843467103
 10
95.06051972449876
 20
-113.1589843467103
 10
95.31442326176168
 20
-113.1589843467103
 10
95.55144583114686
 20
-113.3453640124623
 10
95.55144583114686
 20
-113.6585231920715
 10
95.55144583114686
 20
-113.975816486263
 10
95.3271701150571
 20
-114.2104274888085
 10
95.02469073145217
 20
-114.2104274888085
 97
        0
 97
        0
 75
     2
 76
     1
 98
        0
  0
ENDBLK
  5
8A
330
87
100
AcDbEntity
  8
0
100
AcDbBlockEnd
  0
BLOCK
  5
9F
330
9D
100
AcDbEntity
  8
0
100
AcDbBlockBegin
  2
block 4
 70
     0
 10
0.0
 20
0.0
 30
0.0
  3
block 4
  1

  0
SPLINE
  5
A1
330
9D
100
AcDbEntity
  8
_U+30EC_U+30A4_U+30E4_U+30FC 1
370
     0
100
AcDbSpline
210
0.0
220
0.0
230
1.0
 70
    11
 71
     3
 72
    32
 73
    28
 74
     0
 42
0.0000000001
 43
0.0000000001
 12
1.0
 22
0.0
 32
0.0
 13
1.0
 23
0.0
 33
0.0
 40
0.0
 40
0.0
 40
0.0
 40
0.0
 40
1.0
 40
1.0
 40
1.0
 40
2.0
 40
2.0
 40
2.0
 40
3.0
 40
3.0
 40
3.0
 40
4.0
 40
4.0
 40
4.0
 40
5.0
 40
5.0
 40
5.0
 40
6.0
 40
6.0
 40
6.0
 40
7.0
 40
7.0
 40
7.0
 40
8.0
 40
8.0
 40
8.0
 40
9.0
 40
9.0
 40
9.0
 40
9.0
 10
112.2456895335705
 20
-122.0063340623804
 30
0.0
 10
112.2456895335705
 20
-122.5224093660708
 30
0.0
 10
111.6917181795423
 20
-122.5310221047839
 30
0.0
 10
111.4777777499083
 20
-122.5310221047839
 30
0.0
 10
111.2473008619451
 20
-122.5310221047839
 30
0.0
 10
110.5999674202667
 20
-122.5117295700665
 30
0.0
 10
110.5999674202667
 20
-121.9680935024941
 30
0.0
 10
110.5999674202667
 20
-121.794805199586
 30
0.0
 10
110.6699028586172
 20
-121.5491698914877
 30
0.0
 10
111.0020100633953
 20
-121.51127384115
 30
0.0
 10
111.0020100633953
 20
-121.51127384115
 30
0.0
 10
111.0020100633953
 20
-121.7248697612355
 30
0.0
 10
111.0020100633953
 20
-121.7248697612355
 30
0.0
 10
110.9448214783402
 20
-121.7355495572397
 30
0.0
 10
110.7966823724745
 20
-121.767244435704
 30
0.0
 10
110.7966823724745
 20
-121.9701605597852
 30
0.0
 10
110.7966823724745
 20
-122.2623046569344
 30
0.0
 10
111.1246554626702
 20
-122.3022677645633
 30
0.0
 10
111.3296386440426
 20
-122.3150146178588
 30
0.0
 10
111.2514349765274
 20
-122.221997039757
 30
0.0
 10
111.1921793341811
 20
-122.1541286586976
 30
0.0
 10
111.1921793341811
 20
-121.9722276170764
 30
0.0
 10
111.1921793341811
 20
-121.7923936327464
 30
0.0
 10
111.300355332418
 20
-121.4899142491414
 30
0.0
 10
111.7065320901289
 20
-121.4899142491414
 30
0.0
 10
112.0258924416116
 20
-121.4899142491414
 30
0.0
 10
112.2456895335705
 20
-121.6890407681889
 30
0.0
 10
112.2456895335705
 20
-122.0063340623804
 30
0.0
  0
SPLINE
  5
A2
330
9D
100
AcDbEntity
  8
_U+30EC_U+30A4_U+30E4_U+30FC 1
370
     0
100
AcDbSpline
210
0.0
220
0.0
230
1.0
 70
    11
 71
     3
 72
    17
 73
    13
 74
     0
 42
0.0000000001
 43
0.0000000001
 12
1.0
 22
0.0
 32
0.0
 13
1.0
 23
0.0
 33
0.0
 40
0.0
 40
0.0
 40
0.0
 40
0.0
 40
1.0
 40
1.0
 40
1.0
 40
2.0
 40
2.0
 40
2.0
 40
3.0
 40
3.0
 40
3.0
 40
4.0
 40
4.0
 40
4.0
 40
4.0
 10
111.3868272290977
 20
-121.9894530945026
 30
0.0
 10
111.3868272290977
 20
-122.2516248609301
 30
0.0
 10
111.5983560918921
 20
-122.2895209112679
 30
0.0
 10
111.7148003192935
 20
-122.2895209112679
 30
0.0
 10
111.8905001890413
 20
-122.2895209112679
 30
0.0
 10
112.0534532054936
 20
-122.194436275875
 30
0.0
 10
112.0534532054936
 20
-122.0104681769627
 30
0.0
 10
112.0534532054936
 20
-121.8898898349789
 30
0.0
 10
111.9941975631473
 20
-121.7141899652312
 30
0.0
 10
111.7085991474201
 20
-121.7141899652312
 30
0.0
 10
111.4843234313303
 20
-121.7141899652312
 30
0.0
 10
111.3868272290977
 20
-121.8537163323838
 30
0.0
 10
111.3868272290977
 20
-121.9894530945026
 30
0.0
  0
HATCH
  5
A3
330
9D
100
AcDbEntity
  8
_U+30EC_U+30A4_U+30E4_U+30FC 1
 62
     7
420
 16777215
100
AcDbHatch
 10
0.0
 20
0.0
 30
0.0
210
0.0
220
0.0
230
1.0
  2
SOLID
 70
     1
 71
     0
 91
        2
 92
        1
 93
        1
 72
     4
 94
        3
 73
     0
 74
     1
 95
       32
 96
       28
 40
0.0
 40
0.0
 40
0.0
 40
0.0
 40
1.0
 40
1.0
 40
1.0
 40
2.0
 40
2.0
 40
2.0
 40
3.0
 40
3.0
 40
3.0
 40
4.0
 40
4.0
 40
4.0
 40
5.0
 40
5.0
 40
5.0
 40
6.0
 40
6.0
 40
6.0
 40
7.0
 40
7.0
 40
7.0
 40
8.0
 40
8.0
 40
8.0
 40
9.0
 40
9.0
 40
9.0
 40
9.0
 10
112.2456895335705
 20
-122.0063340623804
 10
112.2456895335705
 20
-122.5224093660708
 10
111.6917181795423
 20
-122.5310221047839
 10
111.4777777499083
 20
-122.5310221047839
 10
111.2473008619451
 20
-122.5310221047839
 10
110.5999674202667
 20
-122.5117295700665
 10
110.5999674202667
 20
-121.9680935024941
 10
110.5999674202667
 20
-121.794805199586
 10
110.6699028586172
 20
-121.5491698914877
 10
111.0020100633953
 20
-121.51127384115
 10
111.0020100633953
 20
-121.51127384115
 10
111.0020100633953
 20
-121.7248697612355
 10
111.0020100633953
 20
-121.7248697612355
 10
110.9448214783402
 20
-121.7355495572397
 10
110.7966823724745
 20
-121.767244435704
 10
110.7966823724745
 20
-121.9701605597852
 10
110.7966823724745
 20
-122.2623046569344
 10
111.1246554626702
 20
-122.3022677645633
 10
111.3296386440426
 20
-122.3150146178588
 10
111.2514349765274
 20
-122.221997039757
 10
111.1921793341811
 20
-122.1541286586976
 10
111.1921793341811
 20
-121.9722276170764
 10
111.1921793341811
 20
-121.7923936327464
 10
111.300355332418
 20
-121.4899142491414
 10
111.7065320901289
 20
-121.4899142491414
 10
112.0258924416116
 20
-121.4899142491414
 10
112.2456895335705
 20
-121.6890407681889
 10
112.2456895335705
 20
-122.0063340623804
 97
        0
 97
        0
 92
        1
 93
        1
 72
     4
 94
        3
 73
     0
 74
     1
 95
       17
 96
       13
 40
0.0
 40
0.0
 40
0.0
 40
0.0
 40
1.0
 40
1.0
 40
1.0
 40
2.0
 40
2.0
 40
2.0
 40
3.0
 40
3.0
 40
3.0
 40
4.0
 40
4.0
 40
4.0
 40
4.0
 10
111.3868272290977
 20
-121.9894530945026
 10
111.3868272290977
 20
-122.2516248609301
 10
111.5983560918921
 20
-122.2895209112679
 10
111.7148003192935
 20
-122.2895209112679
 10
111.8905001890413
 20
-122.2895209112679
 10
112.0534532054936
 20
-122.194436275875
 10
112.0534532054936
 20
-122.0104681769627
 10
112.0534532054936
 20
-121.8898898349789
 10
111.9941975631473
 20
-121.7141899652312
 10
111.7085991474201
 20
-121.7141899652312
 10
111.4843234313303
 20
-121.7141899652312
 10
111.3868272290977
 20
-121.8537163323838
 10
111.3868272290977
 20
-121.9894530945026
 97
        0
 97
        0
 75
     2
 76
     1
 98
        0
  0
ENDBLK
  5
A0
330
9D
100
AcDbEntity
  8
0
100
AcDbBlockEnd
  0
BLOCK
  5
B2
330
B0
100
AcDbEntity
  8
0
100
AcDbBlockBegin
  2
block 5
 70
     0
 10
0.0
 20
0.0
 30
0.0
  3
block 5
  1

  0
SPLINE
  5
B4
330
B0
100
AcDbEntity
  8
_U+30EC_U+30A4_U+30E4_U+30FC 1
370
     0
100
AcDbSpline
210
0.0
220
0.0
230
1.0
 70
    11
 71
     3
 72
    44
 73
    40
 74
     0
 42
0.0000000001
 43
0.0000000001
 12
1.0
 22
0.0
 32
0.0
 13
1.0
 23
0.0
 33
0.0
 40
0.0
 40
0.0
 40
0.0
 40
0.0
 40
1.0
 40
1.0
 40
1.0
 40
2.0
 40
2.0
 40
2.0
 40
3.0
 40
3.0
 40
3.0
 40
4.0
 40
4.0
 40
4.0
 40
5.0
 40
5.0
 40
5.0
 40
6.0
 40
6.0
 40
6.0
 40
7.0
 40
7.0
 40
7.0
 40
8.0
 40
8.0
 40
8.0
 40
9.0
 40
9.0
 40
9.0
 40
10.0
 40
10.0
 40
10.0
 40
11.0
 40
11.0
 40
11.0
 40
12.0
 40
12.0
 40
12.0
 40
13.0
 40
13.0
 40
13.0
 40
13.0
 10
70.50422361518645
 20
-131.9967664600564
 30
0.0
 10
70.6628702622822
 20
-132.2144964947242
 30
0.0
 10
70.73693981521508
 20
-132.3075140728259
 30
0.0
 10
70.88077255172425
 20
-132.3564344287165
 30
0.0
 10
70.88077255172425
 20
-132.3564344287165
 30
0.0
 10
70.88077255172425
 20
-131.57784284905
 30
0.0
 10
70.88077255172425
 20
-131.57784284905
 30
0.0
 10
70.88077255172425
 20
-131.57784284905
 30
0.0
 10
71.08592798787089
 20
-131.57784284905
 30
0.0
 10
71.08592798787089
 20
-131.57784284905
 30
0.0
 10
71.08592798787089
 20
-131.57784284905
 30
0.0
 10
71.08592798787089
 20
-132.6058593418485
 30
0.0
 10
71.08592798787089
 20
-132.6058593418485
 30
0.0
 10
70.72832707650196
 20
-132.5741644633842
 30
0.0
 10
70.65012340898677
 20
-132.5087076491645
 30
0.0
 10
70.35177813996414
 20
-132.1235459739136
 30
0.0
 10
70.15299613046523
 20
-131.8675753793595
 30
0.0
 10
70.08530000418007
 20
-131.8021185651398
 30
0.0
 10
69.9478406943186
 20
-131.8021185651398
 30
0.0
 10
69.829329409626
 20
-131.8021185651398
 30
0.0
 10
69.69824352641224
 20
-131.8741210607815
 30
0.0
 10
69.69824352641224
 20
-132.0708360129892
 30
0.0
 10
69.69824352641224
 20
-132.3309407221256
 30
0.0
 10
69.92872041437546
 20
-132.3395534608387
 30
0.0
 10
70.0451646417769
 20
-132.343687575421
 30
0.0
 10
70.0451646417769
 20
-132.343687575421
 30
0.0
 10
70.0451646417769
 20
-132.5679632915108
 30
0.0
 10
70.0451646417769
 20
-132.5679632915108
 30
0.0
 10
69.91821287314545
 20
-132.5593505527977
 30
0.0
 10
69.80607501510056
 20
-132.5486707567934
 30
0.0
 10
69.68756373040797
 20
-132.4684000319871
 30
0.0
 10
69.52685002602107
 20
-132.3585014860076
 30
0.0
 10
69.49291583549136
 20
-132.1721218202556
 30
0.0
 10
69.49291583549136
 20
-132.0560221024027
 30
0.0
 10
69.49291583549136
 20
-131.7786919158401
 30
0.0
 10
69.67705618917796
 20
-131.571297167628
 30
0.0
 10
69.94990775160974
 20
-131.571297167628
 30
0.0
 10
70.1783175822818
 20
-131.571297167628
 30
0.0
 10
70.27788084180553
 20
-131.6877413950295
 30
0.0
 10
70.50422361518645
 20
-131.9967664600564
 30
0.0
  0
HATCH
  5
B5
330
B0
100
AcDbEntity
  8
_U+30EC_U+30A4_U+30E4_U+30FC 1
 62
     7
420
 16777215
100
AcDbHatch
 10
0.0
 20
0.0
 30
0.0
210
0.0
220
0.0
230
1.0
  2
SOLID
 70
     1
 71
     0
 91
        1
 92
        1
 93
        1
 72
     4
 94
        3
 73
     0
 74
     1
 95
       44
 96
       40
 40
0.0
 40
0.0
 40
0.0
 40
0.0
 40
1.0
 40
1.0
 40
1.0
 40
2.0
 40
2.0
 40
2.0
 40
3.0
 40
3.0
 40
3.0
 40
4.0
 40
4.0
 40
4.0
 40
5.0
 40
5.0
 40
5.0
 40
6.0
 40
6.0
 40
6.0
 40
7.0
 40
7.0
 40
7.0
 40
8.0
 40
8.0
 40
8.0
 40
9.0
 40
9.0
 40
9.0
 40
10.0
 40
10.0
 40
10.0
 40
11.0
 40
11.0
 40
11.0
 40
12.0
 40
12.0
 40
12.0
 40
13.0
 40
13.0
 40
13.0
 40
13.0
 10
70.50422361518645
 20
-131.9967664600564
 10
70.6628702622822
 20
-132.2144964947242
 10
70.73693981521508
 20
-132.3075140728259
 10
70.88077255172425
 20
-132.3564344287165
 10
70.88077255172425
 20
-132.3564344287165
 10
70.88077255172425
 20
-131.57784284905
 10
70.88077255172425
 20
-131.57784284905
 10
70.88077255172425
 20
-131.57784284905
 10
71.08592798787089
 20
-131.57784284905
 10
71.08592798787089
 20
-131.57784284905
 10
71.08592798787089
 20
-131.57784284905
 10
71.08592798787089
 20
-132.6058593418485
 10
71.08592798787089
 20
-132.6058593418485
 10
70.72832707650196
 20
-132.5741644633842
 10
70.65012340898677
 20
-132.5087076491645
 10
70.35177813996414
 20
-132.1235459739136
 10
70.15299613046523
 20
-131.8675753793595
 10
70.08530000418007
 20
-131.8021185651398
 10
69.9478406943186
 20
-131.8021185651398
 10
69.829329409626
 20
-131.8021185651398
 10
69.69824352641224
 20
-131.8741210607815
 10
69.69824352641224
 20
-132.0708360129892
 10
69.69824352641224
 20
-132.3309407221256
 10
69.92872041437546
 20
-132.3395534608387
 10
70.0451646417769
 20
-132.343687575421
 10
70.0451646417769
 20
-132.343687575421
 10
70.0451646417769
 20
-132.5679632915108
 10
70.0451646417769
 20
-132.5679632915108
 10
69.91821287314545
 20
-132.5593505527977
 10
69.80607501510056
 20
-132.5486707567934
 10
69.68756373040797
 20
-132.4684000319871
 10
69.52685002602107
 20
-132.3585014860076
 10
69.49291583549136
 20
-132.1721218202556
 10
69.49291583549136
 20
-132.0560221024027
 10
69.49291583549136
 20
-131.7786919158401
 10
69.67705618917796
 20
-131.571297167628
 10
69.94990775160974
 20
-131.571297167628
 10
70.1783175822818
 20
-131.571297167628
 10
70.27788084180553
 20
-131.6877413950295
 10
70.50422361518645
 20
-131.9967664600564
 97
        0
 97
        0
 75
     2
 76
     1
 98
        0
  0
SPLINE
  5
B6
330
B0
100
AcDbEntity
  8
_U+30EC_U+30A4_U+30E4_U+30FC 1
370
     0
100
AcDbSpline
210
0.0
220
0.0
230
1.0
 70
    11
 71
     3
 72
    53
 73
    49
 74
     0
 42
0.0000000001
 43
0.0000000001
 12
1.0
 22
0.0
 32
0.0
 13
1.0
 23
0.0
 33
0.0
 40
0.0
 40
0.0
 40
0.0
 40
0.0
 40
1.0
 40
1.0
 40
1.0
 40
2.0
 40
2.0
 40
2.0
 40
3.0
 40
3.0
 40
3.0
 40
4.0
 40
4.0
 40
4.0
 40
5.0
 40
5.0
 40
5.0
 40
6.0
 40
6.0
 40
6.0
 40
7.0
 40
7.0
 40
7.0
 40
8.0
 40
8.0
 40
8.0
 40
9.0
 40
9.0
 40
9.0
 40
10.0
 40
10.0
 40
10.0
 40
11.0
 40
11.0
 40
11.0
 40
12.0
 40
12.0
 40
12.0
 40
13.0
 40
13.0
 40
13.0
 40
14.0
 40
14.0
 40
14.0
 40
15.0
 40
15.0
 40
15.0
 40
16.0
 40
16.0
 40
16.0
 40
16.0
 10
71.13674314627832
 20
-130.9318874455656
 30
0.0
 10
71.13674314627832
 20
-131.0100911130808
 30
0.0
 10
71.11968992362632
 20
-131.1117214298957
 30
0.0
 10
71.05630016669774
 20
-131.2133517467105
 30
0.0
 10
70.946229365944
 20
-131.3866400496186
 30
0.0
 10
70.81514348273025
 20
-131.4079996416272
 30
0.0
 10
70.70731199404193
 20
-131.4269476667961
 30
0.0
 10
70.70731199404193
 20
-131.4269476667961
 30
0.0
 10
70.70731199404193
 20
-131.2047390079974
 30
0.0
 10
70.70731199404193
 20
-131.2047390079974
 30
0.0
 10
70.90609400354084
 20
-131.149961989782
 30
0.0
 10
70.935721824714
 20
-131.0228379663762
 30
0.0
 10
70.935721824714
 20
-130.9298203882745
 30
0.0
 10
70.935721824714
 20
-130.7902940211219
 30
0.0
 10
70.83633081996453
 20
-130.6380208006738
 30
0.0
 10
70.60361461993591
 20
-130.6380208006738
 30
0.0
 10
70.34764402538184
 20
-130.6380208006738
 30
0.0
 10
70.27788084180553
 20
-130.8178547850039
 30
0.0
 10
70.27788084180553
 20
-130.9384331269876
 30
0.0
 10
70.27788084180553
 20
-130.9701280054519
 30
0.0
 10
70.27788084180553
 20
-131.1117214298957
 30
0.0
 10
70.40689966772814
 20
-131.2006048934151
 30
0.0
 10
70.40689966772814
 20
-131.2006048934151
 30
0.0
 10
70.387779387785
 20
-131.3763047631629
 30
0.0
 10
70.387779387785
 20
-131.3763047631629
 30
0.0
 10
70.387779387785
 20
-131.3763047631629
 30
0.0
 10
69.54166393660765
 20
-131.2557264211791
 30
0.0
 10
69.54166393660765
 20
-131.2557264211791
 30
0.0
 10
69.54166393660765
 20
-131.2557264211791
 30
0.0
 10
69.54166393660765
 20
-130.4771348415127
 30
0.0
 10
69.54166393660765
 20
-130.4771348415127
 30
0.0
 10
69.54166393660765
 20
-130.4771348415127
 30
0.0
 10
69.73631183152426
 20
-130.4771348415127
 30
0.0
 10
69.73631183152426
 20
-130.4771348415127
 30
0.0
 10
69.73631183152426
 20
-130.4771348415127
 30
0.0
 10
69.73631183152426
 20
-131.0927734047268
 30
0.0
 10
69.73631183152426
 20
-131.0927734047268
 30
0.0
 10
69.73631183152426
 20
-131.0927734047268
 30
0.0
 10
70.15936955711294
 20
-131.1582302189466
 30
0.0
 10
70.15936955711294
 20
-131.1582302189466
 30
0.0
 10
70.12543536658323
 20
-131.0969075193091
 30
0.0
 10
70.08530000418007
 20
-131.0145697372116
 30
0.0
 10
70.08530000418007
 20
-130.896058452519
 30
0.0
 10
70.08530000418007
 20
-130.6421549152561
 30
0.0
 10
70.27150741515783
 20
-130.405132345871
 30
0.0
 10
70.58449433999277
 20
-130.405132345871
 30
0.0
 10
70.90195988895854
 20
-130.405132345871
 30
0.0
 10
71.13674314627832
 20
-130.6294080619607
 30
0.0
 10
71.13674314627832
 20
-130.9318874455656
 30
0.0
  0
HATCH
  5
B7
330
B0
100
AcDbEntity
  8
_U+30EC_U+30A4_U+30E4_U+30FC 1
 62
     7
420
 16777215
100
AcDbHatch
 10
0.0
 20
0.0
 30
0.0
210
0.0
220
0.0
230
1.0
  2
SOLID
 70
     1
 71
     0
 91
        1
 92
        1
 93
        1
 72
     4
 94
        3
 73
     0
 74
     1
 95
       53
 96
       49
 40
0.0
 40
0.0
 40
0.0
 40
0.0
 40
1.0
 40
1.0
 40
1.0
 40
2.0
 40
2.0
 40
2.0
 40
3.0
 40
3.0
 40
3.0
 40
4.0
 40
4.0
 40
4.0
 40
5.0
 40
5.0
 40
5.0
 40
6.0
 40
6.0
 40
6.0
 40
7.0
 40
7.0
 40
7.0
 40
8.0
 40
8.0
 40
8.0
 40
9.0
 40
9.0
 40
9.0
 40
10.0
 40
10.0
 40
10.0
 40
11.0
 40
11.0
 40
11.0
 40
12.0
 40
12.0
 40
12.0
 40
13.0
 40
13.0
 40
13.0
 40
14.0
 40
14.0
 40
14.0
 40
15.0
 40
15.0
 40
15.0
 40
16.0
 40
16.0
 40
16.0
 40
16.0
 10
71.13674314627832
 20
-130.9318874455656
 10
71.13674314627832
 20
-131.0100911130808
 10
71.11968992362632
 20
-131.1117214298957
 10
71.05630016669774
 20
-131.2133517467105
 10
70.946229365944
 20
-131.3866400496186
 10
70.81514348273025
 20
-131.4079996416272
 10
70.70731199404193
 20
-131.4269476667961
 10
70.70731199404193
 20
-131.4269476667961
 10
70.70731199404193
 20
-131.2047390079974
 10
70.70731199404193
 20
-131.2047390079974
 10
70.90609400354084
 20
-131.149961989782
 10
70.935721824714
 20
-131.0228379663762
 10
70.935721824714
 20
-130.9298203882745
 10
70.935721824714
 20
-130.7902940211219
 10
70.83633081996453
 20
-130.6380208006738
 10
70.60361461993591
 20
-130.6380208006738
 10
70.34764402538184
 20
-130.6380208006738
 10
70.27788084180553
 20
-130.8178547850039
 10
70.27788084180553
 20
-130.9384331269876
 10
70.27788084180553
 20
-130.9701280054519
 10
70.27788084180553
 20
-131.1117214298957
 10
70.40689966772814
 20
-131.2006048934151
 10
70.40689966772814
 20
-131.2006048934151
 10
70.387779387785
 20
-131.3763047631629
 10
70.387779387785
 20
-131.3763047631629
 10
70.387779387785
 20
-131.3763047631629
 10
69.54166393660765
 20
-131.2557264211791
 10
69.54166393660765
 20
-131.2557264211791
 10
69.54166393660765
 20
-131.2557264211791
 10
69.54166393660765
 20
-130.4771348415127
 10
69.54166393660765
 20
-130.4771348415127
 10
69.54166393660765
 20
-130.4771348415127
 10
69.73631183152426
 20
-130.4771348415127
 10
69.73631183152426
 20
-130.4771348415127
 10
69.73631183152426
 20
-130.4771348415127
 10
69.73631183152426
 20
-131.0927734047268
 10
69.73631183152426
 20
-131.0927734047268
 10
69.73631183152426
 20
-131.0927734047268
 10
70.15936955711294
 20
-131.1582302189466
 10
70.15936955711294
 20
-131.1582302189466
 10
70.12543536658323
 20
-131.0969075193091
 10
70.08530000418007
 20
-131.0145697372116
 10
70.08530000418007
 20
-130.896058452519
 10
70.08530000418007
 20
-130.6421549152561
 10
70.27150741515783
 20
-130.405132345871
 10
70.58449433999277
 20
-130.405132345871
 10
70.90195988895854
 20
-130.405132345871
 10
71.13674314627832
 20
-130.6294080619607
 10
71.13674314627832
 20
-130.9318874455656
 97
        0
 97
        0
 75
     2
 76
     1
 98
        0
  0
ENDBLK
  5
B3
330
B0
100
AcDbEntity
  8
0
100
AcDbBlockEnd
  0
BLOCK
  5
D2
330
D0
100
AcDbEntity
  8
0
100
AcDbBlockBegin
  2
block 6
 70
     0
 10
0.0
 20
0.0
 30
0.0
  3
block 6
  1

  0
SPLINE
  5
D4
330
D0
100
AcDbEntity
  8
_U+30EC_U+30A4_U+30E4_U+30FC 1
370
     0
100
AcDbSpline
210
0.0
220
0.0
230
1.0
 70
    11
 71
     3
 72
   242
 73
   238
 74
     0
 42
0.0000000001
 43
0.0000000001
 12
1.0
 22
0.0
 32
0.0
 13
1.0
 23
0.0
 33
0.0
 40
0.0
 40
0.0
 40
0.0
 40
0.0
 40
1.0
 40
1.0
 40
1.0
 40
2.0
 40
2.0
 40
2.0
 40
3.0
 40
3.0
 40
3.0
 40
4.0
 40
4.0
 40
4.0
 40
5.0
 40
5.0
 40
5.0
 40
6.0
 40
6.0
 40
6.0
 40
7.0
 40
7.0
 40
7.0
 40
8.0
 40
8.0
 40
8.0
 40
9.0
 40
9.0
 40
9.0
 40
10.0
 40
10.0
 40
10.0
 40
11.0
 40
11.0
 40
11.0
 40
12.0
 40
12.0
 40
12.0
 40
13.0
 40
13.0
 40
13.0
 40
14.0
 40
14.0
 40
14.0
 40
15.0
 40
15.0
 40
15.0
 40
16.0
 40
16.0
 40
16.0
 40
17.0
 40
17.0
 40
17.0
 40
18.0
 40
18.0
 40
18.0
 40
19.0
 40
19.0
 40
19.0
 40
20.0
 40
20.0
 40
20.0
 40
21.0
 40
21.0
 40
21.0
 40
22.0
 40
22.0
 40
22.0
 40
23.0
 40
23.0
 40
23.0
 40
24.0
 40
24.0
 40
24.0
 40
25.0
 40
25.0
 40
25.0
 40
26.0
 40
26.0
 40
26.0
 40
27.0
 40
27.0
 40
27.0
 40
28.0
 40
28.0
 40
28.0
 40
29.0
 40
29.0
 40
29.0
 40
30.0
 40
30.0
 40
30.0
 40
31.0
 40
31.0
 40
31.0
 40
32.0
 40
32.0
 40
32.0
 40
33.0
 40
33.0
 40
33.0
 40
34.0
 40
34.0
 40
34.0
 40
35.0
 40
35.0
 40
35.0
 40
36.0
 40
36.0
 40
36.0
 40
37.0
 40
37.0
 40
37.0
 40
38.0
 40
38.0
 40
38.0
 40
39.0
 40
39.0
 40
39.0
 40
40.0
 40
40.0
 40
40.0
 40
41.0
 40
41.0
 40
41.0
 40
42.0
 40
42.0
 40
42.0
 40
43.0
 40
43.0
 40
43.0
 40
44.0
 40
44.0
 40
44.0
 40
45.0
 40
45.0
 40
45.0
 40
46.0
 40
46.0
 40
46.0
 40
47.0
 40
47.0
 40
47.0
 40
48.0
 40
48.0
 40
48.0
 40
49.0
 40
49.0
 40
49.0
 40
50.0
 40
50.0
 40
50.0
 40
51.0
 40
51.0
 40
51.0
 40
52.0
 40
52.0
 40
52.0
 40
53.0
 40
53.0
 40
53.0
 40
54.0
 40
54.0
 40
54.0
 40
55.0
 40
55.0
 40
55.0
 40
56.0
 40
56.0
 40
56.0
 40
57.0
 40
57.0
 40
57.0
 40
58.0
 40
58.0
 40
58.0
 40
59.0
 40
59.0
 40
59.0
 40
60.0
 40
60.0
 40
60.0
 40
61.0
 40
61.0
 40
61.0
 40
62.0
 40
62.0
 40
62.0
 40
63.0
 40
63.0
 40
63.0
 40
64.0
 40
64.0
 40
64.0
 40
65.0
 40
65.0
 40
65.0
 40
66.0
 40
66.0
 40
66.0
 40
67.0
 40
67.0
 40
67.0
 40
68.0
 40
68.0
 40
68.0
 40
69.0
 40
69.0
 40
69.0
 40
70.0
 40
70.0
 40
70.0
 40
71.0
 40
71.0
 40
71.0
 40
72.0
 40
72.0
 40
72.0
 40
73.0
 40
73.0
 40
73.0
 40
74.0
 40
74.0
 40
74.0
 40
75.0
 40
75.0
 40
75.0
 40
76.0
 40
76.0
 40
76.0
 40
77.0
 40
77.0
 40
77.0
 40
78.0
 40
78.0
 40
78.0
 40
79.0
 40
79.0
 40
79.0
 40
79.0
 10
88.90086125164632
 20
-133.6635036558203
 30
0.0
 10
88.90086125164632
 20
-133.6635036558203
 30
0.0
 10
88.6469577143834
 20
-133.6635036558203
 30
0.0
 10
88.6469577143834
 20
-133.6635036558203
 30
0.0
 10
88.6469577143834
 20
-133.6635036558203
 30
0.0
 10
88.36997203736932
 20
-133.6635036558203
 30
0.0
 10
88.36997203736932
 20
-133.6635036558203
 30
0.0
 10
88.36997203736932
 20
-133.6635036558203
 30
0.0
 10
88.49675155122651
 20
-133.7062228398374
 30
0.0
 10
88.49675155122651
 20
-133.7062228398374
 30
0.0
 10
88.50743134723079
 20
-133.7103569544196
 30
0.0
 10
88.51983369097769
 20
-133.7165581262931
 30
0.0
 10
88.51983369097769
 20
-133.7293049795885
 30
0.0
 10
88.51983369097769
 20
-133.7503200620485
 30
0.0
 10
88.48813881251338
 20
-133.7568657434705
 30
0.0
 10
88.46712373005336
 20
-133.7609998580528
 30
0.0
 10
88.45644393404909
 20
-133.784081997804
 30
0.0
 10
88.42681611287594
 20
-133.8498833215723
 30
0.0
 10
88.40786808770706
 20
-133.894325053332
 30
0.0
 10
88.40786808770706
 20
-133.894325053332
 30
0.0
 10
88.6786525928477
 20
-133.894325053332
 30
0.0
 10
88.6786525928477
 20
-133.894325053332
 30
0.0
 10
88.76960311365829
 20
-133.894325053332
 30
0.0
 10
88.96631806586606
 20
-133.8901909387497
 30
0.0
 10
89.10825599985836
 20
-133.8815782000366
 30
0.0
 10
89.10825599985836
 20
-133.8815782000366
 30
0.0
 10
89.10825599985836
 20
-134.0593451270755
 30
0.0
 10
89.10825599985836
 20
-134.0593451270755
 30
0.0
 10
89.02557370821236
 20
-134.0548665029446
 30
0.0
 10
89.00455862575234
 20
-134.0548665029446
 30
0.0
 10
88.82472464142229
 20
-134.0507323883623
 30
0.0
 10
88.793029762958
 20
-134.2050726661015
 30
0.0
 10
88.74858803119827
 20
-134.2856879004564
 30
0.0
 10
88.70414629943855
 20
-134.3552788292584
 30
0.0
 10
88.82472464142229
 20
-134.4145344716047
 30
0.0
 10
88.93048907281947
 20
-134.4824028526641
 30
0.0
 10
89.03418644692549
 20
-134.5647406347616
 30
0.0
 10
89.03418644692549
 20
-134.5647406347616
 30
0.0
 10
88.91567516223289
 20
-134.7321722753447
 30
0.0
 10
88.91567516223289
 20
-134.7321722753447
 30
0.0
 10
88.8922485129332
 20
-134.7128797406273
 30
0.0
 10
88.87950165963777
 20
-134.7046115114627
 30
0.0
 10
88.76753605636715
 20
-134.6198621625256
 30
0.0
 10
88.71896021002513
 20
-134.5819661121878
 30
0.0
 10
88.65970456767883
 20
-134.5461371191413
 30
0.0
 10
88.57908933332398
 20
-134.501350877833
 30
0.0
 10
88.36756047052964
 20
-134.687730543585
 30
0.0
 10
88.16257728915727
 20
-134.7108126833362
 30
0.0
 10
87.87250024929924
 20
-134.7404405045093
 30
0.0
 10
87.87250024929924
 20
-134.7404405045093
 30
0.0
 10
87.76914738474174
 20
-134.5606065201793
 30
0.0
 10
87.76914738474174
 20
-134.5606065201793
 30
0.0
 10
88.08644067893326
 20
-134.556472405597
 30
0.0
 10
88.26179603913248
 20
-134.5309786990061
 30
0.0
 10
88.41406925958051
 20
-134.4210801530267
 30
0.0
 10
88.29590248443644
 20
-134.3704372493935
 30
0.0
 10
88.207019020917
 20
-134.3428764855115
 30
0.0
 10
88.17084551832187
 20
-134.3301296322161
 30
0.0
 10
88.151897493153
 20
-134.3576903960981
 30
0.0
 10
88.13708358256643
 20
-134.376638421267
 30
0.0
 10
88.10952281868443
 20
-134.4104003570224
 30
0.0
 10
88.10952281868443
 20
-134.4104003570224
 30
0.0
 10
87.91280786647667
 20
-134.3280625749249
 30
0.0
 10
87.91280786647667
 20
-134.3280625749249
 30
0.0
 10
87.99549015812266
 20
-134.2477918501186
 30
0.0
 10
88.05681285776011
 20
-134.1523627051772
 30
0.0
 10
88.11400144281525
 20
-134.0507323883623
 30
0.0
 10
87.92348766248094
 20
-134.0548665029446
 30
0.0
 10
87.90212807047239
 20
-134.0548665029446
 30
0.0
 10
87.81979028837492
 20
-134.0593451270755
 30
0.0
 10
87.81979028837492
 20
-134.0593451270755
 30
0.0
 10
87.81979028837492
 20
-133.8815782000366
 30
0.0
 10
87.81979028837492
 20
-133.8815782000366
 30
0.0
 10
87.95931665552753
 20
-133.8881238814585
 30
0.0
 10
88.16877846103073
 20
-133.8922579960408
 30
0.0
 10
88.19427216762158
 20
-133.8922579960408
 30
0.0
 10
88.2111531354993
 20
-133.8584960602854
 30
0.0
 10
88.2662746632633
 20
-133.7379177183016
 30
0.0
 10
88.28522268843217
 20
-133.6635036558203
 30
0.0
 10
88.2662746632633
 20
-133.6635036558203
 30
0.0
 10
88.0885077362244
 20
-133.6700493372422
 30
0.0
 10
87.89385984130779
 20
-133.6827961905376
 30
0.0
 10
87.89385984130779
 20
-133.6827961905376
 30
0.0
 10
87.89385984130779
 20
-133.8161213858168
 30
0.0
 10
87.89385984130779
 20
-133.8161213858168
 30
0.0
 10
87.84528399496577
 20
-133.8412705828591
 30
0.0
 10
87.78602835261947
 20
-133.8729654613234
 30
0.0
 10
87.6527031573403
 20
-133.9387667850917
 30
0.0
 10
87.6527031573403
 20
-133.9387667850917
 30
0.0
 10
87.6527031573403
 20
-134.0844943241178
 30
0.0
 10
87.6527031573403
 20
-134.0844943241178
 30
0.0
 10
87.6527031573403
 20
-134.0844943241178
 30
0.0
 10
87.6527031573403
 20
-134.5523382910147
 30
0.0
 10
87.6527031573403
 20
-134.5523382910147
 30
0.0
 10
87.6527031573403
 20
-134.6791178048719
 30
0.0
 10
87.61652965474518
 20
-134.7383734472182
 30
0.0
 10
87.33334280585764
 20
-134.7301052180536
 30
0.0
 10
87.33334280585764
 20
-134.7301052180536
 30
0.0
 10
87.22964543175162
 20
-134.5227104698415
 30
0.0
 10
87.22964543175162
 20
-134.5227104698415
 30
0.0
 10
87.29303518868022
 20
-134.5351128135885
 30
0.0
 10
87.34161103502224
 20
-134.5395914377193
 30
0.0
 10
87.38191865219966
 20
-134.5395914377193
 30
0.0
 10
87.45805526242368
 20
-134.5395914377193
 30
0.0
 10
87.46873505842795
 20
-134.5165092979681
 30
0.0
 10
87.46873505842795
 20
-134.4507079741998
 30
0.0
 10
87.46873505842795
 20
-134.4507079741998
 30
0.0
 10
87.46873505842795
 20
-134.0211045671892
 30
0.0
 10
87.46873505842795
 20
-134.0211045671892
 30
0.0
 10
87.37123885619539
 20
-134.0614121843666
 30
0.0
 10
87.35435788831767
 20
-134.0679578657886
 30
0.0
 10
87.30784909926679
 20
-134.0869058909574
 30
0.0
 10
87.30371498468449
 20
-134.1079209734175
 30
0.0
 10
87.29923636055366
 20
-134.1375487945906
 30
0.0
 10
87.2802883353848
 20
-134.1375487945906
 30
0.0
 10
87.2720201062202
 20
-134.1375487945906
 30
0.0
 10
87.26134031021591
 20
-134.1334146800083
 30
0.0
 10
87.25479462879395
 20
-134.1099880307086
 30
0.0
 10
87.25479462879395
 20
-134.1099880307086
 30
0.0
 10
87.20208466786963
 20
-133.9177517026317
 30
0.0
 10
87.20208466786963
 20
-133.9177517026317
 30
0.0
 10
87.34815671644421
 20
-133.8708984040323
 30
0.0
 10
87.41361353066397
 20
-133.8478162642811
 30
0.0
 10
87.46873505842795
 20
-133.8268011818211
 30
0.0
 10
87.46873505842795
 20
-133.8268011818211
 30
0.0
 10
87.46873505842795
 20
-133.4140787426882
 30
0.0
 10
87.46873505842795
 20
-133.4140787426882
 30
0.0
 10
87.46873505842795
 20
-133.4140787426882
 30
0.0
 10
87.41568058795511
 20
-133.4140787426882
 30
0.0
 10
87.41568058795511
 20
-133.4140787426882
 30
0.0
 10
87.41568058795511
 20
-133.4140787426882
 30
0.0
 10
87.33747692043994
 20
-133.4140787426882
 30
0.0
 10
87.33747692043994
 20
-133.4140787426882
 30
0.0
 10
87.26960853938051
 20
-133.4140787426882
 30
0.0
 10
87.26134031021591
 20
-133.4140787426882
 30
0.0
 10
87.2251668076208
 20
-133.4202799145616
 30
0.0
 10
87.2251668076208
 20
-133.4202799145616
 30
0.0
 10
87.2251668076208
 20
-133.2259765291935
 30
0.0
 10
87.2251668076208
 20
-133.2259765291935
 30
0.0
 10
87.25272757150279
 20
-133.232177701067
 30
0.0
 10
87.26134031021591
 20
-133.232177701067
 30
0.0
 10
87.33093123901797
 20
-133.232177701067
 30
0.0
 10
87.33093123901797
 20
-133.232177701067
 30
0.0
 10
87.46425643429714
 20
-133.232177701067
 30
0.0
 10
87.46425643429714
 20
-133.232177701067
 30
0.0
 10
87.46425643429714
 20
-133.1625867722649
 30
0.0
 10
87.46425643429714
 20
-133.0799044806189
 30
0.0
 10
87.46218937700598
 20
-133.0757703660366
 30
0.0
 10
87.45392114784138
 20
-132.8959363817066
 30
0.0
 10
87.45392114784138
 20
-132.8766438469892
 30
0.0
 10
87.45150958100172
 20
-132.8304795674868
 30
0.0
 10
87.45150958100172
 20
-132.8304795674868
 30
0.0
 10
87.66751706792688
 20
-132.8387477966514
 30
0.0
 10
87.66751706792688
 20
-132.8387477966514
 30
0.0
 10
87.67819686393115
 20
-132.8387477966514
 30
0.0
 10
87.69921194639117
 20
-132.8408148539426
 30
0.0
 10
87.69921194639117
 20
-132.8576958218203
 30
0.0
 10
87.69921194639117
 20
-132.8766438469892
 30
0.0
 10
87.6843980358046
 20
-132.8873236429935
 30
0.0
 10
87.65890432921375
 20
-132.9062716681623
 30
0.0
 10
87.65890432921375
 20
-132.957259081344
 30
0.0
 10
87.6527031573403
 20
-133.1856689120161
 30
0.0
 10
87.65477021463145
 20
-133.232177701067
 30
0.0
 10
87.78396129532833
 20
-133.232177701067
 30
0.0
 10
87.79636363907522
 20
-133.232177701067
 30
0.0
 10
87.89385984130779
 20
-133.2239094719024
 30
0.0
 10
87.89385984130779
 20
-133.2239094719024
 30
0.0
 10
87.89385984130779
 20
-133.4182128572704
 30
0.0
 10
87.89385984130779
 20
-133.4182128572704
 30
0.0
 10
87.85561928142151
 20
-133.4161457999793
 30
0.0
 10
87.78809540991062
 20
-133.412011685397
 30
0.0
 10
87.6527031573403
 20
-133.4140787426882
 30
0.0
 10
87.6527031573403
 20
-133.4140787426882
 30
0.0
 10
87.6527031573403
 20
-133.7523871193397
 30
0.0
 10
87.6527031573403
 20
-133.7523871193397
 30
0.0
 10
87.70748017555577
 20
-133.7293049795885
 30
0.0
 10
87.77328149932404
 20
-133.7017442157065
 30
0.0
 10
87.82185734566606
 20
-133.6786620759553
 30
0.0
 10
87.82185734566606
 20
-133.6786620759553
 30
0.0
 10
87.82185734566606
 20
-133.5008951489164
 30
0.0
 10
87.82185734566606
 20
-133.5008951489164
 30
0.0
 10
87.93623451577636
 20
-133.5132974926634
 30
0.0
 10
88.05474580046895
 20
-133.5132974926634
 30
0.0
 10
88.17084551832187
 20
-133.5132974926634
 30
0.0
 10
88.1477633785707
 20
-133.4182128572704
 30
0.0
 10
88.12020261468871
 20
-133.335875075173
 30
0.0
 10
88.05681285776011
 20
-133.2025498798938
 30
0.0
 10
88.01237112600039
 20
-133.204616937185
 30
0.0
 10
87.9296888343544
 20
-133.2087510517673
 30
0.0
 10
87.89179278401664
 20
-133.2108181090584
 30
0.0
 10
87.89179278401664
 20
-133.2108181090584
 30
0.0
 10
87.89179278401664
 20
-133.0309841247284
 30
0.0
 10
87.89179278401664
 20
-133.0309841247284
 30
0.0
 10
88.01650524058269
 20
-133.0395968634415
 30
0.0
 10
88.19013805303928
 20
-133.0440754875723
 30
0.0
 10
88.27247583513675
 20
-133.0440754875723
 30
0.0
 10
88.27247583513675
 20
-133.0440754875723
 30
0.0
 10
88.35515812678274
 20
-133.0440754875723
 30
0.0
 10
88.35515812678274
 20
-133.0440754875723
 30
0.0
 10
88.35515812678274
 20
-132.8807779615715
 30
0.0
 10
88.35515812678274
 20
-132.8704426751157
 30
0.0
 10
88.35274655994307
 20
-132.8153211473517
 30
0.0
 10
88.35274655994307
 20
-132.8153211473517
 30
0.0
 10
88.57702227603284
 20
-132.8408148539426
 30
0.0
 10
88.57702227603284
 20
-132.8408148539426
 30
0.0
 10
88.58150090016366
 20
-132.8408148539426
 30
0.0
 10
88.60251598262369
 20
-132.8428819112337
 30
0.0
 10
88.60251598262369
 20
-132.8597628791115
 30
0.0
 10
88.60251598262369
 20
-132.874576789698
 30
0.0
 10
88.5918361866194
 20
-132.8831895284112
 30
0.0
 10
88.56427542273741
 20
-132.8980034389977
 30
0.0
 10
88.55807425086395
 20
-132.9634602532175
 30
0.0
 10
88.55600719357281
 20
-132.984819845226
 30
0.0
 10
88.55600719357281
 20
-133.0440754875723
 30
0.0
 10
88.55600719357281
 20
-133.0440754875723
 30
0.0
 10
88.6510918289657
 20
-133.0440754875723
 30
0.0
 10
88.6510918289657
 20
-133.0440754875723
 30
0.0
 10
88.7337741206117
 20
-133.0440754875723
 30
0.0
 10
88.90706242351976
 20
-133.0395968634415
 30
0.0
 10
89.03211938963433
 20
-133.0309841247284
 30
0.0
 10
89.03211938963433
 20
-133.0309841247284
 30
0.0
 10
89.03211938963433
 20
-133.2108181090584
 30
0.0
 10
89.03211938963433
 20
-133.2108181090584
 30
0.0
 10
89.00249156846118
 20
-133.2087510517673
 30
0.0
 10
88.8839802837686
 20
-133.204616937185
 30
0.0
 10
88.84367266659117
 20
-133.2025498798938
 30
0.0
 10
88.82885875600459
 20
-133.2535372930755
 30
0.0
 10
88.79509682024914
 20
-133.3655028963461
 30
0.0
 10
88.72929549648087
 20
-133.5050292634988
 30
0.0
 10
88.77167017094945
 20
-133.5050292634988
 30
0.0
 10
89.04900035751206
 20
-133.4860812383299
 30
0.0
 10
89.1103230571495
 20
-133.4836696714902
 30
0.0
 10
89.1103230571495
 20
-133.4836696714902
 30
0.0
 10
89.1103230571495
 20
-133.6679822799511
 30
0.0
 10
89.1103230571495
 20
-133.6679822799511
 30
0.0
 10
89.08069523597636
 20
-133.6679822799511
 30
0.0
 10
89.06381426809864
 20
-133.6635036558203
 30
0.0
 10
88.90086125164632
 20
-133.6635036558203
 30
0.0
  0
SPLINE
  5
D5
330
D0
100
AcDbEntity
  8
_U+30EC_U+30A4_U+30E4_U+30FC 1
370
     0
100
AcDbSpline
210
0.0
220
0.0
230
1.0
 70
    11
 71
     3
 72
    20
 73
    16
 74
     0
 42
0.0000000001
 43
0.0000000001
 12
1.0
 22
0.0
 32
0.0
 13
1.0
 23
0.0
 33
0.0
 40
0.0
 40
0.0
 40
0.0
 40
0.0
 40
1.0
 40
1.0
 40
1.0
 40
2.0
 40
2.0
 40
2.0
 40
3.0
 40
3.0
 40
3.0
 40
4.0
 40
4.0
 40
4.0
 40
5.0
 40
5.0
 40
5.0
 40
5.0
 10
88.27247583513675
 20
-133.1984157653115
 30
0.0
 10
88.27247583513675
 20
-133.1984157653115
 30
0.0
 10
88.24078095667245
 20
-133.1984157653115
 30
0.0
 10
88.24078095667245
 20
-133.1984157653115
 30
0.0
 10
88.28728974572331
 20
-133.2976345152867
 30
0.0
 10
88.31898462418762
 20
-133.3782497496416
 30
0.0
 10
88.35274655994307
 20
-133.5050292634988
 30
0.0
 10
88.35274655994307
 20
-133.5050292634988
 30
0.0
 10
88.56014130815511
 20
-133.5050292634988
 30
0.0
 10
88.56014130815511
 20
-133.5050292634988
 30
0.0
 10
88.5918361866194
 20
-133.412011685397
 30
0.0
 10
88.61526283591911
 20
-133.3272623364599
 30
0.0
 10
88.63834497567028
 20
-133.1984157653115
 30
0.0
 10
88.63834497567028
 20
-133.1984157653115
 30
0.0
 10
88.27247583513675
 20
-133.1984157653115
 30
0.0
 10
88.27247583513675
 20
-133.1984157653115
 30
0.0
  0
SPLINE
  5
D6
330
D0
100
AcDbEntity
  8
_U+30EC_U+30A4_U+30E4_U+30FC 1
370
     0
100
AcDbSpline
210
0.0
220
0.0
230
1.0
 70
    11
 71
     3
 72
    17
 73
    13
 74
     0
 42
0.0000000001
 43
0.0000000001
 12
1.0
 22
0.0
 32
0.0
 13
1.0
 23
0.0
 33
0.0
 40
0.0
 40
0.0
 40
0.0
 40
0.0
 40
1.0
 40
1.0
 40
1.0
 40
2.0
 40
2.0
 40
2.0
 40
3.0
 40
3.0
 40
3.0
 40
4.0
 40
4.0
 40
4.0
 40
4.0
 10
88.33586559206535
 20
-134.0486653310712
 30
0.0
 10
88.31898462418762
 20
-134.0782931522443
 30
0.0
 10
88.26834172055445
 20
-134.1713107303461
 30
0.0
 10
88.25766192455018
 20
-134.1906032650635
 30
0.0
 10
88.44817570488449
 20
-134.2498589074098
 30
0.0
 10
88.46919078734452
 20
-134.2560600792832
 30
0.0
 10
88.54119328298623
 20
-134.2836208431652
 30
0.0
 10
88.59631481075023
 20
-134.1968044369369
 30
0.0
 10
88.61939695050141
 20
-134.122734884004
 30
0.0
 10
88.63421086108798
 20
-134.0486653310712
 30
0.0
 10
88.63421086108798
 20
-134.0486653310712
 30
0.0
 10
88.33586559206535
 20
-134.0486653310712
 30
0.0
 10
88.33586559206535
 20
-134.0486653310712
 30
0.0
  0
HATCH
  5
D7
330
D0
100
AcDbEntity
  8
_U+30EC_U+30A4_U+30E4_U+30FC 1
 62
   179
420
  2234388
100
AcDbHatch
 10
0.0
 20
0.0
 30
0.0
210
0.0
220
0.0
230
1.0
  2
SOLID
 70
     1
 71
     0
 91
        3
 92
        1
 93
        1
 72
     4
 94
        3
 73
     0
 74
     1
 95
      242
 96
      238
 40
0.0
 40
0.0
 40
0.0
 40
0.0
 40
1.0
 40
1.0
 40
1.0
 40
2.0
 40
2.0
 40
2.0
 40
3.0
 40
3.0
 40
3.0
 40
4.0
 40
4.0
 40
4.0
 40
5.0
 40
5.0
 40
5.0
 40
6.0
 40
6.0
 40
6.0
 40
7.0
 40
7.0
 40
7.0
 40
8.0
 40
8.0
 40
8.0
 40
9.0
 40
9.0
 40
9.0
 40
10.0
 40
10.0
 40
10.0
 40
11.0
 40
11.0
 40
11.0
 40
12.0
 40
12.0
 40
12.0
 40
13.0
 40
13.0
 40
13.0
 40
14.0
 40
14.0
 40
14.0
 40
15.0
 40
15.0
 40
15.0
 40
16.0
 40
16.0
 40
16.0
 40
17.0
 40
17.0
 40
17.0
 40
18.0
 40
18.0
 40
18.0
 40
19.0
 40
19.0
 40
19.0
 40
20.0
 40
20.0
 40
20.0
 40
21.0
 40
21.0
 40
21.0
 40
22.0
 40
22.0
 40
22.0
 40
23.0
 40
23.0
 40
23.0
 40
24.0
 40
24.0
 40
24.0
 40
25.0
 40
25.0
 40
25.0
 40
26.0
 40
26.0
 40
26.0
 40
27.0
 40
27.0
 40
27.0
 40
28.0
 40
28.0
 40
28.0
 40
29.0
 40
29.0
 40
29.0
 40
30.0
 40
30.0
 40
30.0
 40
31.0
 40
31.0
 40
31.0
 40
32.0
 40
32.0
 40
32.0
 40
33.0
 40
33.0
 40
33.0
 40
34.0
 40
34.0
 40
34.0
 40
35.0
 40
35.0
 40
35.0
 40
36.0
 40
36.0
 40
36.0
 40
37.0
 40
37.0
 40
37.0
 40
38.0
 40
38.0
 40
38.0
 40
39.0
 40
39.0
 40
39.0
 40
40.0
 40
40.0
 40
40.0
 40
41.0
 40
41.0
 40
41.0
 40
42.0
 40
42.0
 40
42.0
 40
43.0
 40
43.0
 40
43.0
 40
44.0
 40
44.0
 40
44.0
 40
45.0
 40
45.0
 40
45.0
 40
46.0
 40
46.0
 40
46.0
 40
47.0
 40
47.0
 40
47.0
 40
48.0
 40
48.0
 40
48.0
 40
49.0
 40
49.0
 40
49.0
 40
50.0
 40
50.0
 40
50.0
 40
51.0
 40
51.0
 40
51.0
 40
52.0
 40
52.0
 40
52.0
 40
53.0
 40
53.0
 40
53.0
 40
54.0
 40
54.0
 40
54.0
 40
55.0
 40
55.0
 40
55.0
 40
56.0
 40
56.0
 40
56.0
 40
57.0
 40
57.0
 40
57.0
 40
58.0
 40
58.0
 40
58.0
 40
59.0
 40
59.0
 40
59.0
 40
60.0
 40
60.0
 40
60.0
 40
61.0
 40
61.0
 40
61.0
 40
62.0
 40
62.0
 40
62.0
 40
63.0
 40
63.0
 40
63.0
 40
64.0
 40
64.0
 40
64.0
 40
65.0
 40
65.0
 40
65.0
 40
66.0
 40
66.0
 40
66.0
 40
67.0
 40
67.0
 40
67.0
 40
68.0
 40
68.0
 40
68.0
 40
69.0
 40
69.0
 40
69.0
 40
70.0
 40
70.0
 40
70.0
 40
71.0
 40
71.0
 40
71.0
 40
72.0
 40
72.0
 40
72.0
 40
73.0
 40
73.0
 40
73.0
 40
74.0
 40
74.0
 40
74.0
 40
75.0
 40
75.0
 40
75.0
 40
76.0
 40
76.0
 40
76.0
 40
77.0
 40
77.0
 40
77.0
 40
78.0
 40
78.0
 40
78.0
 40
79.0
 40
79.0
 40
79.0
 40
79.0
 10
88.90086125164632
 20
-133.6635036558203
 10
88.90086125164632
 20
-133.6635036558203
 10
88.6469577143834
 20
-133.6635036558203
 10
88.6469577143834
 20
-133.6635036558203
 10
88.6469577143834
 20
-133.6635036558203
 10
88.36997203736932
 20
-133.6635036558203
 10
88.36997203736932
 20
-133.6635036558203
 10
88.36997203736932
 20
-133.6635036558203
 10
88.49675155122651
 20
-133.7062228398374
 10
88.49675155122651
 20
-133.7062228398374
 10
88.50743134723079
 20
-133.7103569544196
 10
88.51983369097769
 20
-133.7165581262931
 10
88.51983369097769
 20
-133.7293049795885
 10
88.51983369097769
 20
-133.7503200620485
 10
88.48813881251338
 20
-133.7568657434705
 10
88.46712373005336
 20
-133.7609998580528
 10
88.45644393404909
 20
-133.784081997804
 10
88.42681611287594
 20
-133.8498833215723
 10
88.40786808770706
 20
-133.894325053332
 10
88.40786808770706
 20
-133.894325053332
 10
88.6786525928477
 20
-133.894325053332
 10
88.6786525928477
 20
-133.894325053332
 10
88.76960311365829
 20
-133.894325053332
 10
88.96631806586606
 20
-133.8901909387497
 10
89.10825599985836
 20
-133.8815782000366
 10
89.10825599985836
 20
-133.8815782000366
 10
89.10825599985836
 20
-134.0593451270755
 10
89.10825599985836
 20
-134.0593451270755
 10
89.02557370821236
 20
-134.0548665029446
 10
89.00455862575234
 20
-134.0548665029446
 10
88.82472464142229
 20
-134.0507323883623
 10
88.793029762958
 20
-134.2050726661015
 10
88.74858803119827
 20
-134.2856879004564
 10
88.70414629943855
 20
-134.3552788292584
 10
88.82472464142229
 20
-134.4145344716047
 10
88.93048907281947
 20
-134.4824028526641
 10
89.03418644692549
 20
-134.5647406347616
 10
89.03418644692549
 20
-134.5647406347616
 10
88.91567516223289
 20
-134.7321722753447
 10
88.91567516223289
 20
-134.7321722753447
 10
88.8922485129332
 20
-134.7128797406273
 10
88.87950165963777
 20
-134.7046115114627
 10
88.76753605636715
 20
-134.6198621625256
 10
88.71896021002513
 20
-134.5819661121878
 10
88.65970456767883
 20
-134.5461371191413
 10
88.57908933332398
 20
-134.501350877833
 10
88.36756047052964
 20
-134.687730543585
 10
88.16257728915727
 20
-134.7108126833362
 10
87.87250024929924
 20
-134.7404405045093
 10
87.87250024929924
 20
-134.7404405045093
 10
87.76914738474174
 20
-134.5606065201793
 10
87.76914738474174
 20
-134.5606065201793
 10
88.08644067893326
 20
-134.556472405597
 10
88.26179603913248
 20
-134.5309786990061
 10
88.41406925958051
 20
-134.4210801530267
 10
88.29590248443644
 20
-134.3704372493935
 10
88.207019020917
 20
-134.3428764855115
 10
88.17084551832187
 20
-134.3301296322161
 10
88.151897493153
 20
-134.3576903960981
 10
88.13708358256643
 20
-134.376638421267
 10
88.10952281868443
 20
-134.4104003570224
 10
88.10952281868443
 20
-134.4104003570224
 10
87.91280786647667
 20
-134.3280625749249
 10
87.91280786647667
 20
-134.3280625749249
 10
87.99549015812266
 20
-134.2477918501186
 10
88.05681285776011
 20
-134.1523627051772
 10
88.11400144281525
 20
-134.0507323883623
 10
87.92348766248094
 20
-134.0548665029446
 10
87.90212807047239
 20
-134.0548665029446
 10
87.81979028837492
 20
-134.0593451270755
 10
87.81979028837492
 20
-134.0593451270755
 10
87.81979028837492
 20
-133.8815782000366
 10
87.81979028837492
 20
-133.8815782000366
 10
87.95931665552753
 20
-133.8881238814585
 10
88.16877846103073
 20
-133.8922579960408
 10
88.19427216762158
 20
-133.8922579960408
 10
88.2111531354993
 20
-133.8584960602854
 10
88.2662746632633
 20
-133.7379177183016
 10
88.28522268843217
 20
-133.6635036558203
 10
88.2662746632633
 20
-133.6635036558203
 10
88.0885077362244
 20
-133.6700493372422
 10
87.89385984130779
 20
-133.6827961905376
 10
87.89385984130779
 20
-133.6827961905376
 10
87.89385984130779
 20
-133.8161213858168
 10
87.89385984130779
 20
-133.8161213858168
 10
87.84528399496577
 20
-133.8412705828591
 10
87.78602835261947
 20
-133.8729654613234
 10
87.6527031573403
 20
-133.9387667850917
 10
87.6527031573403
 20
-133.9387667850917
 10
87.6527031573403
 20
-134.0844943241178
 10
87.6527031573403
 20
-134.0844943241178
 10
87.6527031573403
 20
-134.0844943241178
 10
87.6527031573403
 20
-134.5523382910147
 10
87.6527031573403
 20
-134.5523382910147
 10
87.6527031573403
 20
-134.6791178048719
 10
87.61652965474518
 20
-134.7383734472182
 10
87.33334280585764
 20
-134.7301052180536
 10
87.33334280585764
 20
-134.7301052180536
 10
87.22964543175162
 20
-134.5227104698415
 10
87.22964543175162
 20
-134.5227104698415
 10
87.29303518868022
 20
-134.5351128135885
 10
87.34161103502224
 20
-134.5395914377193
 10
87.38191865219966
 20
-134.5395914377193
 10
87.45805526242368
 20
-134.5395914377193
 10
87.46873505842795
 20
-134.5165092979681
 10
87.46873505842795
 20
-134.4507079741998
 10
87.46873505842795
 20
-134.4507079741998
 10
87.46873505842795
 20
-134.0211045671892
 10
87.46873505842795
 20
-134.0211045671892
 10
87.37123885619539
 20
-134.0614121843666
 10
87.35435788831767
 20
-134.0679578657886
 10
87.30784909926679
 20
-134.0869058909574
 10
87.30371498468449
 20
-134.1079209734175
 10
87.29923636055366
 20
-134.1375487945906
 10
87.2802883353848
 20
-134.1375487945906
 10
87.2720201062202
 20
-134.1375487945906
 10
87.26134031021591
 20
-134.1334146800083
 10
87.25479462879395
 20
-134.1099880307086
 10
87.25479462879395
 20
-134.1099880307086
 10
87.20208466786963
 20
-133.9177517026317
 10
87.20208466786963
 20
-133.9177517026317
 10
87.34815671644421
 20
-133.8708984040323
 10
87.41361353066397
 20
-133.8478162642811
 10
87.46873505842795
 20
-133.8268011818211
 10
87.46873505842795
 20
-133.8268011818211
 10
87.46873505842795
 20
-133.4140787426882
 10
87.46873505842795
 20
-133.4140787426882
 10
87.46873505842795
 20
-133.4140787426882
 10
87.41568058795511
 20
-133.4140787426882
 10
87.41568058795511
 20
-133.4140787426882
 10
87.41568058795511
 20
-133.4140787426882
 10
87.33747692043994
 20
-133.4140787426882
 10
87.33747692043994
 20
-133.4140787426882
 10
87.26960853938051
 20
-133.4140787426882
 10
87.26134031021591
 20
-133.4140787426882
 10
87.2251668076208
 20
-133.4202799145616
 10
87.2251668076208
 20
-133.4202799145616
 10
87.2251668076208
 20
-133.2259765291935
 10
87.2251668076208
 20
-133.2259765291935
 10
87.25272757150279
 20
-133.232177701067
 10
87.26134031021591
 20
-133.232177701067
 10
87.33093123901797
 20
-133.232177701067
 10
87.33093123901797
 20
-133.232177701067
 10
87.46425643429714
 20
-133.232177701067
 10
87.46425643429714
 20
-133.232177701067
 10
87.46425643429714
 20
-133.1625867722649
 10
87.46425643429714
 20
-133.0799044806189
 10
87.46218937700598
 20
-133.0757703660366
 10
87.45392114784138
 20
-132.8959363817066
 10
87.45392114784138
 20
-132.8766438469892
 10
87.45150958100172
 20
-132.8304795674868
 10
87.45150958100172
 20
-132.8304795674868
 10
87.66751706792688
 20
-132.8387477966514
 10
87.66751706792688
 20
-132.8387477966514
 10
87.67819686393115
 20
-132.8387477966514
 10
87.69921194639117
 20
-132.8408148539426
 10
87.69921194639117
 20
-132.8576958218203
 10
87.69921194639117
 20
-132.8766438469892
 10
87.6843980358046
 20
-132.8873236429935
 10
87.65890432921375
 20
-132.9062716681623
 10
87.65890432921375
 20
-132.957259081344
 10
87.6527031573403
 20
-133.1856689120161
 10
87.65477021463145
 20
-133.232177701067
 10
87.78396129532833
 20
-133.232177701067
 10
87.79636363907522
 20
-133.232177701067
 10
87.89385984130779
 20
-133.2239094719024
 10
87.89385984130779
 20
-133.2239094719024
 10
87.89385984130779
 20
-133.4182128572704
 10
87.89385984130779
 20
-133.4182128572704
 10
87.85561928142151
 20
-133.4161457999793
 10
87.78809540991062
 20
-133.412011685397
 10
87.6527031573403
 20
-133.4140787426882
 10
87.6527031573403
 20
-133.4140787426882
 10
87.6527031573403
 20
-133.7523871193397
 10
87.6527031573403
 20
-133.7523871193397
 10
87.70748017555577
 20
-133.7293049795885
 10
87.77328149932404
 20
-133.7017442157065
 10
87.82185734566606
 20
-133.6786620759553
 10
87.82185734566606
 20
-133.6786620759553
 10
87.82185734566606
 20
-133.5008951489164
 10
87.82185734566606
 20
-133.5008951489164
 10
87.93623451577636
 20
-133.5132974926634
 10
88.05474580046895
 20
-133.5132974926634
 10
88.17084551832187
 20
-133.5132974926634
 10
88.1477633785707
 20
-133.4182128572704
 10
88.12020261468871
 20
-133.335875075173
 10
88.05681285776011
 20
-133.2025498798938
 10
88.01237112600039
 20
-133.204616937185
 10
87.9296888343544
 20
-133.2087510517673
 10
87.89179278401664
 20
-133.2108181090584
 10
87.89179278401664
 20
-133.2108181090584
 10
87.89179278401664
 20
-133.0309841247284
 10
87.89179278401664
 20
-133.0309841247284
 10
88.01650524058269
 20
-133.0395968634415
 10
88.19013805303928
 20
-133.0440754875723
 10
88.27247583513675
 20
-133.0440754875723
 10
88.27247583513675
 20
-133.0440754875723
 10
88.35515812678274
 20
-133.0440754875723
 10
88.35515812678274
 20
-133.0440754875723
 10
88.35515812678274
 20
-132.8807779615715
 10
88.35515812678274
 20
-132.8704426751157
 10
88.35274655994307
 20
-132.8153211473517
 10
88.35274655994307
 20
-132.8153211473517
 10
88.57702227603284
 20
-132.8408148539426
 10
88.57702227603284
 20
-132.8408148539426
 10
88.58150090016366
 20
-132.8408148539426
 10
88.60251598262369
 20
-132.8428819112337
 10
88.60251598262369
 20
-132.8597628791115
 10
88.60251598262369
 20
-132.874576789698
 10
88.5918361866194
 20
-132.8831895284112
 10
88.56427542273741
 20
-132.8980034389977
 10
88.55807425086395
 20
-132.9634602532175
 10
88.55600719357281
 20
-132.984819845226
 10
88.55600719357281
 20
-133.0440754875723
 10
88.55600719357281
 20
-133.0440754875723
 10
88.6510918289657
 20
-133.0440754875723
 10
88.6510918289657
 20
-133.0440754875723
 10
88.7337741206117
 20
-133.0440754875723
 10
88.90706242351976
 20
-133.0395968634415
 10
89.03211938963433
 20
-133.0309841247284
 10
89.03211938963433
 20
-133.0309841247284
 10
89.03211938963433
 20
-133.2108181090584
 10
89.03211938963433
 20
-133.2108181090584
 10
89.00249156846118
 20
-133.2087510517673
 10
88.8839802837686
 20
-133.204616937185
 10
88.84367266659117
 20
-133.2025498798938
 10
88.82885875600459
 20
-133.2535372930755
 10
88.79509682024914
 20
-133.3655028963461
 10
88.72929549648087
 20
-133.5050292634988
 10
88.77167017094945
 20
-133.5050292634988
 10
89.04900035751206
 20
-133.4860812383299
 10
89.1103230571495
 20
-133.4836696714902
 10
89.1103230571495
 20
-133.4836696714902
 10
89.1103230571495
 20
-133.6679822799511
 10
89.1103230571495
 20
-133.6679822799511
 10
89.08069523597636
 20
-133.6679822799511
 10
89.06381426809864
 20
-133.6635036558203
 10
88.90086125164632
 20
-133.6635036558203
 97
        0
 97
        0
 92
        1
 93
        1
 72
     4
 94
        3
 73
     0
 74
     1
 95
       20
 96
       16
 40
0.0
 40
0.0
 40
0.0
 40
0.0
 40
1.0
 40
1.0
 40
1.0
 40
2.0
 40
2.0
 40
2.0
 40
3.0
 40
3.0
 40
3.0
 40
4.0
 40
4.0
 40
4.0
 40
5.0
 40
5.0
 40
5.0
 40
5.0
 10
88.27247583513675
 20
-133.1984157653115
 10
88.27247583513675
 20
-133.1984157653115
 10
88.24078095667245
 20
-133.1984157653115
 10
88.24078095667245
 20
-133.1984157653115
 10
88.28728974572331
 20
-133.2976345152867
 10
88.31898462418762
 20
-133.3782497496416
 10
88.35274655994307
 20
-133.5050292634988
 10
88.35274655994307
 20
-133.5050292634988
 10
88.56014130815511
 20
-133.5050292634988
 10
88.56014130815511
 20
-133.5050292634988
 10
88.5918361866194
 20
-133.412011685397
 10
88.61526283591911
 20
-133.3272623364599
 10
88.63834497567028
 20
-133.1984157653115
 10
88.63834497567028
 20
-133.1984157653115
 10
88.27247583513675
 20
-133.1984157653115
 10
88.27247583513675
 20
-133.1984157653115
 97
        0
 97
        0
 92
        1
 93
        1
 72
     4
 94
        3
 73
     0
 74
     1
 95
       17
 96
       13
 40
0.0
 40
0.0
 40
0.0
 40
0.0
 40
1.0
 40
1.0
 40
1.0
 40
2.0
 40
2.0
 40
2.0
 40
3.0
 40
3.0
 40
3.0
 40
4.0
 40
4.0
 40
4.0
 40
4.0
 10
88.33586559206535
 20
-134.0486653310712
 10
88.31898462418762
 20
-134.0782931522443
 10
88.26834172055445
 20
-134.1713107303461
 10
88.25766192455018
 20
-134.1906032650635
 10
88.44817570488449
 20
-134.2498589074098
 10
88.46919078734452
 20
-134.2560600792832
 10
88.54119328298623
 20
-134.2836208431652
 10
88.59631481075023
 20
-134.1968044369369
 10
88.61939695050141
 20
-134.122734884004
 10
88.63421086108798
 20
-134.0486653310712
 10
88.63421086108798
 20
-134.0486653310712
 10
88.33586559206535
 20
-134.0486653310712
 10
88.33586559206535
 20
-134.0486653310712
 97
        0
 97
        0
 75
     2
 76
     1
 98
        0
  0
SPLINE
  5
D8
330
D0
100
AcDbEntity
  8
_U+30EC_U+30A4_U+30E4_U+30FC 1
370
     0
100
AcDbSpline
210
0.0
220
0.0
230
1.0
 70
    11
 71
     3
 72
   203
 73
   199
 74
     0
 42
0.0000000001
 43
0.0000000001
 12
1.0
 22
0.0
 32
0.0
 13
1.0
 23
0.0
 33
0.0
 40
0.0
 40
0.0
 40
0.0
 40
0.0
 40
1.0
 40
1.0
 40
1.0
 40
2.0
 40
2.0
 40
2.0
 40
3.0
 40
3.0
 40
3.0
 40
4.0
 40
4.0
 40
4.0
 40
5.0
 40
5.0
 40
5.0
 40
6.0
 40
6.0
 40
6.0
 40
7.0
 40
7.0
 40
7.0
 40
8.0
 40
8.0
 40
8.0
 40
9.0
 40
9.0
 40
9.0
 40
10.0
 40
10.0
 40
10.0
 40
11.0
 40
11.0
 40
11.0
 40
12.0
 40
12.0
 40
12.0
 40
13.0
 40
13.0
 40
13.0
 40
14.0
 40
14.0
 40
14.0
 40
15.0
 40
15.0
 40
15.0
 40
16.0
 40
16.0
 40
16.0
 40
17.0
 40
17.0
 40
17.0
 40
18.0
 40
18.0
 40
18.0
 40
19.0
 40
19.0
 40
19.0
 40
20.0
 40
20.0
 40
20.0
 40
21.0
 40
21.0
 40
21.0
 40
22.0
 40
22.0
 40
22.0
 40
23.0
 40
23.0
 40
23.0
 40
24.0
 40
24.0
 40
24.0
 40
25.0
 40
25.0
 40
25.0
 40
26.0
 40
26.0
 40
26.0
 40
27.0
 40
27.0
 40
27.0
 40
28.0
 40
28.0
 40
28.0
 40
29.0
 40
29.0
 40
29.0
 40
30.0
 40
30.0
 40
30.0
 40
31.0
 40
31.0
 40
31.0
 40
32.0
 40
32.0
 40
32.0
 40
33.0
 40
33.0
 40
33.0
 40
34.0
 40
34.0
 40
34.0
 40
35.0
 40
35.0
 40
35.0
 40
36.0
 40
36.0
 40
36.0
 40
37.0
 40
37.0
 40
37.0
 40
38.0
 40
38.0
 40
38.0
 40
39.0
 40
39.0
 40
39.0
 40
40.0
 40
40.0
 40
40.0
 40
41.0
 40
41.0
 40
41.0
 40
42.0
 40
42.0
 40
42.0
 40
43.0
 40
43.0
 40
43.0
 40
44.0
 40
44.0
 40
44.0
 40
45.0
 40
45.0
 40
45.0
 40
46.0
 40
46.0
 40
46.0
 40
47.0
 40
47.0
 40
47.0
 40
48.0
 40
48.0
 40
48.0
 40
49.0
 40
49.0
 40
49.0
 40
50.0
 40
50.0
 40
50.0
 40
51.0
 40
51.0
 40
51.0
 40
52.0
 40
52.0
 40
52.0
 40
53.0
 40
53.0
 40
53.0
 40
54.0
 40
54.0
 40
54.0
 40
55.0
 40
55.0
 40
55.0
 40
56.0
 40
56.0
 40
56.0
 40
57.0
 40
57.0
 40
57.0
 40
58.0
 40
58.0
 40
58.0
 40
59.0
 40
59.0
 40
59.0
 40
60.0
 40
60.0
 40
60.0
 40
61.0
 40
61.0
 40
61.0
 40
62.0
 40
62.0
 40
62.0
 40
63.0
 40
63.0
 40
63.0
 40
64.0
 40
64.0
 40
64.0
 40
65.0
 40
65.0
 40
65.0
 40
66.0
 40
66.0
 40
66.0
 40
66.0
 10
90.59240313490399
 20
-133.7313720368797
 30
0.0
 10
90.59240313490399
 20
-133.7313720368797
 30
0.0
 10
90.03360864719646
 20
-133.7313720368797
 30
0.0
 10
90.03360864719646
 20
-133.7313720368797
 30
0.0
 10
90.02327336074072
 20
-133.7758137686394
 30
0.0
 10
90.01466062202759
 20
-133.8075086471037
 30
0.0
 10
90.00191376873217
 20
-133.84574920699
 30
0.0
 10
90.02740747532302
 20
-133.84574920699
 30
0.0
 10
90.04222138590958
 20
-133.8478162642811
 30
0.0
 10
90.04842255778304
 20
-133.8478162642811
 30
0.0
 10
90.04842255778304
 20
-133.8478162642811
 30
0.0
 10
90.2368692808262
 20
-133.8478162642811
 30
0.0
 10
90.2368692808262
 20
-133.8478162642811
 30
0.0
 10
90.2368692808262
 20
-133.8478162642811
 30
0.0
 10
90.61135116007286
 20
-133.8478162642811
 30
0.0
 10
90.61135116007286
 20
-133.8478162642811
 30
0.0
 10
90.66199406370603
 20
-133.8478162642811
 30
0.0
 10
90.9455254221421
 20
-133.8350694109857
 30
0.0
 10
90.97722030060639
 20
-133.8350694109857
 30
0.0
 10
90.97515324331525
 20
-133.8626301748677
 30
0.0
 10
90.97308618602409
 20
-133.8815782000366
 30
0.0
 10
90.97308618602409
 20
-133.9112060212097
 30
0.0
 10
90.97101912873295
 20
-133.942900899674
 30
0.0
 10
90.97101912873295
 20
-134.0782931522443
 30
0.0
 10
90.97101912873295
 20
-134.1058539161263
 30
0.0
 10
90.97101912873295
 20
-134.1058539161263
 30
0.0
 10
90.97101912873295
 20
-134.3511447146761
 30
0.0
 10
90.97101912873295
 20
-134.3511447146761
 30
0.0
 10
90.97101912873295
 20
-134.3959309559844
 30
0.0
 10
90.97515324331525
 20
-134.5923013986436
 30
0.0
 10
90.97928735789755
 20
-134.7445746190917
 30
0.0
 10
90.97928735789755
 20
-134.7445746190917
 30
0.0
 10
90.75294458451663
 20
-134.7445746190917
 30
0.0
 10
90.75294458451663
 20
-134.7445746190917
 30
0.0
 10
90.75294458451663
 20
-134.7445746190917
 30
0.0
 10
90.75501164180778
 20
-134.7108126833362
 30
0.0
 10
90.75501164180778
 20
-134.7108126833362
 30
0.0
 10
90.75501164180778
 20
-134.7108126833362
 30
0.0
 10
90.05290118191387
 20
-134.7108126833362
 30
0.0
 10
90.05290118191387
 20
-134.7108126833362
 30
0.0
 10
90.05290118191387
 20
-134.7108126833362
 30
0.0
 10
90.05496823920501
 20
-134.7445746190917
 30
0.0
 10
90.05496823920501
 20
-134.7445746190917
 30
0.0
 10
90.05496823920501
 20
-134.7445746190917
 30
0.0
 10
89.8368936949887
 20
-134.7445746190917
 30
0.0
 10
89.8368936949887
 20
-134.7445746190917
 30
0.0
 10
89.84137231911953
 20
-134.6897976008762
 30
0.0
 10
89.84137231911953
 20
-134.6770507475808
 30
0.0
 10
89.84757349099297
 20
-134.5626735774705
 30
0.0
 10
89.84964054828413
 20
-134.5351128135885
 30
0.0
 10
89.85170760557527
 20
-134.4021321278578
 30
0.0
 10
89.85170760557527
 20
-134.3828395931404
 30
0.0
 10
89.85170760557527
 20
-134.3828395931404
 30
0.0
 10
89.85170760557527
 20
-134.1799234690592
 30
0.0
 10
89.85170760557527
 20
-134.1799234690592
 30
0.0
 10
89.71218123842266
 20
-134.4296928917398
 30
0.0
 10
89.54302705009688
 20
-134.5606065201793
 30
0.0
 10
89.43726261869972
 20
-134.626063334399
 30
0.0
 10
89.43726261869972
 20
-134.626063334399
 30
0.0
 10
89.26362980624313
 20
-134.486881476795
 30
0.0
 10
89.26362980624313
 20
-134.486881476795
 30
0.0
 10
89.35251326976257
 20
-134.4358940636133
 30
0.0
 10
89.49651826104602
 20
-134.349077657385
 30
0.0
 10
89.63397757090748
 20
-134.1547742720169
 30
0.0
 10
89.72492809171808
 20
-134.0276502486111
 30
0.0
 10
89.79038490593783
 20
-133.8839897668762
 30
0.0
 10
89.82414684169328
 20
-133.7313720368797
 30
0.0
 10
89.59573701102121
 20
-133.7337836037193
 30
0.0
 10
89.41590302669117
 20
-133.7399847755928
 30
0.0
 10
89.32081839129827
 20
-133.7420518328839
 30
0.0
 10
89.32081839129827
 20
-133.7420518328839
 30
0.0
 10
89.32081839129827
 20
-133.5642849058451
 30
0.0
 10
89.32081839129827
 20
-133.5642849058451
 30
0.0
 10
89.51753334350603
 20
-133.5704860777185
 30
0.0
 10
89.8010647019421
 20
-133.5749647018493
 30
0.0
 10
89.95127086509899
 20
-133.5749647018493
 30
0.0
 10
89.95127086509899
 20
-133.5749647018493
 30
0.0
 10
90.16486678518449
 20
-133.5749647018493
 30
0.0
 10
90.16486678518449
 20
-133.5749647018493
 30
0.0
 10
90.16486678518449
 20
-133.5749647018493
 30
0.0
 10
90.16486678518449
 20
-133.467133213161
 30
0.0
 10
90.16486678518449
 20
-133.467133213161
 30
0.0
 10
90.16486678518449
 20
-133.467133213161
 30
0.0
 10
90.01879473660989
 20
-133.467133213161
 30
0.0
 10
90.01879473660989
 20
-133.467133213161
 30
0.0
 10
89.84964054828413
 20
-133.467133213161
 30
0.0
 10
89.68048635995835
 20
-133.4712673277433
 30
0.0
 10
89.51339922892373
 20
-133.4774684996167
 30
0.0
 10
89.51339922892373
 20
-133.4774684996167
 30
0.0
 10
89.51339922892373
 20
-133.3062472539998
 30
0.0
 10
89.51339922892373
 20
-133.3062472539998
 30
0.0
 10
89.66773950666293
 20
-133.3169270500041
 30
0.0
 10
89.85377466286643
 20
-133.3169270500041
 30
0.0
 10
90.01879473660989
 20
-133.3169270500041
 30
0.0
 10
90.01879473660989
 20
-133.3169270500041
 30
0.0
 10
90.16486678518449
 20
-133.3169270500041
 30
0.0
 10
90.16486678518449
 20
-133.3169270500041
 30
0.0
 10
90.16486678518449
 20
-133.3169270500041
 30
0.0
 10
90.16486678518449
 20
-133.1984157653115
 30
0.0
 10
90.16486678518449
 20
-133.1984157653115
 30
0.0
 10
90.16486678518449
 20
-133.1984157653115
 30
0.0
 10
90.03360864719646
 20
-133.1984157653115
 30
0.0
 10
90.03360864719646
 20
-133.1984157653115
 30
0.0
 10
89.98709985814558
 20
-133.1984157653115
 30
0.0
 10
89.78418373406437
 20
-133.2066839944761
 30
0.0
 10
89.7418090595958
 20
-133.2066839944761
 30
0.0
 10
89.53889293551458
 20
-133.2108181090584
 30
0.0
 10
89.46241181574204
 20
-133.2128851663496
 30
0.0
 10
89.38420814822688
 20
-133.2152967331892
 30
0.0
 10
89.38420814822688
 20
-133.2152967331892
 30
0.0
 10
89.38420814822688
 20
-133.0309841247284
 30
0.0
 10
89.38420814822688
 20
-133.0309841247284
 30
0.0
 10
89.49858531833716
 20
-133.0395968634415
 30
0.0
 10
89.54302705009688
 20
-133.0395968634415
 30
0.0
 10
89.92577715850814
 20
-133.0482096021546
 30
0.0
 10
89.86238740157954
 20
-132.9531249667617
 30
0.0
 10
89.83482663769755
 20
-132.9255642028797
 30
0.0
 10
89.79899764465095
 20
-132.8893907002846
 30
0.0
 10
89.79899764465095
 20
-132.8893907002846
 30
0.0
 10
89.97435300485017
 20
-132.8070529181871
 30
0.0
 10
89.97435300485017
 20
-132.8070529181871
 30
0.0
 10
90.01466062202759
 20
-132.8428819112337
 30
0.0
 10
90.05910235378731
 20
-132.8852565857023
 30
0.0
 10
90.13317190672018
 20
-132.9951551316818
 30
0.0
 10
90.13317190672018
 20
-132.9951551316818
 30
0.0
 10
90.01879473660989
 20
-133.0502766594458
 30
0.0
 10
90.01879473660989
 20
-133.0502766594458
 30
0.0
 10
90.01879473660989
 20
-133.0502766594458
 30
0.0
 10
90.02947453261416
 20
-133.0502766594458
 30
0.0
 10
90.02947453261416
 20
-133.0502766594458
 30
0.0
 10
90.02947453261416
 20
-133.0502766594458
 30
0.0
 10
90.55209551772657
 20
-133.0502766594458
 30
0.0
 10
90.55209551772657
 20
-133.0502766594458
 30
0.0
 10
90.55209551772657
 20
-133.0502766594458
 30
0.0
 10
90.45701088233366
 20
-133.005834927686
 30
0.0
 10
90.45701088233366
 20
-133.005834927686
 30
0.0
 10
90.48422713666714
 20
-132.9675943677998
 30
0.0
 10
90.54141572172229
 20
-132.8873236429935
 30
0.0
 10
90.55622963230887
 20
-132.8132540900606
 30
0.0
 10
90.55622963230887
 20
-132.8132540900606
 30
0.0
 10
90.76982555239435
 20
-132.8766438469892
 30
0.0
 10
90.76982555239435
 20
-132.8766438469892
 30
0.0
 10
90.77843829110748
 20
-132.8787109042803
 30
0.0
 10
90.7994533735675
 20
-132.8893907002846
 30
0.0
 10
90.7994533735675
 20
-132.9104057827446
 30
0.0
 10
90.7994533735675
 20
-132.9486463426309
 30
0.0
 10
90.73399655934776
 20
-132.9486463426309
 30
0.0
 10
90.71504853417888
 20
-132.9486463426309
 30
0.0
 10
90.70436873817461
 20
-132.9675943677998
 30
0.0
 10
90.68094208887491
 20
-133.0079019849772
 30
0.0
 10
90.65131426770176
 20
-133.0482096021546
 30
0.0
 10
91.05128985353926
 20
-133.0420084302812
 30
0.0
 10
91.08091767471241
 20
-133.0395968634415
 30
0.0
 10
91.15705428493644
 20
-133.033395691568
 30
0.0
 10
91.15705428493644
 20
-133.033395691568
 30
0.0
 10
91.15705428493644
 20
-133.2152967331892
 30
0.0
 10
91.15705428493644
 20
-133.2152967331892
 30
0.0
 10
91.13810625976757
 20
-133.2152967331892
 30
0.0
 10
91.11261255317672
 20
-133.2128851663496
 30
0.0
 10
90.89281546121778
 20
-133.204616937185
 30
0.0
 10
90.84182804803608
 20
-133.2025498798938
 30
0.0
 10
90.62203095607714
 20
-133.1984157653115
 30
0.0
 10
90.5775892243174
 20
-133.1984157653115
 30
0.0
 10
90.5775892243174
 20
-133.1984157653115
 30
0.0
 10
90.36158173739224
 20
-133.1984157653115
 30
0.0
 10
90.36158173739224
 20
-133.1984157653115
 30
0.0
 10
90.36158173739224
 20
-133.1984157653115
 30
0.0
 10
90.36158173739224
 20
-133.3169270500041
 30
0.0
 10
90.36158173739224
 20
-133.3169270500041
 30
0.0
 10
90.36158173739224
 20
-133.3169270500041
 30
0.0
 10
90.53521454984885
 20
-133.3169270500041
 30
0.0
 10
90.53521454984885
 20
-133.3169270500041
 30
0.0
 10
90.69816756630115
 20
-133.3169270500041
 30
0.0
 10
90.88833683708695
 20
-133.3169270500041
 30
0.0
 10
91.04508868166582
 20
-133.3062472539998
 30
0.0
 10
91.04508868166582
 20
-133.3062472539998
 30
0.0
 10
91.04508868166582
 20
-133.4774684996167
 30
0.0
 10
91.04508868166582
 20
-133.4774684996167
 30
0.0
 10
90.83562687616262
 20
-133.4692002704521
 30
0.0
 10
90.63891192395486
 20
-133.467133213161
 30
0.0
 10
90.53521454984885
 20
-133.467133213161
 30
0.0
 10
90.53521454984885
 20
-133.467133213161
 30
0.0
 10
90.36158173739224
 20
-133.467133213161
 30
0.0
 10
90.36158173739224
 20
-133.467133213161
 30
0.0
 10
90.36158173739224
 20
-133.467133213161
 30
0.0
 10
90.36158173739224
 20
-133.5749647018493
 30
0.0
 10
90.36158173739224
 20
-133.5749647018493
 30
0.0
 10
90.36158173739224
 20
-133.5749647018493
 30
0.0
 10
90.59240313490399
 20
-133.5749647018493
 30
0.0
 10
90.59240313490399
 20
-133.5749647018493
 30
0.0
 10
90.72538382063463
 20
-133.5749647018493
 30
0.0
 10
91.01339380320152
 20
-133.5704860777185
 30
0.0
 10
91.22251109915618
 20
-133.5642849058451
 30
0.0
 10
91.22251109915618
 20
-133.5642849058451
 30
0.0
 10
91.22251109915618
 20
-133.7420518328839
 30
0.0
 10
91.22251109915618
 20
-133.7420518328839
 30
0.0
 10
91.03027477107923
 20
-133.7358506610105
 30
0.0
 10
90.71711559147003
 20
-133.7313720368797
 30
0.0
 10
90.59240313490399
 20
-133.7313720368797
 30
0.0
  0
POLYLINE
  5
D9
330
D0
100
AcDbEntity
  8
_U+30EC_U+30A4_U+30E4_U+30FC 1
370
     0
100
AcDb2dPolyline
 66
     1
 10
0.0
 20
0.0
 30
0.0
  0
VERTEX
  5
DA
330
D9
100
AcDbEntity
  8
_U+30EC_U+30A4_U+30E4_U+30FC 1
370
     0
100
AcDbVertex
100
AcDb2dVertex
 10
90.75742320864745
 20
-133.9873426314337
 30
0.0
  0
VERTEX
  5
DB
330
D9
100
AcDbEntity
  8
_U+30EC_U+30A4_U+30E4_U+30FC 1
370
     0
100
AcDbVertex
100
AcDb2dVertex
 10
90.05083412462271
 20
-133.9873426314337
 30
0.0
  0
VERTEX
  5
DC
330
D9
100
AcDbEntity
  8
_U+30EC_U+30A4_U+30E4_U+30FC 1
370
     0
100
AcDbVertex
100
AcDb2dVertex
 10
90.05083412462271
 20
-134.0955186296706
 30
0.0
  0
VERTEX
  5
DD
330
D9
100
AcDbEntity
  8
_U+30EC_U+30A4_U+30E4_U+30FC 1
370
     0
100
AcDbVertex
100
AcDb2dVertex
 10
90.75742320864745
 20
-134.0955186296706
 30
0.0
  0
VERTEX
  5
DE
330
D9
100
AcDbEntity
  8
_U+30EC_U+30A4_U+30E4_U+30FC 1
370
     0
100
AcDbVertex
100
AcDb2dVertex
 10
90.75742320864745
 20
-133.9873426314337
 30
0.0
  0
SEQEND
  5
DF
330
D9
100
AcDbEntity
  8
_U+30EC_U+30A4_U+30E4_U+30FC 1
370
     0
  0
POLYLINE
  5
E0
330
D0
100
AcDbEntity
  8
_U+30EC_U+30A4_U+30E4_U+30FC 1
370
     0
100
AcDb2dPolyline
 66
     1
 10
0.0
 20
0.0
 30
0.0
  0
VERTEX
  5
E1
330
E0
100
AcDbEntity
  8
_U+30EC_U+30A4_U+30E4_U+30FC 1
370
     0
100
AcDbVertex
100
AcDb2dVertex
 10
90.75742320864745
 20
-134.2202310862366
 30
0.0
  0
VERTEX
  5
E2
330
E0
100
AcDbEntity
  8
_U+30EC_U+30A4_U+30E4_U+30FC 1
370
     0
100
AcDbVertex
100
AcDb2dVertex
 10
90.05083412462271
 20
-134.2202310862366
 30
0.0
  0
VERTEX
  5
E3
330
E0
100
AcDbEntity
  8
_U+30EC_U+30A4_U+30E4_U+30FC 1
370
     0
100
AcDbVertex
100
AcDb2dVertex
 10
90.05083412462271
 20
-134.3346082563469
 30
0.0
  0
VERTEX
  5
E4
330
E0
100
AcDbEntity
  8
_U+30EC_U+30A4_U+30E4_U+30FC 1
370
     0
100
AcDbVertex
100
AcDb2dVertex
 10
90.75742320864745
 20
-134.3346082563469
 30
0.0
  0
VERTEX
  5
E5
330
E0
100
AcDbEntity
  8
_U+30EC_U+30A4_U+30E4_U+30FC 1
370
     0
100
AcDbVertex
100
AcDb2dVertex
 10
90.75742320864745
 20
-134.2202310862366
 30
0.0
  0
SEQEND
  5
E6
330
E0
100
AcDbEntity
  8
_U+30EC_U+30A4_U+30E4_U+30FC 1
370
     0
  0
POLYLINE
  5
E7
330
D0
100
AcDbEntity
  8
_U+30EC_U+30A4_U+30E4_U+30FC 1
370
     0
100
AcDb2dPolyline
 66
     1
 10
0.0
 20
0.0
 30
0.0
  0
VERTEX
  5
E8
330
E7
100
AcDbEntity
  8
_U+30EC_U+30A4_U+30E4_U+30FC 1
370
     0
100
AcDbVertex
100
AcDb2dVertex
 10
90.75742320864745
 20
-134.4634548274952
 30
0.0
  0
VERTEX
  5
E9
330
E7
100
AcDbEntity
  8
_U+30EC_U+30A4_U+30E4_U+30FC 1
370
     0
100
AcDbVertex
100
AcDb2dVertex
 10
90.05083412462271
 20
-134.4634548274952
 30
0.0
  0
VERTEX
  5
EA
330
E7
100
AcDbEntity
  8
_U+30EC_U+30A4_U+30E4_U+30FC 1
370
     0
100
AcDbVertex
100
AcDb2dVertex
 10
90.05083412462271
 20
-134.5778319976056
 30
0.0
  0
VERTEX
  5
EB
330
E7
100
AcDbEntity
  8
_U+30EC_U+30A4_U+30E4_U+30FC 1
370
     0
100
AcDbVertex
100
AcDb2dVertex
 10
90.75742320864745
 20
-134.5778319976056
 30
0.0
  0
VERTEX
  5
EC
330
E7
100
AcDbEntity
  8
_U+30EC_U+30A4_U+30E4_U+30FC 1
370
     0
100
AcDbVertex
100
AcDb2dVertex
 10
90.75742320864745
 20
-134.4634548274952
 30
0.0
  0
SEQEND
  5
ED
330
E7
100
AcDbEntity
  8
_U+30EC_U+30A4_U+30E4_U+30FC 1
370
     0
  0
HATCH
  5
EE
330
D0
100
AcDbEntity
  8
_U+30EC_U+30A4_U+30E4_U+30FC 1
 62
   179
420
  2234388
100
AcDbHatch
 10
0.0
 20
0.0
 30
0.0
210
0.0
220
0.0
230
1.0
  2
SOLID
 70
     1
 71
     0
 91
        4
 92
        1
 93
        1
 72
     4
 94
        3
 73
     0
 74
     1
 95
      203
 96
      199
 40
0.0
 40
0.0
 40
0.0
 40
0.0
 40
1.0
 40
1.0
 40
1.0
 40
2.0
 40
2.0
 40
2.0
 40
3.0
 40
3.0
 40
3.0
 40
4.0
 40
4.0
 40
4.0
 40
5.0
 40
5.0
 40
5.0
 40
6.0
 40
6.0
 40
6.0
 40
7.0
 40
7.0
 40
7.0
 40
8.0
 40
8.0
 40
8.0
 40
9.0
 40
9.0
 40
9.0
 40
10.0
 40
10.0
 40
10.0
 40
11.0
 40
11.0
 40
11.0
 40
12.0
 40
12.0
 40
12.0
 40
13.0
 40
13.0
 40
13.0
 40
14.0
 40
14.0
 40
14.0
 40
15.0
 40
15.0
 40
15.0
 40
16.0
 40
16.0
 40
16.0
 40
17.0
 40
17.0
 40
17.0
 40
18.0
 40
18.0
 40
18.0
 40
19.0
 40
19.0
 40
19.0
 40
20.0
 40
20.0
 40
20.0
 40
21.0
 40
21.0
 40
21.0
 40
22.0
 40
22.0
 40
22.0
 40
23.0
 40
23.0
 40
23.0
 40
24.0
 40
24.0
 40
24.0
 40
25.0
 40
25.0
 40
25.0
 40
26.0
 40
26.0
 40
26.0
 40
27.0
 40
27.0
 40
27.0
 40
28.0
 40
28.0
 40
28.0
 40
29.0
 40
29.0
 40
29.0
 40
30.0
 40
30.0
 40
30.0
 40
31.0
 40
31.0
 40
31.0
 40
32.0
 40
32.0
 40
32.0
 40
33.0
 40
33.0
 40
33.0
 40
34.0
 40
34.0
 40
34.0
 40
35.0
 40
35.0
 40
35.0
 40
36.0
 40
36.0
 40
36.0
 40
37.0
 40
37.0
 40
37.0
 40
38.0
 40
38.0
 40
38.0
 40
39.0
 40
39.0
 40
39.0
 40
40.0
 40
40.0
 40
40.0
 40
41.0
 40
41.0
 40
41.0
 40
42.0
 40
42.0
 40
42.0
 40
43.0
 40
43.0
 40
43.0
 40
44.0
 40
44.0
 40
44.0
 40
45.0
 40
45.0
 40
45.0
 40
46.0
 40
46.0
 40
46.0
 40
47.0
 40
47.0
 40
47.0
 40
48.0
 40
48.0
 40
48.0
 40
49.0
 40
49.0
 40
49.0
 40
50.0
 40
50.0
 40
50.0
 40
51.0
 40
51.0
 40
51.0
 40
52.0
 40
52.0
 40
52.0
 40
53.0
 40
53.0
 40
53.0
 40
54.0
 40
54.0
 40
54.0
 40
55.0
 40
55.0
 40
55.0
 40
56.0
 40
56.0
 40
56.0
 40
57.0
 40
57.0
 40
57.0
 40
58.0
 40
58.0
 40
58.0
 40
59.0
 40
59.0
 40
59.0
 40
60.0
 40
60.0
 40
60.0
 40
61.0
 40
61.0
 40
61.0
 40
62.0
 40
62.0
 40
62.0
 40
63.0
 40
63.0
 40
63.0
 40
64.0
 40
64.0
 40
64.0
 40
65.0
 40
65.0
 40
65.0
 40
66.0
 40
66.0
 40
66.0
 40
66.0
 10
90.59240313490399
 20
-133.7313720368797
 10
90.59240313490399
 20
-133.7313720368797
 10
90.03360864719646
 20
-133.7313720368797
 10
90.03360864719646
 20
-133.7313720368797
 10
90.02327336074072
 20
-133.7758137686394
 10
90.01466062202759
 20
-133.8075086471037
 10
90.00191376873217
 20
-133.84574920699
 10
90.02740747532302
 20
-133.84574920699
 10
90.04222138590958
 20
-133.8478162642811
 10
90.04842255778304
 20
-133.8478162642811
 10
90.04842255778304
 20
-133.8478162642811
 10
90.2368692808262
 20
-133.8478162642811
 10
90.2368692808262
 20
-133.8478162642811
 10
90.2368692808262
 20
-133.8478162642811
 10
90.61135116007286
 20
-133.8478162642811
 10
90.61135116007286
 20
-133.8478162642811
 10
90.66199406370603
 20
-133.8478162642811
 10
90.9455254221421
 20
-133.8350694109857
 10
90.97722030060639
 20
-133.8350694109857
 10
90.97515324331525
 20
-133.8626301748677
 10
90.97308618602409
 20
-133.8815782000366
 10
90.97308618602409
 20
-133.9112060212097
 10
90.97101912873295
 20
-133.942900899674
 10
90.97101912873295
 20
-134.0782931522443
 10
90.97101912873295
 20
-134.1058539161263
 10
90.97101912873295
 20
-134.1058539161263
 10
90.97101912873295
 20
-134.3511447146761
 10
90.97101912873295
 20
-134.3511447146761
 10
90.97101912873295
 20
-134.3959309559844
 10
90.97515324331525
 20
-134.5923013986436
 10
90.97928735789755
 20
-134.7445746190917
 10
90.97928735789755
 20
-134.7445746190917
 10
90.75294458451663
 20
-134.7445746190917
 10
90.75294458451663
 20
-134.7445746190917
 10
90.75294458451663
 20
-134.7445746190917
 10
90.75501164180778
 20
-134.7108126833362
 10
90.75501164180778
 20
-134.7108126833362
 10
90.75501164180778
 20
-134.7108126833362
 10
90.05290118191387
 20
-134.7108126833362
 10
90.05290118191387
 20
-134.7108126833362
 10
90.05290118191387
 20
-134.7108126833362
 10
90.05496823920501
 20
-134.7445746190917
 10
90.05496823920501
 20
-134.7445746190917
 10
90.05496823920501
 20
-134.7445746190917
 10
89.8368936949887
 20
-134.7445746190917
 10
89.8368936949887
 20
-134.7445746190917
 10
89.84137231911953
 20
-134.6897976008762
 10
89.84137231911953
 20
-134.6770507475808
 10
89.84757349099297
 20
-134.5626735774705
 10
89.84964054828413
 20
-134.5351128135885
 10
89.85170760557527
 20
-134.4021321278578
 10
89.85170760557527
 20
-134.3828395931404
 10
89.85170760557527
 20
-134.3828395931404
 10
89.85170760557527
 20
-134.1799234690592
 10
89.85170760557527
 20
-134.1799234690592
 10
89.71218123842266
 20
-134.4296928917398
 10
89.54302705009688
 20
-134.5606065201793
 10
89.43726261869972
 20
-134.626063334399
 10
89.43726261869972
 20
-134.626063334399
 10
89.26362980624313
 20
-134.486881476795
 10
89.26362980624313
 20
-134.486881476795
 10
89.35251326976257
 20
-134.4358940636133
 10
89.49651826104602
 20
-134.349077657385
 10
89.63397757090748
 20
-134.1547742720169
 10
89.72492809171808
 20
-134.0276502486111
 10
89.79038490593783
 20
-133.8839897668762
 10
89.82414684169328
 20
-133.7313720368797
 10
89.59573701102121
 20
-133.7337836037193
 10
89.41590302669117
 20
-133.7399847755928
 10
89.32081839129827
 20
-133.7420518328839
 10
89.32081839129827
 20
-133.7420518328839
 10
89.32081839129827
 20
-133.5642849058451
 10
89.32081839129827
 20
-133.5642849058451
 10
89.51753334350603
 20
-133.5704860777185
 10
89.8010647019421
 20
-133.5749647018493
 10
89.95127086509899
 20
-133.5749647018493
 10
89.95127086509899
 20
-133.5749647018493
 10
90.16486678518449
 20
-133.5749647018493
 10
90.16486678518449
 20
-133.5749647018493
 10
90.16486678518449
 20
-133.5749647018493
 10
90.16486678518449
 20
-133.467133213161
 10
90.16486678518449
 20
-133.467133213161
 10
90.16486678518449
 20
-133.467133213161
 10
90.01879473660989
 20
-133.467133213161
 10
90.01879473660989
 20
-133.467133213161
 10
89.84964054828413
 20
-133.467133213161
 10
89.68048635995835
 20
-133.4712673277433
 10
89.51339922892373
 20
-133.4774684996167
 10
89.51339922892373
 20
-133.4774684996167
 10
89.51339922892373
 20
-133.3062472539998
 10
89.51339922892373
 20
-133.3062472539998
 10
89.66773950666293
 20
-133.3169270500041
 10
89.85377466286643
 20
-133.3169270500041
 10
90.01879473660989
 20
-133.3169270500041
 10
90.01879473660989
 20
-133.3169270500041
 10
90.16486678518449
 20
-133.3169270500041
 10
90.16486678518449
 20
-133.3169270500041
 10
90.16486678518449
 20
-133.3169270500041
 10
90.16486678518449
 20
-133.1984157653115
 10
90.16486678518449
 20
-133.1984157653115
 10
90.16486678518449
 20
-133.1984157653115
 10
90.03360864719646
 20
-133.1984157653115
 10
90.03360864719646
 20
-133.1984157653115
 10
89.98709985814558
 20
-133.1984157653115
 10
89.78418373406437
 20
-133.2066839944761
 10
89.7418090595958
 20
-133.2066839944761
 10
89.53889293551458
 20
-133.2108181090584
 10
89.46241181574204
 20
-133.2128851663496
 10
89.38420814822688
 20
-133.2152967331892
 10
89.38420814822688
 20
-133.2152967331892
 10
89.38420814822688
 20
-133.0309841247284
 10
89.38420814822688
 20
-133.0309841247284
 10
89.49858531833716
 20
-133.0395968634415
 10
89.54302705009688
 20
-133.0395968634415
 10
89.92577715850814
 20
-133.0482096021546
 10
89.86238740157954
 20
-132.9531249667617
 10
89.83482663769755
 20
-132.9255642028797
 10
89.79899764465095
 20
-132.8893907002846
 10
89.79899764465095
 20
-132.8893907002846
 10
89.97435300485017
 20
-132.8070529181871
 10
89.97435300485017
 20
-132.8070529181871
 10
90.01466062202759
 20
-132.8428819112337
 10
90.05910235378731
 20
-132.8852565857023
 10
90.13317190672018
 20
-132.9951551316818
 10
90.13317190672018
 20
-132.9951551316818
 10
90.01879473660989
 20
-133.0502766594458
 10
90.01879473660989
 20
-133.0502766594458
 10
90.01879473660989
 20
-133.0502766594458
 10
90.02947453261416
 20
-133.0502766594458
 10
90.02947453261416
 20
-133.0502766594458
 10
90.02947453261416
 20
-133.0502766594458
 10
90.55209551772657
 20
-133.0502766594458
 10
90.55209551772657
 20
-133.0502766594458
 10
90.55209551772657
 20
-133.0502766594458
 10
90.45701088233366
 20
-133.005834927686
 10
90.45701088233366
 20
-133.005834927686
 10
90.48422713666714
 20
-132.9675943677998
 10
90.54141572172229
 20
-132.8873236429935
 10
90.55622963230887
 20
-132.8132540900606
 10
90.55622963230887
 20
-132.8132540900606
 10
90.76982555239435
 20
-132.8766438469892
 10
90.76982555239435
 20
-132.8766438469892
 10
90.77843829110748
 20
-132.8787109042803
 10
90.7994533735675
 20
-132.8893907002846
 10
90.7994533735675
 20
-132.9104057827446
 10
90.7994533735675
 20
-132.9486463426309
 10
90.73399655934776
 20
-132.9486463426309
 10
90.71504853417888
 20
-132.9486463426309
 10
90.70436873817461
 20
-132.9675943677998
 10
90.68094208887491
 20
-133.0079019849772
 10
90.65131426770176
 20
-133.0482096021546
 10
91.05128985353926
 20
-133.0420084302812
 10
91.08091767471241
 20
-133.0395968634415
 10
91.15705428493644
 20
-133.033395691568
 10
91.15705428493644
 20
-133.033395691568
 10
91.15705428493644
 20
-133.2152967331892
 10
91.15705428493644
 20
-133.2152967331892
 10
91.13810625976757
 20
-133.2152967331892
 10
91.11261255317672
 20
-133.2128851663496
 10
90.89281546121778
 20
-133.204616937185
 10
90.84182804803608
 20
-133.2025498798938
 10
90.62203095607714
 20
-133.1984157653115
 10
90.5775892243174
 20
-133.1984157653115
 10
90.5775892243174
 20
-133.1984157653115
 10
90.36158173739224
 20
-133.1984157653115
 10
90.36158173739224
 20
-133.1984157653115
 10
90.36158173739224
 20
-133.1984157653115
 10
90.36158173739224
 20
-133.3169270500041
 10
90.36158173739224
 20
-133.3169270500041
 10
90.36158173739224
 20
-133.3169270500041
 10
90.53521454984885
 20
-133.3169270500041
 10
90.53521454984885
 20
-133.3169270500041
 10
90.69816756630115
 20
-133.3169270500041
 10
90.88833683708695
 20
-133.3169270500041
 10
91.04508868166582
 20
-133.3062472539998
 10
91.04508868166582
 20
-133.3062472539998
 10
91.04508868166582
 20
-133.4774684996167
 10
91.04508868166582
 20
-133.4774684996167
 10
90.83562687616262
 20
-133.4692002704521
 10
90.63891192395486
 20
-133.467133213161
 10
90.53521454984885
 20
-133.467133213161
 10
90.53521454984885
 20
-133.467133213161
 10
90.36158173739224
 20
-133.467133213161
 10
90.36158173739224
 20
-133.467133213161
 10
90.36158173739224
 20
-133.467133213161
 10
90.36158173739224
 20
-133.5749647018493
 10
90.36158173739224
 20
-133.5749647018493
 10
90.36158173739224
 20
-133.5749647018493
 10
90.59240313490399
 20
-133.5749647018493
 10
90.59240313490399
 20
-133.5749647018493
 10
90.72538382063463
 20
-133.5749647018493
 10
91.01339380320152
 20
-133.5704860777185
 10
91.22251109915618
 20
-133.5642849058451
 10
91.22251109915618
 20
-133.5642849058451
 10
91.22251109915618
 20
-133.7420518328839
 10
91.22251109915618
 20
-133.7420518328839
 10
91.03027477107923
 20
-133.7358506610105
 10
90.71711559147003
 20
-133.7313720368797
 10
90.59240313490399
 20
-133.7313720368797
 97
        0
 97
        0
 92
        1
 93
        4
 72
     1
 10
90.75742320864745
 20
-133.9873426314337
 11
90.05083412462271
 21
-133.9873426314337
 72
     1
 10
90.05083412462271
 20
-133.9873426314337
 11
90.05083412462271
 21
-134.0955186296706
 72
     1
 10
90.05083412462271
 20
-134.0955186296706
 11
90.75742320864745
 21
-134.0955186296706
 72
     1
 10
90.75742320864745
 20
-134.0955186296706
 11
90.75742320864745
 21
-133.9873426314337
 97
        0
 92
        1
 93
        4
 72
     1
 10
90.75742320864745
 20
-134.2202310862366
 11
90.05083412462271
 21
-134.2202310862366
 72
     1
 10
90.05083412462271
 20
-134.2202310862366
 11
90.05083412462271
 21
-134.3346082563469
 72
     1
 10
90.05083412462271
 20
-134.3346082563469
 11
90.75742320864745
 21
-134.3346082563469
 72
     1
 10
90.75742320864745
 20
-134.3346082563469
 11
90.75742320864745
 21
-134.2202310862366
 97
        0
 92
        1
 93
        4
 72
     1
 10
90.75742320864745
 20
-134.4634548274952
 11
90.05083412462271
 21
-134.4634548274952
 72
     1
 10
90.05083412462271
 20
-134.4634548274952
 11
90.05083412462271
 21
-134.5778319976056
 72
     1
 10
90.05083412462271
 20
-134.5778319976056
 11
90.75742320864745
 21
-134.5778319976056
 72
     1
 10
90.75742320864745
 20
-134.5778319976056
 11
90.75742320864745
 21
-134.4634548274952
 97
        0
 75
     2
 76
     1
 98
        0
  0
SPLINE
  5
EF
330
D0
100
AcDbEntity
  8
_U+30EC_U+30A4_U+30E4_U+30FC 1
370
     0
100
AcDbSpline
210
0.0
220
0.0
230
1.0
 70
    11
 71
     3
 72
    47
 73
    43
 74
     0
 42
0.0000000001
 43
0.0000000001
 12
1.0
 22
0.0
 32
0.0
 13
1.0
 23
0.0
 33
0.0
 40
0.0
 40
0.0
 40
0.0
 40
0.0
 40
1.0
 40
1.0
 40
1.0
 40
2.0
 40
2.0
 40
2.0
 40
3.0
 40
3.0
 40
3.0
 40
4.0
 40
4.0
 40
4.0
 40
5.0
 40
5.0
 40
5.0
 40
6.0
 40
6.0
 40
6.0
 40
7.0
 40
7.0
 40
7.0
 40
8.0
 40
8.0
 40
8.0
 40
9.0
 40
9.0
 40
9.0
 40
10.0
 40
10.0
 40
10.0
 40
11.0
 40
11.0
 40
11.0
 40
12.0
 40
12.0
 40
12.0
 40
13.0
 40
13.0
 40
13.0
 40
14.0
 40
14.0
 40
14.0
 40
14.0
 10
92.56902666956609
 20
-133.7082898971285
 30
0.0
 10
92.56902666956609
 20
-133.7082898971285
 30
0.0
 10
92.46774086229973
 20
-133.7082898971285
 30
0.0
 10
92.46774086229973
 20
-133.7082898971285
 30
0.0
 10
92.46774086229973
 20
-133.7951063033568
 30
0.0
 10
92.44638127029118
 20
-134.18440209319
 30
0.0
 10
92.2493218085349
 20
-134.404199185149
 30
0.0
 10
92.09704858808685
 20
-134.5733533734747
 30
0.0
 10
91.89034285897186
 20
-134.6432888118253
 30
0.0
 10
91.80559351003471
 20
-134.6708495757073
 30
0.0
 10
91.80559351003471
 20
-134.6708495757073
 30
0.0
 10
91.61060110556957
 20
-134.5034179351242
 30
0.0
 10
91.61060110556957
 20
-134.5034179351242
 30
0.0
 10
91.70775279825362
 20
-134.4910155913772
 30
0.0
 10
91.88345266800137
 20
-134.4675889420776
 30
0.0
 10
92.07224390059305
 20
-134.2794867285829
 30
0.0
 10
92.1459689439774
 20
-134.2074842329412
 30
0.0
 10
92.2493218085349
 20
-134.0679578657886
 30
0.0
 10
92.2493218085349
 20
-133.7082898971285
 30
0.0
 10
92.2493218085349
 20
-133.7082898971285
 30
0.0
 10
92.0191894301202
 20
-133.7082898971285
 30
0.0
 10
92.0191894301202
 20
-133.7082898971285
 30
0.0
 10
91.83315427391672
 20
-133.7082898971285
 30
0.0
 10
91.64643009861618
 20
-133.7124240117108
 30
0.0
 10
91.46039494241268
 20
-133.7272379222974
 30
0.0
 10
91.46039494241268
 20
-133.7272379222974
 30
0.0
 10
91.46039494241268
 20
-133.5070963207899
 30
0.0
 10
91.46039494241268
 20
-133.5070963207899
 30
0.0
 10
91.64918617500437
 20
-133.522254740925
 30
0.0
 10
91.93444008118306
 20
-133.5263888555073
 30
0.0
 10
92.0191894301202
 20
-133.5263888555073
 30
0.0
 10
92.0191894301202
 20
-133.5263888555073
 30
0.0
 10
92.56902666956609
 20
-133.5263888555073
 30
0.0
 10
92.56902666956609
 20
-133.5263888555073
 30
0.0
 10
92.58831920428348
 20
-133.5263888555073
 30
0.0
 10
92.90526798892647
 20
-133.5263888555073
 30
0.0
 10
93.13402232914706
 20
-133.5070963207899
 30
0.0
 10
93.13402232914706
 20
-133.5070963207899
 30
0.0
 10
93.13402232914706
 20
-133.7272379222974
 30
0.0
 10
93.13402232914706
 20
-133.7272379222974
 30
0.0
 10
92.94592011565241
 20
-133.7124240117108
 30
0.0
 10
92.75712888306072
 20
-133.7082898971285
 30
0.0
 10
92.56902666956609
 20
-133.7082898971285
 30
0.0
  0
SPLINE
  5
F0
330
D0
100
AcDbEntity
  8
_U+30EC_U+30A4_U+30E4_U+30FC 1
370
     0
100
AcDbSpline
210
0.0
220
0.0
230
1.0
 70
    11
 71
     3
 72
    29
 73
    25
 74
     0
 42
0.0000000001
 43
0.0000000001
 12
1.0
 22
0.0
 32
0.0
 13
1.0
 23
0.0
 33
0.0
 40
0.0
 40
0.0
 40
0.0
 40
0.0
 40
1.0
 40
1.0
 40
1.0
 40
2.0
 40
2.0
 40
2.0
 40
3.0
 40
3.0
 40
3.0
 40
4.0
 40
4.0
 40
4.0
 40
5.0
 40
5.0
 40
5.0
 40
6.0
 40
6.0
 40
6.0
 40
7.0
 40
7.0
 40
7.0
 40
8.0
 40
8.0
 40
8.0
 40
8.0
 10
92.46774086229973
 20
-133.1791232305941
 30
0.0
 10
92.46774086229973
 20
-133.1791232305941
 30
0.0
 10
92.1142740655131
 20
-133.1791232305941
 30
0.0
 10
92.1142740655131
 20
-133.1791232305941
 30
0.0
 10
92.00196395269396
 20
-133.1791232305941
 30
0.0
 10
91.86278209508987
 20
-133.1856689120161
 30
0.0
 10
91.75460609685302
 20
-133.1984157653115
 30
0.0
 10
91.75460609685302
 20
-133.1984157653115
 30
0.0
 10
91.75460609685302
 20
-132.9634602532175
 30
0.0
 10
91.75460609685302
 20
-132.9634602532175
 30
0.0
 10
91.87311738154561
 20
-132.9782741638041
 30
0.0
 10
92.05708548045796
 20
-132.9827527879349
 30
0.0
 10
92.1142740655131
 20
-132.9827527879349
 30
0.0
 10
92.1142740655131
 20
-132.9827527879349
 30
0.0
 10
92.46774086229973
 20
-132.9827527879349
 30
0.0
 10
92.46774086229973
 20
-132.9827527879349
 30
0.0
 10
92.48634437792009
 20
-132.9827527879349
 30
0.0
 10
92.68960501154983
 20
-132.9827527879349
 30
0.0
 10
92.83154294554213
 20
-132.9634602532175
 30
0.0
 10
92.83154294554213
 20
-132.9634602532175
 30
0.0
 10
92.83154294554213
 20
-133.1984157653115
 30
0.0
 10
92.83154294554213
 20
-133.1984157653115
 30
0.0
 10
92.67513561051177
 20
-133.1791232305941
 30
0.0
 10
92.48427732062893
 20
-133.1791232305941
 30
0.0
 10
92.46774086229973
 20
-133.1791232305941
 30
0.0
  0
HATCH
  5
F1
330
D0
100
AcDbEntity
  8
_U+30EC_U+30A4_U+30E4_U+30FC 1
 62
   179
420
  2234388
100
AcDbHatch
 10
0.0
 20
0.0
 30
0.0
210
0.0
220
0.0
230
1.0
  2
SOLID
 70
     1
 71
     0
 91
        2
 92
        1
 93
        1
 72
     4
 94
        3
 73
     0
 74
     1
 95
       47
 96
       43
 40
0.0
 40
0.0
 40
0.0
 40
0.0
 40
1.0
 40
1.0
 40
1.0
 40
2.0
 40
2.0
 40
2.0
 40
3.0
 40
3.0
 40
3.0
 40
4.0
 40
4.0
 40
4.0
 40
5.0
 40
5.0
 40
5.0
 40
6.0
 40
6.0
 40
6.0
 40
7.0
 40
7.0
 40
7.0
 40
8.0
 40
8.0
 40
8.0
 40
9.0
 40
9.0
 40
9.0
 40
10.0
 40
10.0
 40
10.0
 40
11.0
 40
11.0
 40
11.0
 40
12.0
 40
12.0
 40
12.0
 40
13.0
 40
13.0
 40
13.0
 40
14.0
 40
14.0
 40
14.0
 40
14.0
 10
92.56902666956609
 20
-133.7082898971285
 10
92.56902666956609
 20
-133.7082898971285
 10
92.46774086229973
 20
-133.7082898971285
 10
92.46774086229973
 20
-133.7082898971285
 10
92.46774086229973
 20
-133.7951063033568
 10
92.44638127029118
 20
-134.18440209319
 10
92.2493218085349
 20
-134.404199185149
 10
92.09704858808685
 20
-134.5733533734747
 10
91.89034285897186
 20
-134.6432888118253
 10
91.80559351003471
 20
-134.6708495757073
 10
91.80559351003471
 20
-134.6708495757073
 10
91.61060110556957
 20
-134.5034179351242
 10
91.61060110556957
 20
-134.5034179351242
 10
91.70775279825362
 20
-134.4910155913772
 10
91.88345266800137
 20
-134.4675889420776
 10
92.07224390059305
 20
-134.2794867285829
 10
92.1459689439774
 20
-134.2074842329412
 10
92.2493218085349
 20
-134.0679578657886
 10
92.2493218085349
 20
-133.7082898971285
 10
92.2493218085349
 20
-133.7082898971285
 10
92.0191894301202
 20
-133.7082898971285
 10
92.0191894301202
 20
-133.7082898971285
 10
91.83315427391672
 20
-133.7082898971285
 10
91.64643009861618
 20
-133.7124240117108
 10
91.46039494241268
 20
-133.7272379222974
 10
91.46039494241268
 20
-133.7272379222974
 10
91.46039494241268
 20
-133.5070963207899
 10
91.46039494241268
 20
-133.5070963207899
 10
91.64918617500437
 20
-133.522254740925
 10
91.93444008118306
 20
-133.5263888555073
 10
92.0191894301202
 20
-133.5263888555073
 10
92.0191894301202
 20
-133.5263888555073
 10
92.56902666956609
 20
-133.5263888555073
 10
92.56902666956609
 20
-133.5263888555073
 10
92.58831920428348
 20
-133.5263888555073
 10
92.90526798892647
 20
-133.5263888555073
 10
93.13402232914706
 20
-133.5070963207899
 10
93.13402232914706
 20
-133.5070963207899
 10
93.13402232914706
 20
-133.7272379222974
 10
93.13402232914706
 20
-133.7272379222974
 10
92.94592011565241
 20
-133.7124240117108
 10
92.75712888306072
 20
-133.7082898971285
 10
92.56902666956609
 20
-133.7082898971285
 97
        0
 97
        0
 92
        1
 93
        1
 72
     4
 94
        3
 73
     0
 74
     1
 95
       29
 96
       25
 40
0.0
 40
0.0
 40
0.0
 40
0.0
 40
1.0
 40
1.0
 40
1.0
 40
2.0
 40
2.0
 40
2.0
 40
3.0
 40
3.0
 40
3.0
 40
4.0
 40
4.0
 40
4.0
 40
5.0
 40
5.0
 40
5.0
 40
6.0
 40
6.0
 40
6.0
 40
7.0
 40
7.0
 40
7.0
 40
8.0
 40
8.0
 40
8.0
 40
8.0
 10
92.46774086229973
 20
-133.1791232305941
 10
92.46774086229973
 20
-133.1791232305941
 10
92.1142740655131
 20
-133.1791232305941
 10
92.1142740655131
 20
-133.1791232305941
 10
92.00196395269396
 20
-133.1791232305941
 10
91.86278209508987
 20
-133.1856689120161
 10
91.75460609685302
 20
-133.1984157653115
 10
91.75460609685302
 20
-133.1984157653115
 10
91.75460609685302
 20
-132.9634602532175
 10
91.75460609685302
 20
-132.9634602532175
 10
91.87311738154561
 20
-132.9782741638041
 10
92.05708548045796
 20
-132.9827527879349
 10
92.1142740655131
 20
-132.9827527879349
 10
92.1142740655131
 20
-132.9827527879349
 10
92.46774086229973
 20
-132.9827527879349
 10
92.46774086229973
 20
-132.9827527879349
 10
92.48634437792009
 20
-132.9827527879349
 10
92.68960501154983
 20
-132.9827527879349
 10
92.83154294554213
 20
-132.9634602532175
 10
92.83154294554213
 20
-132.9634602532175
 10
92.83154294554213
 20
-133.1984157653115
 10
92.83154294554213
 20
-133.1984157653115
 10
92.67513561051177
 20
-133.1791232305941
 10
92.48427732062893
 20
-133.1791232305941
 10
92.46774086229973
 20
-133.1791232305941
 97
        0
 97
        0
 75
     2
 76
     1
 98
        0
  0
SPLINE
  5
F2
330
D0
100
AcDbEntity
  8
_U+30EC_U+30A4_U+30E4_U+30FC 1
370
     0
100
AcDbSpline
210
0.0
220
0.0
230
1.0
 70
    11
 71
     3
 72
    29
 73
    25
 74
     0
 42
0.0000000001
 43
0.0000000001
 12
1.0
 22
0.0
 32
0.0
 13
1.0
 23
0.0
 33
0.0
 40
0.0
 40
0.0
 40
0.0
 40
0.0
 40
1.0
 40
1.0
 40
1.0
 40
2.0
 40
2.0
 40
2.0
 40
3.0
 40
3.0
 40
3.0
 40
4.0
 40
4.0
 40
4.0
 40
5.0
 40
5.0
 40
5.0
 40
6.0
 40
6.0
 40
6.0
 40
7.0
 40
7.0
 40
7.0
 40
8.0
 40
8.0
 40
8.0
 40
8.0
 10
94.41490883056295
 20
-133.8708984040323
 30
0.0
 10
94.41490883056295
 20
-133.8708984040323
 30
0.0
 10
93.93052840533682
 20
-133.8708984040323
 30
0.0
 10
93.93052840533682
 20
-133.8708984040323
 30
0.0
 10
93.90296764145482
 20
-133.8708984040323
 30
0.0
 10
93.58601885681183
 20
-133.8708984040323
 30
0.0
 10
93.3744899940175
 20
-133.8963921106231
 30
0.0
 10
93.3744899940175
 20
-133.8963921106231
 30
0.0
 10
93.3744899940175
 20
-133.6659152226599
 30
0.0
 10
93.3744899940175
 20
-133.6659152226599
 30
0.0
 10
93.53296438633899
 20
-133.6889973624111
 30
0.0
 10
93.72313365712478
 20
-133.6910644197022
 30
0.0
 10
93.93052840533682
 20
-133.6910644197022
 30
0.0
 10
93.93052840533682
 20
-133.6910644197022
 30
0.0
 10
94.41490883056295
 20
-133.6910644197022
 30
0.0
 10
94.41490883056295
 20
-133.6910644197022
 30
0.0
 10
94.60094398676644
 20
-133.6910644197022
 30
0.0
 10
94.78766816206698
 20
-133.6889973624111
 30
0.0
 10
94.97163626097932
 20
-133.6659152226599
 30
0.0
 10
94.97163626097932
 20
-133.6659152226599
 30
0.0
 10
94.97163626097932
 20
-133.8963921106231
 30
0.0
 10
94.97163626097932
 20
-133.8963921106231
 30
0.0
 10
94.78766816206698
 20
-133.8729654613234
 30
0.0
 10
94.539621287129
 20
-133.8708984040323
 30
0.0
 10
94.41490883056295
 20
-133.8708984040323
 30
0.0
  0
HATCH
  5
F3
330
D0
100
AcDbEntity
  8
_U+30EC_U+30A4_U+30E4_U+30FC 1
 62
   179
420
  2234388
100
AcDbHatch
 10
0.0
 20
0.0
 30
0.0
210
0.0
220
0.0
230
1.0
  2
SOLID
 70
     1
 71
     0
 91
        1
 92
        1
 93
        1
 72
     4
 94
        3
 73
     0
 74
     1
 95
       29
 96
       25
 40
0.0
 40
0.0
 40
0.0
 40
0.0
 40
1.0
 40
1.0
 40
1.0
 40
2.0
 40
2.0
 40
2.0
 40
3.0
 40
3.0
 40
3.0
 40
4.0
 40
4.0
 40
4.0
 40
5.0
 40
5.0
 40
5.0
 40
6.0
 40
6.0
 40
6.0
 40
7.0
 40
7.0
 40
7.0
 40
8.0
 40
8.0
 40
8.0
 40
8.0
 10
94.41490883056295
 20
-133.8708984040323
 10
94.41490883056295
 20
-133.8708984040323
 10
93.93052840533682
 20
-133.8708984040323
 10
93.93052840533682
 20
-133.8708984040323
 10
93.90296764145482
 20
-133.8708984040323
 10
93.58601885681183
 20
-133.8708984040323
 10
93.3744899940175
 20
-133.8963921106231
 10
93.3744899940175
 20
-133.8963921106231
 10
93.3744899940175
 20
-133.6659152226599
 10
93.3744899940175
 20
-133.6659152226599
 10
93.53296438633899
 20
-133.6889973624111
 10
93.72313365712478
 20
-133.6910644197022
 10
93.93052840533682
 20
-133.6910644197022
 10
93.93052840533682
 20
-133.6910644197022
 10
94.41490883056295
 20
-133.6910644197022
 10
94.41490883056295
 20
-133.6910644197022
 10
94.60094398676644
 20
-133.6910644197022
 10
94.78766816206698
 20
-133.6889973624111
 10
94.97163626097932
 20
-133.6659152226599
 10
94.97163626097932
 20
-133.6659152226599
 10
94.97163626097932
 20
-133.8963921106231
 10
94.97163626097932
 20
-133.8963921106231
 10
94.78766816206698
 20
-133.8729654613234
 10
94.539621287129
 20
-133.8708984040323
 10
94.41490883056295
 20
-133.8708984040323
 97
        0
 97
        0
 75
     2
 76
     1
 98
        0
  0
SPLINE
  5
F4
330
D0
100
AcDbEntity
  8
_U+30EC_U+30A4_U+30E4_U+30FC 1
370
     0
100
AcDbSpline
210
0.0
220
0.0
230
1.0
 70
    11
 71
     3
 72
    44
 73
    40
 74
     0
 42
0.0000000001
 43
0.0000000001
 12
1.0
 22
0.0
 32
0.0
 13
1.0
 23
0.0
 33
0.0
 40
0.0
 40
0.0
 40
0.0
 40
0.0
 40
1.0
 40
1.0
 40
1.0
 40
2.0
 40
2.0
 40
2.0
 40
3.0
 40
3.0
 40
3.0
 40
4.0
 40
4.0
 40
4.0
 40
5.0
 40
5.0
 40
5.0
 40
6.0
 40
6.0
 40
6.0
 40
7.0
 40
7.0
 40
7.0
 40
8.0
 40
8.0
 40
8.0
 40
9.0
 40
9.0
 40
9.0
 40
10.0
 40
10.0
 40
10.0
 40
11.0
 40
11.0
 40
11.0
 40
12.0
 40
12.0
 40
12.0
 40
13.0
 40
13.0
 40
13.0
 40
13.0
 10
96.62666013209333
 20
-133.4333712774055
 30
0.0
 10
96.51435001927419
 20
-133.8013074752302
 30
0.0
 10
96.46405162518954
 20
-133.9597818675517
 30
0.0
 10
96.26699216343326
 20
-134.2095512902323
 30
0.0
 10
96.08302406452091
 20
-134.4400281781955
 30
0.0
 10
95.84600149513572
 20
-134.626063334399
 30
0.0
 10
95.56694876083048
 20
-134.7194254220493
 30
0.0
 10
95.56694876083048
 20
-134.7194254220493
 30
0.0
 10
95.3740234136565
 20
-134.5395914377193
 30
0.0
 10
95.3740234136565
 20
-134.5395914377193
 30
0.0
 10
96.01550019301001
 20
-134.3873182172712
 30
0.0
 10
96.34554034049695
 20
-133.8309352964034
 30
0.0
 10
96.40893009742555
 20
-133.3906520933885
 30
0.0
 10
96.40893009742555
 20
-133.3906520933885
 30
0.0
 10
95.64274086150598
 20
-133.3906520933885
 30
0.0
 10
95.64274086150598
 20
-133.3906520933885
 30
0.0
 10
95.54972328340423
 20
-133.3906520933885
 30
0.0
 10
95.3657551844919
 20
-133.3951307175193
 30
0.0
 10
95.20934784946155
 20
-133.4140787426882
 30
0.0
 10
95.20934784946155
 20
-133.4140787426882
 30
0.0
 10
95.20934784946155
 20
-133.1942816507292
 30
0.0
 10
95.20934784946155
 20
-133.1942816507292
 30
0.0
 10
95.29616425568985
 20
-133.2152967331892
 30
0.0
 10
95.54765622611309
 20
-133.2152967331892
 30
0.0
 10
95.64687497608828
 20
-133.2152967331892
 30
0.0
 10
95.64687497608828
 20
-133.2152967331892
 30
0.0
 10
96.07888994993861
 20
-133.2152967331892
 30
0.0
 10
96.07888994993861
 20
-133.2152967331892
 30
0.0
 10
96.12092011485866
 20
-133.2152967331892
 30
0.0
 10
96.3558756269527
 20
-133.2128851663496
 30
0.0
 10
96.39377167729045
 20
-133.2066839944761
 30
0.0
 10
96.43649086130755
 20
-133.2004828226027
 30
0.0
 10
96.4385579185987
 20
-133.1984157653115
 30
0.0
 10
96.49988061823615
 20
-133.1581081481341
 30
0.0
 10
96.49988061823615
 20
-133.1581081481341
 30
0.0
 10
96.68798283173079
 20
-133.3127929354218
 30
0.0
 10
96.68798283173079
 20
-133.3127929354218
 30
0.0
 10
96.65835501055764
 20
-133.3424207565949
 30
0.0
 10
96.64388560951959
 20
-133.3741156350593
 30
0.0
 10
96.62666013209333
 20
-133.4333712774055
 30
0.0
  0
SPLINE
  5
F5
330
D0
100
AcDbEntity
  8
_U+30EC_U+30A4_U+30E4_U+30FC 1
370
     0
100
AcDbSpline
210
0.0
220
0.0
230
1.0
 70
    11
 71
     3
 72
    17
 73
    13
 74
     0
 42
0.0000000001
 43
0.0000000001
 12
1.0
 22
0.0
 32
0.0
 13
1.0
 23
0.0
 33
0.0
 40
0.0
 40
0.0
 40
0.0
 40
0.0
 40
1.0
 40
1.0
 40
1.0
 40
2.0
 40
2.0
 40
2.0
 40
3.0
 40
3.0
 40
3.0
 40
4.0
 40
4.0
 40
4.0
 40
4.0
 10
96.83612193759653
 20
-133.2342447583581
 30
0.0
 10
96.70934242373933
 20
-133.2342447583581
 30
0.0
 10
96.60736759737594
 20
-133.1329589510918
 30
0.0
 10
96.60736759737594
 20
-133.005834927686
 30
0.0
 10
96.60736759737594
 20
-132.8787109042803
 30
0.0
 10
96.70934242373933
 20
-132.7753580397228
 30
0.0
 10
96.83612193759653
 20
-132.7753580397228
 30
0.0
 10
96.96290145145372
 20
-132.7753580397228
 30
0.0
 10
97.06694333510826
 20
-132.8787109042803
 30
0.0
 10
97.06694333510826
 20
-133.005834927686
 30
0.0
 10
97.06694333510826
 20
-133.1329589510918
 30
0.0
 10
96.96290145145372
 20
-133.2342447583581
 30
0.0
 10
96.83612193759653
 20
-133.2342447583581
 30
0.0
  0
SPLINE
  5
F6
330
D0
100
AcDbEntity
  8
_U+30EC_U+30A4_U+30E4_U+30FC 1
370
     0
100
AcDbSpline
210
0.0
220
0.0
230
1.0
 70
    11
 71
     3
 72
    17
 73
    13
 74
     0
 42
0.0000000001
 43
0.0000000001
 12
1.0
 22
0.0
 32
0.0
 13
1.0
 23
0.0
 33
0.0
 40
0.0
 40
0.0
 40
0.0
 40
0.0
 40
1.0
 40
1.0
 40
1.0
 40
2.0
 40
2.0
 40
2.0
 40
3.0
 40
3.0
 40
3.0
 40
4.0
 40
4.0
 40
4.0
 40
4.0
 10
96.83405488030537
 20
-132.9042046108712
 30
0.0
 10
96.77893335254139
 20
-132.9042046108712
 30
0.0
 10
96.73483613033018
 20
-132.9486463426309
 30
0.0
 10
96.73483613033018
 20
-133.0037678703949
 30
0.0
 10
96.73483613033018
 20
-133.0606119459015
 30
0.0
 10
96.77893335254139
 20
-133.1095323017921
 30
0.0
 10
96.83818899488767
 20
-133.1095323017921
 30
0.0
 10
96.89744463723397
 20
-133.1095323017921
 30
0.0
 10
96.93740774486288
 20
-133.0585448886104
 30
0.0
 10
96.93740774486288
 20
-133.005834927686
 30
0.0
 10
96.93740774486288
 20
-132.9486463426309
 30
0.0
 10
96.89124346536053
 20
-132.9042046108712
 30
0.0
 10
96.83405488030537
 20
-132.9042046108712
 30
0.0
  0
HATCH
  5
F7
330
D0
100
AcDbEntity
  8
_U+30EC_U+30A4_U+30E4_U+30FC 1
 62
   179
420
  2234388
100
AcDbHatch
 10
0.0
 20
0.0
 30
0.0
210
0.0
220
0.0
230
1.0
  2
SOLID
 70
     1
 71
     0
 91
        3
 92
        1
 93
        1
 72
     4
 94
        3
 73
     0
 74
     1
 95
       44
 96
       40
 40
0.0
 40
0.0
 40
0.0
 40
0.0
 40
1.0
 40
1.0
 40
1.0
 40
2.0
 40
2.0
 40
2.0
 40
3.0
 40
3.0
 40
3.0
 40
4.0
 40
4.0
 40
4.0
 40
5.0
 40
5.0
 40
5.0
 40
6.0
 40
6.0
 40
6.0
 40
7.0
 40
7.0
 40
7.0
 40
8.0
 40
8.0
 40
8.0
 40
9.0
 40
9.0
 40
9.0
 40
10.0
 40
10.0
 40
10.0
 40
11.0
 40
11.0
 40
11.0
 40
12.0
 40
12.0
 40
12.0
 40
13.0
 40
13.0
 40
13.0
 40
13.0
 10
96.62666013209333
 20
-133.4333712774055
 10
96.51435001927419
 20
-133.8013074752302
 10
96.46405162518954
 20
-133.9597818675517
 10
96.26699216343326
 20
-134.2095512902323
 10
96.08302406452091
 20
-134.4400281781955
 10
95.84600149513572
 20
-134.626063334399
 10
95.56694876083048
 20
-134.7194254220493
 10
95.56694876083048
 20
-134.7194254220493
 10
95.3740234136565
 20
-134.5395914377193
 10
95.3740234136565
 20
-134.5395914377193
 10
96.01550019301001
 20
-134.3873182172712
 10
96.34554034049695
 20
-133.8309352964034
 10
96.40893009742555
 20
-133.3906520933885
 10
96.40893009742555
 20
-133.3906520933885
 10
95.64274086150598
 20
-133.3906520933885
 10
95.64274086150598
 20
-133.3906520933885
 10
95.54972328340423
 20
-133.3906520933885
 10
95.3657551844919
 20
-133.3951307175193
 10
95.20934784946155
 20
-133.4140787426882
 10
95.20934784946155
 20
-133.4140787426882
 10
95.20934784946155
 20
-133.1942816507292
 10
95.20934784946155
 20
-133.1942816507292
 10
95.29616425568985
 20
-133.2152967331892
 10
95.54765622611309
 20
-133.2152967331892
 10
95.64687497608828
 20
-133.2152967331892
 10
95.64687497608828
 20
-133.2152967331892
 10
96.07888994993861
 20
-133.2152967331892
 10
96.07888994993861
 20
-133.2152967331892
 10
96.12092011485866
 20
-133.2152967331892
 10
96.3558756269527
 20
-133.2128851663496
 10
96.39377167729045
 20
-133.2066839944761
 10
96.43649086130755
 20
-133.2004828226027
 10
96.4385579185987
 20
-133.1984157653115
 10
96.49988061823615
 20
-133.1581081481341
 10
96.49988061823615
 20
-133.1581081481341
 10
96.68798283173079
 20
-133.3127929354218
 10
96.68798283173079
 20
-133.3127929354218
 10
96.65835501055764
 20
-133.3424207565949
 10
96.64388560951959
 20
-133.3741156350593
 10
96.62666013209333
 20
-133.4333712774055
 97
        0
 97
        0
 92
        1
 93
        1
 72
     4
 94
        3
 73
     0
 74
     1
 95
       17
 96
       13
 40
0.0
 40
0.0
 40
0.0
 40
0.0
 40
1.0
 40
1.0
 40
1.0
 40
2.0
 40
2.0
 40
2.0
 40
3.0
 40
3.0
 40
3.0
 40
4.0
 40
4.0
 40
4.0
 40
4.0
 10
96.83612193759653
 20
-133.2342447583581
 10
96.70934242373933
 20
-133.2342447583581
 10
96.60736759737594
 20
-133.1329589510918
 10
96.60736759737594
 20
-133.005834927686
 10
96.60736759737594
 20
-132.8787109042803
 10
96.70934242373933
 20
-132.7753580397228
 10
96.83612193759653
 20
-132.7753580397228
 10
96.96290145145372
 20
-132.7753580397228
 10
97.06694333510826
 20
-132.8787109042803
 10
97.06694333510826
 20
-133.005834927686
 10
97.06694333510826
 20
-133.1329589510918
 10
96.96290145145372
 20
-133.2342447583581
 10
96.83612193759653
 20
-133.2342447583581
 97
        0
 97
        0
 92
        1
 93
        1
 72
     4
 94
        3
 73
     0
 74
     1
 95
       17
 96
       13
 40
0.0
 40
0.0
 40
0.0
 40
0.0
 40
1.0
 40
1.0
 40
1.0
 40
2.0
 40
2.0
 40
2.0
 40
3.0
 40
3.0
 40
3.0
 40
4.0
 40
4.0
 40
4.0
 40
4.0
 10
96.83405488030537
 20
-132.9042046108712
 10
96.77893335254139
 20
-132.9042046108712
 10
96.73483613033018
 20
-132.9486463426309
 10
96.73483613033018
 20
-133.0037678703949
 10
96.73483613033018
 20
-133.0606119459015
 10
96.77893335254139
 20
-133.1095323017921
 10
96.83818899488767
 20
-133.1095323017921
 10
96.89744463723397
 20
-133.1095323017921
 10
96.93740774486288
 20
-133.0585448886104
 10
96.93740774486288
 20
-133.005834927686
 10
96.93740774486288
 20
-132.9486463426309
 10
96.89124346536053
 20
-132.9042046108712
 10
96.83405488030537
 20
-132.9042046108712
 97
        0
 97
        0
 75
     2
 76
     1
 98
        0
  0
ENDBLK
  5
D3
330
D0
100
AcDbEntity
  8
0
100
AcDbBlockEnd
  0
ENDSEC
  0
SECTION
  2
ENTITIES
  0
POLYLINE
  5
41
330
1F
100
AcDbEntity
  8
_U+30EC_U+30A4_U+30E4_U+30FC 1
  6
AI-Linetype-1
 62
   154
420
    23468
370
    25
100
AcDb2dPolyline
 66
     1
 10
0.0
 20
0.0
 30
0.0
  0
VERTEX
  5
42
330
41
100
AcDbEntity
  8
_U+30EC_U+30A4_U+30E4_U+30FC 1
  6
AI-Linetype-1
 62
   154
420
    23468
370
    25
100
AcDbVertex
100
AcDb2dVertex
 10
76.16606083461969
 20
-143.9126605195773
 30
0.0
  0
VERTEX
  5
43
330
41
100
AcDbEntity
  8
_U+30EC_U+30A4_U+30E4_U+30FC 1
  6
AI-Linetype-1
 62
   154
420
    23468
370
    25
100
AcDbVertex
100
AcDb2dVertex
 10
76.16606083461969
 20
-128.9127258011049
 30
0.0
  0
SEQEND
  5
45
330
41
100
AcDbEntity
  8
_U+30EC_U+30A4_U+30E4_U+30FC 1
  6
AI-Linetype-1
 62
   154
420
    23468
370
    25
  0
POLYLINE
  5
46
330
1F
100
AcDbEntity
  8
_U+30EC_U+30A4_U+30E4_U+30FC 1
  6
AI-Linetype-2
 62
   154
420
    23468
370
    25
100
AcDb2dPolyline
 66
     1
 10
0.0
 20
0.0
 30
0.0
  0
VERTEX
  5
47
330
46
100
AcDbEntity
  8
_U+30EC_U+30A4_U+30E4_U+30FC 1
  6
AI-Linetype-2
 62
   154
420
    23468
370
    25
100
AcDbVertex
100
AcDb2dVertex
 10
91.8638248785808
 20
-124.0966388578649
 30
0.0
  0
VERTEX
  5
48
330
46
100
AcDbEntity
  8
_U+30EC_U+30A4_U+30E4_U+30FC 1
  6
AI-Linetype-2
 62
   154
420
    23468
370
    25
100
AcDbVertex
100
AcDb2dVertex
 10
106.8637592181228
 20
-124.0966388578649
 30
0.0
  0
SEQEND
  5
4A
330
46
100
AcDbEntity
  8
_U+30EC_U+30A4_U+30E4_U+30FC 1
  6
AI-Linetype-2
 62
   154
420
    23468
370
    25
  0
SPLINE
  5
4B
330
1F
100
AcDbEntity
  8
_U+30EC_U+30A4_U+30E4_U+30FC 1
 62
     7
420
 16777215
370
     9
100
AcDbSpline
210
0.0
220
0.0
230
1.0
 70
    11
 71
     3
 72
    17
 73
    13
 74
     0
 42
0.0000000001
 43
0.0000000001
 12
1.0
 22
0.0
 32
0.0
 13
1.0
 23
0.0
 33
0.0
 40
0.0
 40
0.0
 40
0.0
 40
0.0
 40
1.0
 40
1.0
 40
1.0
 40
2.0
 40
2.0
 40
2.0
 40
3.0
 40
3.0
 40
3.0
 40
4.0
 40
4.0
 40
4.0
 40
4.0
 10
80.65018377577573
 20
-143.9739732973399
 30
0.0
 10
80.65018377577573
 20
-144.029112463993
 30
0.0
 10
80.6949865524105
 20
-144.0738799639815
 30
0.0
 10
80.75009043989357
 20
-144.0738799639815
 30
0.0
 10
80.80522960515351
 20
-144.0738799639815
 30
0.0
 10
80.85003238178828
 20
-144.029112463993
 30
0.0
 10
80.85003238178828
 20
-143.9739732973399
 30
0.0
 10
80.85003238178828
 20
-143.918869408465
 30
0.0
 10
80.80522960515351
 20
-143.8740666306983
 30
0.0
 10
80.75009043989357
 20
-143.8740666306983
 30
0.0
 10
80.6949865524105
 20
-143.8740666306983
 30
0.0
 10
80.65018377577573
 20
-143.918869408465
 30
0.0
 10
80.65018377577573
 20
-143.9739732973399
 30
0.0
  0
SPLINE
  5
4C
330
1F
100
AcDbEntity
  8
_U+30EC_U+30A4_U+30E4_U+30FC 1
 62
     7
420
 16777215
370
     9
100
AcDbSpline
210
0.0
220
0.0
230
1.0
 70
    11
 71
     3
 72
    17
 73
    13
 74
     0
 42
0.0000000001
 43
0.0000000001
 12
1.0
 22
0.0
 32
0.0
 13
1.0
 23
0.0
 33
0.0
 40
0.0
 40
0.0
 40
0.0
 40
0.0
 40
1.0
 40
1.0
 40
1.0
 40
2.0
 40
2.0
 40
2.0
 40
3.0
 40
3.0
 40
3.0
 40
4.0
 40
4.0
 40
4.0
 40
4.0
 10
77.65054968563611
 20
-143.9739732973399
 30
0.0
 10
77.65054968563611
 20
-144.029112463993
 30
0.0
 10
77.69535246227086
 20
-144.0738799639815
 30
0.0
 10
77.75045831389588
 20
-144.0738799639815
 30
0.0
 10
77.80626579277457
 20
-144.0738799639815
 30
0.0
 10
77.85106856940934
 20
-144.029112463993
 30
0.0
 10
77.85106856940934
 20
-143.9739732973399
 30
0.0
 10
77.85106856940934
 20
-143.918869408465
 30
0.0
 10
77.80626579277457
 20
-143.8740666306983
 30
0.0
 10
77.75045831389588
 20
-143.8740666306983
 30
0.0
 10
77.69535246227086
 20
-143.8740666306983
 30
0.0
 10
77.65054968563611
 20
-143.918869408465
 30
0.0
 10
77.65054968563611
 20
-143.9739732973399
 30
0.0
  0
POLYLINE
  5
4D
330
1F
100
AcDbEntity
  8
_U+30EC_U+30A4_U+30E4_U+30FC 1
 62
     7
420
 16777215
370
     9
100
AcDb2dPolyline
 66
     1
 10
0.0
 20
0.0
 30
0.0
  0
VERTEX
  5
4E
330
4D
100
AcDbEntity
  8
_U+30EC_U+30A4_U+30E4_U+30FC 1
 62
     7
420
 16777215
370
     9
100
AcDbVertex
100
AcDb2dVertex
 10
77.75045831389588
 20
-127.318664134837
 30
0.0
  0
VERTEX
  5
4F
330
4D
100
AcDbEntity
  8
_U+30EC_U+30A4_U+30E4_U+30FC 1
 62
     7
420
 16777215
370
     9
100
AcDbVertex
100
AcDb2dVertex
 10
77.75045831389588
 20
-144.9744510748673
 30
0.0
  0
SEQEND
  5
50
330
4D
100
AcDbEntity
  8
_U+30EC_U+30A4_U+30E4_U+30FC 1
 62
     7
420
 16777215
370
     9
  0
POLYLINE
  5
51
330
1F
100
AcDbEntity
  8
_U+30EC_U+30A4_U+30E4_U+30FC 1
 62
     7
420
 16777215
370
     9
100
AcDb2dPolyline
 66
     1
 10
0.0
 20
0.0
 30
0.0
  0
VERTEX
  5
52
330
51
100
AcDbEntity
  8
_U+30EC_U+30A4_U+30E4_U+30FC 1
 62
     7
420
 16777215
370
     9
100
AcDbVertex
100
AcDb2dVertex
 10
77.75045831389588
 20
-143.9739732973399
 30
0.0
  0
VERTEX
  5
53
330
51
100
AcDbEntity
  8
_U+30EC_U+30A4_U+30E4_U+30FC 1
 62
     7
420
 16777215
370
     9
100
AcDbVertex
100
AcDb2dVertex
 10
80.75009043989357
 20
-143.9739732973399
 30
0.0
  0
SEQEND
  5
54
330
51
100
AcDbEntity
  8
_U+30EC_U+30A4_U+30E4_U+30FC 1
 62
     7
420
 16777215
370
     9
  0
POLYLINE
  5
55
330
1F
100
AcDbEntity
  8
_U+30EC_U+30A4_U+30E4_U+30FC 1
 62
     7
420
 16777215
370
     9
100
AcDb2dPolyline
 66
     1
 10
0.0
 20
0.0
 30
0.0
  0
VERTEX
  5
56
330
55
100
AcDbEntity
  8
_U+30EC_U+30A4_U+30E4_U+30FC 1
 62
     7
420
 16777215
370
     9
100
AcDbVertex
100
AcDb2dVertex
 10
80.75009043989357
 20
-127.318664134837
 30
0.0
  0
VERTEX
  5
57
330
55
100
AcDbEntity
  8
_U+30EC_U+30A4_U+30E4_U+30FC 1
 62
     7
420
 16777215
370
     9
100
AcDbVertex
100
AcDb2dVertex
 10
80.75009043989357
 20
-144.9744510748673
 30
0.0
  0
SEQEND
  5
58
330
55
100
AcDbEntity
  8
_U+30EC_U+30A4_U+30E4_U+30FC 1
 62
     7
420
 16777215
370
     9
  0
INSERT
  5
5A
330
1F
100
AcDbEntity
  8
_U+30EC_U+30A4_U+30E4_U+30FC 1
100
AcDbBlockReference
  2
block 2
 10
0.0
 20
0.0
 30
0.0
  0
POLYLINE
  5
5F
330
1F
100
AcDbEntity
  8
_U+30EC_U+30A4_U+30E4_U+30FC 1
 62
     7
420
 16777215
370
    25
100
AcDb2dPolyline
 66
     1
 10
0.0
 20
0.0
 30
0.0
  0
VERTEX
  5
60
330
5F
100
AcDbEntity
  8
_U+30EC_U+30A4_U+30E4_U+30FC 1
 62
     7
420
 16777215
370
    25
100
AcDbVertex
100
AcDb2dVertex
 10
77.84831690281287
 20
-119.9216902477972
 30
0.0
  0
VERTEX
  5
61
330
5F
100
AcDbEntity
  8
_U+30EC_U+30A4_U+30E4_U+30FC 1
 62
     7
420
 16777215
370
    25
100
AcDbVertex
100
AcDb2dVertex
 10
77.1995938638076
 20
-143.9126605195773
 30
0.0
  0
SEQEND
  5
62
330
5F
100
AcDbEntity
  8
_U+30EC_U+30A4_U+30E4_U+30FC 1
 62
     7
420
 16777215
370
    25
  0
POLYLINE
  5
63
330
1F
100
AcDbEntity
  8
_U+30EC_U+30A4_U+30E4_U+30FC 1
 62
     7
420
 16777215
370
    25
100
AcDb2dPolyline
 66
     1
 10
0.0
 20
0.0
 30
0.0
  0
VERTEX
  5
64
330
63
100
AcDbEntity
  8
_U+30EC_U+30A4_U+30E4_U+30FC 1
 62
     7
420
 16777215
370
    25
100
AcDbVertex
100
AcDb2dVertex
 10
77.1995938638076
 20
-143.9126605195773
 30
0.0
  0
VERTEX
  5
65
330
63
100
AcDbEntity
  8
_U+30EC_U+30A4_U+30E4_U+30FC 1
 62
     7
420
 16777215
370
    25
100
AcDbVertex
100
AcDb2dVertex
 10
76.79926165179872
 20
-143.9023241306909
 30
0.0
  0
SEQEND
  5
66
330
63
100
AcDbEntity
  8
_U+30EC_U+30A4_U+30E4_U+30FC 1
 62
     7
420
 16777215
370
    25
  0
POLYLINE
  5
67
330
1F
100
AcDbEntity
  8
_U+30EC_U+30A4_U+30E4_U+30FC 1
 62
     7
420
 16777215
370
    25
100
AcDb2dPolyline
 66
     1
 10
0.0
 20
0.0
 30
0.0
  0
VERTEX
  5
68
330
67
100
AcDbEntity
  8
_U+30EC_U+30A4_U+30E4_U+30FC 1
 62
     7
420
 16777215
370
    25
100
AcDbVertex
100
AcDb2dVertex
 10
76.79926165179872
 20
-143.9023241306909
 30
0.0
  0
VERTEX
  5
69
330
67
100
AcDbEntity
  8
_U+30EC_U+30A4_U+30E4_U+30FC 1
 62
     7
420
 16777215
370
    25
100
AcDbVertex
100
AcDb2dVertex
 10
76.85369720300882
 20
-118.9023035813856
 30
0.0
  0
SEQEND
  5
6A
330
67
100
AcDbEntity
  8
_U+30EC_U+30A4_U+30E4_U+30FC 1
 62
     7
420
 16777215
370
    25
  0
POLYLINE
  5
6B
330
1F
100
AcDbEntity
  8
_U+30EC_U+30A4_U+30E4_U+30FC 1
 62
     7
420
 16777215
370
    25
100
AcDb2dPolyline
 66
     1
 10
0.0
 20
0.0
 30
0.0
  0
VERTEX
  5
6C
330
6B
100
AcDbEntity
  8
_U+30EC_U+30A4_U+30E4_U+30FC 1
 62
     7
420
 16777215
370
    25
100
AcDbVertex
100
AcDb2dVertex
 10
80.87275127009755
 20
-126.1614471906817
 30
0.0
  0
VERTEX
  5
6D
330
6B
100
AcDbEntity
  8
_U+30EC_U+30A4_U+30E4_U+30FC 1
 62
     7
420
 16777215
370
    25
100
AcDbVertex
100
AcDb2dVertex
 10
106.8637592181228
 20
-125.5124066352885
 30
0.0
  0
SEQEND
  5
6E
330
6B
100
AcDbEntity
  8
_U+30EC_U+30A4_U+30E4_U+30FC 1
 62
     7
420
 16777215
370
    25
  0
POLYLINE
  5
6F
330
1F
100
AcDbEntity
  8
_U+30EC_U+30A4_U+30E4_U+30FC 1
 62
     7
420
 16777215
370
    25
100
AcDb2dPolyline
 66
     1
 10
0.0
 20
0.0
 30
0.0
  0
VERTEX
  5
70
330
6F
100
AcDbEntity
  8
_U+30EC_U+30A4_U+30E4_U+30FC 1
 62
     7
420
 16777215
370
    25
100
AcDbVertex
100
AcDb2dVertex
 10
106.8637592181228
 20
-125.5124066352885
 30
0.0
  0
VERTEX
  5
71
330
6F
100
AcDbEntity
  8
_U+30EC_U+30A4_U+30E4_U+30FC 1
 62
     7
420
 16777215
370
    25
100
AcDbVertex
100
AcDb2dVertex
 10
106.8534228294976
 20
-125.1120744131664
 30
0.0
  0
SEQEND
  5
72
330
6F
100
AcDbEntity
  8
_U+30EC_U+30A4_U+30E4_U+30FC 1
 62
     7
420
 16777215
370
    25
  0
POLYLINE
  5
73
330
1F
100
AcDbEntity
  8
_U+30EC_U+30A4_U+30E4_U+30FC 1
 62
     7
420
 16777215
370
    25
100
AcDb2dPolyline
 66
     1
 10
0.0
 20
0.0
 30
0.0
  0
VERTEX
  5
74
330
73
100
AcDbEntity
  8
_U+30EC_U+30A4_U+30E4_U+30FC 1
 62
     7
420
 16777215
370
    25
100
AcDbVertex
100
AcDb2dVertex
 10
106.8534228294976
 20
-125.1120744131664
 30
0.0
  0
VERTEX
  5
75
330
73
100
AcDbEntity
  8
_U+30EC_U+30A4_U+30E4_U+30FC 1
 62
     7
420
 16777215
370
    25
100
AcDbVertex
100
AcDb2dVertex
 10
81.85322652286133
 20
-125.1668608020418
 30
0.0
  0
SEQEND
  5
76
330
73
100
AcDbEntity
  8
_U+30EC_U+30A4_U+30E4_U+30FC 1
 62
     7
420
 16777215
370
    25
  0
SPLINE
  5
77
330
1F
100
AcDbEntity
  8
_U+30EC_U+30A4_U+30E4_U+30FC 1
 62
     7
420
 16777215
370
     9
100
AcDbSpline
210
0.0
220
0.0
230
1.0
 70
    11
 71
     3
 72
    17
 73
    13
 74
     0
 42
0.0000000001
 43
0.0000000001
 12
1.0
 22
0.0
 32
0.0
 13
1.0
 23
0.0
 33
0.0
 40
0.0
 40
0.0
 40
0.0
 40
0.0
 40
1.0
 40
1.0
 40
1.0
 40
2.0
 40
2.0
 40
2.0
 40
3.0
 40
3.0
 40
3.0
 40
4.0
 40
4.0
 40
4.0
 40
4.0
 10
81.85322652286133
 20
-114.9028971934964
 30
0.0
 10
81.85322652286133
 20
-114.9580010823717
 30
0.0
 10
81.89802929949609
 20
-115.0028038601381
 30
0.0
 10
81.95313318697916
 20
-115.0028038601381
 30
0.0
 10
82.00827235223912
 20
-115.0028038601381
 30
0.0
 10
82.053039851097
 20
-114.9580010823717
 30
0.0
 10
82.053039851097
 20
-114.9028971934964
 30
0.0
 10
82.053039851097
 20
-114.8477580268437
 30
0.0
 10
82.00827235223912
 20
-114.8029905268548
 30
0.0
 10
81.95313318697916
 20
-114.8029905268548
 30
0.0
 10
81.89802929949609
 20
-114.8029905268548
 30
0.0
 10
81.85322652286133
 20
-114.8477580268437
 30
0.0
 10
81.85322652286133
 20
-114.9028971934964
 30
0.0
  0
SPLINE
  5
78
330
1F
100
AcDbEntity
  8
_U+30EC_U+30A4_U+30E4_U+30FC 1
 62
     7
420
 16777215
370
     9
100
AcDbSpline
210
0.0
220
0.0
230
1.0
 70
    11
 71
     3
 72
    17
 73
    13
 74
     0
 42
0.0000000001
 43
0.0000000001
 12
1.0
 22
0.0
 32
0.0
 13
1.0
 23
0.0
 33
0.0
 40
0.0
 40
0.0
 40
0.0
 40
0.0
 40
1.0
 40
1.0
 40
1.0
 40
2.0
 40
2.0
 40
2.0
 40
3.0
 40
3.0
 40
3.0
 40
4.0
 40
4.0
 40
4.0
 40
4.0
 10
71.72741094785907
 20
-119.0022102480272
 30
0.0
 10
71.72741094785907
 20
-119.05734941468
 30
0.0
 10
71.77217844671696
 20
-119.1021169146688
 30
0.0
 10
71.82731942648746
 20
-119.1021169146688
 30
0.0
 10
71.88242149945998
 20
-119.1021169146688
 30
0.0
 10
71.92722427609475
 20
-119.05734941468
 30
0.0
 10
71.92722427609475
 20
-119.0022102480272
 30
0.0
 10
71.92722427609475
 20
-118.9464008035968
 30
0.0
 10
71.88242149945998
 20
-118.9023035813856
 30
0.0
 10
71.82731942648746
 20
-118.9023035813856
 30
0.0
 10
71.77217844671696
 20
-118.9023035813856
 30
0.0
 10
71.72741094785907
 20
-118.9464008035968
 30
0.0
 10
71.72741094785907
 20
-119.0022102480272
 30
0.0
  0
SPLINE
  5
79
330
1F
100
AcDbEntity
  8
_U+30EC_U+30A4_U+30E4_U+30FC 1
 62
     7
420
 16777215
370
     9
100
AcDbSpline
210
0.0
220
0.0
230
1.0
 70
    11
 71
     3
 72
    17
 73
    13
 74
     0
 42
0.0000000001
 43
0.0000000001
 12
1.0
 22
0.0
 32
0.0
 13
1.0
 23
0.0
 33
0.0
 40
0.0
 40
0.0
 40
0.0
 40
0.0
 40
1.0
 40
1.0
 40
1.0
 40
2.0
 40
2.0
 40
2.0
 40
3.0
 40
3.0
 40
3.0
 40
4.0
 40
4.0
 40
4.0
 40
4.0
 10
106.8527172739601
 20
-114.9028971934964
 30
0.0
 10
106.8527172739601
 20
-114.9580010823717
 30
0.0
 10
106.8975200505948
 20
-115.0028038601381
 30
0.0
 10
106.9526592158548
 20
-115.0028038601381
 30
0.0
 10
107.0077631033379
 20
-115.0028038601381
 30
0.0
 10
107.0525658799726
 20
-114.9580010823717
 30
0.0
 10
107.0525658799726
 20
-114.9028971934964
 30
0.0
 10
107.0525658799726
 20
-114.8477580268437
 30
0.0
 10
107.0077631033379
 20
-114.8029905268548
 30
0.0
 10
106.9526592158548
 20
-114.8029905268548
 30
0.0
 10
106.8975200505948
 20
-114.8029905268548
 30
0.0
 10
106.8527172739601
 20
-114.8477580268437
 30
0.0
 10
106.8527172739601
 20
-114.9028971934964
 30
0.0
  0
SPLINE
  5
7A
330
1F
100
AcDbEntity
  8
_U+30EC_U+30A4_U+30E4_U+30FC 1
 62
     7
420
 16777215
370
     9
100
AcDbSpline
210
0.0
220
0.0
230
1.0
 70
    11
 71
     3
 72
    17
 73
    13
 74
     0
 42
0.0000000001
 43
0.0000000001
 12
1.0
 22
0.0
 32
0.0
 13
1.0
 23
0.0
 33
0.0
 40
0.0
 40
0.0
 40
0.0
 40
0.0
 40
1.0
 40
1.0
 40
1.0
 40
2.0
 40
2.0
 40
2.0
 40
3.0
 40
3.0
 40
3.0
 40
4.0
 40
4.0
 40
4.0
 40
4.0
 10
71.72741094785907
 20
-144.0015605195552
 30
0.0
 10
71.72741094785907
 20
-144.0566644084301
 30
0.0
 10
71.77217844671696
 20
-144.1014671861969
 30
0.0
 10
71.82731942648746
 20
-144.1014671861969
 30
0.0
 10
71.88242149945998
 20
-144.1014671861969
 30
0.0
 10
71.92722427609475
 20
-144.0566644084301
 30
0.0
 10
71.92722427609475
 20
-144.0015605195552
 30
0.0
 10
71.92722427609475
 20
-143.9464213529021
 30
0.0
 10
71.88242149945998
 20
-143.9016538529136
 30
0.0
 10
71.82731942648746
 20
-143.9016538529136
 30
0.0
 10
71.77217844671696
 20
-143.9016538529136
 30
0.0
 10
71.72741094785907
 20
-143.9464213529021
 30
0.0
 10
71.72741094785907
 20
-144.0015605195552
 30
0.0
  0
POLYLINE
  5
7B
330
1F
100
AcDbEntity
  8
_U+30EC_U+30A4_U+30E4_U+30FC 1
 62
     7
420
 16777215
370
     9
100
AcDb2dPolyline
 66
     1
 10
0.0
 20
0.0
 30
0.0
  0
VERTEX
  5
7C
330
7B
100
AcDbEntity
  8
_U+30EC_U+30A4_U+30E4_U+30FC 1
 62
     7
420
 16777215
370
     9
100
AcDbVertex
100
AcDb2dVertex
 10
106.9526592158548
 20
-114.9028971934964
 30
0.0
  0
VERTEX
  5
7D
330
7B
100
AcDbEntity
  8
_U+30EC_U+30A4_U+30E4_U+30FC 1
 62
     7
420
 16777215
370
     9
100
AcDbVertex
100
AcDb2dVertex
 10
81.95313318697916
 20
-114.9028971934964
 30
0.0
  0
SEQEND
  5
7E
330
7B
100
AcDbEntity
  8
_U+30EC_U+30A4_U+30E4_U+30FC 1
 62
     7
420
 16777215
370
     9
  0
POLYLINE
  5
7F
330
1F
100
AcDbEntity
  8
_U+30EC_U+30A4_U+30E4_U+30FC 1
 62
     7
420
 16777215
370
     9
100
AcDb2dPolyline
 66
     1
 10
0.0
 20
0.0
 30
0.0
  0
VERTEX
  5
80
330
7F
100
AcDbEntity
  8
_U+30EC_U+30A4_U+30E4_U+30FC 1
 62
     7
420
 16777215
370
     9
100
AcDbVertex
100
AcDb2dVertex
 10
106.9526592158548
 20
-117.1628621929316
 30
0.0
  0
VERTEX
  5
81
330
7F
100
AcDbEntity
  8
_U+30EC_U+30A4_U+30E4_U+30FC 1
 62
     7
420
 16777215
370
     9
100
AcDbVertex
100
AcDb2dVertex
 10
106.9526592158548
 20
-113.9031249715242
 30
0.0
  0
SEQEND
  5
82
330
7F
100
AcDbEntity
  8
_U+30EC_U+30A4_U+30E4_U+30FC 1
 62
     7
420
 16777215
370
     9
  0
POLYLINE
  5
83
330
1F
100
AcDbEntity
  8
_U+30EC_U+30A4_U+30E4_U+30FC 1
 62
     7
420
 16777215
370
     9
100
AcDb2dPolyline
 66
     1
 10
0.0
 20
0.0
 30
0.0
  0
VERTEX
  5
84
330
83
100
AcDbEntity
  8
_U+30EC_U+30A4_U+30E4_U+30FC 1
 62
     7
420
 16777215
370
     9
100
AcDbVertex
100
AcDb2dVertex
 10
81.95313318697916
 20
-116.9630488596483
 30
0.0
  0
VERTEX
  5
85
330
83
100
AcDbEntity
  8
_U+30EC_U+30A4_U+30E4_U+30FC 1
 62
     7
420
 16777215
370
     9
100
AcDbVertex
100
AcDb2dVertex
 10
81.95313318697916
 20
-113.9031249715242
 30
0.0
  0
SEQEND
  5
86
330
83
100
AcDbEntity
  8
_U+30EC_U+30A4_U+30E4_U+30FC 1
 62
     7
420
 16777215
370
     9
  0
INSERT
  5
88
330
1F
100
AcDbEntity
  8
_U+30EC_U+30A4_U+30E4_U+30FC 1
100
AcDbBlockReference
  2
block 3
 10
0.0
 20
0.0
 30
0.0
  0
SPLINE
  5
8F
330
1F
100
AcDbEntity
  8
_U+30EC_U+30A4_U+30E4_U+30FC 1
 62
     7
420
 16777215
370
     9
100
AcDbSpline
210
0.0
220
0.0
230
1.0
 70
    11
 71
     3
 72
    17
 73
    13
 74
     0
 42
0.0000000001
 43
0.0000000001
 12
1.0
 22
0.0
 32
0.0
 13
1.0
 23
0.0
 33
0.0
 40
0.0
 40
0.0
 40
0.0
 40
0.0
 40
1.0
 40
1.0
 40
1.0
 40
2.0
 40
2.0
 40
2.0
 40
3.0
 40
3.0
 40
3.0
 40
4.0
 40
4.0
 40
4.0
 40
4.0
 10
109.7996816432212
 20
-125.1120744131664
 30
0.0
 10
109.8547855307043
 20
-125.1120744131664
 30
0.0
 10
109.899588307339
 20
-125.0673069131776
 30
0.0
 10
109.899588307339
 20
-125.0121677465248
 30
0.0
 10
109.899588307339
 20
-124.9570638576496
 30
0.0
 10
109.8547855307043
 20
-124.9122610798832
 30
0.0
 10
109.7996816432212
 20
-124.9122610798832
 30
0.0
 10
109.7445424779612
 20
-124.9122610798832
 30
0.0
 10
109.6997777503525
 20
-124.9570638576496
 30
0.0
 10
109.6997777503525
 20
-125.0121677465248
 30
0.0
 10
109.6997777503525
 20
-125.0673069131776
 30
0.0
 10
109.7445424779612
 20
-125.1120744131664
 30
0.0
 10
109.7996816432212
 20
-125.1120744131664
 30
0.0
  0
SPLINE
  5
90
330
1F
100
AcDbEntity
  8
_U+30EC_U+30A4_U+30E4_U+30FC 1
 62
     7
420
 16777215
370
     9
100
AcDbSpline
210
0.0
220
0.0
230
1.0
 70
    11
 71
     3
 72
    17
 73
    13
 74
     0
 42
0.0000000001
 43
0.0000000001
 12
1.0
 22
0.0
 32
0.0
 13
1.0
 23
0.0
 33
0.0
 40
0.0
 40
0.0
 40
0.0
 40
0.0
 40
1.0
 40
1.0
 40
1.0
 40
2.0
 40
2.0
 40
2.0
 40
3.0
 40
3.0
 40
3.0
 40
4.0
 40
4.0
 40
4.0
 40
4.0
 10
109.7996816432212
 20
-119.1124533035552
 30
0.0
 10
109.8547855307043
 20
-119.1124533035552
 30
0.0
 10
109.899588307339
 20
-119.0676505257888
 30
0.0
 10
109.899588307339
 20
-119.0121938591358
 30
0.0
 10
109.899588307339
 20
-118.9570899702609
 30
0.0
 10
109.8547855307043
 20
-118.9122871924942
 30
0.0
 10
109.7996816432212
 20
-118.9122871924942
 30
0.0
 10
109.7445424779612
 20
-118.9122871924942
 30
0.0
 10
109.6997777503525
 20
-118.9570899702609
 30
0.0
 10
109.6997777503525
 20
-119.0121938591358
 30
0.0
 10
109.6997777503525
 20
-119.0676505257888
 30
0.0
 10
109.7445424779612
 20
-119.1124533035552
 30
0.0
 10
109.7996816432212
 20
-119.1124533035552
 30
0.0
  0
POLYLINE
  5
91
330
1F
100
AcDbEntity
  8
_U+30EC_U+30A4_U+30E4_U+30FC 1
 62
     7
420
 16777215
370
     9
100
AcDb2dPolyline
 66
     1
 10
0.0
 20
0.0
 30
0.0
  0
VERTEX
  5
92
330
91
100
AcDbEntity
  8
_U+30EC_U+30A4_U+30E4_U+30FC 1
 62
     7
420
 16777215
370
     9
100
AcDbVertex
100
AcDb2dVertex
 10
109.7996816432212
 20
-119.0121938591358
 30
0.0
  0
VERTEX
  5
93
330
91
100
AcDbEntity
  8
_U+30EC_U+30A4_U+30E4_U+30FC 1
 62
     7
420
 16777215
370
     9
100
AcDbVertex
100
AcDb2dVertex
 10
109.7996816432212
 20
-125.0121677465248
 30
0.0
  0
SEQEND
  5
94
330
91
100
AcDbEntity
  8
_U+30EC_U+30A4_U+30E4_U+30FC 1
 62
     7
420
 16777215
370
     9
  0
POLYLINE
  5
95
330
1F
100
AcDbEntity
  8
_U+30EC_U+30A4_U+30E4_U+30FC 1
 62
     7
420
 16777215
370
     9
100
AcDb2dPolyline
 66
     1
 10
0.0
 20
0.0
 30
0.0
  0
VERTEX
  5
96
330
95
100
AcDbEntity
  8
_U+30EC_U+30A4_U+30E4_U+30FC 1
 62
     7
420
 16777215
370
     9
100
AcDbVertex
100
AcDb2dVertex
 10
110.8090846730247
 20
-119.0121938591358
 30
0.0
  0
VERTEX
  5
97
330
95
100
AcDbEntity
  8
_U+30EC_U+30A4_U+30E4_U+30FC 1
 62
     7
420
 16777215
370
     9
100
AcDbVertex
100
AcDb2dVertex
 10
107.5493475339653
 20
-119.0121938591358
 30
0.0
  0
SEQEND
  5
98
330
95
100
AcDbEntity
  8
_U+30EC_U+30A4_U+30E4_U+30FC 1
 62
     7
420
 16777215
370
     9
  0
POLYLINE
  5
99
330
1F
100
AcDbEntity
  8
_U+30EC_U+30A4_U+30E4_U+30FC 1
 62
     7
420
 16777215
370
     9
100
AcDb2dPolyline
 66
     1
 10
0.0
 20
0.0
 30
0.0
  0
VERTEX
  5
9A
330
99
100
AcDbEntity
  8
_U+30EC_U+30A4_U+30E4_U+30FC 1
 62
     7
420
 16777215
370
     9
100
AcDbVertex
100
AcDb2dVertex
 10
110.8090846730247
 20
-125.0121677465248
 30
0.0
  0
VERTEX
  5
9B
330
99
100
AcDbEntity
  8
_U+30EC_U+30A4_U+30E4_U+30FC 1
 62
     7
420
 16777215
370
     9
100
AcDbVertex
100
AcDb2dVertex
 10
107.749160862201
 20
-125.0121677465248
 30
0.0
  0
SEQEND
  5
9C
330
99
100
AcDbEntity
  8
_U+30EC_U+30A4_U+30E4_U+30FC 1
 62
     7
420
 16777215
370
     9
  0
INSERT
  5
9E
330
1F
100
AcDbEntity
  8
_U+30EC_U+30A4_U+30E4_U+30FC 1
100
AcDbBlockReference
  2
block 4
 10
0.0
 20
0.0
 30
0.0
  0
POLYLINE
  5
A4
330
1F
100
AcDbEntity
  8
_U+30EC_U+30A4_U+30E4_U+30FC 1
 62
     7
420
 16777215
370
     9
100
AcDb2dPolyline
 66
     1
 10
0.0
 20
0.0
 30
0.0
  0
VERTEX
  5
A5
330
A4
100
AcDbEntity
  8
_U+30EC_U+30A4_U+30E4_U+30FC 1
 62
     7
420
 16777215
370
     9
100
AcDbVertex
100
AcDb2dVertex
 10
71.82731942648746
 20
-119.0022102480272
 30
0.0
  0
VERTEX
  5
A6
330
A4
100
AcDbEntity
  8
_U+30EC_U+30A4_U+30E4_U+30FC 1
 62
     7
420
 16777215
370
     9
100
AcDbVertex
100
AcDb2dVertex
 10
71.82731942648746
 20
-144.0015605195552
 30
0.0
  0
SEQEND
  5
A7
330
A4
100
AcDbEntity
  8
_U+30EC_U+30A4_U+30E4_U+30FC 1
 62
     7
420
 16777215
370
     9
  0
POLYLINE
  5
A8
330
1F
100
AcDbEntity
  8
_U+30EC_U+30A4_U+30E4_U+30FC 1
 62
     7
420
 16777215
370
     9
100
AcDb2dPolyline
 66
     1
 10
0.0
 20
0.0
 30
0.0
  0
VERTEX
  5
A9
330
A8
100
AcDbEntity
  8
_U+30EC_U+30A4_U+30E4_U+30FC 1
 62
     7
420
 16777215
370
     9
100
AcDbVertex
100
AcDb2dVertex
 10
70.53745625599512
 20
-119.0022102480272
 30
0.0
  0
VERTEX
  5
AA
330
A8
100
AcDbEntity
  8
_U+30EC_U+30A4_U+30E4_U+30FC 1
 62
     7
420
 16777215
370
     9
100
AcDbVertex
100
AcDb2dVertex
 10
74.89757781142582
 20
-119.0022102480272
 30
0.0
  0
SEQEND
  5
AB
330
A8
100
AcDbEntity
  8
_U+30EC_U+30A4_U+30E4_U+30FC 1
 62
     7
420
 16777215
370
     9
  0
POLYLINE
  5
AC
330
1F
100
AcDbEntity
  8
_U+30EC_U+30A4_U+30E4_U+30FC 1
 62
     7
420
 16777215
370
     9
100
AcDb2dPolyline
 66
     1
 10
0.0
 20
0.0
 30
0.0
  0
VERTEX
  5
AD
330
AC
100
AcDbEntity
  8
_U+30EC_U+30A4_U+30E4_U+30FC 1
 62
     7
420
 16777215
370
     9
100
AcDbVertex
100
AcDb2dVertex
 10
70.53745625599512
 20
-144.0015605195552
 30
0.0
  0
VERTEX
  5
AE
330
AC
100
AcDbEntity
  8
_U+30EC_U+30A4_U+30E4_U+30FC 1
 62
     7
420
 16777215
370
     9
100
AcDbVertex
100
AcDb2dVertex
 10
74.89757781142582
 20
-144.0015605195552
 30
0.0
  0
SEQEND
  5
AF
330
AC
100
AcDbEntity
  8
_U+30EC_U+30A4_U+30E4_U+30FC 1
 62
     7
420
 16777215
370
     9
  0
INSERT
  5
B1
330
1F
100
AcDbEntity
  8
_U+30EC_U+30A4_U+30E4_U+30FC 1
100
AcDbBlockReference
  2
block 5
 10
0.0
 20
0.0
 30
0.0
  0
POLYLINE
  5
B8
330
1F
100
AcDbEntity
  8
_U+30EC_U+30A4_U+30E4_U+30FC 1
 62
     7
420
 16777215
370
    25
100
AcDb2dPolyline
 66
     1
 10
0.0
 20
0.0
 30
0.0
  0
VERTEX
  5
B9
330
B8
100
AcDbEntity
  8
_U+30EC_U+30A4_U+30E4_U+30FC 1
 62
     7
420
 16777215
370
    25
100
AcDbVertex
100
AcDb2dVertex
 10
77.84831690281287
 20
-119.9216902477972
 30
0.0
  0
VERTEX
  5
BA
330
B8
100
AcDbEntity
  8
_U+30EC_U+30A4_U+30E4_U+30FC 1
 62
     7
420
 16777215
370
    25
100
AcDbVertex
100
AcDb2dVertex
 10
80.84795099295249
 20
-119.9216902477972
 30
0.0
  0
SEQEND
  5
BB
330
B8
100
AcDbEntity
  8
_U+30EC_U+30A4_U+30E4_U+30FC 1
 62
     7
420
 16777215
370
    25
  0
POLYLINE
  5
BC
330
1F
100
AcDbEntity
  8
_U+30EC_U+30A4_U+30E4_U+30FC 1
 62
     7
420
 16777215
370
    25
100
AcDb2dPolyline
 66
     1
 10
0.0
 20
0.0
 30
0.0
  0
VERTEX
  5
BD
330
BC
100
AcDbEntity
  8
_U+30EC_U+30A4_U+30E4_U+30FC 1
 62
     7
420
 16777215
370
    25
100
AcDbVertex
100
AcDb2dVertex
 10
76.85369720300882
 20
-118.9023035813856
 30
0.0
  0
VERTEX
  5
BE
330
BC
100
AcDbEntity
  8
_U+30EC_U+30A4_U+30E4_U+30FC 1
 62
     7
420
 16777215
370
    25
100
AcDbVertex
100
AcDb2dVertex
 10
81.85322652286133
 20
-118.9023035813856
 30
0.0
  0
SEQEND
  5
BF
330
BC
100
AcDbEntity
  8
_U+30EC_U+30A4_U+30E4_U+30FC 1
 62
     7
420
 16777215
370
    25
  0
POLYLINE
  5
C0
330
1F
100
AcDbEntity
  8
_U+30EC_U+30A4_U+30E4_U+30FC 1
 62
     7
420
 16777215
370
    25
100
AcDb2dPolyline
 66
     1
 10
0.0
 20
0.0
 30
0.0
  0
VERTEX
  5
C1
330
C0
100
AcDbEntity
  8
_U+30EC_U+30A4_U+30E4_U+30FC 1
 62
     7
420
 16777215
370
    25
100
AcDbVertex
100
AcDb2dVertex
 10
81.85322652286133
 20
-125.0390494131846
 30
0.0
  0
VERTEX
  5
C2
330
C0
100
AcDbEntity
  8
_U+30EC_U+30A4_U+30E4_U+30FC 1
 62
     7
420
 16777215
370
    25
100
AcDbVertex
100
AcDb2dVertex
 10
81.85322652286133
 20
-119.0390755257959
 30
0.0
  0
SEQEND
  5
C3
330
C0
100
AcDbEntity
  8
_U+30EC_U+30A4_U+30E4_U+30FC 1
 62
     7
420
 16777215
370
    25
  0
POLYLINE
  5
C4
330
1F
100
AcDbEntity
  8
_U+30EC_U+30A4_U+30E4_U+30FC 1
 62
     7
420
 16777215
370
    25
100
AcDb2dPolyline
 66
     1
 10
0.0
 20
0.0
 30
0.0
  0
VERTEX
  5
C5
330
C4
100
AcDbEntity
  8
_U+30EC_U+30A4_U+30E4_U+30FC 1
 62
     7
420
 16777215
370
    25
100
AcDbVertex
100
AcDb2dVertex
 10
80.84795099295249
 20
-126.0994641351417
 30
0.0
  0
VERTEX
  5
C6
330
C4
100
AcDbEntity
  8
_U+30EC_U+30A4_U+30E4_U+30FC 1
 62
     7
420
 16777215
370
    25
100
AcDbVertex
100
AcDb2dVertex
 10
80.84795099295249
 20
-119.9216902477972
 30
0.0
  0
SEQEND
  5
C7
330
C4
100
AcDbEntity
  8
_U+30EC_U+30A4_U+30E4_U+30FC 1
 62
     7
420
 16777215
370
    25
  0
POLYLINE
  5
C8
330
1F
100
AcDbEntity
  8
_U+30EC_U+30A4_U+30E4_U+30FC 1
 62
   179
420
  2234388
370
     9
100
AcDb2dPolyline
 66
     1
 10
0.0
 20
0.0
 30
0.0
  0
VERTEX
  5
C9
330
C8
100
AcDbEntity
  8
_U+30EC_U+30A4_U+30E4_U+30FC 1
 62
   179
420
  2234388
370
     9
100
AcDbVertex
100
AcDb2dVertex
 10
86.10359891442529
 20
-133.7406660776762
 30
0.0
  0
VERTEX
  5
CA
330
C8
100
AcDbEntity
  8
_U+30EC_U+30A4_U+30E4_U+30FC 1
 62
   179
420
  2234388
370
     9
100
AcDbVertex
100
AcDb2dVertex
 10
76.34932888549967
 20
-133.7406660776762
 30
0.0
  0
SEQEND
  5
CB
330
C8
100
AcDbEntity
  8
_U+30EC_U+30A4_U+30E4_U+30FC 1
 62
   179
420
  2234388
370
     9
  0
POLYLINE
  5
CC
330
1F
100
AcDbEntity
  8
_U+30EC_U+30A4_U+30E4_U+30FC 1
 62
   179
420
  2234388
370
     9
100
AcDb2dPolyline
 66
     1
 10
0.0
 20
0.0
 30
0.0
  0
VERTEX
  5
CD
330
CC
100
AcDbEntity
  8
_U+30EC_U+30A4_U+30E4_U+30FC 1
 62
   179
420
  2234388
370
     9
100
AcDbVertex
100
AcDb2dVertex
 10
93.91572149289922
 20
-124.1734738578455
 30
0.0
  0
VERTEX
  5
CE
330
CC
100
AcDbEntity
  8
_U+30EC_U+30A4_U+30E4_U+30FC 1
 62
   179
420
  2234388
370
     9
100
AcDbVertex
100
AcDb2dVertex
 10
93.91572149289922
 20
-132.2320824669418
 30
0.0
  0
SEQEND
  5
CF
330
CC
100
AcDbEntity
  8
_U+30EC_U+30A4_U+30E4_U+30FC 1
 62
   179
420
  2234388
370
     9
  0
INSERT
  5
D1
330
1F
100
AcDbEntity
  8
_U+30EC_U+30A4_U+30E4_U+30FC 1
100
AcDbBlockReference
  2
block 6
 10
0.0
 20
0.0
 30
0.0
  0
ENDSEC
  0
SECTION
  2
OBJECTS
  0
DICTIONARY
  5
C
330
0
100
AcDbDictionary
281
     1
  3
ACAD_GROUP
350
D
  3
ACAD_LAYOUT
350
1A
  3
ACAD_MATERIAL
350
3B
  3
ACAD_MLEADERSTYLE
350
F9
  3
ACAD_MLINESTYLE
350
17
  3
ACAD_PLOTSETTINGS
350
19
  3
ACAD_PLOTSTYLENAME
350
E
  3
ACAD_TABLESTYLE
350
F8
  3
ACAD_VISUALSTYLE
350
2A
  0
SUN
  5
3F
330
29
100
AcDbSun
 90
        1
290
     0
 63
     7
421
 16777215
 40
1.0
291
     1
 91
  2455826
 92
 54000000
292
     0
 70
     2
 71
   256
280
     1
  0
DICTIONARY
  5
D
102
{ACAD_REACTORS
330
C
102
}
330
C
100
AcDbDictionary
281
     1
  0
DICTIONARY
  5
1A
102
{ACAD_REACTORS
330
C
102
}
330
C
100
AcDbDictionary
281
     1
  3
Layout1
350
1E
  3
Layout2
350
26
  3
Model
350
22
  0
DICTIONARY
  5
3B
102
{ACAD_REACTORS
330
C
102
}
330
C
100
AcDbDictionary
281
     1
  3
ByBlock
350
3D
  3
ByLayer
350
3C
  3
Global
350
3E
  0
DICTIONARY
  5
F9
102
{ACAD_REACTORS
330
C
102
}
330
C
100
AcDbDictionary
281
     1
  0
DICTIONARY
  5
17
102
{ACAD_REACTORS
330
C
102
}
330
C
100
AcDbDictionary
281
     1
  3
Standard
350
18
  0
DICTIONARY
  5
19
102
{ACAD_REACTORS
330
C
102
}
330
C
100
AcDbDictionary
281
     1
  0
ACDBDICTIONARYWDFLT
  5
E
102
{ACAD_REACTORS
330
C
102
}
330
C
100
AcDbDictionary
281
     1
  3
Normal
350
F
100
AcDbDictionaryWithDefault
340
F
  0
DICTIONARY
  5
F8
102
{ACAD_REACTORS
330
C
102
}
330
C
100
AcDbDictionary
281
     1
  0
DICTIONARY
  5
2A
102
{ACAD_REACTORS
330
C
102
}
330
C
100
AcDbDictionary
281
     1
  3
2dWireframe
350
2F
  3
3D Hidden
350
31
  3
3dWireframe
350
30
  3
Basic
350
32
  3
Brighten
350
36
  3
ColorChange
350
3A
  3
Conceptual
350
34
  3
Dim
350
35
  3
Facepattern
350
39
  3
Flat
350
2B
  3
FlatWithEdges
350
2C
  3
Gouraud
350
2D
  3
GouraudWithEdges
350
2E
  3
Linepattern
350
38
  3
Realistic
350
33
  3
Thicken
350
37
  0
LAYOUT
  5
1E
102
{ACAD_REACTORS
330
1A
102
}
330
1A
100
AcDbPlotSettings
  1

  2
none_device
  4

  6

 40
0.0
 41
0.0
 42
0.0
 43
0.0
 44
0.0
 45
0.0
 46
0.0
 47
0.0
 48
0.0
 49
0.0
140
0.0
141
0.0
142
1.0
143
1.0
 70
   688
 72
     0
 73
     0
 74
     5
  7

 75
    16
 76
     0
 77
     2
 78
   300
147
1.0
148
0.0
149
0.0
100
AcDbLayout
  1
Layout1
 70
     1
 71
     1
 10
0.0
 20
0.0
 11
12.0
 21
9.0
 12
0.0
 22
0.0
 32
0.0
 14
1.000000000000000E+20
 24
1.000000000000000E+20
 34
1.000000000000000E+20
 15
-1.000000000000000E+20
 25
-1.000000000000000E+20
 35
-1.000000000000000E+20
146
0.0
 13
0.0
 23
0.0
 33
0.0
 16
1.0
 26
0.0
 36
0.0
 17
0.0
 27
1.0
 37
0.0
 76
     0
330
1B
  0
LAYOUT
  5
26
102
{ACAD_REACTORS
330
1A
102
}
330
1A
100
AcDbPlotSettings
  1

  2
none_device
  4

  6

 40
0.0
 41
0.0
 42
0.0
 43
0.0
 44
0.0
 45
0.0
 46
0.0
 47
0.0
 48
0.0
 49
0.0
140
0.0
141
0.0
142
1.0
143
1.0
 70
   688
 72
     0
 73
     0
 74
     5
  7

 75
    16
 76
     0
 77
     2
 78
   300
147
1.0
148
0.0
149
0.0
100
AcDbLayout
  1
Layout2
 70
     1
 71
     2
 10
0.0
 20
0.0
 11
0.0
 21
0.0
 12
0.0
 22
0.0
 32
0.0
 14
0.0
 24
0.0
 34
0.0
 15
0.0
 25
0.0
 35
0.0
146
0.0
 13
0.0
 23
0.0
 33
0.0
 16
1.0
 26
0.0
 36
0.0
 17
0.0
 27
1.0
 37
0.0
 76
     0
330
23
  0
LAYOUT
  5
22
102
{ACAD_REACTORS
330
1A
102
}
330
1A
100
AcDbPlotSettings
  1

  2
none_device
  4

  6

 40
0.0
 41
0.0
 42
0.0
 43
0.0
 44
0.0
 45
0.0
 46
0.0
 47
0.0
 48
0.0
 49
0.0
140
0.0
141
0.0
142
1.0
143
1.0
 70
  1712
 72
     0
 73
     0
 74
     0
  7

 75
     0
 76
     0
 77
     2
 78
   300
147
1.0
148
0.0
149
0.0
100
AcDbLayout
  1
Model
 70
     1
 71
     0
 10
0.0
 20
0.0
 11
12.0
 21
9.0
 12
0.0
 22
0.0
 32
0.0
 14
1.000000000000000E+20
 24
1.000000000000000E+20
 34
1.000000000000000E+20
 15
-1.000000000000000E+20
 25
-1.000000000000000E+20
 35
-1.000000000000000E+20
146
0.0
 13
0.0
 23
0.0
 33
0.0
 16
1.0
 26
0.0
 36
0.0
 17
0.0
 27
1.0
 37
0.0
 76
     0
330
1F
331
29
  0
MATERIAL
  5
3D
102
{ACAD_REACTORS
330
3B
102
}
330
3B
100
AcDbMaterial
  1
ByBlock
 72
     1
 94
      127
  0
MATERIAL
  5
3C
102
{ACAD_REACTORS
330
3B
102
}
330
3B
100
AcDbMaterial
  1
ByLayer
 72
     1
 94
      127
  0
MATERIAL
  5
3E
102
{ACAD_REACTORS
330
3B
102
}
330
3B
100
AcDbMaterial
  1
Global
 72
     1
 94
      127
  0
MLINESTYLE
  5
18
102
{ACAD_REACTORS
330
17
102
}
330
17
100
AcDbMlineStyle
  2
Standard
 70
     0
  3

 62
   256
 51
90.0
 52
90.0
 71
     2
 49
0.5
 62
   256
  6
BYLAYER
 49
-0.5
 62
   256
  6
BYLAYER
  0
ACDBPLACEHOLDER
  5
F
102
{ACAD_REACTORS
330
E
102
}
330
E
  0
VISUALSTYLE
  5
2F
102
{ACAD_REACTORS
330
2A
102
}
330
2A
100
AcDbVisualStyle
  2
2dWireframe
 70
     4
177
     2
291
     0
 71
     0
176
     1
 72
     2
176
     1
 73
     0
176
     1
 90
        0
176
     1
 40
-0.6
176
     1
 41
-30.0
176
     1
 62
     5
 63
     7
421
 16777215
176
     1
 74
     1
176
     1
 91
        4
176
     1
 64
     7
176
     1
 65
   257
176
     1
 75
     1
176
     1
175
     1
176
     1
 42
1.0
176
     1
 92
        0
176
     1
 66
   257
176
     1
 43
1.0
176
     1
 76
     1
176
     1
 77
     6
176
     1
 78
     2
176
     1
 67
     7
176
     1
 79
     5
176
     1
170
     0
176
     1
171
     0
176
     1
290
     0
176
     1
 93
        1
176
     1
 44
0.0
176
     1
173
     0
176
     1
  0
VISUALSTYLE
  5
31
102
{ACAD_REACTORS
330
2A
102
}
330
2A
100
AcDbVisualStyle
  2
3D Hidden
 70
     6
177
     2
291
     0
 71
     1
176
     1
 72
     2
176
     1
 73
     2
176
     1
 90
        0
176
     1
 40
-0.6
176
     1
 41
-30.0
176
     1
 62
     5
 63
     7
421
 16777215
176
     1
 74
     2
176
     1
 91
        2
176
     1
 64
     7
176
     1
 65
   257
176
     1
 75
     2
176
     1
175
     1
176
     1
 42
40.0
176
     1
 92
        0
176
     1
 66
   257
176
     1
 43
1.0
176
     1
 76
     1
176
     1
 77
     6
176
     1
 78
     2
176
     1
 67
     7
176
     1
 79
     3
176
     1
170
     0
176
     1
171
     0
176
     1
290
     0
176
     1
 93
        1
176
     1
 44
0.0
176
     1
173
     0
176
     1
  0
VISUALSTYLE
  5
30
102
{ACAD_REACTORS
330
2A
102
}
330
2A
100
AcDbVisualStyle
  2
3dWireframe
 70
     5
177
     2
291
     0
 71
     0
176
     1
 72
     2
176
     1
 73
     0
176
     1
 90
        0
176
     1
 40
-0.6
176
     1
 41
-30.0
176
     1
 62
     5
 63
     7
421
 16777215
176
     1
 74
     1
176
     1
 91
        4
176
     1
 64
     7
176
     1
 65
   257
176
     1
 75
     1
176
     1
175
     1
176
     1
 42
1.0
176
     1
 92
        0
176
     1
 66
   257
176
     1
 43
1.0
176
     1
 76
     1
176
     1
 77
     6
176
     1
 78
     2
176
     1
 67
     7
176
     1
 79
     5
176
     1
170
     0
176
     1
171
     0
176
     1
290
     0
176
     1
 93
        1
176
     1
 44
0.0
176
     1
173
     0
176
     1
  0
VISUALSTYLE
  5
32
102
{ACAD_REACTORS
330
2A
102
}
330
2A
100
AcDbVisualStyle
  2
Basic
 70
     7
177
     2
291
     1
 71
     1
176
     1
 72
     0
176
     1
 73
     1
176
     1
 90
        0
176
     1
 40
-0.6
176
     1
 41
-30.0
176
     1
 62
     5
 63
     7
421
 16777215
176
     1
 74
     0
176
     1
 91
        4
176
     1
 64
     7
176
     1
 65
   257
176
     1
 75
     1
176
     1
175
     1
176
     1
 42
1.0
176
     1
 92
        8
176
     1
 66
     7
176
     1
 43
1.0
176
     1
 76
     1
176
     1
 77
     6
176
     1
 78
     2
176
     1
 67
     7
176
     1
 79
     5
176
     1
170
     0
176
     1
171
     0
176
     1
290
     0
176
     1
 93
        1
176
     1
 44
0.0
176
     1
173
     0
176
     1
  0
VISUALSTYLE
  5
36
102
{ACAD_REACTORS
330
2A
102
}
330
2A
100
AcDbVisualStyle
  2
Brighten
 70
    12
177
     2
291
     1
 71
     2
176
     1
 72
     2
176
     1
 73
     0
176
     1
 90
        0
176
     1
 40
-0.6
176
     1
 41
-30.0
176
     1
 62
     5
 63
     7
421
 16777215
176
     1
 74
     1
176
     1
 91
        4
176
     1
 64
     7
176
     1
 65
   257
176
     1
 75
     1
176
     1
175
     1
176
     1
 42
1.0
176
     1
 92
        8
176
     1
 66
     7
176
     1
 43
1.0
176
     1
 76
     1
176
     1
 77
     6
176
     1
 78
     2
176
     1
 67
     7
176
     1
 79
     5
176
     1
170
     0
176
     1
171
     0
176
     1
290
     0
176
     1
 93
        1
176
     1
 44
50.0
176
     1
173
     0
176
     1
  0
VISUALSTYLE
  5
3A
102
{ACAD_REACTORS
330
2A
102
}
330
2A
100
AcDbVisualStyle
  2
ColorChange
 70
    16
177
     2
291
     1
 71
     2
176
     1
 72
     2
176
     1
 73
     3
176
     1
 90
        0
176
     1
 40
-0.6
176
     1
 41
-30.0
176
     1
 62
     5
 63
     8
421
  8421504
176
     1
 74
     1
176
     1
 91
        4
176
     1
 64
     7
176
     1
 65
   257
176
     1
 75
     1
176
     1
175
     1
176
     1
 42
1.0
176
     1
 92
        8
176
     1
 66
     8
424
  8421504
176
     1
 43
1.0
176
     1
 76
     1
176
     1
 77
     6
176
     1
 78
     2
176
     1
 67
     7
176
     1
 79
     5
176
     1
170
     0
176
     1
171
     0
176
     1
290
     0
176
     1
 93
        1
176
     1
 44
0.0
176
     1
173
     0
176
     1
  0
VISUALSTYLE
  5
34
102
{ACAD_REACTORS
330
2A
102
}
330
2A
100
AcDbVisualStyle
  2
Conceptual
 70
     9
177
     2
291
     0
 71
     3
176
     1
 72
     2
176
     1
 73
     0
176
     1
 90
        0
176
     1
 40
-0.6
176
     1
 41
-30.0
176
     1
 62
     5
 63
     7
421
 16777215
176
     1
 74
     2
176
     1
 91
        2
176
     1
 64
     7
176
     1
 65
   257
176
     1
 75
     1
176
     1
175
     1
176
     1
 42
40.0
176
     1
 92
        8
176
     1
 66
     7
176
     1
 43
1.0
176
     1
 76
     1
176
     1
 77
     6
176
     1
 78
     2
176
     1
 67
     7
176
     1
 79
     3
176
     1
170
     0
176
     1
171
     0
176
     1
290
     0
176
     1
 93
        1
176
     1
 44
0.0
176
     1
173
     0
176
     1
  0
VISUALSTYLE
  5
35
102
{ACAD_REACTORS
330
2A
102
}
330
2A
100
AcDbVisualStyle
  2
Dim
 70
    11
177
     2
291
     1
 71
     2
176
     1
 72
     2
176
     1
 73
     0
176
     1
 90
        0
176
     1
 40
-0.6
176
     1
 41
-30.0
176
     1
 62
     5
 63
     7
421
 16777215
176
     1
 74
     1
176
     1
 91
        4
176
     1
 64
     7
176
     1
 65
   257
176
     1
 75
     1
176
     1
175
     1
176
     1
 42
1.0
176
     1
 92
        8
176
     1
 66
     7
176
     1
 43
1.0
176
     1
 76
     1
176
     1
 77
     6
176
     1
 78
     2
176
     1
 67
     7
176
     1
 79
     5
176
     1
170
     0
176
     1
171
     0
176
     1
290
     0
176
     1
 93
        1
176
     1
 44
-50.0
176
     1
173
     0
176
     1
  0
VISUALSTYLE
  5
39
102
{ACAD_REACTORS
330
2A
102
}
330
2A
100
AcDbVisualStyle
  2
Facepattern
 70
    15
177
     2
291
     1
 71
     2
176
     1
 72
     2
176
     1
 73
     0
176
     1
 90
        0
176
     1
 40
-0.6
176
     1
 41
-30.0
176
     1
 62
     5
 63
     7
421
 16777215
176
     1
 74
     1
176
     1
 91
        4
176
     1
 64
     7
176
     1
 65
   257
176
     1
 75
     1
176
     1
175
     1
176
     1
 42
1.0
176
     1
 92
        8
176
     1
 66
     7
176
     1
 43
1.0
176
     1
 76
     1
176
     1
 77
     6
176
     1
 78
     2
176
     1
 67
     7
176
     1
 79
     5
176
     1
170
     0
176
     1
171
     0
176
     1
290
     0
176
     1
 93
        1
176
     1
 44
0.0
176
     1
173
     0
176
     1
  0
VISUALSTYLE
  5
2B
102
{ACAD_REACTORS
330
2A
102
}
330
2A
100
AcDbVisualStyle
  2
Flat
 70
     0
177
     2
291
     1
 71
     2
176
     1
 72
     1
176
     1
 73
     1
176
     1
 90
        2
176
     1
 40
-0.6
176
     1
 41
30.0
176
     1
 62
     5
 63
     7
421
 16777215
176
     1
 74
     0
176
     1
 91
        4
176
     1
 64
     7
176
     1
 65
   257
176
     1
 75
     1
176
     1
175
     1
176
     1
 42
1.0
176
     1
 92
        8
176
     1
 66
     7
176
     1
 43
1.0
176
     1
 76
     1
176
     1
 77
     6
176
     1
 78
     2
176
     1
 67
     7
176
     1
 79
     5
176
     1
170
     0
176
     1
171
     0
176
     1
290
     0
176
     1
 93
       13
176
     1
 44
0.0
176
     1
173
     0
176
     1
  0
VISUALSTYLE
  5
2C
102
{ACAD_REACTORS
330
2A
102
}
330
2A
100
AcDbVisualStyle
  2
FlatWithEdges
 70
     1
177
     2
291
     1
 71
     2
176
     1
 72
     1
176
     1
 73
     1
176
     1
 90
        2
176
     1
 40
-0.6
176
     1
 41
30.0
176
     1
 62
     5
 63
     7
421
 16777215
176
     1
 74
     1
176
     1
 91
        4
176
     1
 64
     7
176
     1
 65
   257
176
     1
 75
     1
176
     1
175
     1
176
     1
 42
1.0
176
     1
 92
        0
176
     1
 66
   257
176
     1
 43
1.0
176
     1
 76
     1
176
     1
 77
     6
176
     1
 78
     2
176
     1
 67
     7
176
     1
 79
     5
176
     1
170
     0
176
     1
171
     0
176
     1
290
     0
176
     1
 93
       13
176
     1
 44
0.0
176
     1
173
     0
176
     1
  0
VISUALSTYLE
  5
2D
102
{ACAD_REACTORS
330
2A
102
}
330
2A
100
AcDbVisualStyle
  2
Gouraud
 70
     2
177
     2
291
     1
 71
     2
176
     1
 72
     2
176
     1
 73
     1
176
     1
 90
        2
176
     1
 40
-0.6
176
     1
 41
30.0
176
     1
 62
     5
 63
     7
421
 16777215
176
     1
 74
     0
176
     1
 91
        4
176
     1
 64
     7
176
     1
 65
   257
176
     1
 75
     1
176
     1
175
     1
176
     1
 42
1.0
176
     1
 92
        0
176
     1
 66
     7
176
     1
 43
1.0
176
     1
 76
     1
176
     1
 77
     6
176
     1
 78
     2
176
     1
 67
     7
176
     1
 79
     5
176
     1
170
     0
176
     1
171
     0
176
     1
290
     0
176
     1
 93
       13
176
     1
 44
0.0
176
     1
173
     0
176
     1
  0
VISUALSTYLE
  5
2E
102
{ACAD_REACTORS
330
2A
102
}
330
2A
100
AcDbVisualStyle
  2
GouraudWithEdges
 70
     3
177
     2
291
     1
 71
     2
176
     1
 72
     2
176
     1
 73
     1
176
     1
 90
        2
176
     1
 40
-0.6
176
     1
 41
30.0
176
     1
 62
     5
 63
     7
421
 16777215
176
     1
 74
     1
176
     1
 91
        4
176
     1
 64
     7
176
     1
 65
   257
176
     1
 75
     1
176
     1
175
     1
176
     1
 42
1.0
176
     1
 92
        0
176
     1
 66
   257
176
     1
 43
1.0
176
     1
 76
     1
176
     1
 77
     6
176
     1
 78
     2
176
     1
 67
     7
176
     1
 79
     5
176
     1
170
     0
176
     1
171
     0
176
     1
290
     0
176
     1
 93
       13
176
     1
 44
0.0
176
     1
173
     0
176
     1
  0
VISUALSTYLE
  5
38
102
{ACAD_REACTORS
330
2A
102
}
330
2A
100
AcDbVisualStyle
  2
Linepattern
 70
    14
177
     2
291
     1
 71
     2
176
     1
 72
     2
176
     1
 73
     0
176
     1
 90
        0
176
     1
 40
-0.6
176
     1
 41
-30.0
176
     1
 62
     5
 63
     7
421
 16777215
176
     1
 74
     1
176
     1
 91
        4
176
     1
 64
     7
176
     1
 65
   257
176
     1
 75
     7
176
     1
175
     7
176
     1
 42
1.0
176
     1
 92
        8
176
     1
 66
     7
176
     1
 43
1.0
176
     1
 76
     1
176
     1
 77
     6
176
     1
 78
     2
176
     1
 67
     7
176
     1
 79
     5
176
     1
170
     0
176
     1
171
     0
176
     1
290
     0
176
     1
 93
        1
176
     1
 44
0.0
176
     1
173
     0
176
     1
  0
VISUALSTYLE
  5
33
102
{ACAD_REACTORS
330
2A
102
}
330
2A
100
AcDbVisualStyle
  2
Realistic
 70
     8
177
     2
291
     0
 71
     2
176
     1
 72
     2
176
     1
 73
     0
176
     1
 90
        0
176
     1
 40
-0.6
176
     1
 41
-30.0
176
     1
 62
     5
 63
     7
421
 16777215
176
     1
 74
     1
176
     1
 91
        0
176
     1
 64
     7
176
     1
 65
   257
176
     1
 75
     1
176
     1
175
     1
176
     1
 42
1.0
176
     1
 92
        8
176
     1
 66
     8
424
  7895160
176
     1
 43
1.0
176
     1
 76
     1
176
     1
 77
     6
176
     1
 78
     2
176
     1
 67
     7
176
     1
 79
     5
176
     1
170
     0
176
     1
171
     0
176
     1
290
     0
176
     1
 93
       13
176
     1
 44
0.0
176
     1
173
     0
176
     1
  0
VISUALSTYLE
  5
37
102
{ACAD_REACTORS
330
2A
102
}
330
2A
100
AcDbVisualStyle
  2
Thicken
 70
    13
177
     2
291
     1
 71
     2
176
     1
 72
     2
176
     1
 73
     0
176
     1
 90
        0
176
     1
 40
-0.6
176
     1
 41
-30.0
176
     1
 62
     5
 63
     7
421
 16777215
176
     1
 74
     1
176
     1
 91
        4
176
     1
 64
     7
176
     1
 65
   257
176
     1
 75
     1
176
     1
175
     1
176
     1
 42
1.0
176
     1
 92
       12
176
     1
 66
     7
176
     1
 43
1.0
176
     1
 76
     1
176
     1
 77
     6
176
     1
 78
     2
176
     1
 67
     7
176
     1
 79
     5
176
     1
170
     0
176
     1
171
     0
176
     1
290
     0
176
     1
 93
        1
176
     1
 44
0.0
176
     1
173
     0
176
     1
  0
ENDSEC
  0
EOF
