  0
SECTION
  2
HEADER
  9
$ACADVER
  1
AC1024
  9
$ACADMAINTVER
 70
   226
  9
$DWGCODEPAGE
  3
ANSI_932
  9
$INSBASE
 10
0.0
 20
0.0
 30
0.0
  9
$EXTMIN
 10
1.000000000000000E+20
 20
1.000000000000000E+20
 30
1.000000000000000E+20
  9
$EXTMAX
 10
-1.000000000000000E+20
 20
-1.000000000000000E+20
 30
-1.000000000000000E+20
  9
$LIMMIN
 10
0.0
 20
0.0
  9
$LIMMAX
 10
12.0
 20
9.0
  9
$ORTHOMODE
 70
     0
  9
$REGENMODE
 70
     1
  9
$FILLMODE
 70
     1
  9
$QTEXTMODE
 70
     0
  9
$MIRRTEXT
 70
     0
  9
$LTSCALE
 40
1.0
  9
$ATTMODE
 70
     1
  9
$TEXTSIZE
 40
0.2
  9
$TRACEWID
 40
0.05
  9
$TEXTSTYLE
  7
Standard
  9
$CLAYER
  8
0
  9
$CELTYPE
  6
ByLayer
  9
$CECOLOR
 62
   256
  9
$CELTSCALE
 40
1.0
  9
$DISPSILH
 70
     0
  9
$DIMSCALE
 40
1.0
  9
$DIMASZ
 40
0.18
  9
$DIMEXO
 40
0.0625
  9
$DIMDLI
 40
0.38
  9
$DIMRND
 40
0.0
  9
$DIMDLE
 40
0.0
  9
$DIMEXE
 40
0.18
  9
$DIMTP
 40
0.0
  9
$DIMTM
 40
0.0
  9
$DIMTXT
 40
0.18
  9
$DIMCEN
 40
0.09
  9
$DIMTSZ
 40
0.0
  9
$DIMTOL
 70
     0
  9
$DIMLIM
 70
     0
  9
$DIMTIH
 70
     1
  9
$DIMTOH
 70
     1
  9
$DIMSE1
 70
     0
  9
$DIMSE2
 70
     0
  9
$DIMTAD
 70
     0
  9
$DIMZIN
 70
     0
  9
$DIMBLK
  1

  9
$DIMASO
 70
     1
  9
$DIMSHO
 70
     1
  9
$DIMPOST
  1

  9
$DIMAPOST
  1

  9
$DIMALT
 70
     0
  9
$DIMALTD
 70
     2
  9
$DIMALTF
 40
25.4
  9
$DIMLFAC
 40
1.0
  9
$DIMTOFL
 70
     0
  9
$DIMTVP
 40
0.0
  9
$DIMTIX
 70
     0
  9
$DIMSOXD
 70
     0
  9
$DIMSAH
 70
     0
  9
$DIMBLK1
  1

  9
$DIMBLK2
  1

  9
$DIMSTYLE
  2
Standard
  9
$DIMCLRD
 70
     0
  9
$DIMCLRE
 70
     0
  9
$DIMCLRT
 70
     0
  9
$DIMTFAC
 40
1.0
  9
$DIMGAP
 40
0.09
  9
$DIMJUST
 70
     0
  9
$DIMSD1
 70
     0
  9
$DIMSD2
 70
     0
  9
$DIMTOLJ
 70
     1
  9
$DIMTZIN
 70
     0
  9
$DIMALTZ
 70
     0
  9
$DIMALTTZ
 70
     0
  9
$DIMUPT
 70
     0
  9
$DIMDEC
 70
     4
  9
$DIMTDEC
 70
     4
  9
$DIMALTU
 70
     2
  9
$DIMALTTD
 70
     2
  9
$DIMTXSTY
  7
Standard
  9
$DIMAUNIT
 70
     0
  9
$DIMADEC
 70
     0
  9
$DIMALTRND
 40
0.0
  9
$DIMAZIN
 70
     0
  9
$DIMDSEP
 70
    46
  9
$DIMATFIT
 70
     3
  9
$DIMFRAC
 70
     0
  9
$DIMLDRBLK
  1

  9
$DIMLUNIT
 70
     2
  9
$DIMLWD
 70
    -2
  9
$DIMLWE
 70
    -2
  9
$DIMTMOVE
 70
     0
  9
$DIMFXL
 40
1.0
  9
$DIMFXLON
 70
     0
  9
$DIMJOGANG
 40
0.7853981633974483
  9
$DIMTFILL
 70
     0
  9
$DIMTFILLCLR
 70
     0
  9
$DIMARCSYM
 70
     0
  9
$DIMLTYPE
  6

  9
$DIMLTEX1
  6

  9
$DIMLTEX2
  6

  9
$DIMTXTDIRECTION
 70
     0
  9
$LUNITS
 70
     2
  9
$LUPREC
 70
     4
  9
$SKETCHINC
 40
0.1
  9
$FILLETRAD
 40
0.0
  9
$AUNITS
 70
     0
  9
$AUPREC
 70
     0
  9
$MENU
  1
.
  9
$ELEVATION
 40
0.0
  9
$PELEVATION
 40
0.0
  9
$THICKNESS
 40
0.0
  9
$LIMCHECK
 70
     0
  9
$CHAMFERA
 40
0.0
  9
$CHAMFERB
 40
0.0
  9
$CHAMFERC
 40
0.0
  9
$CHAMFERD
 40
0.0
  9
$SKPOLY
 70
     0
  9
$TDCREATE
 40
2459569.503159722
  9
$TDUCREATE
 40
2459569.128159722
  9
$TDUPDATE
 40
2459569.503159722
  9
$TDUUPDATE
 40
2459569.128159722
  9
$TDINDWG
 40
0.0000000000
  9
$TDUSRTIMER
 40
0.0000000000
  9
$USRTIMER
 70
     1
  9
$ANGBASE
 50
0.0
  9
$ANGDIR
 70
     0
  9
$PDMODE
 70
     0
  9
$PDSIZE
 40
0.0
  9
$PLINEWID
 40
0.0
  9
$SPLFRAME
 70
     0
  9
$SPLINETYPE
 70
     6
  9
$SPLINESEGS
 70
     8
  9
$HANDSEED
  5
1B3
  9
$SURFTAB1
 70
     6
  9
$SURFTAB2
 70
     6
  9
$SURFTYPE
 70
     6
  9
$SURFU
 70
     6
  9
$SURFV
 70
     6
  9
$UCSBASE
  2

  9
$UCSNAME
  2

  9
$UCSORG
 10
0.0
 20
0.0
 30
0.0
  9
$UCSXDIR
 10
1.0
 20
0.0
 30
0.0
  9
$UCSYDIR
 10
0.0
 20
1.0
 30
0.0
  9
$UCSORTHOREF
  2

  9
$UCSORTHOVIEW
 70
     0
  9
$UCSORGTOP
 10
0.0
 20
0.0
 30
0.0
  9
$UCSORGBOTTOM
 10
0.0
 20
0.0
 30
0.0
  9
$UCSORGLEFT
 10
0.0
 20
0.0
 30
0.0
  9
$UCSORGRIGHT
 10
0.0
 20
0.0
 30
0.0
  9
$UCSORGFRONT
 10
0.0
 20
0.0
 30
0.0
  9
$UCSORGBACK
 10
0.0
 20
0.0
 30
0.0
  9
$PUCSBASE
  2

  9
$PUCSNAME
  2

  9
$PUCSORG
 10
0.0
 20
0.0
 30
0.0
  9
$PUCSXDIR
 10
1.0
 20
0.0
 30
0.0
  9
$PUCSYDIR
 10
0.0
 20
1.0
 30
0.0
  9
$PUCSORTHOREF
  2

  9
$PUCSORTHOVIEW
 70
     0
  9
$PUCSORGTOP
 10
0.0
 20
0.0
 30
0.0
  9
$PUCSORGBOTTOM
 10
0.0
 20
0.0
 30
0.0
  9
$PUCSORGLEFT
 10
0.0
 20
0.0
 30
0.0
  9
$PUCSORGRIGHT
 10
0.0
 20
0.0
 30
0.0
  9
$PUCSORGFRONT
 10
0.0
 20
0.0
 30
0.0
  9
$PUCSORGBACK
 10
0.0
 20
0.0
 30
0.0
  9
$USERI1
 70
     0
  9
$USERI2
 70
     0
  9
$USERI3
 70
     0
  9
$USERI4
 70
     0
  9
$USERI5
 70
     0
  9
$USERR1
 40
0.0
  9
$USERR2
 40
0.0
  9
$USERR3
 40
0.0
  9
$USERR4
 40
0.0
  9
$USERR5
 40
0.0
  9
$WORLDVIEW
 70
     1
  9
$SHADEDGE
 70
     3
  9
$SHADEDIF
 70
    70
  9
$TILEMODE
 70
     1
  9
$MAXACTVP
 70
    64
  9
$PINSBASE
 10
0.0
 20
0.0
 30
0.0
  9
$PLIMCHECK
 70
     0
  9
$PEXTMIN
 10
1.000000000000000E+20
 20
1.000000000000000E+20
 30
1.000000000000000E+20
  9
$PEXTMAX
 10
-1.000000000000000E+20
 20
-1.000000000000000E+20
 30
-1.000000000000000E+20
  9
$PLIMMIN
 10
0.0
 20
0.0
  9
$PLIMMAX
 10
12.0
 20
9.0
  9
$UNITMODE
 70
     0
  9
$VISRETAIN
 70
     1
  9
$PLINEGEN
 70
     0
  9
$PSLTSCALE
 70
     1
  9
$TREEDEPTH
 70
  3020
  9
$CMLSTYLE
  2
Standard
  9
$CMLJUST
 70
     0
  9
$CMLSCALE
 40
1.0
  9
$PROXYGRAPHICS
 70
     1
  9
$MEASUREMENT
 70
     0
  9
$CELWEIGHT
370
    -1
  9
$ENDCAPS
280
     0
  9
$JOINSTYLE
280
     0
  9
$LWDISPLAY
290
     1
  9
$INSUNITS
 70
     4
  9
$HYPERLINKBASE
  1

  9
$STYLESHEET
  1

  9
$XEDIT
290
     1
  9
$CEPSNTYPE
380
     0
  9
$PSTYLEMODE
290
     1
  9
$FINGERPRINTGUID
  2
{1B86F31D-C757-B74D-B2D0-ECAE65208351}
  9
$VERSIONGUID
  2
{40C0D470-EFF9-A54B-8098-87E242B684D3}
  9
$EXTNAMES
290
     1
  9
$PSVPSCALE
 40
0.0
  9
$OLESTARTUP
290
     0
  9
$SORTENTS
280
   127
  9
$INDEXCTL
280
     0
  9
$HIDETEXT
280
     1
  9
$XCLIPFRAME
280
     2
  9
$HALOGAP
280
     0
  9
$OBSCOLOR
 70
   257
  9
$OBSLTYPE
280
     0
  9
$INTERSECTIONDISPLAY
280
     0
  9
$INTERSECTIONCOLOR
 70
   257
  9
$DIMASSOC
280
     2
  9
$PROJECTNAME
  1

  9
$CAMERADISPLAY
290
     0
  9
$LENSLENGTH
 40
50.0
  9
$CAMERAHEIGHT
 40
0.0
  9
$STEPSPERSEC
 40
2.0
  9
$STEPSIZE
 40
6.0
  9
$3DDWFPREC
 40
2.0
  9
$PSOLWIDTH
 40
0.25
  9
$PSOLHEIGHT
 40
4.0
  9
$LOFTANG1
 40
1.570796326794896
  9
$LOFTANG2
 40
1.570796326794896
  9
$LOFTMAG1
 40
0.0
  9
$LOFTMAG2
 40
0.0
  9
$LOFTPARAM
 70
     7
  9
$LOFTNORMALS
280
     1
  9
$LATITUDE
 40
37.795
  9
$LONGITUDE
 40
-122.394
  9
$NORTHDIRECTION
 40
0.0
  9
$TIMEZONE
 70
 -8000
  9
$LIGHTGLYPHDISPLAY
280
     1
  9
$TILEMODELIGHTSYNCH
280
     1
  9
$CMATERIAL
347
11
  9
$SOLIDHIST
280
     0
  9
$SHOWHIST
280
     1
  9
$DWFFRAME
280
     2
  9
$DGNFRAME
280
     0
  9
$REALWORLDSCALE
290
     1
  9
$INTERFERECOLOR
 62
     1
  9
$INTERFEREOBJVS
345
33
  9
$INTERFEREVPVS
346
30
  9
$CSHADOW
280
     0
  9
$SHADOWPLANELOCATION
 40
0.0
  0
ENDSEC
  0
SECTION
  2
CLASSES
  0
CLASS
  1
ACDBDICTIONARYWDFLT
  2
AcDbDictionaryWithDefault
  3
ObjectDBX Classes
 90
        0
 91
        1
280
     0
281
     0
  0
CLASS
  1
MATERIAL
  2
AcDbMaterial
  3
ObjectDBX Classes
 90
     1153
 91
        3
280
     0
281
     0
  0
CLASS
  1
VISUALSTYLE
  2
AcDbVisualStyle
  3
ObjectDBX Classes
 90
     4095
 91
       24
280
     0
281
     0
  0
CLASS
  1
SCALE
  2
AcDbScale
  3
ObjectDBX Classes
 90
     1153
 91
       17
280
     0
281
     0
  0
CLASS
  1
TABLESTYLE
  2
AcDbTableStyle
  3
ObjectDBX Classes
 90
     4095
 91
        1
280
     0
281
     0
  0
CLASS
  1
MLEADERSTYLE
  2
AcDbMLeaderStyle
  3
ACDB_MLEADERSTYLE_CLASS
 90
     4095
 91
        1
280
     0
281
     0
  0
CLASS
  1
ACDBSECTIONVIEWSTYLE
  2
AcDbSectionViewStyle
  3
ObjectDBX Classes
 90
     1025
 91
        1
280
     0
281
     0
  0
CLASS
  1
ACDBDETAILVIEWSTYLE
  2
AcDbDetailViewStyle
  3
ObjectDBX Classes
 90
     1025
 91
        1
280
     0
281
     0
  0
CLASS
  1
DICTIONARYVAR
  2
AcDbDictionaryVar
  3
ObjectDBX Classes
 90
        0
 91
        5
280
     0
281
     0
  0
CLASS
  1
CELLSTYLEMAP
  2
AcDbCellStyleMap
  3
ObjectDBX Classes
 90
     1152
 91
        1
280
     0
281
     0
  0
ENDSEC
  0
SECTION
  2
TABLES
  0
TABLE
  2
VPORT
  5
8
330
0
100
AcDbSymbolTable
 70
     1
  0
VPORT
  5
57
330
8
100
AcDbSymbolTableRecord
100
AcDbViewportTableRecord
  2
*Active
 70
     0
 10
0.0
 20
0.0
 11
1.0
 21
1.0
 12
0.0
 22
0.0
 13
0.0
 23
0.0
 14
1.0
 24
1.0
 15
0.0
 25
0.0
 16
0.0
 26
0.0
 36
1.0
 17
104.9999999737534
 27
-148.4999999628701
 37
0.0
 40
302.939999924255
 41
0.7070707070707534
 42
50.0
 43
0.0
 44
0.0
 50
0.0
 51
0.0
 71
     0
 72
   100
 73
     1
 74
     0
 75
     1
 76
     0
 77
     0
 78
     0
281
     0
 65
     1
110
0.0
120
0.0
130
0.0
111
1.0
121
0.0
131
0.0
112
0.0
122
1.0
132
0.0
 79
     0
146
0.0
 60
     3
 61
     5
292
     1
282
     1
141
0.0
142
0.0
 63
   250
421
  3355443
  0
ENDTAB
  0
TABLE
  2
LTYPE
  5
5
330
0
100
AcDbSymbolTable
 70
     2
  0
LTYPE
  5
5B
330
5
100
AcDbSymbolTableRecord
100
AcDbLinetypeTableRecord
  2
ByBlock
 70
     0
  3

 72
    65
 73
     0
 40
0.0
  0
LTYPE
  5
5C
330
5
100
AcDbSymbolTableRecord
100
AcDbLinetypeTableRecord
  2
ByLayer
 70
     0
  3

 72
    65
 73
     0
 40
0.0
  0
LTYPE
  5
5D
330
5
100
AcDbSymbolTableRecord
100
AcDbLinetypeTableRecord
  2
Continuous
 70
     0
  3
Solid line
 72
    65
 73
     0
 40
0.0
  0
LTYPE
  5
AD
330
5
100
AcDbSymbolTableRecord
100
AcDbLinetypeTableRecord
  2
AI-Linetype-0
 70
     0
  3
Adobe Illustrator Linetype No. 0
 72
    65
 73
     2
 40
1.411111110758333
 49
0.7055555553791667
 74
     0
 49
-0.7055555553791667
 74
     0
  0
ENDTAB
  0
TABLE
  2
LAYER
  5
2
330
0
100
AcDbSymbolTable
 70
     2
  0
LAYER
  5
54
330
2
100
AcDbSymbolTableRecord
100
AcDbLayerTableRecord
  2
0
 70
     0
 62
     7
  6
Continuous
370
    -3
390
F
347
21
  0
LAYER
  5
78
330
2
100
AcDbSymbolTableRecord
100
AcDbLayerTableRecord
  2
レイヤー 1
 70
     0
 62
     7
  6
Continuous
370
     0
390
F
347
21
  0
ENDTAB
  0
TABLE
  2
STYLE
  5
3
330
0
100
AcDbSymbolTable
 70
     2
  0
STYLE
  5
55
330
3
100
AcDbSymbolTableRecord
100
AcDbTextStyleTableRecord
  2
Standard
 70
     0
 40
0.0
 41
1.0
 50
0.0
 71
     0
 42
0.2
  3
txt
  4

  0
STYLE
  5
5A
330
3
100
AcDbSymbolTableRecord
100
AcDbTextStyleTableRecord
  2
Annotative
 70
     0
 40
0.0
 41
1.0
 50
0.0
 71
     0
 42
0.2
  3
txt
  4

1001
AcadAnnotative
1000
AnnotativeData
1002
{
1070
     1
1070
     1
1002
}
  0
ENDTAB
  0
TABLE
  2
VIEW
  5
6
330
0
100
AcDbSymbolTable
 70
     0
  0
ENDTAB
  0
TABLE
  2
UCS
  5
7
330
0
100
AcDbSymbolTable
 70
     0
  0
ENDTAB
  0
TABLE
  2
APPID
  5
9
330
0
100
AcDbSymbolTable
 70
     2
  0
APPID
  5
56
330
9
100
AcDbSymbolTableRecord
100
AcDbRegAppTableRecord
  2
ACAD
 70
     0
  0
APPID
  5
5E
330
9
100
AcDbSymbolTableRecord
100
AcDbRegAppTableRecord
  2
AcadAnnotative
 70
     0
  0
ENDTAB
  0
TABLE
  2
DIMSTYLE
  5
A
330
0
100
AcDbSymbolTable
 70
     2
100
AcDbDimStyleTable
 71
     0
  0
DIMSTYLE
105
58
330
A
100
AcDbSymbolTableRecord
100
AcDbDimStyleTableRecord
  2
Standard
 70
     0
340
55
  0
DIMSTYLE
105
59
330
A
100
AcDbSymbolTableRecord
100
AcDbDimStyleTableRecord
  2
Annotative
 70
     0
340
55
1001
AcadAnnotative
1000
AnnotativeData
1002
{
1070
     1
1070
     1
1002
}
  0
ENDTAB
  0
TABLE
  2
BLOCK_RECORD
  5
1
330
0
100
AcDbSymbolTable
 70
    17
  0
BLOCK_RECORD
  5
70
330
1
100
AcDbSymbolTableRecord
100
AcDbBlockTableRecord
  2
*Model_Space
340
73
 70
     0
280
     1
281
     0
  0
BLOCK_RECORD
  5
6C
330
1
100
AcDbSymbolTableRecord
100
AcDbBlockTableRecord
  2
*Paper_Space
340
6F
 70
     0
280
     1
281
     0
  0
BLOCK_RECORD
  5
74
330
1
100
AcDbSymbolTableRecord
100
AcDbBlockTableRecord
  2
*Paper_Space0
340
77
 70
     0
280
     1
281
     0
  0
BLOCK_RECORD
  5
79
330
1
100
AcDbSymbolTableRecord
100
AcDbBlockTableRecord
  2
Block_0
340
0
102
{BLKREFS
331
7A
102
}
 70
     0
280
     1
281
     0
  0
BLOCK_RECORD
  5
7D
330
1
100
AcDbSymbolTableRecord
100
AcDbBlockTableRecord
  2
Block_1
340
0
102
{BLKREFS
331
7E
102
}
 70
     0
280
     1
281
     0
  0
BLOCK_RECORD
  5
81
330
1
100
AcDbSymbolTableRecord
100
AcDbBlockTableRecord
  2
Block_2
340
0
102
{BLKREFS
331
82
102
}
 70
     0
280
     1
281
     0
  0
BLOCK_RECORD
  5
AE
330
1
100
AcDbSymbolTableRecord
100
AcDbBlockTableRecord
  2
Block_3
340
0
102
{BLKREFS
331
AF
102
}
 70
     0
280
     1
281
     0
  0
BLOCK_RECORD
  5
119
330
1
100
AcDbSymbolTableRecord
100
AcDbBlockTableRecord
  2
Block_4
340
0
102
{BLKREFS
331
11A
102
}
 70
     0
280
     1
281
     0
  0
BLOCK_RECORD
  5
11D
330
1
100
AcDbSymbolTableRecord
100
AcDbBlockTableRecord
  2
Block_5
340
0
102
{BLKREFS
331
11E
102
}
 70
     0
280
     1
281
     0
  0
BLOCK_RECORD
  5
12A
330
1
100
AcDbSymbolTableRecord
100
AcDbBlockTableRecord
  2
Block_6
340
0
102
{BLKREFS
331
12B
102
}
 70
     0
280
     1
281
     0
  0
BLOCK_RECORD
  5
12E
330
1
100
AcDbSymbolTableRecord
100
AcDbBlockTableRecord
  2
Block_7
340
0
102
{BLKREFS
331
12F
102
}
 70
     0
280
     1
281
     0
  0
BLOCK_RECORD
  5
138
330
1
100
AcDbSymbolTableRecord
100
AcDbBlockTableRecord
  2
Block_8
340
0
102
{BLKREFS
331
139
102
}
 70
     0
280
     1
281
     0
  0
BLOCK_RECORD
  5
140
330
1
100
AcDbSymbolTableRecord
100
AcDbBlockTableRecord
  2
Block_9
340
0
102
{BLKREFS
331
141
102
}
 70
     0
280
     1
281
     0
  0
BLOCK_RECORD
  5
144
330
1
100
AcDbSymbolTableRecord
100
AcDbBlockTableRecord
  2
Block_10
340
0
102
{BLKREFS
331
145
102
}
 70
     0
280
     1
281
     0
  0
BLOCK_RECORD
  5
14F
330
1
100
AcDbSymbolTableRecord
100
AcDbBlockTableRecord
  2
Block_11
340
0
102
{BLKREFS
331
150
102
}
 70
     0
280
     1
281
     0
  0
BLOCK_RECORD
  5
153
330
1
100
AcDbSymbolTableRecord
100
AcDbBlockTableRecord
  2
Block_12
340
0
102
{BLKREFS
331
154
102
}
 70
     0
280
     1
281
     0
  0
BLOCK_RECORD
  5
161
330
1
100
AcDbSymbolTableRecord
100
AcDbBlockTableRecord
  2
Block_13
340
0
102
{BLKREFS
331
162
102
}
 70
     0
280
     1
281
     0
  0
BLOCK_RECORD
  5
165
330
1
100
AcDbSymbolTableRecord
100
AcDbBlockTableRecord
  2
Block_14
340
0
102
{BLKREFS
331
166
102
}
 70
     0
280
     1
281
     0
  0
BLOCK_RECORD
  5
16E
330
1
100
AcDbSymbolTableRecord
100
AcDbBlockTableRecord
  2
Block_15
340
0
102
{BLKREFS
331
16F
102
}
 70
     0
280
     1
281
     0
  0
ENDTAB
  0
ENDSEC
  0
SECTION
  2
BLOCKS
  0
BLOCK
  5
71
330
70
100
AcDbEntity
  8
0
100
AcDbBlockBegin
  2
*Model_Space
 70
     0
 10
0.0
 20
0.0
 30
0.0
  3
*Model_Space
  1

  0
ENDBLK
  5
72
330
70
100
AcDbEntity
  8
0
100
AcDbBlockEnd
  0
BLOCK
  5
6D
330
6C
100
AcDbEntity
 67
     1
  8
0
100
AcDbBlockBegin
  2
*Paper_Space
 70
     0
 10
0.0
 20
0.0
 30
0.0
  3
*Paper_Space
  1

  0
ENDBLK
  5
6E
330
6C
100
AcDbEntity
 67
     1
  8
0
100
AcDbBlockEnd
  0
BLOCK
  5
75
330
74
100
AcDbEntity
 67
     1
  8
0
100
AcDbBlockBegin
  2
*Paper_Space0
 70
     0
 10
0.0
 20
0.0
 30
0.0
  3
*Paper_Space0
  1

  0
ENDBLK
  5
76
330
74
100
AcDbEntity
 67
     1
  8
0
100
AcDbBlockEnd
  0
BLOCK
  5
7B
330
79
100
AcDbEntity
  8
0
100
AcDbBlockBegin
  2
Block_0
 70
     0
 10
0.0
 20
0.0
 30
0.0
  3
Block_0
  1

  0
INSERT
  5
7E
330
79
100
AcDbEntity
  8
レイヤー 1
100
AcDbBlockReference
  2
Block_1
 10
0.0
 20
0.0
 30
0.0
  0
LWPOLYLINE
  5
AB
330
79
100
AcDbEntity
  8
レイヤー 1
 62
   250
420
  2299925
370
     9
100
AcDbPolyline
 90
        3
 70
     0
 43
0.0
 10
118.631738229477
 20
-146.0698718244978
 10
124.8054902941937
 20
-154.183584322469
 10
135.4474197449176
 20
-154.183584322469
  0
LWPOLYLINE
  5
AC
330
79
100
AcDbEntity
  8
レイヤー 1
  6
AI-Linetype-0
 62
   154
420
    23468
370
    25
100
AcDbPolyline
 90
        6
 70
     0
 43
0.0
 10
79.7085328338661
 20
-146.7754273798769
 10
101.345627559371
 20
-145.7758315467936
 10
101.345627559371
 20
-151.0674982121373
 10
110.2238092773145
 20
-151.0674982121373
 10
110.2238092773145
 20
-145.6583565468231
 10
131.802167060138
 20
-146.6577759910176
  0
INSERT
  5
AF
330
79
100
AcDbEntity
  8
レイヤー 1
100
AcDbBlockReference
  2
Block_3
 10
0.0
 20
0.0
 30
0.0
  0
ENDBLK
  5
7C
330
79
100
AcDbEntity
  8
0
100
AcDbBlockEnd
  0
BLOCK
  5
7F
330
7D
100
AcDbEntity
  8
0
100
AcDbBlockBegin
  2
Block_1
 70
     0
 10
0.0
 20
0.0
 30
0.0
  3
Block_1
  1

  0
INSERT
  5
82
330
7D
100
AcDbEntity
  8
レイヤー 1
100
AcDbBlockReference
  2
Block_2
 10
0.0
 20
0.0
 30
0.0
  0
ENDBLK
  5
80
330
7D
100
AcDbEntity
  8
0
100
AcDbBlockEnd
  0
BLOCK
  5
83
330
81
100
AcDbEntity
  8
0
100
AcDbBlockBegin
  2
Block_2
 70
     0
 10
0.0
 20
0.0
 30
0.0
  3
Block_2
  1

  0
SPLINE
  5
85
330
81
100
AcDbEntity
  8
レイヤー 1
100
AcDbSpline
210
0.0
220
0.0
230
1.0
 70
     9
 71
     3
 72
    17
 73
    13
 74
     0
 42
0.0000000001
 43
0.0000000001
 40
0.0
 40
0.0
 40
0.0
 40
0.0
 40
1.0
 40
1.0
 40
1.0
 40
2.0
 40
2.0
 40
2.0
 40
3.0
 40
3.0
 40
3.0
 40
4.0
 40
4.0
 40
4.0
 40
4.0
 10
126.4039984493018
 20
-150.511398616886
 30
0.0
 10
126.2854871646092
 20
-150.3994330136154
 30
0.0
 10
126.1931586056045
 20
-150.3356987471383
 30
0.0
 10
126.0894612314984
 20
-150.2723089902097
 30
0.0
 10
126.0894612314984
 20
-150.2723089902097
 30
0.0
 10
126.2003933061235
 20
-150.1603433869391
 30
0.0
 10
126.2003933061235
 20
-150.1603433869391
 30
0.0
 10
126.3151149857823
 20
-150.2068521759899
 30
0.0
 10
126.4115776593693
 20
-150.2640407610451
 30
0.0
 10
126.5207871862517
 20
-150.3653265683114
 30
0.0
 10
126.5207871862517
 20
-150.3653265683114
 30
0.0
 10
126.4039984493018
 20
-150.511398616886
 30
0.0
 10
126.4039984493018
 20
-150.511398616886
 30
0.0
  0
SPLINE
  5
86
330
81
100
AcDbEntity
  8
レイヤー 1
100
AcDbSpline
210
0.0
220
0.0
230
1.0
 70
     9
 71
     3
 72
    20
 73
    16
 74
     0
 42
0.0000000001
 43
0.0000000001
 40
0.0
 40
0.0
 40
0.0
 40
0.0
 40
1.0
 40
1.0
 40
1.0
 40
2.0
 40
2.0
 40
2.0
 40
3.0
 40
3.0
 40
3.0
 40
4.0
 40
4.0
 40
4.0
 40
5.0
 40
5.0
 40
5.0
 40
5.0
 10
125.9134168522022
 20
-149.4558213602055
 30
0.0
 10
125.8799994259953
 20
-149.5043972065475
 30
0.0
 10
125.8266004459739
 20
-149.5826008740626
 30
0.0
 10
125.7042995562475
 20
-149.6928439295906
 30
0.0
 10
125.7745795041466
 20
-149.696978044173
 30
0.0
 10
125.800417720286
 20
-149.696978044173
 30
0.0
 10
125.820743783649
 20
-149.696978044173
 30
0.0
 10
125.820743783649
 20
-149.696978044173
 30
0.0
 10
126.020903831342
 20
-149.696978044173
 30
0.0
 10
126.020903831342
 20
-149.696978044173
 30
0.0
 10
126.048464595224
 20
-149.696978044173
 30
0.0
 10
126.0911837792411
 20
-149.6949109868818
 30
0.0
 10
126.1559515743638
 20
-149.6928439295906
 30
0.0
 10
126.0577663530342
 20
-149.6187743766578
 30
0.0
 10
126.0153916785656
 20
-149.5722655876069
 30
0.0
 10
125.9134168522022
 20
-149.4558213602055
 30
0.0
  0
SPLINE
  5
87
330
81
100
AcDbEntity
  8
レイヤー 1
100
AcDbSpline
210
0.0
220
0.0
230
1.0
 70
     9
 71
     3
 72
    23
 73
    19
 74
     0
 42
0.0000000001
 43
0.0000000001
 40
0.0
 40
0.0
 40
0.0
 40
0.0
 40
1.0
 40
1.0
 40
1.0
 40
2.0
 40
2.0
 40
2.0
 40
3.0
 40
3.0
 40
3.0
 40
4.0
 40
4.0
 40
4.0
 40
5.0
 40
5.0
 40
5.0
 40
6.0
 40
6.0
 40
6.0
 40
6.0
 10
125.6522786144202
 20
-150.2978026968005
 30
0.0
 10
125.6336750987999
 20
-150.3208848365517
 30
0.0
 10
125.5485812403142
 20
-150.4331949493709
 30
0.0
 10
125.4262803505878
 20
-150.5134656741772
 30
0.0
 10
125.4262803505878
 20
-150.5134656741772
 30
0.0
 10
125.2802083020133
 20
-150.3928873321934
 30
0.0
 10
125.2802083020133
 20
-150.3928873321934
 30
0.0
 10
125.4118109495498
 20
-150.3167507219694
 30
0.0
 10
125.4986273557781
 20
-150.2216660865765
 30
0.0
 10
125.5413465397952
 20
-150.1686116161037
 30
0.0
 10
125.5413465397952
 20
-150.1686116161037
 30
0.0
 10
125.6929307411462
 20
-150.2512939077496
 30
0.0
 10
125.6929307411462
 20
-150.2512939077496
 30
0.0
 10
125.7005099512137
 20
-150.255428022332
 30
0.0
 10
125.7080891612813
 20
-150.2616291942054
 30
0.0
 10
125.7080891612813
 20
-150.2723089902097
 30
0.0
 10
125.7080891612813
 20
-150.2978026968005
 30
0.0
 10
125.676394282817
 20
-150.2978026968005
 30
0.0
 10
125.6522786144202
 20
-150.2978026968005
 30
0.0
  0
SPLINE
  5
88
330
81
100
AcDbEntity
  8
レイヤー 1
100
AcDbSpline
210
0.0
220
0.0
230
1.0
 70
     9
 71
     3
 72
    17
 73
    13
 74
     0
 42
0.0000000001
 43
0.0000000001
 40
0.0
 40
0.0
 40
0.0
 40
0.0
 40
1.0
 40
1.0
 40
1.0
 40
2.0
 40
2.0
 40
2.0
 40
3.0
 40
3.0
 40
3.0
 40
4.0
 40
4.0
 40
4.0
 40
4.0
 10
125.2560926336165
 20
-149.593280670067
 30
0.0
 10
125.2023491440466
 20
-149.5171440598429
 30
0.0
 10
125.0893500121304
 20
-149.4410074496189
 30
0.0
 10
124.9987440008683
 20
-149.4113796284458
 30
0.0
 10
124.9987440008683
 20
-149.4113796284458
 30
0.0
 10
125.0821153116114
 20
-149.2463595547023
 30
0.0
 10
125.0821153116114
 20
-149.2463595547023
 30
0.0
 10
125.1709987751308
 20
-149.2821885477489
 30
0.0
 10
125.2636718436841
 20
-149.339377132804
 30
0.0
 10
125.3411864921022
 20
-149.4196478576104
 30
0.0
 10
125.3411864921022
 20
-149.4196478576104
 30
0.0
 10
125.2560926336165
 20
-149.593280670067
 30
0.0
 10
125.2560926336165
 20
-149.593280670067
 30
0.0
  0
SPLINE
  5
89
330
81
100
AcDbEntity
  8
レイヤー 1
100
AcDbSpline
210
0.0
220
0.0
230
1.0
 70
     9
 71
     3
 72
    23
 73
    19
 74
     0
 42
0.0000000001
 43
0.0000000001
 40
0.0
 40
0.0
 40
0.0
 40
0.0
 40
1.0
 40
1.0
 40
1.0
 40
2.0
 40
2.0
 40
2.0
 40
3.0
 40
3.0
 40
3.0
 40
4.0
 40
4.0
 40
4.0
 40
5.0
 40
5.0
 40
5.0
 40
6.0
 40
6.0
 40
6.0
 40
6.0
 10
125.0338839748179
 20
-150.4879719675863
 30
0.0
 10
125.0338839748179
 20
-150.5093315595949
 30
0.0
 10
125.0356065225605
 20
-150.5472276099326
 30
0.0
 10
125.0135579114549
 20
-150.5472276099326
 30
0.0
 10
125.0042561536448
 20
-150.5472276099326
 30
0.0
 10
124.9970214531257
 20
-150.5410264380592
 30
0.0
 10
124.9877196953155
 20
-150.5241454701815
 30
0.0
 10
124.9877196953155
 20
-150.5241454701815
 30
0.0
 10
124.896769174505
 20
-150.3422444285603
 30
0.0
 10
124.896769174505
 20
-150.3422444285603
 30
0.0
 10
125.0859049166452
 20
-150.2130533478634
 30
0.0
 10
125.2578151813591
 20
-149.9360676708493
 30
0.0
 10
125.2988118176336
 20
-149.8640651752076
 30
0.0
 10
125.2988118176336
 20
-149.8640651752076
 30
0.0
 10
125.3615125554652
 20
-150.0438991595376
 30
0.0
 10
125.3615125554652
 20
-150.0438991595376
 30
0.0
 10
125.2450683280637
 20
-150.2406141117454
 30
0.0
 10
125.0914170694216
 20
-150.4245822106577
 30
0.0
 10
125.0338839748179
 20
-150.4879719675863
 30
0.0
  0
SPLINE
  5
8A
330
81
100
AcDbEntity
  8
レイヤー 1
100
AcDbSpline
210
0.0
220
0.0
230
1.0
 70
     9
 71
     3
 72
   182
 73
   178
 74
     0
 42
0.0000000001
 43
0.0000000001
 40
0.0
 40
0.0
 40
0.0
 40
0.0
 40
1.0
 40
1.0
 40
1.0
 40
2.0
 40
2.0
 40
2.0
 40
3.0
 40
3.0
 40
3.0
 40
4.0
 40
4.0
 40
4.0
 40
5.0
 40
5.0
 40
5.0
 40
6.0
 40
6.0
 40
6.0
 40
7.0
 40
7.0
 40
7.0
 40
8.0
 40
8.0
 40
8.0
 40
9.0
 40
9.0
 40
9.0
 40
10.0
 40
10.0
 40
10.0
 40
11.0
 40
11.0
 40
11.0
 40
12.0
 40
12.0
 40
12.0
 40
13.0
 40
13.0
 40
13.0
 40
14.0
 40
14.0
 40
14.0
 40
15.0
 40
15.0
 40
15.0
 40
16.0
 40
16.0
 40
16.0
 40
17.0
 40
17.0
 40
17.0
 40
18.0
 40
18.0
 40
18.0
 40
19.0
 40
19.0
 40
19.0
 40
20.0
 40
20.0
 40
20.0
 40
21.0
 40
21.0
 40
21.0
 40
22.0
 40
22.0
 40
22.0
 40
23.0
 40
23.0
 40
23.0
 40
24.0
 40
24.0
 40
24.0
 40
25.0
 40
25.0
 40
25.0
 40
26.0
 40
26.0
 40
26.0
 40
27.0
 40
27.0
 40
27.0
 40
28.0
 40
28.0
 40
28.0
 40
29.0
 40
29.0
 40
29.0
 40
30.0
 40
30.0
 40
30.0
 40
31.0
 40
31.0
 40
31.0
 40
32.0
 40
32.0
 40
32.0
 40
33.0
 40
33.0
 40
33.0
 40
34.0
 40
34.0
 40
34.0
 40
35.0
 40
35.0
 40
35.0
 40
36.0
 40
36.0
 40
36.0
 40
37.0
 40
37.0
 40
37.0
 40
38.0
 40
38.0
 40
38.0
 40
39.0
 40
39.0
 40
39.0
 40
40.0
 40
40.0
 40
40.0
 40
41.0
 40
41.0
 40
41.0
 40
42.0
 40
42.0
 40
42.0
 40
43.0
 40
43.0
 40
43.0
 40
44.0
 40
44.0
 40
44.0
 40
45.0
 40
45.0
 40
45.0
 40
46.0
 40
46.0
 40
46.0
 40
47.0
 40
47.0
 40
47.0
 40
48.0
 40
48.0
 40
48.0
 40
49.0
 40
49.0
 40
49.0
 40
50.0
 40
50.0
 40
50.0
 40
51.0
 40
51.0
 40
51.0
 40
52.0
 40
52.0
 40
52.0
 40
53.0
 40
53.0
 40
53.0
 40
54.0
 40
54.0
 40
54.0
 40
55.0
 40
55.0
 40
55.0
 40
56.0
 40
56.0
 40
56.0
 40
57.0
 40
57.0
 40
57.0
 40
58.0
 40
58.0
 40
58.0
 40
59.0
 40
59.0
 40
59.0
 40
59.0
 10
126.0133246212744
 20
-151.1163573840959
 30
0.0
 10
126.0133246212744
 20
-151.1163573840959
 30
0.0
 10
125.455908171761
 20
-151.1163573840959
 30
0.0
 10
125.455908171761
 20
-151.1163573840959
 30
0.0
 10
125.2691839964604
 20
-151.1163573840959
 30
0.0
 10
125.0800482543203
 20
-151.1208360082267
 30
0.0
 10
124.8929795694712
 20
-151.1332383519736
 30
0.0
 10
124.8929795694712
 20
-151.1332383519736
 30
0.0
 10
124.8929795694712
 20
-150.9261881133101
 30
0.0
 10
124.8929795694712
 20
-150.9261881133101
 30
0.0
 10
125.0876274643878
 20
-150.938590457057
 30
0.0
 10
125.3708143132753
 20
-150.9430690811878
 30
0.0
 10
125.455908171761
 20
-150.9430690811878
 30
0.0
 10
125.455908171761
 20
-150.9430690811878
 30
0.0
 10
125.648833518935
 20
-150.9430690811878
 30
0.0
 10
125.648833518935
 20
-150.9430690811878
 30
0.0
 10
125.648833518935
 20
-150.9430690811878
 30
0.0
 10
125.648833518935
 20
-150.8011311471955
 30
0.0
 10
125.648833518935
 20
-150.8011311471955
 30
0.0
 10
125.648833518935
 20
-150.8011311471955
 30
0.0
 10
125.5079291135883
 20
-150.8011311471955
 30
0.0
 10
125.5079291135883
 20
-150.8011311471955
 30
0.0
 10
125.3635796127563
 20
-150.8011311471955
 30
0.0
 10
125.2188856023758
 20
-150.8056097713263
 30
0.0
 10
125.0745361015438
 20
-150.8204236819129
 30
0.0
 10
125.0745361015438
 20
-150.8204236819129
 30
0.0
 10
125.0745361015438
 20
-150.6109618764097
 30
0.0
 10
125.0745361015438
 20
-150.6109618764097
 30
0.0
 10
125.2247422647007
 20
-150.6257757869963
 30
0.0
 10
125.441438770723
 20
-150.6299099015786
 30
0.0
 10
125.5079291135883
 20
-150.6299099015786
 30
0.0
 10
125.5079291135883
 20
-150.6299099015786
 30
0.0
 10
125.648833518935
 20
-150.6299099015786
 30
0.0
 10
125.648833518935
 20
-150.6299099015786
 30
0.0
 10
125.6450439139012
 20
-150.5579074059369
 30
0.0
 10
125.6450439139012
 20
-150.5517062340634
 30
0.0
 10
125.6395317611248
 20
-150.4986517635906
 30
0.0
 10
125.6395317611248
 20
-150.4986517635906
 30
0.0
 10
125.7614881413027
 20
-150.5134656741772
 30
0.0
 10
125.7614881413027
 20
-150.5134656741772
 30
0.0
 10
125.7614881413027
 20
-150.5134656741772
 30
0.0
 10
125.6746717350744
 20
-150.3422444285603
 30
0.0
 10
125.6746717350744
 20
-150.3422444285603
 30
0.0
 10
125.7153238618003
 20
-150.3484456004337
 30
0.0
 10
125.780091656923
 20
-150.3570583391468
 30
0.0
 10
125.7949055675096
 20
-150.3570583391468
 30
0.0
 10
125.8393472992693
 20
-150.3570583391468
 30
0.0
 10
125.8541612098559
 20
-150.3356987471383
 30
0.0
 10
125.8541612098559
 20
-150.2788546716317
 30
0.0
 10
125.8541612098559
 20
-150.2788546716317
 30
0.0
 10
125.8541612098559
 20
-150.1410508522217
 30
0.0
 10
125.8541612098559
 20
-150.1410508522217
 30
0.0
 10
125.8541612098559
 20
-150.1410508522217
 30
0.0
 10
125.7614881413027
 20
-150.1410508522217
 30
0.0
 10
125.7614881413027
 20
-150.1410508522217
 30
0.0
 10
125.6450439139012
 20
-150.1410508522217
 30
0.0
 10
125.5079291135883
 20
-150.1410508522217
 30
0.0
 10
125.4004421344485
 20
-150.1537977055171
 30
0.0
 10
125.4004421344485
 20
-150.1537977055171
 30
0.0
 10
125.4004421344485
 20
-149.9636284347313
 30
0.0
 10
125.4004421344485
 20
-149.9636284347313
 30
0.0
 10
125.5468586925716
 20
-149.980509402609
 30
0.0
 10
125.7487412880072
 20
-149.9825764599002
 30
0.0
 10
125.7614881413027
 20
-149.9825764599002
 30
0.0
 10
125.7614881413027
 20
-149.9825764599002
 30
0.0
 10
125.8541612098559
 20
-149.9825764599002
 30
0.0
 10
125.8541612098559
 20
-149.9825764599002
 30
0.0
 10
125.8541612098559
 20
-149.9825764599002
 30
0.0
 10
125.8541612098559
 20
-149.8513183219122
 30
0.0
 10
125.8541612098559
 20
-149.8513183219122
 30
0.0
 10
125.8541612098559
 20
-149.8513183219122
 30
0.0
 10
125.820743783649
 20
-149.8513183219122
 30
0.0
 10
125.820743783649
 20
-149.8513183219122
 30
0.0
 10
125.7818142046656
 20
-149.8513183219122
 30
0.0
 10
125.6726046777832
 20
-149.8554524364945
 30
0.0
 10
125.5950900293651
 20
-149.8640651752076
 30
0.0
 10
125.5950900293651
 20
-149.8640651752076
 30
0.0
 10
125.5950900293651
 20
-149.7837944504013
 30
0.0
 10
125.5950900293651
 20
-149.7837944504013
 30
0.0
 10
125.5485812403142
 20
-149.821690500739
 30
0.0
 10
125.5265326292086
 20
-149.8365044113256
 30
0.0
 10
125.4893255979679
 20
-149.8599310606253
 30
0.0
 10
125.4893255979679
 20
-149.8599310606253
 30
0.0
 10
125.324650033773
 20
-149.7307399799284
 30
0.0
 10
125.324650033773
 20
-149.7307399799284
 30
0.0
 10
125.3932074339294
 20
-149.696978044173
 30
0.0
 10
125.5303222342424
 20
-149.6335882872443
 30
0.0
 10
125.6670925250068
 20
-149.4895832959609
 30
0.0
 10
125.7394395301971
 20
-149.4113796284458
 30
0.0
 10
125.8079969303535
 20
-149.3266302795086
 30
0.0
 10
125.8541612098559
 20
-149.2253444722423
 30
0.0
 10
125.8541612098559
 20
-149.2253444722423
 30
0.0
 10
126.0395073469623
 20
-149.2866671718797
 30
0.0
 10
126.0395073469623
 20
-149.2866671718797
 30
0.0
 10
126.0560438052915
 20
-149.2928683437532
 30
0.0
 10
126.0653455631017
 20
-149.3014810824663
 30
0.0
 10
126.0653455631017
 20
-149.3138834262132
 30
0.0
 10
126.0653455631017
 20
-149.3311089036394
 30
0.0
 10
126.0543212575489
 20
-149.3373100755129
 30
0.0
 10
126.0319281368948
 20
-149.3500569288083
 30
0.0
 10
126.1022080847939
 20
-149.4472086214923
 30
0.0
 10
126.2448350378832
 20
-149.5447048237249
 30
0.0
 10
126.2744628590564
 20
-149.5636528488938
 30
0.0
 10
126.4060655065929
 20
-149.6525363124133
 30
0.0
 10
126.5059732756652
 20
-149.6800970762952
 30
0.0
 10
126.5745306758216
 20
-149.6990451014641
 30
0.0
 10
126.5745306758216
 20
-149.6990451014641
 30
0.0
 10
126.4708333017156
 20
-149.8681992897899
 30
0.0
 10
126.4708333017156
 20
-149.8681992897899
 30
0.0
 10
126.3967637487827
 20
-149.8385714686167
 30
0.0
 10
126.352322017023
 20
-149.8196234434479
 30
0.0
 10
126.248624642917
 20
-149.7541666292281
 30
0.0
 10
126.248624642917
 20
-149.7541666292281
 30
0.0
 10
126.248624642917
 20
-149.8640651752076
 30
0.0
 10
126.248624642917
 20
-149.8640651752076
 30
0.0
 10
126.1762776377267
 20
-149.8554524364945
 30
0.0
 10
126.0653455631017
 20
-149.8513183219122
 30
0.0
 10
126.0188367740508
 20
-149.8513183219122
 30
0.0
 10
126.0188367740508
 20
-149.8513183219122
 30
0.0
 10
126.0188367740508
 20
-149.9825764599002
 30
0.0
 10
126.0188367740508
 20
-149.9825764599002
 30
0.0
 10
126.0188367740508
 20
-149.9825764599002
 30
0.0
 10
126.124601205448
 20
-149.9825764599002
 30
0.0
 10
126.124601205448
 20
-149.9825764599002
 30
0.0
 10
126.1263237531906
 20
-149.9825764599002
 30
0.0
 10
126.3302734059174
 20
-149.980509402609
 30
0.0
 10
126.4856472123022
 20
-149.9636284347313
 30
0.0
 10
126.4856472123022
 20
-149.9636284347313
 30
0.0
 10
126.4856472123022
 20
-150.1537977055171
 30
0.0
 10
126.4856472123022
 20
-150.1537977055171
 30
0.0
 10
126.372648080386
 20
-150.1410508522217
 30
0.0
 10
126.235533280073
 20
-150.1410508522217
 30
0.0
 10
126.124601205448
 20
-150.1410508522217
 30
0.0
 10
126.124601205448
 20
-150.1410508522217
 30
0.0
 10
126.0188367740508
 20
-150.1410508522217
 30
0.0
 10
126.0188367740508
 20
-150.1410508522217
 30
0.0
 10
126.0188367740508
 20
-150.1410508522217
 30
0.0
 10
126.0188367740508
 20
-150.3673936256026
 30
0.0
 10
126.0188367740508
 20
-150.3673936256026
 30
0.0
 10
126.0188367740508
 20
-150.4859049102952
 30
0.0
 10
125.9967881629452
 20
-150.5220784128903
 30
0.0
 10
125.856228267147
 20
-150.5368923234769
 30
0.0
 10
125.8596733626323
 20
-150.5558403486458
 30
0.0
 10
125.8541612098559
 20
-150.56652014465
 30
0.0
 10
125.820743783649
 20
-150.5896022844012
 30
0.0
 10
125.8190212359063
 20
-150.6085503095701
 30
0.0
 10
125.8190212359063
 20
-150.6150959909921
 30
0.0
 10
125.8172986881637
 20
-150.6299099015786
 30
0.0
 10
125.8172986881637
 20
-150.6299099015786
 30
0.0
 10
125.9375325205989
 20
-150.6299099015786
 30
0.0
 10
125.9375325205989
 20
-150.6299099015786
 30
0.0
 10
126.0818820214309
 20
-150.6299099015786
 30
0.0
 10
126.228298579554
 20
-150.6257757869963
 30
0.0
 10
126.3743706281286
 20
-150.6109618764097
 30
0.0
 10
126.3743706281286
 20
-150.6109618764097
 30
0.0
 10
126.3743706281286
 20
-150.8180121150733
 30
0.0
 10
126.3743706281286
 20
-150.8180121150733
 30
0.0
 10
126.1855793955369
 20
-150.8011311471955
 30
0.0
 10
125.9540689789281
 20
-150.8011311471955
 30
0.0
 10
125.9375325205989
 20
-150.8011311471955
 30
0.0
 10
125.9375325205989
 20
-150.8011311471955
 30
0.0
 10
125.8152316308726
 20
-150.8011311471955
 30
0.0
 10
125.8152316308726
 20
-150.8011311471955
 30
0.0
 10
125.8152316308726
 20
-150.8011311471955
 30
0.0
 10
125.8152316308726
 20
-150.9430690811878
 30
0.0
 10
125.8152316308726
 20
-150.9430690811878
 30
0.0
 10
125.8152316308726
 20
-150.9430690811878
 30
0.0
 10
126.0133246212744
 20
-150.9430690811878
 30
0.0
 10
126.0133246212744
 20
-150.9430690811878
 30
0.0
 10
126.2024603634146
 20
-150.9430690811878
 30
0.0
 10
126.392974143749
 20
-150.938590457057
 30
0.0
 10
126.5817653763406
 20
-150.9261881133101
 30
0.0
 10
126.5817653763406
 20
-150.9261881133101
 30
0.0
 10
126.5817653763406
 20
-151.1332383519736
 30
0.0
 10
126.5817653763406
 20
-151.1332383519736
 30
0.0
 10
126.3357855586938
 20
-151.1163573840959
 30
0.0
 10
126.0339951941859
 20
-151.1163573840959
 30
0.0
 10
126.0133246212744
 20
-151.1163573840959
 30
0.0
  0
SPLINE
  5
8B
330
81
100
AcDbEntity
  8
レイヤー 1
100
AcDbSpline
210
0.0
220
0.0
230
1.0
 70
     9
 71
     3
 72
    17
 73
    13
 74
     0
 42
0.0000000001
 43
0.0000000001
 40
0.0
 40
0.0
 40
0.0
 40
0.0
 40
1.0
 40
1.0
 40
1.0
 40
2.0
 40
2.0
 40
2.0
 40
3.0
 40
3.0
 40
3.0
 40
4.0
 40
4.0
 40
4.0
 40
4.0
 10
125.0986517699406
 20
-149.9381347281405
 30
0.0
 10
125.0059787013874
 20
-149.8323702967433
 30
0.0
 10
124.9356987534883
 20
-149.794129736857
 30
0.0
 10
124.8543945000364
 20
-149.7624348583927
 30
0.0
 10
124.8543945000364
 20
-149.7624348583927
 30
0.0
 10
124.9505126640749
 20
-149.5974147846492
 30
0.0
 10
124.9505126640749
 20
-149.5974147846492
 30
0.0
 10
125.0356065225605
 20
-149.6397894591178
 30
0.0
 10
125.1413709539577
 20
-149.717993126633
 30
0.0
 10
125.18753523346
 20
-149.773114654397
 30
0.0
 10
125.18753523346
 20
-149.773114654397
 30
0.0
 10
125.0986517699406
 20
-149.9381347281405
 30
0.0
 10
125.0986517699406
 20
-149.9381347281405
 30
0.0
  0
HATCH
  5
8C
330
81
100
AcDbEntity
  8
レイヤー 1
 62
   250
420
  2299925
440
 33554687
100
AcDbHatch
 10
0.0
 20
0.0
 30
0.0
210
0.0
220
0.0
230
1.0
  2
SOLID
 70
     1
 71
     1
 91
        7
 92
        1
 93
        1
 72
     4
 94
        3
 73
     0
 74
     0
 95
       17
 96
       13
 40
0.0
 40
0.0
 40
0.0
 40
0.0
 40
1.0
 40
1.0
 40
1.0
 40
2.0
 40
2.0
 40
2.0
 40
3.0
 40
3.0
 40
3.0
 40
4.0
 40
4.0
 40
4.0
 40
4.0
 10
126.4039984493018
 20
-150.511398616886
 10
126.2854871646092
 20
-150.3994330136154
 10
126.1931586056045
 20
-150.3356987471383
 10
126.0894612314984
 20
-150.2723089902097
 10
126.0894612314984
 20
-150.2723089902097
 10
126.2003933061235
 20
-150.1603433869391
 10
126.2003933061235
 20
-150.1603433869391
 10
126.3151149857823
 20
-150.2068521759899
 10
126.4115776593693
 20
-150.2640407610451
 10
126.5207871862517
 20
-150.3653265683114
 10
126.5207871862517
 20
-150.3653265683114
 10
126.4039984493018
 20
-150.511398616886
 10
126.4039984493018
 20
-150.511398616886
 97
        0
 97
        1
330
85
 92
        1
 93
        1
 72
     4
 94
        3
 73
     0
 74
     0
 95
       20
 96
       16
 40
0.0
 40
0.0
 40
0.0
 40
0.0
 40
1.0
 40
1.0
 40
1.0
 40
2.0
 40
2.0
 40
2.0
 40
3.0
 40
3.0
 40
3.0
 40
4.0
 40
4.0
 40
4.0
 40
5.0
 40
5.0
 40
5.0
 40
5.0
 10
125.9134168522022
 20
-149.4558213602055
 10
125.8799994259953
 20
-149.5043972065475
 10
125.8266004459739
 20
-149.5826008740626
 10
125.7042995562475
 20
-149.6928439295906
 10
125.7745795041466
 20
-149.696978044173
 10
125.800417720286
 20
-149.696978044173
 10
125.820743783649
 20
-149.696978044173
 10
125.820743783649
 20
-149.696978044173
 10
126.020903831342
 20
-149.696978044173
 10
126.020903831342
 20
-149.696978044173
 10
126.048464595224
 20
-149.696978044173
 10
126.0911837792411
 20
-149.6949109868818
 10
126.1559515743638
 20
-149.6928439295906
 10
126.0577663530342
 20
-149.6187743766578
 10
126.0153916785656
 20
-149.5722655876069
 10
125.9134168522022
 20
-149.4558213602055
 97
        0
 97
        1
330
86
 92
        1
 93
        1
 72
     4
 94
        3
 73
     0
 74
     0
 95
       23
 96
       19
 40
0.0
 40
0.0
 40
0.0
 40
0.0
 40
1.0
 40
1.0
 40
1.0
 40
2.0
 40
2.0
 40
2.0
 40
3.0
 40
3.0
 40
3.0
 40
4.0
 40
4.0
 40
4.0
 40
5.0
 40
5.0
 40
5.0
 40
6.0
 40
6.0
 40
6.0
 40
6.0
 10
125.6522786144202
 20
-150.2978026968005
 10
125.6336750987999
 20
-150.3208848365517
 10
125.5485812403142
 20
-150.4331949493709
 10
125.4262803505878
 20
-150.5134656741772
 10
125.4262803505878
 20
-150.5134656741772
 10
125.2802083020133
 20
-150.3928873321934
 10
125.2802083020133
 20
-150.3928873321934
 10
125.4118109495498
 20
-150.3167507219694
 10
125.4986273557781
 20
-150.2216660865765
 10
125.5413465397952
 20
-150.1686116161037
 10
125.5413465397952
 20
-150.1686116161037
 10
125.6929307411462
 20
-150.2512939077496
 10
125.6929307411462
 20
-150.2512939077496
 10
125.7005099512137
 20
-150.255428022332
 10
125.7080891612813
 20
-150.2616291942054
 10
125.7080891612813
 20
-150.2723089902097
 10
125.7080891612813
 20
-150.2978026968005
 10
125.676394282817
 20
-150.2978026968005
 10
125.6522786144202
 20
-150.2978026968005
 97
        0
 97
        1
330
87
 92
        1
 93
        1
 72
     4
 94
        3
 73
     0
 74
     0
 95
       17
 96
       13
 40
0.0
 40
0.0
 40
0.0
 40
0.0
 40
1.0
 40
1.0
 40
1.0
 40
2.0
 40
2.0
 40
2.0
 40
3.0
 40
3.0
 40
3.0
 40
4.0
 40
4.0
 40
4.0
 40
4.0
 10
125.2560926336165
 20
-149.593280670067
 10
125.2023491440466
 20
-149.5171440598429
 10
125.0893500121304
 20
-149.4410074496189
 10
124.9987440008683
 20
-149.4113796284458
 10
124.9987440008683
 20
-149.4113796284458
 10
125.0821153116114
 20
-149.2463595547023
 10
125.0821153116114
 20
-149.2463595547023
 10
125.1709987751308
 20
-149.2821885477489
 10
125.2636718436841
 20
-149.339377132804
 10
125.3411864921022
 20
-149.4196478576104
 10
125.3411864921022
 20
-149.4196478576104
 10
125.2560926336165
 20
-149.593280670067
 10
125.2560926336165
 20
-149.593280670067
 97
        0
 97
        1
330
88
 92
        1
 93
        1
 72
     4
 94
        3
 73
     0
 74
     0
 95
       23
 96
       19
 40
0.0
 40
0.0
 40
0.0
 40
0.0
 40
1.0
 40
1.0
 40
1.0
 40
2.0
 40
2.0
 40
2.0
 40
3.0
 40
3.0
 40
3.0
 40
4.0
 40
4.0
 40
4.0
 40
5.0
 40
5.0
 40
5.0
 40
6.0
 40
6.0
 40
6.0
 40
6.0
 10
125.0338839748179
 20
-150.4879719675863
 10
125.0338839748179
 20
-150.5093315595949
 10
125.0356065225605
 20
-150.5472276099326
 10
125.0135579114549
 20
-150.5472276099326
 10
125.0042561536448
 20
-150.5472276099326
 10
124.9970214531257
 20
-150.5410264380592
 10
124.9877196953155
 20
-150.5241454701815
 10
124.9877196953155
 20
-150.5241454701815
 10
124.896769174505
 20
-150.3422444285603
 10
124.896769174505
 20
-150.3422444285603
 10
125.0859049166452
 20
-150.2130533478634
 10
125.2578151813591
 20
-149.9360676708493
 10
125.2988118176336
 20
-149.8640651752076
 10
125.2988118176336
 20
-149.8640651752076
 10
125.3615125554652
 20
-150.0438991595376
 10
125.3615125554652
 20
-150.0438991595376
 10
125.2450683280637
 20
-150.2406141117454
 10
125.0914170694216
 20
-150.4245822106577
 10
125.0338839748179
 20
-150.4879719675863
 97
        0
 97
        1
330
89
 92
        1
 93
        1
 72
     4
 94
        3
 73
     0
 74
     0
 95
      182
 96
      178
 40
0.0
 40
0.0
 40
0.0
 40
0.0
 40
1.0
 40
1.0
 40
1.0
 40
2.0
 40
2.0
 40
2.0
 40
3.0
 40
3.0
 40
3.0
 40
4.0
 40
4.0
 40
4.0
 40
5.0
 40
5.0
 40
5.0
 40
6.0
 40
6.0
 40
6.0
 40
7.0
 40
7.0
 40
7.0
 40
8.0
 40
8.0
 40
8.0
 40
9.0
 40
9.0
 40
9.0
 40
10.0
 40
10.0
 40
10.0
 40
11.0
 40
11.0
 40
11.0
 40
12.0
 40
12.0
 40
12.0
 40
13.0
 40
13.0
 40
13.0
 40
14.0
 40
14.0
 40
14.0
 40
15.0
 40
15.0
 40
15.0
 40
16.0
 40
16.0
 40
16.0
 40
17.0
 40
17.0
 40
17.0
 40
18.0
 40
18.0
 40
18.0
 40
19.0
 40
19.0
 40
19.0
 40
20.0
 40
20.0
 40
20.0
 40
21.0
 40
21.0
 40
21.0
 40
22.0
 40
22.0
 40
22.0
 40
23.0
 40
23.0
 40
23.0
 40
24.0
 40
24.0
 40
24.0
 40
25.0
 40
25.0
 40
25.0
 40
26.0
 40
26.0
 40
26.0
 40
27.0
 40
27.0
 40
27.0
 40
28.0
 40
28.0
 40
28.0
 40
29.0
 40
29.0
 40
29.0
 40
30.0
 40
30.0
 40
30.0
 40
31.0
 40
31.0
 40
31.0
 40
32.0
 40
32.0
 40
32.0
 40
33.0
 40
33.0
 40
33.0
 40
34.0
 40
34.0
 40
34.0
 40
35.0
 40
35.0
 40
35.0
 40
36.0
 40
36.0
 40
36.0
 40
37.0
 40
37.0
 40
37.0
 40
38.0
 40
38.0
 40
38.0
 40
39.0
 40
39.0
 40
39.0
 40
40.0
 40
40.0
 40
40.0
 40
41.0
 40
41.0
 40
41.0
 40
42.0
 40
42.0
 40
42.0
 40
43.0
 40
43.0
 40
43.0
 40
44.0
 40
44.0
 40
44.0
 40
45.0
 40
45.0
 40
45.0
 40
46.0
 40
46.0
 40
46.0
 40
47.0
 40
47.0
 40
47.0
 40
48.0
 40
48.0
 40
48.0
 40
49.0
 40
49.0
 40
49.0
 40
50.0
 40
50.0
 40
50.0
 40
51.0
 40
51.0
 40
51.0
 40
52.0
 40
52.0
 40
52.0
 40
53.0
 40
53.0
 40
53.0
 40
54.0
 40
54.0
 40
54.0
 40
55.0
 40
55.0
 40
55.0
 40
56.0
 40
56.0
 40
56.0
 40
57.0
 40
57.0
 40
57.0
 40
58.0
 40
58.0
 40
58.0
 40
59.0
 40
59.0
 40
59.0
 40
59.0
 10
126.0133246212744
 20
-151.1163573840959
 10
126.0133246212744
 20
-151.1163573840959
 10
125.455908171761
 20
-151.1163573840959
 10
125.455908171761
 20
-151.1163573840959
 10
125.2691839964604
 20
-151.1163573840959
 10
125.0800482543203
 20
-151.1208360082267
 10
124.8929795694712
 20
-151.1332383519736
 10
124.8929795694712
 20
-151.1332383519736
 10
124.8929795694712
 20
-150.9261881133101
 10
124.8929795694712
 20
-150.9261881133101
 10
125.0876274643878
 20
-150.938590457057
 10
125.3708143132753
 20
-150.9430690811878
 10
125.455908171761
 20
-150.9430690811878
 10
125.455908171761
 20
-150.9430690811878
 10
125.648833518935
 20
-150.9430690811878
 10
125.648833518935
 20
-150.9430690811878
 10
125.648833518935
 20
-150.9430690811878
 10
125.648833518935
 20
-150.8011311471955
 10
125.648833518935
 20
-150.8011311471955
 10
125.648833518935
 20
-150.8011311471955
 10
125.5079291135883
 20
-150.8011311471955
 10
125.5079291135883
 20
-150.8011311471955
 10
125.3635796127563
 20
-150.8011311471955
 10
125.2188856023758
 20
-150.8056097713263
 10
125.0745361015438
 20
-150.8204236819129
 10
125.0745361015438
 20
-150.8204236819129
 10
125.0745361015438
 20
-150.6109618764097
 10
125.0745361015438
 20
-150.6109618764097
 10
125.2247422647007
 20
-150.6257757869963
 10
125.441438770723
 20
-150.6299099015786
 10
125.5079291135883
 20
-150.6299099015786
 10
125.5079291135883
 20
-150.6299099015786
 10
125.648833518935
 20
-150.6299099015786
 10
125.648833518935
 20
-150.6299099015786
 10
125.6450439139012
 20
-150.5579074059369
 10
125.6450439139012
 20
-150.5517062340634
 10
125.6395317611248
 20
-150.4986517635906
 10
125.6395317611248
 20
-150.4986517635906
 10
125.7614881413027
 20
-150.5134656741772
 10
125.7614881413027
 20
-150.5134656741772
 10
125.7614881413027
 20
-150.5134656741772
 10
125.6746717350744
 20
-150.3422444285603
 10
125.6746717350744
 20
-150.3422444285603
 10
125.7153238618003
 20
-150.3484456004337
 10
125.780091656923
 20
-150.3570583391468
 10
125.7949055675096
 20
-150.3570583391468
 10
125.8393472992693
 20
-150.3570583391468
 10
125.8541612098559
 20
-150.3356987471383
 10
125.8541612098559
 20
-150.2788546716317
 10
125.8541612098559
 20
-150.2788546716317
 10
125.8541612098559
 20
-150.1410508522217
 10
125.8541612098559
 20
-150.1410508522217
 10
125.8541612098559
 20
-150.1410508522217
 10
125.7614881413027
 20
-150.1410508522217
 10
125.7614881413027
 20
-150.1410508522217
 10
125.6450439139012
 20
-150.1410508522217
 10
125.5079291135883
 20
-150.1410508522217
 10
125.4004421344485
 20
-150.1537977055171
 10
125.4004421344485
 20
-150.1537977055171
 10
125.4004421344485
 20
-149.9636284347313
 10
125.4004421344485
 20
-149.9636284347313
 10
125.5468586925716
 20
-149.980509402609
 10
125.7487412880072
 20
-149.9825764599002
 10
125.7614881413027
 20
-149.9825764599002
 10
125.7614881413027
 20
-149.9825764599002
 10
125.8541612098559
 20
-149.9825764599002
 10
125.8541612098559
 20
-149.9825764599002
 10
125.8541612098559
 20
-149.9825764599002
 10
125.8541612098559
 20
-149.8513183219122
 10
125.8541612098559
 20
-149.8513183219122
 10
125.8541612098559
 20
-149.8513183219122
 10
125.820743783649
 20
-149.8513183219122
 10
125.820743783649
 20
-149.8513183219122
 10
125.7818142046656
 20
-149.8513183219122
 10
125.6726046777832
 20
-149.8554524364945
 10
125.5950900293651
 20
-149.8640651752076
 10
125.5950900293651
 20
-149.8640651752076
 10
125.5950900293651
 20
-149.7837944504013
 10
125.5950900293651
 20
-149.7837944504013
 10
125.5485812403142
 20
-149.821690500739
 10
125.5265326292086
 20
-149.8365044113256
 10
125.4893255979679
 20
-149.8599310606253
 10
125.4893255979679
 20
-149.8599310606253
 10
125.324650033773
 20
-149.7307399799284
 10
125.324650033773
 20
-149.7307399799284
 10
125.3932074339294
 20
-149.696978044173
 10
125.5303222342424
 20
-149.6335882872443
 10
125.6670925250068
 20
-149.4895832959609
 10
125.7394395301971
 20
-149.4113796284458
 10
125.8079969303535
 20
-149.3266302795086
 10
125.8541612098559
 20
-149.2253444722423
 10
125.8541612098559
 20
-149.2253444722423
 10
126.0395073469623
 20
-149.2866671718797
 10
126.0395073469623
 20
-149.2866671718797
 10
126.0560438052915
 20
-149.2928683437532
 10
126.0653455631017
 20
-149.3014810824663
 10
126.0653455631017
 20
-149.3138834262132
 10
126.0653455631017
 20
-149.3311089036394
 10
126.0543212575489
 20
-149.3373100755129
 10
126.0319281368948
 20
-149.3500569288083
 10
126.1022080847939
 20
-149.4472086214923
 10
126.2448350378832
 20
-149.5447048237249
 10
126.2744628590564
 20
-149.5636528488938
 10
126.4060655065929
 20
-149.6525363124133
 10
126.5059732756652
 20
-149.6800970762952
 10
126.5745306758216
 20
-149.6990451014641
 10
126.5745306758216
 20
-149.6990451014641
 10
126.4708333017156
 20
-149.8681992897899
 10
126.4708333017156
 20
-149.8681992897899
 10
126.3967637487827
 20
-149.8385714686167
 10
126.352322017023
 20
-149.8196234434479
 10
126.248624642917
 20
-149.7541666292281
 10
126.248624642917
 20
-149.7541666292281
 10
126.248624642917
 20
-149.8640651752076
 10
126.248624642917
 20
-149.8640651752076
 10
126.1762776377267
 20
-149.8554524364945
 10
126.0653455631017
 20
-149.8513183219122
 10
126.0188367740508
 20
-149.8513183219122
 10
126.0188367740508
 20
-149.8513183219122
 10
126.0188367740508
 20
-149.9825764599002
 10
126.0188367740508
 20
-149.9825764599002
 10
126.0188367740508
 20
-149.9825764599002
 10
126.124601205448
 20
-149.9825764599002
 10
126.124601205448
 20
-149.9825764599002
 10
126.1263237531906
 20
-149.9825764599002
 10
126.3302734059174
 20
-149.980509402609
 10
126.4856472123022
 20
-149.9636284347313
 10
126.4856472123022
 20
-149.9636284347313
 10
126.4856472123022
 20
-150.1537977055171
 10
126.4856472123022
 20
-150.1537977055171
 10
126.372648080386
 20
-150.1410508522217
 10
126.235533280073
 20
-150.1410508522217
 10
126.124601205448
 20
-150.1410508522217
 10
126.124601205448
 20
-150.1410508522217
 10
126.0188367740508
 20
-150.1410508522217
 10
126.0188367740508
 20
-150.1410508522217
 10
126.0188367740508
 20
-150.1410508522217
 10
126.0188367740508
 20
-150.3673936256026
 10
126.0188367740508
 20
-150.3673936256026
 10
126.0188367740508
 20
-150.4859049102952
 10
125.9967881629452
 20
-150.5220784128903
 10
125.856228267147
 20
-150.5368923234769
 10
125.8596733626323
 20
-150.5558403486458
 10
125.8541612098559
 20
-150.56652014465
 10
125.820743783649
 20
-150.5896022844012
 10
125.8190212359063
 20
-150.6085503095701
 10
125.8190212359063
 20
-150.6150959909921
 10
125.8172986881637
 20
-150.6299099015786
 10
125.8172986881637
 20
-150.6299099015786
 10
125.9375325205989
 20
-150.6299099015786
 10
125.9375325205989
 20
-150.6299099015786
 10
126.0818820214309
 20
-150.6299099015786
 10
126.228298579554
 20
-150.6257757869963
 10
126.3743706281286
 20
-150.6109618764097
 10
126.3743706281286
 20
-150.6109618764097
 10
126.3743706281286
 20
-150.8180121150733
 10
126.3743706281286
 20
-150.8180121150733
 10
126.1855793955369
 20
-150.8011311471955
 10
125.9540689789281
 20
-150.8011311471955
 10
125.9375325205989
 20
-150.8011311471955
 10
125.9375325205989
 20
-150.8011311471955
 10
125.8152316308726
 20
-150.8011311471955
 10
125.8152316308726
 20
-150.8011311471955
 10
125.8152316308726
 20
-150.8011311471955
 10
125.8152316308726
 20
-150.9430690811878
 10
125.8152316308726
 20
-150.9430690811878
 10
125.8152316308726
 20
-150.9430690811878
 10
126.0133246212744
 20
-150.9430690811878
 10
126.0133246212744
 20
-150.9430690811878
 10
126.2024603634146
 20
-150.9430690811878
 10
126.392974143749
 20
-150.938590457057
 10
126.5817653763406
 20
-150.9261881133101
 10
126.5817653763406
 20
-150.9261881133101
 10
126.5817653763406
 20
-151.1332383519736
 10
126.5817653763406
 20
-151.1332383519736
 10
126.3357855586938
 20
-151.1163573840959
 10
126.0339951941859
 20
-151.1163573840959
 10
126.0133246212744
 20
-151.1163573840959
 97
        0
 97
        1
330
8A
 92
        1
 93
        1
 72
     4
 94
        3
 73
     0
 74
     0
 95
       17
 96
       13
 40
0.0
 40
0.0
 40
0.0
 40
0.0
 40
1.0
 40
1.0
 40
1.0
 40
2.0
 40
2.0
 40
2.0
 40
3.0
 40
3.0
 40
3.0
 40
4.0
 40
4.0
 40
4.0
 40
4.0
 10
125.0986517699406
 20
-149.9381347281405
 10
125.0059787013874
 20
-149.8323702967433
 10
124.9356987534883
 20
-149.794129736857
 10
124.8543945000364
 20
-149.7624348583927
 10
124.8543945000364
 20
-149.7624348583927
 10
124.9505126640749
 20
-149.5974147846492
 10
124.9505126640749
 20
-149.5974147846492
 10
125.0356065225605
 20
-149.6397894591178
 10
125.1413709539577
 20
-149.717993126633
 10
125.18753523346
 20
-149.773114654397
 10
125.18753523346
 20
-149.773114654397
 10
125.0986517699406
 20
-149.9381347281405
 10
125.0986517699406
 20
-149.9381347281405
 97
        0
 97
        1
330
8B
 75
     2
 76
     1
 98
        1
 10
0.0
 20
0.0
450
        0
451
        0
460
0.0
461
0.0
452
        0
462
0.0
453
        0
470

  0
SPLINE
  5
8D
330
81
100
AcDbEntity
  8
レイヤー 1
100
AcDbSpline
210
0.0
220
0.0
230
1.0
 70
    11
 71
     3
 72
    17
 73
    13
 74
     0
 42
0.0000000001
 43
0.0000000001
 40
0.0
 40
0.0
 40
0.0
 40
0.0
 40
1.0
 40
1.0
 40
1.0
 40
2.0
 40
2.0
 40
2.0
 40
3.0
 40
3.0
 40
3.0
 40
4.0
 40
4.0
 40
4.0
 40
4.0
 10
127.869542068727
 20
-150.4859049102952
 30
0.0
 10
127.869542068727
 20
-150.4859049102952
 30
0.0
 10
127.6917751416881
 20
-150.4859049102952
 30
0.0
 10
127.6917751416881
 20
-150.4859049102952
 30
0.0
 10
127.7158908100849
 20
-150.5451605526415
 30
0.0
 10
127.7637776373299
 20
-150.6171630482832
 30
0.0
 10
127.7878933057266
 20
-150.6467908694563
 30
0.0
 10
127.8120089741234
 20
-150.6319769588698
 30
0.0
 10
127.9119167431956
 20
-150.5685872019412
 30
0.0
 10
127.9914984489049
 20
-150.4859049102952
 30
0.0
 10
127.9914984489049
 20
-150.4859049102952
 30
0.0
 10
127.869542068727
 20
-150.4859049102952
 30
0.0
 10
127.869542068727
 20
-150.4859049102952
 30
0.0
  0
SPLINE
  5
8E
330
81
100
AcDbEntity
  8
レイヤー 1
100
AcDbSpline
210
0.0
220
0.0
230
1.0
 70
     9
 71
     3
 72
    83
 73
    79
 74
     0
 42
0.0000000001
 43
0.0000000001
 40
0.0
 40
0.0
 40
0.0
 40
0.0
 40
1.0
 40
1.0
 40
1.0
 40
2.0
 40
2.0
 40
2.0
 40
3.0
 40
3.0
 40
3.0
 40
4.0
 40
4.0
 40
4.0
 40
5.0
 40
5.0
 40
5.0
 40
6.0
 40
6.0
 40
6.0
 40
7.0
 40
7.0
 40
7.0
 40
8.0
 40
8.0
 40
8.0
 40
9.0
 40
9.0
 40
9.0
 40
10.0
 40
10.0
 40
10.0
 40
11.0
 40
11.0
 40
11.0
 40
12.0
 40
12.0
 40
12.0
 40
13.0
 40
13.0
 40
13.0
 40
14.0
 40
14.0
 40
14.0
 40
15.0
 40
15.0
 40
15.0
 40
16.0
 40
16.0
 40
16.0
 40
17.0
 40
17.0
 40
17.0
 40
18.0
 40
18.0
 40
18.0
 40
19.0
 40
19.0
 40
19.0
 40
20.0
 40
20.0
 40
20.0
 40
21.0
 40
21.0
 40
21.0
 40
22.0
 40
22.0
 40
22.0
 40
23.0
 40
23.0
 40
23.0
 40
24.0
 40
24.0
 40
24.0
 40
25.0
 40
25.0
 40
25.0
 40
26.0
 40
26.0
 40
26.0
 40
26.0
 10
128.0841715174581
 20
-149.6883653054598
 30
0.0
 10
128.0841715174581
 20
-149.6883653054598
 30
0.0
 10
127.9990776589724
 20
-149.6883653054598
 30
0.0
 10
127.9990776589724
 20
-149.6883653054598
 30
0.0
 10
127.9990776589724
 20
-149.6883653054598
 30
0.0
 10
127.9990776589724
 20
-149.9360676708493
 30
0.0
 10
127.9990776589724
 20
-149.9360676708493
 30
0.0
 10
127.9990776589724
 20
-149.9360676708493
 30
0.0
 10
128.0714246641627
 20
-149.9360676708493
 30
0.0
 10
128.0714246641627
 20
-149.9360676708493
 30
0.0
 10
128.1286132492178
 20
-149.9360676708493
 30
0.0
 10
128.2509141389442
 20
-149.9315890467185
 30
0.0
 10
128.338075054721
 20
-149.9233208175539
 30
0.0
 10
128.338075054721
 20
-149.9233208175539
 30
0.0
 10
128.338075054721
 20
-150.1031548018839
 30
0.0
 10
128.338075054721
 20
-150.1031548018839
 30
0.0
 10
128.2564262917206
 20
-150.0945420631708
 30
0.0
 10
128.1251681537326
 20
-150.0904079485885
 30
0.0
 10
128.0714246641627
 20
-150.0904079485885
 30
0.0
 10
128.0714246641627
 20
-150.0904079485885
 30
0.0
 10
127.8047742736043
 20
-150.0904079485885
 30
0.0
 10
127.8047742736043
 20
-150.0904079485885
 30
0.0
 10
127.7582654845535
 20
-150.0904079485885
 30
0.0
 10
127.6304524420507
 20
-150.0945420631708
 30
0.0
 10
127.538123883046
 20
-150.1031548018839
 30
0.0
 10
127.538123883046
 20
-150.1031548018839
 30
0.0
 10
127.538123883046
 20
-149.9233208175539
 30
0.0
 10
127.538123883046
 20
-149.9233208175539
 30
0.0
 10
127.6249402892743
 20
-149.9315890467185
 30
0.0
 10
127.7472411790007
 20
-149.9360676708493
 30
0.0
 10
127.8047742736043
 20
-149.9360676708493
 30
0.0
 10
127.8047742736043
 20
-149.9360676708493
 30
0.0
 10
127.8433593430391
 20
-149.9360676708493
 30
0.0
 10
127.8433593430391
 20
-149.9360676708493
 30
0.0
 10
127.8433593430391
 20
-149.9360676708493
 30
0.0
 10
127.8433593430391
 20
-149.6883653054598
 30
0.0
 10
127.8433593430391
 20
-149.6883653054598
 30
0.0
 10
127.8433593430391
 20
-149.6883653054598
 30
0.0
 10
127.7785915479164
 20
-149.6883653054598
 30
0.0
 10
127.7785915479164
 20
-149.6883653054598
 30
0.0
 10
127.7248480583465
 20
-149.6883653054598
 30
0.0
 10
127.578776009772
 20
-149.6928439295906
 30
0.0
 10
127.4733560879233
 20
-149.7011121587553
 30
0.0
 10
127.4733560879233
 20
-149.7011121587553
 30
0.0
 10
127.4733560879233
 20
-149.5233452317164
 30
0.0
 10
127.4733560879233
 20
-149.5233452317164
 30
0.0
 10
127.5732638569956
 20
-149.5298909131383
 30
0.0
 10
127.7121012050511
 20
-149.5340250277207
 30
0.0
 10
127.7785915479164
 20
-149.5340250277207
 30
0.0
 10
127.7785915479164
 20
-149.5340250277207
 30
0.0
 10
127.8416367952965
 20
-149.5340250277207
 30
0.0
 10
127.8416367952965
 20
-149.5340250277207
 30
0.0
 10
127.8378471902627
 20
-149.3817518072726
 30
0.0
 10
127.8361246425201
 20
-149.3479898715172
 30
0.0
 10
127.8306124897437
 20
-149.2546277838669
 30
0.0
 10
127.8306124897437
 20
-149.2546277838669
 30
0.0
 10
128.0156141173016
 20
-149.2780544331666
 30
0.0
 10
128.0156141173016
 20
-149.2780544331666
 30
0.0
 10
128.0380072379557
 20
-149.2801214904577
 30
0.0
 10
128.0583333013187
 20
-149.28425560504
 30
0.0
 10
128.0583333013187
 20
-149.3076822543397
 30
0.0
 10
128.0583333013187
 20
-149.339377132804
 30
0.0
 10
128.0194037223354
 20
-149.3562581006818
 30
0.0
 10
127.9990776589724
 20
-149.3648708393949
 30
0.0
 10
127.9990776589724
 20
-149.3648708393949
 30
0.0
 10
127.9990776589724
 20
-149.5340250277207
 30
0.0
 10
127.9990776589724
 20
-149.5340250277207
 30
0.0
 10
127.9990776589724
 20
-149.5340250277207
 30
0.0
 10
128.0841715174581
 20
-149.5340250277207
 30
0.0
 10
128.0841715174581
 20
-149.5340250277207
 30
0.0
 10
128.151006369872
 20
-149.5340250277207
 30
0.0
 10
128.2898437179275
 20
-149.5298909131383
 30
0.0
 10
128.3918185442909
 20
-149.5233452317164
 30
0.0
 10
128.3918185442909
 20
-149.5233452317164
 30
0.0
 10
128.3918185442909
 20
-149.7011121587553
 30
0.0
 10
128.3918185442909
 20
-149.7011121587553
 30
0.0
 10
128.2970784184465
 20
-149.6949109868818
 30
0.0
 10
128.1454942170956
 20
-149.6883653054598
 30
0.0
 10
128.0841715174581
 20
-149.6883653054598
 30
0.0
  0
SPLINE
  5
8F
330
81
100
AcDbEntity
  8
レイヤー 1
100
AcDbSpline
210
0.0
220
0.0
230
1.0
 70
     9
 71
     3
 72
    38
 73
    34
 74
     0
 42
0.0000000001
 43
0.0000000001
 40
0.0
 40
0.0
 40
0.0
 40
0.0
 40
1.0
 40
1.0
 40
1.0
 40
2.0
 40
2.0
 40
2.0
 40
3.0
 40
3.0
 40
3.0
 40
4.0
 40
4.0
 40
4.0
 40
5.0
 40
5.0
 40
5.0
 40
6.0
 40
6.0
 40
6.0
 40
7.0
 40
7.0
 40
7.0
 40
8.0
 40
8.0
 40
8.0
 40
9.0
 40
9.0
 40
9.0
 40
10.0
 40
10.0
 40
10.0
 40
11.0
 40
11.0
 40
11.0
 40
11.0
 10
127.3824055671127
 20
-149.366937896686
 30
0.0
 10
127.3806830193701
 20
-149.4134466857369
 30
0.0
 10
127.378615962079
 20
-149.5298909131383
 30
0.0
 10
127.378615962079
 20
-149.574332644898
 30
0.0
 10
127.378615962079
 20
-149.574332644898
 30
0.0
 10
127.378615962079
 20
-149.9212537602627
 30
0.0
 10
127.378615962079
 20
-149.9212537602627
 30
0.0
 10
127.378615962079
 20
-150.008070166491
 30
0.0
 10
127.3806830193701
 20
-150.1496635909348
 30
0.0
 10
127.3899847771803
 20
-150.2702419329185
 30
0.0
 10
127.3899847771803
 20
-150.2702419329185
 30
0.0
 10
127.2232421556942
 20
-150.2702419329185
 30
0.0
 10
127.2232421556942
 20
-150.2702419329185
 30
0.0
 10
127.2270317607279
 20
-150.2068521759899
 30
0.0
 10
127.2304768562132
 20
-150.1537977055171
 30
0.0
 10
127.2325439135044
 20
-150.0990206873016
 30
0.0
 10
127.234266461247
 20
-149.9760307784782
 30
0.0
 10
127.2363335185381
 20
-149.9612168678916
 30
0.0
 10
127.2363335185381
 20
-149.9167751361319
 30
0.0
 10
127.2363335185381
 20
-149.9167751361319
 30
0.0
 10
127.2363335185381
 20
-149.5953477273581
 30
0.0
 10
127.2363335185381
 20
-149.5953477273581
 30
0.0
 10
127.2363335185381
 20
-149.5402261995941
 30
0.0
 10
127.2249647034368
 20
-149.3014810824663
 30
0.0
 10
127.2232421556942
 20
-149.2504936692846
 30
0.0
 10
127.2232421556942
 20
-149.2504936692846
 30
0.0
 10
127.3989420254419
 20
-149.2780544331666
 30
0.0
 10
127.3989420254419
 20
-149.2780544331666
 30
0.0
 10
127.4175455410623
 20
-149.2801214904577
 30
0.0
 10
127.4454508144928
 20
-149.28425560504
 30
0.0
 10
127.4454508144928
 20
-149.3097493116309
 30
0.0
 10
127.4454508144928
 20
-149.3373100755129
 30
0.0
 10
127.4010090827331
 20
-149.3583251579729
 30
0.0
 10
127.3824055671127
 20
-149.366937896686
 30
0.0
  0
SPLINE
  5
90
330
81
100
AcDbEntity
  8
レイヤー 1
100
AcDbSpline
210
0.0
220
0.0
230
1.0
 70
     9
 71
     3
 72
    17
 73
    13
 74
     0
 42
0.0000000001
 43
0.0000000001
 40
0.0
 40
0.0
 40
0.0
 40
0.0
 40
1.0
 40
1.0
 40
1.0
 40
2.0
 40
2.0
 40
2.0
 40
3.0
 40
3.0
 40
3.0
 40
4.0
 40
4.0
 40
4.0
 40
4.0
 10
127.0602891392418
 20
-149.6714843375821
 30
0.0
 10
127.0344509231025
 20
-149.6315212299532
 30
0.0
 10
126.9751952807562
 20
-149.5340250277207
 30
0.0
 10
126.8156873597891
 20
-149.4241264817412
 30
0.0
 10
126.8156873597891
 20
-149.4241264817412
 30
0.0
 10
126.9269639439627
 20
-149.290801286462
 30
0.0
 10
126.9269639439627
 20
-149.290801286462
 30
0.0
 10
127.089916960415
 20
-149.3924316032769
 30
0.0
 10
127.1398708449511
 20
-149.4813150667963
 30
0.0
 10
127.1639865133479
 20
-149.5233452317164
 30
0.0
 10
127.1639865133479
 20
-149.5233452317164
 30
0.0
 10
127.0602891392418
 20
-149.6714843375821
 30
0.0
 10
127.0602891392418
 20
-149.6714843375821
 30
0.0
  0
SPLINE
  5
91
330
81
100
AcDbEntity
  8
レイヤー 1
100
AcDbSpline
210
0.0
220
0.0
230
1.0
 70
     9
 71
     3
 72
    23
 73
    19
 74
     0
 42
0.0000000001
 43
0.0000000001
 40
0.0
 40
0.0
 40
0.0
 40
0.0
 40
1.0
 40
1.0
 40
1.0
 40
2.0
 40
2.0
 40
2.0
 40
3.0
 40
3.0
 40
3.0
 40
4.0
 40
4.0
 40
4.0
 40
5.0
 40
5.0
 40
5.0
 40
6.0
 40
6.0
 40
6.0
 40
6.0
 10
126.9269639439627
 20
-150.1369167376394
 30
0.0
 10
126.9121500333761
 20
-150.1772243548168
 30
0.0
 10
126.9066378805997
 20
-150.1941053226945
 30
0.0
 10
126.8880343649794
 20
-150.1941053226945
 30
0.0
 10
126.8749430021354
 20
-150.1941053226945
 30
0.0
 10
126.8656412443252
 20
-150.1772243548168
 30
0.0
 10
126.8601290915488
 20
-150.1644775015214
 30
0.0
 10
126.8601290915488
 20
-150.1644775015214
 30
0.0
 10
126.7733126853205
 20
-149.9994574277779
 30
0.0
 10
126.7733126853205
 20
-149.9994574277779
 30
0.0
 10
126.86219614884
 20
-149.9677625493136
 30
0.0
 10
126.993454286828
 20
-149.9126410215496
 30
0.0
 10
127.1677761183816
 20
-149.7496880050973
 30
0.0
 10
127.1677761183816
 20
-149.7496880050973
 30
0.0
 10
127.2177300029178
 20
-149.9233208175539
 30
0.0
 10
127.2177300029178
 20
-149.9233208175539
 30
0.0
 10
127.1360812399173
 20
-150.0056585996514
 30
0.0
 10
127.0585665914992
 20
-150.0628471847065
 30
0.0
 10
126.9269639439627
 20
-150.1369167376394
 30
0.0
  0
SPLINE
  5
92
330
81
100
AcDbEntity
  8
レイヤー 1
100
AcDbSpline
210
0.0
220
0.0
230
1.0
 70
     9
 71
     3
 72
   113
 73
   109
 74
     0
 42
0.0000000001
 43
0.0000000001
 40
0.0
 40
0.0
 40
0.0
 40
0.0
 40
1.0
 40
1.0
 40
1.0
 40
2.0
 40
2.0
 40
2.0
 40
3.0
 40
3.0
 40
3.0
 40
4.0
 40
4.0
 40
4.0
 40
5.0
 40
5.0
 40
5.0
 40
6.0
 40
6.0
 40
6.0
 40
7.0
 40
7.0
 40
7.0
 40
8.0
 40
8.0
 40
8.0
 40
9.0
 40
9.0
 40
9.0
 40
10.0
 40
10.0
 40
10.0
 40
11.0
 40
11.0
 40
11.0
 40
12.0
 40
12.0
 40
12.0
 40
13.0
 40
13.0
 40
13.0
 40
14.0
 40
14.0
 40
14.0
 40
15.0
 40
15.0
 40
15.0
 40
16.0
 40
16.0
 40
16.0
 40
17.0
 40
17.0
 40
17.0
 40
18.0
 40
18.0
 40
18.0
 40
19.0
 40
19.0
 40
19.0
 40
20.0
 40
20.0
 40
20.0
 40
21.0
 40
21.0
 40
21.0
 40
22.0
 40
22.0
 40
22.0
 40
23.0
 40
23.0
 40
23.0
 40
24.0
 40
24.0
 40
24.0
 40
25.0
 40
25.0
 40
25.0
 40
26.0
 40
26.0
 40
26.0
 40
27.0
 40
27.0
 40
27.0
 40
28.0
 40
28.0
 40
28.0
 40
29.0
 40
29.0
 40
29.0
 40
30.0
 40
30.0
 40
30.0
 40
31.0
 40
31.0
 40
31.0
 40
32.0
 40
32.0
 40
32.0
 40
33.0
 40
33.0
 40
33.0
 40
34.0
 40
34.0
 40
34.0
 40
35.0
 40
35.0
 40
35.0
 40
36.0
 40
36.0
 40
36.0
 40
36.0
 10
128.0507540912512
 20
-150.4879719675863
 30
0.0
 10
128.0507540912512
 20
-150.4879719675863
 30
0.0
 10
128.137915007028
 20
-150.58753522711
 30
0.0
 10
128.137915007028
 20
-150.58753522711
 30
0.0
 10
128.1472167648382
 20
-150.5982150231143
 30
0.0
 10
128.1565185226483
 20
-150.6109618764097
 30
0.0
 10
128.1565185226483
 20
-150.6257757869963
 30
0.0
 10
128.1565185226483
 20
-150.6278428442875
 30
0.0
 10
128.1565185226483
 20
-150.6574706654606
 30
0.0
 10
128.1231010964414
 20
-150.6574706654606
 30
0.0
 10
128.1158663959224
 20
-150.6574706654606
 30
0.0
 10
128.0803819124243
 20
-150.6529920413298
 30
0.0
 10
128.0748697596479
 20
-150.6529920413298
 30
0.0
 10
128.0397297856984
 20
-150.6850314293426
 30
0.0
 10
127.9990776589724
 20
-150.7187933650981
 30
0.0
 10
127.9119167431956
 20
-150.7759819501532
 30
0.0
 10
128.0397297856984
 20
-150.8838134388415
 30
0.0
 10
128.1785671337539
 20
-150.9410020238967
 30
0.0
 10
128.4176567604303
 20
-150.9788980742344
 30
0.0
 10
128.4176567604303
 20
-150.9788980742344
 30
0.0
 10
128.2860541128937
 20
-151.1545979439822
 30
0.0
 10
128.2860541128937
 20
-151.1545979439822
 30
0.0
 10
128.0566107535761
 20
-151.0825954483405
 30
0.0
 10
127.9194959532632
 20
-150.993711984821
 30
0.0
 10
127.8526611008493
 20
-150.9410020238967
 30
0.0
 10
127.7214029628613
 20
-150.8393717070818
 30
0.0
 10
127.5953124681012
 20
-150.6764186906295
 30
0.0
 10
127.5288221252358
 20
-150.511398616886
 30
0.0
 10
127.4695664828895
 20
-150.5768554311058
 30
0.0
 10
127.4047986877668
 20
-150.6299099015786
 30
0.0
 10
127.3362412876104
 20
-150.6784857479206
 30
0.0
 10
127.3362412876104
 20
-150.6784857479206
 30
0.0
 10
127.3362412876104
 20
-150.9303222278924
 30
0.0
 10
127.3362412876104
 20
-150.9303222278924
 30
0.0
 10
127.4788682406997
 20
-150.9048285213015
 30
0.0
 10
127.641821257152
 20
-150.8603867895418
 30
0.0
 10
127.6972872944645
 20
-150.8455728789552
 30
0.0
 10
127.6972872944645
 20
-150.8455728789552
 30
0.0
 10
127.6714490783252
 20
-151.014727067281
 30
0.0
 10
127.6714490783252
 20
-151.014727067281
 30
0.0
 10
127.669382021034
 20
-151.014727067281
 30
0.0
 10
127.6528455627048
 20
-151.021272748703
 30
0.0
 10
127.6511230149622
 20
-151.021272748703
 30
0.0
 10
127.4768011834086
 20
-151.0591687990407
 30
0.0
 10
127.1991264872974
 20
-151.124970122809
 30
0.0
 10
127.0268717130349
 20
-151.1607991158556
 30
0.0
 10
127.0175699552248
 20
-151.1776800837334
 30
0.0
 10
126.9972438918618
 20
-151.2093749621977
 30
0.0
 10
126.9769178284988
 20
-151.2093749621977
 30
0.0
 10
126.952802160102
 20
-151.2093749621977
 30
0.0
 10
126.9490125550683
 20
-151.1904269370288
 30
0.0
 10
126.9472900073256
 20
-151.1714789118599
 30
0.0
 10
126.9472900073256
 20
-151.1714789118599
 30
0.0
 10
126.9248968866715
 20
-150.9978460994033
 30
0.0
 10
126.9248968866715
 20
-150.9978460994033
 30
0.0
 10
126.9900091913428
 20
-150.9895778702387
 30
0.0
 10
127.0844048076386
 20
-150.9768310169433
 30
0.0
 10
127.1788004239345
 20
-150.9558159344832
 30
0.0
 10
127.1788004239345
 20
-150.9558159344832
 30
0.0
 10
127.1788004239345
 20
-150.7780490074444
 30
0.0
 10
127.1788004239345
 20
-150.7780490074444
 30
0.0
 10
127.0527099291743
 20
-150.8500515030861
 30
0.0
 10
126.9696831279798
 20
-150.8793348147107
 30
0.0
 10
126.8249891175993
 20
-150.9089626358839
 30
0.0
 10
126.8249891175993
 20
-150.9089626358839
 30
0.0
 10
126.7195691957506
 20
-150.7398084475581
 30
0.0
 10
126.7195691957506
 20
-150.7398084475581
 30
0.0
 10
126.9972438918618
 20
-150.7122476836761
 30
0.0
 10
127.1657090610905
 20
-150.6192301055743
 30
0.0
 10
127.3214273770238
 20
-150.4859049102952
 30
0.0
 10
127.193614334521
 20
-150.4859049102952
 30
0.0
 10
126.9307535489964
 20
-150.490383534426
 30
0.0
 10
126.758498774734
 20
-150.4965847062995
 30
0.0
 10
126.758498774734
 20
-150.4965847062995
 30
0.0
 10
126.758498774734
 20
-150.3188177792605
 30
0.0
 10
126.758498774734
 20
-150.3188177792605
 30
0.0
 10
126.8935465177557
 20
-150.3253634606825
 30
0.0
 10
127.1529622077951
 20
-150.331564632556
 30
0.0
 10
127.3138481669562
 20
-150.331564632556
 30
0.0
 10
127.3138481669562
 20
-150.331564632556
 30
0.0
 10
127.4991943040627
 20
-150.331564632556
 30
0.0
 10
127.4991943040627
 20
-150.331564632556
 30
0.0
 10
127.4991943040627
 20
-150.2364799971631
 30
0.0
 10
127.4971272467715
 20
-150.1854925839814
 30
0.0
 10
127.4916150939951
 20
-150.1389837949305
 30
0.0
 10
127.4916150939951
 20
-150.1389837949305
 30
0.0
 10
127.6807508361353
 20
-150.1558647628082
 30
0.0
 10
127.6807508361353
 20
-150.1558647628082
 30
0.0
 10
127.7231255106039
 20
-150.1603433869391
 30
0.0
 10
127.7307047206715
 20
-150.1751572975256
 30
0.0
 10
127.7307047206715
 20
-150.1899712081122
 30
0.0
 10
127.7307047206715
 20
-150.2151204051545
 30
0.0
 10
127.7158908100849
 20
-150.2237331438677
 30
0.0
 10
127.6714490783252
 20
-150.2492268504585
 30
0.0
 10
127.669382021034
 20
-150.2743760475008
 30
0.0
 10
127.669382021034
 20
-150.2809217289228
 30
0.0
 10
127.6676594732914
 20
-150.331564632556
 30
0.0
 10
127.6676594732914
 20
-150.331564632556
 30
0.0
 10
127.869542068727
 20
-150.331564632556
 30
0.0
 10
127.869542068727
 20
-150.331564632556
 30
0.0
 10
128.013891569559
 20
-150.331564632556
 30
0.0
 10
128.2695176545646
 20
-150.3253634606825
 30
0.0
 10
128.4269585182405
 20
-150.3188177792605
 30
0.0
 10
128.4269585182405
 20
-150.3188177792605
 30
0.0
 10
128.4269585182405
 20
-150.4965847062995
 30
0.0
 10
128.4269585182405
 20
-150.4965847062995
 30
0.0
 10
128.3139593863243
 20
-150.4924505917171
 30
0.0
 10
128.2936333229613
 20
-150.4924505917171
 30
0.0
 10
128.0507540912512
 20
-150.4879719675863
 30
0.0
  0
HATCH
  5
93
330
81
100
AcDbEntity
  8
レイヤー 1
 62
   250
420
  2299925
440
 33554687
100
AcDbHatch
 10
0.0
 20
0.0
 30
0.0
210
0.0
220
0.0
230
1.0
  2
SOLID
 70
     1
 71
     1
 91
        6
 92
        1
 93
        1
 72
     4
 94
        3
 73
     0
 74
     0
 95
       17
 96
       13
 40
0.0
 40
0.0
 40
0.0
 40
0.0
 40
1.0
 40
1.0
 40
1.0
 40
2.0
 40
2.0
 40
2.0
 40
3.0
 40
3.0
 40
3.0
 40
4.0
 40
4.0
 40
4.0
 40
4.0
 10
127.869542068727
 20
-150.4859049102952
 10
127.869542068727
 20
-150.4859049102952
 10
127.6917751416881
 20
-150.4859049102952
 10
127.6917751416881
 20
-150.4859049102952
 10
127.7158908100849
 20
-150.5451605526415
 10
127.7637776373299
 20
-150.6171630482832
 10
127.7878933057266
 20
-150.6467908694563
 10
127.8120089741234
 20
-150.6319769588698
 10
127.9119167431956
 20
-150.5685872019412
 10
127.9914984489049
 20
-150.4859049102952
 10
127.9914984489049
 20
-150.4859049102952
 10
127.869542068727
 20
-150.4859049102952
 10
127.869542068727
 20
-150.4859049102952
 97
        0
 97
        1
330
8D
 92
        1
 93
        1
 72
     4
 94
        3
 73
     0
 74
     0
 95
       83
 96
       79
 40
0.0
 40
0.0
 40
0.0
 40
0.0
 40
1.0
 40
1.0
 40
1.0
 40
2.0
 40
2.0
 40
2.0
 40
3.0
 40
3.0
 40
3.0
 40
4.0
 40
4.0
 40
4.0
 40
5.0
 40
5.0
 40
5.0
 40
6.0
 40
6.0
 40
6.0
 40
7.0
 40
7.0
 40
7.0
 40
8.0
 40
8.0
 40
8.0
 40
9.0
 40
9.0
 40
9.0
 40
10.0
 40
10.0
 40
10.0
 40
11.0
 40
11.0
 40
11.0
 40
12.0
 40
12.0
 40
12.0
 40
13.0
 40
13.0
 40
13.0
 40
14.0
 40
14.0
 40
14.0
 40
15.0
 40
15.0
 40
15.0
 40
16.0
 40
16.0
 40
16.0
 40
17.0
 40
17.0
 40
17.0
 40
18.0
 40
18.0
 40
18.0
 40
19.0
 40
19.0
 40
19.0
 40
20.0
 40
20.0
 40
20.0
 40
21.0
 40
21.0
 40
21.0
 40
22.0
 40
22.0
 40
22.0
 40
23.0
 40
23.0
 40
23.0
 40
24.0
 40
24.0
 40
24.0
 40
25.0
 40
25.0
 40
25.0
 40
26.0
 40
26.0
 40
26.0
 40
26.0
 10
128.0841715174581
 20
-149.6883653054598
 10
128.0841715174581
 20
-149.6883653054598
 10
127.9990776589724
 20
-149.6883653054598
 10
127.9990776589724
 20
-149.6883653054598
 10
127.9990776589724
 20
-149.6883653054598
 10
127.9990776589724
 20
-149.9360676708493
 10
127.9990776589724
 20
-149.9360676708493
 10
127.9990776589724
 20
-149.9360676708493
 10
128.0714246641627
 20
-149.9360676708493
 10
128.0714246641627
 20
-149.9360676708493
 10
128.1286132492178
 20
-149.9360676708493
 10
128.2509141389442
 20
-149.9315890467185
 10
128.338075054721
 20
-149.9233208175539
 10
128.338075054721
 20
-149.9233208175539
 10
128.338075054721
 20
-150.1031548018839
 10
128.338075054721
 20
-150.1031548018839
 10
128.2564262917206
 20
-150.0945420631708
 10
128.1251681537326
 20
-150.0904079485885
 10
128.0714246641627
 20
-150.0904079485885
 10
128.0714246641627
 20
-150.0904079485885
 10
127.8047742736043
 20
-150.0904079485885
 10
127.8047742736043
 20
-150.0904079485885
 10
127.7582654845535
 20
-150.0904079485885
 10
127.6304524420507
 20
-150.0945420631708
 10
127.538123883046
 20
-150.1031548018839
 10
127.538123883046
 20
-150.1031548018839
 10
127.538123883046
 20
-149.9233208175539
 10
127.538123883046
 20
-149.9233208175539
 10
127.6249402892743
 20
-149.9315890467185
 10
127.7472411790007
 20
-149.9360676708493
 10
127.8047742736043
 20
-149.9360676708493
 10
127.8047742736043
 20
-149.9360676708493
 10
127.8433593430391
 20
-149.9360676708493
 10
127.8433593430391
 20
-149.9360676708493
 10
127.8433593430391
 20
-149.9360676708493
 10
127.8433593430391
 20
-149.6883653054598
 10
127.8433593430391
 20
-149.6883653054598
 10
127.8433593430391
 20
-149.6883653054598
 10
127.7785915479164
 20
-149.6883653054598
 10
127.7785915479164
 20
-149.6883653054598
 10
127.7248480583465
 20
-149.6883653054598
 10
127.578776009772
 20
-149.6928439295906
 10
127.4733560879233
 20
-149.7011121587553
 10
127.4733560879233
 20
-149.7011121587553
 10
127.4733560879233
 20
-149.5233452317164
 10
127.4733560879233
 20
-149.5233452317164
 10
127.5732638569956
 20
-149.5298909131383
 10
127.7121012050511
 20
-149.5340250277207
 10
127.7785915479164
 20
-149.5340250277207
 10
127.7785915479164
 20
-149.5340250277207
 10
127.8416367952965
 20
-149.5340250277207
 10
127.8416367952965
 20
-149.5340250277207
 10
127.8378471902627
 20
-149.3817518072726
 10
127.8361246425201
 20
-149.3479898715172
 10
127.8306124897437
 20
-149.2546277838669
 10
127.8306124897437
 20
-149.2546277838669
 10
128.0156141173016
 20
-149.2780544331666
 10
128.0156141173016
 20
-149.2780544331666
 10
128.0380072379557
 20
-149.2801214904577
 10
128.0583333013187
 20
-149.28425560504
 10
128.0583333013187
 20
-149.3076822543397
 10
128.0583333013187
 20
-149.339377132804
 10
128.0194037223354
 20
-149.3562581006818
 10
127.9990776589724
 20
-149.3648708393949
 10
127.9990776589724
 20
-149.3648708393949
 10
127.9990776589724
 20
-149.5340250277207
 10
127.9990776589724
 20
-149.5340250277207
 10
127.9990776589724
 20
-149.5340250277207
 10
128.0841715174581
 20
-149.5340250277207
 10
128.0841715174581
 20
-149.5340250277207
 10
128.151006369872
 20
-149.5340250277207
 10
128.2898437179275
 20
-149.5298909131383
 10
128.3918185442909
 20
-149.5233452317164
 10
128.3918185442909
 20
-149.5233452317164
 10
128.3918185442909
 20
-149.7011121587553
 10
128.3918185442909
 20
-149.7011121587553
 10
128.2970784184465
 20
-149.6949109868818
 10
128.1454942170956
 20
-149.6883653054598
 10
128.0841715174581
 20
-149.6883653054598
 97
        0
 97
        1
330
8E
 92
        1
 93
        1
 72
     4
 94
        3
 73
     0
 74
     0
 95
       38
 96
       34
 40
0.0
 40
0.0
 40
0.0
 40
0.0
 40
1.0
 40
1.0
 40
1.0
 40
2.0
 40
2.0
 40
2.0
 40
3.0
 40
3.0
 40
3.0
 40
4.0
 40
4.0
 40
4.0
 40
5.0
 40
5.0
 40
5.0
 40
6.0
 40
6.0
 40
6.0
 40
7.0
 40
7.0
 40
7.0
 40
8.0
 40
8.0
 40
8.0
 40
9.0
 40
9.0
 40
9.0
 40
10.0
 40
10.0
 40
10.0
 40
11.0
 40
11.0
 40
11.0
 40
11.0
 10
127.3824055671127
 20
-149.366937896686
 10
127.3806830193701
 20
-149.4134466857369
 10
127.378615962079
 20
-149.5298909131383
 10
127.378615962079
 20
-149.574332644898
 10
127.378615962079
 20
-149.574332644898
 10
127.378615962079
 20
-149.9212537602627
 10
127.378615962079
 20
-149.9212537602627
 10
127.378615962079
 20
-150.008070166491
 10
127.3806830193701
 20
-150.1496635909348
 10
127.3899847771803
 20
-150.2702419329185
 10
127.3899847771803
 20
-150.2702419329185
 10
127.2232421556942
 20
-150.2702419329185
 10
127.2232421556942
 20
-150.2702419329185
 10
127.2270317607279
 20
-150.2068521759899
 10
127.2304768562132
 20
-150.1537977055171
 10
127.2325439135044
 20
-150.0990206873016
 10
127.234266461247
 20
-149.9760307784782
 10
127.2363335185381
 20
-149.9612168678916
 10
127.2363335185381
 20
-149.9167751361319
 10
127.2363335185381
 20
-149.9167751361319
 10
127.2363335185381
 20
-149.5953477273581
 10
127.2363335185381
 20
-149.5953477273581
 10
127.2363335185381
 20
-149.5402261995941
 10
127.2249647034368
 20
-149.3014810824663
 10
127.2232421556942
 20
-149.2504936692846
 10
127.2232421556942
 20
-149.2504936692846
 10
127.3989420254419
 20
-149.2780544331666
 10
127.3989420254419
 20
-149.2780544331666
 10
127.4175455410623
 20
-149.2801214904577
 10
127.4454508144928
 20
-149.28425560504
 10
127.4454508144928
 20
-149.3097493116309
 10
127.4454508144928
 20
-149.3373100755129
 10
127.4010090827331
 20
-149.3583251579729
 10
127.3824055671127
 20
-149.366937896686
 97
        0
 97
        1
330
8F
 92
        1
 93
        1
 72
     4
 94
        3
 73
     0
 74
     0
 95
       17
 96
       13
 40
0.0
 40
0.0
 40
0.0
 40
0.0
 40
1.0
 40
1.0
 40
1.0
 40
2.0
 40
2.0
 40
2.0
 40
3.0
 40
3.0
 40
3.0
 40
4.0
 40
4.0
 40
4.0
 40
4.0
 10
127.0602891392418
 20
-149.6714843375821
 10
127.0344509231025
 20
-149.6315212299532
 10
126.9751952807562
 20
-149.5340250277207
 10
126.8156873597891
 20
-149.4241264817412
 10
126.8156873597891
 20
-149.4241264817412
 10
126.9269639439627
 20
-149.290801286462
 10
126.9269639439627
 20
-149.290801286462
 10
127.089916960415
 20
-149.3924316032769
 10
127.1398708449511
 20
-149.4813150667963
 10
127.1639865133479
 20
-149.5233452317164
 10
127.1639865133479
 20
-149.5233452317164
 10
127.0602891392418
 20
-149.6714843375821
 10
127.0602891392418
 20
-149.6714843375821
 97
        0
 97
        1
330
90
 92
        1
 93
        1
 72
     4
 94
        3
 73
     0
 74
     0
 95
       23
 96
       19
 40
0.0
 40
0.0
 40
0.0
 40
0.0
 40
1.0
 40
1.0
 40
1.0
 40
2.0
 40
2.0
 40
2.0
 40
3.0
 40
3.0
 40
3.0
 40
4.0
 40
4.0
 40
4.0
 40
5.0
 40
5.0
 40
5.0
 40
6.0
 40
6.0
 40
6.0
 40
6.0
 10
126.9269639439627
 20
-150.1369167376394
 10
126.9121500333761
 20
-150.1772243548168
 10
126.9066378805997
 20
-150.1941053226945
 10
126.8880343649794
 20
-150.1941053226945
 10
126.8749430021354
 20
-150.1941053226945
 10
126.8656412443252
 20
-150.1772243548168
 10
126.8601290915488
 20
-150.1644775015214
 10
126.8601290915488
 20
-150.1644775015214
 10
126.7733126853205
 20
-149.9994574277779
 10
126.7733126853205
 20
-149.9994574277779
 10
126.86219614884
 20
-149.9677625493136
 10
126.993454286828
 20
-149.9126410215496
 10
127.1677761183816
 20
-149.7496880050973
 10
127.1677761183816
 20
-149.7496880050973
 10
127.2177300029178
 20
-149.9233208175539
 10
127.2177300029178
 20
-149.9233208175539
 10
127.1360812399173
 20
-150.0056585996514
 10
127.0585665914992
 20
-150.0628471847065
 10
126.9269639439627
 20
-150.1369167376394
 97
        0
 97
        1
330
91
 92
        1
 93
        1
 72
     4
 94
        3
 73
     0
 74
     0
 95
      113
 96
      109
 40
0.0
 40
0.0
 40
0.0
 40
0.0
 40
1.0
 40
1.0
 40
1.0
 40
2.0
 40
2.0
 40
2.0
 40
3.0
 40
3.0
 40
3.0
 40
4.0
 40
4.0
 40
4.0
 40
5.0
 40
5.0
 40
5.0
 40
6.0
 40
6.0
 40
6.0
 40
7.0
 40
7.0
 40
7.0
 40
8.0
 40
8.0
 40
8.0
 40
9.0
 40
9.0
 40
9.0
 40
10.0
 40
10.0
 40
10.0
 40
11.0
 40
11.0
 40
11.0
 40
12.0
 40
12.0
 40
12.0
 40
13.0
 40
13.0
 40
13.0
 40
14.0
 40
14.0
 40
14.0
 40
15.0
 40
15.0
 40
15.0
 40
16.0
 40
16.0
 40
16.0
 40
17.0
 40
17.0
 40
17.0
 40
18.0
 40
18.0
 40
18.0
 40
19.0
 40
19.0
 40
19.0
 40
20.0
 40
20.0
 40
20.0
 40
21.0
 40
21.0
 40
21.0
 40
22.0
 40
22.0
 40
22.0
 40
23.0
 40
23.0
 40
23.0
 40
24.0
 40
24.0
 40
24.0
 40
25.0
 40
25.0
 40
25.0
 40
26.0
 40
26.0
 40
26.0
 40
27.0
 40
27.0
 40
27.0
 40
28.0
 40
28.0
 40
28.0
 40
29.0
 40
29.0
 40
29.0
 40
30.0
 40
30.0
 40
30.0
 40
31.0
 40
31.0
 40
31.0
 40
32.0
 40
32.0
 40
32.0
 40
33.0
 40
33.0
 40
33.0
 40
34.0
 40
34.0
 40
34.0
 40
35.0
 40
35.0
 40
35.0
 40
36.0
 40
36.0
 40
36.0
 40
36.0
 10
128.0507540912512
 20
-150.4879719675863
 10
128.0507540912512
 20
-150.4879719675863
 10
128.137915007028
 20
-150.58753522711
 10
128.137915007028
 20
-150.58753522711
 10
128.1472167648382
 20
-150.5982150231143
 10
128.1565185226483
 20
-150.6109618764097
 10
128.1565185226483
 20
-150.6257757869963
 10
128.1565185226483
 20
-150.6278428442875
 10
128.1565185226483
 20
-150.6574706654606
 10
128.1231010964414
 20
-150.6574706654606
 10
128.1158663959224
 20
-150.6574706654606
 10
128.0803819124243
 20
-150.6529920413298
 10
128.0748697596479
 20
-150.6529920413298
 10
128.0397297856984
 20
-150.6850314293426
 10
127.9990776589724
 20
-150.7187933650981
 10
127.9119167431956
 20
-150.7759819501532
 10
128.0397297856984
 20
-150.8838134388415
 10
128.1785671337539
 20
-150.9410020238967
 10
128.4176567604303
 20
-150.9788980742344
 10
128.4176567604303
 20
-150.9788980742344
 10
128.2860541128937
 20
-151.1545979439822
 10
128.2860541128937
 20
-151.1545979439822
 10
128.0566107535761
 20
-151.0825954483405
 10
127.9194959532632
 20
-150.993711984821
 10
127.8526611008493
 20
-150.9410020238967
 10
127.7214029628613
 20
-150.8393717070818
 10
127.5953124681012
 20
-150.6764186906295
 10
127.5288221252358
 20
-150.511398616886
 10
127.4695664828895
 20
-150.5768554311058
 10
127.4047986877668
 20
-150.6299099015786
 10
127.3362412876104
 20
-150.6784857479206
 10
127.3362412876104
 20
-150.6784857479206
 10
127.3362412876104
 20
-150.9303222278924
 10
127.3362412876104
 20
-150.9303222278924
 10
127.4788682406997
 20
-150.9048285213015
 10
127.641821257152
 20
-150.8603867895418
 10
127.6972872944645
 20
-150.8455728789552
 10
127.6972872944645
 20
-150.8455728789552
 10
127.6714490783252
 20
-151.014727067281
 10
127.6714490783252
 20
-151.014727067281
 10
127.669382021034
 20
-151.014727067281
 10
127.6528455627048
 20
-151.021272748703
 10
127.6511230149622
 20
-151.021272748703
 10
127.4768011834086
 20
-151.0591687990407
 10
127.1991264872974
 20
-151.124970122809
 10
127.0268717130349
 20
-151.1607991158556
 10
127.0175699552248
 20
-151.1776800837334
 10
126.9972438918618
 20
-151.2093749621977
 10
126.9769178284988
 20
-151.2093749621977
 10
126.952802160102
 20
-151.2093749621977
 10
126.9490125550683
 20
-151.1904269370288
 10
126.9472900073256
 20
-151.1714789118599
 10
126.9472900073256
 20
-151.1714789118599
 10
126.9248968866715
 20
-150.9978460994033
 10
126.9248968866715
 20
-150.9978460994033
 10
126.9900091913428
 20
-150.9895778702387
 10
127.0844048076386
 20
-150.9768310169433
 10
127.1788004239345
 20
-150.9558159344832
 10
127.1788004239345
 20
-150.9558159344832
 10
127.1788004239345
 20
-150.7780490074444
 10
127.1788004239345
 20
-150.7780490074444
 10
127.0527099291743
 20
-150.8500515030861
 10
126.9696831279798
 20
-150.8793348147107
 10
126.8249891175993
 20
-150.9089626358839
 10
126.8249891175993
 20
-150.9089626358839
 10
126.7195691957506
 20
-150.7398084475581
 10
126.7195691957506
 20
-150.7398084475581
 10
126.9972438918618
 20
-150.7122476836761
 10
127.1657090610905
 20
-150.6192301055743
 10
127.3214273770238
 20
-150.4859049102952
 10
127.193614334521
 20
-150.4859049102952
 10
126.9307535489964
 20
-150.490383534426
 10
126.758498774734
 20
-150.4965847062995
 10
126.758498774734
 20
-150.4965847062995
 10
126.758498774734
 20
-150.3188177792605
 10
126.758498774734
 20
-150.3188177792605
 10
126.8935465177557
 20
-150.3253634606825
 10
127.1529622077951
 20
-150.331564632556
 10
127.3138481669562
 20
-150.331564632556
 10
127.3138481669562
 20
-150.331564632556
 10
127.4991943040627
 20
-150.331564632556
 10
127.4991943040627
 20
-150.331564632556
 10
127.4991943040627
 20
-150.2364799971631
 10
127.4971272467715
 20
-150.1854925839814
 10
127.4916150939951
 20
-150.1389837949305
 10
127.4916150939951
 20
-150.1389837949305
 10
127.6807508361353
 20
-150.1558647628082
 10
127.6807508361353
 20
-150.1558647628082
 10
127.7231255106039
 20
-150.1603433869391
 10
127.7307047206715
 20
-150.1751572975256
 10
127.7307047206715
 20
-150.1899712081122
 10
127.7307047206715
 20
-150.2151204051545
 10
127.7158908100849
 20
-150.2237331438677
 10
127.6714490783252
 20
-150.2492268504585
 10
127.669382021034
 20
-150.2743760475008
 10
127.669382021034
 20
-150.2809217289228
 10
127.6676594732914
 20
-150.331564632556
 10
127.6676594732914
 20
-150.331564632556
 10
127.869542068727
 20
-150.331564632556
 10
127.869542068727
 20
-150.331564632556
 10
128.013891569559
 20
-150.331564632556
 10
128.2695176545646
 20
-150.3253634606825
 10
128.4269585182405
 20
-150.3188177792605
 10
128.4269585182405
 20
-150.3188177792605
 10
128.4269585182405
 20
-150.4965847062995
 10
128.4269585182405
 20
-150.4965847062995
 10
128.3139593863243
 20
-150.4924505917171
 10
128.2936333229613
 20
-150.4924505917171
 10
128.0507540912512
 20
-150.4879719675863
 97
        0
 97
        1
330
92
 75
     2
 76
     1
 98
        1
 10
0.0
 20
0.0
450
        0
451
        0
460
0.0
461
0.0
452
        0
462
0.0
453
        0
470

  0
SPLINE
  5
94
330
81
100
AcDbEntity
  8
レイヤー 1
100
AcDbSpline
210
0.0
220
0.0
230
1.0
 70
    11
 71
     3
 72
    17
 73
    13
 74
     0
 42
0.0000000001
 43
0.0000000001
 40
0.0
 40
0.0
 40
0.0
 40
0.0
 40
1.0
 40
1.0
 40
1.0
 40
2.0
 40
2.0
 40
2.0
 40
3.0
 40
3.0
 40
3.0
 40
4.0
 40
4.0
 40
4.0
 40
4.0
 10
129.9324652452947
 20
-150.001524485069
 30
0.0
 10
129.9324652452947
 20
-150.001524485069
 30
0.0
 10
129.5307671117145
 20
-150.001524485069
 30
0.0
 10
129.5307671117145
 20
-150.001524485069
 30
0.0
 10
129.5307671117145
 20
-150.001524485069
 30
0.0
 10
129.5307671117145
 20
-150.3105495500959
 30
0.0
 10
129.5307671117145
 20
-150.3105495500959
 30
0.0
 10
129.5307671117145
 20
-150.3105495500959
 30
0.0
 10
129.9324652452947
 20
-150.3105495500959
 30
0.0
 10
129.9324652452947
 20
-150.3105495500959
 30
0.0
 10
129.9324652452947
 20
-150.3105495500959
 30
0.0
 10
129.9324652452947
 20
-150.001524485069
 30
0.0
 10
129.9324652452947
 20
-150.001524485069
 30
0.0
  0
SPLINE
  5
95
330
81
100
AcDbEntity
  8
レイヤー 1
100
AcDbSpline
210
0.0
220
0.0
230
1.0
 70
    11
 71
     3
 72
    17
 73
    13
 74
     0
 42
0.0000000001
 43
0.0000000001
 40
0.0
 40
0.0
 40
0.0
 40
0.0
 40
1.0
 40
1.0
 40
1.0
 40
2.0
 40
2.0
 40
2.0
 40
3.0
 40
3.0
 40
3.0
 40
4.0
 40
4.0
 40
4.0
 40
4.0
 10
129.9324652452947
 20
-149.5298909131383
 30
0.0
 10
129.9324652452947
 20
-149.5298909131383
 30
0.0
 10
129.5307671117145
 20
-149.5298909131383
 30
0.0
 10
129.5307671117145
 20
-149.5298909131383
 30
0.0
 10
129.5307671117145
 20
-149.5298909131383
 30
0.0
 10
129.5307671117145
 20
-149.8344373540344
 30
0.0
 10
129.5307671117145
 20
-149.8344373540344
 30
0.0
 10
129.5307671117145
 20
-149.8344373540344
 30
0.0
 10
129.9324652452947
 20
-149.8344373540344
 30
0.0
 10
129.9324652452947
 20
-149.8344373540344
 30
0.0
 10
129.9324652452947
 20
-149.8344373540344
 30
0.0
 10
129.9324652452947
 20
-149.5298909131383
 30
0.0
 10
129.9324652452947
 20
-149.5298909131383
 30
0.0
  0
SPLINE
  5
96
330
81
100
AcDbEntity
  8
レイヤー 1
100
AcDbSpline
210
0.0
220
0.0
230
1.0
 70
    11
 71
     3
 72
    17
 73
    13
 74
     0
 42
0.0000000001
 43
0.0000000001
 40
0.0
 40
0.0
 40
0.0
 40
0.0
 40
1.0
 40
1.0
 40
1.0
 40
2.0
 40
2.0
 40
2.0
 40
3.0
 40
3.0
 40
3.0
 40
4.0
 40
4.0
 40
4.0
 40
4.0
 10
129.3640244902284
 20
-150.001524485069
 30
0.0
 10
129.3640244902284
 20
-150.001524485069
 30
0.0
 10
128.9805853627201
 20
-150.001524485069
 30
0.0
 10
128.9805853627201
 20
-150.001524485069
 30
0.0
 10
128.9805853627201
 20
-150.001524485069
 30
0.0
 10
128.9805853627201
 20
-150.3105495500959
 30
0.0
 10
128.9805853627201
 20
-150.3105495500959
 30
0.0
 10
128.9805853627201
 20
-150.3105495500959
 30
0.0
 10
129.3640244902284
 20
-150.3105495500959
 30
0.0
 10
129.3640244902284
 20
-150.3105495500959
 30
0.0
 10
129.3640244902284
 20
-150.3105495500959
 30
0.0
 10
129.3640244902284
 20
-150.001524485069
 30
0.0
 10
129.3640244902284
 20
-150.001524485069
 30
0.0
  0
SPLINE
  5
97
330
81
100
AcDbEntity
  8
レイヤー 1
100
AcDbSpline
210
0.0
220
0.0
230
1.0
 70
    11
 71
     3
 72
    17
 73
    13
 74
     0
 42
0.0000000001
 43
0.0000000001
 40
0.0
 40
0.0
 40
0.0
 40
0.0
 40
1.0
 40
1.0
 40
1.0
 40
2.0
 40
2.0
 40
2.0
 40
3.0
 40
3.0
 40
3.0
 40
4.0
 40
4.0
 40
4.0
 40
4.0
 10
129.3640244902284
 20
-149.5298909131383
 30
0.0
 10
129.3640244902284
 20
-149.5298909131383
 30
0.0
 10
128.9805853627201
 20
-149.5298909131383
 30
0.0
 10
128.9805853627201
 20
-149.5298909131383
 30
0.0
 10
128.9805853627201
 20
-149.5298909131383
 30
0.0
 10
128.9805853627201
 20
-149.8344373540344
 30
0.0
 10
128.9805853627201
 20
-149.8344373540344
 30
0.0
 10
128.9805853627201
 20
-149.8344373540344
 30
0.0
 10
129.3640244902284
 20
-149.8344373540344
 30
0.0
 10
129.3640244902284
 20
-149.8344373540344
 30
0.0
 10
129.3640244902284
 20
-149.8344373540344
 30
0.0
 10
129.3640244902284
 20
-149.5298909131383
 30
0.0
 10
129.3640244902284
 20
-149.5298909131383
 30
0.0
  0
SPLINE
  5
98
330
81
100
AcDbEntity
  8
レイヤー 1
100
AcDbSpline
210
0.0
220
0.0
230
1.0
 70
     9
 71
     3
 72
    77
 73
    73
 74
     0
 42
0.0000000001
 43
0.0000000001
 40
0.0
 40
0.0
 40
0.0
 40
0.0
 40
1.0
 40
1.0
 40
1.0
 40
2.0
 40
2.0
 40
2.0
 40
3.0
 40
3.0
 40
3.0
 40
4.0
 40
4.0
 40
4.0
 40
5.0
 40
5.0
 40
5.0
 40
6.0
 40
6.0
 40
6.0
 40
7.0
 40
7.0
 40
7.0
 40
8.0
 40
8.0
 40
8.0
 40
9.0
 40
9.0
 40
9.0
 40
10.0
 40
10.0
 40
10.0
 40
11.0
 40
11.0
 40
11.0
 40
12.0
 40
12.0
 40
12.0
 40
13.0
 40
13.0
 40
13.0
 40
14.0
 40
14.0
 40
14.0
 40
15.0
 40
15.0
 40
15.0
 40
16.0
 40
16.0
 40
16.0
 40
17.0
 40
17.0
 40
17.0
 40
18.0
 40
18.0
 40
18.0
 40
19.0
 40
19.0
 40
19.0
 40
20.0
 40
20.0
 40
20.0
 40
21.0
 40
21.0
 40
21.0
 40
22.0
 40
22.0
 40
22.0
 40
23.0
 40
23.0
 40
23.0
 40
24.0
 40
24.0
 40
24.0
 40
24.0
 10
130.0509765299872
 20
-151.1163573840959
 30
0.0
 10
130.0103244032613
 20
-151.1418510906868
 30
0.0
 10
129.9011148763789
 20
-151.1545979439822
 30
0.0
 10
129.8325574762224
 20
-151.1545979439822
 30
0.0
 10
129.8215331706696
 20
-151.1545979439822
 30
0.0
 10
129.7991400500155
 20
-151.1545979439822
 30
0.0
 10
129.7695122288423
 20
-151.1501193198514
 30
0.0
 10
129.7695122288423
 20
-151.1501193198514
 30
0.0
 10
129.6844183703566
 20
-150.9237765464704
 30
0.0
 10
129.6844183703566
 20
-150.9237765464704
 30
0.0
 10
129.710256586496
 20
-150.9303222278924
 30
0.0
 10
129.7602104710321
 20
-150.938590457057
 30
0.0
 10
129.8621852973955
 20
-150.938590457057
 30
0.0
 10
129.930742697552
 20
-150.938590457057
 30
0.0
 10
129.9324652452947
 20
-150.8965602921369
 30
0.0
 10
129.9324652452947
 20
-150.8393717070818
 30
0.0
 10
129.9324652452947
 20
-150.8393717070818
 30
0.0
 10
129.9324652452947
 20
-150.490383534426
 30
0.0
 10
129.9324652452947
 20
-150.490383534426
 30
0.0
 10
129.9324652452947
 20
-150.490383534426
 30
0.0
 10
129.5307671117145
 20
-150.490383534426
 30
0.0
 10
129.5307671117145
 20
-150.490383534426
 30
0.0
 10
129.5324896594571
 20
-150.6278428442875
 30
0.0
 10
129.5342122071998
 20
-150.8266248537864
 30
0.0
 10
129.5397243599762
 20
-150.9599500490656
 30
0.0
 10
129.5417914172673
 20
-150.9875108129475
 30
0.0
 10
129.5417914172673
 20
-151.0319525447073
 30
0.0
 10
129.5528157228201
 20
-151.0932752443447
 30
0.0
 10
129.5528157228201
 20
-151.0932752443447
 30
0.0
 10
129.3416313695743
 20
-151.0932752443447
 30
0.0
 10
129.3416313695743
 20
-151.0932752443447
 30
0.0
 10
129.3640244902284
 20
-150.9682182782302
 30
0.0
 10
129.3640244902284
 20
-150.6278428442875
 30
0.0
 10
129.3640244902284
 20
-150.490383534426
 30
0.0
 10
129.3640244902284
 20
-150.490383534426
 30
0.0
 10
128.9767957576863
 20
-150.490383534426
 30
0.0
 10
128.9767957576863
 20
-150.490383534426
 30
0.0
 10
128.9564696943234
 20
-150.6974337730895
 30
0.0
 10
128.8992811092682
 20
-150.966151220939
 30
0.0
 10
128.7270263350057
 20
-151.1501193198514
 30
0.0
 10
128.7270263350057
 20
-151.1501193198514
 30
0.0
 10
128.5620062612622
 20
-151.0274739205765
 30
0.0
 10
128.5620062612622
 20
-151.0274739205765
 30
0.0
 10
128.7845594296094
 20
-150.8076768286175
 30
0.0
 10
128.8121201934914
 20
-150.4755696238394
 30
0.0
 10
128.8121201934914
 20
-150.1434624190613
 30
0.0
 10
128.8121201934914
 20
-150.1434624190613
 30
0.0
 10
128.8121201934914
 20
-149.7076578401772
 30
0.0
 10
128.8121201934914
 20
-149.7076578401772
 30
0.0
 10
128.8121201934914
 20
-149.6714843375821
 30
0.0
 10
128.8103976457488
 20
-149.4389403923277
 30
0.0
 10
128.8028184356812
 20
-149.3373100755129
 30
0.0
 10
128.9251193254076
 20
-149.3479898715172
 30
0.0
 10
129.1363036786534
 20
-149.3479898715172
 30
0.0
 10
129.262049663865
 20
-149.3479898715172
 30
0.0
 10
129.262049663865
 20
-149.3479898715172
 30
0.0
 10
129.6640923069937
 20
-149.3479898715172
 30
0.0
 10
129.6640923069937
 20
-149.3479898715172
 30
0.0
 10
129.6768391602891
 20
-149.3479898715172
 30
0.0
 10
129.9824191298308
 20
-149.3479898715172
 30
0.0
 10
130.1212564778863
 20
-149.3373100755129
 30
0.0
 10
130.1195339301437
 20
-149.3900200364372
 30
0.0
 10
130.1140217773673
 20
-149.5509059955984
 30
0.0
 10
130.1140217773673
 20
-149.6018934087801
 30
0.0
 10
130.1140217773673
 20
-149.6018934087801
 30
0.0
 10
130.1140217773673
 20
-150.2089192332811
 30
0.0
 10
130.1140217773673
 20
-150.2089192332811
 30
0.0
 10
130.1140217773673
 20
-150.22786725845
 30
0.0
 10
130.1233235351775
 20
-150.7990640899044
 30
0.0
 10
130.1233235351775
 20
-150.9113742027235
 30
0.0
 10
130.1233235351775
 20
-150.9682182782302
 30
0.0
 10
130.1233235351775
 20
-151.069848595045
 30
0.0
 10
130.0509765299872
 20
-151.1163573840959
 30
0.0
  0
HATCH
  5
99
330
81
100
AcDbEntity
  8
レイヤー 1
 62
   250
420
  2299925
440
 33554687
100
AcDbHatch
 10
0.0
 20
0.0
 30
0.0
210
0.0
220
0.0
230
1.0
  2
SOLID
 70
     1
 71
     1
 91
        5
 92
        1
 93
        1
 72
     4
 94
        3
 73
     0
 74
     0
 95
       17
 96
       13
 40
0.0
 40
0.0
 40
0.0
 40
0.0
 40
1.0
 40
1.0
 40
1.0
 40
2.0
 40
2.0
 40
2.0
 40
3.0
 40
3.0
 40
3.0
 40
4.0
 40
4.0
 40
4.0
 40
4.0
 10
129.9324652452947
 20
-150.001524485069
 10
129.9324652452947
 20
-150.001524485069
 10
129.5307671117145
 20
-150.001524485069
 10
129.5307671117145
 20
-150.001524485069
 10
129.5307671117145
 20
-150.001524485069
 10
129.5307671117145
 20
-150.3105495500959
 10
129.5307671117145
 20
-150.3105495500959
 10
129.5307671117145
 20
-150.3105495500959
 10
129.9324652452947
 20
-150.3105495500959
 10
129.9324652452947
 20
-150.3105495500959
 10
129.9324652452947
 20
-150.3105495500959
 10
129.9324652452947
 20
-150.001524485069
 10
129.9324652452947
 20
-150.001524485069
 97
        0
 97
        1
330
94
 92
        1
 93
        1
 72
     4
 94
        3
 73
     0
 74
     0
 95
       17
 96
       13
 40
0.0
 40
0.0
 40
0.0
 40
0.0
 40
1.0
 40
1.0
 40
1.0
 40
2.0
 40
2.0
 40
2.0
 40
3.0
 40
3.0
 40
3.0
 40
4.0
 40
4.0
 40
4.0
 40
4.0
 10
129.9324652452947
 20
-149.5298909131383
 10
129.9324652452947
 20
-149.5298909131383
 10
129.5307671117145
 20
-149.5298909131383
 10
129.5307671117145
 20
-149.5298909131383
 10
129.5307671117145
 20
-149.5298909131383
 10
129.5307671117145
 20
-149.8344373540344
 10
129.5307671117145
 20
-149.8344373540344
 10
129.5307671117145
 20
-149.8344373540344
 10
129.9324652452947
 20
-149.8344373540344
 10
129.9324652452947
 20
-149.8344373540344
 10
129.9324652452947
 20
-149.8344373540344
 10
129.9324652452947
 20
-149.5298909131383
 10
129.9324652452947
 20
-149.5298909131383
 97
        0
 97
        1
330
95
 92
        1
 93
        1
 72
     4
 94
        3
 73
     0
 74
     0
 95
       17
 96
       13
 40
0.0
 40
0.0
 40
0.0
 40
0.0
 40
1.0
 40
1.0
 40
1.0
 40
2.0
 40
2.0
 40
2.0
 40
3.0
 40
3.0
 40
3.0
 40
4.0
 40
4.0
 40
4.0
 40
4.0
 10
129.3640244902284
 20
-150.001524485069
 10
129.3640244902284
 20
-150.001524485069
 10
128.9805853627201
 20
-150.001524485069
 10
128.9805853627201
 20
-150.001524485069
 10
128.9805853627201
 20
-150.001524485069
 10
128.9805853627201
 20
-150.3105495500959
 10
128.9805853627201
 20
-150.3105495500959
 10
128.9805853627201
 20
-150.3105495500959
 10
129.3640244902284
 20
-150.3105495500959
 10
129.3640244902284
 20
-150.3105495500959
 10
129.3640244902284
 20
-150.3105495500959
 10
129.3640244902284
 20
-150.001524485069
 10
129.3640244902284
 20
-150.001524485069
 97
        0
 97
        1
330
96
 92
        1
 93
        1
 72
     4
 94
        3
 73
     0
 74
     0
 95
       17
 96
       13
 40
0.0
 40
0.0
 40
0.0
 40
0.0
 40
1.0
 40
1.0
 40
1.0
 40
2.0
 40
2.0
 40
2.0
 40
3.0
 40
3.0
 40
3.0
 40
4.0
 40
4.0
 40
4.0
 40
4.0
 10
129.3640244902284
 20
-149.5298909131383
 10
129.3640244902284
 20
-149.5298909131383
 10
128.9805853627201
 20
-149.5298909131383
 10
128.9805853627201
 20
-149.5298909131383
 10
128.9805853627201
 20
-149.5298909131383
 10
128.9805853627201
 20
-149.8344373540344
 10
128.9805853627201
 20
-149.8344373540344
 10
128.9805853627201
 20
-149.8344373540344
 10
129.3640244902284
 20
-149.8344373540344
 10
129.3640244902284
 20
-149.8344373540344
 10
129.3640244902284
 20
-149.8344373540344
 10
129.3640244902284
 20
-149.5298909131383
 10
129.3640244902284
 20
-149.5298909131383
 97
        0
 97
        1
330
97
 92
        1
 93
        1
 72
     4
 94
        3
 73
     0
 74
     0
 95
       77
 96
       73
 40
0.0
 40
0.0
 40
0.0
 40
0.0
 40
1.0
 40
1.0
 40
1.0
 40
2.0
 40
2.0
 40
2.0
 40
3.0
 40
3.0
 40
3.0
 40
4.0
 40
4.0
 40
4.0
 40
5.0
 40
5.0
 40
5.0
 40
6.0
 40
6.0
 40
6.0
 40
7.0
 40
7.0
 40
7.0
 40
8.0
 40
8.0
 40
8.0
 40
9.0
 40
9.0
 40
9.0
 40
10.0
 40
10.0
 40
10.0
 40
11.0
 40
11.0
 40
11.0
 40
12.0
 40
12.0
 40
12.0
 40
13.0
 40
13.0
 40
13.0
 40
14.0
 40
14.0
 40
14.0
 40
15.0
 40
15.0
 40
15.0
 40
16.0
 40
16.0
 40
16.0
 40
17.0
 40
17.0
 40
17.0
 40
18.0
 40
18.0
 40
18.0
 40
19.0
 40
19.0
 40
19.0
 40
20.0
 40
20.0
 40
20.0
 40
21.0
 40
21.0
 40
21.0
 40
22.0
 40
22.0
 40
22.0
 40
23.0
 40
23.0
 40
23.0
 40
24.0
 40
24.0
 40
24.0
 40
24.0
 10
130.0509765299872
 20
-151.1163573840959
 10
130.0103244032613
 20
-151.1418510906868
 10
129.9011148763789
 20
-151.1545979439822
 10
129.8325574762224
 20
-151.1545979439822
 10
129.8215331706696
 20
-151.1545979439822
 10
129.7991400500155
 20
-151.1545979439822
 10
129.7695122288423
 20
-151.1501193198514
 10
129.7695122288423
 20
-151.1501193198514
 10
129.6844183703566
 20
-150.9237765464704
 10
129.6844183703566
 20
-150.9237765464704
 10
129.710256586496
 20
-150.9303222278924
 10
129.7602104710321
 20
-150.938590457057
 10
129.8621852973955
 20
-150.938590457057
 10
129.930742697552
 20
-150.938590457057
 10
129.9324652452947
 20
-150.8965602921369
 10
129.9324652452947
 20
-150.8393717070818
 10
129.9324652452947
 20
-150.8393717070818
 10
129.9324652452947
 20
-150.490383534426
 10
129.9324652452947
 20
-150.490383534426
 10
129.9324652452947
 20
-150.490383534426
 10
129.5307671117145
 20
-150.490383534426
 10
129.5307671117145
 20
-150.490383534426
 10
129.5324896594571
 20
-150.6278428442875
 10
129.5342122071998
 20
-150.8266248537864
 10
129.5397243599762
 20
-150.9599500490656
 10
129.5417914172673
 20
-150.9875108129475
 10
129.5417914172673
 20
-151.0319525447073
 10
129.5528157228201
 20
-151.0932752443447
 10
129.5528157228201
 20
-151.0932752443447
 10
129.3416313695743
 20
-151.0932752443447
 10
129.3416313695743
 20
-151.0932752443447
 10
129.3640244902284
 20
-150.9682182782302
 10
129.3640244902284
 20
-150.6278428442875
 10
129.3640244902284
 20
-150.490383534426
 10
129.3640244902284
 20
-150.490383534426
 10
128.9767957576863
 20
-150.490383534426
 10
128.9767957576863
 20
-150.490383534426
 10
128.9564696943234
 20
-150.6974337730895
 10
128.8992811092682
 20
-150.966151220939
 10
128.7270263350057
 20
-151.1501193198514
 10
128.7270263350057
 20
-151.1501193198514
 10
128.5620062612622
 20
-151.0274739205765
 10
128.5620062612622
 20
-151.0274739205765
 10
128.7845594296094
 20
-150.8076768286175
 10
128.8121201934914
 20
-150.4755696238394
 10
128.8121201934914
 20
-150.1434624190613
 10
128.8121201934914
 20
-150.1434624190613
 10
128.8121201934914
 20
-149.7076578401772
 10
128.8121201934914
 20
-149.7076578401772
 10
128.8121201934914
 20
-149.6714843375821
 10
128.8103976457488
 20
-149.4389403923277
 10
128.8028184356812
 20
-149.3373100755129
 10
128.9251193254076
 20
-149.3479898715172
 10
129.1363036786534
 20
-149.3479898715172
 10
129.262049663865
 20
-149.3479898715172
 10
129.262049663865
 20
-149.3479898715172
 10
129.6640923069937
 20
-149.3479898715172
 10
129.6640923069937
 20
-149.3479898715172
 10
129.6768391602891
 20
-149.3479898715172
 10
129.9824191298308
 20
-149.3479898715172
 10
130.1212564778863
 20
-149.3373100755129
 10
130.1195339301437
 20
-149.3900200364372
 10
130.1140217773673
 20
-149.5509059955984
 10
130.1140217773673
 20
-149.6018934087801
 10
130.1140217773673
 20
-149.6018934087801
 10
130.1140217773673
 20
-150.2089192332811
 10
130.1140217773673
 20
-150.2089192332811
 10
130.1140217773673
 20
-150.22786725845
 10
130.1233235351775
 20
-150.7990640899044
 10
130.1233235351775
 20
-150.9113742027235
 10
130.1233235351775
 20
-150.9682182782302
 10
130.1233235351775
 20
-151.069848595045
 10
130.0509765299872
 20
-151.1163573840959
 97
        0
 97
        1
330
98
 75
     2
 76
     1
 98
        1
 10
0.0
 20
0.0
450
        0
451
        0
460
0.0
461
0.0
452
        0
462
0.0
453
        0
470

  0
SPLINE
  5
9A
330
81
100
AcDbEntity
  8
レイヤー 1
100
AcDbSpline
210
0.0
220
0.0
230
1.0
 70
     9
 71
     3
 72
    17
 73
    13
 74
     0
 42
0.0000000001
 43
0.0000000001
 40
0.0
 40
0.0
 40
0.0
 40
0.0
 40
1.0
 40
1.0
 40
1.0
 40
2.0
 40
2.0
 40
2.0
 40
3.0
 40
3.0
 40
3.0
 40
4.0
 40
4.0
 40
4.0
 40
4.0
 10
126.3337185014027
 20
-151.8773789767876
 30
0.0
 10
126.2854871646092
 20
-151.8773789767876
 30
0.0
 10
126.2465575856258
 20
-151.9218207085473
 30
0.0
 10
126.2465575856258
 20
-151.9769422363113
 30
0.0
 10
126.2465575856258
 20
-152.0337863118179
 30
0.0
 10
126.2854871646092
 20
-152.0827066677085
 30
0.0
 10
126.3375081064364
 20
-152.0827066677085
 30
0.0
 10
126.3891845387152
 20
-152.0827066677085
 30
0.0
 10
126.4243245126647
 20
-152.0317192545268
 30
0.0
 10
126.4243245126647
 20
-151.9790092936025
 30
0.0
 10
126.4243245126647
 20
-151.9218207085473
 30
0.0
 10
126.3836723859388
 20
-151.8773789767876
 30
0.0
 10
126.3337185014027
 20
-151.8773789767876
 30
0.0
  0
SPLINE
  5
9B
330
81
100
AcDbEntity
  8
レイヤー 1
100
AcDbSpline
210
0.0
220
0.0
230
1.0
 70
     9
 71
     3
 72
    17
 73
    13
 74
     0
 42
0.0000000001
 43
0.0000000001
 40
0.0
 40
0.0
 40
0.0
 40
0.0
 40
1.0
 40
1.0
 40
1.0
 40
2.0
 40
2.0
 40
2.0
 40
3.0
 40
3.0
 40
3.0
 40
4.0
 40
4.0
 40
4.0
 40
4.0
 10
126.3354410491453
 20
-152.2074191242745
 30
0.0
 10
126.2245089745202
 20
-152.2074191242745
 30
0.0
 10
126.1356255110008
 20
-152.1057888074597
 30
0.0
 10
126.1356255110008
 20
-151.9790092936025
 30
0.0
 10
126.1356255110008
 20
-151.8518852701967
 30
0.0
 10
126.2245089745202
 20
-151.7481878960907
 30
0.0
 10
126.3354410491453
 20
-151.7481878960907
 30
0.0
 10
126.4467176333189
 20
-151.7481878960907
 30
0.0
 10
126.5373236445809
 20
-151.8518852701967
 30
0.0
 10
126.5373236445809
 20
-151.9790092936025
 30
0.0
 10
126.5373236445809
 20
-152.1057888074597
 30
0.0
 10
126.4467176333189
 20
-152.2074191242745
 30
0.0
 10
126.3354410491453
 20
-152.2074191242745
 30
0.0
  0
SPLINE
  5
9C
330
81
100
AcDbEntity
  8
レイヤー 1
100
AcDbSpline
210
0.0
220
0.0
230
1.0
 70
     9
 71
     3
 72
    44
 73
    40
 74
     0
 42
0.0000000001
 43
0.0000000001
 40
0.0
 40
0.0
 40
0.0
 40
0.0
 40
1.0
 40
1.0
 40
1.0
 40
2.0
 40
2.0
 40
2.0
 40
3.0
 40
3.0
 40
3.0
 40
4.0
 40
4.0
 40
4.0
 40
5.0
 40
5.0
 40
5.0
 40
6.0
 40
6.0
 40
6.0
 40
7.0
 40
7.0
 40
7.0
 40
8.0
 40
8.0
 40
8.0
 40
9.0
 40
9.0
 40
9.0
 40
10.0
 40
10.0
 40
10.0
 40
11.0
 40
11.0
 40
11.0
 40
12.0
 40
12.0
 40
12.0
 40
13.0
 40
13.0
 40
13.0
 40
13.0
 10
126.15216196933
 20
-152.4062011337735
 30
0.0
 10
126.0539767480004
 20
-152.7744818411466
 30
0.0
 10
126.0095350162407
 20
-152.9329562334681
 30
0.0
 10
125.8372802419782
 20
-153.1827256561487
 30
0.0
 10
125.676394282817
 20
-153.413202544112
 30
0.0
 10
125.4689995346049
 20
-153.5992377003155
 30
0.0
 10
125.2243977551522
 20
-153.6925997879657
 30
0.0
 10
125.2243977551522
 20
-153.6925997879657
 30
0.0
 10
125.0559325859235
 20
-153.5127658036357
 30
0.0
 10
125.0559325859235
 20
-153.5127658036357
 30
0.0
 10
125.6171386404707
 20
-153.3604925831876
 30
0.0
 10
125.9058376421346
 20
-152.8041096623198
 30
0.0
 10
125.9616481889957
 20
-152.3638264593049
 30
0.0
 10
125.9616481889957
 20
-152.3638264593049
 30
0.0
 10
125.2912326075661
 20
-152.3638264593049
 30
0.0
 10
125.2912326075661
 20
-152.3638264593049
 30
0.0
 10
125.2095838445656
 20
-152.3638264593049
 30
0.0
 10
125.0486978854045
 20
-152.3683050834357
 30
0.0
 10
124.9115830850915
 20
-152.3872531086046
 30
0.0
 10
124.9115830850915
 20
-152.3872531086046
 30
0.0
 10
124.9115830850915
 20
-152.1671115070971
 30
0.0
 10
124.9115830850915
 20
-152.1671115070971
 30
0.0
 10
124.987375185767
 20
-152.1884710991056
 30
0.0
 10
125.207861296823
 20
-152.1884710991056
 30
0.0
 10
125.2946777030513
 20
-152.1884710991056
 30
0.0
 10
125.2946777030513
 20
-152.1884710991056
 30
0.0
 10
125.6726046777832
 20
-152.1884710991056
 30
0.0
 10
125.6726046777832
 20
-152.1884710991056
 30
0.0
 10
125.7094671994754
 20
-152.1884710991056
 30
0.0
 10
125.9151393999448
 20
-152.186059532266
 30
0.0
 10
125.9485568261517
 20
-152.1798583603925
 30
0.0
 10
125.9854193478439
 20
-152.1736571885191
 30
0.0
 10
125.9874864051351
 20
-152.1715901312279
 30
0.0
 10
126.0412298947049
 20
-152.1312825140505
 30
0.0
 10
126.0412298947049
 20
-152.1312825140505
 30
0.0
 10
126.2059054588999
 20
-152.2856227917897
 30
0.0
 10
126.2059054588999
 20
-152.2856227917897
 30
0.0
 10
126.1800672427605
 20
-152.3152506129628
 30
0.0
 10
126.1669758799166
 20
-152.3469454914271
 30
0.0
 10
126.15216196933
 20
-152.4062011337735
 30
0.0
  0
HATCH
  5
9D
330
81
100
AcDbEntity
  8
レイヤー 1
 62
   250
420
  2299925
440
 33554687
100
AcDbHatch
 10
0.0
 20
0.0
 30
0.0
210
0.0
220
0.0
230
1.0
  2
SOLID
 70
     1
 71
     1
 91
        3
 92
        1
 93
        1
 72
     4
 94
        3
 73
     0
 74
     0
 95
       17
 96
       13
 40
0.0
 40
0.0
 40
0.0
 40
0.0
 40
1.0
 40
1.0
 40
1.0
 40
2.0
 40
2.0
 40
2.0
 40
3.0
 40
3.0
 40
3.0
 40
4.0
 40
4.0
 40
4.0
 40
4.0
 10
126.3337185014027
 20
-151.8773789767876
 10
126.2854871646092
 20
-151.8773789767876
 10
126.2465575856258
 20
-151.9218207085473
 10
126.2465575856258
 20
-151.9769422363113
 10
126.2465575856258
 20
-152.0337863118179
 10
126.2854871646092
 20
-152.0827066677085
 10
126.3375081064364
 20
-152.0827066677085
 10
126.3891845387152
 20
-152.0827066677085
 10
126.4243245126647
 20
-152.0317192545268
 10
126.4243245126647
 20
-151.9790092936025
 10
126.4243245126647
 20
-151.9218207085473
 10
126.3836723859388
 20
-151.8773789767876
 10
126.3337185014027
 20
-151.8773789767876
 97
        0
 97
        1
330
9A
 92
        1
 93
        1
 72
     4
 94
        3
 73
     0
 74
     0
 95
       17
 96
       13
 40
0.0
 40
0.0
 40
0.0
 40
0.0
 40
1.0
 40
1.0
 40
1.0
 40
2.0
 40
2.0
 40
2.0
 40
3.0
 40
3.0
 40
3.0
 40
4.0
 40
4.0
 40
4.0
 40
4.0
 10
126.3354410491453
 20
-152.2074191242745
 10
126.2245089745202
 20
-152.2074191242745
 10
126.1356255110008
 20
-152.1057888074597
 10
126.1356255110008
 20
-151.9790092936025
 10
126.1356255110008
 20
-151.8518852701967
 10
126.2245089745202
 20
-151.7481878960907
 10
126.3354410491453
 20
-151.7481878960907
 10
126.4467176333189
 20
-151.7481878960907
 10
126.5373236445809
 20
-151.8518852701967
 10
126.5373236445809
 20
-151.9790092936025
 10
126.5373236445809
 20
-152.1057888074597
 10
126.4467176333189
 20
-152.2074191242745
 10
126.3354410491453
 20
-152.2074191242745
 97
        0
 97
        1
330
9B
 92
        1
 93
        1
 72
     4
 94
        3
 73
     0
 74
     0
 95
       44
 96
       40
 40
0.0
 40
0.0
 40
0.0
 40
0.0
 40
1.0
 40
1.0
 40
1.0
 40
2.0
 40
2.0
 40
2.0
 40
3.0
 40
3.0
 40
3.0
 40
4.0
 40
4.0
 40
4.0
 40
5.0
 40
5.0
 40
5.0
 40
6.0
 40
6.0
 40
6.0
 40
7.0
 40
7.0
 40
7.0
 40
8.0
 40
8.0
 40
8.0
 40
9.0
 40
9.0
 40
9.0
 40
10.0
 40
10.0
 40
10.0
 40
11.0
 40
11.0
 40
11.0
 40
12.0
 40
12.0
 40
12.0
 40
13.0
 40
13.0
 40
13.0
 40
13.0
 10
126.15216196933
 20
-152.4062011337735
 10
126.0539767480004
 20
-152.7744818411466
 10
126.0095350162407
 20
-152.9329562334681
 10
125.8372802419782
 20
-153.1827256561487
 10
125.676394282817
 20
-153.413202544112
 10
125.4689995346049
 20
-153.5992377003155
 10
125.2243977551522
 20
-153.6925997879657
 10
125.2243977551522
 20
-153.6925997879657
 10
125.0559325859235
 20
-153.5127658036357
 10
125.0559325859235
 20
-153.5127658036357
 10
125.6171386404707
 20
-153.3604925831876
 10
125.9058376421346
 20
-152.8041096623198
 10
125.9616481889957
 20
-152.3638264593049
 10
125.9616481889957
 20
-152.3638264593049
 10
125.2912326075661
 20
-152.3638264593049
 10
125.2912326075661
 20
-152.3638264593049
 10
125.2095838445656
 20
-152.3638264593049
 10
125.0486978854045
 20
-152.3683050834357
 10
124.9115830850915
 20
-152.3872531086046
 10
124.9115830850915
 20
-152.3872531086046
 10
124.9115830850915
 20
-152.1671115070971
 10
124.9115830850915
 20
-152.1671115070971
 10
124.987375185767
 20
-152.1884710991056
 10
125.207861296823
 20
-152.1884710991056
 10
125.2946777030513
 20
-152.1884710991056
 10
125.2946777030513
 20
-152.1884710991056
 10
125.6726046777832
 20
-152.1884710991056
 10
125.6726046777832
 20
-152.1884710991056
 10
125.7094671994754
 20
-152.1884710991056
 10
125.9151393999448
 20
-152.186059532266
 10
125.9485568261517
 20
-152.1798583603925
 10
125.9854193478439
 20
-152.1736571885191
 10
125.9874864051351
 20
-152.1715901312279
 10
126.0412298947049
 20
-152.1312825140505
 10
126.0412298947049
 20
-152.1312825140505
 10
126.2059054588999
 20
-152.2856227917897
 10
126.2059054588999
 20
-152.2856227917897
 10
126.1800672427605
 20
-152.3152506129628
 10
126.1669758799166
 20
-152.3469454914271
 10
126.15216196933
 20
-152.4062011337735
 97
        0
 97
        1
330
9C
 75
     2
 76
     1
 98
        1
 10
0.0
 20
0.0
450
        0
451
        0
460
0.0
461
0.0
452
        0
462
0.0
453
        0
470

  0
SPLINE
  5
9E
330
81
100
AcDbEntity
  8
レイヤー 1
100
AcDbSpline
210
0.0
220
0.0
230
1.0
 70
     9
 71
     3
 72
    29
 73
    25
 74
     0
 42
0.0000000001
 43
0.0000000001
 40
0.0
 40
0.0
 40
0.0
 40
0.0
 40
1.0
 40
1.0
 40
1.0
 40
2.0
 40
2.0
 40
2.0
 40
3.0
 40
3.0
 40
3.0
 40
4.0
 40
4.0
 40
4.0
 40
5.0
 40
5.0
 40
5.0
 40
6.0
 40
6.0
 40
6.0
 40
7.0
 40
7.0
 40
7.0
 40
8.0
 40
8.0
 40
8.0
 40
8.0
 10
127.47645667386
 20
-152.0889078395819
 30
0.0
 10
127.47645667386
 20
-152.0889078395819
 30
0.0
 10
127.1784559143859
 20
-152.0889078395819
 30
0.0
 10
127.1784559143859
 20
-152.0889078395819
 30
0.0
 10
127.0785481453137
 20
-152.0889078395819
 30
0.0
 10
126.9765733189503
 20
-152.0930419541642
 30
0.0
 10
126.876665549878
 20
-152.1078558647508
 30
0.0
 10
126.876665549878
 20
-152.1078558647508
 30
0.0
 10
126.876665549878
 20
-151.8983940592476
 30
0.0
 10
126.876665549878
 20
-151.8983940592476
 30
0.0
 10
126.9803629239841
 20
-151.9132079698342
 30
0.0
 10
127.1322916348836
 20
-151.917686593965
 30
0.0
 10
127.1784559143859
 20
-151.917686593965
 30
0.0
 10
127.1784559143859
 20
-151.917686593965
 30
0.0
 10
127.47645667386
 20
-151.917686593965
 30
0.0
 10
127.47645667386
 20
-151.917686593965
 30
0.0
 10
127.5784315002234
 20
-151.917686593965
 30
0.0
 10
127.6800618170383
 20
-151.9132079698342
 30
0.0
 10
127.7820366434017
 20
-151.8983940592476
 30
0.0
 10
127.7820366434017
 20
-151.8983940592476
 30
0.0
 10
127.7820366434017
 20
-152.1078558647508
 30
0.0
 10
127.7820366434017
 20
-152.1078558647508
 30
0.0
 10
127.6504339958651
 20
-152.0889078395819
 30
0.0
 10
127.489548036704
 20
-152.0889078395819
 30
0.0
 10
127.47645667386
 20
-152.0889078395819
 30
0.0
  0
SPLINE
  5
9F
330
81
100
AcDbEntity
  8
レイヤー 1
100
AcDbSpline
210
0.0
220
0.0
230
1.0
 70
     9
 71
     3
 72
    50
 73
    46
 74
     0
 42
0.0000000001
 43
0.0000000001
 40
0.0
 40
0.0
 40
0.0
 40
0.0
 40
1.0
 40
1.0
 40
1.0
 40
2.0
 40
2.0
 40
2.0
 40
3.0
 40
3.0
 40
3.0
 40
4.0
 40
4.0
 40
4.0
 40
5.0
 40
5.0
 40
5.0
 40
6.0
 40
6.0
 40
6.0
 40
7.0
 40
7.0
 40
7.0
 40
8.0
 40
8.0
 40
8.0
 40
9.0
 40
9.0
 40
9.0
 40
10.0
 40
10.0
 40
10.0
 40
11.0
 40
11.0
 40
11.0
 40
12.0
 40
12.0
 40
12.0
 40
13.0
 40
13.0
 40
13.0
 40
14.0
 40
14.0
 40
14.0
 40
15.0
 40
15.0
 40
15.0
 40
15.0
 10
127.9081271381618
 20
-152.7152261988003
 30
0.0
 10
127.8395697380054
 20
-152.8926486162907
 30
0.0
 10
127.7210584533128
 20
-153.1000433645028
 30
0.0
 10
127.600480111329
 20
-153.2399142412039
 30
0.0
 10
127.4523410054633
 20
-153.4111354868208
 30
0.0
 10
127.3100585619225
 20
-153.5000189503403
 30
0.0
 10
127.0303168085202
 20
-153.641612374784
 30
0.0
 10
127.0303168085202
 20
-153.641612374784
 30
0.0
 10
126.8821777026544
 20
-153.4535101612894
 30
0.0
 10
126.8821777026544
 20
-153.4535101612894
 30
0.0
 10
127.0451307191068
 20
-153.4300835119897
 30
0.0
 10
127.1949923727151
 20
-153.3432671057614
 30
0.0
 10
127.3283175679943
 20
-153.2375026743642
 30
0.0
 10
127.5581054368605
 20
-153.055601632743
 30
0.0
 10
127.7248480583465
 20
-152.7424424531338
 30
0.0
 10
127.7672227328151
 20
-152.5605414115126
 30
0.0
 10
127.7672227328151
 20
-152.5605414115126
 30
0.0
 10
127.1801784621285
 20
-152.5605414115126
 30
0.0
 10
127.1801784621285
 20
-152.5605414115126
 30
0.0
 10
127.041341114073
 20
-152.5605414115126
 30
0.0
 10
126.7857150290674
 20
-152.5691541502258
 30
0.0
 10
126.6523898337883
 20
-152.5860351181035
 30
0.0
 10
126.6523898337883
 20
-152.5860351181035
 30
0.0
 10
126.6523898337883
 20
-152.3576252874314
 30
0.0
 10
126.6523898337883
 20
-152.3576252874314
 30
0.0
 10
126.6820176549614
 20
-152.3638264593049
 30
0.0
 10
126.7044107756156
 20
-152.3703721407268
 30
0.0
 10
126.7505750551179
 20
-152.3745062553091
 30
0.0
 10
126.8394585186373
 20
-152.3807074271826
 30
0.0
 10
127.0117132928998
 20
-152.3831189940223
 30
0.0
 10
127.0857828458327
 20
-152.3831189940223
 30
0.0
 10
127.0857828458327
 20
-152.3831189940223
 30
0.0
 10
127.5284776156873
 20
-152.3831189940223
 30
0.0
 10
127.5284776156873
 20
-152.3831189940223
 30
0.0
 10
127.5877332580336
 20
-152.3831189940223
 30
0.0
 10
127.7155463005364
 20
-152.3786403698914
 30
0.0
 10
127.7689452805577
 20
-152.372439198018
 30
0.0
 10
127.8319905279378
 20
-152.3638264593049
 30
0.0
 10
127.8561061963346
 20
-152.3490125487183
 30
0.0
 10
127.8857340175077
 20
-152.3259304089671
 30
0.0
 10
127.8857340175077
 20
-152.3259304089671
 30
0.0
 10
128.0300835183397
 20
-152.4930175400017
 30
0.0
 10
128.0300835183397
 20
-152.4930175400017
 30
0.0
 10
127.9691053282508
 20
-152.5605414115126
 30
0.0
 10
127.9284532015248
 20
-152.6642387856186
 30
0.0
 10
127.9081271381618
 20
-152.7152261988003
 30
0.0
  0
HATCH
  5
A0
330
81
100
AcDbEntity
  8
レイヤー 1
 62
   250
420
  2299925
440
 33554687
100
AcDbHatch
 10
0.0
 20
0.0
 30
0.0
210
0.0
220
0.0
230
1.0
  2
SOLID
 70
     1
 71
     1
 91
        2
 92
        1
 93
        1
 72
     4
 94
        3
 73
     0
 74
     0
 95
       29
 96
       25
 40
0.0
 40
0.0
 40
0.0
 40
0.0
 40
1.0
 40
1.0
 40
1.0
 40
2.0
 40
2.0
 40
2.0
 40
3.0
 40
3.0
 40
3.0
 40
4.0
 40
4.0
 40
4.0
 40
5.0
 40
5.0
 40
5.0
 40
6.0
 40
6.0
 40
6.0
 40
7.0
 40
7.0
 40
7.0
 40
8.0
 40
8.0
 40
8.0
 40
8.0
 10
127.47645667386
 20
-152.0889078395819
 10
127.47645667386
 20
-152.0889078395819
 10
127.1784559143859
 20
-152.0889078395819
 10
127.1784559143859
 20
-152.0889078395819
 10
127.0785481453137
 20
-152.0889078395819
 10
126.9765733189503
 20
-152.0930419541642
 10
126.876665549878
 20
-152.1078558647508
 10
126.876665549878
 20
-152.1078558647508
 10
126.876665549878
 20
-151.8983940592476
 10
126.876665549878
 20
-151.8983940592476
 10
126.9803629239841
 20
-151.9132079698342
 10
127.1322916348836
 20
-151.917686593965
 10
127.1784559143859
 20
-151.917686593965
 10
127.1784559143859
 20
-151.917686593965
 10
127.47645667386
 20
-151.917686593965
 10
127.47645667386
 20
-151.917686593965
 10
127.5784315002234
 20
-151.917686593965
 10
127.6800618170383
 20
-151.9132079698342
 10
127.7820366434017
 20
-151.8983940592476
 10
127.7820366434017
 20
-151.8983940592476
 10
127.7820366434017
 20
-152.1078558647508
 10
127.7820366434017
 20
-152.1078558647508
 10
127.6504339958651
 20
-152.0889078395819
 10
127.489548036704
 20
-152.0889078395819
 10
127.47645667386
 20
-152.0889078395819
 97
        0
 97
        1
330
9E
 92
        1
 93
        1
 72
     4
 94
        3
 73
     0
 74
     0
 95
       50
 96
       46
 40
0.0
 40
0.0
 40
0.0
 40
0.0
 40
1.0
 40
1.0
 40
1.0
 40
2.0
 40
2.0
 40
2.0
 40
3.0
 40
3.0
 40
3.0
 40
4.0
 40
4.0
 40
4.0
 40
5.0
 40
5.0
 40
5.0
 40
6.0
 40
6.0
 40
6.0
 40
7.0
 40
7.0
 40
7.0
 40
8.0
 40
8.0
 40
8.0
 40
9.0
 40
9.0
 40
9.0
 40
10.0
 40
10.0
 40
10.0
 40
11.0
 40
11.0
 40
11.0
 40
12.0
 40
12.0
 40
12.0
 40
13.0
 40
13.0
 40
13.0
 40
14.0
 40
14.0
 40
14.0
 40
15.0
 40
15.0
 40
15.0
 40
15.0
 10
127.9081271381618
 20
-152.7152261988003
 10
127.8395697380054
 20
-152.8926486162907
 10
127.7210584533128
 20
-153.1000433645028
 10
127.600480111329
 20
-153.2399142412039
 10
127.4523410054633
 20
-153.4111354868208
 10
127.3100585619225
 20
-153.5000189503403
 10
127.0303168085202
 20
-153.641612374784
 10
127.0303168085202
 20
-153.641612374784
 10
126.8821777026544
 20
-153.4535101612894
 10
126.8821777026544
 20
-153.4535101612894
 10
127.0451307191068
 20
-153.4300835119897
 10
127.1949923727151
 20
-153.3432671057614
 10
127.3283175679943
 20
-153.2375026743642
 10
127.5581054368605
 20
-153.055601632743
 10
127.7248480583465
 20
-152.7424424531338
 10
127.7672227328151
 20
-152.5605414115126
 10
127.7672227328151
 20
-152.5605414115126
 10
127.1801784621285
 20
-152.5605414115126
 10
127.1801784621285
 20
-152.5605414115126
 10
127.041341114073
 20
-152.5605414115126
 10
126.7857150290674
 20
-152.5691541502258
 10
126.6523898337883
 20
-152.5860351181035
 10
126.6523898337883
 20
-152.5860351181035
 10
126.6523898337883
 20
-152.3576252874314
 10
126.6523898337883
 20
-152.3576252874314
 10
126.6820176549614
 20
-152.3638264593049
 10
126.7044107756156
 20
-152.3703721407268
 10
126.7505750551179
 20
-152.3745062553091
 10
126.8394585186373
 20
-152.3807074271826
 10
127.0117132928998
 20
-152.3831189940223
 10
127.0857828458327
 20
-152.3831189940223
 10
127.0857828458327
 20
-152.3831189940223
 10
127.5284776156873
 20
-152.3831189940223
 10
127.5284776156873
 20
-152.3831189940223
 10
127.5877332580336
 20
-152.3831189940223
 10
127.7155463005364
 20
-152.3786403698914
 10
127.7689452805577
 20
-152.372439198018
 10
127.8319905279378
 20
-152.3638264593049
 10
127.8561061963346
 20
-152.3490125487183
 10
127.8857340175077
 20
-152.3259304089671
 10
127.8857340175077
 20
-152.3259304089671
 10
128.0300835183397
 20
-152.4930175400017
 10
128.0300835183397
 20
-152.4930175400017
 10
127.9691053282508
 20
-152.5605414115126
 10
127.9284532015248
 20
-152.6642387856186
 10
127.9081271381618
 20
-152.7152261988003
 97
        0
 97
        1
330
9F
 75
     2
 76
     1
 98
        1
 10
0.0
 20
0.0
450
        0
451
        0
460
0.0
461
0.0
452
        0
462
0.0
453
        0
470

  0
SPLINE
  5
A1
330
81
100
AcDbEntity
  8
レイヤー 1
100
AcDbSpline
210
0.0
220
0.0
230
1.0
 70
     9
 71
     3
 72
    50
 73
    46
 74
     0
 42
0.0000000001
 43
0.0000000001
 40
0.0
 40
0.0
 40
0.0
 40
0.0
 40
1.0
 40
1.0
 40
1.0
 40
2.0
 40
2.0
 40
2.0
 40
3.0
 40
3.0
 40
3.0
 40
4.0
 40
4.0
 40
4.0
 40
5.0
 40
5.0
 40
5.0
 40
6.0
 40
6.0
 40
6.0
 40
7.0
 40
7.0
 40
7.0
 40
8.0
 40
8.0
 40
8.0
 40
9.0
 40
9.0
 40
9.0
 40
10.0
 40
10.0
 40
10.0
 40
11.0
 40
11.0
 40
11.0
 40
12.0
 40
12.0
 40
12.0
 40
13.0
 40
13.0
 40
13.0
 40
14.0
 40
14.0
 40
14.0
 40
15.0
 40
15.0
 40
15.0
 40
15.0
 10
129.4060546551485
 20
-152.0740939289954
 30
0.0
 10
129.2227755753332
 20
-152.2876898490808
 30
0.0
 10
129.1600748375016
 20
-152.3596923447226
 30
0.0
 10
129.0357068904841
 20
-152.4782036294152
 30
0.0
 10
129.0357068904841
 20
-152.4782036294152
 30
0.0
 10
129.0357068904841
 20
-153.0452663462873
 30
0.0
 10
129.0357068904841
 20
-153.0452663462873
 30
0.0
 10
129.0357068904841
 20
-153.1954725094442
 30
0.0
 10
129.041563552809
 20
-153.214420534613
 30
0.0
 10
129.0450086482943
 20
-153.3921874616519
 30
0.0
 10
129.0470757055854
 20
-153.5231010900914
 30
0.0
 10
129.0525878583618
 20
-153.572021445982
 30
0.0
 10
129.0581000111382
 20
-153.6312770883283
 30
0.0
 10
129.0581000111382
 20
-153.6312770883283
 30
0.0
 10
128.8600070207364
 20
-153.6312770883283
 30
0.0
 10
128.8600070207364
 20
-153.6312770883283
 30
0.0
 10
128.8637966257701
 20
-153.5868353565686
 30
0.0
 10
128.8672417212554
 20
-153.5399820579692
 30
0.0
 10
128.8672417212554
 20
-153.5317138288046
 30
0.0
 10
128.8672417212554
 20
-153.4514431039982
 30
0.0
 10
128.8710313262892
 20
-153.1000433645028
 30
0.0
 10
128.8710313262892
 20
-153.028040868861
 30
0.0
 10
128.8710313262892
 20
-153.028040868861
 30
0.0
 10
128.8710313262892
 20
-152.6218641111501
 30
0.0
 10
128.8710313262892
 20
-152.6218641111501
 30
0.0
 10
128.7118679148706
 20
-152.7469210772646
 30
0.0
 10
128.5413356883507
 20
-152.8568196232441
 30
0.0
 10
128.3635687613118
 20
-152.9436360294724
 30
0.0
 10
128.3635687613118
 20
-152.9436360294724
 30
0.0
 10
128.185801834273
 20
-152.7806830130201
 30
0.0
 10
128.185801834273
 20
-152.7806830130201
 30
0.0
 10
128.2932888134128
 20
-152.7448540199735
 30
0.0
 10
128.517220019954
 20
-152.6707844670406
 30
0.0
 10
128.8190103844619
 20
-152.4148138724866
 30
0.0
 10
129.0081461266021
 20
-152.2559949706165
 30
0.0
 10
129.1766112958308
 20
-152.0678927571219
 30
0.0
 10
129.30993649111
 20
-151.8477511556144
 30
0.0
 10
129.30993649111
 20
-151.8477511556144
 30
0.0
 10
129.4784016603387
 20
-151.9917561468979
 30
0.0
 10
129.4784016603387
 20
-151.9917561468979
 30
0.0
 10
129.4894259658915
 20
-152.0020914333536
 30
0.0
 10
129.4970051759591
 20
-152.0169053439402
 30
0.0
 10
129.4970051759591
 20
-152.0296521972356
 30
0.0
 10
129.4970051759591
 20
-152.069959814413
 30
0.0
 10
129.4635877497521
 20
-152.069959814413
 30
0.0
 10
129.4060546551485
 20
-152.0740939289954
 30
0.0
  0
HATCH
  5
A2
330
81
100
AcDbEntity
  8
レイヤー 1
 62
   250
420
  2299925
440
 33554687
100
AcDbHatch
 10
0.0
 20
0.0
 30
0.0
210
0.0
220
0.0
230
1.0
  2
SOLID
 70
     1
 71
     1
 91
        1
 92
        1
 93
        1
 72
     4
 94
        3
 73
     0
 74
     0
 95
       50
 96
       46
 40
0.0
 40
0.0
 40
0.0
 40
0.0
 40
1.0
 40
1.0
 40
1.0
 40
2.0
 40
2.0
 40
2.0
 40
3.0
 40
3.0
 40
3.0
 40
4.0
 40
4.0
 40
4.0
 40
5.0
 40
5.0
 40
5.0
 40
6.0
 40
6.0
 40
6.0
 40
7.0
 40
7.0
 40
7.0
 40
8.0
 40
8.0
 40
8.0
 40
9.0
 40
9.0
 40
9.0
 40
10.0
 40
10.0
 40
10.0
 40
11.0
 40
11.0
 40
11.0
 40
12.0
 40
12.0
 40
12.0
 40
13.0
 40
13.0
 40
13.0
 40
14.0
 40
14.0
 40
14.0
 40
15.0
 40
15.0
 40
15.0
 40
15.0
 10
129.4060546551485
 20
-152.0740939289954
 10
129.2227755753332
 20
-152.2876898490808
 10
129.1600748375016
 20
-152.3596923447226
 10
129.0357068904841
 20
-152.4782036294152
 10
129.0357068904841
 20
-152.4782036294152
 10
129.0357068904841
 20
-153.0452663462873
 10
129.0357068904841
 20
-153.0452663462873
 10
129.0357068904841
 20
-153.1954725094442
 10
129.041563552809
 20
-153.214420534613
 10
129.0450086482943
 20
-153.3921874616519
 10
129.0470757055854
 20
-153.5231010900914
 10
129.0525878583618
 20
-153.572021445982
 10
129.0581000111382
 20
-153.6312770883283
 10
129.0581000111382
 20
-153.6312770883283
 10
128.8600070207364
 20
-153.6312770883283
 10
128.8600070207364
 20
-153.6312770883283
 10
128.8637966257701
 20
-153.5868353565686
 10
128.8672417212554
 20
-153.5399820579692
 10
128.8672417212554
 20
-153.5317138288046
 10
128.8672417212554
 20
-153.4514431039982
 10
128.8710313262892
 20
-153.1000433645028
 10
128.8710313262892
 20
-153.028040868861
 10
128.8710313262892
 20
-153.028040868861
 10
128.8710313262892
 20
-152.6218641111501
 10
128.8710313262892
 20
-152.6218641111501
 10
128.7118679148706
 20
-152.7469210772646
 10
128.5413356883507
 20
-152.8568196232441
 10
128.3635687613118
 20
-152.9436360294724
 10
128.3635687613118
 20
-152.9436360294724
 10
128.185801834273
 20
-152.7806830130201
 10
128.185801834273
 20
-152.7806830130201
 10
128.2932888134128
 20
-152.7448540199735
 10
128.517220019954
 20
-152.6707844670406
 10
128.8190103844619
 20
-152.4148138724866
 10
129.0081461266021
 20
-152.2559949706165
 10
129.1766112958308
 20
-152.0678927571219
 10
129.30993649111
 20
-151.8477511556144
 10
129.30993649111
 20
-151.8477511556144
 10
129.4784016603387
 20
-151.9917561468979
 10
129.4784016603387
 20
-151.9917561468979
 10
129.4894259658915
 20
-152.0020914333536
 10
129.4970051759591
 20
-152.0169053439402
 10
129.4970051759591
 20
-152.0296521972356
 10
129.4970051759591
 20
-152.069959814413
 10
129.4635877497521
 20
-152.069959814413
 10
129.4060546551485
 20
-152.0740939289954
 97
        0
 97
        1
330
A1
 75
     2
 76
     1
 98
        1
 10
0.0
 20
0.0
450
        0
451
        0
460
0.0
461
0.0
452
        0
462
0.0
453
        0
470

  0
SPLINE
  5
A3
330
81
100
AcDbEntity
  8
レイヤー 1
100
AcDbSpline
210
0.0
220
0.0
230
1.0
 70
     9
 71
     3
 72
    50
 73
    46
 74
     0
 42
0.0000000001
 43
0.0000000001
 40
0.0
 40
0.0
 40
0.0
 40
0.0
 40
1.0
 40
1.0
 40
1.0
 40
2.0
 40
2.0
 40
2.0
 40
3.0
 40
3.0
 40
3.0
 40
4.0
 40
4.0
 40
4.0
 40
5.0
 40
5.0
 40
5.0
 40
6.0
 40
6.0
 40
6.0
 40
7.0
 40
7.0
 40
7.0
 40
8.0
 40
8.0
 40
8.0
 40
9.0
 40
9.0
 40
9.0
 40
10.0
 40
10.0
 40
10.0
 40
11.0
 40
11.0
 40
11.0
 40
12.0
 40
12.0
 40
12.0
 40
13.0
 40
13.0
 40
13.0
 40
14.0
 40
14.0
 40
14.0
 40
15.0
 40
15.0
 40
15.0
 40
15.0
 10
130.9022596243925
 20
-152.6008490286901
 30
0.0
 10
130.8488606443711
 20
-152.6728515243318
 30
0.0
 10
130.6207953232476
 20
-152.9901448185233
 30
0.0
 10
130.5708414387114
 20
-153.0535345754519
 30
0.0
 10
130.6449109916443
 20
-153.1510307776845
 30
0.0
 10
130.689352723404
 20
-153.214420534613
 30
0.0
 10
130.7468858180077
 20
-153.3053710554237
 30
0.0
 10
130.7468858180077
 20
-153.3053710554237
 30
0.0
 10
130.585655349298
 20
-153.4428303652851
 30
0.0
 10
130.585655349298
 20
-153.4428303652851
 30
0.0
 10
130.4671440646054
 20
-153.2313015024908
 30
0.0
 10
130.3172824109971
 20
-153.007025786401
 30
0.0
 10
130.0599337782489
 20
-152.8082437769021
 30
0.0
 10
130.0599337782489
 20
-152.8082437769021
 30
0.0
 10
130.1894693684943
 20
-152.6539034991629
 30
0.0
 10
130.1894693684943
 20
-152.6539034991629
 30
0.0
 10
130.2859320420813
 20
-152.7341742239692
 30
0.0
 10
130.3765380533434
 20
-152.8230576874887
 30
0.0
 10
130.461631911829
 20
-152.9181423228816
 30
0.0
 10
130.5208875541753
 20
-152.8420057126576
 30
0.0
 10
130.6986544812142
 20
-152.5987819713989
 30
0.0
 10
130.8154432181642
 20
-152.3703721407268
 30
0.0
 10
130.8154432181642
 20
-152.3703721407268
 30
0.0
 10
130.226676399735
 20
-152.3703721407268
 30
0.0
 10
130.226676399735
 20
-152.3703721407268
 30
0.0
 10
130.117122363304
 20
-152.3703721407268
 30
0.0
 10
129.8969807617966
 20
-152.3786403698914
 30
0.0
 10
129.7137016819813
 20
-152.3893201658957
 30
0.0
 10
129.7137016819813
 20
-152.3893201658957
 30
0.0
 10
129.7137016819813
 20
-152.1691785643882
 30
0.0
 10
129.7137016819813
 20
-152.1691785643882
 30
0.0
 10
129.8745876411425
 20
-152.1884710991056
 30
0.0
 10
130.0544216254725
 20
-152.1926052136879
 30
0.0
 10
130.2190971896674
 20
-152.1926052136879
 30
0.0
 10
130.2190971896674
 20
-152.1926052136879
 30
0.0
 10
130.6597249022309
 20
-152.1926052136879
 30
0.0
 10
130.6597249022309
 20
-152.1926052136879
 30
0.0
 10
130.9560031139624
 20
-152.1926052136879
 30
0.0
 10
130.9949326929457
 20
-152.1777913031014
 30
0.0
 10
131.0672796981359
 20
-152.1374836859239
 30
0.0
 10
131.0672796981359
 20
-152.1374836859239
 30
0.0
 10
131.2133517467105
 20
-152.296302587794
 30
0.0
 10
131.2133517467105
 20
-152.296302587794
 30
0.0
 10
131.0800265514314
 20
-152.3683050834357
 30
0.0
 10
130.9542805662198
 20
-152.5309135903395
 30
0.0
 10
130.9022596243925
 20
-152.6008490286901
 30
0.0
  0
HATCH
  5
A4
330
81
100
AcDbEntity
  8
レイヤー 1
 62
   250
420
  2299925
440
 33554687
100
AcDbHatch
 10
0.0
 20
0.0
 30
0.0
210
0.0
220
0.0
230
1.0
  2
SOLID
 70
     1
 71
     1
 91
        1
 92
        1
 93
        1
 72
     4
 94
        3
 73
     0
 74
     0
 95
       50
 96
       46
 40
0.0
 40
0.0
 40
0.0
 40
0.0
 40
1.0
 40
1.0
 40
1.0
 40
2.0
 40
2.0
 40
2.0
 40
3.0
 40
3.0
 40
3.0
 40
4.0
 40
4.0
 40
4.0
 40
5.0
 40
5.0
 40
5.0
 40
6.0
 40
6.0
 40
6.0
 40
7.0
 40
7.0
 40
7.0
 40
8.0
 40
8.0
 40
8.0
 40
9.0
 40
9.0
 40
9.0
 40
10.0
 40
10.0
 40
10.0
 40
11.0
 40
11.0
 40
11.0
 40
12.0
 40
12.0
 40
12.0
 40
13.0
 40
13.0
 40
13.0
 40
14.0
 40
14.0
 40
14.0
 40
15.0
 40
15.0
 40
15.0
 40
15.0
 10
130.9022596243925
 20
-152.6008490286901
 10
130.8488606443711
 20
-152.6728515243318
 10
130.6207953232476
 20
-152.9901448185233
 10
130.5708414387114
 20
-153.0535345754519
 10
130.6449109916443
 20
-153.1510307776845
 10
130.689352723404
 20
-153.214420534613
 10
130.7468858180077
 20
-153.3053710554237
 10
130.7468858180077
 20
-153.3053710554237
 10
130.585655349298
 20
-153.4428303652851
 10
130.585655349298
 20
-153.4428303652851
 10
130.4671440646054
 20
-153.2313015024908
 10
130.3172824109971
 20
-153.007025786401
 10
130.0599337782489
 20
-152.8082437769021
 10
130.0599337782489
 20
-152.8082437769021
 10
130.1894693684943
 20
-152.6539034991629
 10
130.1894693684943
 20
-152.6539034991629
 10
130.2859320420813
 20
-152.7341742239692
 10
130.3765380533434
 20
-152.8230576874887
 10
130.461631911829
 20
-152.9181423228816
 10
130.5208875541753
 20
-152.8420057126576
 10
130.6986544812142
 20
-152.5987819713989
 10
130.8154432181642
 20
-152.3703721407268
 10
130.8154432181642
 20
-152.3703721407268
 10
130.226676399735
 20
-152.3703721407268
 10
130.226676399735
 20
-152.3703721407268
 10
130.117122363304
 20
-152.3703721407268
 10
129.8969807617966
 20
-152.3786403698914
 10
129.7137016819813
 20
-152.3893201658957
 10
129.7137016819813
 20
-152.3893201658957
 10
129.7137016819813
 20
-152.1691785643882
 10
129.7137016819813
 20
-152.1691785643882
 10
129.8745876411425
 20
-152.1884710991056
 10
130.0544216254725
 20
-152.1926052136879
 10
130.2190971896674
 20
-152.1926052136879
 10
130.2190971896674
 20
-152.1926052136879
 10
130.6597249022309
 20
-152.1926052136879
 10
130.6597249022309
 20
-152.1926052136879
 10
130.9560031139624
 20
-152.1926052136879
 10
130.9949326929457
 20
-152.1777913031014
 10
131.0672796981359
 20
-152.1374836859239
 10
131.0672796981359
 20
-152.1374836859239
 10
131.2133517467105
 20
-152.296302587794
 10
131.2133517467105
 20
-152.296302587794
 10
131.0800265514314
 20
-152.3683050834357
 10
130.9542805662198
 20
-152.5309135903395
 10
130.9022596243925
 20
-152.6008490286901
 97
        0
 97
        1
330
A3
 75
     2
 76
     1
 98
        1
 10
0.0
 20
0.0
450
        0
451
        0
460
0.0
461
0.0
452
        0
462
0.0
453
        0
470

  0
SPLINE
  5
A5
330
81
100
AcDbEntity
  8
レイヤー 1
100
AcDbSpline
210
0.0
220
0.0
230
1.0
 70
     9
 71
     3
 72
    29
 73
    25
 74
     0
 42
0.0000000001
 43
0.0000000001
 40
0.0
 40
0.0
 40
0.0
 40
0.0
 40
1.0
 40
1.0
 40
1.0
 40
2.0
 40
2.0
 40
2.0
 40
3.0
 40
3.0
 40
3.0
 40
4.0
 40
4.0
 40
4.0
 40
5.0
 40
5.0
 40
5.0
 40
6.0
 40
6.0
 40
6.0
 40
7.0
 40
7.0
 40
7.0
 40
8.0
 40
8.0
 40
8.0
 40
8.0
 10
132.3247395502521
 20
-152.8440727699487
 30
0.0
 10
132.3247395502521
 20
-152.8440727699487
 30
0.0
 10
131.9006482960179
 20
-152.8440727699487
 30
0.0
 10
131.9006482960179
 20
-152.8440727699487
 30
0.0
 10
131.8765326276211
 20
-152.8440727699487
 30
0.0
 10
131.5985134219615
 20
-152.8440727699487
 30
0.0
 10
131.4135117944035
 20
-152.8695664765395
 30
0.0
 10
131.4135117944035
 20
-152.8695664765395
 30
0.0
 10
131.4135117944035
 20
-152.6390895885763
 30
0.0
 10
131.4135117944035
 20
-152.6390895885763
 30
0.0
 10
131.5523491424591
 20
-152.6621717283275
 30
0.0
 10
131.7190917639452
 20
-152.6642387856186
 30
0.0
 10
131.9006482960179
 20
-152.6642387856186
 30
0.0
 10
131.9006482960179
 20
-152.6642387856186
 30
0.0
 10
132.3247395502521
 20
-152.6642387856186
 30
0.0
 10
132.3247395502521
 20
-152.6642387856186
 30
0.0
 10
132.4873480571559
 20
-152.6642387856186
 30
0.0
 10
132.6506455831568
 20
-152.6621717283275
 30
0.0
 10
132.8115315423179
 20
-152.6390895885763
 30
0.0
 10
132.8115315423179
 20
-152.6390895885763
 30
0.0
 10
132.8115315423179
 20
-152.8695664765395
 30
0.0
 10
132.8115315423179
 20
-152.8695664765395
 30
0.0
 10
132.6506455831568
 20
-152.8461398272398
 30
0.0
 10
132.4339490771345
 20
-152.8440727699487
 30
0.0
 10
132.3247395502521
 20
-152.8440727699487
 30
0.0
  0
HATCH
  5
A6
330
81
100
AcDbEntity
  8
レイヤー 1
 62
   250
420
  2299925
440
 33554687
100
AcDbHatch
 10
0.0
 20
0.0
 30
0.0
210
0.0
220
0.0
230
1.0
  2
SOLID
 70
     1
 71
     1
 91
        1
 92
        1
 93
        1
 72
     4
 94
        3
 73
     0
 74
     0
 95
       29
 96
       25
 40
0.0
 40
0.0
 40
0.0
 40
0.0
 40
1.0
 40
1.0
 40
1.0
 40
2.0
 40
2.0
 40
2.0
 40
3.0
 40
3.0
 40
3.0
 40
4.0
 40
4.0
 40
4.0
 40
5.0
 40
5.0
 40
5.0
 40
6.0
 40
6.0
 40
6.0
 40
7.0
 40
7.0
 40
7.0
 40
8.0
 40
8.0
 40
8.0
 40
8.0
 10
132.3247395502521
 20
-152.8440727699487
 10
132.3247395502521
 20
-152.8440727699487
 10
131.9006482960179
 20
-152.8440727699487
 10
131.9006482960179
 20
-152.8440727699487
 10
131.8765326276211
 20
-152.8440727699487
 10
131.5985134219615
 20
-152.8440727699487
 10
131.4135117944035
 20
-152.8695664765395
 10
131.4135117944035
 20
-152.8695664765395
 10
131.4135117944035
 20
-152.6390895885763
 10
131.4135117944035
 20
-152.6390895885763
 10
131.5523491424591
 20
-152.6621717283275
 10
131.7190917639452
 20
-152.6642387856186
 10
131.9006482960179
 20
-152.6642387856186
 10
131.9006482960179
 20
-152.6642387856186
 10
132.3247395502521
 20
-152.6642387856186
 10
132.3247395502521
 20
-152.6642387856186
 10
132.4873480571559
 20
-152.6642387856186
 10
132.6506455831568
 20
-152.6621717283275
 10
132.8115315423179
 20
-152.6390895885763
 10
132.8115315423179
 20
-152.6390895885763
 10
132.8115315423179
 20
-152.8695664765395
 10
132.8115315423179
 20
-152.8695664765395
 10
132.6506455831568
 20
-152.8461398272398
 10
132.4339490771345
 20
-152.8440727699487
 10
132.3247395502521
 20
-152.8440727699487
 97
        0
 97
        1
330
A5
 75
     2
 76
     1
 98
        1
 10
0.0
 20
0.0
450
        0
451
        0
460
0.0
461
0.0
452
        0
462
0.0
453
        0
470

  0
SPLINE
  5
A7
330
81
100
AcDbEntity
  8
レイヤー 1
100
AcDbSpline
210
0.0
220
0.0
230
1.0
 70
     9
 71
     3
 72
    20
 73
    16
 74
     0
 42
0.0000000001
 43
0.0000000001
 40
0.0
 40
0.0
 40
0.0
 40
0.0
 40
1.0
 40
1.0
 40
1.0
 40
2.0
 40
2.0
 40
2.0
 40
3.0
 40
3.0
 40
3.0
 40
4.0
 40
4.0
 40
4.0
 40
5.0
 40
5.0
 40
5.0
 40
5.0
 10
133.9005262252054
 20
-153.1954725094442
 30
0.0
 10
133.8598740984795
 20
-153.0177055824053
 30
0.0
 10
133.7747802399938
 20
-152.875767648413
 30
0.0
 10
133.6524793502674
 20
-152.7658691024335
 30
0.0
 10
133.6524793502674
 20
-152.7658691024335
 30
0.0
 10
133.7933837556142
 20
-152.6514919323232
 30
0.0
 10
133.7933837556142
 20
-152.6514919323232
 30
0.0
 10
133.8467827356355
 20
-152.6938666067918
 30
0.0
 10
133.8822672191336
 20
-152.7276285425473
 30
0.0
 10
133.9487575619989
 20
-152.8358045407841
 30
0.0
 10
134.019037509898
 20
-152.951904258637
 30
0.0
 10
134.0376410255184
 20
-153.0049587291099
 30
0.0
 10
134.0600341461725
 20
-153.0704155433296
 30
0.0
 10
134.0600341461725
 20
-153.0704155433296
 30
0.0
 10
133.9005262252054
 20
-153.1954725094442
 30
0.0
 10
133.9005262252054
 20
-153.1954725094442
 30
0.0
  0
SPLINE
  5
A8
330
81
100
AcDbEntity
  8
レイヤー 1
100
AcDbSpline
210
0.0
220
0.0
230
1.0
 70
     9
 71
     3
 72
    77
 73
    73
 74
     0
 42
0.0000000001
 43
0.0000000001
 40
0.0
 40
0.0
 40
0.0
 40
0.0
 40
1.0
 40
1.0
 40
1.0
 40
2.0
 40
2.0
 40
2.0
 40
3.0
 40
3.0
 40
3.0
 40
4.0
 40
4.0
 40
4.0
 40
5.0
 40
5.0
 40
5.0
 40
6.0
 40
6.0
 40
6.0
 40
7.0
 40
7.0
 40
7.0
 40
8.0
 40
8.0
 40
8.0
 40
9.0
 40
9.0
 40
9.0
 40
10.0
 40
10.0
 40
10.0
 40
11.0
 40
11.0
 40
11.0
 40
12.0
 40
12.0
 40
12.0
 40
13.0
 40
13.0
 40
13.0
 40
14.0
 40
14.0
 40
14.0
 40
15.0
 40
15.0
 40
15.0
 40
16.0
 40
16.0
 40
16.0
 40
17.0
 40
17.0
 40
17.0
 40
18.0
 40
18.0
 40
18.0
 40
19.0
 40
19.0
 40
19.0
 40
20.0
 40
20.0
 40
20.0
 40
21.0
 40
21.0
 40
21.0
 40
22.0
 40
22.0
 40
22.0
 40
23.0
 40
23.0
 40
23.0
 40
24.0
 40
24.0
 40
24.0
 40
24.0
 10
134.5747314116688
 20
-152.469590890702
 30
0.0
 10
134.5137532215799
 20
-152.4654567761198
 30
0.0
 10
134.4544975792336
 20
-152.4654567761198
 30
0.0
 10
134.3952419368873
 20
-152.4654567761198
 30
0.0
 10
134.3952419368873
 20
-152.4654567761198
 30
0.0
 10
134.3952419368873
 20
-153.2399142412039
 30
0.0
 10
134.3952419368873
 20
-153.2399142412039
 30
0.0
 10
134.3952419368873
 20
-153.5041530649225
 30
0.0
 10
134.3931748795961
 20
-153.5337808860957
 30
0.0
 10
134.3876627268197
 20
-153.5634087072689
 30
0.0
 10
134.3580349056466
 20
-153.696733902548
 30
0.0
 10
134.2691514421271
 20
-153.7050021317126
 30
0.0
 10
134.115500183485
 20
-153.7050021317126
 30
0.0
 10
134.0803602095355
 20
-153.7050021317126
 30
0.0
 10
134.0655462989489
 20
-153.7050021317126
 30
0.0
 10
134.0304063249993
 20
-153.7008680171303
 30
0.0
 10
134.0304063249993
 20
-153.7008680171303
 30
0.0
 10
133.9211967981169
 20
-153.4597113331628
 30
0.0
 10
133.9211967981169
 20
-153.4597113331628
 30
0.0
 10
134.0228271149318
 20
-153.4914062116271
 30
0.0
 10
134.095174120122
 20
-153.4914062116271
 30
0.0
 10
134.115500183485
 20
-153.4914062116271
 30
0.0
 10
134.1764783735739
 20
-153.4914062116271
 30
0.0
 10
134.2061061947471
 20
-153.4745252437494
 30
0.0
 10
134.2098957997808
 20
-153.4173366586943
 30
0.0
 10
134.2098957997808
 20
-153.4045898053989
 30
0.0
 10
134.2116183475235
 20
-153.3074381127148
 30
0.0
 10
134.2116183475235
 20
-153.2502495276596
 30
0.0
 10
134.2116183475235
 20
-153.2502495276596
 30
0.0
 10
134.2116183475235
 20
-152.4633897188286
 30
0.0
 10
134.2116183475235
 20
-152.4633897188286
 30
0.0
 10
134.2116183475235
 20
-152.4633897188286
 30
0.0
 10
133.9542697147753
 20
-152.4633897188286
 30
0.0
 10
133.9542697147753
 20
-152.4633897188286
 30
0.0
 10
133.8264566722725
 20
-152.4633897188286
 30
0.0
 10
133.6986436297697
 20
-152.469590890702
 30
0.0
 10
133.5728976445581
 20
-152.4823377439975
 30
0.0
 10
133.5728976445581
 20
-152.4823377439975
 30
0.0
 10
133.5728976445581
 20
-152.2749429957854
 30
0.0
 10
133.5728976445581
 20
-152.2749429957854
 30
0.0
 10
133.7045002920947
 20
-152.2876898490808
 30
0.0
 10
133.895014072429
 20
-152.2921684732117
 30
0.0
 10
133.9542697147753
 20
-152.2921684732117
 30
0.0
 10
133.9542697147753
 20
-152.2921684732117
 30
0.0
 10
134.2116183475235
 20
-152.2921684732117
 30
0.0
 10
134.2116183475235
 20
-152.2921684732117
 30
0.0
 10
134.2098957997808
 20
-152.0234510253622
 30
0.0
 10
134.2098957997808
 20
-151.9473144151382
 30
0.0
 10
134.2023165897133
 20
-151.7991753092724
 30
0.0
 10
134.2023165897133
 20
-151.7991753092724
 30
0.0
 10
134.4283148535457
 20
-151.8370713596102
 30
0.0
 10
134.4283148535457
 20
-151.8370713596102
 30
0.0
 10
134.4414062163896
 20
-151.8391384169013
 30
0.0
 10
134.4544975792336
 20
-151.8456840983233
 30
0.0
 10
134.4544975792336
 20
-151.8666991807833
 30
0.0
 10
134.4544975792336
 20
-151.8859917155007
 30
0.0
 10
134.4486409169087
 20
-151.8880587727919
 30
0.0
 10
134.3986870323725
 20
-151.9218207085473
 30
0.0
 10
134.3952419368873
 20
-152.0000243760625
 30
0.0
 10
134.3952419368873
 20
-152.0148382866491
 30
0.0
 10
134.3952419368873
 20
-152.2921684732117
 30
0.0
 10
134.550615743272
 20
-152.2876898490808
 30
0.0
 10
134.5671522016012
 20
-152.2876898490808
 30
0.0
 10
134.5967800227744
 20
-152.2835557344985
 30
0.0
 10
134.6412217545341
 20
-152.2794216199162
 30
0.0
 10
134.6450113595679
 20
-152.2773545626251
 30
0.0
 10
134.6839409385512
 20
-152.2749429957854
 30
0.0
 10
134.6839409385512
 20
-152.2749429957854
 30
0.0
 10
134.6839409385512
 20
-152.4823377439975
 30
0.0
 10
134.6839409385512
 20
-152.4823377439975
 30
0.0
 10
134.6581027224118
 20
-152.4802706867063
 30
0.0
 10
134.6098713856183
 20
-152.4716579479932
 30
0.0
 10
134.5747314116688
 20
-152.469590890702
 30
0.0
  0
SPLINE
  5
A9
330
81
100
AcDbEntity
  8
レイヤー 1
100
AcDbSpline
210
0.0
220
0.0
230
1.0
 70
     9
 71
     3
 72
    53
 73
    49
 74
     0
 42
0.0000000001
 43
0.0000000001
 40
0.0
 40
0.0
 40
0.0
 40
0.0
 40
1.0
 40
1.0
 40
1.0
 40
2.0
 40
2.0
 40
2.0
 40
3.0
 40
3.0
 40
3.0
 40
4.0
 40
4.0
 40
4.0
 40
5.0
 40
5.0
 40
5.0
 40
6.0
 40
6.0
 40
6.0
 40
7.0
 40
7.0
 40
7.0
 40
8.0
 40
8.0
 40
8.0
 40
9.0
 40
9.0
 40
9.0
 40
10.0
 40
10.0
 40
10.0
 40
11.0
 40
11.0
 40
11.0
 40
12.0
 40
12.0
 40
12.0
 40
13.0
 40
13.0
 40
13.0
 40
14.0
 40
14.0
 40
14.0
 40
15.0
 40
15.0
 40
15.0
 40
16.0
 40
16.0
 40
16.0
 40
16.0
 10
133.5673854917817
 20
-151.9703965548893
 30
0.0
 10
133.5081298494354
 20
-152.1226697753374
 30
0.0
 10
133.4709228181947
 20
-152.2008734428525
 30
0.0
 10
133.4378499015363
 20
-152.268741823912
 30
0.0
 10
133.4747124232285
 20
-152.289756906372
 30
0.0
 10
133.4785020282623
 20
-152.2921684732117
 30
0.0
 10
133.4785020282623
 20
-152.3069823837982
 30
0.0
 10
133.4785020282623
 20
-152.3193847275451
 30
0.0
 10
133.4488742070891
 20
-152.3534911728491
 30
0.0
 10
133.439572449279
 20
-152.3617594020137
 30
0.0
 10
133.4378499015363
 20
-152.5584743542215
 30
0.0
 10
133.4378499015363
 20
-152.57983394623
 30
0.0
 10
133.4378499015363
 20
-152.7131591415092
 30
0.0
 10
133.4357828442452
 20
-152.7255614852561
 30
0.0
 10
133.4357828442452
 20
-152.7403753958427
 30
0.0
 10
133.4357828442452
 20
-152.7551893064292
 30
0.0
 10
133.4357828442452
 20
-152.7551893064292
 30
0.0
 10
133.4357828442452
 20
-153.2905571448371
 30
0.0
 10
133.4357828442452
 20
-153.2905571448371
 30
0.0
 10
133.4357828442452
 20
-153.3625596404788
 30
0.0
 10
133.439572449279
 20
-153.5971706430243
 30
0.0
 10
133.4471516593465
 20
-153.7074136985523
 30
0.0
 10
133.4471516593465
 20
-153.7074136985523
 30
0.0
 10
133.2339002488096
 20
-153.7074136985523
 30
0.0
 10
133.2339002488096
 20
-153.7074136985523
 30
0.0
 10
133.2542263121725
 20
-153.5485947966823
 30
0.0
 10
133.2600829744975
 20
-153.3074381127148
 30
0.0
 10
133.2600829744975
 20
-153.2864230302548
 30
0.0
 10
133.2600829744975
 20
-153.2864230302548
 30
0.0
 10
133.2600829744975
 20
-152.5691541502258
 30
0.0
 10
133.2600829744975
 20
-152.5691541502258
 30
0.0
 10
133.1805012687882
 20
-152.6835313203361
 30
0.0
 10
133.1267577792183
 20
-152.7424424531338
 30
0.0
 10
133.0895507479776
 20
-152.7848171276024
 30
0.0
 10
133.0895507479776
 20
-152.7848171276024
 30
0.0
 10
132.9228081264915
 20
-152.6473578177409
 30
0.0
 10
132.9228081264915
 20
-152.6473578177409
 30
0.0
 10
133.1691324536869
 20
-152.4316948403643
 30
0.0
 10
133.3375976229156
 20
-152.1226697753374
 30
0.0
 10
133.4357828442452
 20
-151.786428455977
 30
0.0
 10
133.4357828442452
 20
-151.786428455977
 30
0.0
 10
133.6283636818707
 20
-151.9008056260873
 30
0.0
 10
133.6283636818707
 20
-151.9008056260873
 30
0.0
 10
133.6393879874235
 20
-151.9070067979607
 30
0.0
 10
133.646967197491
 20
-151.911140912543
 30
0.0
 10
133.646967197491
 20
-151.9259548231296
 30
0.0
 10
133.646967197491
 20
-151.9514485297204
 30
0.0
 10
133.6321532869044
 20
-151.9555826443028
 30
0.0
 10
133.5673854917817
 20
-151.9703965548893
 30
0.0
  0
HATCH
  5
AA
330
81
100
AcDbEntity
  8
レイヤー 1
 62
   250
420
  2299925
440
 33554687
100
AcDbHatch
 10
0.0
 20
0.0
 30
0.0
210
0.0
220
0.0
230
1.0
  2
SOLID
 70
     1
 71
     1
 91
        3
 92
        1
 93
        1
 72
     4
 94
        3
 73
     0
 74
     0
 95
       20
 96
       16
 40
0.0
 40
0.0
 40
0.0
 40
0.0
 40
1.0
 40
1.0
 40
1.0
 40
2.0
 40
2.0
 40
2.0
 40
3.0
 40
3.0
 40
3.0
 40
4.0
 40
4.0
 40
4.0
 40
5.0
 40
5.0
 40
5.0
 40
5.0
 10
133.9005262252054
 20
-153.1954725094442
 10
133.8598740984795
 20
-153.0177055824053
 10
133.7747802399938
 20
-152.875767648413
 10
133.6524793502674
 20
-152.7658691024335
 10
133.6524793502674
 20
-152.7658691024335
 10
133.7933837556142
 20
-152.6514919323232
 10
133.7933837556142
 20
-152.6514919323232
 10
133.8467827356355
 20
-152.6938666067918
 10
133.8822672191336
 20
-152.7276285425473
 10
133.9487575619989
 20
-152.8358045407841
 10
134.019037509898
 20
-152.951904258637
 10
134.0376410255184
 20
-153.0049587291099
 10
134.0600341461725
 20
-153.0704155433296
 10
134.0600341461725
 20
-153.0704155433296
 10
133.9005262252054
 20
-153.1954725094442
 10
133.9005262252054
 20
-153.1954725094442
 97
        0
 97
        1
330
A7
 92
        1
 93
        1
 72
     4
 94
        3
 73
     0
 74
     0
 95
       77
 96
       73
 40
0.0
 40
0.0
 40
0.0
 40
0.0
 40
1.0
 40
1.0
 40
1.0
 40
2.0
 40
2.0
 40
2.0
 40
3.0
 40
3.0
 40
3.0
 40
4.0
 40
4.0
 40
4.0
 40
5.0
 40
5.0
 40
5.0
 40
6.0
 40
6.0
 40
6.0
 40
7.0
 40
7.0
 40
7.0
 40
8.0
 40
8.0
 40
8.0
 40
9.0
 40
9.0
 40
9.0
 40
10.0
 40
10.0
 40
10.0
 40
11.0
 40
11.0
 40
11.0
 40
12.0
 40
12.0
 40
12.0
 40
13.0
 40
13.0
 40
13.0
 40
14.0
 40
14.0
 40
14.0
 40
15.0
 40
15.0
 40
15.0
 40
16.0
 40
16.0
 40
16.0
 40
17.0
 40
17.0
 40
17.0
 40
18.0
 40
18.0
 40
18.0
 40
19.0
 40
19.0
 40
19.0
 40
20.0
 40
20.0
 40
20.0
 40
21.0
 40
21.0
 40
21.0
 40
22.0
 40
22.0
 40
22.0
 40
23.0
 40
23.0
 40
23.0
 40
24.0
 40
24.0
 40
24.0
 40
24.0
 10
134.5747314116688
 20
-152.469590890702
 10
134.5137532215799
 20
-152.4654567761198
 10
134.4544975792336
 20
-152.4654567761198
 10
134.3952419368873
 20
-152.4654567761198
 10
134.3952419368873
 20
-152.4654567761198
 10
134.3952419368873
 20
-153.2399142412039
 10
134.3952419368873
 20
-153.2399142412039
 10
134.3952419368873
 20
-153.5041530649225
 10
134.3931748795961
 20
-153.5337808860957
 10
134.3876627268197
 20
-153.5634087072689
 10
134.3580349056466
 20
-153.696733902548
 10
134.2691514421271
 20
-153.7050021317126
 10
134.115500183485
 20
-153.7050021317126
 10
134.0803602095355
 20
-153.7050021317126
 10
134.0655462989489
 20
-153.7050021317126
 10
134.0304063249993
 20
-153.7008680171303
 10
134.0304063249993
 20
-153.7008680171303
 10
133.9211967981169
 20
-153.4597113331628
 10
133.9211967981169
 20
-153.4597113331628
 10
134.0228271149318
 20
-153.4914062116271
 10
134.095174120122
 20
-153.4914062116271
 10
134.115500183485
 20
-153.4914062116271
 10
134.1764783735739
 20
-153.4914062116271
 10
134.2061061947471
 20
-153.4745252437494
 10
134.2098957997808
 20
-153.4173366586943
 10
134.2098957997808
 20
-153.4045898053989
 10
134.2116183475235
 20
-153.3074381127148
 10
134.2116183475235
 20
-153.2502495276596
 10
134.2116183475235
 20
-153.2502495276596
 10
134.2116183475235
 20
-152.4633897188286
 10
134.2116183475235
 20
-152.4633897188286
 10
134.2116183475235
 20
-152.4633897188286
 10
133.9542697147753
 20
-152.4633897188286
 10
133.9542697147753
 20
-152.4633897188286
 10
133.8264566722725
 20
-152.4633897188286
 10
133.6986436297697
 20
-152.469590890702
 10
133.5728976445581
 20
-152.4823377439975
 10
133.5728976445581
 20
-152.4823377439975
 10
133.5728976445581
 20
-152.2749429957854
 10
133.5728976445581
 20
-152.2749429957854
 10
133.7045002920947
 20
-152.2876898490808
 10
133.895014072429
 20
-152.2921684732117
 10
133.9542697147753
 20
-152.2921684732117
 10
133.9542697147753
 20
-152.2921684732117
 10
134.2116183475235
 20
-152.2921684732117
 10
134.2116183475235
 20
-152.2921684732117
 10
134.2098957997808
 20
-152.0234510253622
 10
134.2098957997808
 20
-151.9473144151382
 10
134.2023165897133
 20
-151.7991753092724
 10
134.2023165897133
 20
-151.7991753092724
 10
134.4283148535457
 20
-151.8370713596102
 10
134.4283148535457
 20
-151.8370713596102
 10
134.4414062163896
 20
-151.8391384169013
 10
134.4544975792336
 20
-151.8456840983233
 10
134.4544975792336
 20
-151.8666991807833
 10
134.4544975792336
 20
-151.8859917155007
 10
134.4486409169087
 20
-151.8880587727919
 10
134.3986870323725
 20
-151.9218207085473
 10
134.3952419368873
 20
-152.0000243760625
 10
134.3952419368873
 20
-152.0148382866491
 10
134.3952419368873
 20
-152.2921684732117
 10
134.550615743272
 20
-152.2876898490808
 10
134.5671522016012
 20
-152.2876898490808
 10
134.5967800227744
 20
-152.2835557344985
 10
134.6412217545341
 20
-152.2794216199162
 10
134.6450113595679
 20
-152.2773545626251
 10
134.6839409385512
 20
-152.2749429957854
 10
134.6839409385512
 20
-152.2749429957854
 10
134.6839409385512
 20
-152.4823377439975
 10
134.6839409385512
 20
-152.4823377439975
 10
134.6581027224118
 20
-152.4802706867063
 10
134.6098713856183
 20
-152.4716579479932
 10
134.5747314116688
 20
-152.469590890702
 97
        0
 97
        1
330
A8
 92
        1
 93
        1
 72
     4
 94
        3
 73
     0
 74
     0
 95
       53
 96
       49
 40
0.0
 40
0.0
 40
0.0
 40
0.0
 40
1.0
 40
1.0
 40
1.0
 40
2.0
 40
2.0
 40
2.0
 40
3.0
 40
3.0
 40
3.0
 40
4.0
 40
4.0
 40
4.0
 40
5.0
 40
5.0
 40
5.0
 40
6.0
 40
6.0
 40
6.0
 40
7.0
 40
7.0
 40
7.0
 40
8.0
 40
8.0
 40
8.0
 40
9.0
 40
9.0
 40
9.0
 40
10.0
 40
10.0
 40
10.0
 40
11.0
 40
11.0
 40
11.0
 40
12.0
 40
12.0
 40
12.0
 40
13.0
 40
13.0
 40
13.0
 40
14.0
 40
14.0
 40
14.0
 40
15.0
 40
15.0
 40
15.0
 40
16.0
 40
16.0
 40
16.0
 40
16.0
 10
133.5673854917817
 20
-151.9703965548893
 10
133.5081298494354
 20
-152.1226697753374
 10
133.4709228181947
 20
-152.2008734428525
 10
133.4378499015363
 20
-152.268741823912
 10
133.4747124232285
 20
-152.289756906372
 10
133.4785020282623
 20
-152.2921684732117
 10
133.4785020282623
 20
-152.3069823837982
 10
133.4785020282623
 20
-152.3193847275451
 10
133.4488742070891
 20
-152.3534911728491
 10
133.439572449279
 20
-152.3617594020137
 10
133.4378499015363
 20
-152.5584743542215
 10
133.4378499015363
 20
-152.57983394623
 10
133.4378499015363
 20
-152.7131591415092
 10
133.4357828442452
 20
-152.7255614852561
 10
133.4357828442452
 20
-152.7403753958427
 10
133.4357828442452
 20
-152.7551893064292
 10
133.4357828442452
 20
-152.7551893064292
 10
133.4357828442452
 20
-153.2905571448371
 10
133.4357828442452
 20
-153.2905571448371
 10
133.4357828442452
 20
-153.3625596404788
 10
133.439572449279
 20
-153.5971706430243
 10
133.4471516593465
 20
-153.7074136985523
 10
133.4471516593465
 20
-153.7074136985523
 10
133.2339002488096
 20
-153.7074136985523
 10
133.2339002488096
 20
-153.7074136985523
 10
133.2542263121725
 20
-153.5485947966823
 10
133.2600829744975
 20
-153.3074381127148
 10
133.2600829744975
 20
-153.2864230302548
 10
133.2600829744975
 20
-153.2864230302548
 10
133.2600829744975
 20
-152.5691541502258
 10
133.2600829744975
 20
-152.5691541502258
 10
133.1805012687882
 20
-152.6835313203361
 10
133.1267577792183
 20
-152.7424424531338
 10
133.0895507479776
 20
-152.7848171276024
 10
133.0895507479776
 20
-152.7848171276024
 10
132.9228081264915
 20
-152.6473578177409
 10
132.9228081264915
 20
-152.6473578177409
 10
133.1691324536869
 20
-152.4316948403643
 10
133.3375976229156
 20
-152.1226697753374
 10
133.4357828442452
 20
-151.786428455977
 10
133.4357828442452
 20
-151.786428455977
 10
133.6283636818707
 20
-151.9008056260873
 10
133.6283636818707
 20
-151.9008056260873
 10
133.6393879874235
 20
-151.9070067979607
 10
133.646967197491
 20
-151.911140912543
 10
133.646967197491
 20
-151.9259548231296
 10
133.646967197491
 20
-151.9514485297204
 10
133.6321532869044
 20
-151.9555826443028
 10
133.5673854917817
 20
-151.9703965548893
 97
        0
 97
        1
330
A9
 75
     2
 76
     1
 98
        1
 10
0.0
 20
0.0
450
        0
451
        0
460
0.0
461
0.0
452
        0
462
0.0
453
        0
470

  0
ENDBLK
  5
84
330
81
100
AcDbEntity
  8
0
100
AcDbBlockEnd
  0
BLOCK
  5
B0
330
AE
100
AcDbEntity
  8
0
100
AcDbBlockBegin
  2
Block_3
 70
     0
 10
0.0
 20
0.0
 30
0.0
  3
Block_3
  1

  0
LINE
  5
B2
330
AE
100
AcDbEntity
  8
レイヤー 1
 62
   250
420
  2299925
370
    25
100
AcDbLine
 10
111.7434347941012
 20
-152.6577498784062
 30
0.0
 11
99.74348732246724
 21
-152.6577498784062
 31
0.0
  0
LINE
  5
B3
330
AE
100
AcDbEntity
  8
レイヤー 1
 62
   250
420
  2299925
370
    25
100
AcDbLine
 10
79.74261116719086
 20
-147.1574857131149
 30
0.0
 11
79.74261116719086
 21
-147.6577246018786
 31
0.0
  0
LINE
  5
B4
330
AE
100
AcDbEntity
  8
レイヤー 1
 62
   250
420
  2299925
370
    25
100
AcDbLine
 10
99.74348732246724
 20
-147.6577246018786
 30
0.0
 11
79.74261116719086
 21
-147.6577246018786
 31
0.0
  0
LINE
  5
B5
330
AE
100
AcDbEntity
  8
レイヤー 1
 62
   250
420
  2299925
370
    25
100
AcDbLine
 10
79.74261116719086
 20
-147.1574857131149
 30
0.0
 11
80.25664366706255
 21
-147.5395440463526
 31
0.0
  0
LINE
  5
B6
330
AE
100
AcDbEntity
  8
レイヤー 1
 62
   250
420
  2299925
370
    25
100
AcDbLine
 10
80.25664366706255
 20
-147.5395440463526
 30
0.0
 11
80.74171311138572
 21
-147.1219962686798
 31
0.0
  0
LINE
  5
B7
330
AE
100
AcDbEntity
  8
レイヤー 1
 62
   250
420
  2299925
370
    25
100
AcDbLine
 10
81.25571033347924
 20
-147.5040546019172
 30
0.0
 11
81.74148533335793
 21
-147.0861540464659
 31
0.0
  0
LINE
  5
B8
330
AE
100
AcDbEntity
  8
レイヤー 1
 62
   250
420
  2299925
370
    25
100
AcDbLine
 10
80.74171311138572
 20
-147.1219962686798
 30
0.0
 11
81.25571033347924
 21
-147.5040546019172
 31
0.0
  0
LINE
  5
B9
330
AE
100
AcDbEntity
  8
レイヤー 1
 62
   250
420
  2299925
370
    25
100
AcDbLine
 10
81.74148533335793
 20
-147.0861540464659
 30
0.0
 11
82.25548255545179
 21
-147.4682123797039
 31
0.0
  0
LINE
  5
BA
330
AE
100
AcDbEntity
  8
レイヤー 1
 62
   250
420
  2299925
370
    25
100
AcDbLine
 10
82.25548255545179
 20
-147.4682123797039
 30
0.0
 11
82.74055199977496
 21
-147.0506998798082
 31
0.0
  0
LINE
  5
BB
330
AE
100
AcDbEntity
  8
レイヤー 1
 62
   250
420
  2299925
370
    25
100
AcDbLine
 10
82.74055199977496
 20
-147.0506998798082
 30
0.0
 11
83.25454922186848
 21
-147.4324054352685
 31
0.0
  0
LINE
  5
BC
330
AE
100
AcDbEntity
  8
レイヤー 1
 62
   250
420
  2299925
370
    25
100
AcDbLine
 10
83.25454922186848
 20
-147.4324054352685
 30
0.0
 11
83.73961866619167
 21
-147.014857657595
 31
0.0
  0
LINE
  5
BD
330
AE
100
AcDbEntity
  8
レイヤー 1
 62
   250
420
  2299925
370
    25
100
AcDbLine
 10
83.73961866619167
 20
-147.014857657595
 30
0.0
 11
84.25365116606334
 21
-147.3965632130552
 31
0.0
  0
LINE
  5
BE
330
AE
100
AcDbEntity
  8
レイヤー 1
 62
   250
420
  2299925
370
    25
100
AcDbLine
 10
84.25365116606334
 20
-147.3965632130552
 30
0.0
 11
84.73939088816388
 21
-146.9790154353817
 31
0.0
  0
LINE
  5
BF
330
AE
100
AcDbEntity
  8
レイヤー 1
 62
   250
420
  2299925
370
    25
100
AcDbLine
 10
84.73939088816388
 20
-146.9790154353817
 30
0.0
 11
85.25338811025804
 21
-147.3610737686194
 31
0.0
  0
LINE
  5
C0
330
AE
100
AcDbEntity
  8
レイヤー 1
 62
   250
420
  2299925
370
    25
100
AcDbLine
 10
85.25338811025804
 20
-147.3610737686194
 30
0.0
 11
85.73845755458121
 21
-146.9435259909463
 31
0.0
  0
LINE
  5
C1
330
AE
100
AcDbEntity
  8
レイヤー 1
 62
   250
420
  2299925
370
    25
100
AcDbLine
 10
85.73845755458121
 20
-146.9435259909463
 30
0.0
 11
86.25249005445224
 21
-147.325584324184
 31
0.0
  0
LINE
  5
C2
330
AE
100
AcDbEntity
  8
レイヤー 1
 62
   250
420
  2299925
370
    25
100
AcDbLine
 10
86.25249005445224
 20
-147.325584324184
 30
0.0
 11
86.7382297765531
 21
-146.9077190465105
 31
0.0
  0
LINE
  5
C3
330
AE
100
AcDbEntity
  8
レイヤー 1
 62
   250
420
  2299925
370
    25
100
AcDbLine
 10
87.2522622764248
 20
-147.2897773797485
 30
0.0
 11
87.73733172074797
 21
-146.872229602075
 31
0.0
  0
LINE
  5
C4
330
AE
100
AcDbEntity
  8
レイヤー 1
 62
   250
420
  2299925
370
    25
100
AcDbLine
 10
86.7382297765531
 20
-146.9077190465105
 30
0.0
 11
87.2522622764248
 21
-147.2897773797485
 31
0.0
  0
LINE
  5
C5
330
AE
100
AcDbEntity
  8
レイヤー 1
 62
   250
420
  2299925
370
    25
100
AcDbLine
 10
87.73733172074797
 20
-146.872229602075
 30
0.0
 11
88.2513289428415
 21
-147.2539351575353
 31
0.0
  0
LINE
  5
C6
330
AE
100
AcDbEntity
  8
レイヤー 1
 62
   250
420
  2299925
370
    25
100
AcDbLine
 10
88.2513289428415
 20
-147.2539351575353
 30
0.0
 11
88.73706866494268
 21
-146.8363873798618
 31
0.0
  0
LINE
  5
C7
330
AE
100
AcDbEntity
  8
レイヤー 1
 62
   250
420
  2299925
370
    25
100
AcDbLine
 10
89.25039560925851
 20
-147.2181282130999
 30
0.0
 11
89.73617060913689
 21
-146.8005804354264
 31
0.0
  0
LINE
  5
C8
330
AE
100
AcDbEntity
  8
レイヤー 1
 62
   250
420
  2299925
370
    25
100
AcDbLine
 10
88.73706866494268
 20
-146.8363873798618
 30
0.0
 11
89.25039560925851
 21
-147.2181282130999
 31
0.0
  0
LINE
  5
C9
330
AE
100
AcDbEntity
  8
レイヤー 1
 62
   250
420
  2299925
370
    25
100
AcDbLine
 10
90.25016783123041
 20
-147.1826387686641
 30
0.0
 11
90.73523727555359
 21
-146.7650909909909
 31
0.0
  0
LINE
  5
CA
330
AE
100
AcDbEntity
  8
レイヤー 1
 62
   250
420
  2299925
370
    25
100
AcDbLine
 10
89.73617060913689
 20
-146.8005804354264
 30
0.0
 11
90.25016783123041
 21
-147.1826387686641
 31
0.0
  0
LINE
  5
CB
330
AE
100
AcDbEntity
  8
レイヤー 1
 62
   250
420
  2299925
370
    25
100
AcDbLine
 10
90.73523727555359
 20
-146.7650909909909
 30
0.0
 11
91.24923449764775
 21
-147.1471493242286
 31
0.0
  0
LINE
  5
CC
330
AE
100
AcDbEntity
  8
レイヤー 1
 62
   250
420
  2299925
370
    25
100
AcDbLine
 10
91.24923449764775
 20
-147.1471493242286
 30
0.0
 11
91.73500949752613
 21
-146.7292487687776
 31
0.0
  0
LINE
  5
CD
330
AE
100
AcDbEntity
  8
レイヤー 1
 62
   250
420
  2299925
370
    25
100
AcDbLine
 10
91.73500949752613
 20
-146.7292487687776
 30
0.0
 11
92.24900671961997
 21
-147.1113071020153
 31
0.0
  0
LINE
  5
CE
330
AE
100
AcDbEntity
  8
レイヤー 1
 62
   250
420
  2299925
370
    25
100
AcDbLine
 10
92.24900671961997
 20
-147.1113071020153
 30
0.0
 11
92.73407616394313
 21
-146.6937593243418
 31
0.0
  0
LINE
  5
CF
330
AE
100
AcDbEntity
  8
レイヤー 1
 62
   250
420
  2299925
370
    25
100
AcDbLine
 10
92.73407616394313
 20
-146.6937593243418
 30
0.0
 11
93.24807338603667
 21
-147.0755001575799
 31
0.0
  0
LINE
  5
D0
330
AE
100
AcDbEntity
  8
レイヤー 1
 62
   250
420
  2299925
370
    25
100
AcDbLine
 10
93.24807338603667
 20
-147.0755001575799
 30
0.0
 11
93.73384838591505
 21
-146.6579523799065
 31
0.0
  0
LINE
  5
D1
330
AE
100
AcDbEntity
  8
レイヤー 1
 62
   250
420
  2299925
370
    25
100
AcDbLine
 10
93.73384838591505
 20
-146.6579523799065
 30
0.0
 11
94.24784560800921
 21
-147.0396579353667
 31
0.0
  0
LINE
  5
D2
330
AE
100
AcDbEntity
  8
レイヤー 1
 62
   250
420
  2299925
370
    25
100
AcDbLine
 10
94.24784560800921
 20
-147.0396579353667
 30
0.0
 11
94.73291505233239
 21
-146.6221101576932
 31
0.0
  0
LINE
  5
D3
330
AE
100
AcDbEntity
  8
レイヤー 1
 62
   250
420
  2299925
370
    25
100
AcDbLine
 10
94.73291505233239
 20
-146.6221101576932
 30
0.0
 11
95.24694660385021
 21
-147.0041684909309
 31
0.0
  0
LINE
  5
D4
330
AE
100
AcDbEntity
  8
レイヤー 1
 62
   250
420
  2299925
370
    25
100
AcDbLine
 10
95.24694660385021
 20
-147.0041684909309
 30
0.0
 11
95.7320160359195
 21
-146.5866207132577
 31
0.0
  0
LINE
  5
D5
330
AE
100
AcDbEntity
  8
レイヤー 1
 62
   250
420
  2299925
370
    25
100
AcDbLine
 10
95.7320160359195
 20
-146.5866207132577
 30
0.0
 11
96.24601324502856
 21
-146.9686790464954
 31
0.0
  0
LINE
  5
D6
330
AE
100
AcDbEntity
  8
レイヤー 1
 62
   250
420
  2299925
370
    25
100
AcDbLine
 10
96.24601324502856
 20
-146.9686790464954
 30
0.0
 11
96.73175394072131
 21
-146.550813768822
 31
0.0
  0
LINE
  5
D7
330
AE
100
AcDbEntity
  8
レイヤー 1
 62
   250
420
  2299925
370
    25
100
AcDbLine
 10
96.73175394072131
 20
-146.550813768822
 30
0.0
 11
97.2457854417448
 21
-146.93287210206
 31
0.0
  0
LINE
  5
D8
330
AE
100
AcDbEntity
  8
レイヤー 1
 62
   250
420
  2299925
370
    25
100
AcDbLine
 10
97.2457854417448
 20
-146.93287210206
 30
0.0
 11
97.73085487381377
 21
-146.5153243243865
 31
0.0
  0
LINE
  5
D9
330
AE
100
AcDbEntity
  8
レイヤー 1
 62
   250
420
  2299925
370
    25
100
AcDbLine
 10
97.73085487381377
 20
-146.5153243243865
 30
0.0
 11
98.24485208292283
 21
-146.8970298798467
 31
0.0
  0
LINE
  5
DA
330
AE
100
AcDbEntity
  8
レイヤー 1
 62
   250
420
  2299925
370
    25
100
AcDbLine
 10
98.24485208292283
 20
-146.8970298798467
 30
0.0
 11
98.72992151499213
 21
-146.4794821021732
 31
0.0
  0
LINE
  5
DB
330
AE
100
AcDbEntity
  8
レイヤー 1
 62
   250
420
  2299925
370
    25
100
AcDbLine
 10
98.72992151499213
 20
-146.4794821021732
 30
0.0
 11
99.24391872410119
 21
-146.8611876576335
 31
0.0
  0
LINE
  5
DC
330
AE
100
AcDbEntity
  8
レイヤー 1
 62
   250
420
  2299925
370
    25
100
AcDbLine
 10
99.24391872410119
 20
-146.8611876576335
 30
0.0
 11
99.72969371170803
 21
-146.44363987996
 31
0.0
  0
LINE
  5
DD
330
AE
100
AcDbEntity
  8
レイヤー 1
 62
   250
420
  2299925
370
    25
100
AcDbLine
 10
99.80369092092733
 20
-146.3954151577498
 30
0.0
 11
100.7439297969438
 21
-146.3954151577498
 31
0.0
  0
LINE
  5
DE
330
AE
100
AcDbEntity
  8
レイヤー 1
 62
   250
420
  2299925
370
    25
100
AcDbLine
 10
100.7439297969438
 20
-146.3954151577498
 30
0.0
 11
100.7439297969438
 21
-151.657307378657
 31
0.0
  0
LINE
  5
DF
330
AE
100
AcDbEntity
  8
レイヤー 1
 62
   250
420
  2299925
370
    25
100
AcDbLine
 10
99.74348732246724
 20
-147.6577246018786
 30
0.0
 11
99.74348732246724
 21
-152.6577498784062
 31
0.0
  0
LINE
  5
E0
330
AE
100
AcDbEntity
  8
レイヤー 1
 62
   250
420
  2299925
370
    25
100
AcDbLine
 10
110.7436625973852
 20
-151.657307378657
 30
0.0
 11
100.7439297969438
 21
-151.657307378657
 31
0.0
  0
LINE
  5
E1
330
AE
100
AcDbEntity
  8
レイヤー 1
 62
   250
420
  2299925
370
    25
100
AcDbLine
 10
121.7514225943317
 20
-146.8005804354264
 30
0.0
 11
121.2374253852226
 21
-147.1826387686641
 31
0.0
  0
LINE
  5
E2
330
AE
100
AcDbEntity
  8
レイヤー 1
 62
   250
420
  2299925
370
    25
100
AcDbLine
 10
126.7482039332173
 20
-146.9790154353817
 30
0.0
 11
126.2342067111241
 21
-147.3610737686194
 31
0.0
  0
LINE
  5
E3
330
AE
100
AcDbEntity
  8
レイヤー 1
 62
   250
420
  2299925
370
    25
100
AcDbLine
 10
122.236492026401
 20
-147.2181282130999
 30
0.0
 11
121.7514225943317
 21
-146.8005804354264
 31
0.0
  0
LINE
  5
E4
330
AE
100
AcDbEntity
  8
レイヤー 1
 62
   250
420
  2299925
370
    25
100
AcDbLine
 10
123.2362642231169
 20
-147.2539351575353
 30
0.0
 11
122.7505261564394
 21
-146.8363873798618
 31
0.0
  0
LINE
  5
E5
330
AE
100
AcDbEntity
  8
レイヤー 1
 62
   250
420
  2299925
370
    25
100
AcDbLine
 10
121.2374253852226
 20
-147.1826387686641
 30
0.0
 11
120.7516503976157
 21
-146.7650909909909
 31
0.0
  0
LINE
  5
E6
330
AE
100
AcDbEntity
  8
レイヤー 1
 62
   250
420
  2299925
370
    25
100
AcDbLine
 10
122.7505261564394
 20
-146.8363873798618
 30
0.0
 11
122.236492026401
 21
-147.2181282130999
 31
0.0
  0
LINE
  5
E7
330
AE
100
AcDbEntity
  8
レイヤー 1
 62
   250
420
  2299925
370
    25
100
AcDbLine
 10
130.7458817099957
 20
-147.1219962686798
 30
0.0
 11
130.2318844879019
 21
-147.5040546019172
 31
0.0
  0
LINE
  5
E8
330
AE
100
AcDbEntity
  8
レイヤー 1
 62
   250
420
  2299925
370
    25
100
AcDbLine
 10
123.7502614322259
 20
-146.872229602075
 30
0.0
 11
123.2362642231169
 21
-147.2539351575353
 31
0.0
  0
LINE
  5
E9
330
AE
100
AcDbEntity
  8
レイヤー 1
 62
   250
420
  2299925
370
    25
100
AcDbLine
 10
124.7493650448277
 20
-146.9077190465105
 30
0.0
 11
124.2353308642952
 21
-147.2897773797485
 31
0.0
  0
LINE
  5
EA
330
AE
100
AcDbEntity
  8
レイヤー 1
 62
   250
420
  2299925
370
    25
100
AcDbLine
 10
110.7436625973852
 20
-146.3954151577498
 30
0.0
 11
110.7436625973852
 21
-151.657307378657
 31
0.0
  0
LINE
  5
EB
330
AE
100
AcDbEntity
  8
レイヤー 1
 62
   250
420
  2299925
370
    25
100
AcDbLine
 10
124.2353308642952
 20
-147.2897773797485
 30
0.0
 11
123.7502614322259
 21
-146.872229602075
 31
0.0
  0
LINE
  5
EC
330
AE
100
AcDbEntity
  8
レイヤー 1
 62
   250
420
  2299925
370
    25
100
AcDbLine
 10
125.2351030610111
 20
-147.325584324184
 30
0.0
 11
124.7493650448277
 21
-146.9077190465105
 31
0.0
  0
LINE
  5
ED
330
AE
100
AcDbEntity
  8
レイヤー 1
 62
   250
420
  2299925
370
    25
100
AcDbLine
 10
130.2318844879019
 20
-147.5040546019172
 30
0.0
 11
129.7461094880232
 21
-147.0861540464659
 31
0.0
  0
LINE
  5
EE
330
AE
100
AcDbEntity
  8
レイヤー 1
 62
   250
420
  2299925
370
    25
100
AcDbLine
 10
125.7484317112453
 20
-146.9435259909463
 30
0.0
 11
125.2351030610111
 21
-147.325584324184
 31
0.0
  0
LINE
  5
EF
330
AE
100
AcDbEntity
  8
レイヤー 1
 62
   250
420
  2299925
370
    25
100
AcDbLine
 10
126.2342067111241
 20
-147.3610737686194
 30
0.0
 11
125.7484317112453
 21
-146.9435259909463
 31
0.0
  0
LINE
  5
F0
330
AE
100
AcDbEntity
  8
レイヤー 1
 62
   250
420
  2299925
370
    25
100
AcDbLine
 10
131.2309511543189
 20
-147.5395440463526
 30
0.0
 11
130.7458817099957
 21
-147.1219962686798
 31
0.0
  0
LINE
  5
F1
330
AE
100
AcDbEntity
  8
レイヤー 1
 62
   250
420
  2299925
370
    25
100
AcDbLine
 10
127.7472705996343
 20
-147.014857657595
 30
0.0
 11
127.2332733775404
 21
-147.3965632130552
 31
0.0
  0
LINE
  5
F2
330
AE
100
AcDbEntity
  8
レイヤー 1
 62
   250
420
  2299925
370
    25
100
AcDbLine
 10
128.7470428216068
 20
-147.0506998798082
 30
0.0
 11
128.2330455995123
 21
-147.4324054352685
 31
0.0
  0
LINE
  5
F3
330
AE
100
AcDbEntity
  8
レイヤー 1
 62
   250
420
  2299925
370
    25
100
AcDbLine
 10
128.2330455995123
 20
-147.4324054352685
 30
0.0
 11
127.7472705996343
 21
-147.014857657595
 31
0.0
  0
LINE
  5
F4
330
AE
100
AcDbEntity
  8
レイヤー 1
 62
   250
420
  2299925
370
    25
100
AcDbLine
 10
131.7449483764127
 20
-147.1574857131149
 30
0.0
 11
131.2309511543189
 21
-147.5395440463526
 31
0.0
  0
LINE
  5
F5
330
AE
100
AcDbEntity
  8
レイヤー 1
 62
   250
420
  2299925
370
    25
100
AcDbLine
 10
127.2332733775404
 20
-147.3965632130552
 30
0.0
 11
126.7482039332173
 21
-146.9790154353817
 31
0.0
  0
LINE
  5
F6
330
AE
100
AcDbEntity
  8
レイヤー 1
 62
   250
420
  2299925
370
    25
100
AcDbLine
 10
129.7461094880232
 20
-147.0861540464659
 30
0.0
 11
129.23211226593
 21
-147.4682123797039
 31
0.0
  0
LINE
  5
F7
330
AE
100
AcDbEntity
  8
レイヤー 1
 62
   250
420
  2299925
370
    25
100
AcDbLine
 10
129.23211226593
 20
-147.4682123797039
 30
0.0
 11
128.7470428216068
 21
-147.0506998798082
 31
0.0
  0
LINE
  5
F8
330
AE
100
AcDbEntity
  8
レイヤー 1
 62
   250
420
  2299925
370
    25
100
AcDbLine
 10
131.7449483764127
 20
-147.1574857131149
 30
0.0
 11
131.7449483764127
 21
-147.6577246018786
 31
0.0
  0
LINE
  5
F9
330
AE
100
AcDbEntity
  8
レイヤー 1
 62
   250
420
  2299925
370
    25
100
AcDbLine
 10
111.7434347941012
 20
-147.6577246018786
 30
0.0
 11
131.7449483764127
 21
-147.6577246018786
 31
0.0
  0
LINE
  5
FA
330
AE
100
AcDbEntity
  8
レイヤー 1
 62
   250
420
  2299925
370
    25
100
AcDbLine
 10
120.7516503976157
 20
-146.7650909909909
 30
0.0
 11
120.2376531885067
 21
-147.1471493242286
 31
0.0
  0
LINE
  5
FB
330
AE
100
AcDbEntity
  8
レイヤー 1
 62
   250
420
  2299925
370
    25
100
AcDbLine
 10
120.2376531885067
 20
-147.1471493242286
 30
0.0
 11
119.7525837564374
 21
-146.7292487687776
 31
0.0
  0
LINE
  5
FC
330
AE
100
AcDbEntity
  8
レイヤー 1
 62
   250
420
  2299925
370
    25
100
AcDbLine
 10
119.7525837564374
 20
-146.7292487687776
 30
0.0
 11
119.2385865473283
 21
-147.1113071020153
 31
0.0
  0
LINE
  5
FD
330
AE
100
AcDbEntity
  8
レイヤー 1
 62
   250
420
  2299925
370
    25
100
AcDbLine
 10
119.2385865473283
 20
-147.1113071020153
 30
0.0
 11
118.7535171152591
 21
-146.6937593243418
 31
0.0
  0
LINE
  5
FE
330
AE
100
AcDbEntity
  8
レイヤー 1
 62
   250
420
  2299925
370
    25
100
AcDbLine
 10
118.7535171152591
 20
-146.6937593243418
 30
0.0
 11
118.2394846283731
 21
-147.0755001575799
 31
0.0
  0
LINE
  5
FF
330
AE
100
AcDbEntity
  8
レイヤー 1
 62
   250
420
  2299925
370
    25
100
AcDbLine
 10
118.2394846283731
 20
-147.0755001575799
 30
0.0
 11
117.7537449185425
 21
-146.6579523799065
 31
0.0
  0
LINE
  5
100
330
AE
100
AcDbEntity
  8
レイヤー 1
 62
   250
420
  2299925
370
    25
100
AcDbLine
 10
117.7537449185425
 20
-146.6579523799065
 30
0.0
 11
117.2397477094341
 21
-147.0396579353667
 31
0.0
  0
LINE
  5
101
330
AE
100
AcDbEntity
  8
レイヤー 1
 62
   250
420
  2299925
370
    25
100
AcDbLine
 10
117.2397477094341
 20
-147.0396579353667
 30
0.0
 11
116.7546782773648
 21
-146.6221101576932
 31
0.0
  0
LINE
  5
102
330
AE
100
AcDbEntity
  8
レイヤー 1
 62
   250
420
  2299925
370
    25
100
AcDbLine
 10
116.7546782773648
 20
-146.6221101576932
 30
0.0
 11
116.2406457904788
 21
-147.0041684909309
 31
0.0
  0
LINE
  5
103
330
AE
100
AcDbEntity
  8
レイヤー 1
 62
   250
420
  2299925
370
    25
100
AcDbLine
 10
116.2406457904788
 20
-147.0041684909309
 30
0.0
 11
115.7549060806489
 21
-146.5866207132577
 31
0.0
  0
LINE
  5
104
330
AE
100
AcDbEntity
  8
レイヤー 1
 62
   250
420
  2299925
370
    25
100
AcDbLine
 10
115.7549060806489
 20
-146.5866207132577
 30
0.0
 11
115.2408735937629
 21
-146.9686790464954
 31
0.0
  0
LINE
  5
105
330
AE
100
AcDbEntity
  8
レイヤー 1
 62
   250
420
  2299925
370
    25
100
AcDbLine
 10
115.2408735937629
 20
-146.9686790464954
 30
0.0
 11
114.7558041616937
 21
-146.550813768822
 31
0.0
  0
LINE
  5
106
330
AE
100
AcDbEntity
  8
レイヤー 1
 62
   250
420
  2299925
370
    25
100
AcDbLine
 10
114.7558041616937
 20
-146.550813768822
 30
0.0
 11
114.2418069525846
 21
-146.93287210206
 31
0.0
  0
LINE
  5
107
330
AE
100
AcDbEntity
  8
レイヤー 1
 62
   250
420
  2299925
370
    25
100
AcDbLine
 10
114.2418069525846
 20
-146.93287210206
 30
0.0
 11
113.7567375205153
 21
-146.5153243243865
 31
0.0
  0
LINE
  5
108
330
AE
100
AcDbEntity
  8
レイヤー 1
 62
   250
420
  2299925
370
    25
100
AcDbLine
 10
113.7567375205153
 20
-146.5153243243865
 30
0.0
 11
113.2427403114062
 21
-146.8970298798467
 31
0.0
  0
LINE
  5
109
330
AE
100
AcDbEntity
  8
レイヤー 1
 62
   250
420
  2299925
370
    25
100
AcDbLine
 10
113.2427403114062
 20
-146.8970298798467
 30
0.0
 11
112.7569653237994
 21
-146.4794821021732
 31
0.0
  0
LINE
  5
10A
330
AE
100
AcDbEntity
  8
レイヤー 1
 62
   250
420
  2299925
370
    25
100
AcDbLine
 10
112.7569653237994
 20
-146.4794821021732
 30
0.0
 11
112.2429681146903
 21
-146.8611876576335
 31
0.0
  0
LINE
  5
10B
330
AE
100
AcDbEntity
  8
レイヤー 1
 62
   250
420
  2299925
370
    25
100
AcDbLine
 10
112.2429681146903
 20
-146.8611876576335
 30
0.0
 11
111.757898682621
 21
-146.44363987996
 31
0.0
  0
LINE
  5
10C
330
AE
100
AcDbEntity
  8
レイヤー 1
 62
   250
420
  2299925
370
    25
100
AcDbLine
 10
111.6839014734017
 20
-146.3954151577498
 30
0.0
 11
110.7436625973852
 21
-146.3954151577498
 31
0.0
  0
LINE
  5
10D
330
AE
100
AcDbEntity
  8
レイヤー 1
 62
   250
420
  2299925
370
    25
100
AcDbLine
 10
111.7434347941012
 20
-147.6577246018786
 30
0.0
 11
111.7434347941012
 21
-152.6577498784062
 31
0.0
  0
SPLINE
  5
10E
330
AE
100
AcDbEntity
  8
レイヤー 1
 62
   250
420
  2299925
370
     9
100
AcDbSpline
210
0.0
220
0.0
230
1.0
 70
     9
 71
     3
 72
    17
 73
    13
 74
     0
 42
0.0000000001
 43
0.0000000001
 40
0.0
 40
0.0
 40
0.0
 40
0.0
 40
1.0
 40
1.0
 40
1.0
 40
2.0
 40
2.0
 40
2.0
 40
3.0
 40
3.0
 40
3.0
 40
4.0
 40
4.0
 40
4.0
 40
4.0
 10
79.8425178338325
 20
-142.3956559920832
 30
0.0
 10
79.8425178338325
 20
-142.3401993254303
 30
0.0
 10
79.79775033384393
 20
-142.2954318254414
 30
0.0
 10
79.74261116719086
 20
-142.2954318254414
 30
0.0
 10
79.68750727831594
 20
-142.2954318254414
 30
0.0
 10
79.64270450054923
 20
-142.3401993254303
 30
0.0
 10
79.64270450054923
 20
-142.3956559920832
 30
0.0
 10
79.64270450054923
 20
-142.450795158736
 30
0.0
 10
79.68750727831594
 20
-142.4955626587249
 30
0.0
 10
79.74261116719086
 20
-142.4955626587249
 30
0.0
 10
79.79775033384393
 20
-142.4955626587249
 30
0.0
 10
79.8425178338325
 20
-142.450795158736
 30
0.0
 10
79.8425178338325
 20
-142.3956559920832
 30
0.0
  0
CIRCLE
  5
10F
330
AE
100
AcDbEntity
  8
レイヤー 1
 62
   250
420
  2299925
370
     9
100
AcDbCircle
 10
77.51294977885952
 20
-147.1574857131149
 30
0.0
 40
0.099906666641758
  0
CIRCLE
  5
110
330
AE
100
AcDbEntity
  8
レイヤー 1
 62
   250
420
  2299925
370
     9
100
AcDbCircle
 10
77.51294977885952
 20
-147.6577246018786
 30
0.0
 40
0.099906666641758
  0
CIRCLE
  5
111
330
AE
100
AcDbEntity
  8
レイヤー 1
 62
   250
420
  2299925
370
     9
100
AcDbCircle
 10
77.51294977885952
 20
-152.6577498784066
 30
0.0
 40
0.0999066666415976
  0
SPLINE
  5
112
330
AE
100
AcDbEntity
  8
レイヤー 1
 62
   250
420
  2299925
370
     9
100
AcDbSpline
210
0.0
220
0.0
230
1.0
 70
     9
 71
     3
 72
    17
 73
    13
 74
     0
 42
0.0000000001
 43
0.0000000001
 40
0.0
 40
0.0
 40
0.0
 40
0.0
 40
1.0
 40
1.0
 40
1.0
 40
2.0
 40
2.0
 40
2.0
 40
3.0
 40
3.0
 40
3.0
 40
4.0
 40
4.0
 40
4.0
 40
4.0
 10
100.843836461062
 20
-142.3956559920832
 30
0.0
 10
100.843836461062
 20
-142.3401993254303
 30
0.0
 10
100.7990336844269
 20
-142.2954318254414
 30
0.0
 10
100.7439297969438
 20
-142.2954318254414
 30
0.0
 10
100.6881203539232
 20
-142.2954318254414
 30
0.0
 10
100.6433175772887
 20
-142.3401993254303
 30
0.0
 10
100.6433175772887
 20
-142.3956559920832
 30
0.0
 10
100.6433175772887
 20
-142.450795158736
 30
0.0
 10
100.6881203539232
 20
-142.4955626587249
 30
0.0
 10
100.7439297969438
 20
-142.4955626587249
 30
0.0
 10
100.7990336844269
 20
-142.4955626587249
 30
0.0
 10
100.843836461062
 20
-142.450795158736
 30
0.0
 10
100.843836461062
 20
-142.3956559920832
 30
0.0
  0
SPLINE
  5
113
330
AE
100
AcDbEntity
  8
レイヤー 1
 62
   250
420
  2299925
370
     9
100
AcDbSpline
210
0.0
220
0.0
230
1.0
 70
     9
 71
     3
 72
    17
 73
    13
 74
     0
 42
0.0000000001
 43
0.0000000001
 40
0.0
 40
0.0
 40
0.0
 40
0.0
 40
1.0
 40
1.0
 40
1.0
 40
2.0
 40
2.0
 40
2.0
 40
3.0
 40
3.0
 40
3.0
 40
4.0
 40
4.0
 40
4.0
 40
4.0
 10
131.844888447937
 20
-142.3956559920832
 30
0.0
 10
131.844888447937
 20
-142.3401993254303
 30
0.0
 10
131.8000856713023
 20
-142.2954318254414
 30
0.0
 10
131.7449483764127
 20
-142.2954318254414
 30
0.0
 10
131.6898426185592
 20
-142.2954318254414
 30
0.0
 10
131.6450398419245
 20
-142.3401993254303
 30
0.0
 10
131.6450398419245
 20
-142.3956559920832
 30
0.0
 10
131.6450398419245
 20
-142.450795158736
 30
0.0
 10
131.6898426185592
 20
-142.4955626587249
 30
0.0
 10
131.7449483764127
 20
-142.4955626587249
 30
0.0
 10
131.8000856713023
 20
-142.4955626587249
 30
0.0
 10
131.844888447937
 20
-142.450795158736
 30
0.0
 10
131.844888447937
 20
-142.3956559920832
 30
0.0
  0
SPLINE
  5
114
330
AE
100
AcDbEntity
  8
レイヤー 1
 62
   250
420
  2299925
370
     9
100
AcDbSpline
210
0.0
220
0.0
230
1.0
 70
     9
 71
     3
 72
    17
 73
    13
 74
     0
 42
0.0000000001
 43
0.0000000001
 40
0.0
 40
0.0
 40
0.0
 40
0.0
 40
1.0
 40
1.0
 40
1.0
 40
2.0
 40
2.0
 40
2.0
 40
3.0
 40
3.0
 40
3.0
 40
4.0
 40
4.0
 40
4.0
 40
4.0
 10
110.8435706038605
 20
-142.3956559920832
 30
0.0
 10
110.8435706038605
 20
-142.3401993254303
 30
0.0
 10
110.7987678260937
 20
-142.2954318254414
 30
0.0
 10
110.7436625973852
 20
-142.2954318254414
 30
0.0
 10
110.6885234321253
 20
-142.2954318254414
 30
0.0
 10
110.6437559332674
 20
-142.3401993254303
 30
0.0
 10
110.6437559332674
 20
-142.3956559920832
 30
0.0
 10
110.6437559332674
 20
-142.450795158736
 30
0.0
 10
110.6885234321253
 20
-142.4955626587249
 30
0.0
 10
110.7436625973852
 20
-142.4955626587249
 30
0.0
 10
110.7987678260937
 20
-142.4955626587249
 30
0.0
 10
110.8435706038605
 20
-142.450795158736
 30
0.0
 10
110.8435706038605
 20
-142.3956559920832
 30
0.0
  0
LINE
  5
115
330
AE
100
AcDbEntity
  8
レイヤー 1
 62
   250
420
  2299925
370
     9
100
AcDbLine
 10
77.51294977885961
 20
-147.1574857131149
 30
0.0
 11
77.51294977885961
 21
-141.8999326588738
 31
0.0
  0
LINE
  5
116
330
AE
100
AcDbEntity
  8
レイヤー 1
 62
   250
420
  2299925
370
     9
100
AcDbLine
 10
77.51294977885961
 20
-147.1574857131149
 30
0.0
 11
77.51294977885961
 21
-147.6577246018786
 31
0.0
  0
LINE
  5
117
330
AE
100
AcDbEntity
  8
レイヤー 1
 62
   250
420
  2299925
370
     9
100
AcDbLine
 10
78.97299116738331
 20
-147.1574857131149
 30
0.0
 11
76.51317755688705
 21
-147.1574857131149
 31
0.0
  0
LINE
  5
118
330
AE
100
AcDbEntity
  8
レイヤー 1
 62
   250
420
  2299925
370
     9
100
AcDbLine
 10
78.97299116738331
 20
-147.6577246018786
 30
0.0
 11
76.51317755688705
 21
-147.6577246018786
 31
0.0
  0
INSERT
  5
11A
330
AE
100
AcDbEntity
  8
レイヤー 1
100
AcDbBlockReference
  2
Block_4
 10
0.0
 20
0.0
 30
0.0
  0
LINE
  5
128
330
AE
100
AcDbEntity
  8
レイヤー 1
 62
   250
420
  2299925
370
     9
100
AcDbLine
 10
79.74261116719086
 20
-142.3956559920832
 30
0.0
 11
100.7439297969438
 21
-142.3956559920832
 31
0.0
  0
LINE
  5
129
330
AE
100
AcDbEntity
  8
レイヤー 1
 62
   250
420
  2299925
370
     9
100
AcDbLine
 10
79.74261116719086
 20
-144.6177679359721
 30
0.0
 11
79.74261116719086
 21
-141.3955662701108
 31
0.0
  0
INSERT
  5
12B
330
AE
100
AcDbEntity
  8
レイヤー 1
100
AcDbBlockReference
  2
Block_6
 10
0.0
 20
0.0
 30
0.0
  0
LINE
  5
136
330
AE
100
AcDbEntity
  8
レイヤー 1
 62
   250
420
  2299925
370
     9
100
AcDbLine
 10
77.51294977885961
 20
-147.6577246018786
 30
0.0
 11
77.51294977885961
 21
-152.6577498784062
 31
0.0
  0
LINE
  5
137
330
AE
100
AcDbEntity
  8
レイヤー 1
 62
   250
420
  2299925
370
     9
100
AcDbLine
 10
98.97453761986287
 20
-152.6577498784062
 30
0.0
 11
76.51317755688705
 21
-152.6577498784062
 31
0.0
  0
INSERT
  5
139
330
AE
100
AcDbEntity
  8
レイヤー 1
100
AcDbBlockReference
  2
Block_8
 10
0.0
 20
0.0
 30
0.0
  0
LINE
  5
13E
330
AE
100
AcDbEntity
  8
レイヤー 1
 62
   250
420
  2299925
370
     9
100
AcDbLine
 10
131.7449483764127
 20
-142.3956559920832
 30
0.0
 11
110.7436625973852
 21
-142.3956559920832
 31
0.0
  0
LINE
  5
13F
330
AE
100
AcDbEntity
  8
レイヤー 1
 62
   250
420
  2299925
370
     9
100
AcDbLine
 10
131.7449483764127
 20
-144.6177679359721
 30
0.0
 11
131.7449483764127
 21
-141.3955662701108
 31
0.0
  0
INSERT
  5
141
330
AE
100
AcDbEntity
  8
レイヤー 1
100
AcDbBlockReference
  2
Block_9
 10
0.0
 20
0.0
 30
0.0
  0
LINE
  5
14C
330
AE
100
AcDbEntity
  8
レイヤー 1
 62
   250
420
  2299925
370
     9
100
AcDbLine
 10
100.7439297969438
 20
-142.3956559920832
 30
0.0
 11
110.7436625973852
 21
-142.3956559920832
 31
0.0
  0
LINE
  5
14D
330
AE
100
AcDbEntity
  8
レイヤー 1
 62
   250
420
  2299925
370
     9
100
AcDbLine
 10
100.7439297969438
 20
-143.855697380607
 30
0.0
 11
100.7439297969438
 21
-141.3955662701108
 31
0.0
  0
LINE
  5
14E
330
AE
100
AcDbEntity
  8
レイヤー 1
 62
   250
420
  2299925
370
     9
100
AcDbLine
 10
110.7436625973852
 20
-143.855697380607
 30
0.0
 11
110.7436625973852
 21
-141.3955662701108
 31
0.0
  0
INSERT
  5
150
330
AE
100
AcDbEntity
  8
レイヤー 1
100
AcDbBlockReference
  2
Block_11
 10
0.0
 20
0.0
 30
0.0
  0
SPLINE
  5
15C
330
AE
100
AcDbEntity
  8
レイヤー 1
 62
   250
420
  2299925
370
     9
100
AcDbSpline
210
0.0
220
0.0
230
1.0
 70
     9
 71
     3
 72
    17
 73
    13
 74
     0
 42
0.0000000001
 43
0.0000000001
 40
0.0
 40
0.0
 40
0.0
 40
0.0
 40
1.0
 40
1.0
 40
1.0
 40
2.0
 40
2.0
 40
2.0
 40
3.0
 40
3.0
 40
3.0
 40
4.0
 40
4.0
 40
4.0
 40
4.0
 10
100.056965647803
 20
-156.7712093218224
 30
0.0
 10
100.056965647803
 20
-156.7160701551693
 30
0.0
 10
99.97360426104091
 20
-156.6712673774026
 30
0.0
 10
99.8709459303263
 20
-156.6712673774026
 30
0.0
 10
99.76966343291053
 20
-156.6712673774026
 30
0.0
 10
99.68626782887156
 20
-156.7160701551693
 30
0.0
 10
99.68626782887156
 20
-156.7712093218224
 30
0.0
 10
99.68626782887156
 20
-156.8263132106973
 30
0.0
 10
99.76966343291053
 20
-156.8711159884641
 30
0.0
 10
99.8709459303263
 20
-156.8711159884641
 30
0.0
 10
99.97360426104091
 20
-156.8711159884641
 30
0.0
 10
100.056965647803
 20
-156.8263132106973
 30
0.0
 10
100.056965647803
 20
-156.7712093218224
 30
0.0
  0
SPLINE
  5
15D
330
AE
100
AcDbEntity
  8
レイヤー 1
 62
   250
420
  2299925
370
     9
100
AcDbSpline
210
0.0
220
0.0
230
1.0
 70
     9
 71
     3
 72
    17
 73
    13
 74
     0
 42
0.0000000001
 43
0.0000000001
 40
0.0
 40
0.0
 40
0.0
 40
0.0
 40
1.0
 40
1.0
 40
1.0
 40
2.0
 40
2.0
 40
2.0
 40
3.0
 40
3.0
 40
3.0
 40
4.0
 40
4.0
 40
4.0
 40
4.0
 10
112.0996345072359
 20
-156.7712093218224
 30
0.0
 10
112.0996345072359
 20
-156.7160701551693
 30
0.0
 10
112.0169786760113
 20
-156.6712673774026
 30
0.0
 10
111.9149906230577
 20
-156.6712673774026
 30
0.0
 10
111.8116267368059
 20
-156.6712673774026
 30
0.0
 10
111.7289709055813
 20
-156.7160701551693
 30
0.0
 10
111.7289709055813
 20
-156.7712093218224
 30
0.0
 10
111.7289709055813
 20
-156.8263132106973
 30
0.0
 10
111.8116267368059
 20
-156.8711159884641
 30
0.0
 10
111.9149906230577
 20
-156.8711159884641
 30
0.0
 10
112.0169786760113
 20
-156.8711159884641
 30
0.0
 10
112.0996345072359
 20
-156.8263132106973
 30
0.0
 10
112.0996345072359
 20
-156.7712093218224
 30
0.0
  0
LINE
  5
15E
330
AE
100
AcDbEntity
  8
レイヤー 1
 62
   250
420
  2299925
370
     9
100
AcDbLine
 10
111.9149906230577
 20
-156.7712093218224
 30
0.0
 11
99.8709459303263
 21
-156.7712093218224
 31
0.0
  0
LINE
  5
15F
330
AE
100
AcDbEntity
  8
レイヤー 1
 62
   250
420
  2299925
370
     9
100
AcDbLine
 10
111.9149906230577
 20
-155.3111679332987
 30
0.0
 11
111.9149906230577
 21
-157.7709462660168
 31
0.0
  0
LINE
  5
160
330
AE
100
AcDbEntity
  8
レイヤー 1
 62
   250
420
  2299925
370
     9
100
AcDbLine
 10
99.8709459303263
 20
-155.3111679332987
 30
0.0
 11
99.8709459303263
 21
-157.7709462660168
 31
0.0
  0
INSERT
  5
162
330
AE
100
AcDbEntity
  8
レイヤー 1
100
AcDbBlockReference
  2
Block_13
 10
0.0
 20
0.0
 30
0.0
  0
LINE
  5
16D
330
AE
100
AcDbEntity
  8
レイヤー 1
 62
   250
420
  2299925
370
     9
100
AcDbLine
 10
108.7200234823459
 20
-150.6856162677882
 30
0.0
 11
116.7202118893552
 21
-150.6856162677882
 31
0.0
  0
INSERT
  5
16F
330
AE
100
AcDbEntity
  8
レイヤー 1
100
AcDbBlockReference
  2
Block_15
 10
0.0
 20
0.0
 30
0.0
  0
ENDBLK
  5
B1
330
AE
100
AcDbEntity
  8
0
100
AcDbBlockEnd
  0
BLOCK
  5
11B
330
119
100
AcDbEntity
  8
0
100
AcDbBlockBegin
  2
Block_4
 70
     0
 10
0.0
 20
0.0
 30
0.0
  3
Block_4
  1

  0
INSERT
  5
11E
330
119
100
AcDbEntity
  8
レイヤー 1
100
AcDbBlockReference
  2
Block_5
 10
0.0
 20
0.0
 30
0.0
  0
ENDBLK
  5
11C
330
119
100
AcDbEntity
  8
0
100
AcDbBlockEnd
  0
BLOCK
  5
11F
330
11D
100
AcDbEntity
  8
0
100
AcDbBlockBegin
  2
Block_5
 70
     0
 10
0.0
 20
0.0
 30
0.0
  3
Block_5
  1

  0
SPLINE
  5
121
330
11D
100
AcDbEntity
  8
レイヤー 1
100
AcDbSpline
210
0.0
220
0.0
230
1.0
 70
     9
 71
     3
 72
    17
 73
    13
 74
     0
 42
0.0000000001
 43
0.0000000001
 40
0.0
 40
0.0
 40
0.0
 40
0.0
 40
1.0
 40
1.0
 40
1.0
 40
2.0
 40
2.0
 40
2.0
 40
3.0
 40
3.0
 40
3.0
 40
4.0
 40
4.0
 40
4.0
 40
4.0
 10
74.66865503775645
 20
-148.3125664234253
 30
0.0
 10
74.66865503775645
 20
-148.5623358461059
 30
0.0
 10
74.95201414141824
 20
-148.6088446351568
 30
0.0
 10
75.29686819949175
 20
-148.6088446351568
 30
0.0
 10
75.61640080574868
 20
-148.6088446351568
 30
0.0
 10
75.92525361600133
 20
-148.5726711325617
 30
0.0
 10
75.92525361600133
 20
-148.3125664234253
 30
0.0
 10
75.92525361600133
 20
-148.0648640580358
 30
0.0
 10
75.64378931485641
 20
-148.0162882116938
 30
0.0
 10
75.29686819949175
 20
-148.0162882116938
 30
0.0
 10
74.9775078480091
 20
-148.0162882116938
 30
0.0
 10
74.66865503775645
 20
-148.0545287715801
 30
0.0
 10
74.66865503775645
 20
-148.3125664234253
 30
0.0
  0
SPLINE
  5
122
330
11D
100
AcDbEntity
  8
レイヤー 1
100
AcDbSpline
210
0.0
220
0.0
230
1.0
 70
     9
 71
     3
 72
    29
 73
    25
 74
     0
 42
0.0000000001
 43
0.0000000001
 40
0.0
 40
0.0
 40
0.0
 40
0.0
 40
1.0
 40
1.0
 40
1.0
 40
2.0
 40
2.0
 40
2.0
 40
3.0
 40
3.0
 40
3.0
 40
4.0
 40
4.0
 40
4.0
 40
5.0
 40
5.0
 40
5.0
 40
6.0
 40
6.0
 40
6.0
 40
7.0
 40
7.0
 40
7.0
 40
8.0
 40
8.0
 40
8.0
 40
8.0
 10
75.89131942547162
 20
-147.914657894879
 30
0.0
 10
76.1007812309748
 20
-148.0228338931158
 30
0.0
 10
76.11990151091794
 20
-148.1961221960238
 30
0.0
 10
76.11990151091794
 20
-148.3125664234253
 30
0.0
 10
76.11990151091794
 20
-148.4734523825865
 30
0.0
 10
76.07339272186706
 20
-148.6150458070302
 30
0.0
 10
75.89131942547162
 20
-148.7101304424232
 30
0.0
 10
75.69684378532926
 20
-148.8138278165292
 30
0.0
 10
75.45982121594407
 20
-148.8331203512466
 30
0.0
 10
75.29686819949175
 20
-148.8331203512466
 30
0.0
 10
75.15303546298257
 20
-148.8331203512466
 30
0.0
 10
74.90137123778507
 20
-148.8158948738203
 30
0.0
 10
74.7024169735119
 20
-148.7101304424232
 30
0.0
 10
74.49932859465642
 20
-148.6022989537348
 30
0.0
 10
74.47607420013098
 20
-148.4414129945736
 30
0.0
 10
74.47607420013098
 20
-148.3125664234253
 30
0.0
 10
74.47607420013098
 20
-148.1537475215553
 30
0.0
 10
74.52051593189072
 20
-148.0100870398204
 30
0.0
 10
74.7024169735119
 20
-147.914657894879
 30
0.0
 10
74.89499781113735
 20
-147.8154391449038
 30
0.0
 10
75.12340764180944
 20
-147.7920124956041
 30
0.0
 10
75.29686819949175
 20
-147.7920124956041
 30
0.0
 10
75.46826169988294
 20
-147.7920124956041
 30
0.0
 10
75.69891084262042
 20
-147.8133720876126
 30
0.0
 10
75.89131942547162
 20
-147.914657894879
 30
0.0
  0
HATCH
  5
123
330
11D
100
AcDbEntity
  8
レイヤー 1
 62
   250
420
  2299925
440
 33554687
100
AcDbHatch
 10
0.0
 20
0.0
 30
0.0
210
0.0
220
0.0
230
1.0
  2
SOLID
 70
     1
 71
     1
 91
        2
 92
        1
 93
        1
 72
     4
 94
        3
 73
     0
 74
     0
 95
       17
 96
       13
 40
0.0
 40
0.0
 40
0.0
 40
0.0
 40
1.0
 40
1.0
 40
1.0
 40
2.0
 40
2.0
 40
2.0
 40
3.0
 40
3.0
 40
3.0
 40
4.0
 40
4.0
 40
4.0
 40
4.0
 10
74.66865503775645
 20
-148.3125664234253
 10
74.66865503775645
 20
-148.5623358461059
 10
74.95201414141824
 20
-148.6088446351568
 10
75.29686819949175
 20
-148.6088446351568
 10
75.61640080574868
 20
-148.6088446351568
 10
75.92525361600133
 20
-148.5726711325617
 10
75.92525361600133
 20
-148.3125664234253
 10
75.92525361600133
 20
-148.0648640580358
 10
75.64378931485641
 20
-148.0162882116938
 10
75.29686819949175
 20
-148.0162882116938
 10
74.9775078480091
 20
-148.0162882116938
 10
74.66865503775645
 20
-148.0545287715801
 10
74.66865503775645
 20
-148.3125664234253
 97
        0
 97
        1
330
121
 92
        1
 93
        1
 72
     4
 94
        3
 73
     0
 74
     0
 95
       29
 96
       25
 40
0.0
 40
0.0
 40
0.0
 40
0.0
 40
1.0
 40
1.0
 40
1.0
 40
2.0
 40
2.0
 40
2.0
 40
3.0
 40
3.0
 40
3.0
 40
4.0
 40
4.0
 40
4.0
 40
5.0
 40
5.0
 40
5.0
 40
6.0
 40
6.0
 40
6.0
 40
7.0
 40
7.0
 40
7.0
 40
8.0
 40
8.0
 40
8.0
 40
8.0
 10
75.89131942547162
 20
-147.914657894879
 10
76.1007812309748
 20
-148.0228338931158
 10
76.11990151091794
 20
-148.1961221960238
 10
76.11990151091794
 20
-148.3125664234253
 10
76.11990151091794
 20
-148.4734523825865
 10
76.07339272186706
 20
-148.6150458070302
 10
75.89131942547162
 20
-148.7101304424232
 10
75.69684378532926
 20
-148.8138278165292
 10
75.45982121594407
 20
-148.8331203512466
 10
75.29686819949175
 20
-148.8331203512466
 10
75.15303546298257
 20
-148.8331203512466
 10
74.90137123778507
 20
-148.8158948738203
 10
74.7024169735119
 20
-148.7101304424232
 10
74.49932859465642
 20
-148.6022989537348
 10
74.47607420013098
 20
-148.4414129945736
 10
74.47607420013098
 20
-148.3125664234253
 10
74.47607420013098
 20
-148.1537475215553
 10
74.52051593189072
 20
-148.0100870398204
 10
74.7024169735119
 20
-147.914657894879
 10
74.89499781113735
 20
-147.8154391449038
 10
75.12340764180944
 20
-147.7920124956041
 10
75.29686819949175
 20
-147.7920124956041
 10
75.46826169988294
 20
-147.7920124956041
 10
75.69891084262042
 20
-147.8133720876126
 10
75.89131942547162
 20
-147.914657894879
 97
        0
 97
        1
330
122
 75
     2
 76
     1
 98
        1
 10
0.0
 20
0.0
450
        0
451
        0
460
0.0
461
0.0
452
        0
462
0.0
453
        0
470

  0
SPLINE
  5
124
330
11D
100
AcDbEntity
  8
レイヤー 1
100
AcDbSpline
210
0.0
220
0.0
230
1.0
 70
    11
 71
     3
 72
    17
 73
    13
 74
     0
 42
0.0000000001
 43
0.0000000001
 40
0.0
 40
0.0
 40
0.0
 40
0.0
 40
1.0
 40
1.0
 40
1.0
 40
2.0
 40
2.0
 40
2.0
 40
3.0
 40
3.0
 40
3.0
 40
4.0
 40
4.0
 40
4.0
 40
4.0
 10
76.06908635251051
 20
-147.5756604991304
 30
0.0
 10
76.06908635251051
 20
-147.5756604991304
 30
0.0
 10
75.81742212731301
 20
-147.5756604991304
 30
0.0
 10
75.81742212731301
 20
-147.5756604991304
 30
0.0
 10
75.81742212731301
 20
-147.5756604991304
 30
0.0
 10
75.81742212731301
 20
-147.3238240191586
 30
0.0
 10
75.81742212731301
 20
-147.3238240191586
 30
0.0
 10
75.81742212731301
 20
-147.3238240191586
 30
0.0
 10
76.06908635251051
 20
-147.3238240191586
 30
0.0
 10
76.06908635251051
 20
-147.3238240191586
 30
0.0
 10
76.06908635251051
 20
-147.3238240191586
 30
0.0
 10
76.06908635251051
 20
-147.5756604991304
 30
0.0
 10
76.06908635251051
 20
-147.5756604991304
 30
0.0
  0
HATCH
  5
125
330
11D
100
AcDbEntity
  8
レイヤー 1
 62
   250
420
  2299925
440
 33554687
100
AcDbHatch
 10
0.0
 20
0.0
 30
0.0
210
0.0
220
0.0
230
1.0
  2
SOLID
 70
     1
 71
     1
 91
        1
 92
        1
 93
        1
 72
     4
 94
        3
 73
     0
 74
     0
 95
       17
 96
       13
 40
0.0
 40
0.0
 40
0.0
 40
0.0
 40
1.0
 40
1.0
 40
1.0
 40
2.0
 40
2.0
 40
2.0
 40
3.0
 40
3.0
 40
3.0
 40
4.0
 40
4.0
 40
4.0
 40
4.0
 10
76.06908635251051
 20
-147.5756604991304
 10
76.06908635251051
 20
-147.5756604991304
 10
75.81742212731301
 20
-147.5756604991304
 10
75.81742212731301
 20
-147.5756604991304
 10
75.81742212731301
 20
-147.5756604991304
 10
75.81742212731301
 20
-147.3238240191586
 10
75.81742212731301
 20
-147.3238240191586
 10
75.81742212731301
 20
-147.3238240191586
 10
76.06908635251051
 20
-147.3238240191586
 10
76.06908635251051
 20
-147.3238240191586
 10
76.06908635251051
 20
-147.3238240191586
 10
76.06908635251051
 20
-147.5756604991304
 10
76.06908635251051
 20
-147.5756604991304
 97
        0
 97
        1
330
124
 75
     2
 76
     1
 98
        1
 10
0.0
 20
0.0
450
        0
451
        0
460
0.0
461
0.0
452
        0
462
0.0
453
        0
470

  0
SPLINE
  5
126
330
11D
100
AcDbEntity
  8
レイヤー 1
100
AcDbSpline
210
0.0
220
0.0
230
1.0
 70
     9
 71
     3
 72
    53
 73
    49
 74
     0
 42
0.0000000001
 43
0.0000000001
 40
0.0
 40
0.0
 40
0.0
 40
0.0
 40
1.0
 40
1.0
 40
1.0
 40
2.0
 40
2.0
 40
2.0
 40
3.0
 40
3.0
 40
3.0
 40
4.0
 40
4.0
 40
4.0
 40
5.0
 40
5.0
 40
5.0
 40
6.0
 40
6.0
 40
6.0
 40
7.0
 40
7.0
 40
7.0
 40
8.0
 40
8.0
 40
8.0
 40
9.0
 40
9.0
 40
9.0
 40
10.0
 40
10.0
 40
10.0
 40
11.0
 40
11.0
 40
11.0
 40
12.0
 40
12.0
 40
12.0
 40
13.0
 40
13.0
 40
13.0
 40
14.0
 40
14.0
 40
14.0
 40
15.0
 40
15.0
 40
15.0
 40
16.0
 40
16.0
 40
16.0
 40
16.0
 10
76.11990151091794
 20
-146.6065551391296
 30
0.0
 10
76.11990151091794
 20
-146.6847588066448
 30
0.0
 10
76.10302054304021
 20
-146.7863891234596
 30
0.0
 10
76.03945853133736
 20
-146.8880194402745
 30
0.0
 10
75.92938773058363
 20
-147.0613077431826
 30
0.0
 10
75.79830184736987
 20
-147.0826673351911
 30
0.0
 10
75.69047035868155
 20
-147.10161536036
 30
0.0
 10
75.69047035868155
 20
-147.10161536036
 30
0.0
 10
75.69047035868155
 20
-146.8794067015614
 30
0.0
 10
75.69047035868155
 20
-146.8794067015614
 30
0.0
 10
75.88925236818046
 20
-146.8246296833459
 30
0.0
 10
75.91888018935361
 20
-146.6975056599402
 30
0.0
 10
75.91888018935361
 20
-146.6044880818385
 30
0.0
 10
75.91888018935361
 20
-146.4649617146858
 30
0.0
 10
75.81948918460416
 20
-146.3126884942378
 30
0.0
 10
75.58677298457553
 20
-146.3126884942378
 30
0.0
 10
75.33080239002147
 20
-146.3126884942378
 30
0.0
 10
75.26103920644516
 20
-146.4925224785678
 30
0.0
 10
75.26103920644516
 20
-146.6131008205516
 30
0.0
 10
75.26103920644516
 20
-146.6447956990159
 30
0.0
 10
75.26103920644516
 20
-146.7863891234596
 30
0.0
 10
75.39005803236776
 20
-146.8752725869791
 30
0.0
 10
75.39005803236776
 20
-146.8752725869791
 30
0.0
 10
75.37093775242462
 20
-147.0509724567268
 30
0.0
 10
75.37093775242462
 20
-147.0509724567268
 30
0.0
 10
75.37093775242462
 20
-147.0509724567268
 30
0.0
 10
74.52482230124727
 20
-146.9303941147431
 30
0.0
 10
74.52482230124727
 20
-146.9303941147431
 30
0.0
 10
74.52482230124727
 20
-146.9303941147431
 30
0.0
 10
74.52482230124727
 20
-146.1518025350766
 30
0.0
 10
74.52482230124727
 20
-146.1518025350766
 30
0.0
 10
74.52482230124727
 20
-146.1518025350766
 30
0.0
 10
74.71947019616388
 20
-146.1518025350766
 30
0.0
 10
74.71947019616388
 20
-146.1518025350766
 30
0.0
 10
74.71947019616388
 20
-146.1518025350766
 30
0.0
 10
74.71947019616388
 20
-146.7674410982908
 30
0.0
 10
74.71947019616388
 20
-146.7674410982908
 30
0.0
 10
74.71947019616388
 20
-146.7674410982908
 30
0.0
 10
75.14252792175255
 20
-146.8328979125105
 30
0.0
 10
75.14252792175255
 20
-146.8328979125105
 30
0.0
 10
75.10859373122285
 20
-146.771575212873
 30
0.0
 10
75.06845836881969
 20
-146.6892374307756
 30
0.0
 10
75.06845836881969
 20
-146.570726146083
 30
0.0
 10
75.06845836881969
 20
-146.3168226088201
 30
0.0
 10
75.25466577979745
 20
-146.0798000394349
 30
0.0
 10
75.56765270463239
 20
-146.0798000394349
 30
0.0
 10
75.88511825359816
 20
-146.0798000394349
 30
0.0
 10
76.11990151091794
 20
-146.3040757555247
 30
0.0
 10
76.11990151091794
 20
-146.6065551391296
 30
0.0
  0
HATCH
  5
127
330
11D
100
AcDbEntity
  8
レイヤー 1
 62
   250
420
  2299925
440
 33554687
100
AcDbHatch
 10
0.0
 20
0.0
 30
0.0
210
0.0
220
0.0
230
1.0
  2
SOLID
 70
     1
 71
     1
 91
        1
 92
        1
 93
        1
 72
     4
 94
        3
 73
     0
 74
     0
 95
       53
 96
       49
 40
0.0
 40
0.0
 40
0.0
 40
0.0
 40
1.0
 40
1.0
 40
1.0
 40
2.0
 40
2.0
 40
2.0
 40
3.0
 40
3.0
 40
3.0
 40
4.0
 40
4.0
 40
4.0
 40
5.0
 40
5.0
 40
5.0
 40
6.0
 40
6.0
 40
6.0
 40
7.0
 40
7.0
 40
7.0
 40
8.0
 40
8.0
 40
8.0
 40
9.0
 40
9.0
 40
9.0
 40
10.0
 40
10.0
 40
10.0
 40
11.0
 40
11.0
 40
11.0
 40
12.0
 40
12.0
 40
12.0
 40
13.0
 40
13.0
 40
13.0
 40
14.0
 40
14.0
 40
14.0
 40
15.0
 40
15.0
 40
15.0
 40
16.0
 40
16.0
 40
16.0
 40
16.0
 10
76.11990151091794
 20
-146.6065551391296
 10
76.11990151091794
 20
-146.6847588066448
 10
76.10302054304021
 20
-146.7863891234596
 10
76.03945853133736
 20
-146.8880194402745
 10
75.92938773058363
 20
-147.0613077431826
 10
75.79830184736987
 20
-147.0826673351911
 10
75.69047035868155
 20
-147.10161536036
 10
75.69047035868155
 20
-147.10161536036
 10
75.69047035868155
 20
-146.8794067015614
 10
75.69047035868155
 20
-146.8794067015614
 10
75.88925236818046
 20
-146.8246296833459
 10
75.91888018935361
 20
-146.6975056599402
 10
75.91888018935361
 20
-146.6044880818385
 10
75.91888018935361
 20
-146.4649617146858
 10
75.81948918460416
 20
-146.3126884942378
 10
75.58677298457553
 20
-146.3126884942378
 10
75.33080239002147
 20
-146.3126884942378
 10
75.26103920644516
 20
-146.4925224785678
 10
75.26103920644516
 20
-146.6131008205516
 10
75.26103920644516
 20
-146.6447956990159
 10
75.26103920644516
 20
-146.7863891234596
 10
75.39005803236776
 20
-146.8752725869791
 10
75.39005803236776
 20
-146.8752725869791
 10
75.37093775242462
 20
-147.0509724567268
 10
75.37093775242462
 20
-147.0509724567268
 10
75.37093775242462
 20
-147.0509724567268
 10
74.52482230124727
 20
-146.9303941147431
 10
74.52482230124727
 20
-146.9303941147431
 10
74.52482230124727
 20
-146.9303941147431
 10
74.52482230124727
 20
-146.1518025350766
 10
74.52482230124727
 20
-146.1518025350766
 10
74.52482230124727
 20
-146.1518025350766
 10
74.71947019616388
 20
-146.1518025350766
 10
74.71947019616388
 20
-146.1518025350766
 10
74.71947019616388
 20
-146.1518025350766
 10
74.71947019616388
 20
-146.7674410982908
 10
74.71947019616388
 20
-146.7674410982908
 10
74.71947019616388
 20
-146.7674410982908
 10
75.14252792175255
 20
-146.8328979125105
 10
75.14252792175255
 20
-146.8328979125105
 10
75.10859373122285
 20
-146.771575212873
 10
75.06845836881969
 20
-146.6892374307756
 10
75.06845836881969
 20
-146.570726146083
 10
75.06845836881969
 20
-146.3168226088201
 10
75.25466577979745
 20
-146.0798000394349
 10
75.56765270463239
 20
-146.0798000394349
 10
75.88511825359816
 20
-146.0798000394349
 10
76.11990151091794
 20
-146.3040757555247
 10
76.11990151091794
 20
-146.6065551391296
 97
        0
 97
        1
330
126
 75
     2
 76
     1
 98
        1
 10
0.0
 20
0.0
450
        0
451
        0
460
0.0
461
0.0
452
        0
462
0.0
453
        0
470

  0
ENDBLK
  5
120
330
11D
100
AcDbEntity
  8
0
100
AcDbBlockEnd
  0
BLOCK
  5
12C
330
12A
100
AcDbEntity
  8
0
100
AcDbBlockBegin
  2
Block_6
 70
     0
 10
0.0
 20
0.0
 30
0.0
  3
Block_6
  1

  0
INSERT
  5
12F
330
12A
100
AcDbEntity
  8
レイヤー 1
100
AcDbBlockReference
  2
Block_7
 10
0.0
 20
0.0
 30
0.0
  0
ENDBLK
  5
12D
330
12A
100
AcDbEntity
  8
0
100
AcDbBlockEnd
  0
BLOCK
  5
130
330
12E
100
AcDbEntity
  8
0
100
AcDbBlockBegin
  2
Block_7
 70
     0
 10
0.0
 20
0.0
 30
0.0
  3
Block_7
  1

  0
SPLINE
  5
132
330
12E
100
AcDbEntity
  8
レイヤー 1
100
AcDbSpline
210
0.0
220
0.0
230
1.0
 70
     9
 71
     3
 72
    44
 73
    40
 74
     0
 42
0.0000000001
 43
0.0000000001
 40
0.0
 40
0.0
 40
0.0
 40
0.0
 40
1.0
 40
1.0
 40
1.0
 40
2.0
 40
2.0
 40
2.0
 40
3.0
 40
3.0
 40
3.0
 40
4.0
 40
4.0
 40
4.0
 40
5.0
 40
5.0
 40
5.0
 40
6.0
 40
6.0
 40
6.0
 40
7.0
 40
7.0
 40
7.0
 40
8.0
 40
8.0
 40
8.0
 40
9.0
 40
9.0
 40
9.0
 40
10.0
 40
10.0
 40
10.0
 40
11.0
 40
11.0
 40
11.0
 40
12.0
 40
12.0
 40
12.0
 40
13.0
 40
13.0
 40
13.0
 40
13.0
 10
89.67187362124523
 20
-141.1002590250548
 30
0.0
 10
89.45397133180318
 20
-141.2589056721505
 30
0.0
 10
89.36078149892717
 20
-141.3329752250834
 30
0.0
 10
89.31220565258515
 20
-141.4768079615926
 30
0.0
 10
89.31220565258515
 20
-141.4768079615926
 30
0.0
 10
90.09062497747734
 20
-141.4768079615926
 30
0.0
 10
90.09062497747734
 20
-141.4768079615926
 30
0.0
 10
90.09062497747734
 20
-141.4768079615926
 30
0.0
 10
90.09062497747734
 20
-141.6819633977392
 30
0.0
 10
90.09062497747734
 20
-141.6819633977392
 30
0.0
 10
90.09062497747734
 20
-141.6819633977392
 30
0.0
 10
89.06260848467878
 20
-141.6819633977392
 30
0.0
 10
89.06260848467878
 20
-141.6819633977392
 30
0.0
 10
89.0943033631431
 20
-141.3243624863703
 30
0.0
 10
89.1599324321371
 20
-141.2461588188551
 30
0.0
 10
89.54492185261377
 20
-140.9478135498325
 30
0.0
 10
89.80089244716785
 20
-140.7490315403336
 30
0.0
 10
89.86634926138759
 20
-140.6813354140484
 30
0.0
 10
89.86634926138759
 20
-140.5438761041869
 30
0.0
 10
89.86634926138759
 20
-140.4253648194943
 30
0.0
 10
89.79451902052012
 20
-140.2941066815063
 30
0.0
 10
89.59780406831235
 20
-140.2941066815063
 30
0.0
 10
89.33752710440172
 20
-140.2941066815063
 30
0.0
 10
89.32908662046287
 20
-140.5247558242438
 30
0.0
 10
89.32478025110631
 20
-140.6412000516452
 30
0.0
 10
89.32478025110631
 20
-140.6412000516452
 30
0.0
 10
89.1006767897908
 20
-140.6412000516452
 30
0.0
 10
89.1006767897908
 20
-140.6412000516452
 30
0.0
 10
89.10911727372967
 20
-140.5142482830138
 30
0.0
 10
89.11962481495967
 20
-140.4021104249689
 30
0.0
 10
89.20006779454025
 20
-140.2835991402763
 30
0.0
 10
89.30996634051973
 20
-140.1228854358894
 30
0.0
 10
89.49617375149749
 20
-140.0889512453597
 30
0.0
 10
89.61261797889894
 20
-140.0889512453597
 30
0.0
 10
89.88977591068728
 20
-140.0889512453597
 30
0.0
 10
90.09699840412507
 20
-140.2730915990463
 30
0.0
 10
90.09699840412507
 20
-140.5459431614781
 30
0.0
 10
90.09699840412507
 20
-140.7743529921502
 30
0.0
 10
89.98072643149788
 20
-140.8739162516738
 30
0.0
 10
89.67187362124523
 20
-141.1002590250548
 30
0.0
  0
HATCH
  5
133
330
12E
100
AcDbEntity
  8
レイヤー 1
 62
   250
420
  2299925
440
 33554687
100
AcDbHatch
 10
0.0
 20
0.0
 30
0.0
210
0.0
220
0.0
230
1.0
  2
SOLID
 70
     1
 71
     1
 91
        1
 92
        1
 93
        1
 72
     4
 94
        3
 73
     0
 74
     0
 95
       44
 96
       40
 40
0.0
 40
0.0
 40
0.0
 40
0.0
 40
1.0
 40
1.0
 40
1.0
 40
2.0
 40
2.0
 40
2.0
 40
3.0
 40
3.0
 40
3.0
 40
4.0
 40
4.0
 40
4.0
 40
5.0
 40
5.0
 40
5.0
 40
6.0
 40
6.0
 40
6.0
 40
7.0
 40
7.0
 40
7.0
 40
8.0
 40
8.0
 40
8.0
 40
9.0
 40
9.0
 40
9.0
 40
10.0
 40
10.0
 40
10.0
 40
11.0
 40
11.0
 40
11.0
 40
12.0
 40
12.0
 40
12.0
 40
13.0
 40
13.0
 40
13.0
 40
13.0
 10
89.67187362124523
 20
-141.1002590250548
 10
89.45397133180318
 20
-141.2589056721505
 10
89.36078149892717
 20
-141.3329752250834
 10
89.31220565258515
 20
-141.4768079615926
 10
89.31220565258515
 20
-141.4768079615926
 10
90.09062497747734
 20
-141.4768079615926
 10
90.09062497747734
 20
-141.4768079615926
 10
90.09062497747734
 20
-141.4768079615926
 10
90.09062497747734
 20
-141.6819633977392
 10
90.09062497747734
 20
-141.6819633977392
 10
90.09062497747734
 20
-141.6819633977392
 10
89.06260848467878
 20
-141.6819633977392
 10
89.06260848467878
 20
-141.6819633977392
 10
89.0943033631431
 20
-141.3243624863703
 10
89.1599324321371
 20
-141.2461588188551
 10
89.54492185261377
 20
-140.9478135498325
 10
89.80089244716785
 20
-140.7490315403336
 10
89.86634926138759
 20
-140.6813354140484
 10
89.86634926138759
 20
-140.5438761041869
 10
89.86634926138759
 20
-140.4253648194943
 10
89.79451902052012
 20
-140.2941066815063
 10
89.59780406831235
 20
-140.2941066815063
 10
89.33752710440172
 20
-140.2941066815063
 10
89.32908662046287
 20
-140.5247558242438
 10
89.32478025110631
 20
-140.6412000516452
 10
89.32478025110631
 20
-140.6412000516452
 10
89.1006767897908
 20
-140.6412000516452
 10
89.1006767897908
 20
-140.6412000516452
 10
89.10911727372967
 20
-140.5142482830138
 10
89.11962481495967
 20
-140.4021104249689
 10
89.20006779454025
 20
-140.2835991402763
 10
89.30996634051973
 20
-140.1228854358894
 10
89.49617375149749
 20
-140.0889512453597
 10
89.61261797889894
 20
-140.0889512453597
 10
89.88977591068728
 20
-140.0889512453597
 10
90.09699840412507
 20
-140.2730915990463
 10
90.09699840412507
 20
-140.5459431614781
 10
90.09699840412507
 20
-140.7743529921502
 10
89.98072643149788
 20
-140.8739162516738
 10
89.67187362124523
 20
-141.1002590250548
 97
        0
 97
        1
330
132
 75
     2
 76
     1
 98
        1
 10
0.0
 20
0.0
450
        0
451
        0
460
0.0
461
0.0
452
        0
462
0.0
453
        0
470

  0
SPLINE
  5
134
330
12E
100
AcDbEntity
  8
レイヤー 1
100
AcDbSpline
210
0.0
220
0.0
230
1.0
 70
    11
 71
     3
 72
    26
 73
    22
 74
     0
 42
0.0000000001
 43
0.0000000001
 40
0.0
 40
0.0
 40
0.0
 40
0.0
 40
1.0
 40
1.0
 40
1.0
 40
2.0
 40
2.0
 40
2.0
 40
3.0
 40
3.0
 40
3.0
 40
4.0
 40
4.0
 40
4.0
 40
5.0
 40
5.0
 40
5.0
 40
6.0
 40
6.0
 40
6.0
 40
7.0
 40
7.0
 40
7.0
 40
7.0
 10
90.70695255978854
 20
-141.6819633977392
 30
0.0
 10
90.70695255978854
 20
-141.6819633977392
 30
0.0
 10
90.70695255978854
 20
-140.5776380399424
 30
0.0
 10
90.70695255978854
 20
-140.5776380399424
 30
0.0
 10
90.70695255978854
 20
-140.5776380399424
 30
0.0
 10
90.37691241230161
 20
-140.5776380399424
 30
0.0
 10
90.37691241230161
 20
-140.5776380399424
 30
0.0
 10
90.37691241230161
 20
-140.5776380399424
 30
0.0
 10
90.37691241230161
 20
-140.4294989340766
 30
0.0
 10
90.37691241230161
 20
-140.4294989340766
 30
0.0
 10
90.70901961707969
 20
-140.4148572782643
 30
0.0
 10
90.75552840613056
 20
-140.251904261812
 30
0.0
 10
90.78515622730371
 20
-140.137699346476
 30
0.0
 10
90.78515622730371
 20
-140.137699346476
 30
0.0
 10
90.93122827587832
 20
-140.137699346476
 30
0.0
 10
90.93122827587832
 20
-140.137699346476
 30
0.0
 10
90.93122827587832
 20
-140.137699346476
 30
0.0
 10
90.93122827587832
 20
-141.6819633977392
 30
0.0
 10
90.93122827587832
 20
-141.6819633977392
 30
0.0
 10
90.93122827587832
 20
-141.6819633977392
 30
0.0
 10
90.70695255978854
 20
-141.6819633977392
 30
0.0
 10
90.70695255978854
 20
-141.6819633977392
 30
0.0
  0
HATCH
  5
135
330
12E
100
AcDbEntity
  8
レイヤー 1
 62
   250
420
  2299925
440
 33554687
100
AcDbHatch
 10
0.0
 20
0.0
 30
0.0
210
0.0
220
0.0
230
1.0
  2
SOLID
 70
     1
 71
     1
 91
        1
 92
        1
 93
        1
 72
     4
 94
        3
 73
     0
 74
     0
 95
       26
 96
       22
 40
0.0
 40
0.0
 40
0.0
 40
0.0
 40
1.0
 40
1.0
 40
1.0
 40
2.0
 40
2.0
 40
2.0
 40
3.0
 40
3.0
 40
3.0
 40
4.0
 40
4.0
 40
4.0
 40
5.0
 40
5.0
 40
5.0
 40
6.0
 40
6.0
 40
6.0
 40
7.0
 40
7.0
 40
7.0
 40
7.0
 10
90.70695255978854
 20
-141.6819633977392
 10
90.70695255978854
 20
-141.6819633977392
 10
90.70695255978854
 20
-140.5776380399424
 10
90.70695255978854
 20
-140.5776380399424
 10
90.70695255978854
 20
-140.5776380399424
 10
90.37691241230161
 20
-140.5776380399424
 10
90.37691241230161
 20
-140.5776380399424
 10
90.37691241230161
 20
-140.5776380399424
 10
90.37691241230161
 20
-140.4294989340766
 10
90.37691241230161
 20
-140.4294989340766
 10
90.70901961707969
 20
-140.4148572782643
 10
90.75552840613056
 20
-140.251904261812
 10
90.78515622730371
 20
-140.137699346476
 10
90.78515622730371
 20
-140.137699346476
 10
90.93122827587832
 20
-140.137699346476
 10
90.93122827587832
 20
-140.137699346476
 10
90.93122827587832
 20
-140.137699346476
 10
90.93122827587832
 20
-141.6819633977392
 10
90.93122827587832
 20
-141.6819633977392
 10
90.93122827587832
 20
-141.6819633977392
 10
90.70695255978854
 20
-141.6819633977392
 10
90.70695255978854
 20
-141.6819633977392
 97
        0
 97
        1
330
134
 75
     2
 76
     1
 98
        1
 10
0.0
 20
0.0
450
        0
451
        0
460
0.0
461
0.0
452
        0
462
0.0
453
        0
470

  0
ENDBLK
  5
131
330
12E
100
AcDbEntity
  8
0
100
AcDbBlockEnd
  0
BLOCK
  5
13A
330
138
100
AcDbEntity
  8
0
100
AcDbBlockBegin
  2
Block_8
 70
     0
 10
0.0
 20
0.0
 30
0.0
  3
Block_8
  1

  0
SPLINE
  5
13C
330
138
100
AcDbEntity
  8
レイヤー 1
100
AcDbSpline
210
0.0
220
0.0
230
1.0
 70
     9
 71
     3
 72
    53
 73
    49
 74
     0
 42
0.0000000001
 43
0.0000000001
 40
0.0
 40
0.0
 40
0.0
 40
0.0
 40
1.0
 40
1.0
 40
1.0
 40
2.0
 40
2.0
 40
2.0
 40
3.0
 40
3.0
 40
3.0
 40
4.0
 40
4.0
 40
4.0
 40
5.0
 40
5.0
 40
5.0
 40
6.0
 40
6.0
 40
6.0
 40
7.0
 40
7.0
 40
7.0
 40
8.0
 40
8.0
 40
8.0
 40
9.0
 40
9.0
 40
9.0
 40
10.0
 40
10.0
 40
10.0
 40
11.0
 40
11.0
 40
11.0
 40
12.0
 40
12.0
 40
12.0
 40
13.0
 40
13.0
 40
13.0
 40
14.0
 40
14.0
 40
14.0
 40
15.0
 40
15.0
 40
15.0
 40
16.0
 40
16.0
 40
16.0
 40
16.0
 10
76.85095077288796
 20
-151.0271294110279
 30
0.0
 10
76.85095077288796
 20
-151.1053330785431
 30
0.0
 10
76.83389755023597
 20
-151.206963395358
 30
0.0
 10
76.77050779330738
 20
-151.3085937121728
 30
0.0
 10
76.66043699255364
 20
-151.4818820150809
 30
0.0
 10
76.52935110933988
 20
-151.5032416070894
 30
0.0
 10
76.42151962065156
 20
-151.5221896322583
 30
0.0
 10
76.42151962065156
 20
-151.5221896322583
 30
0.0
 10
76.42151962065156
 20
-151.2999809734597
 30
0.0
 10
76.42151962065156
 20
-151.2999809734597
 30
0.0
 10
76.62030163015048
 20
-151.2452039552442
 30
0.0
 10
76.64992945132363
 20
-151.1180799318385
 30
0.0
 10
76.64992945132363
 20
-151.0250623537368
 30
0.0
 10
76.64992945132363
 20
-150.8855359865842
 30
0.0
 10
76.55053844657418
 20
-150.7332627661361
 30
0.0
 10
76.31782224654554
 20
-150.7332627661361
 30
0.0
 10
76.06185165199149
 20
-150.7332627661361
 30
0.0
 10
75.99208846841517
 20
-150.9130967504662
 30
0.0
 10
75.99208846841517
 20
-151.0336750924499
 30
0.0
 10
75.99208846841517
 20
-151.0653699709142
 30
0.0
 10
75.99208846841517
 20
-151.206963395358
 30
0.0
 10
76.12110729433777
 20
-151.2958468588774
 30
0.0
 10
76.12110729433777
 20
-151.2958468588774
 30
0.0
 10
76.10198701439465
 20
-151.4715467286252
 30
0.0
 10
76.10198701439465
 20
-151.4715467286252
 30
0.0
 10
76.10198701439465
 20
-151.4715467286252
 30
0.0
 10
75.25587156321728
 20
-151.3509683866414
 30
0.0
 10
75.25587156321728
 20
-151.3509683866414
 30
0.0
 10
75.25587156321728
 20
-151.3509683866414
 30
0.0
 10
75.25587156321728
 20
-150.5723768069749
 30
0.0
 10
75.25587156321728
 20
-150.5723768069749
 30
0.0
 10
75.25587156321728
 20
-150.5723768069749
 30
0.0
 10
75.4505194581339
 20
-150.5723768069749
 30
0.0
 10
75.4505194581339
 20
-150.5723768069749
 30
0.0
 10
75.4505194581339
 20
-150.5723768069749
 30
0.0
 10
75.4505194581339
 20
-151.1880153701891
 30
0.0
 10
75.4505194581339
 20
-151.1880153701891
 30
0.0
 10
75.4505194581339
 20
-151.1880153701891
 30
0.0
 10
75.87357718372259
 20
-151.2534721844088
 30
0.0
 10
75.87357718372259
 20
-151.2534721844088
 30
0.0
 10
75.83964299319287
 20
-151.1921494847714
 30
0.0
 10
75.7995076307897
 20
-151.1098117026739
 30
0.0
 10
75.7995076307897
 20
-150.9913004179813
 30
0.0
 10
75.7995076307897
 20
-150.7373968807184
 30
0.0
 10
75.98571504176746
 20
-150.5003743113332
 30
0.0
 10
76.29870196660241
 20
-150.5003743113332
 30
0.0
 10
76.61616751556818
 20
-150.5003743113332
 30
0.0
 10
76.85095077288796
 20
-150.724650027423
 30
0.0
 10
76.85095077288796
 20
-151.0271294110279
 30
0.0
  0
HATCH
  5
13D
330
138
100
AcDbEntity
  8
レイヤー 1
 62
   250
420
  2299925
440
 33554687
100
AcDbHatch
 10
0.0
 20
0.0
 30
0.0
210
0.0
220
0.0
230
1.0
  2
SOLID
 70
     1
 71
     1
 91
        1
 92
        1
 93
        1
 72
     4
 94
        3
 73
     0
 74
     0
 95
       53
 96
       49
 40
0.0
 40
0.0
 40
0.0
 40
0.0
 40
1.0
 40
1.0
 40
1.0
 40
2.0
 40
2.0
 40
2.0
 40
3.0
 40
3.0
 40
3.0
 40
4.0
 40
4.0
 40
4.0
 40
5.0
 40
5.0
 40
5.0
 40
6.0
 40
6.0
 40
6.0
 40
7.0
 40
7.0
 40
7.0
 40
8.0
 40
8.0
 40
8.0
 40
9.0
 40
9.0
 40
9.0
 40
10.0
 40
10.0
 40
10.0
 40
11.0
 40
11.0
 40
11.0
 40
12.0
 40
12.0
 40
12.0
 40
13.0
 40
13.0
 40
13.0
 40
14.0
 40
14.0
 40
14.0
 40
15.0
 40
15.0
 40
15.0
 40
16.0
 40
16.0
 40
16.0
 40
16.0
 10
76.85095077288796
 20
-151.0271294110279
 10
76.85095077288796
 20
-151.1053330785431
 10
76.83389755023597
 20
-151.206963395358
 10
76.77050779330738
 20
-151.3085937121728
 10
76.66043699255364
 20
-151.4818820150809
 10
76.52935110933988
 20
-151.5032416070894
 10
76.42151962065156
 20
-151.5221896322583
 10
76.42151962065156
 20
-151.5221896322583
 10
76.42151962065156
 20
-151.2999809734597
 10
76.42151962065156
 20
-151.2999809734597
 10
76.62030163015048
 20
-151.2452039552442
 10
76.64992945132363
 20
-151.1180799318385
 10
76.64992945132363
 20
-151.0250623537368
 10
76.64992945132363
 20
-150.8855359865842
 10
76.55053844657418
 20
-150.7332627661361
 10
76.31782224654554
 20
-150.7332627661361
 10
76.06185165199149
 20
-150.7332627661361
 10
75.99208846841517
 20
-150.9130967504662
 10
75.99208846841517
 20
-151.0336750924499
 10
75.99208846841517
 20
-151.0653699709142
 10
75.99208846841517
 20
-151.206963395358
 10
76.12110729433777
 20
-151.2958468588774
 10
76.12110729433777
 20
-151.2958468588774
 10
76.10198701439465
 20
-151.4715467286252
 10
76.10198701439465
 20
-151.4715467286252
 10
76.10198701439465
 20
-151.4715467286252
 10
75.25587156321728
 20
-151.3509683866414
 10
75.25587156321728
 20
-151.3509683866414
 10
75.25587156321728
 20
-151.3509683866414
 10
75.25587156321728
 20
-150.5723768069749
 10
75.25587156321728
 20
-150.5723768069749
 10
75.25587156321728
 20
-150.5723768069749
 10
75.4505194581339
 20
-150.5723768069749
 10
75.4505194581339
 20
-150.5723768069749
 10
75.4505194581339
 20
-150.5723768069749
 10
75.4505194581339
 20
-151.1880153701891
 10
75.4505194581339
 20
-151.1880153701891
 10
75.4505194581339
 20
-151.1880153701891
 10
75.87357718372259
 20
-151.2534721844088
 10
75.87357718372259
 20
-151.2534721844088
 10
75.83964299319287
 20
-151.1921494847714
 10
75.7995076307897
 20
-151.1098117026739
 10
75.7995076307897
 20
-150.9913004179813
 10
75.7995076307897
 20
-150.7373968807184
 10
75.98571504176746
 20
-150.5003743113332
 10
76.29870196660241
 20
-150.5003743113332
 10
76.61616751556818
 20
-150.5003743113332
 10
76.85095077288796
 20
-150.724650027423
 10
76.85095077288796
 20
-151.0271294110279
 97
        0
 97
        1
330
13C
 75
     2
 76
     1
 98
        1
 10
0.0
 20
0.0
450
        0
451
        0
460
0.0
461
0.0
452
        0
462
0.0
453
        0
470

  0
ENDBLK
  5
13B
330
138
100
AcDbEntity
  8
0
100
AcDbBlockEnd
  0
BLOCK
  5
142
330
140
100
AcDbEntity
  8
0
100
AcDbBlockBegin
  2
Block_9
 70
     0
 10
0.0
 20
0.0
 30
0.0
  3
Block_9
  1

  0
INSERT
  5
145
330
140
100
AcDbEntity
  8
レイヤー 1
100
AcDbBlockReference
  2
Block_10
 10
0.0
 20
0.0
 30
0.0
  0
ENDBLK
  5
143
330
140
100
AcDbEntity
  8
0
100
AcDbBlockEnd
  0
BLOCK
  5
146
330
144
100
AcDbEntity
  8
0
100
AcDbBlockBegin
  2
Block_10
 70
     0
 10
0.0
 20
0.0
 30
0.0
  3
Block_10
  1

  0
SPLINE
  5
148
330
144
100
AcDbEntity
  8
レイヤー 1
100
AcDbSpline
210
0.0
220
0.0
230
1.0
 70
     9
 71
     3
 72
    44
 73
    40
 74
     0
 42
0.0000000001
 43
0.0000000001
 40
0.0
 40
0.0
 40
0.0
 40
0.0
 40
1.0
 40
1.0
 40
1.0
 40
2.0
 40
2.0
 40
2.0
 40
3.0
 40
3.0
 40
3.0
 40
4.0
 40
4.0
 40
4.0
 40
5.0
 40
5.0
 40
5.0
 40
6.0
 40
6.0
 40
6.0
 40
7.0
 40
7.0
 40
7.0
 40
8.0
 40
8.0
 40
8.0
 40
9.0
 40
9.0
 40
9.0
 40
10.0
 40
10.0
 40
10.0
 40
11.0
 40
11.0
 40
11.0
 40
12.0
 40
12.0
 40
12.0
 40
13.0
 40
13.0
 40
13.0
 40
13.0
 10
120.6730821095886
 20
-141.1002590250548
 30
0.0
 10
120.4553520749209
 20
-141.2589056721505
 30
0.0
 10
120.3623344968191
 20
-141.3329752250834
 30
0.0
 10
120.3134141409286
 20
-141.4768079615926
 30
0.0
 10
120.3134141409286
 20
-141.4768079615926
 30
0.0
 10
121.092005720595
 20
-141.4768079615926
 30
0.0
 10
121.092005720595
 20
-141.4768079615926
 30
0.0
 10
121.092005720595
 20
-141.4768079615926
 30
0.0
 10
121.092005720595
 20
-141.6819633977392
 30
0.0
 10
121.092005720595
 20
-141.6819633977392
 30
0.0
 10
121.092005720595
 20
-141.6819633977392
 30
0.0
 10
120.0639892277965
 20
-141.6819633977392
 30
0.0
 10
120.0639892277965
 20
-141.6819633977392
 30
0.0
 10
120.0956841062608
 20
-141.3243624863703
 30
0.0
 10
120.1611409204805
 20
-141.2461588188551
 30
0.0
 10
120.5463025957315
 20
-140.9478135498325
 30
0.0
 10
120.8022731902855
 20
-140.7490315403336
 30
0.0
 10
120.8677300045053
 20
-140.6813354140484
 30
0.0
 10
120.8677300045053
 20
-140.5438761041869
 30
0.0
 10
120.8677300045053
 20
-140.4253648194943
 30
0.0
 10
120.7957275088636
 20
-140.2941066815063
 30
0.0
 10
120.5990125566558
 20
-140.2941066815063
 30
0.0
 10
120.3389078475194
 20
-140.2941066815063
 30
0.0
 10
120.3306396183548
 20
-140.5247558242438
 30
0.0
 10
120.326160994224
 20
-140.6412000516452
 30
0.0
 10
120.326160994224
 20
-140.6412000516452
 30
0.0
 10
120.1018852781342
 20
-140.6412000516452
 30
0.0
 10
120.1018852781342
 20
-140.6412000516452
 30
0.0
 10
120.1104980168474
 20
-140.5142482830138
 30
0.0
 10
120.1211778128516
 20
-140.4021104249689
 30
0.0
 10
120.2014485376579
 20
-140.2835991402763
 30
0.0
 10
120.3113470836374
 20
-140.1228854358894
 30
0.0
 10
120.4977267493894
 20
-140.0889512453597
 30
0.0
 10
120.6138264672423
 20
-140.0889512453597
 30
0.0
 10
120.891156653805
 20
-140.0889512453597
 30
0.0
 10
121.098551402017
 20
-140.2730915990463
 30
0.0
 10
121.098551402017
 20
-140.5459431614781
 30
0.0
 10
121.098551402017
 20
-140.7743529921502
 30
0.0
 10
120.9821071746156
 20
-140.8739162516738
 30
0.0
 10
120.6730821095886
 20
-141.1002590250548
 30
0.0
  0
HATCH
  5
149
330
144
100
AcDbEntity
  8
レイヤー 1
 62
   250
420
  2299925
440
 33554687
100
AcDbHatch
 10
0.0
 20
0.0
 30
0.0
210
0.0
220
0.0
230
1.0
  2
SOLID
 70
     1
 71
     1
 91
        1
 92
        1
 93
        1
 72
     4
 94
        3
 73
     0
 74
     0
 95
       44
 96
       40
 40
0.0
 40
0.0
 40
0.0
 40
0.0
 40
1.0
 40
1.0
 40
1.0
 40
2.0
 40
2.0
 40
2.0
 40
3.0
 40
3.0
 40
3.0
 40
4.0
 40
4.0
 40
4.0
 40
5.0
 40
5.0
 40
5.0
 40
6.0
 40
6.0
 40
6.0
 40
7.0
 40
7.0
 40
7.0
 40
8.0
 40
8.0
 40
8.0
 40
9.0
 40
9.0
 40
9.0
 40
10.0
 40
10.0
 40
10.0
 40
11.0
 40
11.0
 40
11.0
 40
12.0
 40
12.0
 40
12.0
 40
13.0
 40
13.0
 40
13.0
 40
13.0
 10
120.6730821095886
 20
-141.1002590250548
 10
120.4553520749209
 20
-141.2589056721505
 10
120.3623344968191
 20
-141.3329752250834
 10
120.3134141409286
 20
-141.4768079615926
 10
120.3134141409286
 20
-141.4768079615926
 10
121.092005720595
 20
-141.4768079615926
 10
121.092005720595
 20
-141.4768079615926
 10
121.092005720595
 20
-141.4768079615926
 10
121.092005720595
 20
-141.6819633977392
 10
121.092005720595
 20
-141.6819633977392
 10
121.092005720595
 20
-141.6819633977392
 10
120.0639892277965
 20
-141.6819633977392
 10
120.0639892277965
 20
-141.6819633977392
 10
120.0956841062608
 20
-141.3243624863703
 10
120.1611409204805
 20
-141.2461588188551
 10
120.5463025957315
 20
-140.9478135498325
 10
120.8022731902855
 20
-140.7490315403336
 10
120.8677300045053
 20
-140.6813354140484
 10
120.8677300045053
 20
-140.5438761041869
 10
120.8677300045053
 20
-140.4253648194943
 10
120.7957275088636
 20
-140.2941066815063
 10
120.5990125566558
 20
-140.2941066815063
 10
120.3389078475194
 20
-140.2941066815063
 10
120.3306396183548
 20
-140.5247558242438
 10
120.326160994224
 20
-140.6412000516452
 10
120.326160994224
 20
-140.6412000516452
 10
120.1018852781342
 20
-140.6412000516452
 10
120.1018852781342
 20
-140.6412000516452
 10
120.1104980168474
 20
-140.5142482830138
 10
120.1211778128516
 20
-140.4021104249689
 10
120.2014485376579
 20
-140.2835991402763
 10
120.3113470836374
 20
-140.1228854358894
 10
120.4977267493894
 20
-140.0889512453597
 10
120.6138264672423
 20
-140.0889512453597
 10
120.891156653805
 20
-140.0889512453597
 10
121.098551402017
 20
-140.2730915990463
 10
121.098551402017
 20
-140.5459431614781
 10
121.098551402017
 20
-140.7743529921502
 10
120.9821071746156
 20
-140.8739162516738
 10
120.6730821095886
 20
-141.1002590250548
 97
        0
 97
        1
330
148
 75
     2
 76
     1
 98
        1
 10
0.0
 20
0.0
450
        0
451
        0
460
0.0
461
0.0
452
        0
462
0.0
453
        0
470

  0
SPLINE
  5
14A
330
144
100
AcDbEntity
  8
レイヤー 1
100
AcDbSpline
210
0.0
220
0.0
230
1.0
 70
    11
 71
     3
 72
    26
 73
    22
 74
     0
 42
0.0000000001
 43
0.0000000001
 40
0.0
 40
0.0
 40
0.0
 40
0.0
 40
1.0
 40
1.0
 40
1.0
 40
2.0
 40
2.0
 40
2.0
 40
3.0
 40
3.0
 40
3.0
 40
4.0
 40
4.0
 40
4.0
 40
5.0
 40
5.0
 40
5.0
 40
6.0
 40
6.0
 40
6.0
 40
7.0
 40
7.0
 40
7.0
 40
7.0
 10
121.7083333029062
 20
-141.6819633977392
 30
0.0
 10
121.7083333029062
 20
-141.6819633977392
 30
0.0
 10
121.7083333029062
 20
-140.5776380399424
 30
0.0
 10
121.7083333029062
 20
-140.5776380399424
 30
0.0
 10
121.7083333029062
 20
-140.5776380399424
 30
0.0
 10
121.3782931554193
 20
-140.5776380399424
 30
0.0
 10
121.3782931554193
 20
-140.5776380399424
 30
0.0
 10
121.3782931554193
 20
-140.5776380399424
 30
0.0
 10
121.3782931554193
 20
-140.4294989340766
 30
0.0
 10
121.3782931554193
 20
-140.4294989340766
 30
0.0
 10
121.7104003601974
 20
-140.4148572782643
 30
0.0
 10
121.7569091492483
 20
-140.251904261812
 30
0.0
 10
121.7865369704214
 20
-140.137699346476
 30
0.0
 10
121.7865369704214
 20
-140.137699346476
 30
0.0
 10
121.932609018996
 20
-140.137699346476
 30
0.0
 10
121.932609018996
 20
-140.137699346476
 30
0.0
 10
121.932609018996
 20
-140.137699346476
 30
0.0
 10
121.932609018996
 20
-141.6819633977392
 30
0.0
 10
121.932609018996
 20
-141.6819633977392
 30
0.0
 10
121.932609018996
 20
-141.6819633977392
 30
0.0
 10
121.7083333029062
 20
-141.6819633977392
 30
0.0
 10
121.7083333029062
 20
-141.6819633977392
 30
0.0
  0
HATCH
  5
14B
330
144
100
AcDbEntity
  8
レイヤー 1
 62
   250
420
  2299925
440
 33554687
100
AcDbHatch
 10
0.0
 20
0.0
 30
0.0
210
0.0
220
0.0
230
1.0
  2
SOLID
 70
     1
 71
     1
 91
        1
 92
        1
 93
        1
 72
     4
 94
        3
 73
     0
 74
     0
 95
       26
 96
       22
 40
0.0
 40
0.0
 40
0.0
 40
0.0
 40
1.0
 40
1.0
 40
1.0
 40
2.0
 40
2.0
 40
2.0
 40
3.0
 40
3.0
 40
3.0
 40
4.0
 40
4.0
 40
4.0
 40
5.0
 40
5.0
 40
5.0
 40
6.0
 40
6.0
 40
6.0
 40
7.0
 40
7.0
 40
7.0
 40
7.0
 10
121.7083333029062
 20
-141.6819633977392
 10
121.7083333029062
 20
-141.6819633977392
 10
121.7083333029062
 20
-140.5776380399424
 10
121.7083333029062
 20
-140.5776380399424
 10
121.7083333029062
 20
-140.5776380399424
 10
121.3782931554193
 20
-140.5776380399424
 10
121.3782931554193
 20
-140.5776380399424
 10
121.3782931554193
 20
-140.5776380399424
 10
121.3782931554193
 20
-140.4294989340766
 10
121.3782931554193
 20
-140.4294989340766
 10
121.7104003601974
 20
-140.4148572782643
 10
121.7569091492483
 20
-140.251904261812
 10
121.7865369704214
 20
-140.137699346476
 10
121.7865369704214
 20
-140.137699346476
 10
121.932609018996
 20
-140.137699346476
 10
121.932609018996
 20
-140.137699346476
 10
121.932609018996
 20
-140.137699346476
 10
121.932609018996
 20
-141.6819633977392
 10
121.932609018996
 20
-141.6819633977392
 10
121.932609018996
 20
-141.6819633977392
 10
121.7083333029062
 20
-141.6819633977392
 10
121.7083333029062
 20
-141.6819633977392
 97
        0
 97
        1
330
14A
 75
     2
 76
     1
 98
        1
 10
0.0
 20
0.0
450
        0
451
        0
460
0.0
461
0.0
452
        0
462
0.0
453
        0
470

  0
ENDBLK
  5
147
330
144
100
AcDbEntity
  8
0
100
AcDbBlockEnd
  0
BLOCK
  5
151
330
14F
100
AcDbEntity
  8
0
100
AcDbBlockBegin
  2
Block_11
 70
     0
 10
0.0
 20
0.0
 30
0.0
  3
Block_11
  1

  0
INSERT
  5
154
330
14F
100
AcDbEntity
  8
レイヤー 1
100
AcDbBlockReference
  2
Block_12
 10
0.0
 20
0.0
 30
0.0
  0
ENDBLK
  5
152
330
14F
100
AcDbEntity
  8
0
100
AcDbBlockEnd
  0
BLOCK
  5
155
330
153
100
AcDbEntity
  8
0
100
AcDbBlockBegin
  2
Block_12
 70
     0
 10
0.0
 20
0.0
 30
0.0
  3
Block_12
  1

  0
SPLINE
  5
157
330
153
100
AcDbEntity
  8
レイヤー 1
100
AcDbSpline
210
0.0
220
0.0
230
1.0
 70
    11
 71
     3
 72
    26
 73
    22
 74
     0
 42
0.0000000001
 43
0.0000000001
 40
0.0
 40
0.0
 40
0.0
 40
0.0
 40
1.0
 40
1.0
 40
1.0
 40
2.0
 40
2.0
 40
2.0
 40
3.0
 40
3.0
 40
3.0
 40
4.0
 40
4.0
 40
4.0
 40
5.0
 40
5.0
 40
5.0
 40
6.0
 40
6.0
 40
6.0
 40
7.0
 40
7.0
 40
7.0
 40
7.0
 10
105.030798313586
 20
-141.6819633977392
 30
0.0
 10
105.030798313586
 20
-141.6819633977392
 30
0.0
 10
105.030798313586
 20
-140.5776380399424
 30
0.0
 10
105.030798313586
 20
-140.5776380399424
 30
0.0
 10
105.030798313586
 20
-140.5776380399424
 30
0.0
 10
104.7007581660991
 20
-140.5776380399424
 30
0.0
 10
104.7007581660991
 20
-140.5776380399424
 30
0.0
 10
104.7007581660991
 20
-140.5776380399424
 30
0.0
 10
104.7007581660991
 20
-140.4294989340766
 30
0.0
 10
104.7007581660991
 20
-140.4294989340766
 30
0.0
 10
105.0328653708772
 20
-140.4148572782643
 30
0.0
 10
105.079374159928
 20
-140.251904261812
 30
0.0
 10
105.1090019811012
 20
-140.137699346476
 30
0.0
 10
105.1090019811012
 20
-140.137699346476
 30
0.0
 10
105.2550740296758
 20
-140.137699346476
 30
0.0
 10
105.2550740296758
 20
-140.137699346476
 30
0.0
 10
105.2550740296758
 20
-140.137699346476
 30
0.0
 10
105.2550740296758
 20
-141.6819633977392
 30
0.0
 10
105.2550740296758
 20
-141.6819633977392
 30
0.0
 10
105.2550740296758
 20
-141.6819633977392
 30
0.0
 10
105.030798313586
 20
-141.6819633977392
 30
0.0
 10
105.030798313586
 20
-141.6819633977392
 30
0.0
  0
HATCH
  5
158
330
153
100
AcDbEntity
  8
レイヤー 1
 62
   250
420
  2299925
440
 33554687
100
AcDbHatch
 10
0.0
 20
0.0
 30
0.0
210
0.0
220
0.0
230
1.0
  2
SOLID
 70
     1
 71
     1
 91
        1
 92
        1
 93
        1
 72
     4
 94
        3
 73
     0
 74
     0
 95
       26
 96
       22
 40
0.0
 40
0.0
 40
0.0
 40
0.0
 40
1.0
 40
1.0
 40
1.0
 40
2.0
 40
2.0
 40
2.0
 40
3.0
 40
3.0
 40
3.0
 40
4.0
 40
4.0
 40
4.0
 40
5.0
 40
5.0
 40
5.0
 40
6.0
 40
6.0
 40
6.0
 40
7.0
 40
7.0
 40
7.0
 40
7.0
 10
105.030798313586
 20
-141.6819633977392
 10
105.030798313586
 20
-141.6819633977392
 10
105.030798313586
 20
-140.5776380399424
 10
105.030798313586
 20
-140.5776380399424
 10
105.030798313586
 20
-140.5776380399424
 10
104.7007581660991
 20
-140.5776380399424
 10
104.7007581660991
 20
-140.5776380399424
 10
104.7007581660991
 20
-140.5776380399424
 10
104.7007581660991
 20
-140.4294989340766
 10
104.7007581660991
 20
-140.4294989340766
 10
105.0328653708772
 20
-140.4148572782643
 10
105.079374159928
 20
-140.251904261812
 10
105.1090019811012
 20
-140.137699346476
 10
105.1090019811012
 20
-140.137699346476
 10
105.2550740296758
 20
-140.137699346476
 10
105.2550740296758
 20
-140.137699346476
 10
105.2550740296758
 20
-140.137699346476
 10
105.2550740296758
 20
-141.6819633977392
 10
105.2550740296758
 20
-141.6819633977392
 10
105.2550740296758
 20
-141.6819633977392
 10
105.030798313586
 20
-141.6819633977392
 10
105.030798313586
 20
-141.6819633977392
 97
        0
 97
        1
330
157
 75
     2
 76
     1
 98
        1
 10
0.0
 20
0.0
450
        0
451
        0
460
0.0
461
0.0
452
        0
462
0.0
453
        0
470

  0
SPLINE
  5
159
330
153
100
AcDbEntity
  8
レイヤー 1
100
AcDbSpline
210
0.0
220
0.0
230
1.0
 70
     9
 71
     3
 72
    17
 73
    13
 74
     0
 42
0.0000000001
 43
0.0000000001
 40
0.0
 40
0.0
 40
0.0
 40
0.0
 40
1.0
 40
1.0
 40
1.0
 40
2.0
 40
2.0
 40
2.0
 40
3.0
 40
3.0
 40
3.0
 40
4.0
 40
4.0
 40
4.0
 40
4.0
 10
106.2563910324637
 20
-140.2815320829851
 30
0.0
 10
106.006621609783
 20
-140.2815320829851
 30
0.0
 10
105.9601128207322
 20
-140.5648911866469
 30
0.0
 10
105.9601128207322
 20
-140.9097452447205
 30
0.0
 10
105.9601128207322
 20
-141.2292778509774
 30
0.0
 10
105.9962863233273
 20
-141.53813066123
 30
0.0
 10
106.2563910324637
 20
-141.53813066123
 30
0.0
 10
106.5040933978531
 20
-141.53813066123
 30
0.0
 10
106.5526692441951
 20
-141.2566663600851
 30
0.0
 10
106.5526692441951
 20
-140.9097452447205
 30
0.0
 10
106.5526692441951
 20
-140.5903848932378
 30
0.0
 10
106.5144286843089
 20
-140.2815320829851
 30
0.0
 10
106.2563910324637
 20
-140.2815320829851
 30
0.0
  0
SPLINE
  5
15A
330
153
100
AcDbEntity
  8
レイヤー 1
100
AcDbSpline
210
0.0
220
0.0
230
1.0
 70
     9
 71
     3
 72
    29
 73
    25
 74
     0
 42
0.0000000001
 43
0.0000000001
 40
0.0
 40
0.0
 40
0.0
 40
0.0
 40
1.0
 40
1.0
 40
1.0
 40
2.0
 40
2.0
 40
2.0
 40
3.0
 40
3.0
 40
3.0
 40
4.0
 40
4.0
 40
4.0
 40
5.0
 40
5.0
 40
5.0
 40
6.0
 40
6.0
 40
6.0
 40
7.0
 40
7.0
 40
7.0
 40
8.0
 40
8.0
 40
8.0
 40
8.0
 10
106.65429956101
 20
-141.5041964707003
 30
0.0
 10
106.5461235627732
 20
-141.7136582762035
 30
0.0
 10
106.3728352598651
 20
-141.7327785561466
 30
0.0
 10
106.2563910324637
 20
-141.7327785561466
 30
0.0
 10
106.0955050733025
 20
-141.7327785561466
 30
0.0
 10
105.9539116488587
 20
-141.6862697670958
 30
0.0
 10
105.8588270134658
 20
-141.5041964707003
 30
0.0
 10
105.7551296393598
 20
-141.309720830558
 30
0.0
 10
105.7358371046424
 20
-141.0726982611728
 30
0.0
 10
105.7358371046424
 20
-140.9097452447205
 30
0.0
 10
105.7358371046424
 20
-140.7659125082113
 30
0.0
 10
105.7530625820687
 20
-140.5142482830138
 30
0.0
 10
105.8588270134658
 20
-140.3152940187406
 30
0.0
 10
105.9666585021542
 20
-140.1122056398851
 30
0.0
 10
106.1275444613153
 20
-140.0889512453597
 30
0.0
 10
106.2563910324637
 20
-140.0889512453597
 30
0.0
 10
106.4152099343337
 20
-140.0889512453597
 30
0.0
 10
106.5588704160686
 20
-140.1333929771194
 30
0.0
 10
106.65429956101
 20
-140.3152940187406
 30
0.0
 10
106.7535183109852
 20
-140.5078748563661
 30
0.0
 10
106.7769449602849
 20
-140.7362846870381
 30
0.0
 10
106.7769449602849
 20
-140.9097452447205
 30
0.0
 10
106.7769449602849
 20
-141.0811387451117
 30
0.0
 10
106.7555853682764
 20
-141.3117878878491
 30
0.0
 10
106.65429956101
 20
-141.5041964707003
 30
0.0
  0
HATCH
  5
15B
330
153
100
AcDbEntity
  8
レイヤー 1
 62
   250
420
  2299925
440
 33554687
100
AcDbHatch
 10
0.0
 20
0.0
 30
0.0
210
0.0
220
0.0
230
1.0
  2
SOLID
 70
     1
 71
     1
 91
        2
 92
        1
 93
        1
 72
     4
 94
        3
 73
     0
 74
     0
 95
       17
 96
       13
 40
0.0
 40
0.0
 40
0.0
 40
0.0
 40
1.0
 40
1.0
 40
1.0
 40
2.0
 40
2.0
 40
2.0
 40
3.0
 40
3.0
 40
3.0
 40
4.0
 40
4.0
 40
4.0
 40
4.0
 10
106.2563910324637
 20
-140.2815320829851
 10
106.006621609783
 20
-140.2815320829851
 10
105.9601128207322
 20
-140.5648911866469
 10
105.9601128207322
 20
-140.9097452447205
 10
105.9601128207322
 20
-141.2292778509774
 10
105.9962863233273
 20
-141.53813066123
 10
106.2563910324637
 20
-141.53813066123
 10
106.5040933978531
 20
-141.53813066123
 10
106.5526692441951
 20
-141.2566663600851
 10
106.5526692441951
 20
-140.9097452447205
 10
106.5526692441951
 20
-140.5903848932378
 10
106.5144286843089
 20
-140.2815320829851
 10
106.2563910324637
 20
-140.2815320829851
 97
        0
 97
        1
330
159
 92
        1
 93
        1
 72
     4
 94
        3
 73
     0
 74
     0
 95
       29
 96
       25
 40
0.0
 40
0.0
 40
0.0
 40
0.0
 40
1.0
 40
1.0
 40
1.0
 40
2.0
 40
2.0
 40
2.0
 40
3.0
 40
3.0
 40
3.0
 40
4.0
 40
4.0
 40
4.0
 40
5.0
 40
5.0
 40
5.0
 40
6.0
 40
6.0
 40
6.0
 40
7.0
 40
7.0
 40
7.0
 40
8.0
 40
8.0
 40
8.0
 40
8.0
 10
106.65429956101
 20
-141.5041964707003
 10
106.5461235627732
 20
-141.7136582762035
 10
106.3728352598651
 20
-141.7327785561466
 10
106.2563910324637
 20
-141.7327785561466
 10
106.0955050733025
 20
-141.7327785561466
 10
105.9539116488587
 20
-141.6862697670958
 10
105.8588270134658
 20
-141.5041964707003
 10
105.7551296393598
 20
-141.309720830558
 10
105.7358371046424
 20
-141.0726982611728
 10
105.7358371046424
 20
-140.9097452447205
 10
105.7358371046424
 20
-140.7659125082113
 10
105.7530625820687
 20
-140.5142482830138
 10
105.8588270134658
 20
-140.3152940187406
 10
105.9666585021542
 20
-140.1122056398851
 10
106.1275444613153
 20
-140.0889512453597
 10
106.2563910324637
 20
-140.0889512453597
 10
106.4152099343337
 20
-140.0889512453597
 10
106.5588704160686
 20
-140.1333929771194
 10
106.65429956101
 20
-140.3152940187406
 10
106.7535183109852
 20
-140.5078748563661
 10
106.7769449602849
 20
-140.7362846870381
 10
106.7769449602849
 20
-140.9097452447205
 10
106.7769449602849
 20
-141.0811387451117
 10
106.7555853682764
 20
-141.3117878878491
 10
106.65429956101
 20
-141.5041964707003
 97
        0
 97
        1
330
15A
 75
     2
 76
     1
 98
        1
 10
0.0
 20
0.0
450
        0
451
        0
460
0.0
461
0.0
452
        0
462
0.0
453
        0
470

  0
ENDBLK
  5
156
330
153
100
AcDbEntity
  8
0
100
AcDbBlockEnd
  0
BLOCK
  5
163
330
161
100
AcDbEntity
  8
0
100
AcDbBlockBegin
  2
Block_13
 70
     0
 10
0.0
 20
0.0
 30
0.0
  3
Block_13
  1

  0
INSERT
  5
166
330
161
100
AcDbEntity
  8
レイヤー 1
100
AcDbBlockReference
  2
Block_14
 10
0.0
 20
0.0
 30
0.0
  0
ENDBLK
  5
164
330
161
100
AcDbEntity
  8
0
100
AcDbBlockEnd
  0
BLOCK
  5
167
330
165
100
AcDbEntity
  8
0
100
AcDbBlockBegin
  2
Block_14
 70
     0
 10
0.0
 20
0.0
 30
0.0
  3
Block_14
  1

  0
SPLINE
  5
169
330
165
100
AcDbEntity
  8
レイヤー 1
100
AcDbSpline
210
0.0
220
0.0
230
1.0
 70
    11
 71
     3
 72
    26
 73
    22
 74
     0
 42
0.0000000001
 43
0.0000000001
 40
0.0
 40
0.0
 40
0.0
 40
0.0
 40
1.0
 40
1.0
 40
1.0
 40
2.0
 40
2.0
 40
2.0
 40
3.0
 40
3.0
 40
3.0
 40
4.0
 40
4.0
 40
4.0
 40
5.0
 40
5.0
 40
5.0
 40
6.0
 40
6.0
 40
6.0
 40
7.0
 40
7.0
 40
7.0
 40
7.0
 10
105.347747098229
 20
-156.0573133290412
 30
0.0
 10
105.347747098229
 20
-156.0573133290412
 30
0.0
 10
105.347747098229
 20
-154.9531602260186
 30
0.0
 10
105.347747098229
 20
-154.9531602260186
 30
0.0
 10
105.347747098229
 20
-154.9531602260186
 30
0.0
 10
105.0177069507421
 20
-154.9531602260186
 30
0.0
 10
105.0177069507421
 20
-154.9531602260186
 30
0.0
 10
105.0177069507421
 20
-154.9531602260186
 30
0.0
 10
105.0177069507421
 20
-154.8050211201529
 30
0.0
 10
105.0177069507421
 20
-154.8050211201529
 30
0.0
 10
105.3498141555202
 20
-154.7902072095663
 30
0.0
 10
105.396322944571
 20
-154.627254193114
 30
0.0
 10
105.4259507657442
 20
-154.5128770230037
 30
0.0
 10
105.4259507657442
 20
-154.5128770230037
 30
0.0
 10
105.572195069093
 20
-154.5128770230037
 30
0.0
 10
105.572195069093
 20
-154.5128770230037
 30
0.0
 10
105.572195069093
 20
-154.5128770230037
 30
0.0
 10
105.572195069093
 20
-156.0573133290412
 30
0.0
 10
105.572195069093
 20
-156.0573133290412
 30
0.0
 10
105.572195069093
 20
-156.0573133290412
 30
0.0
 10
105.347747098229
 20
-156.0573133290412
 30
0.0
 10
105.347747098229
 20
-156.0573133290412
 30
0.0
  0
HATCH
  5
16A
330
165
100
AcDbEntity
  8
レイヤー 1
 62
   250
420
  2299925
440
 33554687
100
AcDbHatch
 10
0.0
 20
0.0
 30
0.0
210
0.0
220
0.0
230
1.0
  2
SOLID
 70
     1
 71
     1
 91
        1
 92
        1
 93
        1
 72
     4
 94
        3
 73
     0
 74
     0
 95
       26
 96
       22
 40
0.0
 40
0.0
 40
0.0
 40
0.0
 40
1.0
 40
1.0
 40
1.0
 40
2.0
 40
2.0
 40
2.0
 40
3.0
 40
3.0
 40
3.0
 40
4.0
 40
4.0
 40
4.0
 40
5.0
 40
5.0
 40
5.0
 40
6.0
 40
6.0
 40
6.0
 40
7.0
 40
7.0
 40
7.0
 40
7.0
 10
105.347747098229
 20
-156.0573133290412
 10
105.347747098229
 20
-156.0573133290412
 10
105.347747098229
 20
-154.9531602260186
 10
105.347747098229
 20
-154.9531602260186
 10
105.347747098229
 20
-154.9531602260186
 10
105.0177069507421
 20
-154.9531602260186
 10
105.0177069507421
 20
-154.9531602260186
 10
105.0177069507421
 20
-154.9531602260186
 10
105.0177069507421
 20
-154.8050211201529
 10
105.0177069507421
 20
-154.8050211201529
 10
105.3498141555202
 20
-154.7902072095663
 10
105.396322944571
 20
-154.627254193114
 10
105.4259507657442
 20
-154.5128770230037
 10
105.4259507657442
 20
-154.5128770230037
 10
105.572195069093
 20
-154.5128770230037
 10
105.572195069093
 20
-154.5128770230037
 10
105.572195069093
 20
-154.5128770230037
 10
105.572195069093
 20
-156.0573133290412
 10
105.572195069093
 20
-156.0573133290412
 10
105.572195069093
 20
-156.0573133290412
 10
105.347747098229
 20
-156.0573133290412
 10
105.347747098229
 20
-156.0573133290412
 97
        0
 97
        1
330
169
 75
     2
 76
     1
 98
        1
 10
0.0
 20
0.0
450
        0
451
        0
460
0.0
461
0.0
452
        0
462
0.0
453
        0
470

  0
SPLINE
  5
16B
330
165
100
AcDbEntity
  8
レイヤー 1
100
AcDbSpline
210
0.0
220
0.0
230
1.0
 70
     9
 71
     3
 72
    44
 73
    40
 74
     0
 42
0.0000000001
 43
0.0000000001
 40
0.0
 40
0.0
 40
0.0
 40
0.0
 40
1.0
 40
1.0
 40
1.0
 40
2.0
 40
2.0
 40
2.0
 40
3.0
 40
3.0
 40
3.0
 40
4.0
 40
4.0
 40
4.0
 40
5.0
 40
5.0
 40
5.0
 40
6.0
 40
6.0
 40
6.0
 40
7.0
 40
7.0
 40
7.0
 40
8.0
 40
8.0
 40
8.0
 40
9.0
 40
9.0
 40
9.0
 40
10.0
 40
10.0
 40
10.0
 40
11.0
 40
11.0
 40
11.0
 40
12.0
 40
12.0
 40
12.0
 40
13.0
 40
13.0
 40
13.0
 40
13.0
 10
106.6663573952084
 20
-155.4754367015825
 30
0.0
 10
106.4486273605406
 20
-155.6342556034525
 30
0.0
 10
106.3556097824388
 20
-155.7083251563854
 30
0.0
 10
106.3066894265483
 20
-155.8519856381203
 30
0.0
 10
106.3066894265483
 20
-155.8519856381203
 30
0.0
 10
107.0852810062148
 20
-155.8519856381203
 30
0.0
 10
107.0852810062148
 20
-155.8519856381203
 30
0.0
 10
107.0852810062148
 20
-155.8519856381203
 30
0.0
 10
107.0852810062148
 20
-156.0573133290412
 30
0.0
 10
107.0852810062148
 20
-156.0573133290412
 30
0.0
 10
107.0852810062148
 20
-156.0573133290412
 30
0.0
 10
106.0572645134162
 20
-156.0573133290412
 30
0.0
 10
106.0572645134162
 20
-156.0573133290412
 30
0.0
 10
106.0889593918805
 20
-155.6997124176723
 30
0.0
 10
106.1544162061003
 20
-155.6215087501571
 30
0.0
 10
106.5395778813512
 20
-155.3231634811345
 30
0.0
 10
106.7955484759053
 20
-155.1243814716356
 30
0.0
 10
106.861005290125
 20
-155.0565130905761
 30
0.0
 10
106.861005290125
 20
-154.9190537807147
 30
0.0
 10
106.861005290125
 20
-154.8005424960221
 30
0.0
 10
106.7890027944833
 20
-154.6696288675826
 30
0.0
 10
106.5922878422755
 20
-154.6696288675826
 30
0.0
 10
106.3321831331392
 20
-154.6696288675826
 30
0.0
 10
106.323570394426
 20
-154.9001057555458
 30
0.0
 10
106.3194362798437
 20
-155.0165499829472
 30
0.0
 10
106.3194362798437
 20
-155.0165499829472
 30
0.0
 10
106.095160563754
 20
-155.0165499829472
 30
0.0
 10
106.095160563754
 20
-155.0165499829472
 30
0.0
 10
106.1037733024671
 20
-154.8894259595415
 30
0.0
 10
106.1144530984714
 20
-154.7774603562709
 30
0.0
 10
106.1947238232777
 20
-154.6589490715783
 30
0.0
 10
106.3046223692572
 20
-154.4980631124171
 30
0.0
 10
106.4910020350092
 20
-154.4643011766617
 30
0.0
 10
106.6071017528621
 20
-154.4643011766617
 30
0.0
 10
106.8844319394247
 20
-154.4643011766617
 30
0.0
 10
107.0918266876367
 20
-154.648269275574
 30
0.0
 10
107.0918266876367
 20
-154.9211208380058
 30
0.0
 10
107.0918266876367
 20
-155.1498751782264
 30
0.0
 10
106.9753824602353
 20
-155.2490939282016
 30
0.0
 10
106.6663573952084
 20
-155.4754367015825
 30
0.0
  0
HATCH
  5
16C
330
165
100
AcDbEntity
  8
レイヤー 1
 62
   250
420
  2299925
440
 33554687
100
AcDbHatch
 10
0.0
 20
0.0
 30
0.0
210
0.0
220
0.0
230
1.0
  2
SOLID
 70
     1
 71
     1
 91
        1
 92
        1
 93
        1
 72
     4
 94
        3
 73
     0
 74
     0
 95
       44
 96
       40
 40
0.0
 40
0.0
 40
0.0
 40
0.0
 40
1.0
 40
1.0
 40
1.0
 40
2.0
 40
2.0
 40
2.0
 40
3.0
 40
3.0
 40
3.0
 40
4.0
 40
4.0
 40
4.0
 40
5.0
 40
5.0
 40
5.0
 40
6.0
 40
6.0
 40
6.0
 40
7.0
 40
7.0
 40
7.0
 40
8.0
 40
8.0
 40
8.0
 40
9.0
 40
9.0
 40
9.0
 40
10.0
 40
10.0
 40
10.0
 40
11.0
 40
11.0
 40
11.0
 40
12.0
 40
12.0
 40
12.0
 40
13.0
 40
13.0
 40
13.0
 40
13.0
 10
106.6663573952084
 20
-155.4754367015825
 10
106.4486273605406
 20
-155.6342556034525
 10
106.3556097824388
 20
-155.7083251563854
 10
106.3066894265483
 20
-155.8519856381203
 10
106.3066894265483
 20
-155.8519856381203
 10
107.0852810062148
 20
-155.8519856381203
 10
107.0852810062148
 20
-155.8519856381203
 10
107.0852810062148
 20
-155.8519856381203
 10
107.0852810062148
 20
-156.0573133290412
 10
107.0852810062148
 20
-156.0573133290412
 10
107.0852810062148
 20
-156.0573133290412
 10
106.0572645134162
 20
-156.0573133290412
 10
106.0572645134162
 20
-156.0573133290412
 10
106.0889593918805
 20
-155.6997124176723
 10
106.1544162061003
 20
-155.6215087501571
 10
106.5395778813512
 20
-155.3231634811345
 10
106.7955484759053
 20
-155.1243814716356
 10
106.861005290125
 20
-155.0565130905761
 10
106.861005290125
 20
-154.9190537807147
 10
106.861005290125
 20
-154.8005424960221
 10
106.7890027944833
 20
-154.6696288675826
 10
106.5922878422755
 20
-154.6696288675826
 10
106.3321831331392
 20
-154.6696288675826
 10
106.323570394426
 20
-154.9001057555458
 10
106.3194362798437
 20
-155.0165499829472
 10
106.3194362798437
 20
-155.0165499829472
 10
106.095160563754
 20
-155.0165499829472
 10
106.095160563754
 20
-155.0165499829472
 10
106.1037733024671
 20
-154.8894259595415
 10
106.1144530984714
 20
-154.7774603562709
 10
106.1947238232777
 20
-154.6589490715783
 10
106.3046223692572
 20
-154.4980631124171
 10
106.4910020350092
 20
-154.4643011766617
 10
106.6071017528621
 20
-154.4643011766617
 10
106.8844319394247
 20
-154.4643011766617
 10
107.0918266876367
 20
-154.648269275574
 10
107.0918266876367
 20
-154.9211208380058
 10
107.0918266876367
 20
-155.1498751782264
 10
106.9753824602353
 20
-155.2490939282016
 10
106.6663573952084
 20
-155.4754367015825
 97
        0
 97
        1
330
16B
 75
     2
 76
     1
 98
        1
 10
0.0
 20
0.0
450
        0
451
        0
460
0.0
461
0.0
452
        0
462
0.0
453
        0
470

  0
ENDBLK
  5
168
330
165
100
AcDbEntity
  8
0
100
AcDbBlockEnd
  0
BLOCK
  5
170
330
16E
100
AcDbEntity
  8
0
100
AcDbBlockBegin
  2
Block_15
 70
     0
 10
0.0
 20
0.0
 30
0.0
  3
Block_15
  1

  0
SPLINE
  5
172
330
16E
100
AcDbEntity
  8
レイヤー 1
100
AcDbSpline
210
0.0
220
0.0
230
1.0
 70
    11
 71
     3
 72
    26
 73
    22
 74
     0
 42
0.0000000001
 43
0.0000000001
 40
0.0
 40
0.0
 40
0.0
 40
0.0
 40
1.0
 40
1.0
 40
1.0
 40
2.0
 40
2.0
 40
2.0
 40
3.0
 40
3.0
 40
3.0
 40
4.0
 40
4.0
 40
4.0
 40
5.0
 40
5.0
 40
5.0
 40
6.0
 40
6.0
 40
6.0
 40
7.0
 40
7.0
 40
7.0
 40
7.0
 10
113.67988278408
 20
-149.9171196456804
 30
0.0
 10
113.67988278408
 20
-149.9171196456804
 30
0.0
 10
113.67988278408
 20
-148.8127942878836
 30
0.0
 10
113.67988278408
 20
-148.8127942878836
 30
0.0
 10
113.67988278408
 20
-148.8127942878836
 30
0.0
 10
113.3498426365931
 20
-148.8127942878836
 30
0.0
 10
113.3498426365931
 20
-148.8127942878836
 30
0.0
 10
113.3498426365931
 20
-148.8127942878836
 30
0.0
 10
113.3498426365931
 20
-148.6646551820179
 30
0.0
 10
113.3498426365931
 20
-148.6646551820179
 30
0.0
 10
113.6819498413712
 20
-148.6500135262055
 30
0.0
 10
113.728458630422
 20
-148.4870605097532
 30
0.0
 10
113.7580864515952
 20
-148.3728555944172
 30
0.0
 10
113.7580864515952
 20
-148.3728555944172
 30
0.0
 10
113.9041585001698
 20
-148.3728555944172
 30
0.0
 10
113.9041585001698
 20
-148.3728555944172
 30
0.0
 10
113.9041585001698
 20
-148.3728555944172
 30
0.0
 10
113.9041585001698
 20
-149.9171196456804
 30
0.0
 10
113.9041585001698
 20
-149.9171196456804
 30
0.0
 10
113.9041585001698
 20
-149.9171196456804
 30
0.0
 10
113.67988278408
 20
-149.9171196456804
 30
0.0
 10
113.67988278408
 20
-149.9171196456804
 30
0.0
  0
HATCH
  5
173
330
16E
100
AcDbEntity
  8
レイヤー 1
 62
   250
420
  2299925
440
 33554687
100
AcDbHatch
 10
0.0
 20
0.0
 30
0.0
210
0.0
220
0.0
230
1.0
  2
SOLID
 70
     1
 71
     1
 91
        1
 92
        1
 93
        1
 72
     4
 94
        3
 73
     0
 74
     0
 95
       26
 96
       22
 40
0.0
 40
0.0
 40
0.0
 40
0.0
 40
1.0
 40
1.0
 40
1.0
 40
2.0
 40
2.0
 40
2.0
 40
3.0
 40
3.0
 40
3.0
 40
4.0
 40
4.0
 40
4.0
 40
5.0
 40
5.0
 40
5.0
 40
6.0
 40
6.0
 40
6.0
 40
7.0
 40
7.0
 40
7.0
 40
7.0
 10
113.67988278408
 20
-149.9171196456804
 10
113.67988278408
 20
-149.9171196456804
 10
113.67988278408
 20
-148.8127942878836
 10
113.67988278408
 20
-148.8127942878836
 10
113.67988278408
 20
-148.8127942878836
 10
113.3498426365931
 20
-148.8127942878836
 10
113.3498426365931
 20
-148.8127942878836
 10
113.3498426365931
 20
-148.8127942878836
 10
113.3498426365931
 20
-148.6646551820179
 10
113.3498426365931
 20
-148.6646551820179
 10
113.6819498413712
 20
-148.6500135262055
 10
113.728458630422
 20
-148.4870605097532
 10
113.7580864515952
 20
-148.3728555944172
 10
113.7580864515952
 20
-148.3728555944172
 10
113.9041585001698
 20
-148.3728555944172
 10
113.9041585001698
 20
-148.3728555944172
 10
113.9041585001698
 20
-148.3728555944172
 10
113.9041585001698
 20
-149.9171196456804
 10
113.9041585001698
 20
-149.9171196456804
 10
113.9041585001698
 20
-149.9171196456804
 10
113.67988278408
 20
-149.9171196456804
 10
113.67988278408
 20
-149.9171196456804
 97
        0
 97
        1
330
172
 75
     2
 76
     1
 98
        1
 10
0.0
 20
0.0
450
        0
451
        0
460
0.0
461
0.0
452
        0
462
0.0
453
        0
470

  0
ENDBLK
  5
171
330
16E
100
AcDbEntity
  8
0
100
AcDbBlockEnd
  0
ENDSEC
  0
SECTION
  2
ENTITIES
  0
INSERT
  5
7A
330
70
100
AcDbEntity
  8
レイヤー 1
100
AcDbBlockReference
  2
Block_0
 10
0.0
 20
0.0
 30
0.0
  0
ENDSEC
  0
SECTION
  2
OBJECTS
  0
DICTIONARY
  5
C
330
0
100
AcDbDictionary
281
     1
  3
ACAD_COLOR
350
63
  3
ACAD_DETAILVIEWSTYLE
350
6A
  3
ACAD_GROUP
350
D
  3
ACAD_LAYOUT
350
62
  3
ACAD_MATERIAL
350
10
  3
ACAD_MLEADERSTYLE
350
66
  3
ACAD_MLINESTYLE
350
5F
  3
ACAD_PLOTSETTINGS
350
61
  3
ACAD_PLOTSTYLENAME
350
E
  3
ACAD_SCALELIST
350
42
  3
ACAD_SECTIONVIEWSTYLE
350
68
  3
ACAD_TABLESTYLE
350
64
  3
ACAD_VISUALSTYLE
350
29
  3
ACDB_RECOMPOSE_DATA
350
17C
  3
AcDbVariableDictionary
350
174
  0
DICTIONARY
  5
63
102
{ACAD_REACTORS
330
C
102
}
330
C
100
AcDbDictionary
281
     1
  0
DICTIONARY
  5
6A
102
{ACAD_REACTORS
330
C
102
}
330
C
100
AcDbDictionary
281
     1
  3
Imperial24
350
6B
  0
DICTIONARY
  5
D
102
{ACAD_REACTORS
330
C
102
}
330
C
100
AcDbDictionary
281
     1
  0
DICTIONARY
  5
62
102
{ACAD_REACTORS
330
C
102
}
330
C
100
AcDbDictionary
281
     1
  3
Layout1
350
6F
  3
Layout2
350
77
  3
Model
350
73
  0
DICTIONARY
  5
10
102
{ACAD_REACTORS
330
C
102
}
330
C
100
AcDbDictionary
281
     1
  3
ByBlock
350
19
  3
ByLayer
350
11
  3
Global
350
21
  0
DICTIONARY
  5
66
102
{ACAD_REACTORS
330
C
102
}
330
C
100
AcDbDictionary
281
     1
  3
Standard
350
67
  0
DICTIONARY
  5
5F
102
{ACAD_REACTORS
330
C
102
}
330
C
100
AcDbDictionary
281
     1
  3
Standard
350
60
  0
DICTIONARY
  5
61
102
{ACAD_REACTORS
330
C
102
}
330
C
100
AcDbDictionary
281
     1
  0
ACDBDICTIONARYWDFLT
  5
E
102
{ACAD_REACTORS
330
C
102
}
330
C
100
AcDbDictionary
281
     1
  3
Normal
350
F
100
AcDbDictionaryWithDefault
340
F
  0
DICTIONARY
  5
42
102
{ACAD_REACTORS
330
C
102
}
330
C
100
AcDbDictionary
281
     1
  3
A0
350
43
  3
A1
350
44
  3
A2
350
45
  3
A3
350
46
  3
A4
350
47
  3
A5
350
48
  3
A6
350
49
  3
A7
350
4A
  3
A8
350
4B
  3
A9
350
4C
  3
B0
350
4D
  3
B1
350
4E
  3
B2
350
4F
  3
B3
350
50
  3
B4
350
51
  3
B5
350
52
  3
B6
350
53
  0
DICTIONARY
  5
68
102
{ACAD_REACTORS
330
C
102
}
330
C
100
AcDbDictionary
281
     1
  3
Imperial24
350
69
  0
DICTIONARY
  5
64
102
{ACAD_REACTORS
330
C
102
}
330
C
100
AcDbDictionary
281
     1
  3
Standard
350
65
  0
DICTIONARY
  5
29
102
{ACAD_REACTORS
330
C
102
}
330
C
100
AcDbDictionary
281
     1
  3
2dWireframe
350
2F
  3
Basic
350
2E
  3
Brighten
350
35
  3
ColorChange
350
39
  3
Conceptual
350
32
  3
Dim
350
34
  3
EdgeColorOff
350
41
  3
Facepattern
350
38
  3
Flat
350
2A
  3
FlatWithEdges
350
2B
  3
Gouraud
350
2C
  3
GouraudWithEdges
350
2D
  3
Hidden
350
31
  3
JitterOff
350
3F
  3
Linepattern
350
37
  3
OverhangOff
350
40
  3
Realistic
350
33
  3
Shaded
350
3E
  3
Shaded with edges
350
3D
  3
Shades of Gray
350
3A
  3
Sketchy
350
3B
  3
Thicken
350
36
  3
Wireframe
350
30
  3
X-Ray
350
3C
  0
XRECORD
  5
17C
102
{ACAD_REACTORS
330
C
102
}
330
C
100
AcDbXrecord
280
     1
 90
        1
330
65
  0
DICTIONARY
  5
174
102
{ACAD_REACTORS
330
C
102
}
330
C
100
AcDbDictionary
281
     1
  3
CANNOSCALE
350
179
  3
CMLEADERSTYLE
350
176
  3
CTABLESTYLE
350
175
  3
CVIEWDETAILSTYLE
350
177
  3
CVIEWSECTIONSTYLE
350
178
  0
ACDBDETAILVIEWSTYLE
  5
6B
102
{ACAD_XDICTIONARY
360
1B1
102
}
102
{ACAD_REACTORS
330
6A
102
}
330
6A
100
AcDbModelDocViewStyle
 70
     0
  3
Imperial24
290
     0
100
AcDbDetailViewStyle
 70
     0
 71
     0
 90
        3
 71
     1
340
55
 62
   256
 40
0.24
340
0
 62
   256
 40
0.24
300

 40
0.36
280
     3
 71
     2
340
5D
 90
       25
 62
   256
 71
     3
340
55
 62
   256
 40
0.24
 90
        1
 40
0.75
 90
        1
300
%<\AcVar ViewType \f "%tc1">% %<\AcVar ViewDetailId>%\PSCALE %<\AcVar ViewScale \f "%sn">%
 71
     4
340
5D
 90
       25
 62
   256
340
5D
 90
       25
 62
   256
280
     0
  0
LAYOUT
  5
6F
102
{ACAD_REACTORS
330
62
102
}
330
62
100
AcDbPlotSettings
  1

  2

  4

  6

 40
0.0
 41
0.0
 42
0.0
 43
0.0
 44
0.0
 45
0.0
 46
0.0
 47
0.0
 48
0.0
 49
0.0
140
0.0
141
0.0
142
1.0
143
1.0
 70
   688
 72
     0
 73
     0
 74
     5
  7

 75
    16
147
1.0
 76
     0
 77
     2
 78
   300
148
0.0
149
0.0
100
AcDbLayout
  1
Layout1
 70
     1
 71
     1
 10
0.0
 20
0.0
 11
12.0
 21
9.0
 12
0.0
 22
0.0
 32
0.0
 14
0.0
 24
0.0
 34
0.0
 15
0.0
 25
0.0
 35
0.0
146
0.0
 13
0.0
 23
0.0
 33
0.0
 16
1.0
 26
0.0
 36
0.0
 17
0.0
 27
1.0
 37
0.0
 76
     0
330
6C
  0
LAYOUT
  5
77
102
{ACAD_REACTORS
330
62
102
}
330
62
100
AcDbPlotSettings
  1

  2

  4

  6

 40
0.0
 41
0.0
 42
0.0
 43
0.0
 44
0.0
 45
0.0
 46
0.0
 47
0.0
 48
0.0
 49
0.0
140
0.0
141
0.0
142
1.0
143
1.0
 70
   688
 72
     0
 73
     0
 74
     5
  7

 75
    16
147
1.0
 76
     0
 77
     2
 78
   300
148
0.0
149
0.0
100
AcDbLayout
  1
Layout2
 70
     1
 71
     2
 10
0.0
 20
0.0
 11
12.0
 21
9.0
 12
0.0
 22
0.0
 32
0.0
 14
0.0
 24
0.0
 34
0.0
 15
0.0
 25
0.0
 35
0.0
146
0.0
 13
0.0
 23
0.0
 33
0.0
 16
1.0
 26
0.0
 36
0.0
 17
0.0
 27
1.0
 37
0.0
 76
     0
330
74
  0
LAYOUT
  5
73
102
{ACAD_REACTORS
330
62
102
}
330
62
100
AcDbPlotSettings
  1

  2

  4

  6

 40
0.0
 41
0.0
 42
0.0
 43
0.0
 44
0.0
 45
0.0
 46
0.0
 47
0.0
 48
0.0
 49
0.0
140
0.0
141
0.0
142
1.0
143
1.0
 70
  1712
 72
     0
 73
     0
 74
     0
  7

 75
     0
147
1.0
 76
     0
 77
     2
 78
   300
148
0.0
149
0.0
100
AcDbLayout
  1
Model
 70
     1
 71
     0
 10
0.0
 20
0.0
 11
12.0
 21
9.0
 12
0.0
 22
0.0
 32
0.0
 14
0.0
 24
0.0
 34
0.0
 15
0.0
 25
0.0
 35
0.0
146
0.0
 13
0.0
 23
0.0
 33
0.0
 16
1.0
 26
0.0
 36
0.0
 17
0.0
 27
1.0
 37
0.0
 76
     0
330
70
  0
MATERIAL
  5
19
102
{ACAD_XDICTIONARY
360
1A
102
}
102
{ACAD_REACTORS
330
10
102
}
330
10
100
AcDbMaterial
  1
ByBlock
 72
     0
 43
0.0208333333333333
 43
0.0
 43
0.0
 43
0.0
 43
0.0
 43
0.0208333333333333
 43
0.0
 43
0.0
 43
0.0
 43
0.0
 43
1.0
 43
0.0
 43
0.0
 43
0.0
 43
0.0
 43
1.0
 77
     0
 47
0.0208333333333333
 47
0.0
 47
0.0
 47
0.0
 47
0.0
 47
0.0208333333333333
 47
0.0
 47
0.0
 47
0.0
 47
0.0
 47
1.0
 47
0.0
 47
0.0
 47
0.0
 47
0.0
 47
1.0
171
     0
 49
0.0208333333333333
 49
0.0
 49
0.0
 49
0.0
 49
0.0
 49
0.0208333333333333
 49
0.0
 49
0.0
 49
0.0
 49
0.0
 49
1.0
 49
0.0
 49
0.0
 49
0.0
 49
0.0
 49
1.0
175
     0
142
0.0208333333333333
142
0.0
142
0.0
142
0.0
142
0.0
142
0.0208333333333333
142
0.0
142
0.0
142
0.0
142
0.0
142
1.0
142
0.0
142
0.0
142
0.0
142
0.0
142
1.0
179
     0
144
0.0208333333333333
144
0.0
144
0.0
144
0.0
144
0.0
144
0.0208333333333333
144
0.0
144
0.0
144
0.0
144
0.0
144
1.0
144
0.0
144
0.0
144
0.0
144
0.0
144
1.0
147
0.0208333333333333
147
0.0
147
0.0
147
0.0
147
0.0
147
0.0208333333333333
147
0.0
147
0.0
147
0.0
147
0.0
147
1.0
147
0.0
147
0.0
147
0.0
147
0.0
147
1.0
  0
MATERIAL
  5
11
102
{ACAD_XDICTIONARY
360
12
102
}
102
{ACAD_REACTORS
330
10
102
}
330
10
100
AcDbMaterial
  1
ByLayer
 72
     0
 43
0.0208333333333333
 43
0.0
 43
0.0
 43
0.0
 43
0.0
 43
0.0208333333333333
 43
0.0
 43
0.0
 43
0.0
 43
0.0
 43
1.0
 43
0.0
 43
0.0
 43
0.0
 43
0.0
 43
1.0
 77
     0
 47
0.0208333333333333
 47
0.0
 47
0.0
 47
0.0
 47
0.0
 47
0.0208333333333333
 47
0.0
 47
0.0
 47
0.0
 47
0.0
 47
1.0
 47
0.0
 47
0.0
 47
0.0
 47
0.0
 47
1.0
171
     0
 49
0.0208333333333333
 49
0.0
 49
0.0
 49
0.0
 49
0.0
 49
0.0208333333333333
 49
0.0
 49
0.0
 49
0.0
 49
0.0
 49
1.0
 49
0.0
 49
0.0
 49
0.0
 49
0.0
 49
1.0
175
     0
142
0.0208333333333333
142
0.0
142
0.0
142
0.0
142
0.0
142
0.0208333333333333
142
0.0
142
0.0
142
0.0
142
0.0
142
1.0
142
0.0
142
0.0
142
0.0
142
0.0
142
1.0
179
     0
144
0.0208333333333333
144
0.0
144
0.0
144
0.0
144
0.0
144
0.0208333333333333
144
0.0
144
0.0
144
0.0
144
0.0
144
1.0
144
0.0
144
0.0
144
0.0
144
0.0
144
1.0
147
0.0208333333333333
147
0.0
147
0.0
147
0.0
147
0.0
147
0.0208333333333333
147
0.0
147
0.0
147
0.0
147
0.0
147
1.0
147
0.0
147
0.0
147
0.0
147
0.0
147
1.0
  0
MATERIAL
  5
21
102
{ACAD_XDICTIONARY
360
22
102
}
102
{ACAD_REACTORS
330
10
102
}
330
10
100
AcDbMaterial
  1
Global
 72
     0
 43
0.0208333333333333
 43
0.0
 43
0.0
 43
0.0
 43
0.0
 43
0.0208333333333333
 43
0.0
 43
0.0
 43
0.0
 43
0.0
 43
1.0
 43
0.0
 43
0.0
 43
0.0
 43
0.0
 43
1.0
 77
     0
 47
0.0208333333333333
 47
0.0
 47
0.0
 47
0.0
 47
0.0
 47
0.0208333333333333
 47
0.0
 47
0.0
 47
0.0
 47
0.0
 47
1.0
 47
0.0
 47
0.0
 47
0.0
 47
0.0
 47
1.0
171
     0
 49
0.0208333333333333
 49
0.0
 49
0.0
 49
0.0
 49
0.0
 49
0.0208333333333333
 49
0.0
 49
0.0
 49
0.0
 49
0.0
 49
1.0
 49
0.0
 49
0.0
 49
0.0
 49
0.0
 49
1.0
175
     0
142
0.0208333333333333
142
0.0
142
0.0
142
0.0
142
0.0
142
0.0208333333333333
142
0.0
142
0.0
142
0.0
142
0.0
142
1.0
142
0.0
142
0.0
142
0.0
142
0.0
142
1.0
179
     0
144
0.0208333333333333
144
0.0
144
0.0
144
0.0
144
0.0
144
0.0208333333333333
144
0.0
144
0.0
144
0.0
144
0.0
144
1.0
144
0.0
144
0.0
144
0.0
144
0.0
144
1.0
147
0.0208333333333333
147
0.0
147
0.0
147
0.0
147
0.0
147
0.0208333333333333
147
0.0
147
0.0
147
0.0
147
0.0
147
1.0
147
0.0
147
0.0
147
0.0
147
0.0
147
1.0
  0
MLEADERSTYLE
  5
67
102
{ACAD_XDICTIONARY
360
1AD
102
}
102
{ACAD_REACTORS
330
66
102
}
330
66
100
AcDbMLeaderStyle
179
     2
170
     2
171
     1
172
     0
 90
        2
 40
0.0
 41
0.0
173
     1
 91
-1056964608
340
5B
 92
       -2
290
     1
 42
0.09
291
     1
 43
0.36
  3
Standard
 44
0.18
300

342
55
174
     1
178
     6
175
     1
176
     0
 93
-1056964608
 45
0.18
292
     0
297
     0
 46
0.18
 94
-1056964608
 47
1.0
 49
1.0
140
1.0
293
     1
141
0.0
294
     1
177
     0
142
1.0
295
     0
296
     0
143
0.125
271
     0
272
     9
273
     9
  0
MLINESTYLE
  5
60
102
{ACAD_REACTORS
330
5F
102
}
330
5F
100
AcDbMlineStyle
  2
STANDARD
 70
     0
  3

 62
   256
 51
90.0
 52
90.0
 71
     2
 49
0.5
 62
   256
  6
BYLAYER
 49
-0.5
 62
   256
  6
BYLAYER
  0
ACDBPLACEHOLDER
  5
F
102
{ACAD_REACTORS
330
E
102
}
330
E
  0
SCALE
  5
43
102
{ACAD_REACTORS
330
42
102
}
330
42
100
AcDbScale
 70
     0
300
1:1
140
1.0
141
1.0
290
     1
  0
SCALE
  5
44
102
{ACAD_REACTORS
330
42
102
}
330
42
100
AcDbScale
 70
     0
300
1/128" = 1'-0"
140
0.0078125
141
12.0
290
     0
  0
SCALE
  5
45
102
{ACAD_REACTORS
330
42
102
}
330
42
100
AcDbScale
 70
     0
300
1/64" = 1'-0"
140
0.015625
141
12.0
290
     0
  0
SCALE
  5
46
102
{ACAD_REACTORS
330
42
102
}
330
42
100
AcDbScale
 70
     0
300
1/32" = 1'-0"
140
0.03125
141
12.0
290
     0
  0
SCALE
  5
47
102
{ACAD_REACTORS
330
42
102
}
330
42
100
AcDbScale
 70
     0
300
1/16" = 1'-0"
140
0.0625
141
12.0
290
     0
  0
SCALE
  5
48
102
{ACAD_REACTORS
330
42
102
}
330
42
100
AcDbScale
 70
     0
300
3/32" = 1'-0"
140
0.09375
141
12.0
290
     0
  0
SCALE
  5
49
102
{ACAD_REACTORS
330
42
102
}
330
42
100
AcDbScale
 70
     0
300
1/8" = 1'-0"
140
0.125
141
12.0
290
     0
  0
SCALE
  5
4A
102
{ACAD_REACTORS
330
42
102
}
330
42
100
AcDbScale
 70
     0
300
3/16" = 1'-0"
140
0.1875
141
12.0
290
     0
  0
SCALE
  5
4B
102
{ACAD_REACTORS
330
42
102
}
330
42
100
AcDbScale
 70
     0
300
1/4" = 1'-0"
140
0.25
141
12.0
290
     0
  0
SCALE
  5
4C
102
{ACAD_REACTORS
330
42
102
}
330
42
100
AcDbScale
 70
     0
300
3/8" = 1'-0"
140
0.375
141
12.0
290
     0
  0
SCALE
  5
4D
102
{ACAD_REACTORS
330
42
102
}
330
42
100
AcDbScale
 70
     0
300
1/2" = 1'-0"
140
0.5
141
12.0
290
     0
  0
SCALE
  5
4E
102
{ACAD_REACTORS
330
42
102
}
330
42
100
AcDbScale
 70
     0
300
3/4" = 1'-0"
140
0.75
141
12.0
290
     0
  0
SCALE
  5
4F
102
{ACAD_REACTORS
330
42
102
}
330
42
100
AcDbScale
 70
     0
300
1" = 1'-0"
140
1.0
141
12.0
290
     0
  0
SCALE
  5
50
102
{ACAD_REACTORS
330
42
102
}
330
42
100
AcDbScale
 70
     0
300
1-1/2" = 1'-0"
140
1.5
141
12.0
290
     0
  0
SCALE
  5
51
102
{ACAD_REACTORS
330
42
102
}
330
42
100
AcDbScale
 70
     0
300
3" = 1'-0"
140
3.0
141
12.0
290
     0
  0
SCALE
  5
52
102
{ACAD_REACTORS
330
42
102
}
330
42
100
AcDbScale
 70
     0
300
6" = 1'-0"
140
6.0
141
12.0
290
     0
  0
SCALE
  5
53
102
{ACAD_REACTORS
330
42
102
}
330
42
100
AcDbScale
 70
     0
300
1'-0" = 1'-0"
140
12.0
141
12.0
290
     0
  0
ACDBSECTIONVIEWSTYLE
  5
69
102
{ACAD_XDICTIONARY
360
1AF
102
}
102
{ACAD_REACTORS
330
68
102
}
330
68
100
AcDbModelDocViewStyle
 70
     0
  3
Imperial24
290
     0
100
AcDbSectionViewStyle
 70
     0
 71
     0
 90
       78
 71
     1
340
55
 62
   256
 40
0.24
340
0
340
0
 62
   256
 40
0.24
300
I, O, Q, S, X, Z
 40
0.48
 90
        3
 40
0.18
 90
        1
 71
     2
340
5D
 90
       25
 62
   256
340
5D
 90
       50
 62
   256
 40
0.24
 40
0.0
 40
0.24
 71
     3
340
55
 62
   256
 40
0.24
 90
        1
 40
0.75
 90
        1
300
%<\AcVar ViewType \f "%tc1">% %<\AcVar ViewSectionStartId>%-%<\AcVar ViewSectionEndId>%\PSCALE %<\AcVar ViewScale \f "%sn">%
 71
     4
 62
   256
 62
   257
300
ANSI31
 40
1.0
 90
        0
290
     0
290
     0
 90
        6
 40
0.0
 40
1.570796326794896
 40
0.2617993877991494
 40
1.308996938995747
 40
-0.2617993877991494
 40
1.832595714594046
  0
TABLESTYLE
  5
65
102
{ACAD_XDICTIONARY
360
17A
102
}
102
{ACAD_REACTORS
330
64
102
}
330
64
100
AcDbTableStyle
280
     0
  3
Standard
 70
     0
 71
     0
 40
0.06
 41
0.06
280
     0
281
     0
  7
Standard
140
0.18
170
     2
 62
     0
 63
     7
283
     0
 90
      512
 91
        0
  1

274
    -2
284
     1
 64
     0
275
    -2
285
     1
 65
     0
276
    -2
286
     1
 66
     0
277
    -2
287
     1
 67
     0
278
    -2
288
     1
 68
     0
279
    -2
289
     1
 69
     0
  7
Standard
140
0.25
170
     5
 62
     0
 63
     7
283
     0
 90
      512
 91
        0
  1

274
    -2
284
     1
 64
     0
275
    -2
285
     1
 65
     0
276
    -2
286
     1
 66
     0
277
    -2
287
     1
 67
     0
278
    -2
288
     1
 68
     0
279
    -2
289
     1
 69
     0
  7
Standard
140
0.18
170
     5
 62
     0
 63
     7
283
     0
 90
      512
 91
        0
  1

274
    -2
284
     1
 64
     0
275
    -2
285
     1
 65
     0
276
    -2
286
     1
 66
     0
277
    -2
287
     1
 67
     0
278
    -2
288
     1
 68
     0
279
    -2
289
     1
 69
     0
  0
VISUALSTYLE
  5
2F
102
{ACAD_XDICTIONARY
360
187
102
}
102
{ACAD_REACTORS
330
29
102
}
330
29
100
AcDbVisualStyle
  2
2dWireframe
 70
     4
177
     2
291
     0
 71
     0
176
     1
 72
     2
176
     1
 73
     0
176
     1
 90
        0
176
     1
 40
0.6
176
     1
 41
30.0
176
     1
 63
     7
421
 16777215
176
     1
 74
     1
176
     1
 91
        4
176
     1
 64
     7
176
     1
 65
   257
176
     1
 75
     1
176
     1
175
     1
176
     1
 42
1.0
176
     1
 92
        0
176
     1
 66
   257
176
     1
 43
1.0
176
     1
 76
     1
176
     1
 77
     6
176
     1
 78
     2
176
     1
 67
     7
176
     1
 79
     5
176
     1
170
     0
176
     1
171
     0
176
     1
290
     0
176
     1
 93
        1
176
     1
 44
0.0
176
     1
173
     0
176
     1
1001
ACAD
1000
AcDbSavedByObjectVersion
1070
     0
  0
VISUALSTYLE
  5
2E
102
{ACAD_XDICTIONARY
360
185
102
}
102
{ACAD_REACTORS
330
29
102
}
330
29
100
AcDbVisualStyle
  2
Basic
 70
     7
177
     2
291
     1
 71
     1
176
     1
 72
     0
176
     1
 73
     1
176
     1
 90
        0
176
     1
 40
0.6
176
     1
 41
30.0
176
     1
 63
     7
421
 16777215
176
     1
 74
     0
176
     1
 91
        4
176
     1
 64
     7
176
     1
 65
   257
176
     1
 75
     1
176
     1
175
     1
176
     1
 42
1.0
176
     1
 92
        8
176
     1
 66
     7
176
     1
 43
1.0
176
     1
 76
     1
176
     1
 77
     6
176
     1
 78
     2
176
     1
 67
     7
176
     1
 79
     5
176
     1
170
     0
176
     1
171
     0
176
     1
290
     0
176
     1
 93
        1
176
     1
 44
0.0
176
     1
173
     0
176
     1
1001
ACAD
1000
AcDbSavedByObjectVersion
1070
     0
  0
VISUALSTYLE
  5
35
102
{ACAD_XDICTIONARY
360
193
102
}
102
{ACAD_REACTORS
330
29
102
}
330
29
100
AcDbVisualStyle
  2
Brighten
 70
    12
177
     2
291
     1
 71
     2
176
     1
 72
     2
176
     1
 73
     0
176
     1
 90
        0
176
     1
 40
0.6
176
     1
 41
30.0
176
     1
 63
     7
421
 16777215
176
     1
 74
     1
176
     1
 91
        4
176
     1
 64
     7
176
     1
 65
   257
176
     1
 75
     1
176
     1
175
     1
176
     1
 42
1.0
176
     1
 92
        8
176
     1
 66
     7
176
     1
 43
1.0
176
     1
 76
     1
176
     1
 77
     6
176
     1
 78
     2
176
     1
 67
     7
176
     1
 79
     5
176
     1
170
     0
176
     1
171
     0
176
     1
290
     0
176
     1
 93
        1
176
     1
 44
50.0
176
     1
173
     0
176
     1
1001
ACAD
1000
AcDbSavedByObjectVersion
1070
     0
  0
VISUALSTYLE
  5
39
102
{ACAD_XDICTIONARY
360
19B
102
}
102
{ACAD_REACTORS
330
29
102
}
330
29
100
AcDbVisualStyle
  2
ColorChange
 70
    16
177
     2
291
     1
 71
     2
176
     1
 72
     2
176
     1
 73
     3
176
     1
 90
        0
176
     1
 40
0.6
176
     1
 41
30.0
176
     1
 63
     8
421
  8421504
176
     1
 74
     1
176
     1
 91
        4
176
     1
 64
     7
176
     1
 65
   257
176
     1
 75
     1
176
     1
175
     1
176
     1
 42
1.0
176
     1
 92
        8
176
     1
 66
     8
424
  8421504
176
     1
 43
1.0
176
     1
 76
     1
176
     1
 77
     6
176
     1
 78
     2
176
     1
 67
     7
176
     1
 79
     5
176
     1
170
     0
176
     1
171
     0
176
     1
290
     0
176
     1
 93
        1
176
     1
 44
0.0
176
     1
173
     0
176
     1
1001
ACAD
1000
AcDbSavedByObjectVersion
1070
     0
  0
VISUALSTYLE
  5
32
102
{ACAD_XDICTIONARY
360
18D
102
}
102
{ACAD_REACTORS
330
29
102
}
330
29
100
AcDbVisualStyle
  2
Conceptual
 70
     9
177
     2
291
     0
 71
     3
176
     1
 72
     2
176
     1
 73
     0
176
     1
 90
        0
176
     1
 40
0.6
176
     1
 41
30.0
176
     1
 63
     7
421
 16777215
176
     1
 74
     2
176
     1
 91
        2
176
     1
 64
     7
176
     1
 65
   257
176
     1
 75
     1
176
     1
175
     1
176
     1
 42
179.0
176
     1
 92
        8
176
     1
 66
     7
176
     1
 43
1.0
176
     1
 76
     1
176
     1
 77
     6
176
     1
 78
     2
176
     1
 67
     7
176
     1
 79
     3
176
     1
170
     0
176
     1
171
     0
176
     1
290
     0
176
     1
 93
        1
176
     1
 44
0.0
176
     1
173
     0
176
     1
1001
ACAD
1000
AcDbSavedByObjectVersion
1070
     0
  0
VISUALSTYLE
  5
34
102
{ACAD_XDICTIONARY
360
191
102
}
102
{ACAD_REACTORS
330
29
102
}
330
29
100
AcDbVisualStyle
  2
Dim
 70
    11
177
     2
291
     1
 71
     2
176
     1
 72
     2
176
     1
 73
     0
176
     1
 90
        0
176
     1
 40
0.6
176
     1
 41
30.0
176
     1
 63
     7
421
 16777215
176
     1
 74
     1
176
     1
 91
        4
176
     1
 64
     7
176
     1
 65
   257
176
     1
 75
     1
176
     1
175
     1
176
     1
 42
1.0
176
     1
 92
        8
176
     1
 66
     7
176
     1
 43
1.0
176
     1
 76
     1
176
     1
 77
     6
176
     1
 78
     2
176
     1
 67
     7
176
     1
 79
     5
176
     1
170
     0
176
     1
171
     0
176
     1
290
     0
176
     1
 93
        1
176
     1
 44
-50.0
176
     1
173
     0
176
     1
1001
ACAD
1000
AcDbSavedByObjectVersion
1070
     0
  0
VISUALSTYLE
  5
41
102
{ACAD_XDICTIONARY
360
1AB
102
}
102
{ACAD_REACTORS
330
29
102
}
330
29
100
AcDbVisualStyle
  2
EdgeColorOff
 70
    22
177
     2
291
     1
 71
     2
176
     0
 72
     2
176
     0
 73
     0
176
     0
 90
        0
176
     0
 40
0.6
176
     0
 41
30.0
176
     0
 63
     7
421
 16777215
176
     0
 74
     1
176
     0
 91
        4
176
     0
 64
     7
176
     0
 65
   257
176
     0
 75
     1
176
     0
175
     1
176
     0
 42
1.0
176
     0
 92
        8
176
     2
 66
     7
176
     0
 43
1.0
176
     0
 76
     1
176
     0
 77
     6
176
     0
 78
     2
176
     0
 67
     7
176
     0
 79
     5
176
     0
170
     0
176
     0
171
     0
176
     0
290
     0
176
     0
 93
        1
176
     0
 44
0.0
176
     0
173
     0
176
     0
1001
ACAD
1000
AcDbSavedByObjectVersion
1070
     0
  0
VISUALSTYLE
  5
38
102
{ACAD_XDICTIONARY
360
199
102
}
102
{ACAD_REACTORS
330
29
102
}
330
29
100
AcDbVisualStyle
  2
Facepattern
 70
    15
177
     2
291
     1
 71
     2
176
     1
 72
     2
176
     1
 73
     0
176
     1
 90
        0
176
     1
 40
0.6
176
     1
 41
30.0
176
     1
 63
     7
421
 16777215
176
     1
 74
     1
176
     1
 91
        4
176
     1
 64
     7
176
     1
 65
   257
176
     1
 75
     1
176
     1
175
     1
176
     1
 42
1.0
176
     1
 92
        8
176
     1
 66
     7
176
     1
 43
1.0
176
     1
 76
     1
176
     1
 77
     6
176
     1
 78
     2
176
     1
 67
     7
176
     1
 79
     5
176
     1
170
     0
176
     1
171
     0
176
     1
290
     0
176
     1
 93
        1
176
     1
 44
0.0
176
     1
173
     0
176
     1
1001
ACAD
1000
AcDbSavedByObjectVersion
1070
     0
  0
VISUALSTYLE
  5
2A
102
{ACAD_XDICTIONARY
360
17D
102
}
102
{ACAD_REACTORS
330
29
102
}
330
29
100
AcDbVisualStyle
  2
Flat
 70
     0
177
     2
291
     1
 71
     2
176
     1
 72
     1
176
     1
 73
     1
176
     1
 90
        2
176
     1
 40
0.6
176
     1
 41
30.0
176
     1
 63
     7
421
 16777215
176
     1
 74
     0
176
     1
 91
        0
176
     1
 64
     7
176
     1
 65
   257
176
     1
 75
     1
176
     1
175
     1
176
     1
 42
1.0
176
     1
 92
        8
176
     1
 66
     7
176
     1
 43
1.0
176
     1
 76
     1
176
     1
 77
     6
176
     1
 78
     2
176
     1
 67
     7
176
     1
 79
     5
176
     1
170
     0
176
     1
171
     0
176
     1
290
     0
176
     1
 93
       13
176
     1
 44
0.0
176
     1
173
     0
176
     1
1001
ACAD
1000
AcDbSavedByObjectVersion
1070
     0
  0
VISUALSTYLE
  5
2B
102
{ACAD_XDICTIONARY
360
17F
102
}
102
{ACAD_REACTORS
330
29
102
}
330
29
100
AcDbVisualStyle
  2
FlatWithEdges
 70
     1
177
     2
291
     1
 71
     2
176
     1
 72
     1
176
     1
 73
     1
176
     1
 90
        2
176
     1
 40
0.6
176
     1
 41
30.0
176
     1
 63
     7
421
 16777215
176
     1
 74
     1
176
     1
 91
        0
176
     1
 64
     7
176
     1
 65
   257
176
     1
 75
     1
176
     1
175
     1
176
     1
 42
1.0
176
     1
 92
        0
176
     1
 66
   257
176
     1
 43
1.0
176
     1
 76
     1
176
     1
 77
     6
176
     1
 78
     2
176
     1
 67
     7
176
     1
 79
     5
176
     1
170
     0
176
     1
171
     0
176
     1
290
     0
176
     1
 93
       13
176
     1
 44
0.0
176
     1
173
     0
176
     1
1001
ACAD
1000
AcDbSavedByObjectVersion
1070
     0
  0
VISUALSTYLE
  5
2C
102
{ACAD_XDICTIONARY
360
181
102
}
102
{ACAD_REACTORS
330
29
102
}
330
29
100
AcDbVisualStyle
  2
Gouraud
 70
     2
177
     2
291
     1
 71
     2
176
     1
 72
     2
176
     1
 73
     1
176
     1
 90
        2
176
     1
 40
0.6
176
     1
 41
30.0
176
     1
 63
     7
421
 16777215
176
     1
 74
     0
176
     1
 91
        0
176
     1
 64
     7
176
     1
 65
   257
176
     1
 75
     1
176
     1
175
     1
176
     1
 42
1.0
176
     1
 92
        0
176
     1
 66
     7
176
     1
 43
1.0
176
     1
 76
     1
176
     1
 77
     6
176
     1
 78
     2
176
     1
 67
     7
176
     1
 79
     5
176
     1
170
     0
176
     1
171
     0
176
     1
290
     0
176
     1
 93
       13
176
     1
 44
0.0
176
     1
173
     0
176
     1
1001
ACAD
1000
AcDbSavedByObjectVersion
1070
     0
  0
VISUALSTYLE
  5
2D
102
{ACAD_XDICTIONARY
360
183
102
}
102
{ACAD_REACTORS
330
29
102
}
330
29
100
AcDbVisualStyle
  2
GouraudWithEdges
 70
     3
177
     2
291
     1
 71
     2
176
     1
 72
     2
176
     1
 73
     1
176
     1
 90
        2
176
     1
 40
0.6
176
     1
 41
30.0
176
     1
 63
     7
421
 16777215
176
     1
 74
     1
176
     1
 91
        0
176
     1
 64
     7
176
     1
 65
   257
176
     1
 75
     1
176
     1
175
     1
176
     1
 42
1.0
176
     1
 92
        0
176
     1
 66
   257
176
     1
 43
1.0
176
     1
 76
     1
176
     1
 77
     6
176
     1
 78
     2
176
     1
 67
     7
176
     1
 79
     5
176
     1
170
     0
176
     1
171
     0
176
     1
290
     0
176
     1
 93
       13
176
     1
 44
0.0
176
     1
173
     0
176
     1
1001
ACAD
1000
AcDbSavedByObjectVersion
1070
     0
  0
VISUALSTYLE
  5
31
102
{ACAD_XDICTIONARY
360
18B
102
}
102
{ACAD_REACTORS
330
29
102
}
330
29
100
AcDbVisualStyle
  2
Hidden
 70
     6
177
     2
291
     0
 71
     1
176
     1
 72
     2
176
     1
 73
     2
176
     1
 90
        0
176
     1
 40
0.6
176
     1
 41
30.0
176
     1
 63
     7
421
 16777215
176
     1
 74
     2
176
     1
 91
        2
176
     1
 64
     7
176
     1
 65
   257
176
     1
 75
     2
176
     1
175
     1
176
     1
 42
40.0
176
     1
 92
        0
176
     1
 66
   257
176
     1
 43
1.0
176
     1
 76
     1
176
     1
 77
     6
176
     1
 78
     2
176
     1
 67
     7
176
     1
 79
     3
176
     1
170
     0
176
     1
171
     0
176
     1
290
     0
176
     1
 93
        1
176
     1
 44
0.0
176
     1
173
     0
176
     1
1001
ACAD
1000
AcDbSavedByObjectVersion
1070
     0
  0
VISUALSTYLE
  5
3F
102
{ACAD_XDICTIONARY
360
1A7
102
}
102
{ACAD_REACTORS
330
29
102
}
330
29
100
AcDbVisualStyle
  2
JitterOff
 70
    20
177
     2
291
     1
 71
     2
176
     0
 72
     2
176
     0
 73
     0
176
     0
 90
        0
176
     0
 40
0.6
176
     0
 41
30.0
176
     0
 63
     7
421
 16777215
176
     0
 74
     1
176
     0
 91
        4
176
     0
 64
     7
176
     0
 65
   257
176
     0
 75
     1
176
     0
175
     1
176
     0
 42
1.0
176
     0
 92
       10
176
     2
 66
     7
176
     0
 43
1.0
176
     0
 76
     1
176
     0
 77
     6
176
     0
 78
     2
176
     0
 67
     7
176
     0
 79
     5
176
     0
170
     0
176
     0
171
     0
176
     0
290
     0
176
     0
 93
        1
176
     0
 44
0.0
176
     0
173
     0
176
     0
1001
ACAD
1000
AcDbSavedByObjectVersion
1070
     0
  0
VISUALSTYLE
  5
37
102
{ACAD_XDICTIONARY
360
197
102
}
102
{ACAD_REACTORS
330
29
102
}
330
29
100
AcDbVisualStyle
  2
Linepattern
 70
    14
177
     2
291
     1
 71
     2
176
     1
 72
     2
176
     1
 73
     0
176
     1
 90
        0
176
     1
 40
0.6
176
     1
 41
30.0
176
     1
 63
     7
421
 16777215
176
     1
 74
     1
176
     1
 91
        4
176
     1
 64
     7
176
     1
 65
   257
176
     1
 75
     7
176
     1
175
     7
176
     1
 42
1.0
176
     1
 92
        8
176
     1
 66
     7
176
     1
 43
1.0
176
     1
 76
     1
176
     1
 77
     6
176
     1
 78
     2
176
     1
 67
     7
176
     1
 79
     5
176
     1
170
     0
176
     1
171
     0
176
     1
290
     0
176
     1
 93
        1
176
     1
 44
0.0
176
     1
173
     0
176
     1
1001
ACAD
1000
AcDbSavedByObjectVersion
1070
     0
  0
VISUALSTYLE
  5
40
102
{ACAD_XDICTIONARY
360
1A9
102
}
102
{ACAD_REACTORS
330
29
102
}
330
29
100
AcDbVisualStyle
  2
OverhangOff
 70
    21
177
     2
291
     1
 71
     2
176
     0
 72
     2
176
     0
 73
     0
176
     0
 90
        0
176
     0
 40
0.6
176
     0
 41
30.0
176
     0
 63
     7
421
 16777215
176
     0
 74
     1
176
     0
 91
        4
176
     0
 64
     7
176
     0
 65
   257
176
     0
 75
     1
176
     0
175
     1
176
     0
 42
1.0
176
     0
 92
        9
176
     2
 66
     7
176
     0
 43
1.0
176
     0
 76
     1
176
     0
 77
     6
176
     0
 78
     2
176
     0
 67
     7
176
     0
 79
     5
176
     0
170
     0
176
     0
171
     0
176
     0
290
     0
176
     0
 93
        1
176
     0
 44
0.0
176
     0
173
     0
176
     0
1001
ACAD
1000
AcDbSavedByObjectVersion
1070
     0
  0
VISUALSTYLE
  5
33
102
{ACAD_XDICTIONARY
360
18F
102
}
102
{ACAD_REACTORS
330
29
102
}
330
29
100
AcDbVisualStyle
  2
Realistic
 70
     8
177
     2
291
     0
 71
     2
176
     1
 72
     3
176
     1
 73
     0
176
     1
 90
        2
176
     1
 40
0.6
176
     1
 41
30.0
176
     1
 63
     7
421
 16777215
176
     1
 74
     0
176
     1
 91
        0
176
     1
 64
     7
176
     1
 65
   257
176
     1
 75
     1
176
     1
175
     1
176
     1
 42
1.0
176
     1
 92
        8
176
     1
 66
   257
176
     1
 43
1.0
176
     1
 76
     1
176
     1
 77
     6
176
     1
 78
     2
176
     1
 67
     7
176
     1
 79
     3
176
     1
170
     0
176
     1
171
     0
176
     1
290
     0
176
     1
 93
       13
176
     1
 44
0.0
176
     1
173
     0
176
     1
1001
ACAD
1000
AcDbSavedByObjectVersion
1070
     0
  0
VISUALSTYLE
  5
3E
102
{ACAD_XDICTIONARY
360
1A5
102
}
102
{ACAD_REACTORS
330
29
102
}
330
29
100
AcDbVisualStyle
  2
Shaded
 70
    27
177
     2
291
     0
 71
     2
176
     1
 72
     2
176
     1
 73
     1
176
     1
 90
        2
176
     1
 40
0.6
176
     1
 41
30.0
176
     1
 63
     7
421
 16777215
176
     1
 74
     0
176
     1
 91
        4
176
     1
 64
     7
176
     1
 65
   257
176
     1
 75
     1
176
     1
175
     1
176
     1
 42
1.0
176
     1
 92
        8
176
     1
 66
   257
176
     1
 43
1.0
176
     1
 76
     1
176
     1
 77
     6
176
     1
 78
     2
176
     1
 67
     8
425
  7895160
176
     1
 79
     3
176
     1
170
     0
176
     1
171
     0
176
     1
290
     0
176
     1
 93
        5
176
     1
 44
0.0
176
     1
173
     0
176
     1
1001
ACAD
1000
AcDbSavedByObjectVersion
1070
     0
  0
VISUALSTYLE
  5
3D
102
{ACAD_XDICTIONARY
360
1A3
102
}
102
{ACAD_REACTORS
330
29
102
}
330
29
100
AcDbVisualStyle
  2
Shaded with edges
 70
    26
177
     2
291
     0
 71
     2
176
     1
 72
     2
176
     1
 73
     1
176
     1
 90
        2
176
     1
 40
0.6
176
     1
 41
30.0
176
     1
 63
     7
421
 16777215
176
     1
 74
     1
176
     1
 91
        2
176
     1
 64
     7
176
     1
 65
   257
176
     1
 75
     2
176
     1
175
     1
176
     1
 42
1.0
176
     1
 92
        8
176
     1
 66
   257
176
     1
 43
1.0
176
     1
 76
     1
176
     1
 77
     6
176
     1
 78
     2
176
     1
 67
     7
176
     1
 79
     3
176
     1
170
     0
176
     1
171
     0
176
     1
290
     0
176
     1
 93
        5
176
     1
 44
0.0
176
     1
173
     0
176
     1
1001
ACAD
1000
AcDbSavedByObjectVersion
1070
     0
  0
VISUALSTYLE
  5
3A
102
{ACAD_XDICTIONARY
360
19D
102
}
102
{ACAD_REACTORS
330
29
102
}
330
29
100
AcDbVisualStyle
  2
Shades of Gray
 70
    23
177
     2
291
     0
 71
     2
176
     1
 72
     2
176
     1
 73
     3
176
     1
 90
        0
176
     1
 40
0.6
176
     1
 41
30.0
176
     1
 63
     7
421
 16777215
176
     1
 74
     2
176
     1
 91
        2
176
     1
 64
     7
176
     1
 65
     7
176
     1
 75
     1
176
     1
175
     1
176
     1
 42
40.0
176
     1
 92
        8
176
     1
 66
     7
176
     1
 43
1.0
176
     1
 76
     1
176
     1
 77
     6
176
     1
 78
     2
176
     1
 67
     7
176
     1
 79
     3
176
     1
170
     0
176
     1
171
     0
176
     1
290
     0
176
     1
 93
        1
176
     1
 44
0.0
176
     1
173
     0
176
     1
1001
ACAD
1000
AcDbSavedByObjectVersion
1070
     0
  0
VISUALSTYLE
  5
3B
102
{ACAD_XDICTIONARY
360
19F
102
}
102
{ACAD_REACTORS
330
29
102
}
330
29
100
AcDbVisualStyle
  2
Sketchy
 70
    24
177
     2
291
     0
 71
     1
176
     1
 72
     2
176
     1
 73
     2
176
     1
 90
        0
176
     1
 40
0.6
176
     1
 41
30.0
176
     1
 63
     7
421
 16777215
176
     1
 74
     2
176
     1
 91
        2
176
     1
 64
     7
176
     1
 65
     7
176
     1
 75
     1
176
     1
175
     1
176
     1
 42
40.0
176
     1
 92
       11
176
     1
 66
     7
176
     1
 43
1.0
176
     1
 76
     1
176
     1
 77
     6
176
     1
 78
     2
176
     1
 67
     7
176
     1
 79
     6
176
     1
170
     0
176
     1
171
     0
176
     1
290
     0
176
     1
 93
        1
176
     1
 44
0.0
176
     1
173
     0
176
     1
1001
ACAD
1000
AcDbSavedByObjectVersion
1070
     0
  0
VISUALSTYLE
  5
36
102
{ACAD_XDICTIONARY
360
195
102
}
102
{ACAD_REACTORS
330
29
102
}
330
29
100
AcDbVisualStyle
  2
Thicken
 70
    13
177
     2
291
     1
 71
     2
176
     1
 72
     2
176
     1
 73
     0
176
     1
 90
        0
176
     1
 40
0.6
176
     1
 41
30.0
176
     1
 63
     7
421
 16777215
176
     1
 74
     1
176
     1
 91
        4
176
     1
 64
     7
176
     1
 65
   257
176
     1
 75
     1
176
     1
175
     1
176
     1
 42
1.0
176
     1
 92
       12
176
     1
 66
     7
176
     1
 43
1.0
176
     1
 76
     1
176
     1
 77
     6
176
     1
 78
     2
176
     1
 67
     7
176
     1
 79
     5
176
     1
170
     0
176
     1
171
     0
176
     1
290
     0
176
     1
 93
        1
176
     1
 44
0.0
176
     1
173
     0
176
     1
1001
ACAD
1000
AcDbSavedByObjectVersion
1070
     0
  0
VISUALSTYLE
  5
30
102
{ACAD_XDICTIONARY
360
189
102
}
102
{ACAD_REACTORS
330
29
102
}
330
29
100
AcDbVisualStyle
  2
Wireframe
 70
     5
177
     2
291
     0
 71
     0
176
     1
 72
     2
176
     1
 73
     0
176
     1
 90
        0
176
     1
 40
0.6
176
     1
 41
30.0
176
     1
 63
     7
421
 16777215
176
     1
 74
     1
176
     1
 91
        4
176
     1
 64
     7
176
     1
 65
   257
176
     1
 75
     1
176
     1
175
     1
176
     1
 42
1.0
176
     1
 92
        0
176
     1
 66
   257
176
     1
 43
1.0
176
     1
 76
     1
176
     1
 77
     6
176
     1
 78
     2
176
     1
 67
     7
176
     1
 79
     3
176
     1
170
     0
176
     1
171
     0
176
     1
290
     0
176
     1
 93
        1
176
     1
 44
0.0
176
     1
173
     0
176
     1
1001
ACAD
1000
AcDbSavedByObjectVersion
1070
     0
  0
VISUALSTYLE
  5
3C
102
{ACAD_XDICTIONARY
360
1A1
102
}
102
{ACAD_REACTORS
330
29
102
}
330
29
100
AcDbVisualStyle
  2
X-Ray
 70
    25
177
     2
291
     0
 71
     2
176
     1
 72
     2
176
     1
 73
     1
176
     1
 90
        1
176
     1
 40
0.5
176
     1
 41
30.0
176
     1
 63
     7
421
 16777215
176
     1
 74
     1
176
     1
 91
        0
176
     1
 64
     7
176
     1
 65
   257
176
     1
 75
     1
176
     1
175
     1
176
     1
 42
1.0
176
     1
 92
        8
176
     1
 66
     7
176
     1
 43
1.0
176
     1
 76
     1
176
     1
 77
     6
176
     1
 78
     2
176
     1
 67
     7
176
     1
 79
     3
176
     1
170
     0
176
     1
171
     0
176
     1
290
     0
176
     1
 93
       13
176
     1
 44
0.0
176
     1
173
     0
176
     1
1001
ACAD
1000
AcDbSavedByObjectVersion
1070
     0
  0
DICTIONARYVAR
  5
179
102
{ACAD_REACTORS
330
174
102
}
330
174
100
DictionaryVariables
280
     0
  1
1:1
  0
DICTIONARYVAR
  5
176
102
{ACAD_REACTORS
330
174
102
}
330
174
100
DictionaryVariables
280
     0
  1
STANDARD
  0
DICTIONARYVAR
  5
175
102
{ACAD_REACTORS
330
174
102
}
330
174
100
DictionaryVariables
280
     0
  1
STANDARD
  0
DICTIONARYVAR
  5
177
102
{ACAD_REACTORS
330
174
102
}
330
174
100
DictionaryVariables
280
     0
  1
Imperial24
  0
DICTIONARYVAR
  5
178
102
{ACAD_REACTORS
330
174
102
}
330
174
100
DictionaryVariables
280
     0
  1
Imperial24
  0
DICTIONARY
  5
1B1
330
6B
100
AcDbDictionary
280
     1
281
     1
  3
ACAD_XREC_ROUNDTRIP
360
1B2
  0
DICTIONARY
  5
1A
330
19
100
AcDbDictionary
280
     1
281
     1
  3
BUMPTILE
360
1C
  3
DIFFUSETILE
360
1B
  3
OPACITYTILE
360
1F
  3
REFLECTIONTILE
360
1E
  3
REFRACTIONTILE
360
20
  3
SPECULARTILE
360
1D
  0
DICTIONARY
  5
12
330
11
100
AcDbDictionary
280
     1
281
     1
  3
BUMPTILE
360
14
  3
DIFFUSETILE
360
13
  3
OPACITYTILE
360
17
  3
REFLECTIONTILE
360
16
  3
REFRACTIONTILE
360
18
  3
SPECULARTILE
360
15
  0
DICTIONARY
  5
22
330
21
100
AcDbDictionary
280
     1
281
     1
  3
BUMPTILE
360
24
  3
DIFFUSETILE
360
23
  3
OPACITYTILE
360
27
  3
REFLECTIONTILE
360
26
  3
REFRACTIONTILE
360
28
  3
SPECULARTILE
360
25
  0
DICTIONARY
  5
1AD
330
67
100
AcDbDictionary
280
     1
281
     1
  3
ACAD_XREC_ROUNDTRIP
360
1AE
  0
DICTIONARY
  5
1AF
330
69
100
AcDbDictionary
280
     1
281
     1
  3
ACAD_XREC_ROUNDTRIP
360
1B0
  0
DICTIONARY
  5
17A
330
65
100
AcDbDictionary
280
     1
281
     1
  3
ACAD_ROUNDTRIP_2008_TABLESTYLE_CELLSTYLEMAP
360
17B
  0
DICTIONARY
  5
187
330
2F
100
AcDbDictionary
280
     1
281
     1
  3
ACAD_XREC_ROUNDTRIP
360
188
  0
DICTIONARY
  5
185
330
2E
100
AcDbDictionary
280
     1
281
     1
  3
ACAD_XREC_ROUNDTRIP
360
186
  0
DICTIONARY
  5
193
330
35
100
AcDbDictionary
280
     1
281
     1
  3
ACAD_XREC_ROUNDTRIP
360
194
  0
DICTIONARY
  5
19B
330
39
100
AcDbDictionary
280
     1
281
     1
  3
ACAD_XREC_ROUNDTRIP
360
19C
  0
DICTIONARY
  5
18D
330
32
100
AcDbDictionary
280
     1
281
     1
  3
ACAD_XREC_ROUNDTRIP
360
18E
  0
DICTIONARY
  5
191
330
34
100
AcDbDictionary
280
     1
281
     1
  3
ACAD_XREC_ROUNDTRIP
360
192
  0
DICTIONARY
  5
1AB
330
41
100
AcDbDictionary
280
     1
281
     1
  3
ACAD_XREC_ROUNDTRIP
360
1AC
  0
DICTIONARY
  5
199
330
38
100
AcDbDictionary
280
     1
281
     1
  3
ACAD_XREC_ROUNDTRIP
360
19A
  0
DICTIONARY
  5
17D
330
2A
100
AcDbDictionary
280
     1
281
     1
  3
ACAD_XREC_ROUNDTRIP
360
17E
  0
DICTIONARY
  5
17F
330
2B
100
AcDbDictionary
280
     1
281
     1
  3
ACAD_XREC_ROUNDTRIP
360
180
  0
DICTIONARY
  5
181
330
2C
100
AcDbDictionary
280
     1
281
     1
  3
ACAD_XREC_ROUNDTRIP
360
182
  0
DICTIONARY
  5
183
330
2D
100
AcDbDictionary
280
     1
281
     1
  3
ACAD_XREC_ROUNDTRIP
360
184
  0
DICTIONARY
  5
18B
330
31
100
AcDbDictionary
280
     1
281
     1
  3
ACAD_XREC_ROUNDTRIP
360
18C
  0
DICTIONARY
  5
1A7
330
3F
100
AcDbDictionary
280
     1
281
     1
  3
ACAD_XREC_ROUNDTRIP
360
1A8
  0
DICTIONARY
  5
197
330
37
100
AcDbDictionary
280
     1
281
     1
  3
ACAD_XREC_ROUNDTRIP
360
198
  0
DICTIONARY
  5
1A9
330
40
100
AcDbDictionary
280
     1
281
     1
  3
ACAD_XREC_ROUNDTRIP
360
1AA
  0
DICTIONARY
  5
18F
330
33
100
AcDbDictionary
280
     1
281
     1
  3
ACAD_XREC_ROUNDTRIP
360
190
  0
DICTIONARY
  5
1A5
330
3E
100
AcDbDictionary
280
     1
281
     1
  3
ACAD_XREC_ROUNDTRIP
360
1A6
  0
DICTIONARY
  5
1A3
330
3D
100
AcDbDictionary
280
     1
281
     1
  3
ACAD_XREC_ROUNDTRIP
360
1A4
  0
DICTIONARY
  5
19D
330
3A
100
AcDbDictionary
280
     1
281
     1
  3
ACAD_XREC_ROUNDTRIP
360
19E
  0
DICTIONARY
  5
19F
330
3B
100
AcDbDictionary
280
     1
281
     1
  3
ACAD_XREC_ROUNDTRIP
360
1A0
  0
DICTIONARY
  5
195
330
36
100
AcDbDictionary
280
     1
281
     1
  3
ACAD_XREC_ROUNDTRIP
360
196
  0
DICTIONARY
  5
189
330
30
100
AcDbDictionary
280
     1
281
     1
  3
ACAD_XREC_ROUNDTRIP
360
18A
  0
DICTIONARY
  5
1A1
330
3C
100
AcDbDictionary
280
     1
281
     1
  3
ACAD_XREC_ROUNDTRIP
360
1A2
  0
XRECORD
  5
1B2
102
{ACAD_REACTORS
330
1B1
102
}
330
1B1
100
AcDbXrecord
280
     1
102
DISPLAYNAME
  1
Imperial24
102
FLAGS
 90
        0
  0
XRECORD
  5
1C
102
{ACAD_REACTORS
330
1A
102
}
330
1A
100
AcDbXrecord
280
     1
270
     1
271
     1
  0
XRECORD
  5
1B
102
{ACAD_REACTORS
330
1A
102
}
330
1A
100
AcDbXrecord
280
     1
270
     1
271
     1
  0
XRECORD
  5
1F
102
{ACAD_REACTORS
330
1A
102
}
330
1A
100
AcDbXrecord
280
     1
270
     1
271
     1
  0
XRECORD
  5
1E
102
{ACAD_REACTORS
330
1A
102
}
330
1A
100
AcDbXrecord
280
     1
270
     1
271
     1
  0
XRECORD
  5
20
102
{ACAD_REACTORS
330
1A
102
}
330
1A
100
AcDbXrecord
280
     1
270
     1
271
     1
  0
XRECORD
  5
1D
102
{ACAD_REACTORS
330
1A
102
}
330
1A
100
AcDbXrecord
280
     1
270
     1
271
     1
  0
XRECORD
  5
14
102
{ACAD_REACTORS
330
12
102
}
330
12
100
AcDbXrecord
280
     1
270
     1
271
     1
  0
XRECORD
  5
13
102
{ACAD_REACTORS
330
12
102
}
330
12
100
AcDbXrecord
280
     1
270
     1
271
     1
  0
XRECORD
  5
17
102
{ACAD_REACTORS
330
12
102
}
330
12
100
AcDbXrecord
280
     1
270
     1
271
     1
  0
XRECORD
  5
16
102
{ACAD_REACTORS
330
12
102
}
330
12
100
AcDbXrecord
280
     1
270
     1
271
     1
  0
XRECORD
  5
18
102
{ACAD_REACTORS
330
12
102
}
330
12
100
AcDbXrecord
280
     1
270
     1
271
     1
  0
XRECORD
  5
15
102
{ACAD_REACTORS
330
12
102
}
330
12
100
AcDbXrecord
280
     1
270
     1
271
     1
  0
XRECORD
  5
24
102
{ACAD_REACTORS
330
22
102
}
330
22
100
AcDbXrecord
280
     1
270
     1
271
     1
  0
XRECORD
  5
23
102
{ACAD_REACTORS
330
22
102
}
330
22
100
AcDbXrecord
280
     1
270
     1
271
     1
  0
XRECORD
  5
27
102
{ACAD_REACTORS
330
22
102
}
330
22
100
AcDbXrecord
280
     1
270
     1
271
     1
  0
XRECORD
  5
26
102
{ACAD_REACTORS
330
22
102
}
330
22
100
AcDbXrecord
280
     1
270
     1
271
     1
  0
XRECORD
  5
28
102
{ACAD_REACTORS
330
22
102
}
330
22
100
AcDbXrecord
280
     1
270
     1
271
     1
  0
XRECORD
  5
25
102
{ACAD_REACTORS
330
22
102
}
330
22
100
AcDbXrecord
280
     1
270
     1
271
     1
  0
XRECORD
  5
1AE
102
{ACAD_REACTORS
330
1AD
102
}
330
1AD
100
AcDbXrecord
280
     1
102
ACAD_ROUNDTRIP_2012_MLEADER_STYLE
298
     1
  0
XRECORD
  5
1B0
102
{ACAD_REACTORS
330
1AF
102
}
330
1AF
100
AcDbXrecord
280
     1
102
DISPLAYNAME
  1
Imperial24
102
FLAGS
 90
        0
  0
CELLSTYLEMAP
  5
17B
102
{ACAD_REACTORS
330
17A
102
}
330
17A
100
AcDbCellStyleMap
 90
        3
300
CELLSTYLE
  1
TABLEFORMAT_BEGIN
 90
        5
170
     1
 91
        0
 92
    32768
 62
   257
 93
        1
300
CONTENTFORMAT
  1
CONTENTFORMAT_BEGIN
 90
        0
 91
        0
 92
      512
 93
        0
300

 40
0.0
140
1.0
 94
        5
 62
     0
340
55
144
0.25
309
CONTENTFORMAT_END
171
     0
 94
        0
309
TABLEFORMAT_END
  1
CELLSTYLE_BEGIN
 90
        1
 91
        1
300
_TITLE
309
CELLSTYLE_END
300
CELLSTYLE
  1
TABLEFORMAT_BEGIN
 90
        5
170
     1
 91
        0
 92
        0
 62
   257
 93
        1
300
CONTENTFORMAT
  1
CONTENTFORMAT_BEGIN
 90
        0
 91
        0
 92
      512
 93
        0
300

 40
0.0
140
1.0
 94
        5
 62
     0
340
55
144
0.18
309
CONTENTFORMAT_END
171
     0
 94
        0
309
TABLEFORMAT_END
  1
CELLSTYLE_BEGIN
 90
        2
 91
        1
300
_HEADER
309
CELLSTYLE_END
300
CELLSTYLE
  1
TABLEFORMAT_BEGIN
 90
        5
170
     1
 91
        0
 92
        0
 62
   257
 93
        1
300
CONTENTFORMAT
  1
CONTENTFORMAT_BEGIN
 90
        0
 91
        0
 92
      512
 93
        0
300

 40
0.0
140
1.0
 94
        2
 62
     0
340
55
144
0.18
309
CONTENTFORMAT_END
171
     0
 94
        0
309
TABLEFORMAT_END
  1
CELLSTYLE_BEGIN
 90
        3
 91
        2
300
_DATA
309
CELLSTYLE_END
  0
XRECORD
  5
188
102
{ACAD_REACTORS
330
187
102
}
330
187
100
AcDbXrecord
280
     1
102
RTVSPost2010Prop28
280
     1
102
RTVSPost2010PropOp28
 70
     1
102
RTVSPost2010Prop29
280
     1
102
RTVSPost2010PropOp29
 70
     1
102
RTVSPost2010Prop30
280
     0
102
RTVSPost2010PropOp30
 70
     1
102
RTVSPost2010Prop31
280
     0
102
RTVSPost2010PropOp31
 70
     1
102
RTVSPost2010Prop32
280
     0
102
RTVSPost2010PropOp32
 70
     1
102
RTVSPost2010Prop33
280
     0
102
RTVSPost2010PropOp33
 70
     1
102
RTVSPost2010Prop34
280
     0
102
RTVSPost2010PropOp34
 70
     1
102
RTVSPost2010Prop35
280
     0
102
RTVSPost2010PropOp35
 70
     1
102
RTVSPost2010Prop36
280
     0
102
RTVSPost2010PropOp36
 70
     1
102
RTVSPost2010Prop37
 90
       50
102
RTVSPost2010PropOp37
 70
     1
102
RTVSPost2010Prop38
140
0.0
102
RTVSPost2010PropOp38
 70
     1
102
RTVSPost2010Prop39
140
1.0
102
RTVSPost2010PropOp39
 70
     1
102
RTVSPost2010Prop40
 90
        0
102
RTVSPost2010PropOp40
 70
     1
102
RTVSPost2010Prop41ColorIndex
 90
       18
102
RTVSPost2010Prop41ColorRGB
 90
        0
102
RTVSPost2010PropOp41
 70
     1
102
RTVSPost2010Prop42
 90
       50
102
RTVSPost2010PropOp42
 70
     1
102
RTVSPost2010Prop43
 90
        3
102
RTVSPost2010PropOp43
 70
     1
102
RTVSPost2010Prop44ColorIndex
 90
        5
102
RTVSPost2010Prop44ColorRGB
 90
      255
102
RTVSPost2010PropOp44
 70
     1
102
RTVSPost2010Prop45
280
     0
102
RTVSPost2010PropOp45
 70
     1
102
RTVSPost2010Prop46
 90
       50
102
RTVSPost2010PropOp46
 70
     1
102
RTVSPost2010Prop47
 90
       50
102
RTVSPost2010PropOp47
 70
     1
102
RTVSPost2010Prop48
 90
       50
102
RTVSPost2010PropOp48
 70
     1
102
RTVSPost2010Prop49
280
     0
102
RTVSPost2010PropOp49
 70
     1
102
RTVSPost2010Prop50
 90
       50
102
RTVSPost2010PropOp50
 70
     1
102
RTVSPost2010Prop51ColorIndex
 90
      256
102
RTVSPost2010Prop51ColorRGB
 90
-16777216
102
RTVSPost2010PropOp51
 70
     0
102
RTVSPost2010Prop52
140
1.0
102
RTVSPost2010PropOp52
 70
     0
102
RTVSPost2010Prop53
 90
        2
102
RTVSPost2010PropOp53
 70
     1
102
RTVSPost2010Prop54
  1
strokes_ogs.tif
102
RTVSPost2010PropOp54
 70
     1
102
RTVSPost2010Prop55
280
     0
102
RTVSPost2010PropOp55
 70
     1
102
RTVSPost2010Prop56
140
1.0
102
RTVSPost2010PropOp56
 70
     1
102
RTVSPost2010Prop57
140
1.0
102
RTVSPost2010PropOp57
 70
     1
  0
XRECORD
  5
186
102
{ACAD_REACTORS
330
185
102
}
330
185
100
AcDbXrecord
280
     1
102
RTVSPost2010Prop28
280
     0
102
RTVSPost2010PropOp28
 70
     1
102
RTVSPost2010Prop29
280
     1
102
RTVSPost2010PropOp29
 70
     1
102
RTVSPost2010Prop30
280
     1
102
RTVSPost2010PropOp30
 70
     1
102
RTVSPost2010Prop31
280
     0
102
RTVSPost2010PropOp31
 70
     1
102
RTVSPost2010Prop32
280
     0
102
RTVSPost2010PropOp32
 70
     1
102
RTVSPost2010Prop33
280
     0
102
RTVSPost2010PropOp33
 70
     1
102
RTVSPost2010Prop34
280
     0
102
RTVSPost2010PropOp34
 70
     1
102
RTVSPost2010Prop35
280
     0
102
RTVSPost2010PropOp35
 70
     1
102
RTVSPost2010Prop36
280
     0
102
RTVSPost2010PropOp36
 70
     1
102
RTVSPost2010Prop37
 90
       50
102
RTVSPost2010PropOp37
 70
     1
102
RTVSPost2010Prop38
140
0.0
102
RTVSPost2010PropOp38
 70
     1
102
RTVSPost2010Prop39
140
1.0
102
RTVSPost2010PropOp39
 70
     1
102
RTVSPost2010Prop40
 90
        0
102
RTVSPost2010PropOp40
 70
     1
102
RTVSPost2010Prop41ColorIndex
 90
       18
102
RTVSPost2010Prop41ColorRGB
 90
        0
102
RTVSPost2010PropOp41
 70
     1
102
RTVSPost2010Prop42
 90
       50
102
RTVSPost2010PropOp42
 70
     1
102
RTVSPost2010Prop43
 90
        3
102
RTVSPost2010PropOp43
 70
     1
102
RTVSPost2010Prop44ColorIndex
 90
        5
102
RTVSPost2010Prop44ColorRGB
 90
      255
102
RTVSPost2010PropOp44
 70
     1
102
RTVSPost2010Prop45
280
     0
102
RTVSPost2010PropOp45
 70
     1
102
RTVSPost2010Prop46
 90
       50
102
RTVSPost2010PropOp46
 70
     1
102
RTVSPost2010Prop47
 90
       50
102
RTVSPost2010PropOp47
 70
     1
102
RTVSPost2010Prop48
 90
       50
102
RTVSPost2010PropOp48
 70
     1
102
RTVSPost2010Prop49
280
     0
102
RTVSPost2010PropOp49
 70
     1
102
RTVSPost2010Prop50
 90
       50
102
RTVSPost2010PropOp50
 70
     1
102
RTVSPost2010Prop51ColorIndex
 90
      256
102
RTVSPost2010Prop51ColorRGB
 90
-16777216
102
RTVSPost2010PropOp51
 70
     0
102
RTVSPost2010Prop52
140
1.0
102
RTVSPost2010PropOp52
 70
     0
102
RTVSPost2010Prop53
 90
        2
102
RTVSPost2010PropOp53
 70
     1
102
RTVSPost2010Prop54
  1
strokes_ogs.tif
102
RTVSPost2010PropOp54
 70
     1
102
RTVSPost2010Prop55
280
     0
102
RTVSPost2010PropOp55
 70
     1
102
RTVSPost2010Prop56
140
1.0
102
RTVSPost2010PropOp56
 70
     1
102
RTVSPost2010Prop57
140
1.0
102
RTVSPost2010PropOp57
 70
     1
  0
XRECORD
  5
194
102
{ACAD_REACTORS
330
193
102
}
330
193
100
AcDbXrecord
280
     1
102
RTVSPost2010Prop28
280
     0
102
RTVSPost2010PropOp28
 70
     1
102
RTVSPost2010Prop29
280
     1
102
RTVSPost2010PropOp29
 70
     1
102
RTVSPost2010Prop30
280
     1
102
RTVSPost2010PropOp30
 70
     1
102
RTVSPost2010Prop31
280
     0
102
RTVSPost2010PropOp31
 70
     1
102
RTVSPost2010Prop32
280
     0
102
RTVSPost2010PropOp32
 70
     1
102
RTVSPost2010Prop33
280
     0
102
RTVSPost2010PropOp33
 70
     1
102
RTVSPost2010Prop34
280
     0
102
RTVSPost2010PropOp34
 70
     1
102
RTVSPost2010Prop35
280
     0
102
RTVSPost2010PropOp35
 70
     1
102
RTVSPost2010Prop36
280
     0
102
RTVSPost2010PropOp36
 70
     1
102
RTVSPost2010Prop37
 90
       50
102
RTVSPost2010PropOp37
 70
     1
102
RTVSPost2010Prop38
140
0.0
102
RTVSPost2010PropOp38
 70
     1
102
RTVSPost2010Prop39
140
1.0
102
RTVSPost2010PropOp39
 70
     1
102
RTVSPost2010Prop40
 90
        0
102
RTVSPost2010PropOp40
 70
     1
102
RTVSPost2010Prop41ColorIndex
 90
       18
102
RTVSPost2010Prop41ColorRGB
 90
        0
102
RTVSPost2010PropOp41
 70
     1
102
RTVSPost2010Prop42
 90
       50
102
RTVSPost2010PropOp42
 70
     1
102
RTVSPost2010Prop43
 90
        3
102
RTVSPost2010PropOp43
 70
     1
102
RTVSPost2010Prop44ColorIndex
 90
        5
102
RTVSPost2010Prop44ColorRGB
 90
      255
102
RTVSPost2010PropOp44
 70
     1
102
RTVSPost2010Prop45
280
     0
102
RTVSPost2010PropOp45
 70
     1
102
RTVSPost2010Prop46
 90
       50
102
RTVSPost2010PropOp46
 70
     1
102
RTVSPost2010Prop47
 90
       50
102
RTVSPost2010PropOp47
 70
     1
102
RTVSPost2010Prop48
 90
       50
102
RTVSPost2010PropOp48
 70
     1
102
RTVSPost2010Prop49
280
     0
102
RTVSPost2010PropOp49
 70
     1
102
RTVSPost2010Prop50
 90
       50
102
RTVSPost2010PropOp50
 70
     1
102
RTVSPost2010Prop51ColorIndex
 90
      256
102
RTVSPost2010Prop51ColorRGB
 90
-16777216
102
RTVSPost2010PropOp51
 70
     0
102
RTVSPost2010Prop52
140
1.0
102
RTVSPost2010PropOp52
 70
     0
102
RTVSPost2010Prop53
 90
        2
102
RTVSPost2010PropOp53
 70
     1
102
RTVSPost2010Prop54
  1
strokes_ogs.tif
102
RTVSPost2010PropOp54
 70
     1
102
RTVSPost2010Prop55
280
     0
102
RTVSPost2010PropOp55
 70
     1
102
RTVSPost2010Prop56
140
1.0
102
RTVSPost2010PropOp56
 70
     1
102
RTVSPost2010Prop57
140
1.0
102
RTVSPost2010PropOp57
 70
     1
  0
XRECORD
  5
19C
102
{ACAD_REACTORS
330
19B
102
}
330
19B
100
AcDbXrecord
280
     1
102
RTVSPost2010Prop28
280
     0
102
RTVSPost2010PropOp28
 70
     1
102
RTVSPost2010Prop29
280
     1
102
RTVSPost2010PropOp29
 70
     1
102
RTVSPost2010Prop30
280
     1
102
RTVSPost2010PropOp30
 70
     1
102
RTVSPost2010Prop31
280
     0
102
RTVSPost2010PropOp31
 70
     1
102
RTVSPost2010Prop32
280
     0
102
RTVSPost2010PropOp32
 70
     1
102
RTVSPost2010Prop33
280
     0
102
RTVSPost2010PropOp33
 70
     1
102
RTVSPost2010Prop34
280
     0
102
RTVSPost2010PropOp34
 70
     1
102
RTVSPost2010Prop35
280
     0
102
RTVSPost2010PropOp35
 70
     1
102
RTVSPost2010Prop36
280
     0
102
RTVSPost2010PropOp36
 70
     1
102
RTVSPost2010Prop37
 90
       50
102
RTVSPost2010PropOp37
 70
     1
102
RTVSPost2010Prop38
140
0.0
102
RTVSPost2010PropOp38
 70
     1
102
RTVSPost2010Prop39
140
1.0
102
RTVSPost2010PropOp39
 70
     1
102
RTVSPost2010Prop40
 90
        0
102
RTVSPost2010PropOp40
 70
     1
102
RTVSPost2010Prop41ColorIndex
 90
       18
102
RTVSPost2010Prop41ColorRGB
 90
        0
102
RTVSPost2010PropOp41
 70
     1
102
RTVSPost2010Prop42
 90
       50
102
RTVSPost2010PropOp42
 70
     1
102
RTVSPost2010Prop43
 90
        3
102
RTVSPost2010PropOp43
 70
     1
102
RTVSPost2010Prop44ColorIndex
 90
        5
102
RTVSPost2010Prop44ColorRGB
 90
      255
102
RTVSPost2010PropOp44
 70
     1
102
RTVSPost2010Prop45
280
     0
102
RTVSPost2010PropOp45
 70
     1
102
RTVSPost2010Prop46
 90
       50
102
RTVSPost2010PropOp46
 70
     1
102
RTVSPost2010Prop47
 90
       50
102
RTVSPost2010PropOp47
 70
     1
102
RTVSPost2010Prop48
 90
       50
102
RTVSPost2010PropOp48
 70
     1
102
RTVSPost2010Prop49
280
     0
102
RTVSPost2010PropOp49
 70
     1
102
RTVSPost2010Prop50
 90
       50
102
RTVSPost2010PropOp50
 70
     1
102
RTVSPost2010Prop51ColorIndex
 90
      256
102
RTVSPost2010Prop51ColorRGB
 90
-16777216
102
RTVSPost2010PropOp51
 70
     0
102
RTVSPost2010Prop52
140
1.0
102
RTVSPost2010PropOp52
 70
     0
102
RTVSPost2010Prop53
 90
        2
102
RTVSPost2010PropOp53
 70
     1
102
RTVSPost2010Prop54
  1
strokes_ogs.tif
102
RTVSPost2010PropOp54
 70
     1
102
RTVSPost2010Prop55
280
     0
102
RTVSPost2010PropOp55
 70
     1
102
RTVSPost2010Prop56
140
1.0
102
RTVSPost2010PropOp56
 70
     1
102
RTVSPost2010Prop57
140
1.0
102
RTVSPost2010PropOp57
 70
     1
  0
XRECORD
  5
18E
102
{ACAD_REACTORS
330
18D
102
}
330
18D
100
AcDbXrecord
280
     1
102
RTVSPost2010Prop28
280
     0
102
RTVSPost2010PropOp28
 70
     1
102
RTVSPost2010Prop29
280
     1
102
RTVSPost2010PropOp29
 70
     1
102
RTVSPost2010Prop30
280
     1
102
RTVSPost2010PropOp30
 70
     1
102
RTVSPost2010Prop31
280
     0
102
RTVSPost2010PropOp31
 70
     1
102
RTVSPost2010Prop32
280
     0
102
RTVSPost2010PropOp32
 70
     1
102
RTVSPost2010Prop33
280
     0
102
RTVSPost2010PropOp33
 70
     1
102
RTVSPost2010Prop34
280
     0
102
RTVSPost2010PropOp34
 70
     1
102
RTVSPost2010Prop35
280
     0
102
RTVSPost2010PropOp35
 70
     1
102
RTVSPost2010Prop36
280
     0
102
RTVSPost2010PropOp36
 70
     1
102
RTVSPost2010Prop37
 90
       50
102
RTVSPost2010PropOp37
 70
     1
102
RTVSPost2010Prop38
140
0.0
102
RTVSPost2010PropOp38
 70
     1
102
RTVSPost2010Prop39
140
1.0
102
RTVSPost2010PropOp39
 70
     1
102
RTVSPost2010Prop40
 90
        0
102
RTVSPost2010PropOp40
 70
     1
102
RTVSPost2010Prop41ColorIndex
 90
       18
102
RTVSPost2010Prop41ColorRGB
 90
        0
102
RTVSPost2010PropOp41
 70
     1
102
RTVSPost2010Prop42
 90
       50
102
RTVSPost2010PropOp42
 70
     1
102
RTVSPost2010Prop43
 90
        3
102
RTVSPost2010PropOp43
 70
     1
102
RTVSPost2010Prop44ColorIndex
 90
        5
102
RTVSPost2010Prop44ColorRGB
 90
      255
102
RTVSPost2010PropOp44
 70
     1
102
RTVSPost2010Prop45
280
     0
102
RTVSPost2010PropOp45
 70
     1
102
RTVSPost2010Prop46
 90
       50
102
RTVSPost2010PropOp46
 70
     1
102
RTVSPost2010Prop47
 90
       50
102
RTVSPost2010PropOp47
 70
     1
102
RTVSPost2010Prop48
 90
       50
102
RTVSPost2010PropOp48
 70
     1
102
RTVSPost2010Prop49
280
     0
102
RTVSPost2010PropOp49
 70
     1
102
RTVSPost2010Prop50
 90
       50
102
RTVSPost2010PropOp50
 70
     1
102
RTVSPost2010Prop51ColorIndex
 90
      256
102
RTVSPost2010Prop51ColorRGB
 90
-16777216
102
RTVSPost2010PropOp51
 70
     0
102
RTVSPost2010Prop52
140
1.0
102
RTVSPost2010PropOp52
 70
     0
102
RTVSPost2010Prop53
 90
        2
102
RTVSPost2010PropOp53
 70
     1
102
RTVSPost2010Prop54
  1
strokes_ogs.tif
102
RTVSPost2010PropOp54
 70
     1
102
RTVSPost2010Prop55
280
     0
102
RTVSPost2010PropOp55
 70
     1
102
RTVSPost2010Prop56
140
1.0
102
RTVSPost2010PropOp56
 70
     1
102
RTVSPost2010Prop57
140
1.0
102
RTVSPost2010PropOp57
 70
     1
  0
XRECORD
  5
192
102
{ACAD_REACTORS
330
191
102
}
330
191
100
AcDbXrecord
280
     1
102
RTVSPost2010Prop28
280
     0
102
RTVSPost2010PropOp28
 70
     1
102
RTVSPost2010Prop29
280
     1
102
RTVSPost2010PropOp29
 70
     1
102
RTVSPost2010Prop30
280
     1
102
RTVSPost2010PropOp30
 70
     1
102
RTVSPost2010Prop31
280
     0
102
RTVSPost2010PropOp31
 70
     1
102
RTVSPost2010Prop32
280
     0
102
RTVSPost2010PropOp32
 70
     1
102
RTVSPost2010Prop33
280
     0
102
RTVSPost2010PropOp33
 70
     1
102
RTVSPost2010Prop34
280
     0
102
RTVSPost2010PropOp34
 70
     1
102
RTVSPost2010Prop35
280
     0
102
RTVSPost2010PropOp35
 70
     1
102
RTVSPost2010Prop36
280
     0
102
RTVSPost2010PropOp36
 70
     1
102
RTVSPost2010Prop37
 90
       50
102
RTVSPost2010PropOp37
 70
     1
102
RTVSPost2010Prop38
140
0.0
102
RTVSPost2010PropOp38
 70
     1
102
RTVSPost2010Prop39
140
1.0
102
RTVSPost2010PropOp39
 70
     1
102
RTVSPost2010Prop40
 90
        0
102
RTVSPost2010PropOp40
 70
     1
102
RTVSPost2010Prop41ColorIndex
 90
       18
102
RTVSPost2010Prop41ColorRGB
 90
        0
102
RTVSPost2010PropOp41
 70
     1
102
RTVSPost2010Prop42
 90
       50
102
RTVSPost2010PropOp42
 70
     1
102
RTVSPost2010Prop43
 90
        3
102
RTVSPost2010PropOp43
 70
     1
102
RTVSPost2010Prop44ColorIndex
 90
        5
102
RTVSPost2010Prop44ColorRGB
 90
      255
102
RTVSPost2010PropOp44
 70
     1
102
RTVSPost2010Prop45
280
     0
102
RTVSPost2010PropOp45
 70
     1
102
RTVSPost2010Prop46
 90
       50
102
RTVSPost2010PropOp46
 70
     1
102
RTVSPost2010Prop47
 90
       50
102
RTVSPost2010PropOp47
 70
     1
102
RTVSPost2010Prop48
 90
       50
102
RTVSPost2010PropOp48
 70
     1
102
RTVSPost2010Prop49
280
     0
102
RTVSPost2010PropOp49
 70
     1
102
RTVSPost2010Prop50
 90
       50
102
RTVSPost2010PropOp50
 70
     1
102
RTVSPost2010Prop51ColorIndex
 90
      256
102
RTVSPost2010Prop51ColorRGB
 90
-16777216
102
RTVSPost2010PropOp51
 70
     0
102
RTVSPost2010Prop52
140
1.0
102
RTVSPost2010PropOp52
 70
     0
102
RTVSPost2010Prop53
 90
        2
102
RTVSPost2010PropOp53
 70
     1
102
RTVSPost2010Prop54
  1
strokes_ogs.tif
102
RTVSPost2010PropOp54
 70
     1
102
RTVSPost2010Prop55
280
     0
102
RTVSPost2010PropOp55
 70
     1
102
RTVSPost2010Prop56
140
1.0
102
RTVSPost2010PropOp56
 70
     1
102
RTVSPost2010Prop57
140
1.0
102
RTVSPost2010PropOp57
 70
     1
  0
XRECORD
  5
1AC
102
{ACAD_REACTORS
330
1AB
102
}
330
1AB
100
AcDbXrecord
280
     1
102
RTVSPost2010Prop28
280
     0
102
RTVSPost2010PropOp28
 70
     0
102
RTVSPost2010Prop29
280
     1
102
RTVSPost2010PropOp29
 70
     0
102
RTVSPost2010Prop30
280
     1
102
RTVSPost2010PropOp30
 70
     0
102
RTVSPost2010Prop31
280
     0
102
RTVSPost2010PropOp31
 70
     0
102
RTVSPost2010Prop32
280
     0
102
RTVSPost2010PropOp32
 70
     0
102
RTVSPost2010Prop33
280
     0
102
RTVSPost2010PropOp33
 70
     0
102
RTVSPost2010Prop34
280
     0
102
RTVSPost2010PropOp34
 70
     0
102
RTVSPost2010Prop35
280
     0
102
RTVSPost2010PropOp35
 70
     0
102
RTVSPost2010Prop36
280
     0
102
RTVSPost2010PropOp36
 70
     0
102
RTVSPost2010Prop37
 90
       50
102
RTVSPost2010PropOp37
 70
     0
102
RTVSPost2010Prop38
140
0.0
102
RTVSPost2010PropOp38
 70
     0
102
RTVSPost2010Prop39
140
1.0
102
RTVSPost2010PropOp39
 70
     0
102
RTVSPost2010Prop40
 90
        0
102
RTVSPost2010PropOp40
 70
     0
102
RTVSPost2010Prop41ColorIndex
 90
       18
102
RTVSPost2010Prop41ColorRGB
 90
        0
102
RTVSPost2010PropOp41
 70
     0
102
RTVSPost2010Prop42
 90
       50
102
RTVSPost2010PropOp42
 70
     0
102
RTVSPost2010Prop43
 90
        3
102
RTVSPost2010PropOp43
 70
     0
102
RTVSPost2010Prop44ColorIndex
 90
        5
102
RTVSPost2010Prop44ColorRGB
 90
      255
102
RTVSPost2010PropOp44
 70
     0
102
RTVSPost2010Prop45
280
     0
102
RTVSPost2010PropOp45
 70
     0
102
RTVSPost2010Prop46
 90
       50
102
RTVSPost2010PropOp46
 70
     0
102
RTVSPost2010Prop47
 90
       50
102
RTVSPost2010PropOp47
 70
     0
102
RTVSPost2010Prop48
 90
       50
102
RTVSPost2010PropOp48
 70
     0
102
RTVSPost2010Prop49
280
     0
102
RTVSPost2010PropOp49
 70
     0
102
RTVSPost2010Prop50
 90
       50
102
RTVSPost2010PropOp50
 70
     0
102
RTVSPost2010Prop51ColorIndex
 90
      256
102
RTVSPost2010Prop51ColorRGB
 90
-16777216
102
RTVSPost2010PropOp51
 70
     0
102
RTVSPost2010Prop52
140
1.0
102
RTVSPost2010PropOp52
 70
     0
102
RTVSPost2010Prop53
 90
        2
102
RTVSPost2010PropOp53
 70
     0
102
RTVSPost2010Prop54
  1
strokes_ogs.tif
102
RTVSPost2010PropOp54
 70
     0
102
RTVSPost2010Prop55
280
     0
102
RTVSPost2010PropOp55
 70
     0
102
RTVSPost2010Prop56
140
1.0
102
RTVSPost2010PropOp56
 70
     0
102
RTVSPost2010Prop57
140
1.0
102
RTVSPost2010PropOp57
 70
     0
  0
XRECORD
  5
19A
102
{ACAD_REACTORS
330
199
102
}
330
199
100
AcDbXrecord
280
     1
102
RTVSPost2010Prop28
280
     0
102
RTVSPost2010PropOp28
 70
     1
102
RTVSPost2010Prop29
280
     1
102
RTVSPost2010PropOp29
 70
     1
102
RTVSPost2010Prop30
280
     1
102
RTVSPost2010PropOp30
 70
     1
102
RTVSPost2010Prop31
280
     0
102
RTVSPost2010PropOp31
 70
     1
102
RTVSPost2010Prop32
280
     0
102
RTVSPost2010PropOp32
 70
     1
102
RTVSPost2010Prop33
280
     0
102
RTVSPost2010PropOp33
 70
     1
102
RTVSPost2010Prop34
280
     0
102
RTVSPost2010PropOp34
 70
     1
102
RTVSPost2010Prop35
280
     0
102
RTVSPost2010PropOp35
 70
     1
102
RTVSPost2010Prop36
280
     0
102
RTVSPost2010PropOp36
 70
     1
102
RTVSPost2010Prop37
 90
       50
102
RTVSPost2010PropOp37
 70
     1
102
RTVSPost2010Prop38
140
0.0
102
RTVSPost2010PropOp38
 70
     1
102
RTVSPost2010Prop39
140
1.0
102
RTVSPost2010PropOp39
 70
     1
102
RTVSPost2010Prop40
 90
        0
102
RTVSPost2010PropOp40
 70
     1
102
RTVSPost2010Prop41ColorIndex
 90
       18
102
RTVSPost2010Prop41ColorRGB
 90
        0
102
RTVSPost2010PropOp41
 70
     1
102
RTVSPost2010Prop42
 90
       50
102
RTVSPost2010PropOp42
 70
     1
102
RTVSPost2010Prop43
 90
        3
102
RTVSPost2010PropOp43
 70
     1
102
RTVSPost2010Prop44ColorIndex
 90
        5
102
RTVSPost2010Prop44ColorRGB
 90
      255
102
RTVSPost2010PropOp44
 70
     1
102
RTVSPost2010Prop45
280
     0
102
RTVSPost2010PropOp45
 70
     1
102
RTVSPost2010Prop46
 90
       50
102
RTVSPost2010PropOp46
 70
     1
102
RTVSPost2010Prop47
 90
       50
102
RTVSPost2010PropOp47
 70
     1
102
RTVSPost2010Prop48
 90
       50
102
RTVSPost2010PropOp48
 70
     1
102
RTVSPost2010Prop49
280
     0
102
RTVSPost2010PropOp49
 70
     1
102
RTVSPost2010Prop50
 90
       50
102
RTVSPost2010PropOp50
 70
     1
102
RTVSPost2010Prop51ColorIndex
 90
      256
102
RTVSPost2010Prop51ColorRGB
 90
-16777216
102
RTVSPost2010PropOp51
 70
     0
102
RTVSPost2010Prop52
140
1.0
102
RTVSPost2010PropOp52
 70
     0
102
RTVSPost2010Prop53
 90
        2
102
RTVSPost2010PropOp53
 70
     1
102
RTVSPost2010Prop54
  1
strokes_ogs.tif
102
RTVSPost2010PropOp54
 70
     1
102
RTVSPost2010Prop55
280
     0
102
RTVSPost2010PropOp55
 70
     1
102
RTVSPost2010Prop56
140
1.0
102
RTVSPost2010PropOp56
 70
     1
102
RTVSPost2010Prop57
140
1.0
102
RTVSPost2010PropOp57
 70
     1
  0
XRECORD
  5
17E
102
{ACAD_REACTORS
330
17D
102
}
330
17D
100
AcDbXrecord
280
     1
102
RTVSPost2010Prop28
280
     0
102
RTVSPost2010PropOp28
 70
     1
102
RTVSPost2010Prop29
280
     1
102
RTVSPost2010PropOp29
 70
     1
102
RTVSPost2010Prop30
280
     1
102
RTVSPost2010PropOp30
 70
     1
102
RTVSPost2010Prop31
280
     0
102
RTVSPost2010PropOp31
 70
     1
102
RTVSPost2010Prop32
280
     0
102
RTVSPost2010PropOp32
 70
     1
102
RTVSPost2010Prop33
280
     0
102
RTVSPost2010PropOp33
 70
     1
102
RTVSPost2010Prop34
280
     0
102
RTVSPost2010PropOp34
 70
     1
102
RTVSPost2010Prop35
280
     0
102
RTVSPost2010PropOp35
 70
     1
102
RTVSPost2010Prop36
280
     0
102
RTVSPost2010PropOp36
 70
     1
102
RTVSPost2010Prop37
 90
       50
102
RTVSPost2010PropOp37
 70
     1
102
RTVSPost2010Prop38
140
0.0
102
RTVSPost2010PropOp38
 70
     1
102
RTVSPost2010Prop39
140
1.0
102
RTVSPost2010PropOp39
 70
     1
102
RTVSPost2010Prop40
 90
        0
102
RTVSPost2010PropOp40
 70
     1
102
RTVSPost2010Prop41ColorIndex
 90
       18
102
RTVSPost2010Prop41ColorRGB
 90
        0
102
RTVSPost2010PropOp41
 70
     1
102
RTVSPost2010Prop42
 90
       50
102
RTVSPost2010PropOp42
 70
     1
102
RTVSPost2010Prop43
 90
        3
102
RTVSPost2010PropOp43
 70
     1
102
RTVSPost2010Prop44ColorIndex
 90
        5
102
RTVSPost2010Prop44ColorRGB
 90
      255
102
RTVSPost2010PropOp44
 70
     1
102
RTVSPost2010Prop45
280
     0
102
RTVSPost2010PropOp45
 70
     1
102
RTVSPost2010Prop46
 90
       50
102
RTVSPost2010PropOp46
 70
     1
102
RTVSPost2010Prop47
 90
       50
102
RTVSPost2010PropOp47
 70
     1
102
RTVSPost2010Prop48
 90
       50
102
RTVSPost2010PropOp48
 70
     1
102
RTVSPost2010Prop49
280
     0
102
RTVSPost2010PropOp49
 70
     1
102
RTVSPost2010Prop50
 90
       50
102
RTVSPost2010PropOp50
 70
     1
102
RTVSPost2010Prop51ColorIndex
 90
      256
102
RTVSPost2010Prop51ColorRGB
 90
-16777216
102
RTVSPost2010PropOp51
 70
     0
102
RTVSPost2010Prop52
140
1.0
102
RTVSPost2010PropOp52
 70
     0
102
RTVSPost2010Prop53
 90
        2
102
RTVSPost2010PropOp53
 70
     1
102
RTVSPost2010Prop54
  1
strokes_ogs.tif
102
RTVSPost2010PropOp54
 70
     1
102
RTVSPost2010Prop55
280
     0
102
RTVSPost2010PropOp55
 70
     1
102
RTVSPost2010Prop56
140
1.0
102
RTVSPost2010PropOp56
 70
     1
102
RTVSPost2010Prop57
140
1.0
102
RTVSPost2010PropOp57
 70
     1
  0
XRECORD
  5
180
102
{ACAD_REACTORS
330
17F
102
}
330
17F
100
AcDbXrecord
280
     1
102
RTVSPost2010Prop28
280
     0
102
RTVSPost2010PropOp28
 70
     1
102
RTVSPost2010Prop29
280
     1
102
RTVSPost2010PropOp29
 70
     1
102
RTVSPost2010Prop30
280
     1
102
RTVSPost2010PropOp30
 70
     1
102
RTVSPost2010Prop31
280
     0
102
RTVSPost2010PropOp31
 70
     1
102
RTVSPost2010Prop32
280
     0
102
RTVSPost2010PropOp32
 70
     1
102
RTVSPost2010Prop33
280
     0
102
RTVSPost2010PropOp33
 70
     1
102
RTVSPost2010Prop34
280
     0
102
RTVSPost2010PropOp34
 70
     1
102
RTVSPost2010Prop35
280
     0
102
RTVSPost2010PropOp35
 70
     1
102
RTVSPost2010Prop36
280
     0
102
RTVSPost2010PropOp36
 70
     1
102
RTVSPost2010Prop37
 90
       50
102
RTVSPost2010PropOp37
 70
     1
102
RTVSPost2010Prop38
140
0.0
102
RTVSPost2010PropOp38
 70
     1
102
RTVSPost2010Prop39
140
1.0
102
RTVSPost2010PropOp39
 70
     1
102
RTVSPost2010Prop40
 90
        0
102
RTVSPost2010PropOp40
 70
     1
102
RTVSPost2010Prop41ColorIndex
 90
       18
102
RTVSPost2010Prop41ColorRGB
 90
        0
102
RTVSPost2010PropOp41
 70
     1
102
RTVSPost2010Prop42
 90
       50
102
RTVSPost2010PropOp42
 70
     1
102
RTVSPost2010Prop43
 90
        3
102
RTVSPost2010PropOp43
 70
     1
102
RTVSPost2010Prop44ColorIndex
 90
        5
102
RTVSPost2010Prop44ColorRGB
 90
      255
102
RTVSPost2010PropOp44
 70
     1
102
RTVSPost2010Prop45
280
     0
102
RTVSPost2010PropOp45
 70
     1
102
RTVSPost2010Prop46
 90
       50
102
RTVSPost2010PropOp46
 70
     1
102
RTVSPost2010Prop47
 90
       50
102
RTVSPost2010PropOp47
 70
     1
102
RTVSPost2010Prop48
 90
       50
102
RTVSPost2010PropOp48
 70
     1
102
RTVSPost2010Prop49
280
     0
102
RTVSPost2010PropOp49
 70
     1
102
RTVSPost2010Prop50
 90
       50
102
RTVSPost2010PropOp50
 70
     1
102
RTVSPost2010Prop51ColorIndex
 90
      256
102
RTVSPost2010Prop51ColorRGB
 90
-16777216
102
RTVSPost2010PropOp51
 70
     0
102
RTVSPost2010Prop52
140
1.0
102
RTVSPost2010PropOp52
 70
     0
102
RTVSPost2010Prop53
 90
        2
102
RTVSPost2010PropOp53
 70
     1
102
RTVSPost2010Prop54
  1
strokes_ogs.tif
102
RTVSPost2010PropOp54
 70
     1
102
RTVSPost2010Prop55
280
     0
102
RTVSPost2010PropOp55
 70
     1
102
RTVSPost2010Prop56
140
1.0
102
RTVSPost2010PropOp56
 70
     1
102
RTVSPost2010Prop57
140
1.0
102
RTVSPost2010PropOp57
 70
     1
  0
XRECORD
  5
182
102
{ACAD_REACTORS
330
181
102
}
330
181
100
AcDbXrecord
280
     1
102
RTVSPost2010Prop28
280
     0
102
RTVSPost2010PropOp28
 70
     1
102
RTVSPost2010Prop29
280
     1
102
RTVSPost2010PropOp29
 70
     1
102
RTVSPost2010Prop30
280
     1
102
RTVSPost2010PropOp30
 70
     1
102
RTVSPost2010Prop31
280
     0
102
RTVSPost2010PropOp31
 70
     1
102
RTVSPost2010Prop32
280
     0
102
RTVSPost2010PropOp32
 70
     1
102
RTVSPost2010Prop33
280
     0
102
RTVSPost2010PropOp33
 70
     1
102
RTVSPost2010Prop34
280
     0
102
RTVSPost2010PropOp34
 70
     1
102
RTVSPost2010Prop35
280
     0
102
RTVSPost2010PropOp35
 70
     1
102
RTVSPost2010Prop36
280
     0
102
RTVSPost2010PropOp36
 70
     1
102
RTVSPost2010Prop37
 90
       50
102
RTVSPost2010PropOp37
 70
     1
102
RTVSPost2010Prop38
140
0.0
102
RTVSPost2010PropOp38
 70
     1
102
RTVSPost2010Prop39
140
1.0
102
RTVSPost2010PropOp39
 70
     1
102
RTVSPost2010Prop40
 90
        0
102
RTVSPost2010PropOp40
 70
     1
102
RTVSPost2010Prop41ColorIndex
 90
       18
102
RTVSPost2010Prop41ColorRGB
 90
        0
102
RTVSPost2010PropOp41
 70
     1
102
RTVSPost2010Prop42
 90
       50
102
RTVSPost2010PropOp42
 70
     1
102
RTVSPost2010Prop43
 90
        3
102
RTVSPost2010PropOp43
 70
     1
102
RTVSPost2010Prop44ColorIndex
 90
        5
102
RTVSPost2010Prop44ColorRGB
 90
      255
102
RTVSPost2010PropOp44
 70
     1
102
RTVSPost2010Prop45
280
     0
102
RTVSPost2010PropOp45
 70
     1
102
RTVSPost2010Prop46
 90
       50
102
RTVSPost2010PropOp46
 70
     1
102
RTVSPost2010Prop47
 90
       50
102
RTVSPost2010PropOp47
 70
     1
102
RTVSPost2010Prop48
 90
       50
102
RTVSPost2010PropOp48
 70
     1
102
RTVSPost2010Prop49
280
     0
102
RTVSPost2010PropOp49
 70
     1
102
RTVSPost2010Prop50
 90
       50
102
RTVSPost2010PropOp50
 70
     1
102
RTVSPost2010Prop51ColorIndex
 90
      256
102
RTVSPost2010Prop51ColorRGB
 90
-16777216
102
RTVSPost2010PropOp51
 70
     0
102
RTVSPost2010Prop52
140
1.0
102
RTVSPost2010PropOp52
 70
     0
102
RTVSPost2010Prop53
 90
        2
102
RTVSPost2010PropOp53
 70
     1
102
RTVSPost2010Prop54
  1
strokes_ogs.tif
102
RTVSPost2010PropOp54
 70
     1
102
RTVSPost2010Prop55
280
     0
102
RTVSPost2010PropOp55
 70
     1
102
RTVSPost2010Prop56
140
1.0
102
RTVSPost2010PropOp56
 70
     1
102
RTVSPost2010Prop57
140
1.0
102
RTVSPost2010PropOp57
 70
     1
  0
XRECORD
  5
184
102
{ACAD_REACTORS
330
183
102
}
330
183
100
AcDbXrecord
280
     1
102
RTVSPost2010Prop28
280
     0
102
RTVSPost2010PropOp28
 70
     1
102
RTVSPost2010Prop29
280
     1
102
RTVSPost2010PropOp29
 70
     1
102
RTVSPost2010Prop30
280
     1
102
RTVSPost2010PropOp30
 70
     1
102
RTVSPost2010Prop31
280
     0
102
RTVSPost2010PropOp31
 70
     1
102
RTVSPost2010Prop32
280
     0
102
RTVSPost2010PropOp32
 70
     1
102
RTVSPost2010Prop33
280
     0
102
RTVSPost2010PropOp33
 70
     1
102
RTVSPost2010Prop34
280
     0
102
RTVSPost2010PropOp34
 70
     1
102
RTVSPost2010Prop35
280
     0
102
RTVSPost2010PropOp35
 70
     1
102
RTVSPost2010Prop36
280
     0
102
RTVSPost2010PropOp36
 70
     1
102
RTVSPost2010Prop37
 90
       50
102
RTVSPost2010PropOp37
 70
     1
102
RTVSPost2010Prop38
140
0.0
102
RTVSPost2010PropOp38
 70
     1
102
RTVSPost2010Prop39
140
1.0
102
RTVSPost2010PropOp39
 70
     1
102
RTVSPost2010Prop40
 90
        0
102
RTVSPost2010PropOp40
 70
     1
102
RTVSPost2010Prop41ColorIndex
 90
       18
102
RTVSPost2010Prop41ColorRGB
 90
        0
102
RTVSPost2010PropOp41
 70
     1
102
RTVSPost2010Prop42
 90
       50
102
RTVSPost2010PropOp42
 70
     1
102
RTVSPost2010Prop43
 90
        3
102
RTVSPost2010PropOp43
 70
     1
102
RTVSPost2010Prop44ColorIndex
 90
        5
102
RTVSPost2010Prop44ColorRGB
 90
      255
102
RTVSPost2010PropOp44
 70
     1
102
RTVSPost2010Prop45
280
     0
102
RTVSPost2010PropOp45
 70
     1
102
RTVSPost2010Prop46
 90
       50
102
RTVSPost2010PropOp46
 70
     1
102
RTVSPost2010Prop47
 90
       50
102
RTVSPost2010PropOp47
 70
     1
102
RTVSPost2010Prop48
 90
       50
102
RTVSPost2010PropOp48
 70
     1
102
RTVSPost2010Prop49
280
     0
102
RTVSPost2010PropOp49
 70
     1
102
RTVSPost2010Prop50
 90
       50
102
RTVSPost2010PropOp50
 70
     1
102
RTVSPost2010Prop51ColorIndex
 90
      256
102
RTVSPost2010Prop51ColorRGB
 90
-16777216
102
RTVSPost2010PropOp51
 70
     0
102
RTVSPost2010Prop52
140
1.0
102
RTVSPost2010PropOp52
 70
     0
102
RTVSPost2010Prop53
 90
        2
102
RTVSPost2010PropOp53
 70
     1
102
RTVSPost2010Prop54
  1
strokes_ogs.tif
102
RTVSPost2010PropOp54
 70
     1
102
RTVSPost2010Prop55
280
     0
102
RTVSPost2010PropOp55
 70
     1
102
RTVSPost2010Prop56
140
1.0
102
RTVSPost2010PropOp56
 70
     1
102
RTVSPost2010Prop57
140
1.0
102
RTVSPost2010PropOp57
 70
     1
  0
XRECORD
  5
18C
102
{ACAD_REACTORS
330
18B
102
}
330
18B
100
AcDbXrecord
280
     1
102
RTVSPost2010Prop28
280
     0
102
RTVSPost2010PropOp28
 70
     1
102
RTVSPost2010Prop29
280
     1
102
RTVSPost2010PropOp29
 70
     1
102
RTVSPost2010Prop30
280
     1
102
RTVSPost2010PropOp30
 70
     1
102
RTVSPost2010Prop31
280
     0
102
RTVSPost2010PropOp31
 70
     1
102
RTVSPost2010Prop32
280
     0
102
RTVSPost2010PropOp32
 70
     1
102
RTVSPost2010Prop33
280
     0
102
RTVSPost2010PropOp33
 70
     1
102
RTVSPost2010Prop34
280
     0
102
RTVSPost2010PropOp34
 70
     1
102
RTVSPost2010Prop35
280
     0
102
RTVSPost2010PropOp35
 70
     1
102
RTVSPost2010Prop36
280
     0
102
RTVSPost2010PropOp36
 70
     1
102
RTVSPost2010Prop37
 90
       50
102
RTVSPost2010PropOp37
 70
     1
102
RTVSPost2010Prop38
140
0.0
102
RTVSPost2010PropOp38
 70
     1
102
RTVSPost2010Prop39
140
1.0
102
RTVSPost2010PropOp39
 70
     1
102
RTVSPost2010Prop40
 90
        0
102
RTVSPost2010PropOp40
 70
     1
102
RTVSPost2010Prop41ColorIndex
 90
       18
102
RTVSPost2010Prop41ColorRGB
 90
        0
102
RTVSPost2010PropOp41
 70
     1
102
RTVSPost2010Prop42
 90
       50
102
RTVSPost2010PropOp42
 70
     1
102
RTVSPost2010Prop43
 90
        3
102
RTVSPost2010PropOp43
 70
     1
102
RTVSPost2010Prop44ColorIndex
 90
        5
102
RTVSPost2010Prop44ColorRGB
 90
      255
102
RTVSPost2010PropOp44
 70
     1
102
RTVSPost2010Prop45
280
     0
102
RTVSPost2010PropOp45
 70
     1
102
RTVSPost2010Prop46
 90
       50
102
RTVSPost2010PropOp46
 70
     1
102
RTVSPost2010Prop47
 90
       50
102
RTVSPost2010PropOp47
 70
     1
102
RTVSPost2010Prop48
 90
       50
102
RTVSPost2010PropOp48
 70
     1
102
RTVSPost2010Prop49
280
     0
102
RTVSPost2010PropOp49
 70
     1
102
RTVSPost2010Prop50
 90
       50
102
RTVSPost2010PropOp50
 70
     1
102
RTVSPost2010Prop51ColorIndex
 90
      256
102
RTVSPost2010Prop51ColorRGB
 90
-16777216
102
RTVSPost2010PropOp51
 70
     0
102
RTVSPost2010Prop52
140
1.0
102
RTVSPost2010PropOp52
 70
     0
102
RTVSPost2010Prop53
 90
        2
102
RTVSPost2010PropOp53
 70
     1
102
RTVSPost2010Prop54
  1
strokes_ogs.tif
102
RTVSPost2010PropOp54
 70
     1
102
RTVSPost2010Prop55
280
     0
102
RTVSPost2010PropOp55
 70
     1
102
RTVSPost2010Prop56
140
1.0
102
RTVSPost2010PropOp56
 70
     1
102
RTVSPost2010Prop57
140
1.0
102
RTVSPost2010PropOp57
 70
     1
  0
XRECORD
  5
1A8
102
{ACAD_REACTORS
330
1A7
102
}
330
1A7
100
AcDbXrecord
280
     1
102
RTVSPost2010Prop28
280
     0
102
RTVSPost2010PropOp28
 70
     0
102
RTVSPost2010Prop29
280
     1
102
RTVSPost2010PropOp29
 70
     0
102
RTVSPost2010Prop30
280
     1
102
RTVSPost2010PropOp30
 70
     0
102
RTVSPost2010Prop31
280
     0
102
RTVSPost2010PropOp31
 70
     0
102
RTVSPost2010Prop32
280
     0
102
RTVSPost2010PropOp32
 70
     0
102
RTVSPost2010Prop33
280
     0
102
RTVSPost2010PropOp33
 70
     0
102
RTVSPost2010Prop34
280
     0
102
RTVSPost2010PropOp34
 70
     0
102
RTVSPost2010Prop35
280
     0
102
RTVSPost2010PropOp35
 70
     0
102
RTVSPost2010Prop36
280
     0
102
RTVSPost2010PropOp36
 70
     0
102
RTVSPost2010Prop37
 90
       50
102
RTVSPost2010PropOp37
 70
     0
102
RTVSPost2010Prop38
140
0.0
102
RTVSPost2010PropOp38
 70
     0
102
RTVSPost2010Prop39
140
1.0
102
RTVSPost2010PropOp39
 70
     0
102
RTVSPost2010Prop40
 90
        0
102
RTVSPost2010PropOp40
 70
     0
102
RTVSPost2010Prop41ColorIndex
 90
       18
102
RTVSPost2010Prop41ColorRGB
 90
        0
102
RTVSPost2010PropOp41
 70
     0
102
RTVSPost2010Prop42
 90
       50
102
RTVSPost2010PropOp42
 70
     0
102
RTVSPost2010Prop43
 90
        3
102
RTVSPost2010PropOp43
 70
     0
102
RTVSPost2010Prop44ColorIndex
 90
        5
102
RTVSPost2010Prop44ColorRGB
 90
      255
102
RTVSPost2010PropOp44
 70
     0
102
RTVSPost2010Prop45
280
     0
102
RTVSPost2010PropOp45
 70
     0
102
RTVSPost2010Prop46
 90
       50
102
RTVSPost2010PropOp46
 70
     0
102
RTVSPost2010Prop47
 90
       50
102
RTVSPost2010PropOp47
 70
     0
102
RTVSPost2010Prop48
 90
       50
102
RTVSPost2010PropOp48
 70
     0
102
RTVSPost2010Prop49
280
     0
102
RTVSPost2010PropOp49
 70
     0
102
RTVSPost2010Prop50
 90
       50
102
RTVSPost2010PropOp50
 70
     0
102
RTVSPost2010Prop51ColorIndex
 90
      256
102
RTVSPost2010Prop51ColorRGB
 90
-16777216
102
RTVSPost2010PropOp51
 70
     0
102
RTVSPost2010Prop52
140
1.0
102
RTVSPost2010PropOp52
 70
     0
102
RTVSPost2010Prop53
 90
        2
102
RTVSPost2010PropOp53
 70
     0
102
RTVSPost2010Prop54
  1
strokes_ogs.tif
102
RTVSPost2010PropOp54
 70
     0
102
RTVSPost2010Prop55
280
     0
102
RTVSPost2010PropOp55
 70
     0
102
RTVSPost2010Prop56
140
1.0
102
RTVSPost2010PropOp56
 70
     0
102
RTVSPost2010Prop57
140
1.0
102
RTVSPost2010PropOp57
 70
     0
  0
XRECORD
  5
198
102
{ACAD_REACTORS
330
197
102
}
330
197
100
AcDbXrecord
280
     1
102
RTVSPost2010Prop28
280
     0
102
RTVSPost2010PropOp28
 70
     1
102
RTVSPost2010Prop29
280
     1
102
RTVSPost2010PropOp29
 70
     1
102
RTVSPost2010Prop30
280
     1
102
RTVSPost2010PropOp30
 70
     1
102
RTVSPost2010Prop31
280
     0
102
RTVSPost2010PropOp31
 70
     1
102
RTVSPost2010Prop32
280
     0
102
RTVSPost2010PropOp32
 70
     1
102
RTVSPost2010Prop33
280
     0
102
RTVSPost2010PropOp33
 70
     1
102
RTVSPost2010Prop34
280
     0
102
RTVSPost2010PropOp34
 70
     1
102
RTVSPost2010Prop35
280
     0
102
RTVSPost2010PropOp35
 70
     1
102
RTVSPost2010Prop36
280
     0
102
RTVSPost2010PropOp36
 70
     1
102
RTVSPost2010Prop37
 90
       50
102
RTVSPost2010PropOp37
 70
     1
102
RTVSPost2010Prop38
140
0.0
102
RTVSPost2010PropOp38
 70
     1
102
RTVSPost2010Prop39
140
1.0
102
RTVSPost2010PropOp39
 70
     1
102
RTVSPost2010Prop40
 90
        0
102
RTVSPost2010PropOp40
 70
     1
102
RTVSPost2010Prop41ColorIndex
 90
       18
102
RTVSPost2010Prop41ColorRGB
 90
        0
102
RTVSPost2010PropOp41
 70
     1
102
RTVSPost2010Prop42
 90
       50
102
RTVSPost2010PropOp42
 70
     1
102
RTVSPost2010Prop43
 90
        3
102
RTVSPost2010PropOp43
 70
     1
102
RTVSPost2010Prop44ColorIndex
 90
        5
102
RTVSPost2010Prop44ColorRGB
 90
      255
102
RTVSPost2010PropOp44
 70
     1
102
RTVSPost2010Prop45
280
     0
102
RTVSPost2010PropOp45
 70
     1
102
RTVSPost2010Prop46
 90
       50
102
RTVSPost2010PropOp46
 70
     1
102
RTVSPost2010Prop47
 90
       50
102
RTVSPost2010PropOp47
 70
     1
102
RTVSPost2010Prop48
 90
       50
102
RTVSPost2010PropOp48
 70
     1
102
RTVSPost2010Prop49
280
     0
102
RTVSPost2010PropOp49
 70
     1
102
RTVSPost2010Prop50
 90
       50
102
RTVSPost2010PropOp50
 70
     1
102
RTVSPost2010Prop51ColorIndex
 90
      256
102
RTVSPost2010Prop51ColorRGB
 90
-16777216
102
RTVSPost2010PropOp51
 70
     0
102
RTVSPost2010Prop52
140
1.0
102
RTVSPost2010PropOp52
 70
     0
102
RTVSPost2010Prop53
 90
        2
102
RTVSPost2010PropOp53
 70
     1
102
RTVSPost2010Prop54
  1
strokes_ogs.tif
102
RTVSPost2010PropOp54
 70
     1
102
RTVSPost2010Prop55
280
     0
102
RTVSPost2010PropOp55
 70
     1
102
RTVSPost2010Prop56
140
1.0
102
RTVSPost2010PropOp56
 70
     1
102
RTVSPost2010Prop57
140
1.0
102
RTVSPost2010PropOp57
 70
     1
  0
XRECORD
  5
1AA
102
{ACAD_REACTORS
330
1A9
102
}
330
1A9
100
AcDbXrecord
280
     1
102
RTVSPost2010Prop28
280
     0
102
RTVSPost2010PropOp28
 70
     0
102
RTVSPost2010Prop29
280
     1
102
RTVSPost2010PropOp29
 70
     0
102
RTVSPost2010Prop30
280
     1
102
RTVSPost2010PropOp30
 70
     0
102
RTVSPost2010Prop31
280
     0
102
RTVSPost2010PropOp31
 70
     0
102
RTVSPost2010Prop32
280
     0
102
RTVSPost2010PropOp32
 70
     0
102
RTVSPost2010Prop33
280
     0
102
RTVSPost2010PropOp33
 70
     0
102
RTVSPost2010Prop34
280
     0
102
RTVSPost2010PropOp34
 70
     0
102
RTVSPost2010Prop35
280
     0
102
RTVSPost2010PropOp35
 70
     0
102
RTVSPost2010Prop36
280
     0
102
RTVSPost2010PropOp36
 70
     0
102
RTVSPost2010Prop37
 90
       50
102
RTVSPost2010PropOp37
 70
     0
102
RTVSPost2010Prop38
140
0.0
102
RTVSPost2010PropOp38
 70
     0
102
RTVSPost2010Prop39
140
1.0
102
RTVSPost2010PropOp39
 70
     0
102
RTVSPost2010Prop40
 90
        0
102
RTVSPost2010PropOp40
 70
     0
102
RTVSPost2010Prop41ColorIndex
 90
       18
102
RTVSPost2010Prop41ColorRGB
 90
        0
102
RTVSPost2010PropOp41
 70
     0
102
RTVSPost2010Prop42
 90
       50
102
RTVSPost2010PropOp42
 70
     0
102
RTVSPost2010Prop43
 90
        3
102
RTVSPost2010PropOp43
 70
     0
102
RTVSPost2010Prop44ColorIndex
 90
        5
102
RTVSPost2010Prop44ColorRGB
 90
      255
102
RTVSPost2010PropOp44
 70
     0
102
RTVSPost2010Prop45
280
     0
102
RTVSPost2010PropOp45
 70
     0
102
RTVSPost2010Prop46
 90
       50
102
RTVSPost2010PropOp46
 70
     0
102
RTVSPost2010Prop47
 90
       50
102
RTVSPost2010PropOp47
 70
     0
102
RTVSPost2010Prop48
 90
       50
102
RTVSPost2010PropOp48
 70
     0
102
RTVSPost2010Prop49
280
     0
102
RTVSPost2010PropOp49
 70
     0
102
RTVSPost2010Prop50
 90
       50
102
RTVSPost2010PropOp50
 70
     0
102
RTVSPost2010Prop51ColorIndex
 90
      256
102
RTVSPost2010Prop51ColorRGB
 90
-16777216
102
RTVSPost2010PropOp51
 70
     0
102
RTVSPost2010Prop52
140
1.0
102
RTVSPost2010PropOp52
 70
     0
102
RTVSPost2010Prop53
 90
        2
102
RTVSPost2010PropOp53
 70
     0
102
RTVSPost2010Prop54
  1
strokes_ogs.tif
102
RTVSPost2010PropOp54
 70
     0
102
RTVSPost2010Prop55
280
     0
102
RTVSPost2010PropOp55
 70
     0
102
RTVSPost2010Prop56
140
1.0
102
RTVSPost2010PropOp56
 70
     0
102
RTVSPost2010Prop57
140
1.0
102
RTVSPost2010PropOp57
 70
     0
  0
XRECORD
  5
190
102
{ACAD_REACTORS
330
18F
102
}
330
18F
100
AcDbXrecord
280
     1
102
RTVSPost2010Prop28
280
     0
102
RTVSPost2010PropOp28
 70
     1
102
RTVSPost2010Prop29
280
     1
102
RTVSPost2010PropOp29
 70
     1
102
RTVSPost2010Prop30
280
     1
102
RTVSPost2010PropOp30
 70
     1
102
RTVSPost2010Prop31
280
     0
102
RTVSPost2010PropOp31
 70
     1
102
RTVSPost2010Prop32
280
     0
102
RTVSPost2010PropOp32
 70
     1
102
RTVSPost2010Prop33
280
     0
102
RTVSPost2010PropOp33
 70
     1
102
RTVSPost2010Prop34
280
     0
102
RTVSPost2010PropOp34
 70
     1
102
RTVSPost2010Prop35
280
     0
102
RTVSPost2010PropOp35
 70
     1
102
RTVSPost2010Prop36
280
     0
102
RTVSPost2010PropOp36
 70
     1
102
RTVSPost2010Prop37
 90
       50
102
RTVSPost2010PropOp37
 70
     1
102
RTVSPost2010Prop38
140
0.0
102
RTVSPost2010PropOp38
 70
     1
102
RTVSPost2010Prop39
140
1.0
102
RTVSPost2010PropOp39
 70
     1
102
RTVSPost2010Prop40
 90
        0
102
RTVSPost2010PropOp40
 70
     1
102
RTVSPost2010Prop41ColorIndex
 90
       18
102
RTVSPost2010Prop41ColorRGB
 90
        0
102
RTVSPost2010PropOp41
 70
     1
102
RTVSPost2010Prop42
 90
       50
102
RTVSPost2010PropOp42
 70
     1
102
RTVSPost2010Prop43
 90
        3
102
RTVSPost2010PropOp43
 70
     1
102
RTVSPost2010Prop44ColorIndex
 90
        5
102
RTVSPost2010Prop44ColorRGB
 90
      255
102
RTVSPost2010PropOp44
 70
     1
102
RTVSPost2010Prop45
280
     0
102
RTVSPost2010PropOp45
 70
     1
102
RTVSPost2010Prop46
 90
       50
102
RTVSPost2010PropOp46
 70
     1
102
RTVSPost2010Prop47
 90
       50
102
RTVSPost2010PropOp47
 70
     1
102
RTVSPost2010Prop48
 90
       50
102
RTVSPost2010PropOp48
 70
     1
102
RTVSPost2010Prop49
280
     0
102
RTVSPost2010PropOp49
 70
     1
102
RTVSPost2010Prop50
 90
       50
102
RTVSPost2010PropOp50
 70
     1
102
RTVSPost2010Prop51ColorIndex
 90
      256
102
RTVSPost2010Prop51ColorRGB
 90
-16777216
102
RTVSPost2010PropOp51
 70
     0
102
RTVSPost2010Prop52
140
1.0
102
RTVSPost2010PropOp52
 70
     0
102
RTVSPost2010Prop53
 90
        2
102
RTVSPost2010PropOp53
 70
     1
102
RTVSPost2010Prop54
  1
strokes_ogs.tif
102
RTVSPost2010PropOp54
 70
     1
102
RTVSPost2010Prop55
280
     0
102
RTVSPost2010PropOp55
 70
     1
102
RTVSPost2010Prop56
140
1.0
102
RTVSPost2010PropOp56
 70
     1
102
RTVSPost2010Prop57
140
1.0
102
RTVSPost2010PropOp57
 70
     1
  0
XRECORD
  5
1A6
102
{ACAD_REACTORS
330
1A5
102
}
330
1A5
100
AcDbXrecord
280
     1
102
RTVSPost2010Prop28
280
     0
102
RTVSPost2010PropOp28
 70
     1
102
RTVSPost2010Prop29
280
     1
102
RTVSPost2010PropOp29
 70
     1
102
RTVSPost2010Prop30
280
     1
102
RTVSPost2010PropOp30
 70
     1
102
RTVSPost2010Prop31
280
     0
102
RTVSPost2010PropOp31
 70
     1
102
RTVSPost2010Prop32
280
     0
102
RTVSPost2010PropOp32
 70
     1
102
RTVSPost2010Prop33
280
     0
102
RTVSPost2010PropOp33
 70
     1
102
RTVSPost2010Prop34
280
     0
102
RTVSPost2010PropOp34
 70
     1
102
RTVSPost2010Prop35
280
     0
102
RTVSPost2010PropOp35
 70
     1
102
RTVSPost2010Prop36
280
     0
102
RTVSPost2010PropOp36
 70
     1
102
RTVSPost2010Prop37
 90
       50
102
RTVSPost2010PropOp37
 70
     1
102
RTVSPost2010Prop38
140
0.0
102
RTVSPost2010PropOp38
 70
     1
102
RTVSPost2010Prop39
140
1.0
102
RTVSPost2010PropOp39
 70
     1
102
RTVSPost2010Prop40
 90
        0
102
RTVSPost2010PropOp40
 70
     1
102
RTVSPost2010Prop41ColorIndex
 90
       18
102
RTVSPost2010Prop41ColorRGB
 90
        0
102
RTVSPost2010PropOp41
 70
     1
102
RTVSPost2010Prop42
 90
       50
102
RTVSPost2010PropOp42
 70
     1
102
RTVSPost2010Prop43
 90
        3
102
RTVSPost2010PropOp43
 70
     1
102
RTVSPost2010Prop44ColorIndex
 90
        5
102
RTVSPost2010Prop44ColorRGB
 90
      255
102
RTVSPost2010PropOp44
 70
     1
102
RTVSPost2010Prop45
280
     0
102
RTVSPost2010PropOp45
 70
     1
102
RTVSPost2010Prop46
 90
       50
102
RTVSPost2010PropOp46
 70
     1
102
RTVSPost2010Prop47
 90
       50
102
RTVSPost2010PropOp47
 70
     1
102
RTVSPost2010Prop48
 90
       50
102
RTVSPost2010PropOp48
 70
     1
102
RTVSPost2010Prop49
280
     0
102
RTVSPost2010PropOp49
 70
     1
102
RTVSPost2010Prop50
 90
       50
102
RTVSPost2010PropOp50
 70
     1
102
RTVSPost2010Prop51ColorIndex
 90
      256
102
RTVSPost2010Prop51ColorRGB
 90
-16777216
102
RTVSPost2010PropOp51
 70
     0
102
RTVSPost2010Prop52
140
1.0
102
RTVSPost2010PropOp52
 70
     0
102
RTVSPost2010Prop53
 90
        2
102
RTVSPost2010PropOp53
 70
     1
102
RTVSPost2010Prop54
  1
strokes_ogs.tif
102
RTVSPost2010PropOp54
 70
     1
102
RTVSPost2010Prop55
280
     0
102
RTVSPost2010PropOp55
 70
     1
102
RTVSPost2010Prop56
140
1.0
102
RTVSPost2010PropOp56
 70
     1
102
RTVSPost2010Prop57
140
1.0
102
RTVSPost2010PropOp57
 70
     1
  0
XRECORD
  5
1A4
102
{ACAD_REACTORS
330
1A3
102
}
330
1A3
100
AcDbXrecord
280
     1
102
RTVSPost2010Prop28
280
     0
102
RTVSPost2010PropOp28
 70
     1
102
RTVSPost2010Prop29
280
     1
102
RTVSPost2010PropOp29
 70
     1
102
RTVSPost2010Prop30
280
     1
102
RTVSPost2010PropOp30
 70
     1
102
RTVSPost2010Prop31
280
     0
102
RTVSPost2010PropOp31
 70
     1
102
RTVSPost2010Prop32
280
     0
102
RTVSPost2010PropOp32
 70
     1
102
RTVSPost2010Prop33
280
     0
102
RTVSPost2010PropOp33
 70
     1
102
RTVSPost2010Prop34
280
     0
102
RTVSPost2010PropOp34
 70
     1
102
RTVSPost2010Prop35
280
     0
102
RTVSPost2010PropOp35
 70
     1
102
RTVSPost2010Prop36
280
     0
102
RTVSPost2010PropOp36
 70
     1
102
RTVSPost2010Prop37
 90
       50
102
RTVSPost2010PropOp37
 70
     1
102
RTVSPost2010Prop38
140
0.0
102
RTVSPost2010PropOp38
 70
     1
102
RTVSPost2010Prop39
140
1.0
102
RTVSPost2010PropOp39
 70
     1
102
RTVSPost2010Prop40
 90
        0
102
RTVSPost2010PropOp40
 70
     1
102
RTVSPost2010Prop41ColorIndex
 90
       18
102
RTVSPost2010Prop41ColorRGB
 90
        0
102
RTVSPost2010PropOp41
 70
     1
102
RTVSPost2010Prop42
 90
       50
102
RTVSPost2010PropOp42
 70
     1
102
RTVSPost2010Prop43
 90
        3
102
RTVSPost2010PropOp43
 70
     1
102
RTVSPost2010Prop44ColorIndex
 90
        5
102
RTVSPost2010Prop44ColorRGB
 90
      255
102
RTVSPost2010PropOp44
 70
     1
102
RTVSPost2010Prop45
280
     0
102
RTVSPost2010PropOp45
 70
     1
102
RTVSPost2010Prop46
 90
       50
102
RTVSPost2010PropOp46
 70
     1
102
RTVSPost2010Prop47
 90
       50
102
RTVSPost2010PropOp47
 70
     1
102
RTVSPost2010Prop48
 90
       50
102
RTVSPost2010PropOp48
 70
     1
102
RTVSPost2010Prop49
280
     0
102
RTVSPost2010PropOp49
 70
     1
102
RTVSPost2010Prop50
 90
       50
102
RTVSPost2010PropOp50
 70
     1
102
RTVSPost2010Prop51ColorIndex
 90
      256
102
RTVSPost2010Prop51ColorRGB
 90
-16777216
102
RTVSPost2010PropOp51
 70
     0
102
RTVSPost2010Prop52
140
1.0
102
RTVSPost2010PropOp52
 70
     0
102
RTVSPost2010Prop53
 90
        2
102
RTVSPost2010PropOp53
 70
     1
102
RTVSPost2010Prop54
  1
strokes_ogs.tif
102
RTVSPost2010PropOp54
 70
     1
102
RTVSPost2010Prop55
280
     0
102
RTVSPost2010PropOp55
 70
     1
102
RTVSPost2010Prop56
140
1.0
102
RTVSPost2010PropOp56
 70
     1
102
RTVSPost2010Prop57
140
1.0
102
RTVSPost2010PropOp57
 70
     1
  0
XRECORD
  5
19E
102
{ACAD_REACTORS
330
19D
102
}
330
19D
100
AcDbXrecord
280
     1
102
RTVSPost2010Prop28
280
     0
102
RTVSPost2010PropOp28
 70
     1
102
RTVSPost2010Prop29
280
     1
102
RTVSPost2010PropOp29
 70
     1
102
RTVSPost2010Prop30
280
     1
102
RTVSPost2010PropOp30
 70
     1
102
RTVSPost2010Prop31
280
     0
102
RTVSPost2010PropOp31
 70
     1
102
RTVSPost2010Prop32
280
     0
102
RTVSPost2010PropOp32
 70
     1
102
RTVSPost2010Prop33
280
     0
102
RTVSPost2010PropOp33
 70
     1
102
RTVSPost2010Prop34
280
     0
102
RTVSPost2010PropOp34
 70
     1
102
RTVSPost2010Prop35
280
     0
102
RTVSPost2010PropOp35
 70
     1
102
RTVSPost2010Prop36
280
     0
102
RTVSPost2010PropOp36
 70
     1
102
RTVSPost2010Prop37
 90
       50
102
RTVSPost2010PropOp37
 70
     1
102
RTVSPost2010Prop38
140
0.0
102
RTVSPost2010PropOp38
 70
     1
102
RTVSPost2010Prop39
140
1.0
102
RTVSPost2010PropOp39
 70
     1
102
RTVSPost2010Prop40
 90
        0
102
RTVSPost2010PropOp40
 70
     1
102
RTVSPost2010Prop41ColorIndex
 90
       18
102
RTVSPost2010Prop41ColorRGB
 90
        0
102
RTVSPost2010PropOp41
 70
     1
102
RTVSPost2010Prop42
 90
       50
102
RTVSPost2010PropOp42
 70
     1
102
RTVSPost2010Prop43
 90
        3
102
RTVSPost2010PropOp43
 70
     1
102
RTVSPost2010Prop44ColorIndex
 90
        5
102
RTVSPost2010Prop44ColorRGB
 90
      255
102
RTVSPost2010PropOp44
 70
     1
102
RTVSPost2010Prop45
280
     0
102
RTVSPost2010PropOp45
 70
     1
102
RTVSPost2010Prop46
 90
       50
102
RTVSPost2010PropOp46
 70
     1
102
RTVSPost2010Prop47
 90
       50
102
RTVSPost2010PropOp47
 70
     1
102
RTVSPost2010Prop48
 90
       50
102
RTVSPost2010PropOp48
 70
     1
102
RTVSPost2010Prop49
280
     0
102
RTVSPost2010PropOp49
 70
     1
102
RTVSPost2010Prop50
 90
       50
102
RTVSPost2010PropOp50
 70
     1
102
RTVSPost2010Prop51ColorIndex
 90
      256
102
RTVSPost2010Prop51ColorRGB
 90
-16777216
102
RTVSPost2010PropOp51
 70
     0
102
RTVSPost2010Prop52
140
1.0
102
RTVSPost2010PropOp52
 70
     0
102
RTVSPost2010Prop53
 90
        2
102
RTVSPost2010PropOp53
 70
     1
102
RTVSPost2010Prop54
  1
strokes_ogs.tif
102
RTVSPost2010PropOp54
 70
     1
102
RTVSPost2010Prop55
280
     0
102
RTVSPost2010PropOp55
 70
     1
102
RTVSPost2010Prop56
140
1.0
102
RTVSPost2010PropOp56
 70
     1
102
RTVSPost2010Prop57
140
1.0
102
RTVSPost2010PropOp57
 70
     1
  0
XRECORD
  5
1A0
102
{ACAD_REACTORS
330
19F
102
}
330
19F
100
AcDbXrecord
280
     1
102
RTVSPost2010Prop28
280
     0
102
RTVSPost2010PropOp28
 70
     1
102
RTVSPost2010Prop29
280
     1
102
RTVSPost2010PropOp29
 70
     1
102
RTVSPost2010Prop30
280
     1
102
RTVSPost2010PropOp30
 70
     1
102
RTVSPost2010Prop31
280
     0
102
RTVSPost2010PropOp31
 70
     1
102
RTVSPost2010Prop32
280
     0
102
RTVSPost2010PropOp32
 70
     1
102
RTVSPost2010Prop33
280
     0
102
RTVSPost2010PropOp33
 70
     1
102
RTVSPost2010Prop34
280
     0
102
RTVSPost2010PropOp34
 70
     1
102
RTVSPost2010Prop35
280
     0
102
RTVSPost2010PropOp35
 70
     1
102
RTVSPost2010Prop36
280
     0
102
RTVSPost2010PropOp36
 70
     1
102
RTVSPost2010Prop37
 90
       50
102
RTVSPost2010PropOp37
 70
     1
102
RTVSPost2010Prop38
140
0.0
102
RTVSPost2010PropOp38
 70
     1
102
RTVSPost2010Prop39
140
1.0
102
RTVSPost2010PropOp39
 70
     1
102
RTVSPost2010Prop40
 90
        0
102
RTVSPost2010PropOp40
 70
     1
102
RTVSPost2010Prop41ColorIndex
 90
       18
102
RTVSPost2010Prop41ColorRGB
 90
        0
102
RTVSPost2010PropOp41
 70
     1
102
RTVSPost2010Prop42
 90
       50
102
RTVSPost2010PropOp42
 70
     1
102
RTVSPost2010Prop43
 90
        3
102
RTVSPost2010PropOp43
 70
     1
102
RTVSPost2010Prop44ColorIndex
 90
        5
102
RTVSPost2010Prop44ColorRGB
 90
      255
102
RTVSPost2010PropOp44
 70
     1
102
RTVSPost2010Prop45
280
     0
102
RTVSPost2010PropOp45
 70
     1
102
RTVSPost2010Prop46
 90
       50
102
RTVSPost2010PropOp46
 70
     1
102
RTVSPost2010Prop47
 90
       50
102
RTVSPost2010PropOp47
 70
     1
102
RTVSPost2010Prop48
 90
       50
102
RTVSPost2010PropOp48
 70
     1
102
RTVSPost2010Prop49
280
     0
102
RTVSPost2010PropOp49
 70
     1
102
RTVSPost2010Prop50
 90
       50
102
RTVSPost2010PropOp50
 70
     1
102
RTVSPost2010Prop51ColorIndex
 90
      256
102
RTVSPost2010Prop51ColorRGB
 90
-16777216
102
RTVSPost2010PropOp51
 70
     0
102
RTVSPost2010Prop52
140
1.0
102
RTVSPost2010PropOp52
 70
     0
102
RTVSPost2010Prop53
 90
        2
102
RTVSPost2010PropOp53
 70
     1
102
RTVSPost2010Prop54
  1
strokes_ogs.tif
102
RTVSPost2010PropOp54
 70
     1
102
RTVSPost2010Prop55
280
     0
102
RTVSPost2010PropOp55
 70
     1
102
RTVSPost2010Prop56
140
1.0
102
RTVSPost2010PropOp56
 70
     1
102
RTVSPost2010Prop57
140
1.0
102
RTVSPost2010PropOp57
 70
     1
  0
XRECORD
  5
196
102
{ACAD_REACTORS
330
195
102
}
330
195
100
AcDbXrecord
280
     1
102
RTVSPost2010Prop28
280
     0
102
RTVSPost2010PropOp28
 70
     1
102
RTVSPost2010Prop29
280
     1
102
RTVSPost2010PropOp29
 70
     1
102
RTVSPost2010Prop30
280
     1
102
RTVSPost2010PropOp30
 70
     1
102
RTVSPost2010Prop31
280
     0
102
RTVSPost2010PropOp31
 70
     1
102
RTVSPost2010Prop32
280
     0
102
RTVSPost2010PropOp32
 70
     1
102
RTVSPost2010Prop33
280
     0
102
RTVSPost2010PropOp33
 70
     1
102
RTVSPost2010Prop34
280
     0
102
RTVSPost2010PropOp34
 70
     1
102
RTVSPost2010Prop35
280
     0
102
RTVSPost2010PropOp35
 70
     1
102
RTVSPost2010Prop36
280
     0
102
RTVSPost2010PropOp36
 70
     1
102
RTVSPost2010Prop37
 90
       50
102
RTVSPost2010PropOp37
 70
     1
102
RTVSPost2010Prop38
140
0.0
102
RTVSPost2010PropOp38
 70
     1
102
RTVSPost2010Prop39
140
1.0
102
RTVSPost2010PropOp39
 70
     1
102
RTVSPost2010Prop40
 90
        0
102
RTVSPost2010PropOp40
 70
     1
102
RTVSPost2010Prop41ColorIndex
 90
       18
102
RTVSPost2010Prop41ColorRGB
 90
        0
102
RTVSPost2010PropOp41
 70
     1
102
RTVSPost2010Prop42
 90
       50
102
RTVSPost2010PropOp42
 70
     1
102
RTVSPost2010Prop43
 90
        3
102
RTVSPost2010PropOp43
 70
     1
102
RTVSPost2010Prop44ColorIndex
 90
        5
102
RTVSPost2010Prop44ColorRGB
 90
      255
102
RTVSPost2010PropOp44
 70
     1
102
RTVSPost2010Prop45
280
     0
102
RTVSPost2010PropOp45
 70
     1
102
RTVSPost2010Prop46
 90
       50
102
RTVSPost2010PropOp46
 70
     1
102
RTVSPost2010Prop47
 90
       50
102
RTVSPost2010PropOp47
 70
     1
102
RTVSPost2010Prop48
 90
       50
102
RTVSPost2010PropOp48
 70
     1
102
RTVSPost2010Prop49
280
     0
102
RTVSPost2010PropOp49
 70
     1
102
RTVSPost2010Prop50
 90
       50
102
RTVSPost2010PropOp50
 70
     1
102
RTVSPost2010Prop51ColorIndex
 90
      256
102
RTVSPost2010Prop51ColorRGB
 90
-16777216
102
RTVSPost2010PropOp51
 70
     0
102
RTVSPost2010Prop52
140
1.0
102
RTVSPost2010PropOp52
 70
     0
102
RTVSPost2010Prop53
 90
        2
102
RTVSPost2010PropOp53
 70
     1
102
RTVSPost2010Prop54
  1
strokes_ogs.tif
102
RTVSPost2010PropOp54
 70
     1
102
RTVSPost2010Prop55
280
     0
102
RTVSPost2010PropOp55
 70
     1
102
RTVSPost2010Prop56
140
1.0
102
RTVSPost2010PropOp56
 70
     1
102
RTVSPost2010Prop57
140
1.0
102
RTVSPost2010PropOp57
 70
     1
  0
XRECORD
  5
18A
102
{ACAD_REACTORS
330
189
102
}
330
189
100
AcDbXrecord
280
     1
102
RTVSPost2010Prop28
280
     0
102
RTVSPost2010PropOp28
 70
     1
102
RTVSPost2010Prop29
280
     1
102
RTVSPost2010PropOp29
 70
     1
102
RTVSPost2010Prop30
280
     1
102
RTVSPost2010PropOp30
 70
     1
102
RTVSPost2010Prop31
280
     0
102
RTVSPost2010PropOp31
 70
     1
102
RTVSPost2010Prop32
280
     0
102
RTVSPost2010PropOp32
 70
     1
102
RTVSPost2010Prop33
280
     0
102
RTVSPost2010PropOp33
 70
     1
102
RTVSPost2010Prop34
280
     0
102
RTVSPost2010PropOp34
 70
     1
102
RTVSPost2010Prop35
280
     0
102
RTVSPost2010PropOp35
 70
     1
102
RTVSPost2010Prop36
280
     0
102
RTVSPost2010PropOp36
 70
     1
102
RTVSPost2010Prop37
 90
       50
102
RTVSPost2010PropOp37
 70
     1
102
RTVSPost2010Prop38
140
0.0
102
RTVSPost2010PropOp38
 70
     1
102
RTVSPost2010Prop39
140
1.0
102
RTVSPost2010PropOp39
 70
     1
102
RTVSPost2010Prop40
 90
        0
102
RTVSPost2010PropOp40
 70
     1
102
RTVSPost2010Prop41ColorIndex
 90
       18
102
RTVSPost2010Prop41ColorRGB
 90
        0
102
RTVSPost2010PropOp41
 70
     1
102
RTVSPost2010Prop42
 90
       50
102
RTVSPost2010PropOp42
 70
     1
102
RTVSPost2010Prop43
 90
        3
102
RTVSPost2010PropOp43
 70
     1
102
RTVSPost2010Prop44ColorIndex
 90
        5
102
RTVSPost2010Prop44ColorRGB
 90
      255
102
RTVSPost2010PropOp44
 70
     1
102
RTVSPost2010Prop45
280
     0
102
RTVSPost2010PropOp45
 70
     1
102
RTVSPost2010Prop46
 90
       50
102
RTVSPost2010PropOp46
 70
     1
102
RTVSPost2010Prop47
 90
       50
102
RTVSPost2010PropOp47
 70
     1
102
RTVSPost2010Prop48
 90
       50
102
RTVSPost2010PropOp48
 70
     1
102
RTVSPost2010Prop49
280
     0
102
RTVSPost2010PropOp49
 70
     1
102
RTVSPost2010Prop50
 90
       50
102
RTVSPost2010PropOp50
 70
     1
102
RTVSPost2010Prop51ColorIndex
 90
      256
102
RTVSPost2010Prop51ColorRGB
 90
-16777216
102
RTVSPost2010PropOp51
 70
     0
102
RTVSPost2010Prop52
140
1.0
102
RTVSPost2010PropOp52
 70
     0
102
RTVSPost2010Prop53
 90
        2
102
RTVSPost2010PropOp53
 70
     1
102
RTVSPost2010Prop54
  1
strokes_ogs.tif
102
RTVSPost2010PropOp54
 70
     1
102
RTVSPost2010Prop55
280
     0
102
RTVSPost2010PropOp55
 70
     1
102
RTVSPost2010Prop56
140
1.0
102
RTVSPost2010PropOp56
 70
     1
102
RTVSPost2010Prop57
140
1.0
102
RTVSPost2010PropOp57
 70
     1
  0
XRECORD
  5
1A2
102
{ACAD_REACTORS
330
1A1
102
}
330
1A1
100
AcDbXrecord
280
     1
102
RTVSPost2010Prop28
280
     0
102
RTVSPost2010PropOp28
 70
     1
102
RTVSPost2010Prop29
280
     1
102
RTVSPost2010PropOp29
 70
     1
102
RTVSPost2010Prop30
280
     1
102
RTVSPost2010PropOp30
 70
     1
102
RTVSPost2010Prop31
280
     0
102
RTVSPost2010PropOp31
 70
     1
102
RTVSPost2010Prop32
280
     0
102
RTVSPost2010PropOp32
 70
     1
102
RTVSPost2010Prop33
280
     0
102
RTVSPost2010PropOp33
 70
     1
102
RTVSPost2010Prop34
280
     0
102
RTVSPost2010PropOp34
 70
     1
102
RTVSPost2010Prop35
280
     0
102
RTVSPost2010PropOp35
 70
     1
102
RTVSPost2010Prop36
280
     0
102
RTVSPost2010PropOp36
 70
     1
102
RTVSPost2010Prop37
 90
       50
102
RTVSPost2010PropOp37
 70
     1
102
RTVSPost2010Prop38
140
0.0
102
RTVSPost2010PropOp38
 70
     1
102
RTVSPost2010Prop39
140
1.0
102
RTVSPost2010PropOp39
 70
     1
102
RTVSPost2010Prop40
 90
        0
102
RTVSPost2010PropOp40
 70
     1
102
RTVSPost2010Prop41ColorIndex
 90
       18
102
RTVSPost2010Prop41ColorRGB
 90
        0
102
RTVSPost2010PropOp41
 70
     1
102
RTVSPost2010Prop42
 90
       50
102
RTVSPost2010PropOp42
 70
     1
102
RTVSPost2010Prop43
 90
        3
102
RTVSPost2010PropOp43
 70
     1
102
RTVSPost2010Prop44ColorIndex
 90
        5
102
RTVSPost2010Prop44ColorRGB
 90
      255
102
RTVSPost2010PropOp44
 70
     1
102
RTVSPost2010Prop45
280
     0
102
RTVSPost2010PropOp45
 70
     1
102
RTVSPost2010Prop46
 90
       50
102
RTVSPost2010PropOp46
 70
     1
102
RTVSPost2010Prop47
 90
       50
102
RTVSPost2010PropOp47
 70
     1
102
RTVSPost2010Prop48
 90
       50
102
RTVSPost2010PropOp48
 70
     1
102
RTVSPost2010Prop49
280
     0
102
RTVSPost2010PropOp49
 70
     1
102
RTVSPost2010Prop50
 90
       50
102
RTVSPost2010PropOp50
 70
     1
102
RTVSPost2010Prop51ColorIndex
 90
      256
102
RTVSPost2010Prop51ColorRGB
 90
-16777216
102
RTVSPost2010PropOp51
 70
     0
102
RTVSPost2010Prop52
140
1.0
102
RTVSPost2010PropOp52
 70
     0
102
RTVSPost2010Prop53
 90
        2
102
RTVSPost2010PropOp53
 70
     1
102
RTVSPost2010Prop54
  1
strokes_ogs.tif
102
RTVSPost2010PropOp54
 70
     1
102
RTVSPost2010Prop55
280
     0
102
RTVSPost2010PropOp55
 70
     1
102
RTVSPost2010Prop56
140
1.0
102
RTVSPost2010PropOp56
 70
     1
102
RTVSPost2010Prop57
140
1.0
102
RTVSPost2010PropOp57
 70
     1
  0
ENDSEC
  0
EOF
