  0
SECTION
  2
HEADER
  9
$ACADVER
  1
AC1024
  9
$ACADMAINTVER
 70
   226
  9
$DWGCODEPAGE
  3
ANSI_932
  9
$INSBASE
 10
0.0
 20
0.0
 30
0.0
  9
$EXTMIN
 10
1.000000000000000E+20
 20
1.000000000000000E+20
 30
1.000000000000000E+20
  9
$EXTMAX
 10
-1.000000000000000E+20
 20
-1.000000000000000E+20
 30
-1.000000000000000E+20
  9
$LIMMIN
 10
0.0
 20
0.0
  9
$LIMMAX
 10
12.0
 20
9.0
  9
$ORTHOMODE
 70
     0
  9
$REGENMODE
 70
     1
  9
$FILLMODE
 70
     1
  9
$QTEXTMODE
 70
     0
  9
$MIRRTEXT
 70
     0
  9
$LTSCALE
 40
1.0
  9
$ATTMODE
 70
     1
  9
$TEXTSIZE
 40
0.2
  9
$TRACEWID
 40
0.05
  9
$TEXTSTYLE
  7
Standard
  9
$CLAYER
  8
0
  9
$CELTYPE
  6
ByLayer
  9
$CECOLOR
 62
   256
  9
$CELTSCALE
 40
1.0
  9
$DISPSILH
 70
     0
  9
$DIMSCALE
 40
1.0
  9
$DIMASZ
 40
0.18
  9
$DIMEXO
 40
0.0625
  9
$DIMDLI
 40
0.38
  9
$DIMRND
 40
0.0
  9
$DIMDLE
 40
0.0
  9
$DIMEXE
 40
0.18
  9
$DIMTP
 40
0.0
  9
$DIMTM
 40
0.0
  9
$DIMTXT
 40
0.18
  9
$DIMCEN
 40
0.09
  9
$DIMTSZ
 40
0.0
  9
$DIMTOL
 70
     0
  9
$DIMLIM
 70
     0
  9
$DIMTIH
 70
     1
  9
$DIMTOH
 70
     1
  9
$DIMSE1
 70
     0
  9
$DIMSE2
 70
     0
  9
$DIMTAD
 70
     0
  9
$DIMZIN
 70
     0
  9
$DIMBLK
  1

  9
$DIMASO
 70
     1
  9
$DIMSHO
 70
     1
  9
$DIMPOST
  1

  9
$DIMAPOST
  1

  9
$DIMALT
 70
     0
  9
$DIMALTD
 70
     2
  9
$DIMALTF
 40
25.4
  9
$DIMLFAC
 40
1.0
  9
$DIMTOFL
 70
     0
  9
$DIMTVP
 40
0.0
  9
$DIMTIX
 70
     0
  9
$DIMSOXD
 70
     0
  9
$DIMSAH
 70
     0
  9
$DIMBLK1
  1

  9
$DIMBLK2
  1

  9
$DIMSTYLE
  2
Standard
  9
$DIMCLRD
 70
     0
  9
$DIMCLRE
 70
     0
  9
$DIMCLRT
 70
     0
  9
$DIMTFAC
 40
1.0
  9
$DIMGAP
 40
0.09
  9
$DIMJUST
 70
     0
  9
$DIMSD1
 70
     0
  9
$DIMSD2
 70
     0
  9
$DIMTOLJ
 70
     1
  9
$DIMTZIN
 70
     0
  9
$DIMALTZ
 70
     0
  9
$DIMALTTZ
 70
     0
  9
$DIMUPT
 70
     0
  9
$DIMDEC
 70
     4
  9
$DIMTDEC
 70
     4
  9
$DIMALTU
 70
     2
  9
$DIMALTTD
 70
     2
  9
$DIMTXSTY
  7
Standard
  9
$DIMAUNIT
 70
     0
  9
$DIMADEC
 70
     0
  9
$DIMALTRND
 40
0.0
  9
$DIMAZIN
 70
     0
  9
$DIMDSEP
 70
    46
  9
$DIMATFIT
 70
     3
  9
$DIMFRAC
 70
     0
  9
$DIMLDRBLK
  1

  9
$DIMLUNIT
 70
     2
  9
$DIMLWD
 70
    -2
  9
$DIMLWE
 70
    -2
  9
$DIMTMOVE
 70
     0
  9
$DIMFXL
 40
1.0
  9
$DIMFXLON
 70
     0
  9
$DIMJOGANG
 40
0.7853981633974483
  9
$DIMTFILL
 70
     0
  9
$DIMTFILLCLR
 70
     0
  9
$DIMARCSYM
 70
     0
  9
$DIMLTYPE
  6

  9
$DIMLTEX1
  6

  9
$DIMLTEX2
  6

  9
$DIMTXTDIRECTION
 70
     0
  9
$LUNITS
 70
     2
  9
$LUPREC
 70
     4
  9
$SKETCHINC
 40
0.1
  9
$FILLETRAD
 40
0.0
  9
$AUNITS
 70
     0
  9
$AUPREC
 70
     0
  9
$MENU
  1
.
  9
$ELEVATION
 40
0.0
  9
$PELEVATION
 40
0.0
  9
$THICKNESS
 40
0.0
  9
$LIMCHECK
 70
     0
  9
$CHAMFERA
 40
0.0
  9
$CHAMFERB
 40
0.0
  9
$CHAMFERC
 40
0.0
  9
$CHAMFERD
 40
0.0
  9
$SKPOLY
 70
     0
  9
$TDCREATE
 40
2459569.503159722
  9
$TDUCREATE
 40
2459569.128159722
  9
$TDUPDATE
 40
2459569.503159722
  9
$TDUUPDATE
 40
2459569.128159722
  9
$TDINDWG
 40
0.0000000000
  9
$TDUSRTIMER
 40
0.0000000000
  9
$USRTIMER
 70
     1
  9
$ANGBASE
 50
0.0
  9
$ANGDIR
 70
     0
  9
$PDMODE
 70
     0
  9
$PDSIZE
 40
0.0
  9
$PLINEWID
 40
0.0
  9
$SPLFRAME
 70
     0
  9
$SPLINETYPE
 70
     6
  9
$SPLINESEGS
 70
     8
  9
$HANDSEED
  5
1DE
  9
$SURFTAB1
 70
     6
  9
$SURFTAB2
 70
     6
  9
$SURFTYPE
 70
     6
  9
$SURFU
 70
     6
  9
$SURFV
 70
     6
  9
$UCSBASE
  2

  9
$UCSNAME
  2

  9
$UCSORG
 10
0.0
 20
0.0
 30
0.0
  9
$UCSXDIR
 10
1.0
 20
0.0
 30
0.0
  9
$UCSYDIR
 10
0.0
 20
1.0
 30
0.0
  9
$UCSORTHOREF
  2

  9
$UCSORTHOVIEW
 70
     0
  9
$UCSORGTOP
 10
0.0
 20
0.0
 30
0.0
  9
$UCSORGBOTTOM
 10
0.0
 20
0.0
 30
0.0
  9
$UCSORGLEFT
 10
0.0
 20
0.0
 30
0.0
  9
$UCSORGRIGHT
 10
0.0
 20
0.0
 30
0.0
  9
$UCSORGFRONT
 10
0.0
 20
0.0
 30
0.0
  9
$UCSORGBACK
 10
0.0
 20
0.0
 30
0.0
  9
$PUCSBASE
  2

  9
$PUCSNAME
  2

  9
$PUCSORG
 10
0.0
 20
0.0
 30
0.0
  9
$PUCSXDIR
 10
1.0
 20
0.0
 30
0.0
  9
$PUCSYDIR
 10
0.0
 20
1.0
 30
0.0
  9
$PUCSORTHOREF
  2

  9
$PUCSORTHOVIEW
 70
     0
  9
$PUCSORGTOP
 10
0.0
 20
0.0
 30
0.0
  9
$PUCSORGBOTTOM
 10
0.0
 20
0.0
 30
0.0
  9
$PUCSORGLEFT
 10
0.0
 20
0.0
 30
0.0
  9
$PUCSORGRIGHT
 10
0.0
 20
0.0
 30
0.0
  9
$PUCSORGFRONT
 10
0.0
 20
0.0
 30
0.0
  9
$PUCSORGBACK
 10
0.0
 20
0.0
 30
0.0
  9
$USERI1
 70
     0
  9
$USERI2
 70
     0
  9
$USERI3
 70
     0
  9
$USERI4
 70
     0
  9
$USERI5
 70
     0
  9
$USERR1
 40
0.0
  9
$USERR2
 40
0.0
  9
$USERR3
 40
0.0
  9
$USERR4
 40
0.0
  9
$USERR5
 40
0.0
  9
$WORLDVIEW
 70
     1
  9
$SHADEDGE
 70
     3
  9
$SHADEDIF
 70
    70
  9
$TILEMODE
 70
     1
  9
$MAXACTVP
 70
    64
  9
$PINSBASE
 10
0.0
 20
0.0
 30
0.0
  9
$PLIMCHECK
 70
     0
  9
$PEXTMIN
 10
1.000000000000000E+20
 20
1.000000000000000E+20
 30
1.000000000000000E+20
  9
$PEXTMAX
 10
-1.000000000000000E+20
 20
-1.000000000000000E+20
 30
-1.000000000000000E+20
  9
$PLIMMIN
 10
0.0
 20
0.0
  9
$PLIMMAX
 10
12.0
 20
9.0
  9
$UNITMODE
 70
     0
  9
$VISRETAIN
 70
     1
  9
$PLINEGEN
 70
     0
  9
$PSLTSCALE
 70
     1
  9
$TREEDEPTH
 70
  3020
  9
$CMLSTYLE
  2
Standard
  9
$CMLJUST
 70
     0
  9
$CMLSCALE
 40
1.0
  9
$PROXYGRAPHICS
 70
     1
  9
$MEASUREMENT
 70
     0
  9
$CELWEIGHT
370
    -1
  9
$ENDCAPS
280
     0
  9
$JOINSTYLE
280
     0
  9
$LWDISPLAY
290
     1
  9
$INSUNITS
 70
     4
  9
$HYPERLINKBASE
  1

  9
$STYLESHEET
  1

  9
$XEDIT
290
     1
  9
$CEPSNTYPE
380
     0
  9
$PSTYLEMODE
290
     1
  9
$FINGERPRINTGUID
  2
{55E3447B-672B-DA42-91B4-30A579E3634D}
  9
$VERSIONGUID
  2
{F51E7EA4-79BF-C943-BAC2-73A9E9C3C4C2}
  9
$EXTNAMES
290
     1
  9
$PSVPSCALE
 40
0.0
  9
$OLESTARTUP
290
     0
  9
$SORTENTS
280
   127
  9
$INDEXCTL
280
     0
  9
$HIDETEXT
280
     1
  9
$XCLIPFRAME
280
     2
  9
$HALOGAP
280
     0
  9
$OBSCOLOR
 70
   257
  9
$OBSLTYPE
280
     0
  9
$INTERSECTIONDISPLAY
280
     0
  9
$INTERSECTIONCOLOR
 70
   257
  9
$DIMASSOC
280
     2
  9
$PROJECTNAME
  1

  9
$CAMERADISPLAY
290
     0
  9
$LENSLENGTH
 40
50.0
  9
$CAMERAHEIGHT
 40
0.0
  9
$STEPSPERSEC
 40
2.0
  9
$STEPSIZE
 40
6.0
  9
$3DDWFPREC
 40
2.0
  9
$PSOLWIDTH
 40
0.25
  9
$PSOLHEIGHT
 40
4.0
  9
$LOFTANG1
 40
1.570796326794896
  9
$LOFTANG2
 40
1.570796326794896
  9
$LOFTMAG1
 40
0.0
  9
$LOFTMAG2
 40
0.0
  9
$LOFTPARAM
 70
     7
  9
$LOFTNORMALS
280
     1
  9
$LATITUDE
 40
37.795
  9
$LONGITUDE
 40
-122.394
  9
$NORTHDIRECTION
 40
0.0
  9
$TIMEZONE
 70
 -8000
  9
$LIGHTGLYPHDISPLAY
280
     1
  9
$TILEMODELIGHTSYNCH
280
     1
  9
$CMATERIAL
347
11
  9
$SOLIDHIST
280
     0
  9
$SHOWHIST
280
     1
  9
$DWFFRAME
280
     2
  9
$DGNFRAME
280
     0
  9
$REALWORLDSCALE
290
     1
  9
$INTERFERECOLOR
 62
     1
  9
$INTERFEREOBJVS
345
33
  9
$INTERFEREVPVS
346
30
  9
$CSHADOW
280
     0
  9
$SHADOWPLANELOCATION
 40
0.0
  0
ENDSEC
  0
SECTION
  2
CLASSES
  0
CLASS
  1
ACDBDICTIONARYWDFLT
  2
AcDbDictionaryWithDefault
  3
ObjectDBX Classes
 90
        0
 91
        1
280
     0
281
     0
  0
CLASS
  1
MATERIAL
  2
AcDbMaterial
  3
ObjectDBX Classes
 90
     1153
 91
        3
280
     0
281
     0
  0
CLASS
  1
VISUALSTYLE
  2
AcDbVisualStyle
  3
ObjectDBX Classes
 90
     4095
 91
       24
280
     0
281
     0
  0
CLASS
  1
SCALE
  2
AcDbScale
  3
ObjectDBX Classes
 90
     1153
 91
       17
280
     0
281
     0
  0
CLASS
  1
TABLESTYLE
  2
AcDbTableStyle
  3
ObjectDBX Classes
 90
     4095
 91
        1
280
     0
281
     0
  0
CLASS
  1
MLEADERSTYLE
  2
AcDbMLeaderStyle
  3
ACDB_MLEADERSTYLE_CLASS
 90
     4095
 91
        1
280
     0
281
     0
  0
CLASS
  1
ACDBSECTIONVIEWSTYLE
  2
AcDbSectionViewStyle
  3
ObjectDBX Classes
 90
     1025
 91
        1
280
     0
281
     0
  0
CLASS
  1
ACDBDETAILVIEWSTYLE
  2
AcDbDetailViewStyle
  3
ObjectDBX Classes
 90
     1025
 91
        1
280
     0
281
     0
  0
CLASS
  1
DICTIONARYVAR
  2
AcDbDictionaryVar
  3
ObjectDBX Classes
 90
        0
 91
        5
280
     0
281
     0
  0
CLASS
  1
CELLSTYLEMAP
  2
AcDbCellStyleMap
  3
ObjectDBX Classes
 90
     1152
 91
        1
280
     0
281
     0
  0
ENDSEC
  0
SECTION
  2
TABLES
  0
TABLE
  2
VPORT
  5
8
330
0
100
AcDbSymbolTable
 70
     1
  0
VPORT
  5
57
330
8
100
AcDbSymbolTableRecord
100
AcDbViewportTableRecord
  2
*Active
 70
     0
 10
0.0
 20
0.0
 11
1.0
 21
1.0
 12
0.0
 22
0.0
 13
0.0
 23
0.0
 14
1.0
 24
1.0
 15
0.0
 25
0.0
 16
0.0
 26
0.0
 36
1.0
 17
104.9999999737534
 27
-148.4999999628701
 37
0.0
 40
302.939999924255
 41
0.7070707070707534
 42
50.0
 43
0.0
 44
0.0
 50
0.0
 51
0.0
 71
     0
 72
   100
 73
     1
 74
     0
 75
     1
 76
     0
 77
     0
 78
     0
281
     0
 65
     1
110
0.0
120
0.0
130
0.0
111
1.0
121
0.0
131
0.0
112
0.0
122
1.0
132
0.0
 79
     0
146
0.0
 60
     3
 61
     5
292
     1
282
     1
141
0.0
142
0.0
 63
   250
421
  3355443
  0
ENDTAB
  0
TABLE
  2
LTYPE
  5
5
330
0
100
AcDbSymbolTable
 70
     3
  0
LTYPE
  5
5B
330
5
100
AcDbSymbolTableRecord
100
AcDbLinetypeTableRecord
  2
ByBlock
 70
     0
  3

 72
    65
 73
     0
 40
0.0
  0
LTYPE
  5
5C
330
5
100
AcDbSymbolTableRecord
100
AcDbLinetypeTableRecord
  2
ByLayer
 70
     0
  3

 72
    65
 73
     0
 40
0.0
  0
LTYPE
  5
5D
330
5
100
AcDbSymbolTableRecord
100
AcDbLinetypeTableRecord
  2
Continuous
 70
     0
  3
Solid line
 72
    65
 73
     0
 40
0.0
  0
LTYPE
  5
B4
330
5
100
AcDbSymbolTableRecord
100
AcDbLinetypeTableRecord
  2
AI-Linetype-0
 70
     0
  3
Adobe Illustrator Linetype No. 0
 72
    65
 73
     2
 40
1.411111110758333
 49
0.7055555553791667
 74
     0
 49
-0.7055555553791667
 74
     0
  0
LTYPE
  5
B6
330
5
100
AcDbSymbolTableRecord
100
AcDbLinetypeTableRecord
  2
AI-Linetype-1
 70
     0
  3
Adobe Illustrator Linetype No. 1
 72
    65
 73
     2
 40
1.411111110758333
 49
0.7055555553791667
 74
     0
 49
-0.7055555553791667
 74
     0
  0
ENDTAB
  0
TABLE
  2
LAYER
  5
2
330
0
100
AcDbSymbolTable
 70
     2
  0
LAYER
  5
54
330
2
100
AcDbSymbolTableRecord
100
AcDbLayerTableRecord
  2
0
 70
     0
 62
     7
  6
Continuous
370
    -3
390
F
347
21
  0
LAYER
  5
78
330
2
100
AcDbSymbolTableRecord
100
AcDbLayerTableRecord
  2
レイヤー 1
 70
     0
 62
     7
  6
Continuous
370
     0
390
F
347
21
  0
ENDTAB
  0
TABLE
  2
STYLE
  5
3
330
0
100
AcDbSymbolTable
 70
     2
  0
STYLE
  5
55
330
3
100
AcDbSymbolTableRecord
100
AcDbTextStyleTableRecord
  2
Standard
 70
     0
 40
0.0
 41
1.0
 50
0.0
 71
     0
 42
0.2
  3
txt
  4

  0
STYLE
  5
5A
330
3
100
AcDbSymbolTableRecord
100
AcDbTextStyleTableRecord
  2
Annotative
 70
     0
 40
0.0
 41
1.0
 50
0.0
 71
     0
 42
0.2
  3
txt
  4

1001
AcadAnnotative
1000
AnnotativeData
1002
{
1070
     1
1070
     1
1002
}
  0
ENDTAB
  0
TABLE
  2
VIEW
  5
6
330
0
100
AcDbSymbolTable
 70
     0
  0
ENDTAB
  0
TABLE
  2
UCS
  5
7
330
0
100
AcDbSymbolTable
 70
     0
  0
ENDTAB
  0
TABLE
  2
APPID
  5
9
330
0
100
AcDbSymbolTable
 70
     2
  0
APPID
  5
56
330
9
100
AcDbSymbolTableRecord
100
AcDbRegAppTableRecord
  2
ACAD
 70
     0
  0
APPID
  5
5E
330
9
100
AcDbSymbolTableRecord
100
AcDbRegAppTableRecord
  2
AcadAnnotative
 70
     0
  0
ENDTAB
  0
TABLE
  2
DIMSTYLE
  5
A
330
0
100
AcDbSymbolTable
 70
     2
100
AcDbDimStyleTable
 71
     0
  0
DIMSTYLE
105
58
330
A
100
AcDbSymbolTableRecord
100
AcDbDimStyleTableRecord
  2
Standard
 70
     0
340
55
  0
DIMSTYLE
105
59
330
A
100
AcDbSymbolTableRecord
100
AcDbDimStyleTableRecord
  2
Annotative
 70
     0
340
55
1001
AcadAnnotative
1000
AnnotativeData
1002
{
1070
     1
1070
     1
1002
}
  0
ENDTAB
  0
TABLE
  2
BLOCK_RECORD
  5
1
330
0
100
AcDbSymbolTable
 70
    18
  0
BLOCK_RECORD
  5
70
330
1
100
AcDbSymbolTableRecord
100
AcDbBlockTableRecord
  2
*Model_Space
340
73
 70
     0
280
     1
281
     0
  0
BLOCK_RECORD
  5
6C
330
1
100
AcDbSymbolTableRecord
100
AcDbBlockTableRecord
  2
*Paper_Space
340
6F
 70
     0
280
     1
281
     0
  0
BLOCK_RECORD
  5
74
330
1
100
AcDbSymbolTableRecord
100
AcDbBlockTableRecord
  2
*Paper_Space0
340
77
 70
     0
280
     1
281
     0
  0
BLOCK_RECORD
  5
79
330
1
100
AcDbSymbolTableRecord
100
AcDbBlockTableRecord
  2
Block_0
340
0
102
{BLKREFS
331
7A
102
}
 70
     0
280
     1
281
     0
  0
BLOCK_RECORD
  5
11E
330
1
100
AcDbSymbolTableRecord
100
AcDbBlockTableRecord
  2
Block_1
340
0
102
{BLKREFS
331
11F
102
}
 70
     0
280
     1
281
     0
  0
BLOCK_RECORD
  5
122
330
1
100
AcDbSymbolTableRecord
100
AcDbBlockTableRecord
  2
Block_2
340
0
102
{BLKREFS
331
123
102
}
 70
     0
280
     1
281
     0
  0
BLOCK_RECORD
  5
12F
330
1
100
AcDbSymbolTableRecord
100
AcDbBlockTableRecord
  2
Block_3
340
0
102
{BLKREFS
331
130
102
}
 70
     0
280
     1
281
     0
  0
BLOCK_RECORD
  5
133
330
1
100
AcDbSymbolTableRecord
100
AcDbBlockTableRecord
  2
Block_4
340
0
102
{BLKREFS
331
134
102
}
 70
     0
280
     1
281
     0
  0
BLOCK_RECORD
  5
13D
330
1
100
AcDbSymbolTableRecord
100
AcDbBlockTableRecord
  2
Block_5
340
0
102
{BLKREFS
331
13E
102
}
 70
     0
280
     1
281
     0
  0
BLOCK_RECORD
  5
145
330
1
100
AcDbSymbolTableRecord
100
AcDbBlockTableRecord
  2
Block_6
340
0
102
{BLKREFS
331
146
102
}
 70
     0
280
     1
281
     0
  0
BLOCK_RECORD
  5
149
330
1
100
AcDbSymbolTableRecord
100
AcDbBlockTableRecord
  2
Block_7
340
0
102
{BLKREFS
331
14A
102
}
 70
     0
280
     1
281
     0
  0
BLOCK_RECORD
  5
154
330
1
100
AcDbSymbolTableRecord
100
AcDbBlockTableRecord
  2
Block_8
340
0
102
{BLKREFS
331
155
102
}
 70
     0
280
     1
281
     0
  0
BLOCK_RECORD
  5
158
330
1
100
AcDbSymbolTableRecord
100
AcDbBlockTableRecord
  2
Block_9
340
0
102
{BLKREFS
331
159
102
}
 70
     0
280
     1
281
     0
  0
BLOCK_RECORD
  5
166
330
1
100
AcDbSymbolTableRecord
100
AcDbBlockTableRecord
  2
Block_10
340
0
102
{BLKREFS
331
167
102
}
 70
     0
280
     1
281
     0
  0
BLOCK_RECORD
  5
16A
330
1
100
AcDbSymbolTableRecord
100
AcDbBlockTableRecord
  2
Block_11
340
0
102
{BLKREFS
331
16B
102
}
 70
     0
280
     1
281
     0
  0
BLOCK_RECORD
  5
173
330
1
100
AcDbSymbolTableRecord
100
AcDbBlockTableRecord
  2
Block_12
340
0
102
{BLKREFS
331
174
102
}
 70
     0
280
     1
281
     0
  0
BLOCK_RECORD
  5
179
330
1
100
AcDbSymbolTableRecord
100
AcDbBlockTableRecord
  2
Block_13
340
0
102
{BLKREFS
331
17A
102
}
 70
     0
280
     1
281
     0
  0
BLOCK_RECORD
  5
17D
330
1
100
AcDbSymbolTableRecord
100
AcDbBlockTableRecord
  2
Block_14
340
0
102
{BLKREFS
331
17E
102
}
 70
     0
280
     1
281
     0
  0
BLOCK_RECORD
  5
184
330
1
100
AcDbSymbolTableRecord
100
AcDbBlockTableRecord
  2
Block_15
340
0
102
{BLKREFS
331
185
102
}
 70
     0
280
     1
281
     0
  0
BLOCK_RECORD
  5
188
330
1
100
AcDbSymbolTableRecord
100
AcDbBlockTableRecord
  2
Block_16
340
0
102
{BLKREFS
331
189
102
}
 70
     0
280
     1
281
     0
  0
ENDTAB
  0
ENDSEC
  0
SECTION
  2
BLOCKS
  0
BLOCK
  5
71
330
70
100
AcDbEntity
  8
0
100
AcDbBlockBegin
  2
*Model_Space
 70
     0
 10
0.0
 20
0.0
 30
0.0
  3
*Model_Space
  1

  0
ENDBLK
  5
72
330
70
100
AcDbEntity
  8
0
100
AcDbBlockEnd
  0
BLOCK
  5
6D
330
6C
100
AcDbEntity
 67
     1
  8
0
100
AcDbBlockBegin
  2
*Paper_Space
 70
     0
 10
0.0
 20
0.0
 30
0.0
  3
*Paper_Space
  1

  0
ENDBLK
  5
6E
330
6C
100
AcDbEntity
 67
     1
  8
0
100
AcDbBlockEnd
  0
BLOCK
  5
75
330
74
100
AcDbEntity
 67
     1
  8
0
100
AcDbBlockBegin
  2
*Paper_Space0
 70
     0
 10
0.0
 20
0.0
 30
0.0
  3
*Paper_Space0
  1

  0
ENDBLK
  5
76
330
74
100
AcDbEntity
 67
     1
  8
0
100
AcDbBlockEnd
  0
BLOCK
  5
7B
330
79
100
AcDbEntity
  8
0
100
AcDbBlockBegin
  2
Block_0
 70
     0
 10
0.0
 20
0.0
 30
0.0
  3
Block_0
  1

  0
SPLINE
  5
7D
330
79
100
AcDbEntity
  8
レイヤー 1
 62
   250
420
  2299925
370
     9
100
AcDbSpline
210
0.0
220
0.0
230
1.0
 70
     8
 71
     3
 72
     8
 73
     4
 74
     0
 42
0.0000000001
 43
0.0000000001
 40
0.0
 40
0.0
 40
0.0
 40
0.0
 40
1.0
 40
1.0
 40
1.0
 40
1.0
 10
133.8461037515962
 20
-153.1944759112585
 30
0.0
 10
133.8461037515962
 20
-153.1944759112585
 30
0.0
 10
133.1402266220086
 20
-152.7173439669331
 30
0.0
 10
133.0251505138333
 20
-153.1369378557168
 30
0.0
  0
SPLINE
  5
7E
330
79
100
AcDbEntity
  8
レイヤー 1
 62
   250
420
  2299925
370
     9
100
AcDbSpline
210
0.0
220
0.0
230
1.0
 70
     8
 71
     3
 72
    26
 73
    22
 74
     0
 42
0.0000000001
 43
0.0000000001
 40
0.0
 40
0.0
 40
0.0
 40
0.0
 40
1.0
 40
1.0
 40
1.0
 40
2.0
 40
2.0
 40
2.0
 40
3.0
 40
3.0
 40
3.0
 40
4.0
 40
4.0
 40
4.0
 40
5.0
 40
5.0
 40
5.0
 40
6.0
 40
6.0
 40
6.0
 40
7.0
 40
7.0
 40
7.0
 40
7.0
 10
134.3814752014528
 20
-146.1470342463534
 30
0.0
 10
134.3814752014528
 20
-146.1470342463534
 30
0.0
 10
125.7487562550252
 20
-149.1838864678161
 30
0.0
 10
125.7487562550252
 20
-149.1838864678161
 30
0.0
 10
125.7487562550252
 20
-149.1838864678161
 30
0.0
 10
124.374157678983
 20
-149.4513978566386
 30
0.0
 10
124.8895659991672
 20
-149.909585634302
 30
0.0
 10
124.8895659991672
 20
-149.909585634302
 30
0.0
 10
125.1951421024823
 20
-150.1006148009207
 30
0.0
 10
125.7298120888418
 20
-150.3107645230904
 30
0.0
 10
125.7298120888418
 20
-150.3107645230904
 30
0.0
 10
130.7906561263956
 20
-152.3542298003571
 30
0.0
 10
130.7906561263956
 20
-152.3542298003571
 30
0.0
 10
130.7906561263956
 20
-152.3542298003571
 30
0.0
 10
130.7520622384913
 20
-155.4286175773662
 30
0.0
 10
130.7520622384913
 20
-155.4286175773662
 30
0.0
 10
130.7520622384913
 20
-155.4286175773662
 30
0.0
 10
133.4072088374195
 20
-156.7084953548242
 30
0.0
 10
133.4072088374195
 20
-156.7084953548242
 30
0.0
 10
133.4072088374195
 20
-156.7084953548242
 30
0.0
 10
137.1316954090666
 20
-155.1232178552209
 30
0.0
 10
137.1316954090666
 20
-155.1232178552209
 30
0.0
  0
LINE
  5
7F
330
79
100
AcDbEntity
  8
レイヤー 1
 62
   250
420
  2299925
370
     9
100
AcDbLine
 10
133.1016327341043
 20
-153.0032703557503
 30
0.0
 11
142.4402599958561
 21
-148.9930336900864
 31
0.0
  0
SPLINE
  5
80
330
79
100
AcDbEntity
  8
レイヤー 1
 62
   250
420
  2299925
370
     9
100
AcDbSpline
210
0.0
220
0.0
230
1.0
 70
     8
 71
     3
 72
    26
 73
    22
 74
     0
 42
0.0000000001
 43
0.0000000001
 40
0.0
 40
0.0
 40
0.0
 40
0.0
 40
1.0
 40
1.0
 40
1.0
 40
2.0
 40
2.0
 40
2.0
 40
3.0
 40
3.0
 40
3.0
 40
4.0
 40
4.0
 40
4.0
 40
5.0
 40
5.0
 40
5.0
 40
6.0
 40
6.0
 40
6.0
 40
7.0
 40
7.0
 40
7.0
 40
7.0
 10
134.4765488101384
 20
-146.3192956351996
 30
0.0
 10
134.4765488101384
 20
-146.3192956351996
 30
0.0
 10
125.5386065381643
 20
-149.4513978566386
 30
0.0
 10
125.5386065381643
 20
-149.4513978566386
 30
0.0
 10
125.5386065381643
 20
-149.4513978566386
 30
0.0
 10
125.0617921058844
 20
-149.527527301064
 30
0.0
 10
125.0993629382592
 20
-149.6996123010213
 30
0.0
 10
125.0993629382592
 20
-149.6996123010213
 30
0.0
 10
125.0800659943071
 20
-149.7759181343355
 30
0.0
 10
125.3863476531599
 20
-149.8709917454224
 30
0.0
 10
125.3863476531599
 20
-149.8709917454224
 30
0.0
 10
131.095879451942
 20
-152.1251359115254
 30
0.0
 10
131.095879451942
 20
-152.1251359115254
 30
0.0
 10
131.095879451942
 20
-152.1251359115254
 30
0.0
 10
131.095879451942
 20
-155.1042736885588
 30
0.0
 10
131.095879451942
 20
-155.1042736885588
 30
0.0
 10
131.095879451942
 20
-155.1042736885588
 30
0.0
 10
132.9107799611956
 20
-155.9636403550105
 30
0.0
 10
132.9107799611956
 20
-155.9636403550105
 30
0.0
 10
132.9107799611956
 20
-155.9636403550105
 30
0.0
 10
133.0437419022479
 20
-153.1369378557168
 30
0.0
 10
133.0437419022479
 20
-153.1369378557168
 30
0.0
  0
LINE
  5
81
330
79
100
AcDbEntity
  8
レイヤー 1
 62
   250
420
  2299925
370
     9
100
AcDbLine
 10
140.4545092131835
 20
-148.3816698013502
 30
0.0
 11
131.095879451942
 21
-152.1823211892894
 31
0.0
  0
SPLINE
  5
82
330
79
100
AcDbEntity
  8
レイヤー 1
 62
   250
420
  2299925
370
     9
100
AcDbSpline
210
0.0
220
0.0
230
1.0
 70
     8
 71
     3
 72
    20
 73
    16
 74
     0
 42
0.0000000001
 43
0.0000000001
 40
0.0
 40
0.0
 40
0.0
 40
0.0
 40
1.0
 40
1.0
 40
1.0
 40
2.0
 40
2.0
 40
2.0
 40
3.0
 40
3.0
 40
3.0
 40
4.0
 40
4.0
 40
4.0
 40
5.0
 40
5.0
 40
5.0
 40
5.0
 10
133.4072088374195
 20
-156.7084953548242
 30
0.0
 10
133.4072088374195
 20
-156.7084953548242
 30
0.0
 10
133.4072088374195
 20
-153.7673870222263
 30
0.0
 10
133.4072088374195
 20
-153.7673870222263
 30
0.0
 10
133.4072088374195
 20
-153.7673870222263
 30
0.0
 10
133.4072088374195
 20
-153.4237461889791
 30
0.0
 10
133.6363027204637
 20
-153.5574136889456
 30
0.0
 10
133.6363027204637
 20
-153.5574136889456
 30
0.0
 10
138.9265934188305
 20
-155.8682139661453
 30
0.0
 10
138.9265934188305
 20
-155.8682139661453
 30
0.0
 10
138.9265934188305
 20
-155.8682139661453
 30
0.0
 10
139.6714131220508
 20
-156.3264370215862
 30
0.0
 10
140.3776742151437
 20
-156.1164284105279
 30
0.0
 10
140.3776742151437
 20
-156.1164284105279
 30
0.0
 10
149.9653625816525
 20
-152.0483009115451
 30
0.0
 10
149.9653625816525
 20
-152.0483009115451
 30
0.0
  0
SPLINE
  5
83
330
79
100
AcDbEntity
  8
レイヤー 1
 62
   250
420
  2299925
370
     9
100
AcDbSpline
210
0.0
220
0.0
230
1.0
 70
     8
 71
     3
 72
    20
 73
    16
 74
     0
 42
0.0000000001
 43
0.0000000001
 40
0.0
 40
0.0
 40
0.0
 40
0.0
 40
1.0
 40
1.0
 40
1.0
 40
2.0
 40
2.0
 40
2.0
 40
3.0
 40
3.0
 40
3.0
 40
4.0
 40
4.0
 40
4.0
 40
5.0
 40
5.0
 40
5.0
 40
5.0
 10
133.5794702219136
 20
-153.0608084112921
 30
0.0
 10
133.5794702219136
 20
-153.0608084112921
 30
0.0
 10
137.1120809651226
 20
-154.6841506331078
 30
0.0
 10
137.2843070718398
 20
-154.7794006330841
 30
0.0
 10
137.2843070718398
 20
-154.7794006330841
 30
0.0
 10
139.4419664612378
 20
-155.7917317439421
 30
0.0
 10
139.4419664612378
 20
-155.7917317439421
 30
0.0
 10
139.4419664612378
 20
-155.7917317439421
 30
0.0
 10
139.8626186727283
 20
-156.1357253549678
 30
0.0
 10
140.7786767049133
 20
-155.6773611884148
 30
0.0
 10
140.7786767049133
 20
-155.6773611884148
 30
0.0
 10
148.112926517801
 20
-152.4878973003242
 30
0.0
 10
148.112926517801
 20
-152.4878973003242
 30
0.0
 10
148.112926517801
 20
-152.4878973003242
 30
0.0
 10
149.774157030975
 20
-151.7811423005004
 30
0.0
 10
149.774157030975
 20
-151.7811423005004
 30
0.0
  0
LINE
  5
84
330
79
100
AcDbEntity
  8
レイヤー 1
 62
   250
420
  2299925
370
     9
100
AcDbLine
 10
131.095879451942
 20
-155.1042736885588
 30
0.0
 11
132.9490210713311
 21
-154.4357597998369
 31
0.0
  0
SPLINE
  5
85
330
79
100
AcDbEntity
  8
レイヤー 1
 62
   250
420
  2299925
370
     9
100
AcDbSpline
210
0.0
220
0.0
230
1.0
 70
     9
 71
     3
 72
    17
 73
    13
 74
     0
 42
0.0000000001
 43
0.0000000001
 40
0.0
 40
0.0
 40
0.0
 40
0.0
 40
1.0
 40
1.0
 40
1.0
 40
2.0
 40
2.0
 40
2.0
 40
3.0
 40
3.0
 40
3.0
 40
4.0
 40
4.0
 40
4.0
 40
4.0
 10
137.721504560686
 20
-148.1618892458498
 30
0.0
 10
137.721504560686
 20
-148.3977211902352
 30
0.0
 10
137.3911281802257
 20
-148.5895970235211
 30
0.0
 10
136.9849398572551
 20
-148.5895970235211
 30
0.0
 10
136.5770582009944
 20
-148.5895970235211
 30
0.0
 10
136.2473520982948
 20
-148.3977211902352
 30
0.0
 10
136.2473520982948
 20
-148.1618892458498
 30
0.0
 10
136.2473520982948
 20
-147.9255634125756
 30
0.0
 10
136.5770582009944
 20
-147.7341814681788
 30
0.0
 10
136.9849398572551
 20
-147.7341814681788
 30
0.0
 10
137.3911281802257
 20
-147.7341814681788
 30
0.0
 10
137.721504560686
 20
-147.9255634125756
 30
0.0
 10
137.721504560686
 20
-148.1618892458498
 30
0.0
  0
SPLINE
  5
86
330
79
100
AcDbEntity
  8
レイヤー 1
 62
   250
420
  2299925
370
     9
100
AcDbSpline
210
0.0
220
0.0
230
1.0
 70
     8
 71
     3
 72
    11
 73
     7
 74
     0
 42
0.0000000001
 43
0.0000000001
 40
0.0
 40
0.0
 40
0.0
 40
0.0
 40
1.0
 40
1.0
 40
1.0
 40
2.0
 40
2.0
 40
2.0
 40
2.0
 10
136.3755204176299
 20
-148.3966628569022
 30
0.0
 10
136.3755204176299
 20
-148.3966628569022
 30
0.0
 10
136.353785151135
 20
-147.8835123014749
 30
0.0
 10
137.1875048520873
 20
-147.9271156347973
 30
0.0
 10
137.1875048520873
 20
-147.9271156347973
 30
0.0
 10
137.6784303951183
 20
-147.9905098014481
 30
0.0
 10
137.5936931750579
 20
-148.3756725791296
 30
0.0
  0
SPLINE
  5
87
330
79
100
AcDbEntity
  8
レイヤー 1
 62
   250
420
  2299925
370
     9
100
AcDbSpline
210
0.0
220
0.0
230
1.0
 70
     9
 71
     3
 72
    17
 73
    13
 74
     0
 42
0.0000000001
 43
0.0000000001
 40
0.0
 40
0.0
 40
0.0
 40
0.0
 40
1.0
 40
1.0
 40
1.0
 40
2.0
 40
2.0
 40
2.0
 40
3.0
 40
3.0
 40
3.0
 40
4.0
 40
4.0
 40
4.0
 40
4.0
 10
137.4844731778443
 20
-147.0761803572321
 30
0.0
 10
137.4844731778443
 20
-147.3123298016178
 30
0.0
 10
137.1537481952125
 20
-147.5037117460142
 30
0.0
 10
136.7472381966527
 20
-147.5037117460142
 30
0.0
 10
136.3396740403839
 20
-147.5037117460142
 30
0.0
 10
136.010320715453
 20
-147.3123298016178
 30
0.0
 10
136.010320715453
 20
-147.0761803572321
 30
0.0
 10
136.010320715453
 20
-146.839995635069
 30
0.0
 10
136.3396740403839
 20
-146.6487900795614
 30
0.0
 10
136.7472381966527
 20
-146.6487900795614
 30
0.0
 10
137.1537481952125
 20
-146.6487900795614
 30
0.0
 10
137.4844731778443
 20
-146.839995635069
 30
0.0
 10
137.4844731778443
 20
-147.0761803572321
 30
0.0
  0
SPLINE
  5
88
330
79
100
AcDbEntity
  8
レイヤー 1
 62
   250
420
  2299925
370
     9
100
AcDbSpline
210
0.0
220
0.0
230
1.0
 70
     8
 71
     3
 72
    11
 73
     7
 74
     0
 42
0.0000000001
 43
0.0000000001
 40
0.0
 40
0.0
 40
0.0
 40
0.0
 40
1.0
 40
1.0
 40
1.0
 40
2.0
 40
2.0
 40
2.0
 40
2.0
 10
136.1377793233124
 20
-147.3113067460623
 30
0.0
 10
136.1377793233124
 20
-147.3113067460623
 30
0.0
 10
136.1167890460702
 20
-146.7978034128573
 30
0.0
 10
136.9494504137161
 20
-146.8413714684022
 30
0.0
 10
136.9494504137161
 20
-146.8413714684022
 30
0.0
 10
137.4410815122846
 20
-146.9047656350529
 30
0.0
 10
137.3559915144555
 20
-147.2899284127344
 30
0.0
  0
SPLINE
  5
89
330
79
100
AcDbEntity
  8
レイヤー 1
 62
   250
420
  2299925
370
     9
100
AcDbSpline
210
0.0
220
0.0
230
1.0
 70
     9
 71
     3
 72
    17
 73
    13
 74
     0
 42
0.0000000001
 43
0.0000000001
 40
0.0
 40
0.0
 40
0.0
 40
0.0
 40
1.0
 40
1.0
 40
1.0
 40
2.0
 40
2.0
 40
2.0
 40
3.0
 40
3.0
 40
3.0
 40
4.0
 40
4.0
 40
4.0
 40
4.0
 10
127.782061480929
 20
-149.6883939676905
 30
0.0
 10
127.782061480929
 20
-149.9244023009648
 30
0.0
 10
127.4516851004687
 20
-150.1156078564724
 30
0.0
 10
127.0447912219605
 20
-150.1156078564724
 30
0.0
 10
126.6375798434605
 20
-150.1156078564724
 30
0.0
 10
126.3079090185378
 20
-149.9244023009648
 30
0.0
 10
126.3079090185378
 20
-149.6883939676905
 30
0.0
 10
126.3079090185378
 20
-149.4524209121938
 30
0.0
 10
126.6375798434605
 20
-149.2605450789082
 30
0.0
 10
127.0447912219605
 20
-149.2605450789082
 30
0.0
 10
127.4516851004687
 20
-149.2605450789082
 30
0.0
 10
127.782061480929
 20
-149.4524209121938
 30
0.0
 10
127.782061480929
 20
-149.6883939676905
 30
0.0
  0
SPLINE
  5
8A
330
79
100
AcDbEntity
  8
レイヤー 1
 62
   250
420
  2299925
370
     9
100
AcDbSpline
210
0.0
220
0.0
230
1.0
 70
     8
 71
     3
 72
    11
 73
     7
 74
     0
 42
0.0000000001
 43
0.0000000001
 40
0.0
 40
0.0
 40
0.0
 40
0.0
 40
1.0
 40
1.0
 40
1.0
 40
2.0
 40
2.0
 40
2.0
 40
2.0
 10
126.4360731819347
 20
-149.9232028565208
 30
0.0
 10
126.4360731819347
 20
-149.9232028565208
 30
0.0
 10
126.414342071378
 20
-149.4098759122043
 30
0.0
 10
127.2473954199119
 20
-149.4531264677493
 30
0.0
 10
127.2473954199119
 20
-149.4531264677493
 30
0.0
 10
127.7383170376006
 20
-149.5170145232888
 30
0.0
 10
127.6538973175321
 20
-149.9018245231926
 30
0.0
  0
SPLINE
  5
8B
330
79
100
AcDbEntity
  8
レイヤー 1
 62
   250
420
  2299925
370
     9
100
AcDbSpline
210
0.0
220
0.0
230
1.0
 70
     9
 71
     3
 72
    17
 73
    13
 74
     0
 42
0.0000000001
 43
0.0000000001
 40
0.0
 40
0.0
 40
0.0
 40
0.0
 40
1.0
 40
1.0
 40
1.0
 40
2.0
 40
2.0
 40
2.0
 40
3.0
 40
3.0
 40
3.0
 40
4.0
 40
4.0
 40
4.0
 40
4.0
 10
135.5162907280568
 20
-149.2477745233563
 30
0.0
 10
135.5162907280568
 20
-149.4834300788528
 30
0.0
 10
135.1848954179275
 20
-149.6749884121381
 30
0.0
 10
134.7790557468652
 20
-149.6749884121381
 30
0.0
 10
134.3711388128276
 20
-149.6749884121381
 30
0.0
 10
134.0421382656656
 20
-149.4834300788528
 30
0.0
 10
134.0421382656656
 20
-149.2477745233563
 30
0.0
 10
134.0421382656656
 20
-149.0116250789706
 30
0.0
 10
134.3711388128276
 20
-148.8200667456853
 30
0.0
 10
134.7790557468652
 20
-148.8200667456853
 30
0.0
 10
135.1848954179275
 20
-148.8200667456853
 30
0.0
 10
135.5162907280568
 20
-149.0116250789706
 30
0.0
 10
135.5162907280568
 20
-149.2477745233563
 30
0.0
  0
SPLINE
  5
8C
330
79
100
AcDbEntity
  8
レイヤー 1
 62
   250
420
  2299925
370
     9
100
AcDbSpline
210
0.0
220
0.0
230
1.0
 70
     8
 71
     3
 72
    11
 73
     7
 74
     0
 42
0.0000000001
 43
0.0000000001
 40
0.0
 40
0.0
 40
0.0
 40
0.0
 40
1.0
 40
1.0
 40
1.0
 40
2.0
 40
2.0
 40
2.0
 40
2.0
 10
134.1703065292922
 20
-149.482407023297
 30
0.0
 10
134.1703065292922
 20
-149.482407023297
 30
0.0
 10
134.1486065962827
 20
-148.9692564678701
 30
0.0
 10
134.982291019458
 20
-149.0126481345258
 30
0.0
 10
134.982291019458
 20
-149.0126481345258
 30
0.0
 10
135.4732165624891
 20
-149.0762186900657
 30
0.0
 10
135.387809064668
 20
-149.4612050788584
 30
0.0
  0
SPLINE
  5
8D
330
79
100
AcDbEntity
  8
レイヤー 1
 62
   250
420
  2299925
370
     9
100
AcDbSpline
210
0.0
220
0.0
230
1.0
 70
     9
 71
     3
 72
    17
 73
    13
 74
     0
 42
0.0000000001
 43
0.0000000001
 40
0.0
 40
0.0
 40
0.0
 40
0.0
 40
1.0
 40
1.0
 40
1.0
 40
2.0
 40
2.0
 40
2.0
 40
3.0
 40
3.0
 40
3.0
 40
4.0
 40
4.0
 40
4.0
 40
4.0
 10
135.2785890674544
 20
-148.1618892458498
 30
0.0
 10
135.2785890674544
 20
-148.3977211902352
 30
0.0
 10
134.9478599092253
 20
-148.5895970235211
 30
0.0
 10
134.5416715862548
 20
-148.5895970235211
 30
0.0
 10
134.1341074299859
 20
-148.5895970235211
 30
0.0
 10
133.804789382832
 20
-148.3977211902352
 30
0.0
 10
133.804789382832
 20
-148.1618892458498
 30
0.0
 10
133.804789382832
 20
-147.9255634125756
 30
0.0
 10
134.1341074299859
 20
-147.7341814681788
 30
0.0
 10
134.5416715862548
 20
-147.7341814681788
 30
0.0
 10
134.9478599092253
 20
-147.7341814681788
 30
0.0
 10
135.2785890674544
 20
-147.9255634125756
 30
0.0
 10
135.2785890674544
 20
-148.1618892458498
 30
0.0
  0
SPLINE
  5
8E
330
79
100
AcDbEntity
  8
レイヤー 1
 62
   250
420
  2299925
370
     9
100
AcDbSpline
210
0.0
220
0.0
230
1.0
 70
     8
 71
     3
 72
    11
 73
     7
 74
     0
 42
0.0000000001
 43
0.0000000001
 40
0.0
 40
0.0
 40
0.0
 40
0.0
 40
1.0
 40
1.0
 40
1.0
 40
2.0
 40
2.0
 40
2.0
 40
2.0
 10
133.932918268452
 20
-148.3966628569022
 30
0.0
 10
133.932918268452
 20
-148.3966628569022
 30
0.0
 10
133.911575213441
 20
-147.8835123014749
 30
0.0
 10
134.7442365810869
 20
-147.9271156347973
 30
0.0
 10
134.7442365810869
 20
-147.9271156347973
 30
0.0
 10
135.2362204574242
 20
-147.9905098014481
 30
0.0
 10
135.1504249040575
 20
-148.3756725791296
 30
0.0
  0
SPLINE
  5
8F
330
79
100
AcDbEntity
  8
レイヤー 1
 62
   250
420
  2299925
370
     9
100
AcDbSpline
210
0.0
220
0.0
230
1.0
 70
     9
 71
     3
 72
    17
 73
    13
 74
     0
 42
0.0000000001
 43
0.0000000001
 40
0.0
 40
0.0
 40
0.0
 40
0.0
 40
1.0
 40
1.0
 40
1.0
 40
2.0
 40
2.0
 40
2.0
 40
3.0
 40
3.0
 40
3.0
 40
4.0
 40
4.0
 40
4.0
 40
4.0
 10
134.7356288035287
 20
-147.2120703571984
 30
0.0
 10
134.7356288035287
 20
-147.4483961904726
 30
0.0
 10
134.4056093070116
 20
-147.6394253570916
 30
0.0
 10
133.9990641000978
 20
-147.6394253570916
 30
0.0
 10
133.5918527215977
 20
-147.6394253570916
 30
0.0
 10
133.2614763411375
 20
-147.4483961904726
 30
0.0
 10
133.2614763411375
 20
-147.2120703571984
 30
0.0
 10
133.2614763411375
 20
-146.9760973017016
 30
0.0
 10
133.5918527215977
 20
-146.7845389684163
 30
0.0
 10
133.9990641000978
 20
-146.7845389684163
 30
0.0
 10
134.4056093070116
 20
-146.7845389684163
 30
0.0
 10
134.7356288035287
 20
-146.9760973017016
 30
0.0
 10
134.7356288035287
 20
-147.2120703571984
 30
0.0
  0
SPLINE
  5
90
330
79
100
AcDbEntity
  8
レイヤー 1
 62
   250
420
  2299925
370
     9
100
AcDbSpline
210
0.0
220
0.0
230
1.0
 70
     8
 71
     3
 72
    11
 73
     7
 74
     0
 42
0.0000000001
 43
0.0000000001
 40
0.0
 40
0.0
 40
0.0
 40
0.0
 40
1.0
 40
1.0
 40
1.0
 40
2.0
 40
2.0
 40
2.0
 40
2.0
 10
133.3899932823032
 20
-147.4471967460283
 30
0.0
 10
133.3899932823032
 20
-147.4471967460283
 30
0.0
 10
133.3686149495153
 20
-146.9338698017124
 30
0.0
 10
134.2016643727068
 20
-146.9769439683685
 30
0.0
 10
134.2016643727068
 20
-146.9769439683685
 30
0.0
 10
134.6932601934985
 20
-147.0408673016858
 30
0.0
 10
134.6081701956693
 20
-147.426030079367
 30
0.0
  0
SPLINE
  5
91
330
79
100
AcDbEntity
  8
レイヤー 1
 62
   250
420
  2299925
370
     9
100
AcDbSpline
210
0.0
220
0.0
230
1.0
 70
     9
 71
     3
 72
    17
 73
    13
 74
     0
 42
0.0000000001
 43
0.0000000001
 40
0.0
 40
0.0
 40
0.0
 40
0.0
 40
1.0
 40
1.0
 40
1.0
 40
2.0
 40
2.0
 40
2.0
 40
3.0
 40
3.0
 40
3.0
 40
4.0
 40
4.0
 40
4.0
 40
4.0
 10
133.2094768980196
 20
-150.0615270231526
 30
0.0
 10
133.2094768980196
 20
-150.2978528564265
 30
0.0
 10
132.8783949620218
 20
-150.4890584119346
 30
0.0
 10
132.4718538612824
 20
-150.4890584119346
 30
0.0
 10
132.0649952605511
 20
-150.4890584119346
 30
0.0
 10
131.7352891578515
 20
-150.2978528564265
 30
0.0
 10
131.7352891578515
 20
-150.0615270231526
 30
0.0
 10
131.7352891578515
 20
-149.8253423009894
 30
0.0
 10
132.0649952605511
 20
-149.6339603565929
 30
0.0
 10
132.4718538612824
 20
-149.6339603565929
 30
0.0
 10
132.8783949620218
 20
-149.6339603565929
 30
0.0
 10
133.2094768980196
 20
-149.8253423009894
 30
0.0
 10
133.2094768980196
 20
-150.0615270231526
 30
0.0
  0
SPLINE
  5
92
330
79
100
AcDbEntity
  8
レイヤー 1
 62
   250
420
  2299925
370
     9
100
AcDbSpline
210
0.0
220
0.0
230
1.0
 70
     8
 71
     3
 72
    11
 73
     7
 74
     0
 42
0.0000000001
 43
0.0000000001
 40
0.0
 40
0.0
 40
0.0
 40
0.0
 40
1.0
 40
1.0
 40
1.0
 40
2.0
 40
2.0
 40
2.0
 40
2.0
 10
131.8634533212484
 20
-150.2963006342053
 30
0.0
 10
131.8634533212484
 20
-150.2963006342053
 30
0.0
 10
131.8417574884686
 20
-149.7831500787777
 30
0.0
 10
132.6751244116521
 20
-149.8264006343221
 30
0.0
 10
132.6751244116521
 20
-149.8264006343221
 30
0.0
 10
133.1667555102207
 20
-149.8904650787517
 30
0.0
 10
133.0802544013164
 20
-150.2752750786549
 30
0.0
  0
SPLINE
  5
93
330
79
100
AcDbEntity
  8
レイヤー 1
 62
   250
420
  2299925
370
     9
100
AcDbSpline
210
0.0
220
0.0
230
1.0
 70
     9
 71
     3
 72
    17
 73
    13
 74
     0
 42
0.0000000001
 43
0.0000000001
 40
0.0
 40
0.0
 40
0.0
 40
0.0
 40
1.0
 40
1.0
 40
1.0
 40
2.0
 40
2.0
 40
2.0
 40
3.0
 40
3.0
 40
3.0
 40
4.0
 40
4.0
 40
4.0
 40
4.0
 10
132.9710696818797
 20
-148.9759592456463
 30
0.0
 10
132.9710696818797
 20
-149.2119675789206
 30
0.0
 10
132.6410148630082
 20
-149.4031731344281
 30
0.0
 10
132.2345049784488
 20
-149.4031731344281
 30
0.0
 10
131.8272935999488
 20
-149.4031731344281
 30
0.0
 10
131.4975874972491
 20
-149.2119675789206
 30
0.0
 10
131.4975874972491
 20
-148.9759592456463
 30
0.0
 10
131.4975874972491
 20
-148.7399861901495
 30
0.0
 10
131.8272935999488
 20
-148.5480750790864
 30
0.0
 10
132.2345049784488
 20
-148.5480750790864
 30
0.0
 10
132.6410148630082
 20
-148.5480750790864
 30
0.0
 10
132.9710696818797
 20
-148.7399861901495
 30
0.0
 10
132.9710696818797
 20
-148.9759592456463
 30
0.0
  0
SPLINE
  5
94
330
79
100
AcDbEntity
  8
レイヤー 1
 62
   250
420
  2299925
370
     9
100
AcDbSpline
210
0.0
220
0.0
230
1.0
 70
     8
 71
     3
 72
    11
 73
     7
 74
     0
 42
0.0000000001
 43
0.0000000001
 40
0.0
 40
0.0
 40
0.0
 40
0.0
 40
1.0
 40
1.0
 40
1.0
 40
2.0
 40
2.0
 40
2.0
 40
2.0
 10
131.6257516606461
 20
-149.2104153566988
 30
0.0
 10
131.6257516606461
 20
-149.2104153566988
 30
0.0
 10
131.6043733278581
 20
-148.6974411901604
 30
0.0
 10
132.4374227510497
 20
-148.7408328568164
 30
0.0
 10
132.4374227510497
 20
-148.7408328568164
 30
0.0
 10
132.9290185718414
 20
-148.8045798012446
 30
0.0
 10
132.8435757962434
 20
-149.1895661900372
 30
0.0
  0
SPLINE
  5
95
330
79
100
AcDbEntity
  8
レイヤー 1
 62
   250
420
  2299925
370
     9
100
AcDbSpline
210
0.0
220
0.0
230
1.0
 70
     9
 71
     3
 72
    17
 73
    13
 74
     0
 42
0.0000000001
 43
0.0000000001
 40
0.0
 40
0.0
 40
0.0
 40
0.0
 40
1.0
 40
1.0
 40
1.0
 40
2.0
 40
2.0
 40
2.0
 40
3.0
 40
3.0
 40
3.0
 40
4.0
 40
4.0
 40
4.0
 40
4.0
 10
132.4291324734834
 20
-148.0258228569949
 30
0.0
 10
132.4291324734834
 20
-148.2621486902692
 30
0.0
 10
132.0984033152544
 20
-148.4535306346656
 30
0.0
 10
131.6925677700526
 20
-148.4535306346656
 30
0.0
 10
131.2846861137918
 20
-148.4535306346656
 30
0.0
 10
130.9546625111003
 20
-148.2621486902692
 30
0.0
 10
130.9546625111003
 20
-148.0258228569949
 30
0.0
 10
130.9546625111003
 20
-147.7898145237204
 30
0.0
 10
131.2846861137918
 20
-147.5989617459906
 30
0.0
 10
131.6925677700526
 20
-147.5989617459906
 30
0.0
 10
132.0984033152544
 20
-147.5989617459906
 30
0.0
 10
132.4291324734834
 20
-147.7898145237204
 30
0.0
 10
132.4291324734834
 20
-148.0258228569949
 30
0.0
  0
SPLINE
  5
96
330
79
100
AcDbEntity
  8
レイヤー 1
 62
   250
420
  2299925
370
     9
100
AcDbSpline
210
0.0
220
0.0
230
1.0
 70
     8
 71
     3
 72
    11
 73
     7
 74
     0
 42
0.0000000001
 43
0.0000000001
 40
0.0
 40
0.0
 40
0.0
 40
0.0
 40
1.0
 40
1.0
 40
1.0
 40
2.0
 40
2.0
 40
2.0
 40
2.0
 10
131.0831481967306
 20
-148.2610903569359
 30
0.0
 10
131.0831481967306
 20
-148.2610903569359
 30
0.0
 10
131.0610955639405
 20
-147.7474459126201
 30
0.0
 10
131.894462487124
 20
-147.7911903570536
 30
0.0
 10
131.894462487124
 20
-147.7911903570536
 30
0.0
 10
132.385388030155
 20
-147.8547609125935
 30
0.0
 10
132.3010035878634
 20
-148.2395709124969
 30
0.0
  0
SPLINE
  5
97
330
79
100
AcDbEntity
  8
レイヤー 1
 62
   250
420
  2299925
370
     9
100
AcDbSpline
210
0.0
220
0.0
230
1.0
 70
     9
 71
     3
 72
    17
 73
    13
 74
     0
 42
0.0000000001
 43
0.0000000001
 40
0.0
 40
0.0
 40
0.0
 40
0.0
 40
1.0
 40
1.0
 40
1.0
 40
2.0
 40
2.0
 40
2.0
 40
3.0
 40
3.0
 40
3.0
 40
4.0
 40
4.0
 40
4.0
 40
4.0
 10
130.7658558492505
 20
-150.8759498007269
 30
0.0
 10
130.7658558492505
 20
-151.111922856223
 30
0.0
 10
130.4358009746705
 20
-151.3033048006201
 30
0.0
 10
130.0296439235884
 20
-151.3033048006201
 30
0.0
 10
129.6217269895508
 20
-151.3033048006201
 30
0.0
 10
129.2917033868593
 20
-151.111922856223
 30
0.0
 10
129.2917033868593
 20
-150.8759498007269
 30
0.0
 10
129.2917033868593
 20
-150.6395886896748
 30
0.0
 10
129.6217269895508
 20
-150.448065634167
 30
0.0
 10
130.0296439235884
 20
-150.448065634167
 30
0.0
 10
130.4358009746705
 20
-150.448065634167
 30
0.0
 10
130.7658558492505
 20
-150.6395886896748
 30
0.0
 10
130.7658558492505
 20
-150.8759498007269
 30
0.0
  0
SPLINE
  5
98
330
79
100
AcDbEntity
  8
レイヤー 1
 62
   250
420
  2299925
370
     9
100
AcDbSpline
210
0.0
220
0.0
230
1.0
 70
     8
 71
     3
 72
    11
 73
     7
 74
     0
 42
0.0000000001
 43
0.0000000001
 40
0.0
 40
0.0
 40
0.0
 40
0.0
 40
1.0
 40
1.0
 40
1.0
 40
2.0
 40
2.0
 40
2.0
 40
2.0
 10
129.4198675502562
 20
-151.1108998006679
 30
0.0
 10
129.4198675502562
 20
-151.1108998006679
 30
0.0
 10
129.3984892174683
 20
-150.5973964674631
 30
0.0
 10
130.2322089184205
 20
-150.6406470230081
 30
0.0
 10
130.2322089184205
 20
-150.6406470230081
 30
0.0
 10
130.7238400169891
 20
-150.7041823007698
 30
0.0
 10
130.6383972413911
 20
-151.0895214673396
 30
0.0
  0
SPLINE
  5
99
330
79
100
AcDbEntity
  8
レイヤー 1
 62
   250
420
  2299925
370
     9
100
AcDbSpline
210
0.0
220
0.0
230
1.0
 70
     9
 71
     3
 72
    17
 73
    13
 74
     0
 42
0.0000000001
 43
0.0000000001
 40
0.0
 40
0.0
 40
0.0
 40
0.0
 40
1.0
 40
1.0
 40
1.0
 40
2.0
 40
2.0
 40
2.0
 40
3.0
 40
3.0
 40
3.0
 40
4.0
 40
4.0
 40
4.0
 40
4.0
 10
130.5291772441776
 20
-149.7900292454428
 30
0.0
 10
130.5291772441776
 20
-150.026213967606
 30
0.0
 10
130.1980953081797
 20
-150.2177370231131
 30
0.0
 10
129.7915894852172
 20
-150.2177370231131
 30
0.0
 10
129.3843781067172
 20
-150.2177370231131
 30
0.0
 10
129.0550287527933
 20
-150.026213967606
 30
0.0
 10
129.0550287527933
 20
-149.7900292454428
 30
0.0
 10
129.0550287527933
 20
-149.5538798010572
 30
0.0
 10
129.3843781067172
 20
-149.3628506344385
 30
0.0
 10
129.7915894852172
 20
-149.3628506344385
 30
0.0
 10
130.1980953081797
 20
-149.3628506344385
 30
0.0
 10
130.5291772441776
 20
-149.5538798010572
 30
0.0
 10
130.5291772441776
 20
-149.7900292454428
 30
0.0
  0
SPLINE
  5
9A
330
79
100
AcDbEntity
  8
レイヤー 1
 62
   250
420
  2299925
370
     9
100
AcDbSpline
210
0.0
220
0.0
230
1.0
 70
     8
 71
     3
 72
    11
 73
     7
 74
     0
 42
0.0000000001
 43
0.0000000001
 40
0.0
 40
0.0
 40
0.0
 40
0.0
 40
1.0
 40
1.0
 40
1.0
 40
2.0
 40
2.0
 40
2.0
 40
2.0
 10
129.1831889451833
 20
-150.0251556342727
 30
0.0
 10
129.1831889451833
 20
-150.0251556342727
 30
0.0
 10
129.1618106123953
 20
-149.5116875788455
 30
0.0
 10
129.9951815303363
 20
-149.5550792455018
 30
0.0
 10
129.9951815303363
 20
-149.5550792455018
 30
0.0
 10
130.4868086341474
 20
-149.6188261899299
 30
0.0
 10
130.4006603030118
 20
-150.0039889676115
 30
0.0
  0
SPLINE
  5
9B
330
79
100
AcDbEntity
  8
レイヤー 1
 62
   250
420
  2299925
370
     9
100
AcDbSpline
210
0.0
220
0.0
230
1.0
 70
     9
 71
     3
 72
    17
 73
    13
 74
     0
 42
0.0000000001
 43
0.0000000001
 40
0.0
 40
0.0
 40
0.0
 40
0.0
 40
1.0
 40
1.0
 40
1.0
 40
2.0
 40
2.0
 40
2.0
 40
3.0
 40
3.0
 40
3.0
 40
4.0
 40
4.0
 40
4.0
 40
4.0
 10
129.98589948026
 20
-148.84006924568
 30
0.0
 10
129.98589948026
 20
-149.0762186900657
 30
0.0
 10
129.6554878220228
 20
-149.267777023351
 30
0.0
 10
129.2493347768291
 20
-149.267777023351
 30
0.0
 10
128.8414178427915
 20
-149.267777023351
 30
0.0
 10
128.5120645178606
 20
-149.0762186900657
 30
0.0
 10
128.5120645178606
 20
-148.84006924568
 30
0.0
 10
128.5120645178606
 20
-148.6042373012946
 30
0.0
 10
128.8414178427915
 20
-148.4128553568982
 30
0.0
 10
129.2493347768291
 20
-148.4128553568982
 30
0.0
 10
129.6554878220228
 20
-148.4128553568982
 30
0.0
 10
129.98589948026
 20
-148.6042373012946
 30
0.0
 10
129.98589948026
 20
-148.84006924568
 30
0.0
  0
SPLINE
  5
9C
330
79
100
AcDbEntity
  8
レイヤー 1
 62
   250
420
  2299925
370
     9
100
AcDbSpline
210
0.0
220
0.0
230
1.0
 70
     8
 71
     3
 72
    11
 73
     7
 74
     0
 42
0.0000000001
 43
0.0000000001
 40
0.0
 40
0.0
 40
0.0
 40
0.0
 40
1.0
 40
1.0
 40
1.0
 40
2.0
 40
2.0
 40
2.0
 40
2.0
 10
128.6405814590263
 20
-149.0751956345105
 30
0.0
 10
128.6405814590263
 20
-149.0751956345105
 30
0.0
 10
128.6188856262465
 20
-148.5618686901941
 30
0.0
 10
129.4522565304718
 20
-148.6052603568501
 30
0.0
 10
129.4522565304718
 20
-148.6052603568501
 30
0.0
 10
129.9434955924529
 20
-148.6690073012786
 30
0.0
 10
129.8580880946318
 20
-149.0539936900712
 30
0.0
  0
SPLINE
  5
9D
330
79
100
AcDbEntity
  8
レイヤー 1
 62
   250
420
  2299925
370
     9
100
AcDbSpline
210
0.0
220
0.0
230
1.0
 70
     9
 71
     3
 72
    17
 73
    13
 74
     0
 42
0.0000000001
 43
0.0000000001
 40
0.0
 40
0.0
 40
0.0
 40
0.0
 40
1.0
 40
1.0
 40
1.0
 40
2.0
 40
2.0
 40
2.0
 40
3.0
 40
3.0
 40
3.0
 40
4.0
 40
4.0
 40
4.0
 40
4.0
 10
140.3676906042873
 20
-153.5897986889369
 30
0.0
 10
140.3676906042873
 20
-153.8261245222114
 30
0.0
 10
140.0369614460582
 20
-154.0175064666079
 30
0.0
 10
139.6307731230876
 20
-154.0175064666079
 30
0.0
 10
139.2228914668269
 20
-154.0175064666079
 30
0.0
 10
138.893538141896
 20
-153.8261245222114
 30
0.0
 10
138.893538141896
 20
-153.5897986889369
 30
0.0
 10
138.893538141896
 20
-153.3540020223296
 30
0.0
 10
139.2228914668269
 20
-153.1627964668214
 30
0.0
 10
139.6307731230876
 20
-153.1627964668214
 30
0.0
 10
140.0369614460582
 20
-153.1627964668214
 30
0.0
 10
140.3676906042873
 20
-153.3540020223296
 30
0.0
 10
140.3676906042873
 20
-153.5897986889369
 30
0.0
  0
SPLINE
  5
9E
330
79
100
AcDbEntity
  8
レイヤー 1
 62
   250
420
  2299925
370
     9
100
AcDbSpline
210
0.0
220
0.0
230
1.0
 70
     8
 71
     3
 72
    11
 73
     7
 74
     0
 42
0.0000000001
 43
0.0000000001
 40
0.0
 40
0.0
 40
0.0
 40
0.0
 40
1.0
 40
1.0
 40
1.0
 40
2.0
 40
2.0
 40
2.0
 40
2.0
 10
139.021000972524
 20
-153.8249250777674
 30
0.0
 10
139.021000972524
 20
-153.8249250777674
 30
0.0
 10
138.9999711947363
 20
-153.3117745223405
 30
0.0
 10
139.8333381179198
 20
-153.3553778556625
 30
0.0
 10
139.8333381179198
 20
-153.3553778556625
 30
0.0
 10
140.3249692164883
 20
-153.4187720223136
 30
0.0
 10
140.2391736631216
 20
-153.8035820222167
 30
0.0
  0
SPLINE
  5
9F
330
79
100
AcDbEntity
  8
レイヤー 1
 62
   250
420
  2299925
370
     9
100
AcDbSpline
210
0.0
220
0.0
230
1.0
 70
     9
 71
     3
 72
    17
 73
    13
 74
     0
 42
0.0000000001
 43
0.0000000001
 40
0.0
 40
0.0
 40
0.0
 40
0.0
 40
1.0
 40
1.0
 40
1.0
 40
2.0
 40
2.0
 40
2.0
 40
3.0
 40
3.0
 40
3.0
 40
4.0
 40
4.0
 40
4.0
 40
4.0
 10
140.3676906042873
 20
-154.9130681330506
 30
0.0
 10
140.3676906042873
 20
-155.1492175774362
 30
0.0
 10
140.0369614460582
 20
-155.3407759107216
 30
0.0
 10
139.6307731230876
 20
-155.3407759107216
 30
0.0
 10
139.2228914668269
 20
-155.3407759107216
 30
0.0
 10
138.893538141896
 20
-155.1492175774362
 30
0.0
 10
138.893538141896
 20
-154.9130681330506
 30
0.0
 10
138.893538141896
 20
-154.6770950775538
 30
0.0
 10
139.2228914668269
 20
-154.4857131331574
 30
0.0
 10
139.6307731230876
 20
-154.4857131331574
 30
0.0
 10
140.0369614460582
 20
-154.4857131331574
 30
0.0
 10
140.3676906042873
 20
-154.6770950775538
 30
0.0
 10
140.3676906042873
 20
-154.9130681330506
 30
0.0
  0
SPLINE
  5
A0
330
79
100
AcDbEntity
  8
レイヤー 1
 62
   250
420
  2299925
370
     9
100
AcDbSpline
210
0.0
220
0.0
230
1.0
 70
     8
 71
     3
 72
    11
 73
     7
 74
     0
 42
0.0000000001
 43
0.0000000001
 40
0.0
 40
0.0
 40
0.0
 40
0.0
 40
1.0
 40
1.0
 40
1.0
 40
2.0
 40
2.0
 40
2.0
 40
2.0
 10
139.021000972524
 20
-155.1480181329922
 30
0.0
 10
139.021000972524
 20
-155.1480181329922
 30
0.0
 10
138.9999711947363
 20
-154.6348675775646
 30
0.0
 10
139.8333381179198
 20
-154.6782945219985
 30
0.0
 10
139.8333381179198
 20
-154.6782945219985
 30
0.0
 10
140.3249692164883
 20
-154.7416886886495
 30
0.0
 10
140.2391736631216
 20
-155.1268514663304
 30
0.0
  0
SPLINE
  5
A1
330
79
100
AcDbEntity
  8
レイヤー 1
 62
   250
420
  2299925
370
     9
100
AcDbSpline
210
0.0
220
0.0
230
1.0
 70
     9
 71
     3
 72
    17
 73
    13
 74
     0
 42
0.0000000001
 43
0.0000000001
 40
0.0
 40
0.0
 40
0.0
 40
0.0
 40
1.0
 40
1.0
 40
1.0
 40
2.0
 40
2.0
 40
2.0
 40
3.0
 40
3.0
 40
3.0
 40
4.0
 40
4.0
 40
4.0
 40
4.0
 10
140.3676906042873
 20
-152.3686936892421
 30
0.0
 10
140.3676906042873
 20
-152.6050195225167
 30
0.0
 10
140.0369614460582
 20
-152.7962250780248
 30
0.0
 10
139.6307731230876
 20
-152.7962250780248
 30
0.0
 10
139.2228914668269
 20
-152.7962250780248
 30
0.0
 10
138.893538141896
 20
-152.6050195225167
 30
0.0
 10
138.893538141896
 20
-152.3686936892421
 30
0.0
 10
138.893538141896
 20
-152.1325442448571
 30
0.0
 10
139.2228914668269
 20
-151.9415150782384
 30
0.0
 10
139.6307731230876
 20
-151.9415150782384
 30
0.0
 10
140.0369614460582
 20
-151.9415150782384
 30
0.0
 10
140.3676906042873
 20
-152.1325442448571
 30
0.0
 10
140.3676906042873
 20
-152.3686936892421
 30
0.0
  0
SPLINE
  5
A2
330
79
100
AcDbEntity
  8
レイヤー 1
 62
   250
420
  2299925
370
     9
100
AcDbSpline
210
0.0
220
0.0
230
1.0
 70
     8
 71
     3
 72
    11
 73
     7
 74
     0
 42
0.0000000001
 43
0.0000000001
 40
0.0
 40
0.0
 40
0.0
 40
0.0
 40
1.0
 40
1.0
 40
1.0
 40
2.0
 40
2.0
 40
2.0
 40
2.0
 10
139.021000972524
 20
-152.6036436891837
 30
0.0
 10
139.021000972524
 20
-152.6036436891837
 30
0.0
 10
138.9999711947363
 20
-152.0903167448679
 30
0.0
 10
139.8333381179198
 20
-152.1337436893011
 30
0.0
 10
139.8333381179198
 20
-152.1337436893011
 30
0.0
 10
140.3249692164883
 20
-152.1976317448406
 30
0.0
 10
140.2391736631216
 20
-152.5824770225219
 30
0.0
  0
SPLINE
  5
A3
330
79
100
AcDbEntity
  8
レイヤー 1
 62
   250
420
  2299925
370
     9
100
AcDbSpline
210
0.0
220
0.0
230
1.0
 70
     9
 71
     3
 72
    17
 73
    13
 74
     0
 42
0.0000000001
 43
0.0000000001
 40
0.0
 40
0.0
 40
0.0
 40
0.0
 40
1.0
 40
1.0
 40
1.0
 40
2.0
 40
2.0
 40
2.0
 40
3.0
 40
3.0
 40
3.0
 40
4.0
 40
4.0
 40
4.0
 40
4.0
 10
142.5897672142641
 20
-152.7593598002558
 30
0.0
 10
142.5897672142641
 20
-152.9953681335301
 30
0.0
 10
142.2586852782662
 20
-153.1863973001495
 30
0.0
 10
141.8525322330725
 20
-153.1863973001495
 30
0.0
 10
141.4449680768037
 20
-153.1863973001495
 30
0.0
 10
141.115261974104
 20
-152.9953681335301
 30
0.0
 10
141.115261974104
 20
-152.7593598002558
 30
0.0
 10
141.115261974104
 20
-152.5226811892036
 30
0.0
 10
141.4449680768037
 20
-152.3314756336966
 30
0.0
 10
141.8525322330725
 20
-152.3314756336966
 30
0.0
 10
142.2586852782662
 20
-152.3314756336966
 30
0.0
 10
142.5897672142641
 20
-152.5226811892036
 30
0.0
 10
142.5897672142641
 20
-152.7593598002558
 30
0.0
  0
SPLINE
  5
A4
330
79
100
AcDbEntity
  8
レイヤー 1
 62
   250
420
  2299925
370
     9
100
AcDbSpline
210
0.0
220
0.0
230
1.0
 70
     8
 71
     3
 72
    11
 73
     7
 74
     0
 42
0.0000000001
 43
0.0000000001
 40
0.0
 40
0.0
 40
0.0
 40
0.0
 40
1.0
 40
1.0
 40
1.0
 40
2.0
 40
2.0
 40
2.0
 40
2.0
 10
141.243426137501
 20
-152.9939923001972
 30
0.0
 10
141.243426137501
 20
-152.9939923001972
 30
0.0
 10
141.2217303047212
 20
-152.4808417447703
 30
0.0
 10
142.0554147278965
 20
-152.5238806336482
 30
0.0
 10
142.0554147278965
 20
-152.5238806336482
 30
0.0
 10
142.5466930486963
 20
-152.5878039669652
 30
0.0
 10
142.4612502730984
 20
-152.9729667446474
 30
0.0
  0
SPLINE
  5
A5
330
79
100
AcDbEntity
  8
レイヤー 1
 62
   250
420
  2299925
370
     9
100
AcDbSpline
210
0.0
220
0.0
230
1.0
 70
     9
 71
     3
 72
    17
 73
    13
 74
     0
 42
0.0000000001
 43
0.0000000001
 40
0.0
 40
0.0
 40
0.0
 40
0.0
 40
1.0
 40
1.0
 40
1.0
 40
2.0
 40
2.0
 40
2.0
 40
3.0
 40
3.0
 40
3.0
 40
4.0
 40
4.0
 40
4.0
 40
4.0
 10
142.5897672142641
 20
-154.0822764665918
 30
0.0
 10
142.5897672142641
 20
-154.3182847998661
 30
0.0
 10
142.2586852782662
 20
-154.509631466485
 30
0.0
 10
141.8525322330725
 20
-154.509631466485
 30
0.0
 10
141.4449680768037
 20
-154.509631466485
 30
0.0
 10
141.115261974104
 20
-154.3182847998661
 30
0.0
 10
141.115261974104
 20
-154.0822764665918
 30
0.0
 10
141.115261974104
 20
-153.8459506333173
 30
0.0
 10
141.4449680768037
 20
-153.6545686889208
 30
0.0
 10
141.8525322330725
 20
-153.6545686889208
 30
0.0
 10
142.2586852782662
 20
-153.6545686889208
 30
0.0
 10
142.5897672142641
 20
-153.8459506333173
 30
0.0
 10
142.5897672142641
 20
-154.0822764665918
 30
0.0
  0
SPLINE
  5
A6
330
79
100
AcDbEntity
  8
レイヤー 1
 62
   250
420
  2299925
370
     9
100
AcDbSpline
210
0.0
220
0.0
230
1.0
 70
     8
 71
     3
 72
    11
 73
     7
 74
     0
 42
0.0000000001
 43
0.0000000001
 40
0.0
 40
0.0
 40
0.0
 40
0.0
 40
1.0
 40
1.0
 40
1.0
 40
2.0
 40
2.0
 40
2.0
 40
2.0
 10
141.243426137501
 20
-154.3170853554221
 30
0.0
 10
141.243426137501
 20
-154.3170853554221
 30
0.0
 10
141.2217303047212
 20
-153.8035820222167
 30
0.0
 10
142.0554147278965
 20
-153.8471500777619
 30
0.0
 10
142.0554147278965
 20
-153.8471500777619
 30
0.0
 10
142.5466930486963
 20
-153.9107206333012
 30
0.0
 10
142.4612502730984
 20
-154.2960597998716
 30
0.0
  0
SPLINE
  5
A7
330
79
100
AcDbEntity
  8
レイヤー 1
 62
   250
420
  2299925
370
     9
100
AcDbSpline
210
0.0
220
0.0
230
1.0
 70
     9
 71
     3
 72
    17
 73
    13
 74
     0
 42
0.0000000001
 43
0.0000000001
 40
0.0
 40
0.0
 40
0.0
 40
0.0
 40
1.0
 40
1.0
 40
1.0
 40
2.0
 40
2.0
 40
2.0
 40
3.0
 40
3.0
 40
3.0
 40
4.0
 40
4.0
 40
4.0
 40
4.0
 10
142.5897672142641
 20
-151.5379020227833
 30
0.0
 10
142.5897672142641
 20
-151.7737339671687
 30
0.0
 10
142.2586852782662
 20
-151.9649395226769
 30
0.0
 10
141.8525322330725
 20
-151.9649395226769
 30
0.0
 10
141.4449680768037
 20
-151.9649395226769
 30
0.0
 10
141.115261974104
 20
-151.7737339671687
 30
0.0
 10
141.115261974104
 20
-151.5379020227833
 30
0.0
 10
141.115261974104
 20
-151.3019289672865
 30
0.0
 10
141.4449680768037
 20
-151.1101942451123
 30
0.0
 10
141.8525322330725
 20
-151.1101942451123
 30
0.0
 10
142.2586852782662
 20
-151.1101942451123
 30
0.0
 10
142.5897672142641
 20
-151.3019289672865
 30
0.0
 10
142.5897672142641
 20
-151.5379020227833
 30
0.0
  0
SPLINE
  5
A8
330
79
100
AcDbEntity
  8
レイヤー 1
 62
   250
420
  2299925
370
     9
100
AcDbSpline
210
0.0
220
0.0
230
1.0
 70
     8
 71
     3
 72
    11
 73
     7
 74
     0
 42
0.0000000001
 43
0.0000000001
 40
0.0
 40
0.0
 40
0.0
 40
0.0
 40
1.0
 40
1.0
 40
1.0
 40
2.0
 40
2.0
 40
2.0
 40
2.0
 10
141.243426137501
 20
-151.7726756338361
 30
0.0
 10
141.243426137501
 20
-151.7726756338361
 30
0.0
 10
141.2217303047212
 20
-151.2593839672977
 30
0.0
 10
142.0554147278965
 20
-151.3025992450645
 30
0.0
 10
142.0554147278965
 20
-151.3025992450645
 30
0.0
 10
142.5466930486963
 20
-151.3663461894927
 30
0.0
 10
142.4612502730984
 20
-151.7513325782853
 30
0.0
  0
SPLINE
  5
A9
330
79
100
AcDbEntity
  8
レイヤー 1
 62
   250
420
  2299925
370
     9
100
AcDbSpline
210
0.0
220
0.0
230
1.0
 70
     9
 71
     3
 72
    17
 73
    13
 74
     0
 42
0.0000000001
 43
0.0000000001
 40
0.0
 40
0.0
 40
0.0
 40
0.0
 40
1.0
 40
1.0
 40
1.0
 40
2.0
 40
2.0
 40
2.0
 40
3.0
 40
3.0
 40
3.0
 40
4.0
 40
4.0
 40
4.0
 40
4.0
 10
145.0488752070826
 20
-151.8260861893785
 30
0.0
 10
145.0488752070826
 20
-152.0622356337635
 30
0.0
 10
144.7184988266223
 20
-152.25361757816
 30
0.0
 10
144.31231486009
 20
-152.25361757816
 30
0.0
 10
143.9050991251516
 20
-152.25361757816
 30
0.0
 10
143.5743699669225
 20
-152.0622356337635
 30
0.0
 10
143.5743699669225
 20
-151.8260861893785
 30
0.0
 10
143.5743699669225
 20
-151.5901131338817
 30
0.0
 10
143.9050991251516
 20
-151.3983784117075
 30
0.0
 10
144.31231486009
 20
-151.3983784117075
 30
0.0
 10
144.7184988266223
 20
-151.3983784117075
 30
0.0
 10
145.0488752070826
 20
-151.5901131338817
 30
0.0
 10
145.0488752070826
 20
-151.8260861893785
 30
0.0
  0
SPLINE
  5
AA
330
79
100
AcDbEntity
  8
レイヤー 1
 62
   250
420
  2299925
370
     9
100
AcDbSpline
210
0.0
220
0.0
230
1.0
 70
     8
 71
     3
 72
    11
 73
     7
 74
     0
 42
0.0000000001
 43
0.0000000001
 40
0.0
 40
0.0
 40
0.0
 40
0.0
 40
1.0
 40
1.0
 40
1.0
 40
2.0
 40
2.0
 40
2.0
 40
2.0
 10
143.7028869080882
 20
-152.0608598004306
 30
0.0
 10
143.7028869080882
 20
-152.0608598004306
 30
0.0
 10
143.6815085753003
 20
-151.5473917450034
 30
0.0
 10
144.5142052207231
 20
-151.5907834116591
 30
0.0
 10
144.5142052207231
 20
-151.5907834116591
 30
0.0
 10
145.0061538192836
 20
-151.6547067449761
 30
0.0
 10
144.9210638214544
 20
-152.0398695226583
 30
0.0
  0
SPLINE
  5
AB
330
79
100
AcDbEntity
  8
レイヤー 1
 62
   250
420
  2299925
370
     9
100
AcDbSpline
210
0.0
220
0.0
230
1.0
 70
     9
 71
     3
 72
    17
 73
    13
 74
     0
 42
0.0000000001
 43
0.0000000001
 40
0.0
 40
0.0
 40
0.0
 40
0.0
 40
1.0
 40
1.0
 40
1.0
 40
2.0
 40
2.0
 40
2.0
 40
3.0
 40
3.0
 40
3.0
 40
4.0
 40
4.0
 40
4.0
 40
4.0
 10
145.0488752070826
 20
-153.1490028557144
 30
0.0
 10
145.0488752070826
 20
-153.3855050778772
 30
0.0
 10
144.7184988266223
 20
-153.5765342444959
 30
0.0
 10
144.31231486009
 20
-153.5765342444959
 30
0.0
 10
143.9050991251516
 20
-153.5765342444959
 30
0.0
 10
143.5743699669225
 20
-153.3855050778772
 30
0.0
 10
143.5743699669225
 20
-153.1490028557144
 30
0.0
 10
143.5743699669225
 20
-152.9130298002177
 30
0.0
 10
143.9050991251516
 20
-152.7218242447095
 30
0.0
 10
144.31231486009
 20
-152.7218242447095
 30
0.0
 10
144.7184988266223
 20
-152.7218242447095
 30
0.0
 10
145.0488752070826
 20
-152.9130298002177
 30
0.0
 10
145.0488752070826
 20
-153.1490028557144
 30
0.0
  0
SPLINE
  5
AC
330
79
100
AcDbEntity
  8
レイヤー 1
 62
   250
420
  2299925
370
     9
100
AcDbSpline
210
0.0
220
0.0
230
1.0
 70
     8
 71
     3
 72
    11
 73
     7
 74
     0
 42
0.0000000001
 43
0.0000000001
 40
0.0
 40
0.0
 40
0.0
 40
0.0
 40
1.0
 40
1.0
 40
1.0
 40
2.0
 40
2.0
 40
2.0
 40
2.0
 10
143.7028869080882
 20
-153.3841292445443
 30
0.0
 10
143.7028869080882
 20
-153.3841292445443
 30
0.0
 10
143.6815085753003
 20
-152.8706611891171
 30
0.0
 10
144.5142052207231
 20
-152.9140528557728
 30
0.0
 10
144.5142052207231
 20
-152.9140528557728
 30
0.0
 10
145.0061538192836
 20
-152.9781173002012
 30
0.0
 10
144.9210638214544
 20
-153.3629625778825
 30
0.0
  0
SPLINE
  5
AD
330
79
100
AcDbEntity
  8
レイヤー 1
 62
   250
420
  2299925
370
     9
100
AcDbSpline
210
0.0
220
0.0
230
1.0
 70
     9
 71
     3
 72
    17
 73
    13
 74
     0
 42
0.0000000001
 43
0.0000000001
 40
0.0
 40
0.0
 40
0.0
 40
0.0
 40
1.0
 40
1.0
 40
1.0
 40
2.0
 40
2.0
 40
2.0
 40
3.0
 40
3.0
 40
3.0
 40
4.0
 40
4.0
 40
4.0
 40
4.0
 10
145.0488752070826
 20
-150.604628411906
 30
0.0
 10
145.0488752070826
 20
-150.840777856291
 30
0.0
 10
144.7184988266223
 20
-151.0319834117992
 30
0.0
 10
144.31231486009
 20
-151.0319834117992
 30
0.0
 10
143.9050991251516
 20
-151.0319834117992
 30
0.0
 10
143.5743699669225
 20
-150.840777856291
 30
0.0
 10
143.5743699669225
 20
-150.604628411906
 30
0.0
 10
143.5743699669225
 20
-150.3686553564092
 30
0.0
 10
143.9050991251516
 20
-150.1772734120127
 30
0.0
 10
144.31231486009
 20
-150.1772734120127
 30
0.0
 10
144.7184988266223
 20
-150.1772734120127
 30
0.0
 10
145.0488752070826
 20
-150.3686553564092
 30
0.0
 10
145.0488752070826
 20
-150.604628411906
 30
0.0
  0
SPLINE
  5
AE
330
79
100
AcDbEntity
  8
レイヤー 1
 62
   250
420
  2299925
370
     9
100
AcDbSpline
210
0.0
220
0.0
230
1.0
 70
     8
 71
     3
 72
    11
 73
     7
 74
     0
 42
0.0000000001
 43
0.0000000001
 40
0.0
 40
0.0
 40
0.0
 40
0.0
 40
1.0
 40
1.0
 40
1.0
 40
2.0
 40
2.0
 40
2.0
 40
2.0
 10
143.7028869080882
 20
-150.8397548007359
 30
0.0
 10
143.7028869080882
 20
-150.8397548007359
 30
0.0
 10
143.6815085753003
 20
-150.3266042453082
 30
0.0
 10
144.5142052207231
 20
-150.3696784119643
 30
0.0
 10
144.5142052207231
 20
-150.3696784119643
 30
0.0
 10
145.0061538192836
 20
-150.4337428563927
 30
0.0
 10
144.9210638214544
 20
-150.818588134074
 30
0.0
  0
SPLINE
  5
AF
330
79
100
AcDbEntity
  8
レイヤー 1
 62
   250
420
  2299925
370
     9
100
AcDbSpline
210
0.0
220
0.0
230
1.0
 70
     9
 71
     3
 72
    17
 73
    13
 74
     0
 42
0.0000000001
 43
0.0000000001
 40
0.0
 40
0.0
 40
0.0
 40
0.0
 40
1.0
 40
1.0
 40
1.0
 40
2.0
 40
2.0
 40
2.0
 40
3.0
 40
3.0
 40
3.0
 40
4.0
 40
4.0
 40
4.0
 40
4.0
 10
147.4239162576013
 20
-152.3686936892421
 30
0.0
 10
147.4239162576013
 20
-152.6050195225167
 30
0.0
 10
147.0928343216035
 20
-152.7962250780248
 30
0.0
 10
146.6866812764097
 20
-152.7962250780248
 30
0.0
 10
146.2791171201409
 20
-152.7962250780248
 30
0.0
 10
145.9494110174413
 20
-152.6050195225167
 30
0.0
 10
145.9494110174413
 20
-152.3686936892421
 30
0.0
 10
145.9494110174413
 20
-152.1325442448571
 30
0.0
 10
146.2791171201409
 20
-151.9415150782384
 30
0.0
 10
146.6866812764097
 20
-151.9415150782384
 30
0.0
 10
147.0928343216035
 20
-151.9415150782384
 30
0.0
 10
147.4239162576013
 20
-152.1325442448571
 30
0.0
 10
147.4239162576013
 20
-152.3686936892421
 30
0.0
  0
SPLINE
  5
B0
330
79
100
AcDbEntity
  8
レイヤー 1
 62
   250
420
  2299925
370
     9
100
AcDbSpline
210
0.0
220
0.0
230
1.0
 70
     8
 71
     3
 72
    11
 73
     7
 74
     0
 42
0.0000000001
 43
0.0000000001
 40
0.0
 40
0.0
 40
0.0
 40
0.0
 40
1.0
 40
1.0
 40
1.0
 40
2.0
 40
2.0
 40
2.0
 40
2.0
 10
146.0775751808382
 20
-152.6036436891837
 30
0.0
 10
146.0775751808382
 20
-152.6036436891837
 30
0.0
 10
146.0558793480584
 20
-152.0903167448679
 30
0.0
 10
146.8895990490107
 20
-152.1337436893011
 30
0.0
 10
146.8895990490107
 20
-152.1337436893011
 30
0.0
 10
147.3808773698104
 20
-152.1976317448406
 30
0.0
 10
147.2950818164437
 20
-152.5824770225219
 30
0.0
  0
SPLINE
  5
B1
330
79
100
AcDbEntity
  8
レイヤー 1
 62
   250
420
  2299925
370
     9
100
AcDbSpline
210
0.0
220
0.0
230
1.0
 70
     9
 71
     3
 72
    17
 73
    13
 74
     0
 42
0.0000000001
 43
0.0000000001
 40
0.0
 40
0.0
 40
0.0
 40
0.0
 40
1.0
 40
1.0
 40
1.0
 40
2.0
 40
2.0
 40
2.0
 40
3.0
 40
3.0
 40
3.0
 40
4.0
 40
4.0
 40
4.0
 40
4.0
 10
147.4239162576013
 20
-151.1477650784369
 30
0.0
 10
147.4239162576013
 20
-151.3833853561559
 30
0.0
 10
147.0928343216035
 20
-151.5749436894405
 30
0.0
 10
146.6866812764097
 20
-151.5749436894405
 30
0.0
 10
146.2791171201409
 20
-151.5749436894405
 30
0.0
 10
145.9494110174413
 20
-151.3833853561559
 30
0.0
 10
145.9494110174413
 20
-151.1477650784369
 30
0.0
 10
145.9494110174413
 20
-150.9115803562737
 30
0.0
 10
146.2791171201409
 20
-150.719880911877
 30
0.0
 10
146.6866812764097
 20
-150.719880911877
 30
0.0
 10
147.0928343216035
 20
-150.719880911877
 30
0.0
 10
147.4239162576013
 20
-150.9115803562737
 30
0.0
 10
147.4239162576013
 20
-151.1477650784369
 30
0.0
  0
SPLINE
  5
B2
330
79
100
AcDbEntity
  8
レイヤー 1
 62
   250
420
  2299925
370
     9
100
AcDbSpline
210
0.0
220
0.0
230
1.0
 70
     8
 71
     3
 72
    11
 73
     7
 74
     0
 42
0.0000000001
 43
0.0000000001
 40
0.0
 40
0.0
 40
0.0
 40
0.0
 40
1.0
 40
1.0
 40
1.0
 40
2.0
 40
2.0
 40
2.0
 40
2.0
 10
146.0775751808382
 20
-151.3823623006001
 30
0.0
 10
146.0775751808382
 20
-151.3823623006001
 30
0.0
 10
146.0558793480584
 20
-150.8690353562836
 30
0.0
 10
146.8895990490107
 20
-150.9124623007175
 30
0.0
 10
146.8895990490107
 20
-150.9124623007175
 30
0.0
 10
147.3808773698104
 20
-150.9761739673681
 30
0.0
 10
147.2950818164437
 20
-151.3611603561608
 30
0.0
  0
ENDBLK
  5
7C
330
79
100
AcDbEntity
  8
0
100
AcDbBlockEnd
  0
BLOCK
  5
120
330
11E
100
AcDbEntity
  8
0
100
AcDbBlockBegin
  2
Block_1
 70
     0
 10
0.0
 20
0.0
 30
0.0
  3
Block_1
  1

  0
INSERT
  5
123
330
11E
100
AcDbEntity
  8
レイヤー 1
100
AcDbBlockReference
  2
Block_2
 10
0.0
 20
0.0
 30
0.0
  0
ENDBLK
  5
121
330
11E
100
AcDbEntity
  8
0
100
AcDbBlockEnd
  0
BLOCK
  5
124
330
122
100
AcDbEntity
  8
0
100
AcDbBlockBegin
  2
Block_2
 70
     0
 10
0.0
 20
0.0
 30
0.0
  3
Block_2
  1

  0
SPLINE
  5
126
330
122
100
AcDbEntity
  8
レイヤー 1
100
AcDbSpline
210
0.0
220
0.0
230
1.0
 70
     9
 71
     3
 72
    17
 73
    13
 74
     0
 42
0.0000000001
 43
0.0000000001
 40
0.0
 40
0.0
 40
0.0
 40
0.0
 40
1.0
 40
1.0
 40
1.0
 40
2.0
 40
2.0
 40
2.0
 40
3.0
 40
3.0
 40
3.0
 40
4.0
 40
4.0
 40
4.0
 40
4.0
 10
60.82522784937703
 20
-148.3125664234253
 30
0.0
 10
60.82522784937703
 20
-148.5623358461059
 30
0.0
 10
61.10858695303883
 20
-148.6088446351568
 30
0.0
 10
61.45344101111234
 20
-148.6088446351568
 30
0.0
 10
61.77297361736926
 20
-148.6088446351568
 30
0.0
 10
62.0818264276219
 20
-148.5726711325617
 30
0.0
 10
62.0818264276219
 20
-148.3125664234253
 30
0.0
 10
62.0818264276219
 20
-148.0648640580358
 30
0.0
 10
61.80036212647699
 20
-148.0162882116938
 30
0.0
 10
61.45344101111234
 20
-148.0162882116938
 30
0.0
 10
61.13408065962968
 20
-148.0162882116938
 30
0.0
 10
60.82522784937703
 20
-148.0545287715801
 30
0.0
 10
60.82522784937703
 20
-148.3125664234253
 30
0.0
  0
SPLINE
  5
127
330
122
100
AcDbEntity
  8
レイヤー 1
100
AcDbSpline
210
0.0
220
0.0
230
1.0
 70
     9
 71
     3
 72
    29
 73
    25
 74
     0
 42
0.0000000001
 43
0.0000000001
 40
0.0
 40
0.0
 40
0.0
 40
0.0
 40
1.0
 40
1.0
 40
1.0
 40
2.0
 40
2.0
 40
2.0
 40
3.0
 40
3.0
 40
3.0
 40
4.0
 40
4.0
 40
4.0
 40
5.0
 40
5.0
 40
5.0
 40
6.0
 40
6.0
 40
6.0
 40
7.0
 40
7.0
 40
7.0
 40
8.0
 40
8.0
 40
8.0
 40
8.0
 10
62.04789223709219
 20
-147.914657894879
 30
0.0
 10
62.25735404259538
 20
-148.0228338931158
 30
0.0
 10
62.27647432253853
 20
-148.1961221960238
 30
0.0
 10
62.27647432253853
 20
-148.3125664234253
 30
0.0
 10
62.27647432253853
 20
-148.4734523825865
 30
0.0
 10
62.22996553348765
 20
-148.6150458070302
 30
0.0
 10
62.04789223709219
 20
-148.7101304424232
 30
0.0
 10
61.85341659694984
 20
-148.8138278165292
 30
0.0
 10
61.61639402756465
 20
-148.8331203512466
 30
0.0
 10
61.45344101111234
 20
-148.8331203512466
 30
0.0
 10
61.30960827460316
 20
-148.8331203512466
 30
0.0
 10
61.05794404940565
 20
-148.8158948738203
 30
0.0
 10
60.85898978513248
 20
-148.7101304424232
 30
0.0
 10
60.65590140627699
 20
-148.6022989537348
 30
0.0
 10
60.63264701175157
 20
-148.4414129945736
 30
0.0
 10
60.63264701175157
 20
-148.3125664234253
 30
0.0
 10
60.63264701175157
 20
-148.1537475215553
 30
0.0
 10
60.67708874351128
 20
-148.0100870398204
 30
0.0
 10
60.85898978513248
 20
-147.914657894879
 30
0.0
 10
61.05157062275794
 20
-147.8154391449038
 30
0.0
 10
61.27998045343001
 20
-147.7920124956041
 30
0.0
 10
61.45344101111234
 20
-147.7920124956041
 30
0.0
 10
61.62483451150351
 20
-147.7920124956041
 30
0.0
 10
61.85548365424099
 20
-147.8133720876126
 30
0.0
 10
62.04789223709219
 20
-147.914657894879
 30
0.0
  0
HATCH
  5
128
330
122
100
AcDbEntity
  8
レイヤー 1
 62
   250
420
  2299925
440
 33554687
100
AcDbHatch
 10
0.0
 20
0.0
 30
0.0
210
0.0
220
0.0
230
1.0
  2
SOLID
 70
     1
 71
     1
 91
        2
 92
        1
 93
        1
 72
     4
 94
        3
 73
     0
 74
     0
 95
       17
 96
       13
 40
0.0
 40
0.0
 40
0.0
 40
0.0
 40
1.0
 40
1.0
 40
1.0
 40
2.0
 40
2.0
 40
2.0
 40
3.0
 40
3.0
 40
3.0
 40
4.0
 40
4.0
 40
4.0
 40
4.0
 10
60.82522784937703
 20
-148.3125664234253
 10
60.82522784937703
 20
-148.5623358461059
 10
61.10858695303883
 20
-148.6088446351568
 10
61.45344101111234
 20
-148.6088446351568
 10
61.77297361736926
 20
-148.6088446351568
 10
62.0818264276219
 20
-148.5726711325617
 10
62.0818264276219
 20
-148.3125664234253
 10
62.0818264276219
 20
-148.0648640580358
 10
61.80036212647699
 20
-148.0162882116938
 10
61.45344101111234
 20
-148.0162882116938
 10
61.13408065962968
 20
-148.0162882116938
 10
60.82522784937703
 20
-148.0545287715801
 10
60.82522784937703
 20
-148.3125664234253
 97
        0
 97
        1
330
126
 92
        1
 93
        1
 72
     4
 94
        3
 73
     0
 74
     0
 95
       29
 96
       25
 40
0.0
 40
0.0
 40
0.0
 40
0.0
 40
1.0
 40
1.0
 40
1.0
 40
2.0
 40
2.0
 40
2.0
 40
3.0
 40
3.0
 40
3.0
 40
4.0
 40
4.0
 40
4.0
 40
5.0
 40
5.0
 40
5.0
 40
6.0
 40
6.0
 40
6.0
 40
7.0
 40
7.0
 40
7.0
 40
8.0
 40
8.0
 40
8.0
 40
8.0
 10
62.04789223709219
 20
-147.914657894879
 10
62.25735404259538
 20
-148.0228338931158
 10
62.27647432253853
 20
-148.1961221960238
 10
62.27647432253853
 20
-148.3125664234253
 10
62.27647432253853
 20
-148.4734523825865
 10
62.22996553348765
 20
-148.6150458070302
 10
62.04789223709219
 20
-148.7101304424232
 10
61.85341659694984
 20
-148.8138278165292
 10
61.61639402756465
 20
-148.8331203512466
 10
61.45344101111234
 20
-148.8331203512466
 10
61.30960827460316
 20
-148.8331203512466
 10
61.05794404940565
 20
-148.8158948738203
 10
60.85898978513248
 20
-148.7101304424232
 10
60.65590140627699
 20
-148.6022989537348
 10
60.63264701175157
 20
-148.4414129945736
 10
60.63264701175157
 20
-148.3125664234253
 10
60.63264701175157
 20
-148.1537475215553
 10
60.67708874351128
 20
-148.0100870398204
 10
60.85898978513248
 20
-147.914657894879
 10
61.05157062275794
 20
-147.8154391449038
 10
61.27998045343001
 20
-147.7920124956041
 10
61.45344101111234
 20
-147.7920124956041
 10
61.62483451150351
 20
-147.7920124956041
 10
61.85548365424099
 20
-147.8133720876126
 10
62.04789223709219
 20
-147.914657894879
 97
        0
 97
        1
330
127
 75
     2
 76
     1
 98
        1
 10
0.0
 20
0.0
450
        0
451
        0
460
0.0
461
0.0
452
        0
462
0.0
453
        0
470

  0
SPLINE
  5
129
330
122
100
AcDbEntity
  8
レイヤー 1
100
AcDbSpline
210
0.0
220
0.0
230
1.0
 70
    11
 71
     3
 72
    17
 73
    13
 74
     0
 42
0.0000000001
 43
0.0000000001
 40
0.0
 40
0.0
 40
0.0
 40
0.0
 40
1.0
 40
1.0
 40
1.0
 40
2.0
 40
2.0
 40
2.0
 40
3.0
 40
3.0
 40
3.0
 40
4.0
 40
4.0
 40
4.0
 40
4.0
 10
62.22565916413109
 20
-147.5756604991304
 30
0.0
 10
62.22565916413109
 20
-147.5756604991304
 30
0.0
 10
61.97399493893358
 20
-147.5756604991304
 30
0.0
 10
61.97399493893358
 20
-147.5756604991304
 30
0.0
 10
61.97399493893358
 20
-147.5756604991304
 30
0.0
 10
61.97399493893358
 20
-147.3238240191586
 30
0.0
 10
61.97399493893358
 20
-147.3238240191586
 30
0.0
 10
61.97399493893358
 20
-147.3238240191586
 30
0.0
 10
62.22565916413109
 20
-147.3238240191586
 30
0.0
 10
62.22565916413109
 20
-147.3238240191586
 30
0.0
 10
62.22565916413109
 20
-147.3238240191586
 30
0.0
 10
62.22565916413109
 20
-147.5756604991304
 30
0.0
 10
62.22565916413109
 20
-147.5756604991304
 30
0.0
  0
HATCH
  5
12A
330
122
100
AcDbEntity
  8
レイヤー 1
 62
   250
420
  2299925
440
 33554687
100
AcDbHatch
 10
0.0
 20
0.0
 30
0.0
210
0.0
220
0.0
230
1.0
  2
SOLID
 70
     1
 71
     1
 91
        1
 92
        1
 93
        1
 72
     4
 94
        3
 73
     0
 74
     0
 95
       17
 96
       13
 40
0.0
 40
0.0
 40
0.0
 40
0.0
 40
1.0
 40
1.0
 40
1.0
 40
2.0
 40
2.0
 40
2.0
 40
3.0
 40
3.0
 40
3.0
 40
4.0
 40
4.0
 40
4.0
 40
4.0
 10
62.22565916413109
 20
-147.5756604991304
 10
62.22565916413109
 20
-147.5756604991304
 10
61.97399493893358
 20
-147.5756604991304
 10
61.97399493893358
 20
-147.5756604991304
 10
61.97399493893358
 20
-147.5756604991304
 10
61.97399493893358
 20
-147.3238240191586
 10
61.97399493893358
 20
-147.3238240191586
 10
61.97399493893358
 20
-147.3238240191586
 10
62.22565916413109
 20
-147.3238240191586
 10
62.22565916413109
 20
-147.3238240191586
 10
62.22565916413109
 20
-147.3238240191586
 10
62.22565916413109
 20
-147.5756604991304
 10
62.22565916413109
 20
-147.5756604991304
 97
        0
 97
        1
330
129
 75
     2
 76
     1
 98
        1
 10
0.0
 20
0.0
450
        0
451
        0
460
0.0
461
0.0
452
        0
462
0.0
453
        0
470

  0
SPLINE
  5
12B
330
122
100
AcDbEntity
  8
レイヤー 1
100
AcDbSpline
210
0.0
220
0.0
230
1.0
 70
     9
 71
     3
 72
    53
 73
    49
 74
     0
 42
0.0000000001
 43
0.0000000001
 40
0.0
 40
0.0
 40
0.0
 40
0.0
 40
1.0
 40
1.0
 40
1.0
 40
2.0
 40
2.0
 40
2.0
 40
3.0
 40
3.0
 40
3.0
 40
4.0
 40
4.0
 40
4.0
 40
5.0
 40
5.0
 40
5.0
 40
6.0
 40
6.0
 40
6.0
 40
7.0
 40
7.0
 40
7.0
 40
8.0
 40
8.0
 40
8.0
 40
9.0
 40
9.0
 40
9.0
 40
10.0
 40
10.0
 40
10.0
 40
11.0
 40
11.0
 40
11.0
 40
12.0
 40
12.0
 40
12.0
 40
13.0
 40
13.0
 40
13.0
 40
14.0
 40
14.0
 40
14.0
 40
15.0
 40
15.0
 40
15.0
 40
16.0
 40
16.0
 40
16.0
 40
16.0
 10
62.27647432253853
 20
-146.6065551391296
 30
0.0
 10
62.27647432253853
 20
-146.6847588066448
 30
0.0
 10
62.2595933546608
 20
-146.7863891234596
 30
0.0
 10
62.19603134295794
 20
-146.8880194402745
 30
0.0
 10
62.08596054220421
 20
-147.0613077431826
 30
0.0
 10
61.95487465899045
 20
-147.0826673351911
 30
0.0
 10
61.84704317030213
 20
-147.10161536036
 30
0.0
 10
61.84704317030213
 20
-147.10161536036
 30
0.0
 10
61.84704317030213
 20
-146.8794067015614
 30
0.0
 10
61.84704317030213
 20
-146.8794067015614
 30
0.0
 10
62.04582517980105
 20
-146.8246296833459
 30
0.0
 10
62.07545300097419
 20
-146.6975056599402
 30
0.0
 10
62.07545300097419
 20
-146.6044880818385
 30
0.0
 10
62.07545300097419
 20
-146.4649617146858
 30
0.0
 10
61.97606199622473
 20
-146.3126884942378
 30
0.0
 10
61.7433457961961
 20
-146.3126884942378
 30
0.0
 10
61.48737520164204
 20
-146.3126884942378
 30
0.0
 10
61.41761201806573
 20
-146.4925224785678
 30
0.0
 10
61.41761201806573
 20
-146.6131008205516
 30
0.0
 10
61.41761201806573
 20
-146.6447956990159
 30
0.0
 10
61.41761201806573
 20
-146.7863891234596
 30
0.0
 10
61.54663084398834
 20
-146.8752725869791
 30
0.0
 10
61.54663084398834
 20
-146.8752725869791
 30
0.0
 10
61.52751056404521
 20
-147.0509724567268
 30
0.0
 10
61.52751056404521
 20
-147.0509724567268
 30
0.0
 10
61.52751056404521
 20
-147.0509724567268
 30
0.0
 10
60.68139511286784
 20
-146.9303941147431
 30
0.0
 10
60.68139511286784
 20
-146.9303941147431
 30
0.0
 10
60.68139511286784
 20
-146.9303941147431
 30
0.0
 10
60.68139511286784
 20
-146.1518025350766
 30
0.0
 10
60.68139511286784
 20
-146.1518025350766
 30
0.0
 10
60.68139511286784
 20
-146.1518025350766
 30
0.0
 10
60.87604300778447
 20
-146.1518025350766
 30
0.0
 10
60.87604300778447
 20
-146.1518025350766
 30
0.0
 10
60.87604300778447
 20
-146.1518025350766
 30
0.0
 10
60.87604300778447
 20
-146.7674410982908
 30
0.0
 10
60.87604300778447
 20
-146.7674410982908
 30
0.0
 10
60.87604300778447
 20
-146.7674410982908
 30
0.0
 10
61.29910073337314
 20
-146.8328979125105
 30
0.0
 10
61.29910073337314
 20
-146.8328979125105
 30
0.0
 10
61.26516654284343
 20
-146.771575212873
 30
0.0
 10
61.22503118044027
 20
-146.6892374307756
 30
0.0
 10
61.22503118044027
 20
-146.570726146083
 30
0.0
 10
61.22503118044027
 20
-146.3168226088201
 30
0.0
 10
61.41123859141803
 20
-146.0798000394349
 30
0.0
 10
61.72422551625297
 20
-146.0798000394349
 30
0.0
 10
62.04169106521875
 20
-146.0798000394349
 30
0.0
 10
62.27647432253853
 20
-146.3040757555247
 30
0.0
 10
62.27647432253853
 20
-146.6065551391296
 30
0.0
  0
HATCH
  5
12C
330
122
100
AcDbEntity
  8
レイヤー 1
 62
   250
420
  2299925
440
 33554687
100
AcDbHatch
 10
0.0
 20
0.0
 30
0.0
210
0.0
220
0.0
230
1.0
  2
SOLID
 70
     1
 71
     1
 91
        1
 92
        1
 93
        1
 72
     4
 94
        3
 73
     0
 74
     0
 95
       53
 96
       49
 40
0.0
 40
0.0
 40
0.0
 40
0.0
 40
1.0
 40
1.0
 40
1.0
 40
2.0
 40
2.0
 40
2.0
 40
3.0
 40
3.0
 40
3.0
 40
4.0
 40
4.0
 40
4.0
 40
5.0
 40
5.0
 40
5.0
 40
6.0
 40
6.0
 40
6.0
 40
7.0
 40
7.0
 40
7.0
 40
8.0
 40
8.0
 40
8.0
 40
9.0
 40
9.0
 40
9.0
 40
10.0
 40
10.0
 40
10.0
 40
11.0
 40
11.0
 40
11.0
 40
12.0
 40
12.0
 40
12.0
 40
13.0
 40
13.0
 40
13.0
 40
14.0
 40
14.0
 40
14.0
 40
15.0
 40
15.0
 40
15.0
 40
16.0
 40
16.0
 40
16.0
 40
16.0
 10
62.27647432253853
 20
-146.6065551391296
 10
62.27647432253853
 20
-146.6847588066448
 10
62.2595933546608
 20
-146.7863891234596
 10
62.19603134295794
 20
-146.8880194402745
 10
62.08596054220421
 20
-147.0613077431826
 10
61.95487465899045
 20
-147.0826673351911
 10
61.84704317030213
 20
-147.10161536036
 10
61.84704317030213
 20
-147.10161536036
 10
61.84704317030213
 20
-146.8794067015614
 10
61.84704317030213
 20
-146.8794067015614
 10
62.04582517980105
 20
-146.8246296833459
 10
62.07545300097419
 20
-146.6975056599402
 10
62.07545300097419
 20
-146.6044880818385
 10
62.07545300097419
 20
-146.4649617146858
 10
61.97606199622473
 20
-146.3126884942378
 10
61.7433457961961
 20
-146.3126884942378
 10
61.48737520164204
 20
-146.3126884942378
 10
61.41761201806573
 20
-146.4925224785678
 10
61.41761201806573
 20
-146.6131008205516
 10
61.41761201806573
 20
-146.6447956990159
 10
61.41761201806573
 20
-146.7863891234596
 10
61.54663084398834
 20
-146.8752725869791
 10
61.54663084398834
 20
-146.8752725869791
 10
61.52751056404521
 20
-147.0509724567268
 10
61.52751056404521
 20
-147.0509724567268
 10
61.52751056404521
 20
-147.0509724567268
 10
60.68139511286784
 20
-146.9303941147431
 10
60.68139511286784
 20
-146.9303941147431
 10
60.68139511286784
 20
-146.9303941147431
 10
60.68139511286784
 20
-146.1518025350766
 10
60.68139511286784
 20
-146.1518025350766
 10
60.68139511286784
 20
-146.1518025350766
 10
60.87604300778447
 20
-146.1518025350766
 10
60.87604300778447
 20
-146.1518025350766
 10
60.87604300778447
 20
-146.1518025350766
 10
60.87604300778447
 20
-146.7674410982908
 10
60.87604300778447
 20
-146.7674410982908
 10
60.87604300778447
 20
-146.7674410982908
 10
61.29910073337314
 20
-146.8328979125105
 10
61.29910073337314
 20
-146.8328979125105
 10
61.26516654284343
 20
-146.771575212873
 10
61.22503118044027
 20
-146.6892374307756
 10
61.22503118044027
 20
-146.570726146083
 10
61.22503118044027
 20
-146.3168226088201
 10
61.41123859141803
 20
-146.0798000394349
 10
61.72422551625297
 20
-146.0798000394349
 10
62.04169106521875
 20
-146.0798000394349
 10
62.27647432253853
 20
-146.3040757555247
 10
62.27647432253853
 20
-146.6065551391296
 97
        0
 97
        1
330
12B
 75
     2
 76
     1
 98
        1
 10
0.0
 20
0.0
450
        0
451
        0
460
0.0
461
0.0
452
        0
462
0.0
453
        0
470

  0
ENDBLK
  5
125
330
122
100
AcDbEntity
  8
0
100
AcDbBlockEnd
  0
BLOCK
  5
131
330
12F
100
AcDbEntity
  8
0
100
AcDbBlockBegin
  2
Block_3
 70
     0
 10
0.0
 20
0.0
 30
0.0
  3
Block_3
  1

  0
INSERT
  5
134
330
12F
100
AcDbEntity
  8
レイヤー 1
100
AcDbBlockReference
  2
Block_4
 10
0.0
 20
0.0
 30
0.0
  0
ENDBLK
  5
132
330
12F
100
AcDbEntity
  8
0
100
AcDbBlockEnd
  0
BLOCK
  5
135
330
133
100
AcDbEntity
  8
0
100
AcDbBlockBegin
  2
Block_4
 70
     0
 10
0.0
 20
0.0
 30
0.0
  3
Block_4
  1

  0
SPLINE
  5
137
330
133
100
AcDbEntity
  8
レイヤー 1
100
AcDbSpline
210
0.0
220
0.0
230
1.0
 70
     9
 71
     3
 72
    44
 73
    40
 74
     0
 42
0.0000000001
 43
0.0000000001
 40
0.0
 40
0.0
 40
0.0
 40
0.0
 40
1.0
 40
1.0
 40
1.0
 40
2.0
 40
2.0
 40
2.0
 40
3.0
 40
3.0
 40
3.0
 40
4.0
 40
4.0
 40
4.0
 40
5.0
 40
5.0
 40
5.0
 40
6.0
 40
6.0
 40
6.0
 40
7.0
 40
7.0
 40
7.0
 40
8.0
 40
8.0
 40
8.0
 40
9.0
 40
9.0
 40
9.0
 40
10.0
 40
10.0
 40
10.0
 40
11.0
 40
11.0
 40
11.0
 40
12.0
 40
12.0
 40
12.0
 40
13.0
 40
13.0
 40
13.0
 40
13.0
 10
75.82844643286581
 20
-141.1002590250548
 30
0.0
 10
75.61054414342375
 20
-141.2589056721505
 30
0.0
 10
75.51735431054774
 20
-141.3329752250834
 30
0.0
 10
75.46877846420573
 20
-141.4768079615926
 30
0.0
 10
75.46877846420573
 20
-141.4768079615926
 30
0.0
 10
76.24719778909792
 20
-141.4768079615926
 30
0.0
 10
76.24719778909792
 20
-141.4768079615926
 30
0.0
 10
76.24719778909792
 20
-141.4768079615926
 30
0.0
 10
76.24719778909792
 20
-141.6819633977392
 30
0.0
 10
76.24719778909792
 20
-141.6819633977392
 30
0.0
 10
76.24719778909792
 20
-141.6819633977392
 30
0.0
 10
75.21918129629937
 20
-141.6819633977392
 30
0.0
 10
75.21918129629937
 20
-141.6819633977392
 30
0.0
 10
75.25087617476367
 20
-141.3243624863703
 30
0.0
 10
75.31650524375769
 20
-141.2461588188551
 30
0.0
 10
75.70149466423434
 20
-140.9478135498325
 30
0.0
 10
75.95746525878841
 20
-140.7490315403336
 30
0.0
 10
76.02292207300816
 20
-140.6813354140484
 30
0.0
 10
76.02292207300816
 20
-140.5438761041869
 30
0.0
 10
76.02292207300816
 20
-140.4253648194943
 30
0.0
 10
75.9510918321407
 20
-140.2941066815063
 30
0.0
 10
75.75437687993293
 20
-140.2941066815063
 30
0.0
 10
75.49409991602231
 20
-140.2941066815063
 30
0.0
 10
75.48565943208345
 20
-140.5247558242438
 30
0.0
 10
75.48135306272688
 20
-140.6412000516452
 30
0.0
 10
75.48135306272688
 20
-140.6412000516452
 30
0.0
 10
75.25724960141139
 20
-140.6412000516452
 30
0.0
 10
75.25724960141139
 20
-140.6412000516452
 30
0.0
 10
75.26569008535024
 20
-140.5142482830138
 30
0.0
 10
75.27619762658026
 20
-140.4021104249689
 30
0.0
 10
75.35664060616084
 20
-140.2835991402763
 30
0.0
 10
75.46653915214031
 20
-140.1228854358894
 30
0.0
 10
75.65274656311807
 20
-140.0889512453597
 30
0.0
 10
75.76919079051951
 20
-140.0889512453597
 30
0.0
 10
76.04634872230786
 20
-140.0889512453597
 30
0.0
 10
76.25357121574563
 20
-140.2730915990463
 30
0.0
 10
76.25357121574563
 20
-140.5459431614781
 30
0.0
 10
76.25357121574563
 20
-140.7743529921502
 30
0.0
 10
76.13729924311846
 20
-140.8739162516738
 30
0.0
 10
75.82844643286581
 20
-141.1002590250548
 30
0.0
  0
HATCH
  5
138
330
133
100
AcDbEntity
  8
レイヤー 1
 62
   250
420
  2299925
440
 33554687
100
AcDbHatch
 10
0.0
 20
0.0
 30
0.0
210
0.0
220
0.0
230
1.0
  2
SOLID
 70
     1
 71
     1
 91
        1
 92
        1
 93
        1
 72
     4
 94
        3
 73
     0
 74
     0
 95
       44
 96
       40
 40
0.0
 40
0.0
 40
0.0
 40
0.0
 40
1.0
 40
1.0
 40
1.0
 40
2.0
 40
2.0
 40
2.0
 40
3.0
 40
3.0
 40
3.0
 40
4.0
 40
4.0
 40
4.0
 40
5.0
 40
5.0
 40
5.0
 40
6.0
 40
6.0
 40
6.0
 40
7.0
 40
7.0
 40
7.0
 40
8.0
 40
8.0
 40
8.0
 40
9.0
 40
9.0
 40
9.0
 40
10.0
 40
10.0
 40
10.0
 40
11.0
 40
11.0
 40
11.0
 40
12.0
 40
12.0
 40
12.0
 40
13.0
 40
13.0
 40
13.0
 40
13.0
 10
75.82844643286581
 20
-141.1002590250548
 10
75.61054414342375
 20
-141.2589056721505
 10
75.51735431054774
 20
-141.3329752250834
 10
75.46877846420573
 20
-141.4768079615926
 10
75.46877846420573
 20
-141.4768079615926
 10
76.24719778909792
 20
-141.4768079615926
 10
76.24719778909792
 20
-141.4768079615926
 10
76.24719778909792
 20
-141.4768079615926
 10
76.24719778909792
 20
-141.6819633977392
 10
76.24719778909792
 20
-141.6819633977392
 10
76.24719778909792
 20
-141.6819633977392
 10
75.21918129629937
 20
-141.6819633977392
 10
75.21918129629937
 20
-141.6819633977392
 10
75.25087617476367
 20
-141.3243624863703
 10
75.31650524375769
 20
-141.2461588188551
 10
75.70149466423434
 20
-140.9478135498325
 10
75.95746525878841
 20
-140.7490315403336
 10
76.02292207300816
 20
-140.6813354140484
 10
76.02292207300816
 20
-140.5438761041869
 10
76.02292207300816
 20
-140.4253648194943
 10
75.9510918321407
 20
-140.2941066815063
 10
75.75437687993293
 20
-140.2941066815063
 10
75.49409991602231
 20
-140.2941066815063
 10
75.48565943208345
 20
-140.5247558242438
 10
75.48135306272688
 20
-140.6412000516452
 10
75.48135306272688
 20
-140.6412000516452
 10
75.25724960141139
 20
-140.6412000516452
 10
75.25724960141139
 20
-140.6412000516452
 10
75.26569008535024
 20
-140.5142482830138
 10
75.27619762658026
 20
-140.4021104249689
 10
75.35664060616084
 20
-140.2835991402763
 10
75.46653915214031
 20
-140.1228854358894
 10
75.65274656311807
 20
-140.0889512453597
 10
75.76919079051951
 20
-140.0889512453597
 10
76.04634872230786
 20
-140.0889512453597
 10
76.25357121574563
 20
-140.2730915990463
 10
76.25357121574563
 20
-140.5459431614781
 10
76.25357121574563
 20
-140.7743529921502
 10
76.13729924311846
 20
-140.8739162516738
 10
75.82844643286581
 20
-141.1002590250548
 97
        0
 97
        1
330
137
 75
     2
 76
     1
 98
        1
 10
0.0
 20
0.0
450
        0
451
        0
460
0.0
461
0.0
452
        0
462
0.0
453
        0
470

  0
SPLINE
  5
139
330
133
100
AcDbEntity
  8
レイヤー 1
100
AcDbSpline
210
0.0
220
0.0
230
1.0
 70
    11
 71
     3
 72
    26
 73
    22
 74
     0
 42
0.0000000001
 43
0.0000000001
 40
0.0
 40
0.0
 40
0.0
 40
0.0
 40
1.0
 40
1.0
 40
1.0
 40
2.0
 40
2.0
 40
2.0
 40
3.0
 40
3.0
 40
3.0
 40
4.0
 40
4.0
 40
4.0
 40
5.0
 40
5.0
 40
5.0
 40
6.0
 40
6.0
 40
6.0
 40
7.0
 40
7.0
 40
7.0
 40
7.0
 10
76.86352537140912
 20
-141.6819633977392
 30
0.0
 10
76.86352537140912
 20
-141.6819633977392
 30
0.0
 10
76.86352537140912
 20
-140.5776380399424
 30
0.0
 10
76.86352537140912
 20
-140.5776380399424
 30
0.0
 10
76.86352537140912
 20
-140.5776380399424
 30
0.0
 10
76.53348522392218
 20
-140.5776380399424
 30
0.0
 10
76.53348522392218
 20
-140.5776380399424
 30
0.0
 10
76.53348522392218
 20
-140.5776380399424
 30
0.0
 10
76.53348522392218
 20
-140.4294989340766
 30
0.0
 10
76.53348522392218
 20
-140.4294989340766
 30
0.0
 10
76.86559242870027
 20
-140.4148572782643
 30
0.0
 10
76.91210121775114
 20
-140.251904261812
 30
0.0
 10
76.94172903892429
 20
-140.137699346476
 30
0.0
 10
76.94172903892429
 20
-140.137699346476
 30
0.0
 10
77.08780108749889
 20
-140.137699346476
 30
0.0
 10
77.08780108749889
 20
-140.137699346476
 30
0.0
 10
77.08780108749889
 20
-140.137699346476
 30
0.0
 10
77.08780108749889
 20
-141.6819633977392
 30
0.0
 10
77.08780108749889
 20
-141.6819633977392
 30
0.0
 10
77.08780108749889
 20
-141.6819633977392
 30
0.0
 10
76.86352537140912
 20
-141.6819633977392
 30
0.0
 10
76.86352537140912
 20
-141.6819633977392
 30
0.0
  0
HATCH
  5
13A
330
133
100
AcDbEntity
  8
レイヤー 1
 62
   250
420
  2299925
440
 33554687
100
AcDbHatch
 10
0.0
 20
0.0
 30
0.0
210
0.0
220
0.0
230
1.0
  2
SOLID
 70
     1
 71
     1
 91
        1
 92
        1
 93
        1
 72
     4
 94
        3
 73
     0
 74
     0
 95
       26
 96
       22
 40
0.0
 40
0.0
 40
0.0
 40
0.0
 40
1.0
 40
1.0
 40
1.0
 40
2.0
 40
2.0
 40
2.0
 40
3.0
 40
3.0
 40
3.0
 40
4.0
 40
4.0
 40
4.0
 40
5.0
 40
5.0
 40
5.0
 40
6.0
 40
6.0
 40
6.0
 40
7.0
 40
7.0
 40
7.0
 40
7.0
 10
76.86352537140912
 20
-141.6819633977392
 10
76.86352537140912
 20
-141.6819633977392
 10
76.86352537140912
 20
-140.5776380399424
 10
76.86352537140912
 20
-140.5776380399424
 10
76.86352537140912
 20
-140.5776380399424
 10
76.53348522392218
 20
-140.5776380399424
 10
76.53348522392218
 20
-140.5776380399424
 10
76.53348522392218
 20
-140.5776380399424
 10
76.53348522392218
 20
-140.4294989340766
 10
76.53348522392218
 20
-140.4294989340766
 10
76.86559242870027
 20
-140.4148572782643
 10
76.91210121775114
 20
-140.251904261812
 10
76.94172903892429
 20
-140.137699346476
 10
76.94172903892429
 20
-140.137699346476
 10
77.08780108749889
 20
-140.137699346476
 10
77.08780108749889
 20
-140.137699346476
 10
77.08780108749889
 20
-140.137699346476
 10
77.08780108749889
 20
-141.6819633977392
 10
77.08780108749889
 20
-141.6819633977392
 10
77.08780108749889
 20
-141.6819633977392
 10
76.86352537140912
 20
-141.6819633977392
 10
76.86352537140912
 20
-141.6819633977392
 97
        0
 97
        1
330
139
 75
     2
 76
     1
 98
        1
 10
0.0
 20
0.0
450
        0
451
        0
460
0.0
461
0.0
452
        0
462
0.0
453
        0
470

  0
ENDBLK
  5
136
330
133
100
AcDbEntity
  8
0
100
AcDbBlockEnd
  0
BLOCK
  5
13F
330
13D
100
AcDbEntity
  8
0
100
AcDbBlockBegin
  2
Block_5
 70
     0
 10
0.0
 20
0.0
 30
0.0
  3
Block_5
  1

  0
SPLINE
  5
141
330
13D
100
AcDbEntity
  8
レイヤー 1
100
AcDbSpline
210
0.0
220
0.0
230
1.0
 70
     9
 71
     3
 72
    53
 73
    49
 74
     0
 42
0.0000000001
 43
0.0000000001
 40
0.0
 40
0.0
 40
0.0
 40
0.0
 40
1.0
 40
1.0
 40
1.0
 40
2.0
 40
2.0
 40
2.0
 40
3.0
 40
3.0
 40
3.0
 40
4.0
 40
4.0
 40
4.0
 40
5.0
 40
5.0
 40
5.0
 40
6.0
 40
6.0
 40
6.0
 40
7.0
 40
7.0
 40
7.0
 40
8.0
 40
8.0
 40
8.0
 40
9.0
 40
9.0
 40
9.0
 40
10.0
 40
10.0
 40
10.0
 40
11.0
 40
11.0
 40
11.0
 40
12.0
 40
12.0
 40
12.0
 40
13.0
 40
13.0
 40
13.0
 40
14.0
 40
14.0
 40
14.0
 40
15.0
 40
15.0
 40
15.0
 40
16.0
 40
16.0
 40
16.0
 40
16.0
 10
63.00752358450854
 20
-151.0271294110279
 30
0.0
 10
63.00752358450854
 20
-151.1053330785431
 30
0.0
 10
62.99047036185655
 20
-151.206963395358
 30
0.0
 10
62.92708060492795
 20
-151.3085937121728
 30
0.0
 10
62.81700980417422
 20
-151.4818820150809
 30
0.0
 10
62.68592392096047
 20
-151.5032416070894
 30
0.0
 10
62.57809243227214
 20
-151.5221896322583
 30
0.0
 10
62.57809243227214
 20
-151.5221896322583
 30
0.0
 10
62.57809243227214
 20
-151.2999809734597
 30
0.0
 10
62.57809243227214
 20
-151.2999809734597
 30
0.0
 10
62.77687444177106
 20
-151.2452039552442
 30
0.0
 10
62.80650226294421
 20
-151.1180799318385
 30
0.0
 10
62.80650226294421
 20
-151.0250623537368
 30
0.0
 10
62.80650226294421
 20
-150.8855359865842
 30
0.0
 10
62.70711125819475
 20
-150.7332627661361
 30
0.0
 10
62.47439505816612
 20
-150.7332627661361
 30
0.0
 10
62.21842446361207
 20
-150.7332627661361
 30
0.0
 10
62.14866128003575
 20
-150.9130967504662
 30
0.0
 10
62.14866128003575
 20
-151.0336750924499
 30
0.0
 10
62.14866128003575
 20
-151.0653699709142
 30
0.0
 10
62.14866128003575
 20
-151.206963395358
 30
0.0
 10
62.27768010595836
 20
-151.2958468588774
 30
0.0
 10
62.27768010595836
 20
-151.2958468588774
 30
0.0
 10
62.25855982601522
 20
-151.4715467286252
 30
0.0
 10
62.25855982601522
 20
-151.4715467286252
 30
0.0
 10
62.25855982601522
 20
-151.4715467286252
 30
0.0
 10
61.41244437483786
 20
-151.3509683866414
 30
0.0
 10
61.41244437483786
 20
-151.3509683866414
 30
0.0
 10
61.41244437483786
 20
-151.3509683866414
 30
0.0
 10
61.41244437483786
 20
-150.5723768069749
 30
0.0
 10
61.41244437483786
 20
-150.5723768069749
 30
0.0
 10
61.41244437483786
 20
-150.5723768069749
 30
0.0
 10
61.60709226975448
 20
-150.5723768069749
 30
0.0
 10
61.60709226975448
 20
-150.5723768069749
 30
0.0
 10
61.60709226975448
 20
-150.5723768069749
 30
0.0
 10
61.60709226975448
 20
-151.1880153701891
 30
0.0
 10
61.60709226975448
 20
-151.1880153701891
 30
0.0
 10
61.60709226975448
 20
-151.1880153701891
 30
0.0
 10
62.03014999534316
 20
-151.2534721844088
 30
0.0
 10
62.03014999534316
 20
-151.2534721844088
 30
0.0
 10
61.99621580481345
 20
-151.1921494847714
 30
0.0
 10
61.95608044241029
 20
-151.1098117026739
 30
0.0
 10
61.95608044241029
 20
-150.9913004179813
 30
0.0
 10
61.95608044241029
 20
-150.7373968807184
 30
0.0
 10
62.14228785338804
 20
-150.5003743113332
 30
0.0
 10
62.45527477822299
 20
-150.5003743113332
 30
0.0
 10
62.77274032718876
 20
-150.5003743113332
 30
0.0
 10
63.00752358450854
 20
-150.724650027423
 30
0.0
 10
63.00752358450854
 20
-151.0271294110279
 30
0.0
  0
HATCH
  5
142
330
13D
100
AcDbEntity
  8
レイヤー 1
 62
   250
420
  2299925
440
 33554687
100
AcDbHatch
 10
0.0
 20
0.0
 30
0.0
210
0.0
220
0.0
230
1.0
  2
SOLID
 70
     1
 71
     1
 91
        1
 92
        1
 93
        1
 72
     4
 94
        3
 73
     0
 74
     0
 95
       53
 96
       49
 40
0.0
 40
0.0
 40
0.0
 40
0.0
 40
1.0
 40
1.0
 40
1.0
 40
2.0
 40
2.0
 40
2.0
 40
3.0
 40
3.0
 40
3.0
 40
4.0
 40
4.0
 40
4.0
 40
5.0
 40
5.0
 40
5.0
 40
6.0
 40
6.0
 40
6.0
 40
7.0
 40
7.0
 40
7.0
 40
8.0
 40
8.0
 40
8.0
 40
9.0
 40
9.0
 40
9.0
 40
10.0
 40
10.0
 40
10.0
 40
11.0
 40
11.0
 40
11.0
 40
12.0
 40
12.0
 40
12.0
 40
13.0
 40
13.0
 40
13.0
 40
14.0
 40
14.0
 40
14.0
 40
15.0
 40
15.0
 40
15.0
 40
16.0
 40
16.0
 40
16.0
 40
16.0
 10
63.00752358450854
 20
-151.0271294110279
 10
63.00752358450854
 20
-151.1053330785431
 10
62.99047036185655
 20
-151.206963395358
 10
62.92708060492795
 20
-151.3085937121728
 10
62.81700980417422
 20
-151.4818820150809
 10
62.68592392096047
 20
-151.5032416070894
 10
62.57809243227214
 20
-151.5221896322583
 10
62.57809243227214
 20
-151.5221896322583
 10
62.57809243227214
 20
-151.2999809734597
 10
62.57809243227214
 20
-151.2999809734597
 10
62.77687444177106
 20
-151.2452039552442
 10
62.80650226294421
 20
-151.1180799318385
 10
62.80650226294421
 20
-151.0250623537368
 10
62.80650226294421
 20
-150.8855359865842
 10
62.70711125819475
 20
-150.7332627661361
 10
62.47439505816612
 20
-150.7332627661361
 10
62.21842446361207
 20
-150.7332627661361
 10
62.14866128003575
 20
-150.9130967504662
 10
62.14866128003575
 20
-151.0336750924499
 10
62.14866128003575
 20
-151.0653699709142
 10
62.14866128003575
 20
-151.206963395358
 10
62.27768010595836
 20
-151.2958468588774
 10
62.27768010595836
 20
-151.2958468588774
 10
62.25855982601522
 20
-151.4715467286252
 10
62.25855982601522
 20
-151.4715467286252
 10
62.25855982601522
 20
-151.4715467286252
 10
61.41244437483786
 20
-151.3509683866414
 10
61.41244437483786
 20
-151.3509683866414
 10
61.41244437483786
 20
-151.3509683866414
 10
61.41244437483786
 20
-150.5723768069749
 10
61.41244437483786
 20
-150.5723768069749
 10
61.41244437483786
 20
-150.5723768069749
 10
61.60709226975448
 20
-150.5723768069749
 10
61.60709226975448
 20
-150.5723768069749
 10
61.60709226975448
 20
-150.5723768069749
 10
61.60709226975448
 20
-151.1880153701891
 10
61.60709226975448
 20
-151.1880153701891
 10
61.60709226975448
 20
-151.1880153701891
 10
62.03014999534316
 20
-151.2534721844088
 10
62.03014999534316
 20
-151.2534721844088
 10
61.99621580481345
 20
-151.1921494847714
 10
61.95608044241029
 20
-151.1098117026739
 10
61.95608044241029
 20
-150.9913004179813
 10
61.95608044241029
 20
-150.7373968807184
 10
62.14228785338804
 20
-150.5003743113332
 10
62.45527477822299
 20
-150.5003743113332
 10
62.77274032718876
 20
-150.5003743113332
 10
63.00752358450854
 20
-150.724650027423
 10
63.00752358450854
 20
-151.0271294110279
 97
        0
 97
        1
330
141
 75
     2
 76
     1
 98
        1
 10
0.0
 20
0.0
450
        0
451
        0
460
0.0
461
0.0
452
        0
462
0.0
453
        0
470

  0
ENDBLK
  5
140
330
13D
100
AcDbEntity
  8
0
100
AcDbBlockEnd
  0
BLOCK
  5
147
330
145
100
AcDbEntity
  8
0
100
AcDbBlockBegin
  2
Block_6
 70
     0
 10
0.0
 20
0.0
 30
0.0
  3
Block_6
  1

  0
INSERT
  5
14A
330
145
100
AcDbEntity
  8
レイヤー 1
100
AcDbBlockReference
  2
Block_7
 10
0.0
 20
0.0
 30
0.0
  0
ENDBLK
  5
148
330
145
100
AcDbEntity
  8
0
100
AcDbBlockEnd
  0
BLOCK
  5
14B
330
149
100
AcDbEntity
  8
0
100
AcDbBlockBegin
  2
Block_7
 70
     0
 10
0.0
 20
0.0
 30
0.0
  3
Block_7
  1

  0
SPLINE
  5
14D
330
149
100
AcDbEntity
  8
レイヤー 1
100
AcDbSpline
210
0.0
220
0.0
230
1.0
 70
     9
 71
     3
 72
    44
 73
    40
 74
     0
 42
0.0000000001
 43
0.0000000001
 40
0.0
 40
0.0
 40
0.0
 40
0.0
 40
1.0
 40
1.0
 40
1.0
 40
2.0
 40
2.0
 40
2.0
 40
3.0
 40
3.0
 40
3.0
 40
4.0
 40
4.0
 40
4.0
 40
5.0
 40
5.0
 40
5.0
 40
6.0
 40
6.0
 40
6.0
 40
7.0
 40
7.0
 40
7.0
 40
8.0
 40
8.0
 40
8.0
 40
9.0
 40
9.0
 40
9.0
 40
10.0
 40
10.0
 40
10.0
 40
11.0
 40
11.0
 40
11.0
 40
12.0
 40
12.0
 40
12.0
 40
13.0
 40
13.0
 40
13.0
 40
13.0
 10
106.8296549212092
 20
-141.1002590250548
 30
0.0
 10
106.6119248865414
 20
-141.2589056721505
 30
0.0
 10
106.5189073084397
 20
-141.3329752250834
 30
0.0
 10
106.4699869525492
 20
-141.4768079615926
 30
0.0
 10
106.4699869525492
 20
-141.4768079615926
 30
0.0
 10
107.2485785322156
 20
-141.4768079615926
 30
0.0
 10
107.2485785322156
 20
-141.4768079615926
 30
0.0
 10
107.2485785322156
 20
-141.4768079615926
 30
0.0
 10
107.2485785322156
 20
-141.6819633977392
 30
0.0
 10
107.2485785322156
 20
-141.6819633977392
 30
0.0
 10
107.2485785322156
 20
-141.6819633977392
 30
0.0
 10
106.2205620394171
 20
-141.6819633977392
 30
0.0
 10
106.2205620394171
 20
-141.6819633977392
 30
0.0
 10
106.2522569178814
 20
-141.3243624863703
 30
0.0
 10
106.3177137321011
 20
-141.2461588188551
 30
0.0
 10
106.702875407352
 20
-140.9478135498325
 30
0.0
 10
106.9588460019061
 20
-140.7490315403336
 30
0.0
 10
107.0243028161258
 20
-140.6813354140484
 30
0.0
 10
107.0243028161258
 20
-140.5438761041869
 30
0.0
 10
107.0243028161258
 20
-140.4253648194943
 30
0.0
 10
106.9523003204841
 20
-140.2941066815063
 30
0.0
 10
106.7555853682764
 20
-140.2941066815063
 30
0.0
 10
106.49548065914
 20
-140.2941066815063
 30
0.0
 10
106.4872124299754
 20
-140.5247558242438
 30
0.0
 10
106.4827338058446
 20
-140.6412000516452
 30
0.0
 10
106.4827338058446
 20
-140.6412000516452
 30
0.0
 10
106.2584580897548
 20
-140.6412000516452
 30
0.0
 10
106.2584580897548
 20
-140.6412000516452
 30
0.0
 10
106.2670708284679
 20
-140.5142482830138
 30
0.0
 10
106.2777506244722
 20
-140.4021104249689
 30
0.0
 10
106.3580213492785
 20
-140.2835991402763
 30
0.0
 10
106.467919895258
 20
-140.1228854358894
 30
0.0
 10
106.65429956101
 20
-140.0889512453597
 30
0.0
 10
106.7703992788629
 20
-140.0889512453597
 30
0.0
 10
107.0477294654256
 20
-140.0889512453597
 30
0.0
 10
107.2551242136376
 20
-140.2730915990463
 30
0.0
 10
107.2551242136376
 20
-140.5459431614781
 30
0.0
 10
107.2551242136376
 20
-140.7743529921502
 30
0.0
 10
107.1386799862361
 20
-140.8739162516738
 30
0.0
 10
106.8296549212092
 20
-141.1002590250548
 30
0.0
  0
HATCH
  5
14E
330
149
100
AcDbEntity
  8
レイヤー 1
 62
   250
420
  2299925
440
 33554687
100
AcDbHatch
 10
0.0
 20
0.0
 30
0.0
210
0.0
220
0.0
230
1.0
  2
SOLID
 70
     1
 71
     1
 91
        1
 92
        1
 93
        1
 72
     4
 94
        3
 73
     0
 74
     0
 95
       44
 96
       40
 40
0.0
 40
0.0
 40
0.0
 40
0.0
 40
1.0
 40
1.0
 40
1.0
 40
2.0
 40
2.0
 40
2.0
 40
3.0
 40
3.0
 40
3.0
 40
4.0
 40
4.0
 40
4.0
 40
5.0
 40
5.0
 40
5.0
 40
6.0
 40
6.0
 40
6.0
 40
7.0
 40
7.0
 40
7.0
 40
8.0
 40
8.0
 40
8.0
 40
9.0
 40
9.0
 40
9.0
 40
10.0
 40
10.0
 40
10.0
 40
11.0
 40
11.0
 40
11.0
 40
12.0
 40
12.0
 40
12.0
 40
13.0
 40
13.0
 40
13.0
 40
13.0
 10
106.8296549212092
 20
-141.1002590250548
 10
106.6119248865414
 20
-141.2589056721505
 10
106.5189073084397
 20
-141.3329752250834
 10
106.4699869525492
 20
-141.4768079615926
 10
106.4699869525492
 20
-141.4768079615926
 10
107.2485785322156
 20
-141.4768079615926
 10
107.2485785322156
 20
-141.4768079615926
 10
107.2485785322156
 20
-141.4768079615926
 10
107.2485785322156
 20
-141.6819633977392
 10
107.2485785322156
 20
-141.6819633977392
 10
107.2485785322156
 20
-141.6819633977392
 10
106.2205620394171
 20
-141.6819633977392
 10
106.2205620394171
 20
-141.6819633977392
 10
106.2522569178814
 20
-141.3243624863703
 10
106.3177137321011
 20
-141.2461588188551
 10
106.702875407352
 20
-140.9478135498325
 10
106.9588460019061
 20
-140.7490315403336
 10
107.0243028161258
 20
-140.6813354140484
 10
107.0243028161258
 20
-140.5438761041869
 10
107.0243028161258
 20
-140.4253648194943
 10
106.9523003204841
 20
-140.2941066815063
 10
106.7555853682764
 20
-140.2941066815063
 10
106.49548065914
 20
-140.2941066815063
 10
106.4872124299754
 20
-140.5247558242438
 10
106.4827338058446
 20
-140.6412000516452
 10
106.4827338058446
 20
-140.6412000516452
 10
106.2584580897548
 20
-140.6412000516452
 10
106.2584580897548
 20
-140.6412000516452
 10
106.2670708284679
 20
-140.5142482830138
 10
106.2777506244722
 20
-140.4021104249689
 10
106.3580213492785
 20
-140.2835991402763
 10
106.467919895258
 20
-140.1228854358894
 10
106.65429956101
 20
-140.0889512453597
 10
106.7703992788629
 20
-140.0889512453597
 10
107.0477294654256
 20
-140.0889512453597
 10
107.2551242136376
 20
-140.2730915990463
 10
107.2551242136376
 20
-140.5459431614781
 10
107.2551242136376
 20
-140.7743529921502
 10
107.1386799862361
 20
-140.8739162516738
 10
106.8296549212092
 20
-141.1002590250548
 97
        0
 97
        1
330
14D
 75
     2
 76
     1
 98
        1
 10
0.0
 20
0.0
450
        0
451
        0
460
0.0
461
0.0
452
        0
462
0.0
453
        0
470

  0
SPLINE
  5
14F
330
149
100
AcDbEntity
  8
レイヤー 1
100
AcDbSpline
210
0.0
220
0.0
230
1.0
 70
    11
 71
     3
 72
    26
 73
    22
 74
     0
 42
0.0000000001
 43
0.0000000001
 40
0.0
 40
0.0
 40
0.0
 40
0.0
 40
1.0
 40
1.0
 40
1.0
 40
2.0
 40
2.0
 40
2.0
 40
3.0
 40
3.0
 40
3.0
 40
4.0
 40
4.0
 40
4.0
 40
5.0
 40
5.0
 40
5.0
 40
6.0
 40
6.0
 40
6.0
 40
7.0
 40
7.0
 40
7.0
 40
7.0
 10
107.8649061145268
 20
-141.6819633977392
 30
0.0
 10
107.8649061145268
 20
-141.6819633977392
 30
0.0
 10
107.8649061145268
 20
-140.5776380399424
 30
0.0
 10
107.8649061145268
 20
-140.5776380399424
 30
0.0
 10
107.8649061145268
 20
-140.5776380399424
 30
0.0
 10
107.5348659670399
 20
-140.5776380399424
 30
0.0
 10
107.5348659670399
 20
-140.5776380399424
 30
0.0
 10
107.5348659670399
 20
-140.5776380399424
 30
0.0
 10
107.5348659670399
 20
-140.4294989340766
 30
0.0
 10
107.5348659670399
 20
-140.4294989340766
 30
0.0
 10
107.866973171818
 20
-140.4148572782643
 30
0.0
 10
107.9134819608688
 20
-140.251904261812
 30
0.0
 10
107.943109782042
 20
-140.137699346476
 30
0.0
 10
107.943109782042
 20
-140.137699346476
 30
0.0
 10
108.0891818306166
 20
-140.137699346476
 30
0.0
 10
108.0891818306166
 20
-140.137699346476
 30
0.0
 10
108.0891818306166
 20
-140.137699346476
 30
0.0
 10
108.0891818306166
 20
-141.6819633977392
 30
0.0
 10
108.0891818306166
 20
-141.6819633977392
 30
0.0
 10
108.0891818306166
 20
-141.6819633977392
 30
0.0
 10
107.8649061145268
 20
-141.6819633977392
 30
0.0
 10
107.8649061145268
 20
-141.6819633977392
 30
0.0
  0
HATCH
  5
150
330
149
100
AcDbEntity
  8
レイヤー 1
 62
   250
420
  2299925
440
 33554687
100
AcDbHatch
 10
0.0
 20
0.0
 30
0.0
210
0.0
220
0.0
230
1.0
  2
SOLID
 70
     1
 71
     1
 91
        1
 92
        1
 93
        1
 72
     4
 94
        3
 73
     0
 74
     0
 95
       26
 96
       22
 40
0.0
 40
0.0
 40
0.0
 40
0.0
 40
1.0
 40
1.0
 40
1.0
 40
2.0
 40
2.0
 40
2.0
 40
3.0
 40
3.0
 40
3.0
 40
4.0
 40
4.0
 40
4.0
 40
5.0
 40
5.0
 40
5.0
 40
6.0
 40
6.0
 40
6.0
 40
7.0
 40
7.0
 40
7.0
 40
7.0
 10
107.8649061145268
 20
-141.6819633977392
 10
107.8649061145268
 20
-141.6819633977392
 10
107.8649061145268
 20
-140.5776380399424
 10
107.8649061145268
 20
-140.5776380399424
 10
107.8649061145268
 20
-140.5776380399424
 10
107.5348659670399
 20
-140.5776380399424
 10
107.5348659670399
 20
-140.5776380399424
 10
107.5348659670399
 20
-140.5776380399424
 10
107.5348659670399
 20
-140.4294989340766
 10
107.5348659670399
 20
-140.4294989340766
 10
107.866973171818
 20
-140.4148572782643
 10
107.9134819608688
 20
-140.251904261812
 10
107.943109782042
 20
-140.137699346476
 10
107.943109782042
 20
-140.137699346476
 10
108.0891818306166
 20
-140.137699346476
 10
108.0891818306166
 20
-140.137699346476
 10
108.0891818306166
 20
-140.137699346476
 10
108.0891818306166
 20
-141.6819633977392
 10
108.0891818306166
 20
-141.6819633977392
 10
108.0891818306166
 20
-141.6819633977392
 10
107.8649061145268
 20
-141.6819633977392
 10
107.8649061145268
 20
-141.6819633977392
 97
        0
 97
        1
330
14F
 75
     2
 76
     1
 98
        1
 10
0.0
 20
0.0
450
        0
451
        0
460
0.0
461
0.0
452
        0
462
0.0
453
        0
470

  0
ENDBLK
  5
14C
330
149
100
AcDbEntity
  8
0
100
AcDbBlockEnd
  0
BLOCK
  5
156
330
154
100
AcDbEntity
  8
0
100
AcDbBlockBegin
  2
Block_8
 70
     0
 10
0.0
 20
0.0
 30
0.0
  3
Block_8
  1

  0
INSERT
  5
159
330
154
100
AcDbEntity
  8
レイヤー 1
100
AcDbBlockReference
  2
Block_9
 10
0.0
 20
0.0
 30
0.0
  0
ENDBLK
  5
157
330
154
100
AcDbEntity
  8
0
100
AcDbBlockEnd
  0
BLOCK
  5
15A
330
158
100
AcDbEntity
  8
0
100
AcDbBlockBegin
  2
Block_9
 70
     0
 10
0.0
 20
0.0
 30
0.0
  3
Block_9
  1

  0
SPLINE
  5
15C
330
158
100
AcDbEntity
  8
レイヤー 1
100
AcDbSpline
210
0.0
220
0.0
230
1.0
 70
    11
 71
     3
 72
    26
 73
    22
 74
     0
 42
0.0000000001
 43
0.0000000001
 40
0.0
 40
0.0
 40
0.0
 40
0.0
 40
1.0
 40
1.0
 40
1.0
 40
2.0
 40
2.0
 40
2.0
 40
3.0
 40
3.0
 40
3.0
 40
4.0
 40
4.0
 40
4.0
 40
5.0
 40
5.0
 40
5.0
 40
6.0
 40
6.0
 40
6.0
 40
7.0
 40
7.0
 40
7.0
 40
7.0
 10
91.18737112520664
 20
-141.6819633977392
 30
0.0
 10
91.18737112520664
 20
-141.6819633977392
 30
0.0
 10
91.18737112520664
 20
-140.5776380399424
 30
0.0
 10
91.18737112520664
 20
-140.5776380399424
 30
0.0
 10
91.18737112520664
 20
-140.5776380399424
 30
0.0
 10
90.85733097771969
 20
-140.5776380399424
 30
0.0
 10
90.85733097771969
 20
-140.5776380399424
 30
0.0
 10
90.85733097771969
 20
-140.5776380399424
 30
0.0
 10
90.85733097771969
 20
-140.4294989340766
 30
0.0
 10
90.85733097771969
 20
-140.4294989340766
 30
0.0
 10
91.18943818249778
 20
-140.4148572782643
 30
0.0
 10
91.23594697154866
 20
-140.251904261812
 30
0.0
 10
91.26557479272181
 20
-140.137699346476
 30
0.0
 10
91.26557479272181
 20
-140.137699346476
 30
0.0
 10
91.41164684129639
 20
-140.137699346476
 30
0.0
 10
91.41164684129639
 20
-140.137699346476
 30
0.0
 10
91.41164684129639
 20
-140.137699346476
 30
0.0
 10
91.41164684129639
 20
-141.6819633977392
 30
0.0
 10
91.41164684129639
 20
-141.6819633977392
 30
0.0
 10
91.41164684129639
 20
-141.6819633977392
 30
0.0
 10
91.18737112520664
 20
-141.6819633977392
 30
0.0
 10
91.18737112520664
 20
-141.6819633977392
 30
0.0
  0
HATCH
  5
15D
330
158
100
AcDbEntity
  8
レイヤー 1
 62
   250
420
  2299925
440
 33554687
100
AcDbHatch
 10
0.0
 20
0.0
 30
0.0
210
0.0
220
0.0
230
1.0
  2
SOLID
 70
     1
 71
     1
 91
        1
 92
        1
 93
        1
 72
     4
 94
        3
 73
     0
 74
     0
 95
       26
 96
       22
 40
0.0
 40
0.0
 40
0.0
 40
0.0
 40
1.0
 40
1.0
 40
1.0
 40
2.0
 40
2.0
 40
2.0
 40
3.0
 40
3.0
 40
3.0
 40
4.0
 40
4.0
 40
4.0
 40
5.0
 40
5.0
 40
5.0
 40
6.0
 40
6.0
 40
6.0
 40
7.0
 40
7.0
 40
7.0
 40
7.0
 10
91.18737112520664
 20
-141.6819633977392
 10
91.18737112520664
 20
-141.6819633977392
 10
91.18737112520664
 20
-140.5776380399424
 10
91.18737112520664
 20
-140.5776380399424
 10
91.18737112520664
 20
-140.5776380399424
 10
90.85733097771969
 20
-140.5776380399424
 10
90.85733097771969
 20
-140.5776380399424
 10
90.85733097771969
 20
-140.5776380399424
 10
90.85733097771969
 20
-140.4294989340766
 10
90.85733097771969
 20
-140.4294989340766
 10
91.18943818249778
 20
-140.4148572782643
 10
91.23594697154866
 20
-140.251904261812
 10
91.26557479272181
 20
-140.137699346476
 10
91.26557479272181
 20
-140.137699346476
 10
91.41164684129639
 20
-140.137699346476
 10
91.41164684129639
 20
-140.137699346476
 10
91.41164684129639
 20
-140.137699346476
 10
91.41164684129639
 20
-141.6819633977392
 10
91.41164684129639
 20
-141.6819633977392
 10
91.41164684129639
 20
-141.6819633977392
 10
91.18737112520664
 20
-141.6819633977392
 10
91.18737112520664
 20
-141.6819633977392
 97
        0
 97
        1
330
15C
 75
     2
 76
     1
 98
        1
 10
0.0
 20
0.0
450
        0
451
        0
460
0.0
461
0.0
452
        0
462
0.0
453
        0
470

  0
SPLINE
  5
15E
330
158
100
AcDbEntity
  8
レイヤー 1
100
AcDbSpline
210
0.0
220
0.0
230
1.0
 70
     9
 71
     3
 72
    17
 73
    13
 74
     0
 42
0.0000000001
 43
0.0000000001
 40
0.0
 40
0.0
 40
0.0
 40
0.0
 40
1.0
 40
1.0
 40
1.0
 40
2.0
 40
2.0
 40
2.0
 40
3.0
 40
3.0
 40
3.0
 40
4.0
 40
4.0
 40
4.0
 40
4.0
 10
92.41279158931
 20
-140.2815320829851
 30
0.0
 10
92.16302216662938
 20
-140.2815320829851
 30
0.0
 10
92.11651337757851
 20
-140.5648911866469
 30
0.0
 10
92.11651337757851
 20
-140.9097452447205
 30
0.0
 10
92.11651337757851
 20
-141.2292778509774
 30
0.0
 10
92.15268688017363
 20
-141.53813066123
 30
0.0
 10
92.41279158931
 20
-141.53813066123
 30
0.0
 10
92.66049395469947
 20
-141.53813066123
 30
0.0
 10
92.70906980104149
 20
-141.2566663600851
 30
0.0
 10
92.70906980104149
 20
-140.9097452447205
 30
0.0
 10
92.70906980104149
 20
-140.5903848932378
 30
0.0
 10
92.67082924115522
 20
-140.2815320829851
 30
0.0
 10
92.41279158931
 20
-140.2815320829851
 30
0.0
  0
SPLINE
  5
15F
330
158
100
AcDbEntity
  8
レイヤー 1
100
AcDbSpline
210
0.0
220
0.0
230
1.0
 70
     9
 71
     3
 72
    29
 73
    25
 74
     0
 42
0.0000000001
 43
0.0000000001
 40
0.0
 40
0.0
 40
0.0
 40
0.0
 40
1.0
 40
1.0
 40
1.0
 40
2.0
 40
2.0
 40
2.0
 40
3.0
 40
3.0
 40
3.0
 40
4.0
 40
4.0
 40
4.0
 40
5.0
 40
5.0
 40
5.0
 40
6.0
 40
6.0
 40
6.0
 40
7.0
 40
7.0
 40
7.0
 40
8.0
 40
8.0
 40
8.0
 40
8.0
 10
92.81070011785635
 20
-141.5041964707003
 30
0.0
 10
92.70252411961951
 20
-141.7136582762035
 30
0.0
 10
92.52923581671145
 20
-141.7327785561466
 30
0.0
 10
92.41279158931
 20
-141.7327785561466
 30
0.0
 10
92.25190563014882
 20
-141.7327785561466
 30
0.0
 10
92.11031220570507
 20
-141.6862697670958
 30
0.0
 10
92.01522757031217
 20
-141.5041964707003
 30
0.0
 10
91.91153019620614
 20
-141.309720830558
 30
0.0
 10
91.89223766148876
 20
-141.0726982611728
 30
0.0
 10
91.89223766148876
 20
-140.9097452447205
 30
0.0
 10
91.89223766148876
 20
-140.7659125082113
 30
0.0
 10
91.90946313891499
 20
-140.5142482830138
 30
0.0
 10
92.01522757031217
 20
-140.3152940187406
 30
0.0
 10
92.1230590590005
 20
-140.1122056398851
 30
0.0
 10
92.28394501816167
 20
-140.0889512453597
 30
0.0
 10
92.41279158931
 20
-140.0889512453597
 30
0.0
 10
92.57161049118002
 20
-140.0889512453597
 30
0.0
 10
92.71527097291494
 20
-140.1333929771194
 30
0.0
 10
92.81070011785635
 20
-140.3152940187406
 30
0.0
 10
92.90991886783155
 20
-140.5078748563661
 30
0.0
 10
92.93334551713126
 20
-140.7362846870381
 30
0.0
 10
92.93334551713126
 20
-140.9097452447205
 30
0.0
 10
92.93334551713126
 20
-141.0811387451117
 30
0.0
 10
92.91198592512271
 20
-141.3117878878491
 30
0.0
 10
92.81070011785635
 20
-141.5041964707003
 30
0.0
  0
HATCH
  5
160
330
158
100
AcDbEntity
  8
レイヤー 1
 62
   250
420
  2299925
440
 33554687
100
AcDbHatch
 10
0.0
 20
0.0
 30
0.0
210
0.0
220
0.0
230
1.0
  2
SOLID
 70
     1
 71
     1
 91
        2
 92
        1
 93
        1
 72
     4
 94
        3
 73
     0
 74
     0
 95
       17
 96
       13
 40
0.0
 40
0.0
 40
0.0
 40
0.0
 40
1.0
 40
1.0
 40
1.0
 40
2.0
 40
2.0
 40
2.0
 40
3.0
 40
3.0
 40
3.0
 40
4.0
 40
4.0
 40
4.0
 40
4.0
 10
92.41279158931
 20
-140.2815320829851
 10
92.16302216662938
 20
-140.2815320829851
 10
92.11651337757851
 20
-140.5648911866469
 10
92.11651337757851
 20
-140.9097452447205
 10
92.11651337757851
 20
-141.2292778509774
 10
92.15268688017363
 20
-141.53813066123
 10
92.41279158931
 20
-141.53813066123
 10
92.66049395469947
 20
-141.53813066123
 10
92.70906980104149
 20
-141.2566663600851
 10
92.70906980104149
 20
-140.9097452447205
 10
92.70906980104149
 20
-140.5903848932378
 10
92.67082924115522
 20
-140.2815320829851
 10
92.41279158931
 20
-140.2815320829851
 97
        0
 97
        1
330
15E
 92
        1
 93
        1
 72
     4
 94
        3
 73
     0
 74
     0
 95
       29
 96
       25
 40
0.0
 40
0.0
 40
0.0
 40
0.0
 40
1.0
 40
1.0
 40
1.0
 40
2.0
 40
2.0
 40
2.0
 40
3.0
 40
3.0
 40
3.0
 40
4.0
 40
4.0
 40
4.0
 40
5.0
 40
5.0
 40
5.0
 40
6.0
 40
6.0
 40
6.0
 40
7.0
 40
7.0
 40
7.0
 40
8.0
 40
8.0
 40
8.0
 40
8.0
 10
92.81070011785635
 20
-141.5041964707003
 10
92.70252411961951
 20
-141.7136582762035
 10
92.52923581671145
 20
-141.7327785561466
 10
92.41279158931
 20
-141.7327785561466
 10
92.25190563014882
 20
-141.7327785561466
 10
92.11031220570507
 20
-141.6862697670958
 10
92.01522757031217
 20
-141.5041964707003
 10
91.91153019620614
 20
-141.309720830558
 10
91.89223766148876
 20
-141.0726982611728
 10
91.89223766148876
 20
-140.9097452447205
 10
91.89223766148876
 20
-140.7659125082113
 10
91.90946313891499
 20
-140.5142482830138
 10
92.01522757031217
 20
-140.3152940187406
 10
92.1230590590005
 20
-140.1122056398851
 10
92.28394501816167
 20
-140.0889512453597
 10
92.41279158931
 20
-140.0889512453597
 10
92.57161049118002
 20
-140.0889512453597
 10
92.71527097291494
 20
-140.1333929771194
 10
92.81070011785635
 20
-140.3152940187406
 10
92.90991886783155
 20
-140.5078748563661
 10
92.93334551713126
 20
-140.7362846870381
 10
92.93334551713126
 20
-140.9097452447205
 10
92.93334551713126
 20
-141.0811387451117
 10
92.91198592512271
 20
-141.3117878878491
 10
92.81070011785635
 20
-141.5041964707003
 97
        0
 97
        1
330
15F
 75
     2
 76
     1
 98
        1
 10
0.0
 20
0.0
450
        0
451
        0
460
0.0
461
0.0
452
        0
462
0.0
453
        0
470

  0
ENDBLK
  5
15B
330
158
100
AcDbEntity
  8
0
100
AcDbBlockEnd
  0
BLOCK
  5
168
330
166
100
AcDbEntity
  8
0
100
AcDbBlockBegin
  2
Block_10
 70
     0
 10
0.0
 20
0.0
 30
0.0
  3
Block_10
  1

  0
INSERT
  5
16B
330
166
100
AcDbEntity
  8
レイヤー 1
100
AcDbBlockReference
  2
Block_11
 10
0.0
 20
0.0
 30
0.0
  0
ENDBLK
  5
169
330
166
100
AcDbEntity
  8
0
100
AcDbBlockEnd
  0
BLOCK
  5
16C
330
16A
100
AcDbEntity
  8
0
100
AcDbBlockBegin
  2
Block_11
 70
     0
 10
0.0
 20
0.0
 30
0.0
  3
Block_11
  1

  0
SPLINE
  5
16E
330
16A
100
AcDbEntity
  8
レイヤー 1
100
AcDbSpline
210
0.0
220
0.0
230
1.0
 70
    11
 71
     3
 72
    26
 73
    22
 74
     0
 42
0.0000000001
 43
0.0000000001
 40
0.0
 40
0.0
 40
0.0
 40
0.0
 40
1.0
 40
1.0
 40
1.0
 40
2.0
 40
2.0
 40
2.0
 40
3.0
 40
3.0
 40
3.0
 40
4.0
 40
4.0
 40
4.0
 40
5.0
 40
5.0
 40
5.0
 40
6.0
 40
6.0
 40
6.0
 40
7.0
 40
7.0
 40
7.0
 40
7.0
 10
91.5043199098496
 20
-156.0573133290412
 30
0.0
 10
91.5043199098496
 20
-156.0573133290412
 30
0.0
 10
91.5043199098496
 20
-154.9531602260186
 30
0.0
 10
91.5043199098496
 20
-154.9531602260186
 30
0.0
 10
91.5043199098496
 20
-154.9531602260186
 30
0.0
 10
91.17427976236269
 20
-154.9531602260186
 30
0.0
 10
91.17427976236269
 20
-154.9531602260186
 30
0.0
 10
91.17427976236269
 20
-154.9531602260186
 30
0.0
 10
91.17427976236269
 20
-154.8050211201529
 30
0.0
 10
91.17427976236269
 20
-154.8050211201529
 30
0.0
 10
91.50638696714077
 20
-154.7902072095663
 30
0.0
 10
91.55289575619164
 20
-154.627254193114
 30
0.0
 10
91.58252357736479
 20
-154.5128770230037
 30
0.0
 10
91.58252357736479
 20
-154.5128770230037
 30
0.0
 10
91.72859562593938
 20
-154.5128770230037
 30
0.0
 10
91.72859562593938
 20
-154.5128770230037
 30
0.0
 10
91.72859562593938
 20
-154.5128770230037
 30
0.0
 10
91.72859562593938
 20
-156.0573133290412
 30
0.0
 10
91.72859562593938
 20
-156.0573133290412
 30
0.0
 10
91.72859562593938
 20
-156.0573133290412
 30
0.0
 10
91.5043199098496
 20
-156.0573133290412
 30
0.0
 10
91.5043199098496
 20
-156.0573133290412
 30
0.0
  0
HATCH
  5
16F
330
16A
100
AcDbEntity
  8
レイヤー 1
 62
   250
420
  2299925
440
 33554687
100
AcDbHatch
 10
0.0
 20
0.0
 30
0.0
210
0.0
220
0.0
230
1.0
  2
SOLID
 70
     1
 71
     1
 91
        1
 92
        1
 93
        1
 72
     4
 94
        3
 73
     0
 74
     0
 95
       26
 96
       22
 40
0.0
 40
0.0
 40
0.0
 40
0.0
 40
1.0
 40
1.0
 40
1.0
 40
2.0
 40
2.0
 40
2.0
 40
3.0
 40
3.0
 40
3.0
 40
4.0
 40
4.0
 40
4.0
 40
5.0
 40
5.0
 40
5.0
 40
6.0
 40
6.0
 40
6.0
 40
7.0
 40
7.0
 40
7.0
 40
7.0
 10
91.5043199098496
 20
-156.0573133290412
 10
91.5043199098496
 20
-156.0573133290412
 10
91.5043199098496
 20
-154.9531602260186
 10
91.5043199098496
 20
-154.9531602260186
 10
91.5043199098496
 20
-154.9531602260186
 10
91.17427976236269
 20
-154.9531602260186
 10
91.17427976236269
 20
-154.9531602260186
 10
91.17427976236269
 20
-154.9531602260186
 10
91.17427976236269
 20
-154.8050211201529
 10
91.17427976236269
 20
-154.8050211201529
 10
91.50638696714077
 20
-154.7902072095663
 10
91.55289575619164
 20
-154.627254193114
 10
91.58252357736479
 20
-154.5128770230037
 10
91.58252357736479
 20
-154.5128770230037
 10
91.72859562593938
 20
-154.5128770230037
 10
91.72859562593938
 20
-154.5128770230037
 10
91.72859562593938
 20
-154.5128770230037
 10
91.72859562593938
 20
-156.0573133290412
 10
91.72859562593938
 20
-156.0573133290412
 10
91.72859562593938
 20
-156.0573133290412
 10
91.5043199098496
 20
-156.0573133290412
 10
91.5043199098496
 20
-156.0573133290412
 97
        0
 97
        1
330
16E
 75
     2
 76
     1
 98
        1
 10
0.0
 20
0.0
450
        0
451
        0
460
0.0
461
0.0
452
        0
462
0.0
453
        0
470

  0
SPLINE
  5
170
330
16A
100
AcDbEntity
  8
レイヤー 1
100
AcDbSpline
210
0.0
220
0.0
230
1.0
 70
     9
 71
     3
 72
    44
 73
    40
 74
     0
 42
0.0000000001
 43
0.0000000001
 40
0.0
 40
0.0
 40
0.0
 40
0.0
 40
1.0
 40
1.0
 40
1.0
 40
2.0
 40
2.0
 40
2.0
 40
3.0
 40
3.0
 40
3.0
 40
4.0
 40
4.0
 40
4.0
 40
5.0
 40
5.0
 40
5.0
 40
6.0
 40
6.0
 40
6.0
 40
7.0
 40
7.0
 40
7.0
 40
8.0
 40
8.0
 40
8.0
 40
9.0
 40
9.0
 40
9.0
 40
10.0
 40
10.0
 40
10.0
 40
11.0
 40
11.0
 40
11.0
 40
12.0
 40
12.0
 40
12.0
 40
13.0
 40
13.0
 40
13.0
 40
13.0
 10
92.82275795205473
 20
-155.4754367015825
 30
0.0
 10
92.60502791738694
 20
-155.6342556034525
 30
0.0
 10
92.5120103392852
 20
-155.7083251563854
 30
0.0
 10
92.46308998339465
 20
-155.8519856381203
 30
0.0
 10
92.46308998339465
 20
-155.8519856381203
 30
0.0
 10
93.24168156306111
 20
-155.8519856381203
 30
0.0
 10
93.24168156306111
 20
-155.8519856381203
 30
0.0
 10
93.24168156306111
 20
-155.8519856381203
 30
0.0
 10
93.24168156306111
 20
-156.0573133290412
 30
0.0
 10
93.24168156306111
 20
-156.0573133290412
 30
0.0
 10
93.24168156306111
 20
-156.0573133290412
 30
0.0
 10
92.21366507026257
 20
-156.0573133290412
 30
0.0
 10
92.21366507026257
 20
-156.0573133290412
 30
0.0
 10
92.24535994872686
 20
-155.6997124176723
 30
0.0
 10
92.3108167629466
 20
-155.6215087501571
 30
0.0
 10
92.69597843819754
 20
-155.3231634811345
 30
0.0
 10
92.95194903275159
 20
-155.1243814716356
 30
0.0
 10
93.01740584697133
 20
-155.0565130905761
 30
0.0
 10
93.01740584697133
 20
-154.9190537807147
 30
0.0
 10
93.01740584697133
 20
-154.8005424960221
 30
0.0
 10
92.94540335132962
 20
-154.6696288675826
 30
0.0
 10
92.74868839912185
 20
-154.6696288675826
 30
0.0
 10
92.48858368998551
 20
-154.6696288675826
 30
0.0
 10
92.47997095127237
 20
-154.9001057555458
 30
0.0
 10
92.47583683669008
 20
-155.0165499829472
 30
0.0
 10
92.47583683669008
 20
-155.0165499829472
 30
0.0
 10
92.25156112060032
 20
-155.0165499829472
 30
0.0
 10
92.25156112060032
 20
-155.0165499829472
 30
0.0
 10
92.26017385931344
 20
-154.8894259595415
 30
0.0
 10
92.2708536553177
 20
-154.7774603562709
 30
0.0
 10
92.35112438012404
 20
-154.6589490715783
 30
0.0
 10
92.4610229261035
 20
-154.4980631124171
 30
0.0
 10
92.6474025918555
 20
-154.4643011766617
 30
0.0
 10
92.76350230970843
 20
-154.4643011766617
 30
0.0
 10
93.04083249627105
 20
-154.4643011766617
 30
0.0
 10
93.24822724448308
 20
-154.648269275574
 30
0.0
 10
93.24822724448308
 20
-154.9211208380058
 30
0.0
 10
93.24822724448308
 20
-155.1498751782264
 30
0.0
 10
93.13178301708164
 20
-155.2490939282016
 30
0.0
 10
92.82275795205473
 20
-155.4754367015825
 30
0.0
  0
HATCH
  5
171
330
16A
100
AcDbEntity
  8
レイヤー 1
 62
   250
420
  2299925
440
 33554687
100
AcDbHatch
 10
0.0
 20
0.0
 30
0.0
210
0.0
220
0.0
230
1.0
  2
SOLID
 70
     1
 71
     1
 91
        1
 92
        1
 93
        1
 72
     4
 94
        3
 73
     0
 74
     0
 95
       44
 96
       40
 40
0.0
 40
0.0
 40
0.0
 40
0.0
 40
1.0
 40
1.0
 40
1.0
 40
2.0
 40
2.0
 40
2.0
 40
3.0
 40
3.0
 40
3.0
 40
4.0
 40
4.0
 40
4.0
 40
5.0
 40
5.0
 40
5.0
 40
6.0
 40
6.0
 40
6.0
 40
7.0
 40
7.0
 40
7.0
 40
8.0
 40
8.0
 40
8.0
 40
9.0
 40
9.0
 40
9.0
 40
10.0
 40
10.0
 40
10.0
 40
11.0
 40
11.0
 40
11.0
 40
12.0
 40
12.0
 40
12.0
 40
13.0
 40
13.0
 40
13.0
 40
13.0
 10
92.82275795205473
 20
-155.4754367015825
 10
92.60502791738694
 20
-155.6342556034525
 10
92.5120103392852
 20
-155.7083251563854
 10
92.46308998339465
 20
-155.8519856381203
 10
92.46308998339465
 20
-155.8519856381203
 10
93.24168156306111
 20
-155.8519856381203
 10
93.24168156306111
 20
-155.8519856381203
 10
93.24168156306111
 20
-155.8519856381203
 10
93.24168156306111
 20
-156.0573133290412
 10
93.24168156306111
 20
-156.0573133290412
 10
93.24168156306111
 20
-156.0573133290412
 10
92.21366507026257
 20
-156.0573133290412
 10
92.21366507026257
 20
-156.0573133290412
 10
92.24535994872686
 20
-155.6997124176723
 10
92.3108167629466
 20
-155.6215087501571
 10
92.69597843819754
 20
-155.3231634811345
 10
92.95194903275159
 20
-155.1243814716356
 10
93.01740584697133
 20
-155.0565130905761
 10
93.01740584697133
 20
-154.9190537807147
 10
93.01740584697133
 20
-154.8005424960221
 10
92.94540335132962
 20
-154.6696288675826
 10
92.74868839912185
 20
-154.6696288675826
 10
92.48858368998551
 20
-154.6696288675826
 10
92.47997095127237
 20
-154.9001057555458
 10
92.47583683669008
 20
-155.0165499829472
 10
92.47583683669008
 20
-155.0165499829472
 10
92.25156112060032
 20
-155.0165499829472
 10
92.25156112060032
 20
-155.0165499829472
 10
92.26017385931344
 20
-154.8894259595415
 10
92.2708536553177
 20
-154.7774603562709
 10
92.35112438012404
 20
-154.6589490715783
 10
92.4610229261035
 20
-154.4980631124171
 10
92.6474025918555
 20
-154.4643011766617
 10
92.76350230970843
 20
-154.4643011766617
 10
93.04083249627105
 20
-154.4643011766617
 10
93.24822724448308
 20
-154.648269275574
 10
93.24822724448308
 20
-154.9211208380058
 10
93.24822724448308
 20
-155.1498751782264
 10
93.13178301708164
 20
-155.2490939282016
 10
92.82275795205473
 20
-155.4754367015825
 97
        0
 97
        1
330
170
 75
     2
 76
     1
 98
        1
 10
0.0
 20
0.0
450
        0
451
        0
460
0.0
461
0.0
452
        0
462
0.0
453
        0
470

  0
ENDBLK
  5
16D
330
16A
100
AcDbEntity
  8
0
100
AcDbBlockEnd
  0
BLOCK
  5
175
330
173
100
AcDbEntity
  8
0
100
AcDbBlockBegin
  2
Block_12
 70
     0
 10
0.0
 20
0.0
 30
0.0
  3
Block_12
  1

  0
SPLINE
  5
177
330
173
100
AcDbEntity
  8
レイヤー 1
100
AcDbSpline
210
0.0
220
0.0
230
1.0
 70
    11
 71
     3
 72
    26
 73
    22
 74
     0
 42
0.0000000001
 43
0.0000000001
 40
0.0
 40
0.0
 40
0.0
 40
0.0
 40
1.0
 40
1.0
 40
1.0
 40
2.0
 40
2.0
 40
2.0
 40
3.0
 40
3.0
 40
3.0
 40
4.0
 40
4.0
 40
4.0
 40
5.0
 40
5.0
 40
5.0
 40
6.0
 40
6.0
 40
6.0
 40
7.0
 40
7.0
 40
7.0
 40
7.0
 10
99.83645559570062
 20
-149.9171196456804
 30
0.0
 10
99.83645559570062
 20
-149.9171196456804
 30
0.0
 10
99.83645559570062
 20
-148.8127942878836
 30
0.0
 10
99.83645559570062
 20
-148.8127942878836
 30
0.0
 10
99.83645559570062
 20
-148.8127942878836
 30
0.0
 10
99.50641544821367
 20
-148.8127942878836
 30
0.0
 10
99.50641544821367
 20
-148.8127942878836
 30
0.0
 10
99.50641544821367
 20
-148.8127942878836
 30
0.0
 10
99.50641544821367
 20
-148.6646551820179
 30
0.0
 10
99.50641544821367
 20
-148.6646551820179
 30
0.0
 10
99.83852265299177
 20
-148.6500135262055
 30
0.0
 10
99.88503144204264
 20
-148.4870605097532
 30
0.0
 10
99.91465926321579
 20
-148.3728555944172
 30
0.0
 10
99.91465926321579
 20
-148.3728555944172
 30
0.0
 10
100.0607313117904
 20
-148.3728555944172
 30
0.0
 10
100.0607313117904
 20
-148.3728555944172
 30
0.0
 10
100.0607313117904
 20
-148.3728555944172
 30
0.0
 10
100.0607313117904
 20
-149.9171196456804
 30
0.0
 10
100.0607313117904
 20
-149.9171196456804
 30
0.0
 10
100.0607313117904
 20
-149.9171196456804
 30
0.0
 10
99.83645559570062
 20
-149.9171196456804
 30
0.0
 10
99.83645559570062
 20
-149.9171196456804
 30
0.0
  0
HATCH
  5
178
330
173
100
AcDbEntity
  8
レイヤー 1
 62
   250
420
  2299925
440
 33554687
100
AcDbHatch
 10
0.0
 20
0.0
 30
0.0
210
0.0
220
0.0
230
1.0
  2
SOLID
 70
     1
 71
     1
 91
        1
 92
        1
 93
        1
 72
     4
 94
        3
 73
     0
 74
     0
 95
       26
 96
       22
 40
0.0
 40
0.0
 40
0.0
 40
0.0
 40
1.0
 40
1.0
 40
1.0
 40
2.0
 40
2.0
 40
2.0
 40
3.0
 40
3.0
 40
3.0
 40
4.0
 40
4.0
 40
4.0
 40
5.0
 40
5.0
 40
5.0
 40
6.0
 40
6.0
 40
6.0
 40
7.0
 40
7.0
 40
7.0
 40
7.0
 10
99.83645559570062
 20
-149.9171196456804
 10
99.83645559570062
 20
-149.9171196456804
 10
99.83645559570062
 20
-148.8127942878836
 10
99.83645559570062
 20
-148.8127942878836
 10
99.83645559570062
 20
-148.8127942878836
 10
99.50641544821367
 20
-148.8127942878836
 10
99.50641544821367
 20
-148.8127942878836
 10
99.50641544821367
 20
-148.8127942878836
 10
99.50641544821367
 20
-148.6646551820179
 10
99.50641544821367
 20
-148.6646551820179
 10
99.83852265299177
 20
-148.6500135262055
 10
99.88503144204264
 20
-148.4870605097532
 10
99.91465926321579
 20
-148.3728555944172
 10
99.91465926321579
 20
-148.3728555944172
 10
100.0607313117904
 20
-148.3728555944172
 10
100.0607313117904
 20
-148.3728555944172
 10
100.0607313117904
 20
-148.3728555944172
 10
100.0607313117904
 20
-149.9171196456804
 10
100.0607313117904
 20
-149.9171196456804
 10
100.0607313117904
 20
-149.9171196456804
 10
99.83645559570062
 20
-149.9171196456804
 10
99.83645559570062
 20
-149.9171196456804
 97
        0
 97
        1
330
177
 75
     2
 76
     1
 98
        1
 10
0.0
 20
0.0
450
        0
451
        0
460
0.0
461
0.0
452
        0
462
0.0
453
        0
470

  0
ENDBLK
  5
176
330
173
100
AcDbEntity
  8
0
100
AcDbBlockEnd
  0
BLOCK
  5
17B
330
179
100
AcDbEntity
  8
0
100
AcDbBlockBegin
  2
Block_13
 70
     0
 10
0.0
 20
0.0
 30
0.0
  3
Block_13
  1

  0
INSERT
  5
17E
330
179
100
AcDbEntity
  8
レイヤー 1
100
AcDbBlockReference
  2
Block_14
 10
0.0
 20
0.0
 30
0.0
  0
INSERT
  5
185
330
179
100
AcDbEntity
  8
レイヤー 1
100
AcDbBlockReference
  2
Block_15
 10
0.0
 20
0.0
 30
0.0
  0
ENDBLK
  5
17C
330
179
100
AcDbEntity
  8
0
100
AcDbBlockEnd
  0
BLOCK
  5
17F
330
17D
100
AcDbEntity
  8
0
100
AcDbBlockBegin
  2
Block_14
 70
     0
 10
0.0
 20
0.0
 30
0.0
  3
Block_14
  1

  0
LINE
  5
181
330
17D
100
AcDbEntity
  8
レイヤー 1
 62
    18
420
        0
370
     9
100
AcDbLine
 10
109.3928147278555
 20
-148.8505467456774
 30
0.0
 11
110.2041330404904
 21
-149.4352053566423
 31
0.0
  0
LINE
  5
182
330
17D
100
AcDbEntity
  8
レイヤー 1
 62
    18
420
        0
370
     9
100
AcDbLine
 10
109.3928147278555
 20
-148.8505467456774
 30
0.0
 11
111.9704560509833
 21
-152.0076609115552
 31
0.0
  0
LINE
  5
183
330
17D
100
AcDbEntity
  8
レイヤー 1
 62
    18
420
        0
370
     9
100
AcDbLine
 10
109.3928147278555
 20
-148.8505467456774
 30
0.0
 11
109.8031305507208
 21
-149.7626536898939
 31
0.0
  0
ENDBLK
  5
180
330
17D
100
AcDbEntity
  8
0
100
AcDbBlockEnd
  0
BLOCK
  5
186
330
184
100
AcDbEntity
  8
0
100
AcDbBlockBegin
  2
Block_15
 70
     0
 10
0.0
 20
0.0
 30
0.0
  3
Block_15
  1

  0
INSERT
  5
189
330
184
100
AcDbEntity
  8
レイヤー 1
100
AcDbBlockReference
  2
Block_16
 10
0.0
 20
0.0
 30
0.0
  0
ENDBLK
  5
187
330
184
100
AcDbEntity
  8
0
100
AcDbBlockEnd
  0
BLOCK
  5
18A
330
188
100
AcDbEntity
  8
0
100
AcDbBlockBegin
  2
Block_16
 70
     0
 10
0.0
 20
0.0
 30
0.0
  3
Block_16
  1

  0
SPLINE
  5
18C
330
188
100
AcDbEntity
  8
レイヤー 1
100
AcDbSpline
210
0.0
220
0.0
230
1.0
 70
     9
 71
     3
 72
    17
 73
    13
 74
     0
 42
0.0000000001
 43
0.0000000001
 40
0.0
 40
0.0
 40
0.0
 40
0.0
 40
1.0
 40
1.0
 40
1.0
 40
2.0
 40
2.0
 40
2.0
 40
3.0
 40
3.0
 40
3.0
 40
4.0
 40
4.0
 40
4.0
 40
4.0
 10
113.6368190905144
 20
-152.455121489664
 30
0.0
 10
113.6199381226367
 20
-152.4847493108371
 30
0.0
 10
113.5692952190035
 20
-152.5777668889389
 30
0.0
 10
113.5586154229992
 20
-152.5967149141077
 30
0.0
 10
113.7491292033335
 20
-152.655970556454
 30
0.0
 10
113.7701442857935
 20
-152.662516237876
 30
0.0
 10
113.8421467814353
 20
-152.6897324922095
 30
0.0
 10
113.8969237996507
 20
-152.6032605955297
 30
0.0
 10
113.9203504489505
 20
-152.5291910425968
 30
0.0
 10
113.935164359537
 20
-152.455121489664
 30
0.0
 10
113.935164359537
 20
-152.455121489664
 30
0.0
 10
113.6368190905144
 20
-152.455121489664
 30
0.0
 10
113.6368190905144
 20
-152.455121489664
 30
0.0
  0
SPLINE
  5
18D
330
188
100
AcDbEntity
  8
レイヤー 1
100
AcDbSpline
210
0.0
220
0.0
230
1.0
 70
    11
 71
     3
 72
    20
 73
    16
 74
     0
 42
0.0000000001
 43
0.0000000001
 40
0.0
 40
0.0
 40
0.0
 40
0.0
 40
1.0
 40
1.0
 40
1.0
 40
2.0
 40
2.0
 40
2.0
 40
3.0
 40
3.0
 40
3.0
 40
4.0
 40
4.0
 40
4.0
 40
5.0
 40
5.0
 40
5.0
 40
5.0
 10
113.5734293335858
 20
-151.6045274143558
 30
0.0
 10
113.5734293335858
 20
-151.6045274143558
 30
0.0
 10
113.5417344551215
 20
-151.6045274143558
 30
0.0
 10
113.5417344551215
 20
-151.6045274143558
 30
0.0
 10
113.5882432441724
 20
-151.7040906738795
 30
0.0
 10
113.6199381226367
 20
-151.7843613986858
 30
0.0
 10
113.6537000583921
 20
-151.9114854220916
 30
0.0
 10
113.6537000583921
 20
-151.9114854220916
 30
0.0
 10
113.8610948066042
 20
-151.9114854220916
 30
0.0
 10
113.8610948066042
 20
-151.9114854220916
 30
0.0
 10
113.8927896850685
 20
-151.8184678439898
 30
0.0
 10
113.9162163343681
 20
-151.7337184950527
 30
0.0
 10
113.9392984741193
 20
-151.6045274143558
 30
0.0
 10
113.9392984741193
 20
-151.6045274143558
 30
0.0
 10
113.5734293335858
 20
-151.6045274143558
 30
0.0
 10
113.5734293335858
 20
-151.6045274143558
 30
0.0
  0
SPLINE
  5
18E
330
188
100
AcDbEntity
  8
レイヤー 1
100
AcDbSpline
210
0.0
220
0.0
230
1.0
 70
     9
 71
     3
 72
   242
 73
   238
 74
     0
 42
0.0000000001
 43
0.0000000001
 40
0.0
 40
0.0
 40
0.0
 40
0.0
 40
1.0
 40
1.0
 40
1.0
 40
2.0
 40
2.0
 40
2.0
 40
3.0
 40
3.0
 40
3.0
 40
4.0
 40
4.0
 40
4.0
 40
5.0
 40
5.0
 40
5.0
 40
6.0
 40
6.0
 40
6.0
 40
7.0
 40
7.0
 40
7.0
 40
8.0
 40
8.0
 40
8.0
 40
9.0
 40
9.0
 40
9.0
 40
10.0
 40
10.0
 40
10.0
 40
11.0
 40
11.0
 40
11.0
 40
12.0
 40
12.0
 40
12.0
 40
13.0
 40
13.0
 40
13.0
 40
14.0
 40
14.0
 40
14.0
 40
15.0
 40
15.0
 40
15.0
 40
16.0
 40
16.0
 40
16.0
 40
17.0
 40
17.0
 40
17.0
 40
18.0
 40
18.0
 40
18.0
 40
19.0
 40
19.0
 40
19.0
 40
20.0
 40
20.0
 40
20.0
 40
21.0
 40
21.0
 40
21.0
 40
22.0
 40
22.0
 40
22.0
 40
23.0
 40
23.0
 40
23.0
 40
24.0
 40
24.0
 40
24.0
 40
25.0
 40
25.0
 40
25.0
 40
26.0
 40
26.0
 40
26.0
 40
27.0
 40
27.0
 40
27.0
 40
28.0
 40
28.0
 40
28.0
 40
29.0
 40
29.0
 40
29.0
 40
30.0
 40
30.0
 40
30.0
 40
31.0
 40
31.0
 40
31.0
 40
32.0
 40
32.0
 40
32.0
 40
33.0
 40
33.0
 40
33.0
 40
34.0
 40
34.0
 40
34.0
 40
35.0
 40
35.0
 40
35.0
 40
36.0
 40
36.0
 40
36.0
 40
37.0
 40
37.0
 40
37.0
 40
38.0
 40
38.0
 40
38.0
 40
39.0
 40
39.0
 40
39.0
 40
40.0
 40
40.0
 40
40.0
 40
41.0
 40
41.0
 40
41.0
 40
42.0
 40
42.0
 40
42.0
 40
43.0
 40
43.0
 40
43.0
 40
44.0
 40
44.0
 40
44.0
 40
45.0
 40
45.0
 40
45.0
 40
46.0
 40
46.0
 40
46.0
 40
47.0
 40
47.0
 40
47.0
 40
48.0
 40
48.0
 40
48.0
 40
49.0
 40
49.0
 40
49.0
 40
50.0
 40
50.0
 40
50.0
 40
51.0
 40
51.0
 40
51.0
 40
52.0
 40
52.0
 40
52.0
 40
53.0
 40
53.0
 40
53.0
 40
54.0
 40
54.0
 40
54.0
 40
55.0
 40
55.0
 40
55.0
 40
56.0
 40
56.0
 40
56.0
 40
57.0
 40
57.0
 40
57.0
 40
58.0
 40
58.0
 40
58.0
 40
59.0
 40
59.0
 40
59.0
 40
60.0
 40
60.0
 40
60.0
 40
61.0
 40
61.0
 40
61.0
 40
62.0
 40
62.0
 40
62.0
 40
63.0
 40
63.0
 40
63.0
 40
64.0
 40
64.0
 40
64.0
 40
65.0
 40
65.0
 40
65.0
 40
66.0
 40
66.0
 40
66.0
 40
67.0
 40
67.0
 40
67.0
 40
68.0
 40
68.0
 40
68.0
 40
69.0
 40
69.0
 40
69.0
 40
70.0
 40
70.0
 40
70.0
 40
71.0
 40
71.0
 40
71.0
 40
72.0
 40
72.0
 40
72.0
 40
73.0
 40
73.0
 40
73.0
 40
74.0
 40
74.0
 40
74.0
 40
75.0
 40
75.0
 40
75.0
 40
76.0
 40
76.0
 40
76.0
 40
77.0
 40
77.0
 40
77.0
 40
78.0
 40
78.0
 40
78.0
 40
79.0
 40
79.0
 40
79.0
 40
79.0
 10
114.2018147500954
 20
-152.069959814413
 30
0.0
 10
114.2018147500954
 20
-152.069959814413
 30
0.0
 10
113.9479112128324
 20
-152.069959814413
 30
0.0
 10
113.9479112128324
 20
-152.069959814413
 30
0.0
 10
113.9479112128324
 20
-152.069959814413
 30
0.0
 10
113.6705810262698
 20
-152.069959814413
 30
0.0
 10
113.6705810262698
 20
-152.069959814413
 30
0.0
 10
113.6705810262698
 20
-152.069959814413
 30
0.0
 10
113.7977050496756
 20
-152.1123344888816
 30
0.0
 10
113.7977050496756
 20
-152.1123344888816
 30
0.0
 10
113.8083848456798
 20
-152.1164686034639
 30
0.0
 10
113.8207871894267
 20
-152.1230142848859
 30
0.0
 10
113.8207871894267
 20
-152.1357611381813
 30
0.0
 10
113.8207871894267
 20
-152.1567762206414
 30
0.0
 10
113.7890923109624
 20
-152.1629773925148
 30
0.0
 10
113.7680772285024
 20
-152.1674560166456
 30
0.0
 10
113.7573974324981
 20
-152.1905381563968
 30
0.0
 10
113.727769611325
 20
-152.256339480165
 30
0.0
 10
113.7088215861561
 20
-152.3007812119248
 30
0.0
 10
113.7088215861561
 20
-152.3007812119248
 30
0.0
 10
113.9796060912968
 20
-152.3007812119248
 30
0.0
 10
113.9796060912968
 20
-152.3007812119248
 30
0.0
 10
114.0705566121073
 20
-152.3007812119248
 30
0.0
 10
114.2672715643151
 20
-152.296302587794
 30
0.0
 10
114.4088649887589
 20
-152.2880343586294
 30
0.0
 10
114.4088649887589
 20
-152.2880343586294
 30
0.0
 10
114.4088649887589
 20
-152.4658012856683
 30
0.0
 10
114.4088649887589
 20
-152.4658012856683
 30
0.0
 10
114.3265272066614
 20
-152.4613226615374
 30
0.0
 10
114.3055121242014
 20
-152.4613226615374
 30
0.0
 10
114.1256781398714
 20
-152.4571885469551
 30
0.0
 10
114.093983261407
 20
-152.6115288246943
 30
0.0
 10
114.0495415296473
 20
-152.6921440590492
 30
0.0
 10
114.0050997978876
 20
-152.7617349878512
 30
0.0
 10
114.1256781398714
 20
-152.8209906301975
 30
0.0
 10
114.2314425712685
 20
-152.8888590112569
 30
0.0
 10
114.3351399453745
 20
-152.9711967933544
 30
0.0
 10
114.3351399453745
 20
-152.9711967933544
 30
0.0
 10
114.2166286606819
 20
-153.138283924389
 30
0.0
 10
114.2166286606819
 20
-153.138283924389
 30
0.0
 10
114.1932020113822
 20
-153.1193358992202
 30
0.0
 10
114.1804551580868
 20
-153.110723160507
 30
0.0
 10
114.0684895548162
 20
-153.0263183211184
 30
0.0
 10
114.0199137084742
 20
-152.9880777612321
 30
0.0
 10
113.9606580661279
 20
-152.9522487681856
 30
0.0
 10
113.880042831773
 20
-152.9078070364258
 30
0.0
 10
113.6685139689787
 20
-153.0938421926293
 30
0.0
 10
113.4635307876063
 20
-153.117268841929
 30
0.0
 10
113.1734537477483
 20
-153.1468966631022
 30
0.0
 10
113.1734537477483
 20
-153.1468966631022
 30
0.0
 10
113.0697563736423
 20
-152.9670626787721
 30
0.0
 10
113.0697563736423
 20
-152.9670626787721
 30
0.0
 10
113.3873941773823
 20
-152.9629285641898
 30
0.0
 10
113.5627495375815
 20
-152.937434857599
 30
0.0
 10
113.7150227580296
 20
-152.8275363116195
 30
0.0
 10
113.596511473337
 20
-152.7765488984378
 30
0.0
 10
113.507972519366
 20
-152.7489881345558
 30
0.0
 10
113.4717990167709
 20
-152.7365857908089
 30
0.0
 10
113.452850991602
 20
-152.7638020451424
 30
0.0
 10
113.4380370810155
 20
-152.7830945798598
 30
0.0
 10
113.4104763171335
 20
-152.8168565156152
 30
0.0
 10
113.4104763171335
 20
-152.8168565156152
 30
0.0
 10
113.2137613649257
 20
-152.7341742239692
 30
0.0
 10
113.2137613649257
 20
-152.7341742239692
 30
0.0
 10
113.2960991470232
 20
-152.6539034991629
 30
0.0
 10
113.3577663562091
 20
-152.55881886377
 30
0.0
 10
113.4146104317158
 20
-152.4571885469551
 30
0.0
 10
113.22444116093
 20
-152.4613226615374
 30
0.0
 10
113.2030815689214
 20
-152.4613226615374
 30
0.0
 10
113.1207437868239
 20
-152.4658012856683
 30
0.0
 10
113.1207437868239
 20
-152.4658012856683
 30
0.0
 10
113.1207437868239
 20
-152.2880343586294
 30
0.0
 10
113.1207437868239
 20
-152.2880343586294
 30
0.0
 10
113.2602701539766
 20
-152.2942355305028
 30
0.0
 10
113.4697319594798
 20
-152.2983696450851
 30
0.0
 10
113.4952256660706
 20
-152.2983696450851
 30
0.0
 10
113.5121066339483
 20
-152.2646077093297
 30
0.0
 10
113.5668836521638
 20
-152.1440293673459
 30
0.0
 10
113.5861761868812
 20
-152.069959814413
 30
0.0
 10
113.5668836521638
 20
-152.069959814413
 30
0.0
 10
113.3894612346735
 20
-152.076505495835
 30
0.0
 10
113.1948133397568
 20
-152.0892523491305
 30
0.0
 10
113.1948133397568
 20
-152.0892523491305
 30
0.0
 10
113.1948133397568
 20
-152.2222330348611
 30
0.0
 10
113.1948133397568
 20
-152.2222330348611
 30
0.0
 10
113.1462374934148
 20
-152.2477267414519
 30
0.0
 10
113.0869818510685
 20
-152.2794216199162
 30
0.0
 10
112.9536566557894
 20
-152.3452229436845
 30
0.0
 10
112.9536566557894
 20
-152.3452229436845
 30
0.0
 10
112.9536566557894
 20
-152.4909504827106
 30
0.0
 10
112.9536566557894
 20
-152.4909504827106
 30
0.0
 10
112.9536566557894
 20
-152.4909504827106
 30
0.0
 10
112.9536566557894
 20
-152.958449940059
 30
0.0
 10
112.9536566557894
 20
-152.958449940059
 30
0.0
 10
112.9536566557894
 20
-153.0855739634647
 30
0.0
 10
112.9174831531942
 20
-153.144829605811
 30
0.0
 10
112.6339517947582
 20
-153.1362168670979
 30
0.0
 10
112.6339517947582
 20
-153.1362168670979
 30
0.0
 10
112.5305989302006
 20
-152.9288221188858
 30
0.0
 10
112.5305989302006
 20
-152.9288221188858
 30
0.0
 10
112.5939886871293
 20
-152.9415689721813
 30
0.0
 10
112.6425645334713
 20
-152.9457030867636
 30
0.0
 10
112.6828721506487
 20
-152.9457030867636
 30
0.0
 10
112.7590087608727
 20
-152.9457030867636
 30
0.0
 10
112.7693440473285
 20
-152.9226209470124
 30
0.0
 10
112.7693440473285
 20
-152.8571641327926
 30
0.0
 10
112.7693440473285
 20
-152.8571641327926
 30
0.0
 10
112.7693440473285
 20
-152.427560725782
 30
0.0
 10
112.7693440473285
 20
-152.427560725782
 30
0.0
 10
112.6721923546444
 20
-152.4678683429594
 30
0.0
 10
112.6553113867667
 20
-152.4740695148329
 30
0.0
 10
112.6088025977158
 20
-152.4930175400017
 30
0.0
 10
112.6046684831335
 20
-152.5143771320103
 30
0.0
 10
112.6001898590027
 20
-152.5440049531834
 30
0.0
 10
112.5812418338338
 20
-152.5440049531834
 30
0.0
 10
112.5726290951207
 20
-152.5440049531834
 30
0.0
 10
112.562293808665
 20
-152.5398708386011
 30
0.0
 10
112.555748127243
 20
-152.5164441893014
 30
0.0
 10
112.555748127243
 20
-152.5164441893014
 30
0.0
 10
112.5030381663187
 20
-152.323863351676
 30
0.0
 10
112.5030381663187
 20
-152.323863351676
 30
0.0
 10
112.6487657053447
 20
-152.2773545626251
 30
0.0
 10
112.714567029113
 20
-152.2542724228739
 30
0.0
 10
112.7693440473285
 20
-152.2329128308654
 30
0.0
 10
112.7693440473285
 20
-152.2329128308654
 30
0.0
 10
112.7693440473285
 20
-151.8205349012809
 30
0.0
 10
112.7693440473285
 20
-151.8205349012809
 30
0.0
 10
112.7693440473285
 20
-151.8205349012809
 30
0.0
 10
112.7166340864041
 20
-151.8205349012809
 30
0.0
 10
112.7166340864041
 20
-151.8205349012809
 30
0.0
 10
112.7166340864041
 20
-151.8205349012809
 30
0.0
 10
112.638430418889
 20
-151.8205349012809
 30
0.0
 10
112.638430418889
 20
-151.8205349012809
 30
0.0
 10
112.5705620378296
 20
-151.8205349012809
 30
0.0
 10
112.562293808665
 20
-151.8205349012809
 30
0.0
 10
112.5261203060698
 20
-151.8267360731544
 30
0.0
 10
112.5261203060698
 20
-151.8267360731544
 30
0.0
 10
112.5261203060698
 20
-151.6320881782378
 30
0.0
 10
112.5261203060698
 20
-151.6320881782378
 30
0.0
 10
112.5536810699518
 20
-151.6386338596598
 30
0.0
 10
112.562293808665
 20
-151.6386338596598
 30
0.0
 10
112.631884737467
 20
-151.6386338596598
 30
0.0
 10
112.631884737467
 20
-151.6386338596598
 30
0.0
 10
112.7652099327462
 20
-151.6386338596598
 30
0.0
 10
112.7652099327462
 20
-151.6386338596598
 30
0.0
 10
112.7652099327462
 20
-151.5686984213092
 30
0.0
 10
112.7652099327462
 20
-151.4860161296632
 30
0.0
 10
112.763142875455
 20
-151.4818820150809
 30
0.0
 10
112.7545301367419
 20
-151.3020480307509
 30
0.0
 10
112.7545301367419
 20
-151.283100005582
 30
0.0
 10
112.7524630794507
 20
-151.2365912165311
 30
0.0
 10
112.7524630794507
 20
-151.2365912165311
 30
0.0
 10
112.9684705663759
 20
-151.2448594456957
 30
0.0
 10
112.9684705663759
 20
-151.2448594456957
 30
0.0
 10
112.9788058528317
 20
-151.2448594456957
 30
0.0
 10
113.0001654448402
 20
-151.2472710125354
 30
0.0
 10
113.0001654448402
 20
-151.2641519804131
 30
0.0
 10
113.0001654448402
 20
-151.283100005582
 30
0.0
 10
112.9853515342536
 20
-151.2937798015863
 30
0.0
 10
112.9598578276628
 20
-151.3127278267551
 30
0.0
 10
112.9598578276628
 20
-151.3633707303883
 30
0.0
 10
112.9536566557894
 20
-151.5917805610604
 30
0.0
 10
112.9557237130805
 20
-151.6386338596598
 30
0.0
 10
113.0845702842288
 20
-151.6386338596598
 30
0.0
 10
113.0973171375243
 20
-151.6386338596598
 30
0.0
 10
113.1948133397568
 20
-151.6300211209467
 30
0.0
 10
113.1948133397568
 20
-151.6300211209467
 30
0.0
 10
113.1948133397568
 20
-151.8246690158633
 30
0.0
 10
113.1948133397568
 20
-151.8246690158633
 30
0.0
 10
113.1565727798706
 20
-151.8226019585721
 30
0.0
 10
113.0890489083597
 20
-151.8184678439898
 30
0.0
 10
112.9536566557894
 20
-151.8205349012809
 30
0.0
 10
112.9536566557894
 20
-151.8205349012809
 30
0.0
 10
112.9536566557894
 20
-152.1588432779325
 30
0.0
 10
112.9536566557894
 20
-152.1588432779325
 30
0.0
 10
113.0084336740048
 20
-152.1357611381813
 30
0.0
 10
113.0742349977731
 20
-152.1082003742993
 30
0.0
 10
113.1228108441151
 20
-152.0847737249996
 30
0.0
 10
113.1228108441151
 20
-152.0847737249996
 30
0.0
 10
113.1228108441151
 20
-151.9070067979607
 30
0.0
 10
113.1228108441151
 20
-151.9070067979607
 30
0.0
 10
113.2371880142254
 20
-151.9197536512562
 30
0.0
 10
113.3553547893695
 20
-151.9197536512562
 30
0.0
 10
113.4717990167709
 20
-151.9197536512562
 30
0.0
 10
113.4487168770198
 20
-151.8246690158633
 30
0.0
 10
113.4211561131377
 20
-151.7419867242173
 30
0.0
 10
113.3577663562091
 20
-151.6090060384866
 30
0.0
 10
113.3133246244494
 20
-151.6110730957778
 30
0.0
 10
113.2306423328034
 20
-151.6152072103601
 30
0.0
 10
113.1927462824657
 20
-151.6172742676512
 30
0.0
 10
113.1927462824657
 20
-151.6172742676512
 30
0.0
 10
113.1927462824657
 20
-151.4374402833212
 30
0.0
 10
113.1927462824657
 20
-151.4374402833212
 30
0.0
 10
113.3174587390317
 20
-151.4460530220343
 30
0.0
 10
113.4907470419398
 20
-151.4501871366166
 30
0.0
 10
113.5734293335858
 20
-151.4501871366166
 30
0.0
 10
113.5734293335858
 20
-151.4501871366166
 30
0.0
 10
113.6557671156833
 20
-151.4501871366166
 30
0.0
 10
113.6557671156833
 20
-151.4501871366166
 30
0.0
 10
113.6557671156833
 20
-151.2872341201643
 30
0.0
 10
113.6557671156833
 20
-151.2768988337086
 30
0.0
 10
113.6537000583921
 20
-151.2217773059445
 30
0.0
 10
113.6537000583921
 20
-151.2217773059445
 30
0.0
 10
113.8779757744819
 20
-151.2472710125354
 30
0.0
 10
113.8779757744819
 20
-151.2472710125354
 30
0.0
 10
113.8821098890642
 20
-151.2472710125354
 30
0.0
 10
113.9034694810727
 20
-151.2493380698265
 30
0.0
 10
113.9034694810727
 20
-151.2662190377042
 30
0.0
 10
113.9034694810727
 20
-151.2810329482908
 30
0.0
 10
113.8927896850685
 20
-151.2893011774554
 30
0.0
 10
113.8652289211864
 20
-151.304115088042
 30
0.0
 10
113.859027749313
 20
-151.3699164118103
 30
0.0
 10
113.8569606920218
 20
-151.3909314942703
 30
0.0
 10
113.8569606920218
 20
-151.4501871366166
 30
0.0
 10
113.8569606920218
 20
-151.4501871366166
 30
0.0
 10
113.9520453274147
 20
-151.4501871366166
 30
0.0
 10
113.9520453274147
 20
-151.4501871366166
 30
0.0
 10
114.0347276190607
 20
-151.4501871366166
 30
0.0
 10
114.2080159219688
 20
-151.4460530220343
 30
0.0
 10
114.3327283785348
 20
-151.4374402833212
 30
0.0
 10
114.3327283785348
 20
-151.4374402833212
 30
0.0
 10
114.3327283785348
 20
-151.6172742676512
 30
0.0
 10
114.3327283785348
 20
-151.6172742676512
 30
0.0
 10
114.3031005573617
 20
-151.6152072103601
 30
0.0
 10
114.1849337822176
 20
-151.6110730957778
 30
0.0
 10
114.1446261650402
 20
-151.6090060384866
 30
0.0
 10
114.1298122544536
 20
-151.6596489421198
 30
0.0
 10
114.0960503186982
 20
-151.7716145453904
 30
0.0
 10
114.0302489949299
 20
-151.9114854220916
 30
0.0
 10
114.0726236693985
 20
-151.9114854220916
 30
0.0
 10
114.3499538559611
 20
-151.8921928873742
 30
0.0
 10
114.4112765555985
 20
-151.890125830083
 30
0.0
 10
114.4112765555985
 20
-151.890125830083
 30
0.0
 10
114.4112765555985
 20
-152.0744384385439
 30
0.0
 10
114.4112765555985
 20
-152.0744384385439
 30
0.0
 10
114.3816487344254
 20
-152.0744384385439
 30
0.0
 10
114.3647677665477
 20
-152.069959814413
 30
0.0
 10
114.2018147500954
 20
-152.069959814413
 30
0.0
  0
HATCH
  5
18F
330
188
100
AcDbEntity
  8
レイヤー 1
 62
    18
420
        0
440
 33554687
100
AcDbHatch
 10
0.0
 20
0.0
 30
0.0
210
0.0
220
0.0
230
1.0
  2
SOLID
 70
     1
 71
     1
 91
        3
 92
        1
 93
        1
 72
     4
 94
        3
 73
     0
 74
     0
 95
       17
 96
       13
 40
0.0
 40
0.0
 40
0.0
 40
0.0
 40
1.0
 40
1.0
 40
1.0
 40
2.0
 40
2.0
 40
2.0
 40
3.0
 40
3.0
 40
3.0
 40
4.0
 40
4.0
 40
4.0
 40
4.0
 10
113.6368190905144
 20
-152.455121489664
 10
113.6199381226367
 20
-152.4847493108371
 10
113.5692952190035
 20
-152.5777668889389
 10
113.5586154229992
 20
-152.5967149141077
 10
113.7491292033335
 20
-152.655970556454
 10
113.7701442857935
 20
-152.662516237876
 10
113.8421467814353
 20
-152.6897324922095
 10
113.8969237996507
 20
-152.6032605955297
 10
113.9203504489505
 20
-152.5291910425968
 10
113.935164359537
 20
-152.455121489664
 10
113.935164359537
 20
-152.455121489664
 10
113.6368190905144
 20
-152.455121489664
 10
113.6368190905144
 20
-152.455121489664
 97
        0
 97
        1
330
18C
 92
        1
 93
        1
 72
     4
 94
        3
 73
     0
 74
     0
 95
       20
 96
       16
 40
0.0
 40
0.0
 40
0.0
 40
0.0
 40
1.0
 40
1.0
 40
1.0
 40
2.0
 40
2.0
 40
2.0
 40
3.0
 40
3.0
 40
3.0
 40
4.0
 40
4.0
 40
4.0
 40
5.0
 40
5.0
 40
5.0
 40
5.0
 10
113.5734293335858
 20
-151.6045274143558
 10
113.5734293335858
 20
-151.6045274143558
 10
113.5417344551215
 20
-151.6045274143558
 10
113.5417344551215
 20
-151.6045274143558
 10
113.5882432441724
 20
-151.7040906738795
 10
113.6199381226367
 20
-151.7843613986858
 10
113.6537000583921
 20
-151.9114854220916
 10
113.6537000583921
 20
-151.9114854220916
 10
113.8610948066042
 20
-151.9114854220916
 10
113.8610948066042
 20
-151.9114854220916
 10
113.8927896850685
 20
-151.8184678439898
 10
113.9162163343681
 20
-151.7337184950527
 10
113.9392984741193
 20
-151.6045274143558
 10
113.9392984741193
 20
-151.6045274143558
 10
113.5734293335858
 20
-151.6045274143558
 10
113.5734293335858
 20
-151.6045274143558
 97
        0
 97
        1
330
18D
 92
        1
 93
        1
 72
     4
 94
        3
 73
     0
 74
     0
 95
      242
 96
      238
 40
0.0
 40
0.0
 40
0.0
 40
0.0
 40
1.0
 40
1.0
 40
1.0
 40
2.0
 40
2.0
 40
2.0
 40
3.0
 40
3.0
 40
3.0
 40
4.0
 40
4.0
 40
4.0
 40
5.0
 40
5.0
 40
5.0
 40
6.0
 40
6.0
 40
6.0
 40
7.0
 40
7.0
 40
7.0
 40
8.0
 40
8.0
 40
8.0
 40
9.0
 40
9.0
 40
9.0
 40
10.0
 40
10.0
 40
10.0
 40
11.0
 40
11.0
 40
11.0
 40
12.0
 40
12.0
 40
12.0
 40
13.0
 40
13.0
 40
13.0
 40
14.0
 40
14.0
 40
14.0
 40
15.0
 40
15.0
 40
15.0
 40
16.0
 40
16.0
 40
16.0
 40
17.0
 40
17.0
 40
17.0
 40
18.0
 40
18.0
 40
18.0
 40
19.0
 40
19.0
 40
19.0
 40
20.0
 40
20.0
 40
20.0
 40
21.0
 40
21.0
 40
21.0
 40
22.0
 40
22.0
 40
22.0
 40
23.0
 40
23.0
 40
23.0
 40
24.0
 40
24.0
 40
24.0
 40
25.0
 40
25.0
 40
25.0
 40
26.0
 40
26.0
 40
26.0
 40
27.0
 40
27.0
 40
27.0
 40
28.0
 40
28.0
 40
28.0
 40
29.0
 40
29.0
 40
29.0
 40
30.0
 40
30.0
 40
30.0
 40
31.0
 40
31.0
 40
31.0
 40
32.0
 40
32.0
 40
32.0
 40
33.0
 40
33.0
 40
33.0
 40
34.0
 40
34.0
 40
34.0
 40
35.0
 40
35.0
 40
35.0
 40
36.0
 40
36.0
 40
36.0
 40
37.0
 40
37.0
 40
37.0
 40
38.0
 40
38.0
 40
38.0
 40
39.0
 40
39.0
 40
39.0
 40
40.0
 40
40.0
 40
40.0
 40
41.0
 40
41.0
 40
41.0
 40
42.0
 40
42.0
 40
42.0
 40
43.0
 40
43.0
 40
43.0
 40
44.0
 40
44.0
 40
44.0
 40
45.0
 40
45.0
 40
45.0
 40
46.0
 40
46.0
 40
46.0
 40
47.0
 40
47.0
 40
47.0
 40
48.0
 40
48.0
 40
48.0
 40
49.0
 40
49.0
 40
49.0
 40
50.0
 40
50.0
 40
50.0
 40
51.0
 40
51.0
 40
51.0
 40
52.0
 40
52.0
 40
52.0
 40
53.0
 40
53.0
 40
53.0
 40
54.0
 40
54.0
 40
54.0
 40
55.0
 40
55.0
 40
55.0
 40
56.0
 40
56.0
 40
56.0
 40
57.0
 40
57.0
 40
57.0
 40
58.0
 40
58.0
 40
58.0
 40
59.0
 40
59.0
 40
59.0
 40
60.0
 40
60.0
 40
60.0
 40
61.0
 40
61.0
 40
61.0
 40
62.0
 40
62.0
 40
62.0
 40
63.0
 40
63.0
 40
63.0
 40
64.0
 40
64.0
 40
64.0
 40
65.0
 40
65.0
 40
65.0
 40
66.0
 40
66.0
 40
66.0
 40
67.0
 40
67.0
 40
67.0
 40
68.0
 40
68.0
 40
68.0
 40
69.0
 40
69.0
 40
69.0
 40
70.0
 40
70.0
 40
70.0
 40
71.0
 40
71.0
 40
71.0
 40
72.0
 40
72.0
 40
72.0
 40
73.0
 40
73.0
 40
73.0
 40
74.0
 40
74.0
 40
74.0
 40
75.0
 40
75.0
 40
75.0
 40
76.0
 40
76.0
 40
76.0
 40
77.0
 40
77.0
 40
77.0
 40
78.0
 40
78.0
 40
78.0
 40
79.0
 40
79.0
 40
79.0
 40
79.0
 10
114.2018147500954
 20
-152.069959814413
 10
114.2018147500954
 20
-152.069959814413
 10
113.9479112128324
 20
-152.069959814413
 10
113.9479112128324
 20
-152.069959814413
 10
113.9479112128324
 20
-152.069959814413
 10
113.6705810262698
 20
-152.069959814413
 10
113.6705810262698
 20
-152.069959814413
 10
113.6705810262698
 20
-152.069959814413
 10
113.7977050496756
 20
-152.1123344888816
 10
113.7977050496756
 20
-152.1123344888816
 10
113.8083848456798
 20
-152.1164686034639
 10
113.8207871894267
 20
-152.1230142848859
 10
113.8207871894267
 20
-152.1357611381813
 10
113.8207871894267
 20
-152.1567762206414
 10
113.7890923109624
 20
-152.1629773925148
 10
113.7680772285024
 20
-152.1674560166456
 10
113.7573974324981
 20
-152.1905381563968
 10
113.727769611325
 20
-152.256339480165
 10
113.7088215861561
 20
-152.3007812119248
 10
113.7088215861561
 20
-152.3007812119248
 10
113.9796060912968
 20
-152.3007812119248
 10
113.9796060912968
 20
-152.3007812119248
 10
114.0705566121073
 20
-152.3007812119248
 10
114.2672715643151
 20
-152.296302587794
 10
114.4088649887589
 20
-152.2880343586294
 10
114.4088649887589
 20
-152.2880343586294
 10
114.4088649887589
 20
-152.4658012856683
 10
114.4088649887589
 20
-152.4658012856683
 10
114.3265272066614
 20
-152.4613226615374
 10
114.3055121242014
 20
-152.4613226615374
 10
114.1256781398714
 20
-152.4571885469551
 10
114.093983261407
 20
-152.6115288246943
 10
114.0495415296473
 20
-152.6921440590492
 10
114.0050997978876
 20
-152.7617349878512
 10
114.1256781398714
 20
-152.8209906301975
 10
114.2314425712685
 20
-152.8888590112569
 10
114.3351399453745
 20
-152.9711967933544
 10
114.3351399453745
 20
-152.9711967933544
 10
114.2166286606819
 20
-153.138283924389
 10
114.2166286606819
 20
-153.138283924389
 10
114.1932020113822
 20
-153.1193358992202
 10
114.1804551580868
 20
-153.110723160507
 10
114.0684895548162
 20
-153.0263183211184
 10
114.0199137084742
 20
-152.9880777612321
 10
113.9606580661279
 20
-152.9522487681856
 10
113.880042831773
 20
-152.9078070364258
 10
113.6685139689787
 20
-153.0938421926293
 10
113.4635307876063
 20
-153.117268841929
 10
113.1734537477483
 20
-153.1468966631022
 10
113.1734537477483
 20
-153.1468966631022
 10
113.0697563736423
 20
-152.9670626787721
 10
113.0697563736423
 20
-152.9670626787721
 10
113.3873941773823
 20
-152.9629285641898
 10
113.5627495375815
 20
-152.937434857599
 10
113.7150227580296
 20
-152.8275363116195
 10
113.596511473337
 20
-152.7765488984378
 10
113.507972519366
 20
-152.7489881345558
 10
113.4717990167709
 20
-152.7365857908089
 10
113.452850991602
 20
-152.7638020451424
 10
113.4380370810155
 20
-152.7830945798598
 10
113.4104763171335
 20
-152.8168565156152
 10
113.4104763171335
 20
-152.8168565156152
 10
113.2137613649257
 20
-152.7341742239692
 10
113.2137613649257
 20
-152.7341742239692
 10
113.2960991470232
 20
-152.6539034991629
 10
113.3577663562091
 20
-152.55881886377
 10
113.4146104317158
 20
-152.4571885469551
 10
113.22444116093
 20
-152.4613226615374
 10
113.2030815689214
 20
-152.4613226615374
 10
113.1207437868239
 20
-152.4658012856683
 10
113.1207437868239
 20
-152.4658012856683
 10
113.1207437868239
 20
-152.2880343586294
 10
113.1207437868239
 20
-152.2880343586294
 10
113.2602701539766
 20
-152.2942355305028
 10
113.4697319594798
 20
-152.2983696450851
 10
113.4952256660706
 20
-152.2983696450851
 10
113.5121066339483
 20
-152.2646077093297
 10
113.5668836521638
 20
-152.1440293673459
 10
113.5861761868812
 20
-152.069959814413
 10
113.5668836521638
 20
-152.069959814413
 10
113.3894612346735
 20
-152.076505495835
 10
113.1948133397568
 20
-152.0892523491305
 10
113.1948133397568
 20
-152.0892523491305
 10
113.1948133397568
 20
-152.2222330348611
 10
113.1948133397568
 20
-152.2222330348611
 10
113.1462374934148
 20
-152.2477267414519
 10
113.0869818510685
 20
-152.2794216199162
 10
112.9536566557894
 20
-152.3452229436845
 10
112.9536566557894
 20
-152.3452229436845
 10
112.9536566557894
 20
-152.4909504827106
 10
112.9536566557894
 20
-152.4909504827106
 10
112.9536566557894
 20
-152.4909504827106
 10
112.9536566557894
 20
-152.958449940059
 10
112.9536566557894
 20
-152.958449940059
 10
112.9536566557894
 20
-153.0855739634647
 10
112.9174831531942
 20
-153.144829605811
 10
112.6339517947582
 20
-153.1362168670979
 10
112.6339517947582
 20
-153.1362168670979
 10
112.5305989302006
 20
-152.9288221188858
 10
112.5305989302006
 20
-152.9288221188858
 10
112.5939886871293
 20
-152.9415689721813
 10
112.6425645334713
 20
-152.9457030867636
 10
112.6828721506487
 20
-152.9457030867636
 10
112.7590087608727
 20
-152.9457030867636
 10
112.7693440473285
 20
-152.9226209470124
 10
112.7693440473285
 20
-152.8571641327926
 10
112.7693440473285
 20
-152.8571641327926
 10
112.7693440473285
 20
-152.427560725782
 10
112.7693440473285
 20
-152.427560725782
 10
112.6721923546444
 20
-152.4678683429594
 10
112.6553113867667
 20
-152.4740695148329
 10
112.6088025977158
 20
-152.4930175400017
 10
112.6046684831335
 20
-152.5143771320103
 10
112.6001898590027
 20
-152.5440049531834
 10
112.5812418338338
 20
-152.5440049531834
 10
112.5726290951207
 20
-152.5440049531834
 10
112.562293808665
 20
-152.5398708386011
 10
112.555748127243
 20
-152.5164441893014
 10
112.555748127243
 20
-152.5164441893014
 10
112.5030381663187
 20
-152.323863351676
 10
112.5030381663187
 20
-152.323863351676
 10
112.6487657053447
 20
-152.2773545626251
 10
112.714567029113
 20
-152.2542724228739
 10
112.7693440473285
 20
-152.2329128308654
 10
112.7693440473285
 20
-152.2329128308654
 10
112.7693440473285
 20
-151.8205349012809
 10
112.7693440473285
 20
-151.8205349012809
 10
112.7693440473285
 20
-151.8205349012809
 10
112.7166340864041
 20
-151.8205349012809
 10
112.7166340864041
 20
-151.8205349012809
 10
112.7166340864041
 20
-151.8205349012809
 10
112.638430418889
 20
-151.8205349012809
 10
112.638430418889
 20
-151.8205349012809
 10
112.5705620378296
 20
-151.8205349012809
 10
112.562293808665
 20
-151.8205349012809
 10
112.5261203060698
 20
-151.8267360731544
 10
112.5261203060698
 20
-151.8267360731544
 10
112.5261203060698
 20
-151.6320881782378
 10
112.5261203060698
 20
-151.6320881782378
 10
112.5536810699518
 20
-151.6386338596598
 10
112.562293808665
 20
-151.6386338596598
 10
112.631884737467
 20
-151.6386338596598
 10
112.631884737467
 20
-151.6386338596598
 10
112.7652099327462
 20
-151.6386338596598
 10
112.7652099327462
 20
-151.6386338596598
 10
112.7652099327462
 20
-151.5686984213092
 10
112.7652099327462
 20
-151.4860161296632
 10
112.763142875455
 20
-151.4818820150809
 10
112.7545301367419
 20
-151.3020480307509
 10
112.7545301367419
 20
-151.283100005582
 10
112.7524630794507
 20
-151.2365912165311
 10
112.7524630794507
 20
-151.2365912165311
 10
112.9684705663759
 20
-151.2448594456957
 10
112.9684705663759
 20
-151.2448594456957
 10
112.9788058528317
 20
-151.2448594456957
 10
113.0001654448402
 20
-151.2472710125354
 10
113.0001654448402
 20
-151.2641519804131
 10
113.0001654448402
 20
-151.283100005582
 10
112.9853515342536
 20
-151.2937798015863
 10
112.9598578276628
 20
-151.3127278267551
 10
112.9598578276628
 20
-151.3633707303883
 10
112.9536566557894
 20
-151.5917805610604
 10
112.9557237130805
 20
-151.6386338596598
 10
113.0845702842288
 20
-151.6386338596598
 10
113.0973171375243
 20
-151.6386338596598
 10
113.1948133397568
 20
-151.6300211209467
 10
113.1948133397568
 20
-151.6300211209467
 10
113.1948133397568
 20
-151.8246690158633
 10
113.1948133397568
 20
-151.8246690158633
 10
113.1565727798706
 20
-151.8226019585721
 10
113.0890489083597
 20
-151.8184678439898
 10
112.9536566557894
 20
-151.8205349012809
 10
112.9536566557894
 20
-151.8205349012809
 10
112.9536566557894
 20
-152.1588432779325
 10
112.9536566557894
 20
-152.1588432779325
 10
113.0084336740048
 20
-152.1357611381813
 10
113.0742349977731
 20
-152.1082003742993
 10
113.1228108441151
 20
-152.0847737249996
 10
113.1228108441151
 20
-152.0847737249996
 10
113.1228108441151
 20
-151.9070067979607
 10
113.1228108441151
 20
-151.9070067979607
 10
113.2371880142254
 20
-151.9197536512562
 10
113.3553547893695
 20
-151.9197536512562
 10
113.4717990167709
 20
-151.9197536512562
 10
113.4487168770198
 20
-151.8246690158633
 10
113.4211561131377
 20
-151.7419867242173
 10
113.3577663562091
 20
-151.6090060384866
 10
113.3133246244494
 20
-151.6110730957778
 10
113.2306423328034
 20
-151.6152072103601
 10
113.1927462824657
 20
-151.6172742676512
 10
113.1927462824657
 20
-151.6172742676512
 10
113.1927462824657
 20
-151.4374402833212
 10
113.1927462824657
 20
-151.4374402833212
 10
113.3174587390317
 20
-151.4460530220343
 10
113.4907470419398
 20
-151.4501871366166
 10
113.5734293335858
 20
-151.4501871366166
 10
113.5734293335858
 20
-151.4501871366166
 10
113.6557671156833
 20
-151.4501871366166
 10
113.6557671156833
 20
-151.4501871366166
 10
113.6557671156833
 20
-151.2872341201643
 10
113.6557671156833
 20
-151.2768988337086
 10
113.6537000583921
 20
-151.2217773059445
 10
113.6537000583921
 20
-151.2217773059445
 10
113.8779757744819
 20
-151.2472710125354
 10
113.8779757744819
 20
-151.2472710125354
 10
113.8821098890642
 20
-151.2472710125354
 10
113.9034694810727
 20
-151.2493380698265
 10
113.9034694810727
 20
-151.2662190377042
 10
113.9034694810727
 20
-151.2810329482908
 10
113.8927896850685
 20
-151.2893011774554
 10
113.8652289211864
 20
-151.304115088042
 10
113.859027749313
 20
-151.3699164118103
 10
113.8569606920218
 20
-151.3909314942703
 10
113.8569606920218
 20
-151.4501871366166
 10
113.8569606920218
 20
-151.4501871366166
 10
113.9520453274147
 20
-151.4501871366166
 10
113.9520453274147
 20
-151.4501871366166
 10
114.0347276190607
 20
-151.4501871366166
 10
114.2080159219688
 20
-151.4460530220343
 10
114.3327283785348
 20
-151.4374402833212
 10
114.3327283785348
 20
-151.4374402833212
 10
114.3327283785348
 20
-151.6172742676512
 10
114.3327283785348
 20
-151.6172742676512
 10
114.3031005573617
 20
-151.6152072103601
 10
114.1849337822176
 20
-151.6110730957778
 10
114.1446261650402
 20
-151.6090060384866
 10
114.1298122544536
 20
-151.6596489421198
 10
114.0960503186982
 20
-151.7716145453904
 10
114.0302489949299
 20
-151.9114854220916
 10
114.0726236693985
 20
-151.9114854220916
 10
114.3499538559611
 20
-151.8921928873742
 10
114.4112765555985
 20
-151.890125830083
 10
114.4112765555985
 20
-151.890125830083
 10
114.4112765555985
 20
-152.0744384385439
 10
114.4112765555985
 20
-152.0744384385439
 10
114.3816487344254
 20
-152.0744384385439
 10
114.3647677665477
 20
-152.069959814413
 10
114.2018147500954
 20
-152.069959814413
 97
        0
 97
        1
330
18E
 75
     2
 76
     1
 98
        1
 10
0.0
 20
0.0
450
        0
451
        0
460
0.0
461
0.0
452
        0
462
0.0
453
        0
470

  0
SPLINE
  5
190
330
188
100
AcDbEntity
  8
レイヤー 1
100
AcDbSpline
210
0.0
220
0.0
230
1.0
 70
    11
 71
     3
 72
    17
 73
    13
 74
     0
 42
0.0000000001
 43
0.0000000001
 40
0.0
 40
0.0
 40
0.0
 40
0.0
 40
1.0
 40
1.0
 40
1.0
 40
2.0
 40
2.0
 40
2.0
 40
3.0
 40
3.0
 40
3.0
 40
4.0
 40
4.0
 40
4.0
 40
4.0
 10
116.058032197548
 20
-152.8695664765395
 30
0.0
 10
116.058032197548
 20
-152.8695664765395
 30
0.0
 10
115.3514431135232
 20
-152.8695664765395
 30
0.0
 10
115.3514431135232
 20
-152.8695664765395
 30
0.0
 10
115.3514431135232
 20
-152.8695664765395
 30
0.0
 10
115.3514431135232
 20
-152.9839436466498
 30
0.0
 10
115.3514431135232
 20
-152.9839436466498
 30
0.0
 10
115.3514431135232
 20
-152.9839436466498
 30
0.0
 10
116.058032197548
 20
-152.9839436466498
 30
0.0
 10
116.058032197548
 20
-152.9839436466498
 30
0.0
 10
116.058032197548
 20
-152.9839436466498
 30
0.0
 10
116.058032197548
 20
-152.8695664765395
 30
0.0
 10
116.058032197548
 20
-152.8695664765395
 30
0.0
  0
SPLINE
  5
191
330
188
100
AcDbEntity
  8
レイヤー 1
100
AcDbSpline
210
0.0
220
0.0
230
1.0
 70
    11
 71
     3
 72
    17
 73
    13
 74
     0
 42
0.0000000001
 43
0.0000000001
 40
0.0
 40
0.0
 40
0.0
 40
0.0
 40
1.0
 40
1.0
 40
1.0
 40
2.0
 40
2.0
 40
2.0
 40
3.0
 40
3.0
 40
3.0
 40
4.0
 40
4.0
 40
4.0
 40
4.0
 10
116.058032197548
 20
-152.6263427352809
 30
0.0
 10
116.058032197548
 20
-152.6263427352809
 30
0.0
 10
115.3514431135232
 20
-152.6263427352809
 30
0.0
 10
115.3514431135232
 20
-152.6263427352809
 30
0.0
 10
115.3514431135232
 20
-152.6263427352809
 30
0.0
 10
115.3514431135232
 20
-152.7407199053912
 30
0.0
 10
115.3514431135232
 20
-152.7407199053912
 30
0.0
 10
115.3514431135232
 20
-152.7407199053912
 30
0.0
 10
116.058032197548
 20
-152.7407199053912
 30
0.0
 10
116.058032197548
 20
-152.7407199053912
 30
0.0
 10
116.058032197548
 20
-152.7407199053912
 30
0.0
 10
116.058032197548
 20
-152.6263427352809
 30
0.0
 10
116.058032197548
 20
-152.6263427352809
 30
0.0
  0
SPLINE
  5
192
330
188
100
AcDbEntity
  8
レイヤー 1
100
AcDbSpline
210
0.0
220
0.0
230
1.0
 70
    11
 71
     3
 72
    17
 73
    13
 74
     0
 42
0.0000000001
 43
0.0000000001
 40
0.0
 40
0.0
 40
0.0
 40
0.0
 40
1.0
 40
1.0
 40
1.0
 40
2.0
 40
2.0
 40
2.0
 40
3.0
 40
3.0
 40
3.0
 40
4.0
 40
4.0
 40
4.0
 40
4.0
 10
116.058032197548
 20
-152.3937987900265
 30
0.0
 10
116.058032197548
 20
-152.3937987900265
 30
0.0
 10
115.3514431135232
 20
-152.3937987900265
 30
0.0
 10
115.3514431135232
 20
-152.3937987900265
 30
0.0
 10
115.3514431135232
 20
-152.3937987900265
 30
0.0
 10
115.3514431135232
 20
-152.5016302787149
 30
0.0
 10
115.3514431135232
 20
-152.5016302787149
 30
0.0
 10
115.3514431135232
 20
-152.5016302787149
 30
0.0
 10
116.058032197548
 20
-152.5016302787149
 30
0.0
 10
116.058032197548
 20
-152.5016302787149
 30
0.0
 10
116.058032197548
 20
-152.5016302787149
 30
0.0
 10
116.058032197548
 20
-152.3937987900265
 30
0.0
 10
116.058032197548
 20
-152.3937987900265
 30
0.0
  0
SPLINE
  5
193
330
188
100
AcDbEntity
  8
レイヤー 1
100
AcDbSpline
210
0.0
220
0.0
230
1.0
 70
     9
 71
     3
 72
   203
 73
   199
 74
     0
 42
0.0000000001
 43
0.0000000001
 40
0.0
 40
0.0
 40
0.0
 40
0.0
 40
1.0
 40
1.0
 40
1.0
 40
2.0
 40
2.0
 40
2.0
 40
3.0
 40
3.0
 40
3.0
 40
4.0
 40
4.0
 40
4.0
 40
5.0
 40
5.0
 40
5.0
 40
6.0
 40
6.0
 40
6.0
 40
7.0
 40
7.0
 40
7.0
 40
8.0
 40
8.0
 40
8.0
 40
9.0
 40
9.0
 40
9.0
 40
10.0
 40
10.0
 40
10.0
 40
11.0
 40
11.0
 40
11.0
 40
12.0
 40
12.0
 40
12.0
 40
13.0
 40
13.0
 40
13.0
 40
14.0
 40
14.0
 40
14.0
 40
15.0
 40
15.0
 40
15.0
 40
16.0
 40
16.0
 40
16.0
 40
17.0
 40
17.0
 40
17.0
 40
18.0
 40
18.0
 40
18.0
 40
19.0
 40
19.0
 40
19.0
 40
20.0
 40
20.0
 40
20.0
 40
21.0
 40
21.0
 40
21.0
 40
22.0
 40
22.0
 40
22.0
 40
23.0
 40
23.0
 40
23.0
 40
24.0
 40
24.0
 40
24.0
 40
25.0
 40
25.0
 40
25.0
 40
26.0
 40
26.0
 40
26.0
 40
27.0
 40
27.0
 40
27.0
 40
28.0
 40
28.0
 40
28.0
 40
29.0
 40
29.0
 40
29.0
 40
30.0
 40
30.0
 40
30.0
 40
31.0
 40
31.0
 40
31.0
 40
32.0
 40
32.0
 40
32.0
 40
33.0
 40
33.0
 40
33.0
 40
34.0
 40
34.0
 40
34.0
 40
35.0
 40
35.0
 40
35.0
 40
36.0
 40
36.0
 40
36.0
 40
37.0
 40
37.0
 40
37.0
 40
38.0
 40
38.0
 40
38.0
 40
39.0
 40
39.0
 40
39.0
 40
40.0
 40
40.0
 40
40.0
 40
41.0
 40
41.0
 40
41.0
 40
42.0
 40
42.0
 40
42.0
 40
43.0
 40
43.0
 40
43.0
 40
44.0
 40
44.0
 40
44.0
 40
45.0
 40
45.0
 40
45.0
 40
46.0
 40
46.0
 40
46.0
 40
47.0
 40
47.0
 40
47.0
 40
48.0
 40
48.0
 40
48.0
 40
49.0
 40
49.0
 40
49.0
 40
50.0
 40
50.0
 40
50.0
 40
51.0
 40
51.0
 40
51.0
 40
52.0
 40
52.0
 40
52.0
 40
53.0
 40
53.0
 40
53.0
 40
54.0
 40
54.0
 40
54.0
 40
55.0
 40
55.0
 40
55.0
 40
56.0
 40
56.0
 40
56.0
 40
57.0
 40
57.0
 40
57.0
 40
58.0
 40
58.0
 40
58.0
 40
59.0
 40
59.0
 40
59.0
 40
60.0
 40
60.0
 40
60.0
 40
61.0
 40
61.0
 40
61.0
 40
62.0
 40
62.0
 40
62.0
 40
63.0
 40
63.0
 40
63.0
 40
64.0
 40
64.0
 40
64.0
 40
65.0
 40
65.0
 40
65.0
 40
66.0
 40
66.0
 40
66.0
 40
66.0
 10
115.8930121238045
 20
-152.1378281954725
 30
0.0
 10
115.8930121238045
 20
-152.1378281954725
 30
0.0
 10
115.3345621456455
 20
-152.1378281954725
 30
0.0
 10
115.3345621456455
 20
-152.1378281954725
 30
0.0
 10
115.3242268591897
 20
-152.1822699272322
 30
0.0
 10
115.3156141204766
 20
-152.2139648056965
 30
0.0
 10
115.3028672671812
 20
-152.2518608560342
 30
0.0
 10
115.3283609737721
 20
-152.2518608560342
 30
0.0
 10
115.3431748843586
 20
-152.2542724228739
 30
0.0
 10
115.3493760562321
 20
-152.2542724228739
 30
0.0
 10
115.3493760562321
 20
-152.2542724228739
 30
0.0
 10
115.5378227792752
 20
-152.2542724228739
 30
0.0
 10
115.5378227792752
 20
-152.2542724228739
 30
0.0
 10
115.5378227792752
 20
-152.2542724228739
 30
0.0
 10
115.9123046585219
 20
-152.2542724228739
 30
0.0
 10
115.9123046585219
 20
-152.2542724228739
 30
0.0
 10
115.9629475621551
 20
-152.2542724228739
 30
0.0
 10
116.2464789205911
 20
-152.2415255695785
 30
0.0
 10
116.2781737990554
 20
-152.2415255695785
 30
0.0
 10
116.2761067417643
 20
-152.2690863334605
 30
0.0
 10
116.2740396844731
 20
-152.2880343586294
 30
0.0
 10
116.2740396844731
 20
-152.3176621798025
 30
0.0
 10
116.271972627182
 20
-152.3493570582668
 30
0.0
 10
116.271972627182
 20
-152.4847493108371
 30
0.0
 10
116.271972627182
 20
-152.5123100747191
 30
0.0
 10
116.271972627182
 20
-152.5123100747191
 30
0.0
 10
116.271972627182
 20
-152.7576008732689
 30
0.0
 10
116.271972627182
 20
-152.7576008732689
 30
0.0
 10
116.271972627182
 20
-152.8020426050287
 30
0.0
 10
116.2761067417643
 20
-152.9987575572364
 30
0.0
 10
116.2802408563466
 20
-153.1510307776845
 30
0.0
 10
116.2802408563466
 20
-153.1510307776845
 30
0.0
 10
116.0538980829657
 20
-153.1510307776845
 30
0.0
 10
116.0538980829657
 20
-153.1510307776845
 30
0.0
 10
116.0538980829657
 20
-153.1510307776845
 30
0.0
 10
116.0559651402568
 20
-153.117268841929
 30
0.0
 10
116.0559651402568
 20
-153.117268841929
 30
0.0
 10
116.0559651402568
 20
-153.117268841929
 30
0.0
 10
115.3538546803629
 20
-153.117268841929
 30
0.0
 10
115.3538546803629
 20
-153.117268841929
 30
0.0
 10
115.3538546803629
 20
-153.117268841929
 30
0.0
 10
115.3559217376541
 20
-153.1510307776845
 30
0.0
 10
115.3559217376541
 20
-153.1510307776845
 30
0.0
 10
115.3559217376541
 20
-153.1510307776845
 30
0.0
 10
115.1378471934377
 20
-153.1510307776845
 30
0.0
 10
115.1378471934377
 20
-153.1510307776845
 30
0.0
 10
115.14198130802
 20
-153.0959092499205
 30
0.0
 10
115.14198130802
 20
-153.0835069061735
 30
0.0
 10
115.148526989442
 20
-152.9691297360633
 30
0.0
 10
115.1505940467332
 20
-152.9415689721813
 30
0.0
 10
115.1526611040243
 20
-152.8082437769021
 30
0.0
 10
115.1526611040243
 20
-152.7892957517332
 30
0.0
 10
115.1526611040243
 20
-152.7892957517332
 30
0.0
 10
115.1526611040243
 20
-152.586379627652
 30
0.0
 10
115.1526611040243
 20
-152.586379627652
 30
0.0
 10
115.0131347368717
 20
-152.8358045407841
 30
0.0
 10
114.8439805485459
 20
-152.9670626787721
 30
0.0
 10
114.7382161171488
 20
-153.0325194929918
 30
0.0
 10
114.7382161171488
 20
-153.0325194929918
 30
0.0
 10
114.5645833046922
 20
-152.8929931258393
 30
0.0
 10
114.5645833046922
 20
-152.8929931258393
 30
0.0
 10
114.6534667682116
 20
-152.8423502222061
 30
0.0
 10
114.7974717594951
 20
-152.7555338159778
 30
0.0
 10
114.9349310693565
 20
-152.5608859210612
 30
0.0
 10
115.0258815901671
 20
-152.4337618976554
 30
0.0
 10
115.0913384043869
 20
-152.2901014159205
 30
0.0
 10
115.1251003401423
 20
-152.1378281954725
 30
0.0
 10
114.8966905094702
 20
-152.1398952527636
 30
0.0
 10
114.7168565251402
 20
-152.1460964246371
 30
0.0
 10
114.6217718897473
 20
-152.1481634819282
 30
0.0
 10
114.6217718897473
 20
-152.1481634819282
 30
0.0
 10
114.6217718897473
 20
-151.9707410644379
 30
0.0
 10
114.6217718897473
 20
-151.9707410644379
 30
0.0
 10
114.8184868419551
 20
-151.9769422363113
 30
0.0
 10
115.1020182003911
 20
-151.9810763508936
 30
0.0
 10
115.252224363548
 20
-151.9810763508936
 30
0.0
 10
115.252224363548
 20
-151.9810763508936
 30
0.0
 10
115.4658202836335
 20
-151.9810763508936
 30
0.0
 10
115.4658202836335
 20
-151.9810763508936
 30
0.0
 10
115.4658202836335
 20
-151.9810763508936
 30
0.0
 10
115.4658202836335
 20
-151.8732448622053
 30
0.0
 10
115.4658202836335
 20
-151.8732448622053
 30
0.0
 10
115.4658202836335
 20
-151.8732448622053
 30
0.0
 10
115.3197482350589
 20
-151.8732448622053
 30
0.0
 10
115.3197482350589
 20
-151.8732448622053
 30
0.0
 10
115.1505940467332
 20
-151.8732448622053
 30
0.0
 10
114.9814398584074
 20
-151.8773789767876
 30
0.0
 10
114.8143527273728
 20
-151.8839246582096
 30
0.0
 10
114.8143527273728
 20
-151.8839246582096
 30
0.0
 10
114.8143527273728
 20
-151.7127034125927
 30
0.0
 10
114.8143527273728
 20
-151.7127034125927
 30
0.0
 10
114.968693005112
 20
-151.7230386990484
 30
0.0
 10
115.1547281613155
 20
-151.7230386990484
 30
0.0
 10
115.3197482350589
 20
-151.7230386990484
 30
0.0
 10
115.3197482350589
 20
-151.7230386990484
 30
0.0
 10
115.4658202836335
 20
-151.7230386990484
 30
0.0
 10
115.4658202836335
 20
-151.7230386990484
 30
0.0
 10
115.4658202836335
 20
-151.7230386990484
 30
0.0
 10
115.4658202836335
 20
-151.6045274143558
 30
0.0
 10
115.4658202836335
 20
-151.6045274143558
 30
0.0
 10
115.4658202836335
 20
-151.6045274143558
 30
0.0
 10
115.3345621456455
 20
-151.6045274143558
 30
0.0
 10
115.3345621456455
 20
-151.6045274143558
 30
0.0
 10
115.2880533565946
 20
-151.6045274143558
 30
0.0
 10
115.0851372325134
 20
-151.6131401530689
 30
0.0
 10
115.0427625580448
 20
-151.6131401530689
 30
0.0
 10
114.8395019244151
 20
-151.6172742676512
 30
0.0
 10
114.7633653141911
 20
-151.6193413249424
 30
0.0
 10
114.6851616466759
 20
-151.6214083822335
 30
0.0
 10
114.6851616466759
 20
-151.6214083822335
 30
0.0
 10
114.6851616466759
 20
-151.4374402833212
 30
0.0
 10
114.6851616466759
 20
-151.4374402833212
 30
0.0
 10
114.7995388167862
 20
-151.4460530220343
 30
0.0
 10
114.8439805485459
 20
-151.4460530220343
 30
0.0
 10
115.2267306569572
 20
-151.4543212511989
 30
0.0
 10
115.1633409000286
 20
-151.359236615806
 30
0.0
 10
115.1357801361466
 20
-151.331675851924
 30
0.0
 10
115.0999511431
 20
-151.2958468588774
 30
0.0
 10
115.0999511431
 20
-151.2958468588774
 30
0.0
 10
115.2753065032992
 20
-151.2131645672314
 30
0.0
 10
115.2753065032992
 20
-151.2131645672314
 30
0.0
 10
115.3156141204766
 20
-151.2493380698265
 30
0.0
 10
115.3600558522364
 20
-151.2917127442951
 30
0.0
 10
115.4341254051692
 20
-151.4016112902746
 30
0.0
 10
115.4341254051692
 20
-151.4016112902746
 30
0.0
 10
115.3197482350589
 20
-151.4567328180386
 30
0.0
 10
115.3197482350589
 20
-151.4567328180386
 30
0.0
 10
115.3197482350589
 20
-151.4567328180386
 30
0.0
 10
115.3304280310632
 20
-151.4567328180386
 30
0.0
 10
115.3304280310632
 20
-151.4567328180386
 30
0.0
 10
115.3304280310632
 20
-151.4567328180386
 30
0.0
 10
115.8530490161756
 20
-151.4567328180386
 30
0.0
 10
115.8530490161756
 20
-151.4567328180386
 30
0.0
 10
115.8530490161756
 20
-151.4567328180386
 30
0.0
 10
115.7576198712342
 20
-151.4122910862789
 30
0.0
 10
115.7576198712342
 20
-151.4122910862789
 30
0.0
 10
115.7851806351162
 20
-151.3740505263926
 30
0.0
 10
115.8423692201713
 20
-151.2937798015863
 30
0.0
 10
115.8571831307579
 20
-151.2197102486534
 30
0.0
 10
115.8571831307579
 20
-151.2197102486534
 30
0.0
 10
116.0707790508434
 20
-151.283100005582
 30
0.0
 10
116.0707790508434
 20
-151.283100005582
 30
0.0
 10
116.0793917895565
 20
-151.2851670628732
 30
0.0
 10
116.1004068720165
 20
-151.2958468588774
 30
0.0
 10
116.1004068720165
 20
-151.3168619413374
 30
0.0
 10
116.1004068720165
 20
-151.3551025012237
 30
0.0
 10
116.0349500577968
 20
-151.3551025012237
 30
0.0
 10
116.0160020326279
 20
-151.3551025012237
 30
0.0
 10
116.0053222366236
 20
-151.3740505263926
 30
0.0
 10
115.9818955873239
 20
-151.41435814357
 30
0.0
 10
115.9522677661508
 20
-151.4543212511989
 30
0.0
 10
116.3522433519883
 20
-151.4481200793254
 30
0.0
 10
116.3818711731614
 20
-151.4460530220343
 30
0.0
 10
116.4580077833855
 20
-151.4395073406123
 30
0.0
 10
116.4580077833855
 20
-151.4395073406123
 30
0.0
 10
116.4580077833855
 20
-151.6214083822335
 30
0.0
 10
116.4580077833855
 20
-151.6214083822335
 30
0.0
 10
116.4390597582166
 20
-151.6214083822335
 30
0.0
 10
116.4135660516258
 20
-151.6193413249424
 30
0.0
 10
116.1934244501183
 20
-151.6110730957778
 30
0.0
 10
116.1427815464851
 20
-151.6090060384866
 30
0.0
 10
115.9226399449776
 20
-151.6045274143558
 30
0.0
 10
115.8781982132179
 20
-151.6045274143558
 30
0.0
 10
115.8781982132179
 20
-151.6045274143558
 30
0.0
 10
115.6625352358413
 20
-151.6045274143558
 30
0.0
 10
115.6625352358413
 20
-151.6045274143558
 30
0.0
 10
115.6625352358413
 20
-151.6045274143558
 30
0.0
 10
115.6625352358413
 20
-151.7230386990484
 30
0.0
 10
115.6625352358413
 20
-151.7230386990484
 30
0.0
 10
115.6625352358413
 20
-151.7230386990484
 30
0.0
 10
115.8361680482979
 20
-151.7230386990484
 30
0.0
 10
115.8361680482979
 20
-151.7230386990484
 30
0.0
 10
115.9987765552017
 20
-151.7230386990484
 30
0.0
 10
116.189290335536
 20
-151.7230386990484
 30
0.0
 10
116.3460421801149
 20
-151.7127034125927
 30
0.0
 10
116.3460421801149
 20
-151.7127034125927
 30
0.0
 10
116.3460421801149
 20
-151.8839246582096
 30
0.0
 10
116.3460421801149
 20
-151.8839246582096
 30
0.0
 10
116.1365803746117
 20
-151.8753119194964
 30
0.0
 10
115.9398654224039
 20
-151.8732448622053
 30
0.0
 10
115.8361680482979
 20
-151.8732448622053
 30
0.0
 10
115.8361680482979
 20
-151.8732448622053
 30
0.0
 10
115.6625352358413
 20
-151.8732448622053
 30
0.0
 10
115.6625352358413
 20
-151.8732448622053
 30
0.0
 10
115.6625352358413
 20
-151.8732448622053
 30
0.0
 10
115.6625352358413
 20
-151.9810763508936
 30
0.0
 10
115.6625352358413
 20
-151.9810763508936
 30
0.0
 10
115.6625352358413
 20
-151.9810763508936
 30
0.0
 10
115.8930121238045
 20
-151.9810763508936
 30
0.0
 10
115.8930121238045
 20
-151.9810763508936
 30
0.0
 10
116.0263373190837
 20
-151.9810763508936
 30
0.0
 10
116.314002792102
 20
-151.9769422363113
 30
0.0
 10
116.5234645976052
 20
-151.9707410644379
 30
0.0
 10
116.5234645976052
 20
-151.9707410644379
 30
0.0
 10
116.5234645976052
 20
-152.1481634819282
 30
0.0
 10
116.5234645976052
 20
-152.1481634819282
 30
0.0
 10
116.3312282695283
 20
-152.1419623100548
 30
0.0
 10
116.0180690899191
 20
-152.1378281954725
 30
0.0
 10
115.8930121238045
 20
-152.1378281954725
 30
0.0
  0
HATCH
  5
194
330
188
100
AcDbEntity
  8
レイヤー 1
 62
    18
420
        0
440
 33554687
100
AcDbHatch
 10
0.0
 20
0.0
 30
0.0
210
0.0
220
0.0
230
1.0
  2
SOLID
 70
     1
 71
     1
 91
        4
 92
        1
 93
        1
 72
     4
 94
        3
 73
     0
 74
     0
 95
       17
 96
       13
 40
0.0
 40
0.0
 40
0.0
 40
0.0
 40
1.0
 40
1.0
 40
1.0
 40
2.0
 40
2.0
 40
2.0
 40
3.0
 40
3.0
 40
3.0
 40
4.0
 40
4.0
 40
4.0
 40
4.0
 10
116.058032197548
 20
-152.8695664765395
 10
116.058032197548
 20
-152.8695664765395
 10
115.3514431135232
 20
-152.8695664765395
 10
115.3514431135232
 20
-152.8695664765395
 10
115.3514431135232
 20
-152.8695664765395
 10
115.3514431135232
 20
-152.9839436466498
 10
115.3514431135232
 20
-152.9839436466498
 10
115.3514431135232
 20
-152.9839436466498
 10
116.058032197548
 20
-152.9839436466498
 10
116.058032197548
 20
-152.9839436466498
 10
116.058032197548
 20
-152.9839436466498
 10
116.058032197548
 20
-152.8695664765395
 10
116.058032197548
 20
-152.8695664765395
 97
        0
 97
        1
330
190
 92
        1
 93
        1
 72
     4
 94
        3
 73
     0
 74
     0
 95
       17
 96
       13
 40
0.0
 40
0.0
 40
0.0
 40
0.0
 40
1.0
 40
1.0
 40
1.0
 40
2.0
 40
2.0
 40
2.0
 40
3.0
 40
3.0
 40
3.0
 40
4.0
 40
4.0
 40
4.0
 40
4.0
 10
116.058032197548
 20
-152.6263427352809
 10
116.058032197548
 20
-152.6263427352809
 10
115.3514431135232
 20
-152.6263427352809
 10
115.3514431135232
 20
-152.6263427352809
 10
115.3514431135232
 20
-152.6263427352809
 10
115.3514431135232
 20
-152.7407199053912
 10
115.3514431135232
 20
-152.7407199053912
 10
115.3514431135232
 20
-152.7407199053912
 10
116.058032197548
 20
-152.7407199053912
 10
116.058032197548
 20
-152.7407199053912
 10
116.058032197548
 20
-152.7407199053912
 10
116.058032197548
 20
-152.6263427352809
 10
116.058032197548
 20
-152.6263427352809
 97
        0
 97
        1
330
191
 92
        1
 93
        1
 72
     4
 94
        3
 73
     0
 74
     0
 95
       17
 96
       13
 40
0.0
 40
0.0
 40
0.0
 40
0.0
 40
1.0
 40
1.0
 40
1.0
 40
2.0
 40
2.0
 40
2.0
 40
3.0
 40
3.0
 40
3.0
 40
4.0
 40
4.0
 40
4.0
 40
4.0
 10
116.058032197548
 20
-152.3937987900265
 10
116.058032197548
 20
-152.3937987900265
 10
115.3514431135232
 20
-152.3937987900265
 10
115.3514431135232
 20
-152.3937987900265
 10
115.3514431135232
 20
-152.3937987900265
 10
115.3514431135232
 20
-152.5016302787149
 10
115.3514431135232
 20
-152.5016302787149
 10
115.3514431135232
 20
-152.5016302787149
 10
116.058032197548
 20
-152.5016302787149
 10
116.058032197548
 20
-152.5016302787149
 10
116.058032197548
 20
-152.5016302787149
 10
116.058032197548
 20
-152.3937987900265
 10
116.058032197548
 20
-152.3937987900265
 97
        0
 97
        1
330
192
 92
        1
 93
        1
 72
     4
 94
        3
 73
     0
 74
     0
 95
      203
 96
      199
 40
0.0
 40
0.0
 40
0.0
 40
0.0
 40
1.0
 40
1.0
 40
1.0
 40
2.0
 40
2.0
 40
2.0
 40
3.0
 40
3.0
 40
3.0
 40
4.0
 40
4.0
 40
4.0
 40
5.0
 40
5.0
 40
5.0
 40
6.0
 40
6.0
 40
6.0
 40
7.0
 40
7.0
 40
7.0
 40
8.0
 40
8.0
 40
8.0
 40
9.0
 40
9.0
 40
9.0
 40
10.0
 40
10.0
 40
10.0
 40
11.0
 40
11.0
 40
11.0
 40
12.0
 40
12.0
 40
12.0
 40
13.0
 40
13.0
 40
13.0
 40
14.0
 40
14.0
 40
14.0
 40
15.0
 40
15.0
 40
15.0
 40
16.0
 40
16.0
 40
16.0
 40
17.0
 40
17.0
 40
17.0
 40
18.0
 40
18.0
 40
18.0
 40
19.0
 40
19.0
 40
19.0
 40
20.0
 40
20.0
 40
20.0
 40
21.0
 40
21.0
 40
21.0
 40
22.0
 40
22.0
 40
22.0
 40
23.0
 40
23.0
 40
23.0
 40
24.0
 40
24.0
 40
24.0
 40
25.0
 40
25.0
 40
25.0
 40
26.0
 40
26.0
 40
26.0
 40
27.0
 40
27.0
 40
27.0
 40
28.0
 40
28.0
 40
28.0
 40
29.0
 40
29.0
 40
29.0
 40
30.0
 40
30.0
 40
30.0
 40
31.0
 40
31.0
 40
31.0
 40
32.0
 40
32.0
 40
32.0
 40
33.0
 40
33.0
 40
33.0
 40
34.0
 40
34.0
 40
34.0
 40
35.0
 40
35.0
 40
35.0
 40
36.0
 40
36.0
 40
36.0
 40
37.0
 40
37.0
 40
37.0
 40
38.0
 40
38.0
 40
38.0
 40
39.0
 40
39.0
 40
39.0
 40
40.0
 40
40.0
 40
40.0
 40
41.0
 40
41.0
 40
41.0
 40
42.0
 40
42.0
 40
42.0
 40
43.0
 40
43.0
 40
43.0
 40
44.0
 40
44.0
 40
44.0
 40
45.0
 40
45.0
 40
45.0
 40
46.0
 40
46.0
 40
46.0
 40
47.0
 40
47.0
 40
47.0
 40
48.0
 40
48.0
 40
48.0
 40
49.0
 40
49.0
 40
49.0
 40
50.0
 40
50.0
 40
50.0
 40
51.0
 40
51.0
 40
51.0
 40
52.0
 40
52.0
 40
52.0
 40
53.0
 40
53.0
 40
53.0
 40
54.0
 40
54.0
 40
54.0
 40
55.0
 40
55.0
 40
55.0
 40
56.0
 40
56.0
 40
56.0
 40
57.0
 40
57.0
 40
57.0
 40
58.0
 40
58.0
 40
58.0
 40
59.0
 40
59.0
 40
59.0
 40
60.0
 40
60.0
 40
60.0
 40
61.0
 40
61.0
 40
61.0
 40
62.0
 40
62.0
 40
62.0
 40
63.0
 40
63.0
 40
63.0
 40
64.0
 40
64.0
 40
64.0
 40
65.0
 40
65.0
 40
65.0
 40
66.0
 40
66.0
 40
66.0
 40
66.0
 10
115.8930121238045
 20
-152.1378281954725
 10
115.8930121238045
 20
-152.1378281954725
 10
115.3345621456455
 20
-152.1378281954725
 10
115.3345621456455
 20
-152.1378281954725
 10
115.3242268591897
 20
-152.1822699272322
 10
115.3156141204766
 20
-152.2139648056965
 10
115.3028672671812
 20
-152.2518608560342
 10
115.3283609737721
 20
-152.2518608560342
 10
115.3431748843586
 20
-152.2542724228739
 10
115.3493760562321
 20
-152.2542724228739
 10
115.3493760562321
 20
-152.2542724228739
 10
115.5378227792752
 20
-152.2542724228739
 10
115.5378227792752
 20
-152.2542724228739
 10
115.5378227792752
 20
-152.2542724228739
 10
115.9123046585219
 20
-152.2542724228739
 10
115.9123046585219
 20
-152.2542724228739
 10
115.9629475621551
 20
-152.2542724228739
 10
116.2464789205911
 20
-152.2415255695785
 10
116.2781737990554
 20
-152.2415255695785
 10
116.2761067417643
 20
-152.2690863334605
 10
116.2740396844731
 20
-152.2880343586294
 10
116.2740396844731
 20
-152.3176621798025
 10
116.271972627182
 20
-152.3493570582668
 10
116.271972627182
 20
-152.4847493108371
 10
116.271972627182
 20
-152.5123100747191
 10
116.271972627182
 20
-152.5123100747191
 10
116.271972627182
 20
-152.7576008732689
 10
116.271972627182
 20
-152.7576008732689
 10
116.271972627182
 20
-152.8020426050287
 10
116.2761067417643
 20
-152.9987575572364
 10
116.2802408563466
 20
-153.1510307776845
 10
116.2802408563466
 20
-153.1510307776845
 10
116.0538980829657
 20
-153.1510307776845
 10
116.0538980829657
 20
-153.1510307776845
 10
116.0538980829657
 20
-153.1510307776845
 10
116.0559651402568
 20
-153.117268841929
 10
116.0559651402568
 20
-153.117268841929
 10
116.0559651402568
 20
-153.117268841929
 10
115.3538546803629
 20
-153.117268841929
 10
115.3538546803629
 20
-153.117268841929
 10
115.3538546803629
 20
-153.117268841929
 10
115.3559217376541
 20
-153.1510307776845
 10
115.3559217376541
 20
-153.1510307776845
 10
115.3559217376541
 20
-153.1510307776845
 10
115.1378471934377
 20
-153.1510307776845
 10
115.1378471934377
 20
-153.1510307776845
 10
115.14198130802
 20
-153.0959092499205
 10
115.14198130802
 20
-153.0835069061735
 10
115.148526989442
 20
-152.9691297360633
 10
115.1505940467332
 20
-152.9415689721813
 10
115.1526611040243
 20
-152.8082437769021
 10
115.1526611040243
 20
-152.7892957517332
 10
115.1526611040243
 20
-152.7892957517332
 10
115.1526611040243
 20
-152.586379627652
 10
115.1526611040243
 20
-152.586379627652
 10
115.0131347368717
 20
-152.8358045407841
 10
114.8439805485459
 20
-152.9670626787721
 10
114.7382161171488
 20
-153.0325194929918
 10
114.7382161171488
 20
-153.0325194929918
 10
114.5645833046922
 20
-152.8929931258393
 10
114.5645833046922
 20
-152.8929931258393
 10
114.6534667682116
 20
-152.8423502222061
 10
114.7974717594951
 20
-152.7555338159778
 10
114.9349310693565
 20
-152.5608859210612
 10
115.0258815901671
 20
-152.4337618976554
 10
115.0913384043869
 20
-152.2901014159205
 10
115.1251003401423
 20
-152.1378281954725
 10
114.8966905094702
 20
-152.1398952527636
 10
114.7168565251402
 20
-152.1460964246371
 10
114.6217718897473
 20
-152.1481634819282
 10
114.6217718897473
 20
-152.1481634819282
 10
114.6217718897473
 20
-151.9707410644379
 10
114.6217718897473
 20
-151.9707410644379
 10
114.8184868419551
 20
-151.9769422363113
 10
115.1020182003911
 20
-151.9810763508936
 10
115.252224363548
 20
-151.9810763508936
 10
115.252224363548
 20
-151.9810763508936
 10
115.4658202836335
 20
-151.9810763508936
 10
115.4658202836335
 20
-151.9810763508936
 10
115.4658202836335
 20
-151.9810763508936
 10
115.4658202836335
 20
-151.8732448622053
 10
115.4658202836335
 20
-151.8732448622053
 10
115.4658202836335
 20
-151.8732448622053
 10
115.3197482350589
 20
-151.8732448622053
 10
115.3197482350589
 20
-151.8732448622053
 10
115.1505940467332
 20
-151.8732448622053
 10
114.9814398584074
 20
-151.8773789767876
 10
114.8143527273728
 20
-151.8839246582096
 10
114.8143527273728
 20
-151.8839246582096
 10
114.8143527273728
 20
-151.7127034125927
 10
114.8143527273728
 20
-151.7127034125927
 10
114.968693005112
 20
-151.7230386990484
 10
115.1547281613155
 20
-151.7230386990484
 10
115.3197482350589
 20
-151.7230386990484
 10
115.3197482350589
 20
-151.7230386990484
 10
115.4658202836335
 20
-151.7230386990484
 10
115.4658202836335
 20
-151.7230386990484
 10
115.4658202836335
 20
-151.7230386990484
 10
115.4658202836335
 20
-151.6045274143558
 10
115.4658202836335
 20
-151.6045274143558
 10
115.4658202836335
 20
-151.6045274143558
 10
115.3345621456455
 20
-151.6045274143558
 10
115.3345621456455
 20
-151.6045274143558
 10
115.2880533565946
 20
-151.6045274143558
 10
115.0851372325134
 20
-151.6131401530689
 10
115.0427625580448
 20
-151.6131401530689
 10
114.8395019244151
 20
-151.6172742676512
 10
114.7633653141911
 20
-151.6193413249424
 10
114.6851616466759
 20
-151.6214083822335
 10
114.6851616466759
 20
-151.6214083822335
 10
114.6851616466759
 20
-151.4374402833212
 10
114.6851616466759
 20
-151.4374402833212
 10
114.7995388167862
 20
-151.4460530220343
 10
114.8439805485459
 20
-151.4460530220343
 10
115.2267306569572
 20
-151.4543212511989
 10
115.1633409000286
 20
-151.359236615806
 10
115.1357801361466
 20
-151.331675851924
 10
115.0999511431
 20
-151.2958468588774
 10
115.0999511431
 20
-151.2958468588774
 10
115.2753065032992
 20
-151.2131645672314
 10
115.2753065032992
 20
-151.2131645672314
 10
115.3156141204766
 20
-151.2493380698265
 10
115.3600558522364
 20
-151.2917127442951
 10
115.4341254051692
 20
-151.4016112902746
 10
115.4341254051692
 20
-151.4016112902746
 10
115.3197482350589
 20
-151.4567328180386
 10
115.3197482350589
 20
-151.4567328180386
 10
115.3197482350589
 20
-151.4567328180386
 10
115.3304280310632
 20
-151.4567328180386
 10
115.3304280310632
 20
-151.4567328180386
 10
115.3304280310632
 20
-151.4567328180386
 10
115.8530490161756
 20
-151.4567328180386
 10
115.8530490161756
 20
-151.4567328180386
 10
115.8530490161756
 20
-151.4567328180386
 10
115.7576198712342
 20
-151.4122910862789
 10
115.7576198712342
 20
-151.4122910862789
 10
115.7851806351162
 20
-151.3740505263926
 10
115.8423692201713
 20
-151.2937798015863
 10
115.8571831307579
 20
-151.2197102486534
 10
115.8571831307579
 20
-151.2197102486534
 10
116.0707790508434
 20
-151.283100005582
 10
116.0707790508434
 20
-151.283100005582
 10
116.0793917895565
 20
-151.2851670628732
 10
116.1004068720165
 20
-151.2958468588774
 10
116.1004068720165
 20
-151.3168619413374
 10
116.1004068720165
 20
-151.3551025012237
 10
116.0349500577968
 20
-151.3551025012237
 10
116.0160020326279
 20
-151.3551025012237
 10
116.0053222366236
 20
-151.3740505263926
 10
115.9818955873239
 20
-151.41435814357
 10
115.9522677661508
 20
-151.4543212511989
 10
116.3522433519883
 20
-151.4481200793254
 10
116.3818711731614
 20
-151.4460530220343
 10
116.4580077833855
 20
-151.4395073406123
 10
116.4580077833855
 20
-151.4395073406123
 10
116.4580077833855
 20
-151.6214083822335
 10
116.4580077833855
 20
-151.6214083822335
 10
116.4390597582166
 20
-151.6214083822335
 10
116.4135660516258
 20
-151.6193413249424
 10
116.1934244501183
 20
-151.6110730957778
 10
116.1427815464851
 20
-151.6090060384866
 10
115.9226399449776
 20
-151.6045274143558
 10
115.8781982132179
 20
-151.6045274143558
 10
115.8781982132179
 20
-151.6045274143558
 10
115.6625352358413
 20
-151.6045274143558
 10
115.6625352358413
 20
-151.6045274143558
 10
115.6625352358413
 20
-151.6045274143558
 10
115.6625352358413
 20
-151.7230386990484
 10
115.6625352358413
 20
-151.7230386990484
 10
115.6625352358413
 20
-151.7230386990484
 10
115.8361680482979
 20
-151.7230386990484
 10
115.8361680482979
 20
-151.7230386990484
 10
115.9987765552017
 20
-151.7230386990484
 10
116.189290335536
 20
-151.7230386990484
 10
116.3460421801149
 20
-151.7127034125927
 10
116.3460421801149
 20
-151.7127034125927
 10
116.3460421801149
 20
-151.8839246582096
 10
116.3460421801149
 20
-151.8839246582096
 10
116.1365803746117
 20
-151.8753119194964
 10
115.9398654224039
 20
-151.8732448622053
 10
115.8361680482979
 20
-151.8732448622053
 10
115.8361680482979
 20
-151.8732448622053
 10
115.6625352358413
 20
-151.8732448622053
 10
115.6625352358413
 20
-151.8732448622053
 10
115.6625352358413
 20
-151.8732448622053
 10
115.6625352358413
 20
-151.9810763508936
 10
115.6625352358413
 20
-151.9810763508936
 10
115.6625352358413
 20
-151.9810763508936
 10
115.8930121238045
 20
-151.9810763508936
 10
115.8930121238045
 20
-151.9810763508936
 10
116.0263373190837
 20
-151.9810763508936
 10
116.314002792102
 20
-151.9769422363113
 10
116.5234645976052
 20
-151.9707410644379
 10
116.5234645976052
 20
-151.9707410644379
 10
116.5234645976052
 20
-152.1481634819282
 10
116.5234645976052
 20
-152.1481634819282
 10
116.3312282695283
 20
-152.1419623100548
 10
116.0180690899191
 20
-152.1378281954725
 10
115.8930121238045
 20
-152.1378281954725
 97
        0
 97
        1
330
193
 75
     2
 76
     1
 98
        1
 10
0.0
 20
0.0
450
        0
451
        0
460
0.0
461
0.0
452
        0
462
0.0
453
        0
470

  0
SPLINE
  5
195
330
188
100
AcDbEntity
  8
レイヤー 1
100
AcDbSpline
210
0.0
220
0.0
230
1.0
 70
     9
 71
     3
 72
    29
 73
    25
 74
     0
 42
0.0000000001
 43
0.0000000001
 40
0.0
 40
0.0
 40
0.0
 40
0.0
 40
1.0
 40
1.0
 40
1.0
 40
2.0
 40
2.0
 40
2.0
 40
3.0
 40
3.0
 40
3.0
 40
4.0
 40
4.0
 40
4.0
 40
5.0
 40
5.0
 40
5.0
 40
6.0
 40
6.0
 40
6.0
 40
7.0
 40
7.0
 40
7.0
 40
8.0
 40
8.0
 40
8.0
 40
8.0
 10
117.7685221059745
 20
-151.5855793891869
 30
0.0
 10
117.7685221059745
 20
-151.5855793891869
 30
0.0
 10
117.4153998187364
 20
-151.5855793891869
 30
0.0
 10
117.4153998187364
 20
-151.5855793891869
 30
0.0
 10
117.3030897059173
 20
-151.5855793891869
 30
0.0
 10
117.1635633387646
 20
-151.5917805610604
 30
0.0
 10
117.0557318500763
 20
-151.6045274143558
 30
0.0
 10
117.0557318500763
 20
-151.6045274143558
 30
0.0
 10
117.0557318500763
 20
-151.3699164118103
 30
0.0
 10
117.0557318500763
 20
-151.3699164118103
 30
0.0
 10
117.1742431347689
 20
-151.3847303223968
 30
0.0
 10
117.3582112336813
 20
-151.3888644369792
 30
0.0
 10
117.4153998187364
 20
-151.3888644369792
 30
0.0
 10
117.4153998187364
 20
-151.3888644369792
 30
0.0
 10
117.7685221059745
 20
-151.3888644369792
 30
0.0
 10
117.7685221059745
 20
-151.3888644369792
 30
0.0
 10
117.7878146406919
 20
-151.3888644369792
 30
0.0
 10
117.9907307647731
 20
-151.3888644369792
 30
0.0
 10
118.1323241892169
 20
-151.3699164118103
 30
0.0
 10
118.1323241892169
 20
-151.3699164118103
 30
0.0
 10
118.1323241892169
 20
-151.6045274143558
 30
0.0
 10
118.1323241892169
 20
-151.6045274143558
 30
0.0
 10
117.9759168541866
 20
-151.5855793891869
 30
0.0
 10
117.7854030738522
 20
-151.5855793891869
 30
0.0
 10
117.7685221059745
 20
-151.5855793891869
 30
0.0
  0
SPLINE
  5
196
330
188
100
AcDbEntity
  8
レイヤー 1
100
AcDbSpline
210
0.0
220
0.0
230
1.0
 70
     9
 71
     3
 72
    47
 73
    43
 74
     0
 42
0.0000000001
 43
0.0000000001
 40
0.0
 40
0.0
 40
0.0
 40
0.0
 40
1.0
 40
1.0
 40
1.0
 40
2.0
 40
2.0
 40
2.0
 40
3.0
 40
3.0
 40
3.0
 40
4.0
 40
4.0
 40
4.0
 40
5.0
 40
5.0
 40
5.0
 40
6.0
 40
6.0
 40
6.0
 40
7.0
 40
7.0
 40
7.0
 40
8.0
 40
8.0
 40
8.0
 40
9.0
 40
9.0
 40
9.0
 40
10.0
 40
10.0
 40
10.0
 40
11.0
 40
11.0
 40
11.0
 40
12.0
 40
12.0
 40
12.0
 40
13.0
 40
13.0
 40
13.0
 40
14.0
 40
14.0
 40
14.0
 40
14.0
 10
117.8701524227894
 20
-152.1144015461728
 30
0.0
 10
117.8701524227894
 20
-152.1144015461728
 30
0.0
 10
117.7685221059745
 20
-152.1144015461728
 30
0.0
 10
117.7685221059745
 20
-152.1144015461728
 30
0.0
 10
117.7685221059745
 20
-152.2012179524011
 30
0.0
 10
117.7475070235145
 20
-152.5905137422343
 30
0.0
 10
117.5507920713067
 20
-152.8106553437418
 30
0.0
 10
117.3985188508587
 20
-152.9798095320675
 30
0.0
 10
117.1911241026466
 20
-153.0494004608696
 30
0.0
 10
117.1063747537095
 20
-153.0769612247516
 30
0.0
 10
117.1063747537095
 20
-153.0769612247516
 30
0.0
 10
116.9117268587929
 20
-152.909874093717
 30
0.0
 10
116.9117268587929
 20
-152.909874093717
 30
0.0
 10
117.0092230610255
 20
-152.8971272404215
 30
0.0
 10
117.1845784212247
 20
-152.8740451006703
 30
0.0
 10
117.3730251442678
 20
-152.6855983776272
 30
0.0
 10
117.4470946972007
 20
-152.6135958819855
 30
0.0
 10
117.5507920713067
 20
-152.4740695148329
 30
0.0
 10
117.5507920713067
 20
-152.1144015461728
 30
0.0
 10
117.5507920713067
 20
-152.1144015461728
 30
0.0
 10
117.319970673795
 20
-152.1144015461728
 30
0.0
 10
117.319970673795
 20
-152.1144015461728
 30
0.0
 10
117.1339355175915
 20
-152.1144015461728
 30
0.0
 10
116.947900361388
 20
-152.1188801703036
 30
0.0
 10
116.761520695636
 20
-152.1333495713417
 30
0.0
 10
116.761520695636
 20
-152.1333495713417
 30
0.0
 10
116.761520695636
 20
-151.9135524793827
 30
0.0
 10
116.761520695636
 20
-151.9135524793827
 30
0.0
 10
116.9499674186792
 20
-151.9283663899693
 30
0.0
 10
117.2355658344064
 20
-151.9325005045516
 30
0.0
 10
117.319970673795
 20
-151.9325005045516
 30
0.0
 10
117.319970673795
 20
-151.9325005045516
 30
0.0
 10
117.8701524227894
 20
-151.9325005045516
 30
0.0
 10
117.8701524227894
 20
-151.9325005045516
 30
0.0
 10
117.8891004479583
 20
-151.9325005045516
 30
0.0
 10
118.2063937421498
 20
-151.9325005045516
 30
0.0
 10
118.4351480823704
 20
-151.9135524793827
 30
0.0
 10
118.4351480823704
 20
-151.9135524793827
 30
0.0
 10
118.4351480823704
 20
-152.1333495713417
 30
0.0
 10
118.4351480823704
 20
-152.1333495713417
 30
0.0
 10
118.2467013593272
 20
-152.1188801703036
 30
0.0
 10
118.0585991458325
 20
-152.1144015461728
 30
0.0
 10
117.8701524227894
 20
-152.1144015461728
 30
0.0
  0
HATCH
  5
197
330
188
100
AcDbEntity
  8
レイヤー 1
 62
    18
420
        0
440
 33554687
100
AcDbHatch
 10
0.0
 20
0.0
 30
0.0
210
0.0
220
0.0
230
1.0
  2
SOLID
 70
     1
 71
     1
 91
        2
 92
        1
 93
        1
 72
     4
 94
        3
 73
     0
 74
     0
 95
       29
 96
       25
 40
0.0
 40
0.0
 40
0.0
 40
0.0
 40
1.0
 40
1.0
 40
1.0
 40
2.0
 40
2.0
 40
2.0
 40
3.0
 40
3.0
 40
3.0
 40
4.0
 40
4.0
 40
4.0
 40
5.0
 40
5.0
 40
5.0
 40
6.0
 40
6.0
 40
6.0
 40
7.0
 40
7.0
 40
7.0
 40
8.0
 40
8.0
 40
8.0
 40
8.0
 10
117.7685221059745
 20
-151.5855793891869
 10
117.7685221059745
 20
-151.5855793891869
 10
117.4153998187364
 20
-151.5855793891869
 10
117.4153998187364
 20
-151.5855793891869
 10
117.3030897059173
 20
-151.5855793891869
 10
117.1635633387646
 20
-151.5917805610604
 10
117.0557318500763
 20
-151.6045274143558
 10
117.0557318500763
 20
-151.6045274143558
 10
117.0557318500763
 20
-151.3699164118103
 10
117.0557318500763
 20
-151.3699164118103
 10
117.1742431347689
 20
-151.3847303223968
 10
117.3582112336813
 20
-151.3888644369792
 10
117.4153998187364
 20
-151.3888644369792
 10
117.4153998187364
 20
-151.3888644369792
 10
117.7685221059745
 20
-151.3888644369792
 10
117.7685221059745
 20
-151.3888644369792
 10
117.7878146406919
 20
-151.3888644369792
 10
117.9907307647731
 20
-151.3888644369792
 10
118.1323241892169
 20
-151.3699164118103
 10
118.1323241892169
 20
-151.3699164118103
 10
118.1323241892169
 20
-151.6045274143558
 10
118.1323241892169
 20
-151.6045274143558
 10
117.9759168541866
 20
-151.5855793891869
 10
117.7854030738522
 20
-151.5855793891869
 10
117.7685221059745
 20
-151.5855793891869
 97
        0
 97
        1
330
195
 92
        1
 93
        1
 72
     4
 94
        3
 73
     0
 74
     0
 95
       47
 96
       43
 40
0.0
 40
0.0
 40
0.0
 40
0.0
 40
1.0
 40
1.0
 40
1.0
 40
2.0
 40
2.0
 40
2.0
 40
3.0
 40
3.0
 40
3.0
 40
4.0
 40
4.0
 40
4.0
 40
5.0
 40
5.0
 40
5.0
 40
6.0
 40
6.0
 40
6.0
 40
7.0
 40
7.0
 40
7.0
 40
8.0
 40
8.0
 40
8.0
 40
9.0
 40
9.0
 40
9.0
 40
10.0
 40
10.0
 40
10.0
 40
11.0
 40
11.0
 40
11.0
 40
12.0
 40
12.0
 40
12.0
 40
13.0
 40
13.0
 40
13.0
 40
14.0
 40
14.0
 40
14.0
 40
14.0
 10
117.8701524227894
 20
-152.1144015461728
 10
117.8701524227894
 20
-152.1144015461728
 10
117.7685221059745
 20
-152.1144015461728
 10
117.7685221059745
 20
-152.1144015461728
 10
117.7685221059745
 20
-152.2012179524011
 10
117.7475070235145
 20
-152.5905137422343
 10
117.5507920713067
 20
-152.8106553437418
 10
117.3985188508587
 20
-152.9798095320675
 10
117.1911241026466
 20
-153.0494004608696
 10
117.1063747537095
 20
-153.0769612247516
 10
117.1063747537095
 20
-153.0769612247516
 10
116.9117268587929
 20
-152.909874093717
 10
116.9117268587929
 20
-152.909874093717
 10
117.0092230610255
 20
-152.8971272404215
 10
117.1845784212247
 20
-152.8740451006703
 10
117.3730251442678
 20
-152.6855983776272
 10
117.4470946972007
 20
-152.6135958819855
 10
117.5507920713067
 20
-152.4740695148329
 10
117.5507920713067
 20
-152.1144015461728
 10
117.5507920713067
 20
-152.1144015461728
 10
117.319970673795
 20
-152.1144015461728
 10
117.319970673795
 20
-152.1144015461728
 10
117.1339355175915
 20
-152.1144015461728
 10
116.947900361388
 20
-152.1188801703036
 10
116.761520695636
 20
-152.1333495713417
 10
116.761520695636
 20
-152.1333495713417
 10
116.761520695636
 20
-151.9135524793827
 10
116.761520695636
 20
-151.9135524793827
 10
116.9499674186792
 20
-151.9283663899693
 10
117.2355658344064
 20
-151.9325005045516
 10
117.319970673795
 20
-151.9325005045516
 10
117.319970673795
 20
-151.9325005045516
 10
117.8701524227894
 20
-151.9325005045516
 10
117.8701524227894
 20
-151.9325005045516
 10
117.8891004479583
 20
-151.9325005045516
 10
118.2063937421498
 20
-151.9325005045516
 10
118.4351480823704
 20
-151.9135524793827
 10
118.4351480823704
 20
-151.9135524793827
 10
118.4351480823704
 20
-152.1333495713417
 10
118.4351480823704
 20
-152.1333495713417
 10
118.2467013593272
 20
-152.1188801703036
 10
118.0585991458325
 20
-152.1144015461728
 10
117.8701524227894
 20
-152.1144015461728
 97
        0
 97
        1
330
196
 75
     2
 76
     1
 98
        1
 10
0.0
 20
0.0
450
        0
451
        0
460
0.0
461
0.0
452
        0
462
0.0
453
        0
470

  0
SPLINE
  5
198
330
188
100
AcDbEntity
  8
レイヤー 1
100
AcDbSpline
210
0.0
220
0.0
230
1.0
 70
     9
 71
     3
 72
    29
 73
    25
 74
     0
 42
0.0000000001
 43
0.0000000001
 40
0.0
 40
0.0
 40
0.0
 40
0.0
 40
1.0
 40
1.0
 40
1.0
 40
2.0
 40
2.0
 40
2.0
 40
3.0
 40
3.0
 40
3.0
 40
4.0
 40
4.0
 40
4.0
 40
5.0
 40
5.0
 40
5.0
 40
6.0
 40
6.0
 40
6.0
 40
7.0
 40
7.0
 40
7.0
 40
8.0
 40
8.0
 40
8.0
 40
8.0
 10
119.7160345837863
 20
-152.2773545626251
 30
0.0
 10
119.7160345837863
 20
-152.2773545626251
 30
0.0
 10
119.2316541585601
 20
-152.2773545626251
 30
0.0
 10
119.2316541585601
 20
-152.2773545626251
 30
0.0
 10
119.2040933946781
 20
-152.2773545626251
 30
0.0
 10
118.8868001004866
 20
-152.2773545626251
 30
0.0
 10
118.6752712376923
 20
-152.3028482692159
 30
0.0
 10
118.6752712376923
 20
-152.3028482692159
 30
0.0
 10
118.6752712376923
 20
-152.0720268717042
 30
0.0
 10
118.6752712376923
 20
-152.0720268717042
 30
0.0
 10
118.8337456300138
 20
-152.0954535210039
 30
0.0
 10
119.0242594103481
 20
-152.0975205782951
 30
0.0
 10
119.2316541585601
 20
-152.0975205782951
 30
0.0
 10
119.2316541585601
 20
-152.0975205782951
 30
0.0
 10
119.7160345837863
 20
-152.0975205782951
 30
0.0
 10
119.7160345837863
 20
-152.0975205782951
 30
0.0
 10
119.9020697399898
 20
-152.0975205782951
 30
0.0
 10
120.0881048961932
 20
-152.0954535210039
 30
0.0
 10
120.2724175046541
 20
-152.0720268717042
 30
0.0
 10
120.2724175046541
 20
-152.0720268717042
 30
0.0
 10
120.2724175046541
 20
-152.3028482692159
 30
0.0
 10
120.2724175046541
 20
-152.3028482692159
 30
0.0
 10
120.0881048961932
 20
-152.2794216199162
 30
0.0
 10
119.8407470403523
 20
-152.2773545626251
 30
0.0
 10
119.7160345837863
 20
-152.2773545626251
 30
0.0
  0
HATCH
  5
199
330
188
100
AcDbEntity
  8
レイヤー 1
 62
    18
420
        0
440
 33554687
100
AcDbHatch
 10
0.0
 20
0.0
 30
0.0
210
0.0
220
0.0
230
1.0
  2
SOLID
 70
     1
 71
     1
 91
        1
 92
        1
 93
        1
 72
     4
 94
        3
 73
     0
 74
     0
 95
       29
 96
       25
 40
0.0
 40
0.0
 40
0.0
 40
0.0
 40
1.0
 40
1.0
 40
1.0
 40
2.0
 40
2.0
 40
2.0
 40
3.0
 40
3.0
 40
3.0
 40
4.0
 40
4.0
 40
4.0
 40
5.0
 40
5.0
 40
5.0
 40
6.0
 40
6.0
 40
6.0
 40
7.0
 40
7.0
 40
7.0
 40
8.0
 40
8.0
 40
8.0
 40
8.0
 10
119.7160345837863
 20
-152.2773545626251
 10
119.7160345837863
 20
-152.2773545626251
 10
119.2316541585601
 20
-152.2773545626251
 10
119.2316541585601
 20
-152.2773545626251
 10
119.2040933946781
 20
-152.2773545626251
 10
118.8868001004866
 20
-152.2773545626251
 10
118.6752712376923
 20
-152.3028482692159
 10
118.6752712376923
 20
-152.3028482692159
 10
118.6752712376923
 20
-152.0720268717042
 10
118.6752712376923
 20
-152.0720268717042
 10
118.8337456300138
 20
-152.0954535210039
 10
119.0242594103481
 20
-152.0975205782951
 10
119.2316541585601
 20
-152.0975205782951
 10
119.2316541585601
 20
-152.0975205782951
 10
119.7160345837863
 20
-152.0975205782951
 10
119.7160345837863
 20
-152.0975205782951
 10
119.9020697399898
 20
-152.0975205782951
 10
120.0881048961932
 20
-152.0954535210039
 10
120.2724175046541
 20
-152.0720268717042
 10
120.2724175046541
 20
-152.0720268717042
 10
120.2724175046541
 20
-152.3028482692159
 10
120.2724175046541
 20
-152.3028482692159
 10
120.0881048961932
 20
-152.2794216199162
 10
119.8407470403523
 20
-152.2773545626251
 10
119.7160345837863
 20
-152.2773545626251
 97
        0
 97
        1
330
198
 75
     2
 76
     1
 98
        1
 10
0.0
 20
0.0
450
        0
451
        0
460
0.0
461
0.0
452
        0
462
0.0
453
        0
470

  0
SPLINE
  5
19A
330
188
100
AcDbEntity
  8
レイヤー 1
100
AcDbSpline
210
0.0
220
0.0
230
1.0
 70
     9
 71
     3
 72
    47
 73
    43
 74
     0
 42
0.0000000001
 43
0.0000000001
 40
0.0
 40
0.0
 40
0.0
 40
0.0
 40
1.0
 40
1.0
 40
1.0
 40
2.0
 40
2.0
 40
2.0
 40
3.0
 40
3.0
 40
3.0
 40
4.0
 40
4.0
 40
4.0
 40
5.0
 40
5.0
 40
5.0
 40
6.0
 40
6.0
 40
6.0
 40
7.0
 40
7.0
 40
7.0
 40
8.0
 40
8.0
 40
8.0
 40
9.0
 40
9.0
 40
9.0
 40
10.0
 40
10.0
 40
10.0
 40
11.0
 40
11.0
 40
11.0
 40
12.0
 40
12.0
 40
12.0
 40
13.0
 40
13.0
 40
13.0
 40
14.0
 40
14.0
 40
14.0
 40
14.0
 10
121.9360541144812
 20
-151.6830755914195
 30
0.0
 10
121.8661186761307
 20
-151.9621283257247
 30
0.0
 10
121.7899820659066
 20
-152.2666747666208
 30
0.0
 10
121.477167395846
 20
-152.5987819713989
 30
0.0
 10
121.2401448264608
 20
-152.8485513940795
 30
0.0
 10
120.994854027911
 20
-152.9481146536032
 30
0.0
 10
120.8890895965138
 20
-152.9901448185233
 30
0.0
 10
120.8890895965138
 20
-152.9901448185233
 30
0.0
 10
120.6944417015972
 20
-152.8082437769021
 30
0.0
 10
120.6944417015972
 20
-152.8082437769021
 30
0.0
 10
120.8804768578007
 20
-152.7617349878512
 30
0.0
 10
121.2422118837519
 20
-152.6687174097495
 30
0.0
 10
121.5384900954834
 20
-152.1736571885191
 30
0.0
 10
121.699031545096
 20
-151.9070067979607
 30
0.0
 10
121.7117783983915
 20
-151.7337184950527
 30
0.0
 10
121.7203911371046
 20
-151.6427679742421
 30
0.0
 10
121.7203911371046
 20
-151.6427679742421
 30
0.0
 10
121.2146511198699
 20
-151.6427679742421
 30
0.0
 10
121.2146511198699
 20
-151.6427679742421
 30
0.0
 10
121.0961398351773
 20
-151.6427679742421
 30
0.0
 10
120.6751491668798
 20
-151.661715999411
 30
0.0
 10
120.5228759464318
 20
-151.6723957954152
 30
0.0
 10
120.5228759464318
 20
-151.6723957954152
 30
0.0
 10
120.5228759464318
 20
-151.462933989912
 30
0.0
 10
120.5228759464318
 20
-151.462933989912
 30
0.0
 10
120.664813880424
 20
-151.4756808432075
 30
0.0
 10
120.9417995574382
 20
-151.4798149577898
 30
0.0
 10
121.0582437848396
 20
-151.4798149577898
 30
0.0
 10
121.0582437848396
 20
-151.4798149577898
 30
0.0
 10
121.4134331293688
 20
-151.4798149577898
 30
0.0
 10
121.4134331293688
 20
-151.4798149577898
 30
0.0
 10
121.4409938932508
 20
-151.4798149577898
 30
0.0
 10
121.601879852412
 20
-151.4777479004986
 30
0.0
 10
121.7117783983915
 20
-151.462933989912
 30
0.0
 10
121.7689669834466
 20
-151.4567328180386
 30
0.0
 10
121.7858479513243
 20
-151.4374402833212
 30
0.0
 10
121.809274600624
 20
-151.41435814357
 30
0.0
 10
121.809274600624
 20
-151.41435814357
 30
0.0
 10
121.9973768141187
 20
-151.5645643067269
 30
0.0
 10
121.9973768141187
 20
-151.5645643067269
 30
0.0
 10
121.9825629035321
 20
-151.5941921279001
 30
0.0
 10
121.9722276170764
 20
-151.6131401530689
 30
0.0
 10
121.9360541144812
 20
-151.6830755914195
 30
0.0
  0
HATCH
  5
19B
330
188
100
AcDbEntity
  8
レイヤー 1
 62
    18
420
        0
440
 33554687
100
AcDbHatch
 10
0.0
 20
0.0
 30
0.0
210
0.0
220
0.0
230
1.0
  2
SOLID
 70
     1
 71
     1
 91
        1
 92
        1
 93
        1
 72
     4
 94
        3
 73
     0
 74
     0
 95
       47
 96
       43
 40
0.0
 40
0.0
 40
0.0
 40
0.0
 40
1.0
 40
1.0
 40
1.0
 40
2.0
 40
2.0
 40
2.0
 40
3.0
 40
3.0
 40
3.0
 40
4.0
 40
4.0
 40
4.0
 40
5.0
 40
5.0
 40
5.0
 40
6.0
 40
6.0
 40
6.0
 40
7.0
 40
7.0
 40
7.0
 40
8.0
 40
8.0
 40
8.0
 40
9.0
 40
9.0
 40
9.0
 40
10.0
 40
10.0
 40
10.0
 40
11.0
 40
11.0
 40
11.0
 40
12.0
 40
12.0
 40
12.0
 40
13.0
 40
13.0
 40
13.0
 40
14.0
 40
14.0
 40
14.0
 40
14.0
 10
121.9360541144812
 20
-151.6830755914195
 10
121.8661186761307
 20
-151.9621283257247
 10
121.7899820659066
 20
-152.2666747666208
 10
121.477167395846
 20
-152.5987819713989
 10
121.2401448264608
 20
-152.8485513940795
 10
120.994854027911
 20
-152.9481146536032
 10
120.8890895965138
 20
-152.9901448185233
 10
120.8890895965138
 20
-152.9901448185233
 10
120.6944417015972
 20
-152.8082437769021
 10
120.6944417015972
 20
-152.8082437769021
 10
120.8804768578007
 20
-152.7617349878512
 10
121.2422118837519
 20
-152.6687174097495
 10
121.5384900954834
 20
-152.1736571885191
 10
121.699031545096
 20
-151.9070067979607
 10
121.7117783983915
 20
-151.7337184950527
 10
121.7203911371046
 20
-151.6427679742421
 10
121.7203911371046
 20
-151.6427679742421
 10
121.2146511198699
 20
-151.6427679742421
 10
121.2146511198699
 20
-151.6427679742421
 10
121.0961398351773
 20
-151.6427679742421
 10
120.6751491668798
 20
-151.661715999411
 10
120.5228759464318
 20
-151.6723957954152
 10
120.5228759464318
 20
-151.6723957954152
 10
120.5228759464318
 20
-151.462933989912
 10
120.5228759464318
 20
-151.462933989912
 10
120.664813880424
 20
-151.4756808432075
 10
120.9417995574382
 20
-151.4798149577898
 10
121.0582437848396
 20
-151.4798149577898
 10
121.0582437848396
 20
-151.4798149577898
 10
121.4134331293688
 20
-151.4798149577898
 10
121.4134331293688
 20
-151.4798149577898
 10
121.4409938932508
 20
-151.4798149577898
 10
121.601879852412
 20
-151.4777479004986
 10
121.7117783983915
 20
-151.462933989912
 10
121.7689669834466
 20
-151.4567328180386
 10
121.7858479513243
 20
-151.4374402833212
 10
121.809274600624
 20
-151.41435814357
 10
121.809274600624
 20
-151.41435814357
 10
121.9973768141187
 20
-151.5645643067269
 10
121.9973768141187
 20
-151.5645643067269
 10
121.9825629035321
 20
-151.5941921279001
 10
121.9722276170764
 20
-151.6131401530689
 10
121.9360541144812
 20
-151.6830755914195
 97
        0
 97
        1
330
19A
 75
     2
 76
     1
 98
        1
 10
0.0
 20
0.0
450
        0
451
        0
460
0.0
461
0.0
452
        0
462
0.0
453
        0
470

  0
SPLINE
  5
19C
330
188
100
AcDbEntity
  8
レイヤー 1
100
AcDbSpline
210
0.0
220
0.0
230
1.0
 70
    11
 71
     3
 72
    17
 73
    13
 74
     0
 42
0.0000000001
 43
0.0000000001
 40
0.0
 40
0.0
 40
0.0
 40
0.0
 40
1.0
 40
1.0
 40
1.0
 40
2.0
 40
2.0
 40
2.0
 40
3.0
 40
3.0
 40
3.0
 40
4.0
 40
4.0
 40
4.0
 40
4.0
 10
122.32638343296
 20
-151.4650010472032
 30
0.0
 10
122.32638343296
 20
-151.5242566895495
 30
0.0
 10
122.3728922220109
 20
-151.5707654786003
 30
0.0
 10
122.4321478643572
 20
-151.5707654786003
 30
0.0
 10
122.4914035067035
 20
-151.5707654786003
 30
0.0
 10
122.5399793530455
 20
-151.5242566895495
 30
0.0
 10
122.5399793530455
 20
-151.4650010472032
 30
0.0
 10
122.5399793530455
 20
-151.4057454048569
 30
0.0
 10
122.4914035067035
 20
-151.3571695585149
 30
0.0
 10
122.4321478643572
 20
-151.3571695585149
 30
0.0
 10
122.3728922220109
 20
-151.3571695585149
 30
0.0
 10
122.32638343296
 20
-151.4057454048569
 30
0.0
 10
122.32638343296
 20
-151.4650010472032
 30
0.0
  0
SPLINE
  5
19D
330
188
100
AcDbEntity
  8
レイヤー 1
100
AcDbSpline
210
0.0
220
0.0
230
1.0
 70
     9
 71
     3
 72
    17
 73
    13
 74
     0
 42
0.0000000001
 43
0.0000000001
 40
0.0
 40
0.0
 40
0.0
 40
0.0
 40
1.0
 40
1.0
 40
1.0
 40
2.0
 40
2.0
 40
2.0
 40
3.0
 40
3.0
 40
3.0
 40
4.0
 40
4.0
 40
4.0
 40
4.0
 10
122.6416096698604
 20
-151.4650010472032
 30
0.0
 10
122.6416096698604
 20
-151.5793782173135
 30
0.0
 10
122.5485920917587
 20
-151.6744628527064
 30
0.0
 10
122.4321478643572
 20
-151.6744628527064
 30
0.0
 10
122.3177706942469
 20
-151.6744628527064
 30
0.0
 10
122.222686058854
 20
-151.5793782173135
 30
0.0
 10
122.222686058854
 20
-151.4650010472032
 30
0.0
 10
122.222686058854
 20
-151.3485568198017
 30
0.0
 10
122.3177706942469
 20
-151.2555392417
 30
0.0
 10
122.4321478643572
 20
-151.2555392417
 30
0.0
 10
122.5465250344675
 20
-151.2555392417
 30
0.0
 10
122.6416096698604
 20
-151.3485568198017
 30
0.0
 10
122.6416096698604
 20
-151.4650010472032
 30
0.0
  0
HATCH
  5
19E
330
188
100
AcDbEntity
  8
レイヤー 1
 62
    18
420
        0
440
 33554687
100
AcDbHatch
 10
0.0
 20
0.0
 30
0.0
210
0.0
220
0.0
230
1.0
  2
SOLID
 70
     1
 71
     1
 91
        2
 92
        1
 93
        1
 72
     4
 94
        3
 73
     0
 74
     0
 95
       17
 96
       13
 40
0.0
 40
0.0
 40
0.0
 40
0.0
 40
1.0
 40
1.0
 40
1.0
 40
2.0
 40
2.0
 40
2.0
 40
3.0
 40
3.0
 40
3.0
 40
4.0
 40
4.0
 40
4.0
 40
4.0
 10
122.32638343296
 20
-151.4650010472032
 10
122.32638343296
 20
-151.5242566895495
 10
122.3728922220109
 20
-151.5707654786003
 10
122.4321478643572
 20
-151.5707654786003
 10
122.4914035067035
 20
-151.5707654786003
 10
122.5399793530455
 20
-151.5242566895495
 10
122.5399793530455
 20
-151.4650010472032
 10
122.5399793530455
 20
-151.4057454048569
 10
122.4914035067035
 20
-151.3571695585149
 10
122.4321478643572
 20
-151.3571695585149
 10
122.3728922220109
 20
-151.3571695585149
 10
122.32638343296
 20
-151.4057454048569
 10
122.32638343296
 20
-151.4650010472032
 97
        0
 97
        1
330
19C
 92
        1
 93
        1
 72
     4
 94
        3
 73
     0
 74
     0
 95
       17
 96
       13
 40
0.0
 40
0.0
 40
0.0
 40
0.0
 40
1.0
 40
1.0
 40
1.0
 40
2.0
 40
2.0
 40
2.0
 40
3.0
 40
3.0
 40
3.0
 40
4.0
 40
4.0
 40
4.0
 40
4.0
 10
122.6416096698604
 20
-151.4650010472032
 10
122.6416096698604
 20
-151.5793782173135
 10
122.5485920917587
 20
-151.6744628527064
 10
122.4321478643572
 20
-151.6744628527064
 10
122.3177706942469
 20
-151.6744628527064
 10
122.222686058854
 20
-151.5793782173135
 10
122.222686058854
 20
-151.4650010472032
 10
122.222686058854
 20
-151.3485568198017
 10
122.3177706942469
 20
-151.2555392417
 10
122.4321478643572
 20
-151.2555392417
 10
122.5465250344675
 20
-151.2555392417
 10
122.6416096698604
 20
-151.3485568198017
 10
122.6416096698604
 20
-151.4650010472032
 97
        0
 97
        1
330
19D
 75
     2
 76
     1
 98
        1
 10
0.0
 20
0.0
450
        0
451
        0
460
0.0
461
0.0
452
        0
462
0.0
453
        0
470

  0
ENDBLK
  5
18B
330
188
100
AcDbEntity
  8
0
100
AcDbBlockEnd
  0
ENDSEC
  0
SECTION
  2
ENTITIES
  0
INSERT
  5
7A
330
70
100
AcDbEntity
  8
レイヤー 1
100
AcDbBlockReference
  2
Block_0
 10
0.0
 20
0.0
 30
0.0
  0
LINE
  5
B3
330
70
100
AcDbEntity
  8
レイヤー 1
  6
AI-Linetype-0
 62
   154
420
    23468
370
    25
100
AcDbLine
 10
65.89919639302545
 20
-148.4085514680103
 30
0.0
 11
75.89928197123533
 21
-148.4085514680103
 31
0.0
  0
LINE
  5
B5
330
70
100
AcDbEntity
  8
レイヤー 1
  6
AI-Linetype-1
 62
   154
420
    23468
370
    25
100
AcDbLine
 10
107.4019133897588
 20
-148.4085514680103
 30
0.0
 11
117.9018850663266
 21
-148.4085514680103
 31
0.0
  0
LINE
  5
B7
330
70
100
AcDbEntity
  8
レイヤー 1
 62
   250
420
  2299925
370
    25
100
AcDbLine
 10
97.89998529883952
 20
-152.6577245225035
 30
0.0
 11
85.90003782720559
 21
-152.6577245225035
 31
0.0
  0
LINE
  5
B8
330
70
100
AcDbEntity
  8
レイヤー 1
 62
   250
420
  2299925
370
    25
100
AcDbLine
 10
65.89919639302545
 20
-147.1572839683231
 30
0.0
 11
65.89919639302545
 21
-147.6575228570868
 31
0.0
  0
LINE
  5
B9
330
70
100
AcDbEntity
  8
レイヤー 1
 62
   250
420
  2299925
370
    25
100
AcDbLine
 10
85.90003782720559
 20
-147.6575228570868
 30
0.0
 11
65.89919639302545
 21
-147.6575228570868
 31
0.0
  0
LINE
  5
BA
330
70
100
AcDbEntity
  8
レイヤー 1
 62
   250
420
  2299925
370
    25
100
AcDbLine
 10
65.89919639302545
 20
-147.1572839683231
 30
0.0
 11
66.41319360213451
 21
-147.5396950793385
 31
0.0
  0
LINE
  5
BB
330
70
100
AcDbEntity
  8
レイヤー 1
 62
   250
420
  2299925
370
    25
100
AcDbLine
 10
66.41319360213451
 20
-147.5396950793385
 30
0.0
 11
66.89826303420379
 21
-147.1221473016654
 31
0.0
  0
LINE
  5
BC
330
70
100
AcDbEntity
  8
レイヤー 1
 62
   250
420
  2299925
370
    25
100
AcDbLine
 10
67.41226024331286
 20
-147.5038881349034
 30
0.0
 11
67.8980352309197
 21
-147.0863403572296
 31
0.0
  0
LINE
  5
BD
330
70
100
AcDbEntity
  8
レイヤー 1
 62
   250
420
  2299925
370
    25
100
AcDbLine
 10
66.89826303420379
 20
-147.1221473016654
 30
0.0
 11
67.41226024331286
 21
-147.5038881349034
 31
0.0
  0
LINE
  5
BE
330
70
100
AcDbEntity
  8
レイヤー 1
 62
   250
420
  2299925
370
    25
100
AcDbLine
 10
67.8980352309197
 20
-147.0863403572296
 30
0.0
 11
68.41203244002876
 21
-147.4680459126898
 31
0.0
  0
LINE
  5
BF
330
70
100
AcDbEntity
  8
レイヤー 1
 62
   250
420
  2299925
370
    25
100
AcDbLine
 10
68.41203244002876
 20
-147.4680459126898
 30
0.0
 11
68.89710187209806
 21
-147.0504981350163
 31
0.0
  0
LINE
  5
C0
330
70
100
AcDbEntity
  8
レイヤー 1
 62
   250
420
  2299925
370
    25
100
AcDbLine
 10
68.89710187209806
 20
-147.0504981350163
 30
0.0
 11
69.41109908120712
 21
-147.4322036904766
 31
0.0
  0
LINE
  5
C1
330
70
100
AcDbEntity
  8
レイヤー 1
 62
   250
420
  2299925
370
    25
100
AcDbLine
 10
69.41109908120712
 20
-147.4322036904766
 30
0.0
 11
69.89616851327642
 21
-147.0146559128031
 31
0.0
  0
LINE
  5
C2
330
70
100
AcDbEntity
  8
レイヤー 1
 62
   250
420
  2299925
370
    25
100
AcDbLine
 10
69.89616851327642
 20
-147.0146559128031
 30
0.0
 11
70.41020100016236
 21
-147.3963967460412
 31
0.0
  0
LINE
  5
C3
330
70
100
AcDbEntity
  8
レイヤー 1
 62
   250
420
  2299925
370
    25
100
AcDbLine
 10
70.41020100016236
 20
-147.3963967460412
 30
0.0
 11
70.89594070999201
 21
-146.978848968368
 31
0.0
  0
LINE
  5
C4
330
70
100
AcDbEntity
  8
レイヤー 1
 62
   250
420
  2299925
370
    25
100
AcDbLine
 10
70.89594070999201
 20
-146.978848968368
 30
0.0
 11
71.40997319687826
 21
-147.3612600793831
 31
0.0
  0
LINE
  5
C5
330
70
100
AcDbEntity
  8
レイヤー 1
 62
   250
420
  2299925
370
    25
100
AcDbLine
 10
71.40997319687826
 20
-147.3612600793831
 30
0.0
 11
71.89504262894819
 21
-146.94371230171
 31
0.0
  0
LINE
  5
C6
330
70
100
AcDbEntity
  8
レイヤー 1
 62
   250
420
  2299925
370
    25
100
AcDbLine
 10
71.89504262894819
 20
-146.94371230171
 30
0.0
 11
72.40903983805662
 21
-147.3254178571699
 31
0.0
  0
LINE
  5
C7
330
70
100
AcDbEntity
  8
レイヤー 1
 62
   250
420
  2299925
370
    25
100
AcDbLine
 10
72.40903983805662
 20
-147.3254178571699
 30
0.0
 11
72.89477954788658
 21
-146.9078700794964
 31
0.0
  0
LINE
  5
C8
330
70
100
AcDbEntity
  8
レイヤー 1
 62
   250
420
  2299925
370
    25
100
AcDbLine
 10
73.40881203477252
 20
-147.2895756349566
 30
0.0
 11
73.89388146684182
 21
-146.8720278572831
 31
0.0
  0
LINE
  5
C9
330
70
100
AcDbEntity
  8
レイヤー 1
 62
   250
420
  2299925
370
    25
100
AcDbLine
 10
72.89477954788658
 20
-146.9078700794964
 30
0.0
 11
73.40881203477252
 21
-147.2895756349566
 31
0.0
  0
LINE
  5
CA
330
70
100
AcDbEntity
  8
レイヤー 1
 62
   250
420
  2299925
370
    25
100
AcDbLine
 10
73.89388146684182
 20
-146.8720278572831
 30
0.0
 11
74.40787867595055
 21
-147.2537686905212
 31
0.0
  0
LINE
  5
CB
330
70
100
AcDbEntity
  8
レイヤー 1
 62
   250
420
  2299925
370
    25
100
AcDbLine
 10
74.40787867595055
 20
-147.2537686905212
 30
0.0
 11
74.89365366355804
 21
-146.8362209128478
 31
0.0
  0
LINE
  5
CC
330
70
100
AcDbEntity
  8
レイヤー 1
 62
   250
420
  2299925
370
    25
100
AcDbLine
 10
75.40694531712922
 20
-147.217926468308
 30
0.0
 11
75.89272030473607
 21
-146.8003786906345
 31
0.0
  0
LINE
  5
CD
330
70
100
AcDbEntity
  8
レイヤー 1
 62
   250
420
  2299925
370
    25
100
AcDbLine
 10
74.89365366355804
 20
-146.8362209128478
 30
0.0
 11
75.40694531712922
 21
-147.217926468308
 31
0.0
  0
LINE
  5
CE
330
70
100
AcDbEntity
  8
レイヤー 1
 62
   250
420
  2299925
370
    25
100
AcDbLine
 10
76.40671751384513
 20
-147.1827898016499
 30
0.0
 11
76.89178694591443
 21
-146.7652420239768
 31
0.0
  0
LINE
  5
CF
330
70
100
AcDbEntity
  8
レイヤー 1
 62
   250
420
  2299925
370
    25
100
AcDbLine
 10
75.89272030473607
 20
-146.8003786906345
 30
0.0
 11
76.40671751384513
 21
-147.1827898016499
 31
0.0
  0
LINE
  5
D0
330
70
100
AcDbEntity
  8
レイヤー 1
 62
   250
420
  2299925
370
    25
100
AcDbLine
 10
76.89178694591443
 20
-146.7652420239768
 30
0.0
 11
77.40581943280037
 21
-147.1469475794367
 31
0.0
  0
LINE
  5
D1
330
70
100
AcDbEntity
  8
レイヤー 1
 62
   250
420
  2299925
370
    25
100
AcDbLine
 10
77.40581943280037
 20
-147.1469475794367
 30
0.0
 11
77.89155914263034
 21
-146.7294350795411
 31
0.0
  0
LINE
  5
D2
330
70
100
AcDbEntity
  8
レイヤー 1
 62
   250
420
  2299925
370
    25
100
AcDbLine
 10
77.89155914263034
 20
-146.7294350795411
 30
0.0
 11
78.40555635173941
 21
-147.1111406350016
 31
0.0
  0
LINE
  5
D3
330
70
100
AcDbEntity
  8
レイヤー 1
 62
   250
420
  2299925
370
    25
100
AcDbLine
 10
78.40555635173941
 20
-147.1111406350016
 30
0.0
 11
78.89062578380869
 21
-146.6935928573278
 31
0.0
  0
LINE
  5
D4
330
70
100
AcDbEntity
  8
レイヤー 1
 62
   250
420
  2299925
370
    25
100
AcDbLine
 10
78.89062578380869
 20
-146.6935928573278
 30
0.0
 11
79.40465827069463
 21
-147.0752984127884
 31
0.0
  0
LINE
  5
D5
330
70
100
AcDbEntity
  8
レイヤー 1
 62
   250
420
  2299925
370
    25
100
AcDbLine
 10
79.40465827069463
 20
-147.0752984127884
 30
0.0
 11
79.89039798052459
 21
-146.6577506351146
 31
0.0
  0
LINE
  5
D6
330
70
100
AcDbEntity
  8
レイヤー 1
 62
   250
420
  2299925
370
    25
100
AcDbLine
 10
79.89039798052459
 20
-146.6577506351146
 30
0.0
 11
80.40443046741053
 21
-147.0394914683526
 31
0.0
  0
LINE
  5
D7
330
70
100
AcDbEntity
  8
レイヤー 1
 62
   250
420
  2299925
370
    25
100
AcDbLine
 10
80.40443046741053
 20
-147.0394914683526
 30
0.0
 11
80.88949989947982
 21
-146.6219436906794
 31
0.0
  0
LINE
  5
D8
330
70
100
AcDbEntity
  8
レイヤー 1
 62
   250
420
  2299925
370
    25
100
AcDbLine
 10
80.88949989947982
 20
-146.6219436906794
 30
0.0
 11
81.4034971085889
 21
-147.0043195239167
 31
0.0
  0
LINE
  5
D9
330
70
100
AcDbEntity
  8
レイヤー 1
 62
   250
420
  2299925
370
    25
100
AcDbLine
 10
81.4034971085889
 20
-147.0043195239167
 30
0.0
 11
81.88856654065819
 21
-146.5868070240214
 31
0.0
  0
LINE
  5
DA
330
70
100
AcDbEntity
  8
レイヤー 1
 62
   250
420
  2299925
370
    25
100
AcDbLine
 10
81.88856654065819
 20
-146.5868070240214
 30
0.0
 11
82.40256374976725
 21
-146.9685125794813
 31
0.0
  0
LINE
  5
DB
330
70
100
AcDbEntity
  8
レイヤー 1
 62
   250
420
  2299925
370
    25
100
AcDbLine
 10
82.40256374976725
 20
-146.9685125794813
 30
0.0
 11
82.88833873737409
 21
-146.5509648018082
 31
0.0
  0
LINE
  5
DC
330
70
100
AcDbEntity
  8
レイヤー 1
 62
   250
420
  2299925
370
    25
100
AcDbLine
 10
82.88833873737409
 20
-146.5509648018082
 30
0.0
 11
83.40233594648315
 21
-146.9326703572681
 31
0.0
  0
LINE
  5
DD
330
70
100
AcDbEntity
  8
レイヤー 1
 62
   250
420
  2299925
370
    25
100
AcDbLine
 10
83.40233594648315
 20
-146.9326703572681
 30
0.0
 11
83.88740537855245
 21
-146.5151225795949
 31
0.0
  0
LINE
  5
DE
330
70
100
AcDbEntity
  8
レイヤー 1
 62
   250
420
  2299925
370
    25
100
AcDbLine
 10
83.88740537855245
 20
-146.5151225795949
 30
0.0
 11
84.40140258766119
 21
-146.8968634128327
 31
0.0
  0
LINE
  5
DF
330
70
100
AcDbEntity
  8
レイヤー 1
 62
   250
420
  2299925
370
    25
100
AcDbLine
 10
84.40140258766119
 20
-146.8968634128327
 30
0.0
 11
84.8864720197308
 21
-146.4793156351592
 31
0.0
  0
LINE
  5
E0
330
70
100
AcDbEntity
  8
レイヤー 1
 62
   250
420
  2299925
370
    25
100
AcDbLine
 10
84.8864720197308
 20
-146.4793156351592
 30
0.0
 11
85.40050450661674
 21
-146.8610211906194
 31
0.0
  0
LINE
  5
E1
330
70
100
AcDbEntity
  8
レイヤー 1
 62
   250
420
  2299925
370
    25
100
AcDbLine
 10
85.40050450661674
 20
-146.8610211906194
 30
0.0
 11
85.88624421644672
 21
-146.4434734129459
 31
0.0
  0
LINE
  5
E2
330
70
100
AcDbEntity
  8
レイヤー 1
 62
   250
420
  2299925
370
    25
100
AcDbLine
 10
85.9602767034416
 20
-146.3952486907358
 30
0.0
 11
86.90048030168251
 21
-146.3952486907358
 31
0.0
  0
LINE
  5
E3
330
70
100
AcDbEntity
  8
レイヤー 1
 62
   250
420
  2299925
370
    25
100
AcDbLine
 10
86.90048030168251
 20
-146.3952486907358
 30
0.0
 11
86.90048030168251
 21
-151.6572820227536
 31
0.0
  0
LINE
  5
E4
330
70
100
AcDbEntity
  8
レイヤー 1
 62
   250
420
  2299925
370
    25
100
AcDbLine
 10
85.90003782720559
 20
-147.6575228570868
 30
0.0
 11
85.90003782720559
 21
-152.6577245225035
 31
0.0
  0
LINE
  5
E5
330
70
100
AcDbEntity
  8
レイヤー 1
 62
   250
420
  2299925
370
    25
100
AcDbLine
 10
96.90021310212362
 20
-151.6572820227536
 30
0.0
 11
86.90048030168251
 21
-151.6572820227536
 31
0.0
  0
LINE
  5
E6
330
70
100
AcDbEntity
  8
レイヤー 1
 62
   250
420
  2299925
370
    25
100
AcDbLine
 10
107.9079730990703
 20
-146.8003786906345
 30
0.0
 11
107.3939758899613
 21
-147.1827898016499
 31
0.0
  0
LINE
  5
E7
330
70
100
AcDbEntity
  8
レイヤー 1
 62
   250
420
  2299925
370
    25
100
AcDbLine
 10
112.9047526938141
 20
-146.978848968368
 30
0.0
 11
112.390755484705
 21
-147.3612600793831
 31
0.0
  0
LINE
  5
E8
330
70
100
AcDbEntity
  8
レイヤー 1
 62
   250
420
  2299925
370
    25
100
AcDbLine
 10
108.3930425311396
 20
-147.217926468308
 30
0.0
 11
107.9079730990703
 21
-146.8003786906345
 31
0.0
  0
LINE
  5
E9
330
70
100
AcDbEntity
  8
レイヤー 1
 62
   250
420
  2299925
370
    25
100
AcDbLine
 10
109.3928147278555
 20
-147.2537686905212
 30
0.0
 11
108.9070750180256
 21
-146.8362209128478
 31
0.0
  0
LINE
  5
EA
330
70
100
AcDbEntity
  8
レイヤー 1
 62
   250
420
  2299925
370
    25
100
AcDbLine
 10
107.3939758899613
 20
-147.1827898016499
 30
0.0
 11
106.9082361801313
 21
-146.7652420239768
 31
0.0
  0
LINE
  5
EB
330
70
100
AcDbEntity
  8
レイヤー 1
 62
   250
420
  2299925
370
    25
100
AcDbLine
 10
108.9070750180256
 20
-146.8362209128478
 30
0.0
 11
108.3930425311396
 21
-147.217926468308
 31
0.0
  0
LINE
  5
EC
330
70
100
AcDbEntity
  8
レイヤー 1
 62
   250
420
  2299925
370
    25
100
AcDbLine
 10
116.9024303696026
 20
-147.1221473016654
 30
0.0
 11
116.3884331604936
 21
-147.5038881349034
 31
0.0
  0
LINE
  5
ED
330
70
100
AcDbEntity
  8
レイヤー 1
 62
   250
420
  2299925
370
    25
100
AcDbLine
 10
109.9068472147415
 20
-146.8720278572831
 30
0.0
 11
109.3928147278555
 21
-147.2537686905212
 31
0.0
  0
LINE
  5
EE
330
70
100
AcDbEntity
  8
レイヤー 1
 62
   250
420
  2299925
370
    25
100
AcDbLine
 10
110.9059138559198
 20
-146.9078700794964
 30
0.0
 11
110.3919166468108
 21
-147.2895756349566
 31
0.0
  0
LINE
  5
EF
330
70
100
AcDbEntity
  8
レイヤー 1
 62
   250
420
  2299925
370
    25
100
AcDbLine
 10
96.90021310212362
 20
-146.3952486907358
 30
0.0
 11
96.90021310212362
 21
-151.6572820227536
 31
0.0
  0
LINE
  5
F0
330
70
100
AcDbEntity
  8
レイヤー 1
 62
   250
420
  2299925
370
    25
100
AcDbLine
 10
110.3919166468108
 20
-147.2895756349566
 30
0.0
 11
109.9068472147415
 21
-146.8720278572831
 31
0.0
  0
LINE
  5
F1
330
70
100
AcDbEntity
  8
レイヤー 1
 62
   250
420
  2299925
370
    25
100
AcDbLine
 10
111.3916535657498
 20
-147.3254178571699
 30
0.0
 11
110.9059138559198
 21
-146.9078700794964
 31
0.0
  0
LINE
  5
F2
330
70
100
AcDbEntity
  8
レイヤー 1
 62
   250
420
  2299925
370
    25
100
AcDbLine
 10
116.3884331604936
 20
-147.5038881349034
 30
0.0
 11
115.9026934506636
 21
-147.0863403572296
 31
0.0
  0
LINE
  5
F3
330
70
100
AcDbEntity
  8
レイヤー 1
 62
   250
420
  2299925
370
    25
100
AcDbLine
 10
111.9049804970982
 20
-146.94371230171
 30
0.0
 11
111.3916535657498
 21
-147.3254178571699
 31
0.0
  0
LINE
  5
F4
330
70
100
AcDbEntity
  8
レイヤー 1
 62
   250
420
  2299925
370
    25
100
AcDbLine
 10
112.390755484705
 20
-147.3612600793831
 30
0.0
 11
111.9049804970982
 21
-146.94371230171
 31
0.0
  0
LINE
  5
F5
330
70
100
AcDbEntity
  8
レイヤー 1
 62
   250
420
  2299925
370
    25
100
AcDbLine
 10
117.3874998016719
 20
-147.5396950793385
 30
0.0
 11
116.9024303696026
 21
-147.1221473016654
 31
0.0
  0
LINE
  5
F6
330
70
100
AcDbEntity
  8
レイヤー 1
 62
   250
420
  2299925
370
    25
100
AcDbLine
 10
113.9038193349924
 20
-147.0146559128031
 30
0.0
 11
113.3898221258834
 21
-147.3963967460412
 31
0.0
  0
LINE
  5
F7
330
70
100
AcDbEntity
  8
レイヤー 1
 62
   250
420
  2299925
370
    25
100
AcDbLine
 10
114.9035915317084
 20
-147.0504981350163
 30
0.0
 11
114.3895943225993
 21
-147.4322036904766
 31
0.0
  0
LINE
  5
F8
330
70
100
AcDbEntity
  8
レイヤー 1
 62
   250
420
  2299925
370
    25
100
AcDbLine
 10
114.3895943225993
 20
-147.4322036904766
 30
0.0
 11
113.9038193349924
 21
-147.0146559128031
 31
0.0
  0
LINE
  5
F9
330
70
100
AcDbEntity
  8
レイヤー 1
 62
   250
420
  2299925
370
    25
100
AcDbLine
 10
117.9015322885579
 20
-147.1572839683231
 30
0.0
 11
117.3874998016719
 21
-147.5396950793385
 31
0.0
  0
LINE
  5
FA
330
70
100
AcDbEntity
  8
レイヤー 1
 62
   250
420
  2299925
370
    25
100
AcDbLine
 10
113.3898221258834
 20
-147.3963967460412
 30
0.0
 11
112.9047526938141
 21
-146.978848968368
 31
0.0
  0
LINE
  5
FB
330
70
100
AcDbEntity
  8
レイヤー 1
 62
   250
420
  2299925
370
    25
100
AcDbLine
 10
115.9026934506636
 20
-147.0863403572296
 30
0.0
 11
115.3886609637776
 21
-147.4680459126898
 31
0.0
  0
LINE
  5
FC
330
70
100
AcDbEntity
  8
レイヤー 1
 62
   250
420
  2299925
370
    25
100
AcDbLine
 10
115.3886609637776
 20
-147.4680459126898
 30
0.0
 11
114.9035915317084
 21
-147.0504981350163
 31
0.0
  0
LINE
  5
FD
330
70
100
AcDbEntity
  8
レイヤー 1
 62
   250
420
  2299925
370
    25
100
AcDbLine
 10
117.9015322885579
 20
-147.1572839683231
 30
0.0
 11
117.9015322885579
 21
-147.6575228570868
 31
0.0
  0
LINE
  5
FE
330
70
100
AcDbEntity
  8
レイヤー 1
 62
   250
420
  2299925
370
    25
100
AcDbLine
 10
97.89998529883952
 20
-147.6575228570868
 30
0.0
 11
117.9015322885579
 21
-147.6575228570868
 31
0.0
  0
LINE
  5
FF
330
70
100
AcDbEntity
  8
レイヤー 1
 62
   250
420
  2299925
370
    25
100
AcDbLine
 10
106.9082361801313
 20
-146.7652420239768
 30
0.0
 11
106.3942036932454
 21
-147.1469475794367
 31
0.0
  0
LINE
  5
100
330
70
100
AcDbEntity
  8
レイヤー 1
 62
   250
420
  2299925
370
    25
100
AcDbLine
 10
106.3942036932454
 20
-147.1469475794367
 30
0.0
 11
105.9091342611761
 21
-146.7294350795411
 31
0.0
  0
LINE
  5
101
330
70
100
AcDbEntity
  8
レイヤー 1
 62
   250
420
  2299925
370
    25
100
AcDbLine
 10
105.9091342611761
 20
-146.7294350795411
 30
0.0
 11
105.395137052067
 21
-147.1111406350016
 31
0.0
  0
LINE
  5
102
330
70
100
AcDbEntity
  8
レイヤー 1
 62
   250
420
  2299925
370
    25
100
AcDbLine
 10
105.395137052067
 20
-147.1111406350016
 30
0.0
 11
104.9100676199974
 21
-146.6935928573278
 31
0.0
  0
LINE
  5
103
330
70
100
AcDbEntity
  8
レイヤー 1
 62
   250
420
  2299925
370
    25
100
AcDbLine
 10
104.9100676199974
 20
-146.6935928573278
 30
0.0
 11
104.3960704108883
 21
-147.0752984127884
 31
0.0
  0
LINE
  5
104
330
70
100
AcDbEntity
  8
レイヤー 1
 62
   250
420
  2299925
370
    25
100
AcDbLine
 10
104.3960704108883
 20
-147.0752984127884
 30
0.0
 11
103.9102954232815
 21
-146.6577506351146
 31
0.0
  0
LINE
  5
105
330
70
100
AcDbEntity
  8
レイヤー 1
 62
   250
420
  2299925
370
    25
100
AcDbLine
 10
103.9102954232815
 20
-146.6577506351146
 30
0.0
 11
103.3962982141724
 21
-147.0394914683526
 31
0.0
  0
LINE
  5
106
330
70
100
AcDbEntity
  8
レイヤー 1
 62
   250
420
  2299925
370
    25
100
AcDbLine
 10
103.3962982141724
 20
-147.0394914683526
 30
0.0
 11
102.9112287821031
 21
-146.6219436906794
 31
0.0
  0
LINE
  5
107
330
70
100
AcDbEntity
  8
レイヤー 1
 62
   250
420
  2299925
370
    25
100
AcDbLine
 10
102.9112287821031
 20
-146.6219436906794
 30
0.0
 11
102.3972315729941
 21
-147.0043195239167
 31
0.0
  0
LINE
  5
108
330
70
100
AcDbEntity
  8
レイヤー 1
 62
   250
420
  2299925
370
    25
100
AcDbLine
 10
102.3972315729941
 20
-147.0043195239167
 30
0.0
 11
101.9114565853872
 21
-146.5868070240214
 31
0.0
  0
LINE
  5
109
330
70
100
AcDbEntity
  8
レイヤー 1
 62
   250
420
  2299925
370
    25
100
AcDbLine
 10
101.9114565853872
 20
-146.5868070240214
 30
0.0
 11
101.3974593762782
 21
-146.9685125794813
 31
0.0
  0
LINE
  5
10A
330
70
100
AcDbEntity
  8
レイヤー 1
 62
   250
420
  2299925
370
    25
100
AcDbLine
 10
101.3974593762782
 20
-146.9685125794813
 30
0.0
 11
100.9123899442089
 21
-146.5509648018082
 31
0.0
  0
LINE
  5
10B
330
70
100
AcDbEntity
  8
レイヤー 1
 62
   250
420
  2299925
370
    25
100
AcDbLine
 10
100.9123899442089
 20
-146.5509648018082
 30
0.0
 11
100.3983574573229
 21
-146.9326703572681
 31
0.0
  0
LINE
  5
10C
330
70
100
AcDbEntity
  8
レイヤー 1
 62
   250
420
  2299925
370
    25
100
AcDbLine
 10
100.3983574573229
 20
-146.9326703572681
 30
0.0
 11
99.91328802525368
 21
-146.5151225795949
 31
0.0
  0
LINE
  5
10D
330
70
100
AcDbEntity
  8
レイヤー 1
 62
   250
420
  2299925
370
    25
100
AcDbLine
 10
99.91328802525368
 20
-146.5151225795949
 30
0.0
 11
99.39929081614462
 21
-146.8968634128327
 31
0.0
  0
LINE
  5
10E
330
70
100
AcDbEntity
  8
レイヤー 1
 62
   250
420
  2299925
370
    25
100
AcDbLine
 10
99.39929081614462
 20
-146.8968634128327
 30
0.0
 11
98.91355110631497
 21
-146.4793156351592
 31
0.0
  0
LINE
  5
10F
330
70
100
AcDbEntity
  8
レイヤー 1
 62
   250
420
  2299925
370
    25
100
AcDbLine
 10
98.91355110631497
 20
-146.4793156351592
 30
0.0
 11
98.39951861942871
 21
-146.8610211906194
 31
0.0
  0
LINE
  5
110
330
70
100
AcDbEntity
  8
レイヤー 1
 62
   250
420
  2299925
370
    25
100
AcDbLine
 10
98.39951861942871
 20
-146.8610211906194
 30
0.0
 11
97.9144491873594
 21
-146.4434734129459
 31
0.0
  0
LINE
  5
111
330
70
100
AcDbEntity
  8
レイヤー 1
 62
   250
420
  2299925
370
    25
100
AcDbLine
 10
97.84045197814108
 20
-146.3952486907358
 30
0.0
 11
96.90021310212362
 21
-146.3952486907358
 31
0.0
  0
LINE
  5
112
330
70
100
AcDbEntity
  8
レイヤー 1
 62
   250
420
  2299925
370
    25
100
AcDbLine
 10
97.89998529883952
 20
-147.6575228570868
 30
0.0
 11
97.89998529883952
 21
-152.6577245225035
 31
0.0
  0
CIRCLE
  5
113
330
70
100
AcDbEntity
  8
レイヤー 1
 62
   250
420
  2299925
370
     9
100
AcDbCircle
 10
65.89919639302545
 20
-142.3954895250692
 30
0.0
 40
0.0999066653797365
  0
CIRCLE
  5
114
330
70
100
AcDbEntity
  8
レイヤー 1
 62
   250
420
  2299925
370
     9
100
AcDbCircle
 10
63.66953506101996
 20
-147.1572839683231
 30
0.0
 40
0.0999066653797365
  0
CIRCLE
  5
115
330
70
100
AcDbEntity
  8
レイヤー 1
 62
   250
420
  2299925
370
     9
100
AcDbCircle
 10
63.66953506101996
 20
-147.6575228570868
 30
0.0
 40
0.0999066653797766
  0
CIRCLE
  5
116
330
70
100
AcDbEntity
  8
レイヤー 1
 62
   250
420
  2299925
370
     9
100
AcDbCircle
 10
63.66953506101996
 20
-152.6577245225035
 30
0.0
 40
0.0999066653797365
  0
SPLINE
  5
117
330
70
100
AcDbEntity
  8
レイヤー 1
 62
   250
420
  2299925
370
     9
100
AcDbSpline
210
0.0
220
0.0
230
1.0
 70
     9
 71
     3
 72
    17
 73
    13
 74
     0
 42
0.0000000001
 43
0.0000000001
 40
0.0
 40
0.0
 40
0.0
 40
0.0
 40
1.0
 40
1.0
 40
1.0
 40
2.0
 40
2.0
 40
2.0
 40
3.0
 40
3.0
 40
3.0
 40
4.0
 40
4.0
 40
4.0
 40
4.0
 10
87.00038987441802
 20
-142.3954895250692
 30
0.0
 10
87.00038987441802
 20
-142.3403503584161
 30
0.0
 10
86.95561946694246
 20
-142.2955828584276
 30
0.0
 10
86.90048030168251
 20
-142.2955828584276
 30
0.0
 10
86.84467085866186
 20
-142.2955828584276
 30
0.0
 10
86.79990335980399
 20
-142.3403503584161
 30
0.0
 10
86.79990335980399
 20
-142.3954895250692
 30
0.0
 10
86.79990335980399
 20
-142.4505934139441
 30
0.0
 10
86.84467085866186
 20
-142.4953961917108
 30
0.0
 10
86.90048030168251
 20
-142.4953961917108
 30
0.0
 10
86.95561946694246
 20
-142.4953961917108
 30
0.0
 10
87.00038987441802
 20
-142.4505934139441
 30
0.0
 10
87.00038987441802
 20
-142.3954895250692
 30
0.0
  0
SPLINE
  5
118
330
70
100
AcDbEntity
  8
レイヤー 1
 62
   250
420
  2299925
370
     9
100
AcDbSpline
210
0.0
220
0.0
230
1.0
 70
     9
 71
     3
 72
    17
 73
    13
 74
     0
 42
0.0000000001
 43
0.0000000001
 40
0.0
 40
0.0
 40
0.0
 40
0.0
 40
1.0
 40
1.0
 40
1.0
 40
2.0
 40
2.0
 40
2.0
 40
3.0
 40
3.0
 40
3.0
 40
4.0
 40
4.0
 40
4.0
 40
4.0
 10
118.001442644446
 20
-142.3954895250692
 30
0.0
 10
118.001442644446
 20
-142.3403503584161
 30
0.0
 10
117.9566398666793
 20
-142.2955828584276
 30
0.0
 10
117.9015322885579
 20
-142.2955828584276
 30
0.0
 10
117.8463931232979
 20
-142.2955828584276
 30
0.0
 10
117.80162562444
 20
-142.3403503584161
 30
0.0
 10
117.80162562444
 20
-142.3954895250692
 30
0.0
 10
117.80162562444
 20
-142.4505934139441
 30
0.0
 10
117.8463931232979
 20
-142.4953961917108
 30
0.0
 10
117.9015322885579
 20
-142.4953961917108
 30
0.0
 10
117.9566398666793
 20
-142.4953961917108
 30
0.0
 10
118.001442644446
 20
-142.4505934139441
 30
0.0
 10
118.001442644446
 20
-142.3954895250692
 30
0.0
  0
CIRCLE
  5
119
330
70
100
AcDbEntity
  8
レイヤー 1
 62
   250
420
  2299925
370
     9
100
AcDbCircle
 10
96.90021310212362
 20
-142.3954895250692
 30
0.0
 40
0.0999066653797365
  0
LINE
  5
11A
330
70
100
AcDbEntity
  8
レイヤー 1
 62
   250
420
  2299925
370
     9
100
AcDbLine
 10
63.66953506101996
 20
-147.1572839683231
 30
0.0
 11
63.66953506101996
 21
-141.9000836918597
 31
0.0
  0
LINE
  5
11B
330
70
100
AcDbEntity
  8
レイヤー 1
 62
   250
420
  2299925
370
     9
100
AcDbLine
 10
63.66953506101996
 20
-147.1572839683231
 30
0.0
 11
63.66953506101996
 21
-147.6575228570868
 31
0.0
  0
LINE
  5
11C
330
70
100
AcDbEntity
  8
レイヤー 1
 62
   250
420
  2299925
370
     9
100
AcDbLine
 10
65.12954113488321
 20
-147.1572839683231
 30
0.0
 11
62.66976286430405
 21
-147.1572839683231
 31
0.0
  0
LINE
  5
11D
330
70
100
AcDbEntity
  8
レイヤー 1
 62
   250
420
  2299925
370
     9
100
AcDbLine
 10
65.12954113488321
 20
-147.6575228570868
 30
0.0
 11
62.66976286430405
 21
-147.6575228570868
 31
0.0
  0
INSERT
  5
11F
330
70
100
AcDbEntity
  8
レイヤー 1
100
AcDbBlockReference
  2
Block_1
 10
0.0
 20
0.0
 30
0.0
  0
LINE
  5
12D
330
70
100
AcDbEntity
  8
レイヤー 1
 62
   250
420
  2299925
370
     9
100
AcDbLine
 10
65.89919639302545
 20
-142.3954895250692
 30
0.0
 11
86.90048030168251
 21
-142.3954895250692
 31
0.0
  0
LINE
  5
12E
330
70
100
AcDbEntity
  8
レイヤー 1
 62
   250
420
  2299925
370
     9
100
AcDbLine
 10
65.89919639302545
 20
-144.6175661911802
 30
0.0
 11
65.89919639302545
 21
-141.3957173030967
 31
0.0
  0
INSERT
  5
130
330
70
100
AcDbEntity
  8
レイヤー 1
100
AcDbBlockReference
  2
Block_3
 10
0.0
 20
0.0
 30
0.0
  0
LINE
  5
13B
330
70
100
AcDbEntity
  8
レイヤー 1
 62
   250
420
  2299925
370
     9
100
AcDbLine
 10
63.66953506101996
 20
-147.6575228570868
 30
0.0
 11
63.66953506101996
 21
-152.6577245225035
 31
0.0
  0
LINE
  5
13C
330
70
100
AcDbEntity
  8
レイヤー 1
 62
   250
420
  2299925
370
     9
100
AcDbLine
 10
85.13108812460123
 20
-152.6577245225035
 30
0.0
 11
62.66976286430405
 21
-152.6577245225035
 31
0.0
  0
INSERT
  5
13E
330
70
100
AcDbEntity
  8
レイヤー 1
100
AcDbBlockReference
  2
Block_5
 10
0.0
 20
0.0
 30
0.0
  0
LINE
  5
143
330
70
100
AcDbEntity
  8
レイヤー 1
 62
   250
420
  2299925
370
     9
100
AcDbLine
 10
117.9015322885579
 20
-142.3954895250692
 30
0.0
 11
96.90021310212362
 21
-142.3954895250692
 31
0.0
  0
LINE
  5
144
330
70
100
AcDbEntity
  8
レイヤー 1
 62
   250
420
  2299925
370
     9
100
AcDbLine
 10
117.9015322885579
 20
-144.6175661911802
 30
0.0
 11
117.9015322885579
 21
-141.3957173030967
 31
0.0
  0
INSERT
  5
146
330
70
100
AcDbEntity
  8
レイヤー 1
100
AcDbBlockReference
  2
Block_6
 10
0.0
 20
0.0
 30
0.0
  0
LINE
  5
151
330
70
100
AcDbEntity
  8
レイヤー 1
 62
   250
420
  2299925
370
     9
100
AcDbLine
 10
86.90048030168251
 20
-142.3954895250692
 30
0.0
 11
96.90021310212362
 21
-142.3954895250692
 31
0.0
  0
LINE
  5
152
330
70
100
AcDbEntity
  8
レイヤー 1
 62
   250
420
  2299925
370
     9
100
AcDbLine
 10
86.90048030168251
 20
-143.8555309135929
 30
0.0
 11
86.90048030168251
 21
-141.3957173030967
 31
0.0
  0
LINE
  5
153
330
70
100
AcDbEntity
  8
レイヤー 1
 62
   250
420
  2299925
370
     9
100
AcDbLine
 10
96.90021310212362
 20
-143.8555309135929
 30
0.0
 11
96.90021310212362
 21
-141.3957173030967
 31
0.0
  0
INSERT
  5
155
330
70
100
AcDbEntity
  8
レイヤー 1
100
AcDbBlockReference
  2
Block_8
 10
0.0
 20
0.0
 30
0.0
  0
SPLINE
  5
161
330
70
100
AcDbEntity
  8
レイヤー 1
 62
   250
420
  2299925
370
     9
100
AcDbSpline
210
0.0
220
0.0
230
1.0
 70
     9
 71
     3
 72
    17
 73
    13
 74
     0
 42
0.0000000001
 43
0.0000000001
 40
0.0
 40
0.0
 40
0.0
 40
0.0
 40
1.0
 40
1.0
 40
1.0
 40
2.0
 40
2.0
 40
2.0
 40
3.0
 40
3.0
 40
3.0
 40
4.0
 40
4.0
 40
4.0
 40
4.0
 10
86.21355143031863
 20
-156.7711839659197
 30
0.0
 10
86.21355143031863
 20
-156.7160447992667
 30
0.0
 10
86.1301547657796
 20
-156.6712772992781
 30
0.0
 10
86.02749643506529
 20
-156.6712772992781
 30
0.0
 10
85.92621393764922
 20
-156.6712772992781
 30
0.0
 10
85.84285255088706
 20
-156.7160447992667
 30
0.0
 10
85.84285255088706
 20
-156.7711839659197
 30
0.0
 10
85.84285255088706
 20
-156.8262878547946
 30
0.0
 10
85.92621393764922
 20
-156.8710906325614
 30
0.0
 10
86.02749643506529
 20
-156.8710906325614
 30
0.0
 10
86.1301547657796
 20
-156.8710906325614
 30
0.0
 10
86.21355143031863
 20
-156.8262878547946
 30
0.0
 10
86.21355143031863
 20
-156.7711839659197
 30
0.0
  0
SPLINE
  5
162
330
70
100
AcDbEntity
  8
レイヤー 1
 62
   250
420
  2299925
370
     9
100
AcDbSpline
210
0.0
220
0.0
230
1.0
 70
     9
 71
     3
 72
    17
 73
    13
 74
     0
 42
0.0000000001
 43
0.0000000001
 40
0.0
 40
0.0
 40
0.0
 40
0.0
 40
1.0
 40
1.0
 40
1.0
 40
2.0
 40
2.0
 40
2.0
 40
3.0
 40
3.0
 40
3.0
 40
4.0
 40
4.0
 40
4.0
 40
4.0
 10
98.25622028975121
 20
-156.7711839659197
 30
0.0
 10
98.25622028975121
 20
-156.7160447992667
 30
0.0
 10
98.17352918074973
 20
-156.6712772992781
 30
0.0
 10
98.07154112779612
 20
-156.6712772992781
 30
0.0
 10
97.96821251932113
 20
-156.6712772992781
 30
0.0
 10
97.88552141031964
 20
-156.7160447992667
 30
0.0
 10
97.88552141031964
 20
-156.7711839659197
 30
0.0
 10
97.88552141031964
 20
-156.8262878547946
 30
0.0
 10
97.96821251932113
 20
-156.8710906325614
 30
0.0
 10
98.07154112779612
 20
-156.8710906325614
 30
0.0
 10
98.17352918074973
 20
-156.8710906325614
 30
0.0
 10
98.25622028975121
 20
-156.8262878547946
 30
0.0
 10
98.25622028975121
 20
-156.7711839659197
 30
0.0
  0
LINE
  5
163
330
70
100
AcDbEntity
  8
レイヤー 1
 62
   250
420
  2299925
370
     9
100
AcDbLine
 10
98.07154112779612
 20
-156.7711839659197
 30
0.0
 11
86.02749643506529
 21
-156.7711839659197
 31
0.0
  0
LINE
  5
164
330
70
100
AcDbEntity
  8
レイヤー 1
 62
   250
420
  2299925
370
     9
100
AcDbLine
 10
98.07154112779612
 20
-155.311142577396
 30
0.0
 11
98.07154112779612
 21
-157.7709561878916
 31
0.0
  0
LINE
  5
165
330
70
100
AcDbEntity
  8
レイヤー 1
 62
   250
420
  2299925
370
     9
100
AcDbLine
 10
86.02749643506529
 20
-155.311142577396
 30
0.0
 11
86.02749643506529
 21
-157.7709561878916
 31
0.0
  0
INSERT
  5
167
330
70
100
AcDbEntity
  8
レイヤー 1
100
AcDbBlockReference
  2
Block_10
 10
0.0
 20
0.0
 30
0.0
  0
LINE
  5
172
330
70
100
AcDbEntity
  8
レイヤー 1
 62
   250
420
  2299925
370
     9
100
AcDbLine
 10
94.87657398708428
 20
-150.6857673007744
 30
0.0
 11
102.8767623940936
 21
-150.6857673007744
 31
0.0
  0
INSERT
  5
174
330
70
100
AcDbEntity
  8
レイヤー 1
100
AcDbBlockReference
  2
Block_12
 10
0.0
 20
0.0
 30
0.0
  0
INSERT
  5
17A
330
70
100
AcDbEntity
  8
レイヤー 1
100
AcDbBlockReference
  2
Block_13
 10
0.0
 20
0.0
 30
0.0
  0
ENDSEC
  0
SECTION
  2
OBJECTS
  0
DICTIONARY
  5
C
330
0
100
AcDbDictionary
281
     1
  3
ACAD_COLOR
350
63
  3
ACAD_DETAILVIEWSTYLE
350
6A
  3
ACAD_GROUP
350
D
  3
ACAD_LAYOUT
350
62
  3
ACAD_MATERIAL
350
10
  3
ACAD_MLEADERSTYLE
350
66
  3
ACAD_MLINESTYLE
350
5F
  3
ACAD_PLOTSETTINGS
350
61
  3
ACAD_PLOTSTYLENAME
350
E
  3
ACAD_SCALELIST
350
42
  3
ACAD_SECTIONVIEWSTYLE
350
68
  3
ACAD_TABLESTYLE
350
64
  3
ACAD_VISUALSTYLE
350
29
  3
ACDB_RECOMPOSE_DATA
350
1A7
  3
AcDbVariableDictionary
350
19F
  0
DICTIONARY
  5
63
102
{ACAD_REACTORS
330
C
102
}
330
C
100
AcDbDictionary
281
     1
  0
DICTIONARY
  5
6A
102
{ACAD_REACTORS
330
C
102
}
330
C
100
AcDbDictionary
281
     1
  3
Imperial24
350
6B
  0
DICTIONARY
  5
D
102
{ACAD_REACTORS
330
C
102
}
330
C
100
AcDbDictionary
281
     1
  0
DICTIONARY
  5
62
102
{ACAD_REACTORS
330
C
102
}
330
C
100
AcDbDictionary
281
     1
  3
Layout1
350
6F
  3
Layout2
350
77
  3
Model
350
73
  0
DICTIONARY
  5
10
102
{ACAD_REACTORS
330
C
102
}
330
C
100
AcDbDictionary
281
     1
  3
ByBlock
350
19
  3
ByLayer
350
11
  3
Global
350
21
  0
DICTIONARY
  5
66
102
{ACAD_REACTORS
330
C
102
}
330
C
100
AcDbDictionary
281
     1
  3
Standard
350
67
  0
DICTIONARY
  5
5F
102
{ACAD_REACTORS
330
C
102
}
330
C
100
AcDbDictionary
281
     1
  3
Standard
350
60
  0
DICTIONARY
  5
61
102
{ACAD_REACTORS
330
C
102
}
330
C
100
AcDbDictionary
281
     1
  0
ACDBDICTIONARYWDFLT
  5
E
102
{ACAD_REACTORS
330
C
102
}
330
C
100
AcDbDictionary
281
     1
  3
Normal
350
F
100
AcDbDictionaryWithDefault
340
F
  0
DICTIONARY
  5
42
102
{ACAD_REACTORS
330
C
102
}
330
C
100
AcDbDictionary
281
     1
  3
A0
350
43
  3
A1
350
44
  3
A2
350
45
  3
A3
350
46
  3
A4
350
47
  3
A5
350
48
  3
A6
350
49
  3
A7
350
4A
  3
A8
350
4B
  3
A9
350
4C
  3
B0
350
4D
  3
B1
350
4E
  3
B2
350
4F
  3
B3
350
50
  3
B4
350
51
  3
B5
350
52
  3
B6
350
53
  0
DICTIONARY
  5
68
102
{ACAD_REACTORS
330
C
102
}
330
C
100
AcDbDictionary
281
     1
  3
Imperial24
350
69
  0
DICTIONARY
  5
64
102
{ACAD_REACTORS
330
C
102
}
330
C
100
AcDbDictionary
281
     1
  3
Standard
350
65
  0
DICTIONARY
  5
29
102
{ACAD_REACTORS
330
C
102
}
330
C
100
AcDbDictionary
281
     1
  3
2dWireframe
350
2F
  3
Basic
350
2E
  3
Brighten
350
35
  3
ColorChange
350
39
  3
Conceptual
350
32
  3
Dim
350
34
  3
EdgeColorOff
350
41
  3
Facepattern
350
38
  3
Flat
350
2A
  3
FlatWithEdges
350
2B
  3
Gouraud
350
2C
  3
GouraudWithEdges
350
2D
  3
Hidden
350
31
  3
JitterOff
350
3F
  3
Linepattern
350
37
  3
OverhangOff
350
40
  3
Realistic
350
33
  3
Shaded
350
3E
  3
Shaded with edges
350
3D
  3
Shades of Gray
350
3A
  3
Sketchy
350
3B
  3
Thicken
350
36
  3
Wireframe
350
30
  3
X-Ray
350
3C
  0
XRECORD
  5
1A7
102
{ACAD_REACTORS
330
C
102
}
330
C
100
AcDbXrecord
280
     1
 90
        1
330
65
  0
DICTIONARY
  5
19F
102
{ACAD_REACTORS
330
C
102
}
330
C
100
AcDbDictionary
281
     1
  3
CANNOSCALE
350
1A4
  3
CMLEADERSTYLE
350
1A1
  3
CTABLESTYLE
350
1A0
  3
CVIEWDETAILSTYLE
350
1A2
  3
CVIEWSECTIONSTYLE
350
1A3
  0
ACDBDETAILVIEWSTYLE
  5
6B
102
{ACAD_XDICTIONARY
360
1DC
102
}
102
{ACAD_REACTORS
330
6A
102
}
330
6A
100
AcDbModelDocViewStyle
 70
     0
  3
Imperial24
290
     0
100
AcDbDetailViewStyle
 70
     0
 71
     0
 90
        3
 71
     1
340
55
 62
   256
 40
0.24
340
0
 62
   256
 40
0.24
300

 40
0.36
280
     3
 71
     2
340
5D
 90
       25
 62
   256
 71
     3
340
55
 62
   256
 40
0.24
 90
        1
 40
0.75
 90
        1
300
%<\AcVar ViewType \f "%tc1">% %<\AcVar ViewDetailId>%\PSCALE %<\AcVar ViewScale \f "%sn">%
 71
     4
340
5D
 90
       25
 62
   256
340
5D
 90
       25
 62
   256
280
     0
  0
LAYOUT
  5
6F
102
{ACAD_REACTORS
330
62
102
}
330
62
100
AcDbPlotSettings
  1

  2

  4

  6

 40
0.0
 41
0.0
 42
0.0
 43
0.0
 44
0.0
 45
0.0
 46
0.0
 47
0.0
 48
0.0
 49
0.0
140
0.0
141
0.0
142
1.0
143
1.0
 70
   688
 72
     0
 73
     0
 74
     5
  7

 75
    16
147
1.0
 76
     0
 77
     2
 78
   300
148
0.0
149
0.0
100
AcDbLayout
  1
Layout1
 70
     1
 71
     1
 10
0.0
 20
0.0
 11
12.0
 21
9.0
 12
0.0
 22
0.0
 32
0.0
 14
0.0
 24
0.0
 34
0.0
 15
0.0
 25
0.0
 35
0.0
146
0.0
 13
0.0
 23
0.0
 33
0.0
 16
1.0
 26
0.0
 36
0.0
 17
0.0
 27
1.0
 37
0.0
 76
     0
330
6C
  0
LAYOUT
  5
77
102
{ACAD_REACTORS
330
62
102
}
330
62
100
AcDbPlotSettings
  1

  2

  4

  6

 40
0.0
 41
0.0
 42
0.0
 43
0.0
 44
0.0
 45
0.0
 46
0.0
 47
0.0
 48
0.0
 49
0.0
140
0.0
141
0.0
142
1.0
143
1.0
 70
   688
 72
     0
 73
     0
 74
     5
  7

 75
    16
147
1.0
 76
     0
 77
     2
 78
   300
148
0.0
149
0.0
100
AcDbLayout
  1
Layout2
 70
     1
 71
     2
 10
0.0
 20
0.0
 11
12.0
 21
9.0
 12
0.0
 22
0.0
 32
0.0
 14
0.0
 24
0.0
 34
0.0
 15
0.0
 25
0.0
 35
0.0
146
0.0
 13
0.0
 23
0.0
 33
0.0
 16
1.0
 26
0.0
 36
0.0
 17
0.0
 27
1.0
 37
0.0
 76
     0
330
74
  0
LAYOUT
  5
73
102
{ACAD_REACTORS
330
62
102
}
330
62
100
AcDbPlotSettings
  1

  2

  4

  6

 40
0.0
 41
0.0
 42
0.0
 43
0.0
 44
0.0
 45
0.0
 46
0.0
 47
0.0
 48
0.0
 49
0.0
140
0.0
141
0.0
142
1.0
143
1.0
 70
  1712
 72
     0
 73
     0
 74
     0
  7

 75
     0
147
1.0
 76
     0
 77
     2
 78
   300
148
0.0
149
0.0
100
AcDbLayout
  1
Model
 70
     1
 71
     0
 10
0.0
 20
0.0
 11
12.0
 21
9.0
 12
0.0
 22
0.0
 32
0.0
 14
0.0
 24
0.0
 34
0.0
 15
0.0
 25
0.0
 35
0.0
146
0.0
 13
0.0
 23
0.0
 33
0.0
 16
1.0
 26
0.0
 36
0.0
 17
0.0
 27
1.0
 37
0.0
 76
     0
330
70
  0
MATERIAL
  5
19
102
{ACAD_XDICTIONARY
360
1A
102
}
102
{ACAD_REACTORS
330
10
102
}
330
10
100
AcDbMaterial
  1
ByBlock
 72
     0
 43
0.0208333333333333
 43
0.0
 43
0.0
 43
0.0
 43
0.0
 43
0.0208333333333333
 43
0.0
 43
0.0
 43
0.0
 43
0.0
 43
1.0
 43
0.0
 43
0.0
 43
0.0
 43
0.0
 43
1.0
 77
     0
 47
0.0208333333333333
 47
0.0
 47
0.0
 47
0.0
 47
0.0
 47
0.0208333333333333
 47
0.0
 47
0.0
 47
0.0
 47
0.0
 47
1.0
 47
0.0
 47
0.0
 47
0.0
 47
0.0
 47
1.0
171
     0
 49
0.0208333333333333
 49
0.0
 49
0.0
 49
0.0
 49
0.0
 49
0.0208333333333333
 49
0.0
 49
0.0
 49
0.0
 49
0.0
 49
1.0
 49
0.0
 49
0.0
 49
0.0
 49
0.0
 49
1.0
175
     0
142
0.0208333333333333
142
0.0
142
0.0
142
0.0
142
0.0
142
0.0208333333333333
142
0.0
142
0.0
142
0.0
142
0.0
142
1.0
142
0.0
142
0.0
142
0.0
142
0.0
142
1.0
179
     0
144
0.0208333333333333
144
0.0
144
0.0
144
0.0
144
0.0
144
0.0208333333333333
144
0.0
144
0.0
144
0.0
144
0.0
144
1.0
144
0.0
144
0.0
144
0.0
144
0.0
144
1.0
147
0.0208333333333333
147
0.0
147
0.0
147
0.0
147
0.0
147
0.0208333333333333
147
0.0
147
0.0
147
0.0
147
0.0
147
1.0
147
0.0
147
0.0
147
0.0
147
0.0
147
1.0
  0
MATERIAL
  5
11
102
{ACAD_XDICTIONARY
360
12
102
}
102
{ACAD_REACTORS
330
10
102
}
330
10
100
AcDbMaterial
  1
ByLayer
 72
     0
 43
0.0208333333333333
 43
0.0
 43
0.0
 43
0.0
 43
0.0
 43
0.0208333333333333
 43
0.0
 43
0.0
 43
0.0
 43
0.0
 43
1.0
 43
0.0
 43
0.0
 43
0.0
 43
0.0
 43
1.0
 77
     0
 47
0.0208333333333333
 47
0.0
 47
0.0
 47
0.0
 47
0.0
 47
0.0208333333333333
 47
0.0
 47
0.0
 47
0.0
 47
0.0
 47
1.0
 47
0.0
 47
0.0
 47
0.0
 47
0.0
 47
1.0
171
     0
 49
0.0208333333333333
 49
0.0
 49
0.0
 49
0.0
 49
0.0
 49
0.0208333333333333
 49
0.0
 49
0.0
 49
0.0
 49
0.0
 49
1.0
 49
0.0
 49
0.0
 49
0.0
 49
0.0
 49
1.0
175
     0
142
0.0208333333333333
142
0.0
142
0.0
142
0.0
142
0.0
142
0.0208333333333333
142
0.0
142
0.0
142
0.0
142
0.0
142
1.0
142
0.0
142
0.0
142
0.0
142
0.0
142
1.0
179
     0
144
0.0208333333333333
144
0.0
144
0.0
144
0.0
144
0.0
144
0.0208333333333333
144
0.0
144
0.0
144
0.0
144
0.0
144
1.0
144
0.0
144
0.0
144
0.0
144
0.0
144
1.0
147
0.0208333333333333
147
0.0
147
0.0
147
0.0
147
0.0
147
0.0208333333333333
147
0.0
147
0.0
147
0.0
147
0.0
147
1.0
147
0.0
147
0.0
147
0.0
147
0.0
147
1.0
  0
MATERIAL
  5
21
102
{ACAD_XDICTIONARY
360
22
102
}
102
{ACAD_REACTORS
330
10
102
}
330
10
100
AcDbMaterial
  1
Global
 72
     0
 43
0.0208333333333333
 43
0.0
 43
0.0
 43
0.0
 43
0.0
 43
0.0208333333333333
 43
0.0
 43
0.0
 43
0.0
 43
0.0
 43
1.0
 43
0.0
 43
0.0
 43
0.0
 43
0.0
 43
1.0
 77
     0
 47
0.0208333333333333
 47
0.0
 47
0.0
 47
0.0
 47
0.0
 47
0.0208333333333333
 47
0.0
 47
0.0
 47
0.0
 47
0.0
 47
1.0
 47
0.0
 47
0.0
 47
0.0
 47
0.0
 47
1.0
171
     0
 49
0.0208333333333333
 49
0.0
 49
0.0
 49
0.0
 49
0.0
 49
0.0208333333333333
 49
0.0
 49
0.0
 49
0.0
 49
0.0
 49
1.0
 49
0.0
 49
0.0
 49
0.0
 49
0.0
 49
1.0
175
     0
142
0.0208333333333333
142
0.0
142
0.0
142
0.0
142
0.0
142
0.0208333333333333
142
0.0
142
0.0
142
0.0
142
0.0
142
1.0
142
0.0
142
0.0
142
0.0
142
0.0
142
1.0
179
     0
144
0.0208333333333333
144
0.0
144
0.0
144
0.0
144
0.0
144
0.0208333333333333
144
0.0
144
0.0
144
0.0
144
0.0
144
1.0
144
0.0
144
0.0
144
0.0
144
0.0
144
1.0
147
0.0208333333333333
147
0.0
147
0.0
147
0.0
147
0.0
147
0.0208333333333333
147
0.0
147
0.0
147
0.0
147
0.0
147
1.0
147
0.0
147
0.0
147
0.0
147
0.0
147
1.0
  0
MLEADERSTYLE
  5
67
102
{ACAD_XDICTIONARY
360
1D8
102
}
102
{ACAD_REACTORS
330
66
102
}
330
66
100
AcDbMLeaderStyle
179
     2
170
     2
171
     1
172
     0
 90
        2
 40
0.0
 41
0.0
173
     1
 91
-1056964608
340
5B
 92
       -2
290
     1
 42
0.09
291
     1
 43
0.36
  3
Standard
 44
0.18
300

342
55
174
     1
178
     6
175
     1
176
     0
 93
-1056964608
 45
0.18
292
     0
297
     0
 46
0.18
 94
-1056964608
 47
1.0
 49
1.0
140
1.0
293
     1
141
0.0
294
     1
177
     0
142
1.0
295
     0
296
     0
143
0.125
271
     0
272
     9
273
     9
  0
MLINESTYLE
  5
60
102
{ACAD_REACTORS
330
5F
102
}
330
5F
100
AcDbMlineStyle
  2
STANDARD
 70
     0
  3

 62
   256
 51
90.0
 52
90.0
 71
     2
 49
0.5
 62
   256
  6
BYLAYER
 49
-0.5
 62
   256
  6
BYLAYER
  0
ACDBPLACEHOLDER
  5
F
102
{ACAD_REACTORS
330
E
102
}
330
E
  0
SCALE
  5
43
102
{ACAD_REACTORS
330
42
102
}
330
42
100
AcDbScale
 70
     0
300
1:1
140
1.0
141
1.0
290
     1
  0
SCALE
  5
44
102
{ACAD_REACTORS
330
42
102
}
330
42
100
AcDbScale
 70
     0
300
1/128" = 1'-0"
140
0.0078125
141
12.0
290
     0
  0
SCALE
  5
45
102
{ACAD_REACTORS
330
42
102
}
330
42
100
AcDbScale
 70
     0
300
1/64" = 1'-0"
140
0.015625
141
12.0
290
     0
  0
SCALE
  5
46
102
{ACAD_REACTORS
330
42
102
}
330
42
100
AcDbScale
 70
     0
300
1/32" = 1'-0"
140
0.03125
141
12.0
290
     0
  0
SCALE
  5
47
102
{ACAD_REACTORS
330
42
102
}
330
42
100
AcDbScale
 70
     0
300
1/16" = 1'-0"
140
0.0625
141
12.0
290
     0
  0
SCALE
  5
48
102
{ACAD_REACTORS
330
42
102
}
330
42
100
AcDbScale
 70
     0
300
3/32" = 1'-0"
140
0.09375
141
12.0
290
     0
  0
SCALE
  5
49
102
{ACAD_REACTORS
330
42
102
}
330
42
100
AcDbScale
 70
     0
300
1/8" = 1'-0"
140
0.125
141
12.0
290
     0
  0
SCALE
  5
4A
102
{ACAD_REACTORS
330
42
102
}
330
42
100
AcDbScale
 70
     0
300
3/16" = 1'-0"
140
0.1875
141
12.0
290
     0
  0
SCALE
  5
4B
102
{ACAD_REACTORS
330
42
102
}
330
42
100
AcDbScale
 70
     0
300
1/4" = 1'-0"
140
0.25
141
12.0
290
     0
  0
SCALE
  5
4C
102
{ACAD_REACTORS
330
42
102
}
330
42
100
AcDbScale
 70
     0
300
3/8" = 1'-0"
140
0.375
141
12.0
290
     0
  0
SCALE
  5
4D
102
{ACAD_REACTORS
330
42
102
}
330
42
100
AcDbScale
 70
     0
300
1/2" = 1'-0"
140
0.5
141
12.0
290
     0
  0
SCALE
  5
4E
102
{ACAD_REACTORS
330
42
102
}
330
42
100
AcDbScale
 70
     0
300
3/4" = 1'-0"
140
0.75
141
12.0
290
     0
  0
SCALE
  5
4F
102
{ACAD_REACTORS
330
42
102
}
330
42
100
AcDbScale
 70
     0
300
1" = 1'-0"
140
1.0
141
12.0
290
     0
  0
SCALE
  5
50
102
{ACAD_REACTORS
330
42
102
}
330
42
100
AcDbScale
 70
     0
300
1-1/2" = 1'-0"
140
1.5
141
12.0
290
     0
  0
SCALE
  5
51
102
{ACAD_REACTORS
330
42
102
}
330
42
100
AcDbScale
 70
     0
300
3" = 1'-0"
140
3.0
141
12.0
290
     0
  0
SCALE
  5
52
102
{ACAD_REACTORS
330
42
102
}
330
42
100
AcDbScale
 70
     0
300
6" = 1'-0"
140
6.0
141
12.0
290
     0
  0
SCALE
  5
53
102
{ACAD_REACTORS
330
42
102
}
330
42
100
AcDbScale
 70
     0
300
1'-0" = 1'-0"
140
12.0
141
12.0
290
     0
  0
ACDBSECTIONVIEWSTYLE
  5
69
102
{ACAD_XDICTIONARY
360
1DA
102
}
102
{ACAD_REACTORS
330
68
102
}
330
68
100
AcDbModelDocViewStyle
 70
     0
  3
Imperial24
290
     0
100
AcDbSectionViewStyle
 70
     0
 71
     0
 90
       78
 71
     1
340
55
 62
   256
 40
0.24
340
0
340
0
 62
   256
 40
0.24
300
I, O, Q, S, X, Z
 40
0.48
 90
        3
 40
0.18
 90
        1
 71
     2
340
5D
 90
       25
 62
   256
340
5D
 90
       50
 62
   256
 40
0.24
 40
0.0
 40
0.24
 71
     3
340
55
 62
   256
 40
0.24
 90
        1
 40
0.75
 90
        1
300
%<\AcVar ViewType \f "%tc1">% %<\AcVar ViewSectionStartId>%-%<\AcVar ViewSectionEndId>%\PSCALE %<\AcVar ViewScale \f "%sn">%
 71
     4
 62
   256
 62
   257
300
ANSI31
 40
1.0
 90
        0
290
     0
290
     0
 90
        6
 40
0.0
 40
1.570796326794896
 40
0.2617993877991494
 40
1.308996938995747
 40
-0.2617993877991494
 40
1.832595714594046
  0
TABLESTYLE
  5
65
102
{ACAD_XDICTIONARY
360
1A5
102
}
102
{ACAD_REACTORS
330
64
102
}
330
64
100
AcDbTableStyle
280
     0
  3
Standard
 70
     0
 71
     0
 40
0.06
 41
0.06
280
     0
281
     0
  7
Standard
140
0.18
170
     2
 62
     0
 63
     7
283
     0
 90
      512
 91
        0
  1

274
    -2
284
     1
 64
     0
275
    -2
285
     1
 65
     0
276
    -2
286
     1
 66
     0
277
    -2
287
     1
 67
     0
278
    -2
288
     1
 68
     0
279
    -2
289
     1
 69
     0
  7
Standard
140
0.25
170
     5
 62
     0
 63
     7
283
     0
 90
      512
 91
        0
  1

274
    -2
284
     1
 64
     0
275
    -2
285
     1
 65
     0
276
    -2
286
     1
 66
     0
277
    -2
287
     1
 67
     0
278
    -2
288
     1
 68
     0
279
    -2
289
     1
 69
     0
  7
Standard
140
0.18
170
     5
 62
     0
 63
     7
283
     0
 90
      512
 91
        0
  1

274
    -2
284
     1
 64
     0
275
    -2
285
     1
 65
     0
276
    -2
286
     1
 66
     0
277
    -2
287
     1
 67
     0
278
    -2
288
     1
 68
     0
279
    -2
289
     1
 69
     0
  0
VISUALSTYLE
  5
2F
102
{ACAD_XDICTIONARY
360
1B2
102
}
102
{ACAD_REACTORS
330
29
102
}
330
29
100
AcDbVisualStyle
  2
2dWireframe
 70
     4
177
     2
291
     0
 71
     0
176
     1
 72
     2
176
     1
 73
     0
176
     1
 90
        0
176
     1
 40
0.6
176
     1
 41
30.0
176
     1
 63
     7
421
 16777215
176
     1
 74
     1
176
     1
 91
        4
176
     1
 64
     7
176
     1
 65
   257
176
     1
 75
     1
176
     1
175
     1
176
     1
 42
1.0
176
     1
 92
        0
176
     1
 66
   257
176
     1
 43
1.0
176
     1
 76
     1
176
     1
 77
     6
176
     1
 78
     2
176
     1
 67
     7
176
     1
 79
     5
176
     1
170
     0
176
     1
171
     0
176
     1
290
     0
176
     1
 93
        1
176
     1
 44
0.0
176
     1
173
     0
176
     1
1001
ACAD
1000
AcDbSavedByObjectVersion
1070
     0
  0
VISUALSTYLE
  5
2E
102
{ACAD_XDICTIONARY
360
1B0
102
}
102
{ACAD_REACTORS
330
29
102
}
330
29
100
AcDbVisualStyle
  2
Basic
 70
     7
177
     2
291
     1
 71
     1
176
     1
 72
     0
176
     1
 73
     1
176
     1
 90
        0
176
     1
 40
0.6
176
     1
 41
30.0
176
     1
 63
     7
421
 16777215
176
     1
 74
     0
176
     1
 91
        4
176
     1
 64
     7
176
     1
 65
   257
176
     1
 75
     1
176
     1
175
     1
176
     1
 42
1.0
176
     1
 92
        8
176
     1
 66
     7
176
     1
 43
1.0
176
     1
 76
     1
176
     1
 77
     6
176
     1
 78
     2
176
     1
 67
     7
176
     1
 79
     5
176
     1
170
     0
176
     1
171
     0
176
     1
290
     0
176
     1
 93
        1
176
     1
 44
0.0
176
     1
173
     0
176
     1
1001
ACAD
1000
AcDbSavedByObjectVersion
1070
     0
  0
VISUALSTYLE
  5
35
102
{ACAD_XDICTIONARY
360
1BE
102
}
102
{ACAD_REACTORS
330
29
102
}
330
29
100
AcDbVisualStyle
  2
Brighten
 70
    12
177
     2
291
     1
 71
     2
176
     1
 72
     2
176
     1
 73
     0
176
     1
 90
        0
176
     1
 40
0.6
176
     1
 41
30.0
176
     1
 63
     7
421
 16777215
176
     1
 74
     1
176
     1
 91
        4
176
     1
 64
     7
176
     1
 65
   257
176
     1
 75
     1
176
     1
175
     1
176
     1
 42
1.0
176
     1
 92
        8
176
     1
 66
     7
176
     1
 43
1.0
176
     1
 76
     1
176
     1
 77
     6
176
     1
 78
     2
176
     1
 67
     7
176
     1
 79
     5
176
     1
170
     0
176
     1
171
     0
176
     1
290
     0
176
     1
 93
        1
176
     1
 44
50.0
176
     1
173
     0
176
     1
1001
ACAD
1000
AcDbSavedByObjectVersion
1070
     0
  0
VISUALSTYLE
  5
39
102
{ACAD_XDICTIONARY
360
1C6
102
}
102
{ACAD_REACTORS
330
29
102
}
330
29
100
AcDbVisualStyle
  2
ColorChange
 70
    16
177
     2
291
     1
 71
     2
176
     1
 72
     2
176
     1
 73
     3
176
     1
 90
        0
176
     1
 40
0.6
176
     1
 41
30.0
176
     1
 63
     8
421
  8421504
176
     1
 74
     1
176
     1
 91
        4
176
     1
 64
     7
176
     1
 65
   257
176
     1
 75
     1
176
     1
175
     1
176
     1
 42
1.0
176
     1
 92
        8
176
     1
 66
     8
424
  8421504
176
     1
 43
1.0
176
     1
 76
     1
176
     1
 77
     6
176
     1
 78
     2
176
     1
 67
     7
176
     1
 79
     5
176
     1
170
     0
176
     1
171
     0
176
     1
290
     0
176
     1
 93
        1
176
     1
 44
0.0
176
     1
173
     0
176
     1
1001
ACAD
1000
AcDbSavedByObjectVersion
1070
     0
  0
VISUALSTYLE
  5
32
102
{ACAD_XDICTIONARY
360
1B8
102
}
102
{ACAD_REACTORS
330
29
102
}
330
29
100
AcDbVisualStyle
  2
Conceptual
 70
     9
177
     2
291
     0
 71
     3
176
     1
 72
     2
176
     1
 73
     0
176
     1
 90
        0
176
     1
 40
0.6
176
     1
 41
30.0
176
     1
 63
     7
421
 16777215
176
     1
 74
     2
176
     1
 91
        2
176
     1
 64
     7
176
     1
 65
   257
176
     1
 75
     1
176
     1
175
     1
176
     1
 42
179.0
176
     1
 92
        8
176
     1
 66
     7
176
     1
 43
1.0
176
     1
 76
     1
176
     1
 77
     6
176
     1
 78
     2
176
     1
 67
     7
176
     1
 79
     3
176
     1
170
     0
176
     1
171
     0
176
     1
290
     0
176
     1
 93
        1
176
     1
 44
0.0
176
     1
173
     0
176
     1
1001
ACAD
1000
AcDbSavedByObjectVersion
1070
     0
  0
VISUALSTYLE
  5
34
102
{ACAD_XDICTIONARY
360
1BC
102
}
102
{ACAD_REACTORS
330
29
102
}
330
29
100
AcDbVisualStyle
  2
Dim
 70
    11
177
     2
291
     1
 71
     2
176
     1
 72
     2
176
     1
 73
     0
176
     1
 90
        0
176
     1
 40
0.6
176
     1
 41
30.0
176
     1
 63
     7
421
 16777215
176
     1
 74
     1
176
     1
 91
        4
176
     1
 64
     7
176
     1
 65
   257
176
     1
 75
     1
176
     1
175
     1
176
     1
 42
1.0
176
     1
 92
        8
176
     1
 66
     7
176
     1
 43
1.0
176
     1
 76
     1
176
     1
 77
     6
176
     1
 78
     2
176
     1
 67
     7
176
     1
 79
     5
176
     1
170
     0
176
     1
171
     0
176
     1
290
     0
176
     1
 93
        1
176
     1
 44
-50.0
176
     1
173
     0
176
     1
1001
ACAD
1000
AcDbSavedByObjectVersion
1070
     0
  0
VISUALSTYLE
  5
41
102
{ACAD_XDICTIONARY
360
1D6
102
}
102
{ACAD_REACTORS
330
29
102
}
330
29
100
AcDbVisualStyle
  2
EdgeColorOff
 70
    22
177
     2
291
     1
 71
     2
176
     0
 72
     2
176
     0
 73
     0
176
     0
 90
        0
176
     0
 40
0.6
176
     0
 41
30.0
176
     0
 63
     7
421
 16777215
176
     0
 74
     1
176
     0
 91
        4
176
     0
 64
     7
176
     0
 65
   257
176
     0
 75
     1
176
     0
175
     1
176
     0
 42
1.0
176
     0
 92
        8
176
     2
 66
     7
176
     0
 43
1.0
176
     0
 76
     1
176
     0
 77
     6
176
     0
 78
     2
176
     0
 67
     7
176
     0
 79
     5
176
     0
170
     0
176
     0
171
     0
176
     0
290
     0
176
     0
 93
        1
176
     0
 44
0.0
176
     0
173
     0
176
     0
1001
ACAD
1000
AcDbSavedByObjectVersion
1070
     0
  0
VISUALSTYLE
  5
38
102
{ACAD_XDICTIONARY
360
1C4
102
}
102
{ACAD_REACTORS
330
29
102
}
330
29
100
AcDbVisualStyle
  2
Facepattern
 70
    15
177
     2
291
     1
 71
     2
176
     1
 72
     2
176
     1
 73
     0
176
     1
 90
        0
176
     1
 40
0.6
176
     1
 41
30.0
176
     1
 63
     7
421
 16777215
176
     1
 74
     1
176
     1
 91
        4
176
     1
 64
     7
176
     1
 65
   257
176
     1
 75
     1
176
     1
175
     1
176
     1
 42
1.0
176
     1
 92
        8
176
     1
 66
     7
176
     1
 43
1.0
176
     1
 76
     1
176
     1
 77
     6
176
     1
 78
     2
176
     1
 67
     7
176
     1
 79
     5
176
     1
170
     0
176
     1
171
     0
176
     1
290
     0
176
     1
 93
        1
176
     1
 44
0.0
176
     1
173
     0
176
     1
1001
ACAD
1000
AcDbSavedByObjectVersion
1070
     0
  0
VISUALSTYLE
  5
2A
102
{ACAD_XDICTIONARY
360
1A8
102
}
102
{ACAD_REACTORS
330
29
102
}
330
29
100
AcDbVisualStyle
  2
Flat
 70
     0
177
     2
291
     1
 71
     2
176
     1
 72
     1
176
     1
 73
     1
176
     1
 90
        2
176
     1
 40
0.6
176
     1
 41
30.0
176
     1
 63
     7
421
 16777215
176
     1
 74
     0
176
     1
 91
        0
176
     1
 64
     7
176
     1
 65
   257
176
     1
 75
     1
176
     1
175
     1
176
     1
 42
1.0
176
     1
 92
        8
176
     1
 66
     7
176
     1
 43
1.0
176
     1
 76
     1
176
     1
 77
     6
176
     1
 78
     2
176
     1
 67
     7
176
     1
 79
     5
176
     1
170
     0
176
     1
171
     0
176
     1
290
     0
176
     1
 93
       13
176
     1
 44
0.0
176
     1
173
     0
176
     1
1001
ACAD
1000
AcDbSavedByObjectVersion
1070
     0
  0
VISUALSTYLE
  5
2B
102
{ACAD_XDICTIONARY
360
1AA
102
}
102
{ACAD_REACTORS
330
29
102
}
330
29
100
AcDbVisualStyle
  2
FlatWithEdges
 70
     1
177
     2
291
     1
 71
     2
176
     1
 72
     1
176
     1
 73
     1
176
     1
 90
        2
176
     1
 40
0.6
176
     1
 41
30.0
176
     1
 63
     7
421
 16777215
176
     1
 74
     1
176
     1
 91
        0
176
     1
 64
     7
176
     1
 65
   257
176
     1
 75
     1
176
     1
175
     1
176
     1
 42
1.0
176
     1
 92
        0
176
     1
 66
   257
176
     1
 43
1.0
176
     1
 76
     1
176
     1
 77
     6
176
     1
 78
     2
176
     1
 67
     7
176
     1
 79
     5
176
     1
170
     0
176
     1
171
     0
176
     1
290
     0
176
     1
 93
       13
176
     1
 44
0.0
176
     1
173
     0
176
     1
1001
ACAD
1000
AcDbSavedByObjectVersion
1070
     0
  0
VISUALSTYLE
  5
2C
102
{ACAD_XDICTIONARY
360
1AC
102
}
102
{ACAD_REACTORS
330
29
102
}
330
29
100
AcDbVisualStyle
  2
Gouraud
 70
     2
177
     2
291
     1
 71
     2
176
     1
 72
     2
176
     1
 73
     1
176
     1
 90
        2
176
     1
 40
0.6
176
     1
 41
30.0
176
     1
 63
     7
421
 16777215
176
     1
 74
     0
176
     1
 91
        0
176
     1
 64
     7
176
     1
 65
   257
176
     1
 75
     1
176
     1
175
     1
176
     1
 42
1.0
176
     1
 92
        0
176
     1
 66
     7
176
     1
 43
1.0
176
     1
 76
     1
176
     1
 77
     6
176
     1
 78
     2
176
     1
 67
     7
176
     1
 79
     5
176
     1
170
     0
176
     1
171
     0
176
     1
290
     0
176
     1
 93
       13
176
     1
 44
0.0
176
     1
173
     0
176
     1
1001
ACAD
1000
AcDbSavedByObjectVersion
1070
     0
  0
VISUALSTYLE
  5
2D
102
{ACAD_XDICTIONARY
360
1AE
102
}
102
{ACAD_REACTORS
330
29
102
}
330
29
100
AcDbVisualStyle
  2
GouraudWithEdges
 70
     3
177
     2
291
     1
 71
     2
176
     1
 72
     2
176
     1
 73
     1
176
     1
 90
        2
176
     1
 40
0.6
176
     1
 41
30.0
176
     1
 63
     7
421
 16777215
176
     1
 74
     1
176
     1
 91
        0
176
     1
 64
     7
176
     1
 65
   257
176
     1
 75
     1
176
     1
175
     1
176
     1
 42
1.0
176
     1
 92
        0
176
     1
 66
   257
176
     1
 43
1.0
176
     1
 76
     1
176
     1
 77
     6
176
     1
 78
     2
176
     1
 67
     7
176
     1
 79
     5
176
     1
170
     0
176
     1
171
     0
176
     1
290
     0
176
     1
 93
       13
176
     1
 44
0.0
176
     1
173
     0
176
     1
1001
ACAD
1000
AcDbSavedByObjectVersion
1070
     0
  0
VISUALSTYLE
  5
31
102
{ACAD_XDICTIONARY
360
1B6
102
}
102
{ACAD_REACTORS
330
29
102
}
330
29
100
AcDbVisualStyle
  2
Hidden
 70
     6
177
     2
291
     0
 71
     1
176
     1
 72
     2
176
     1
 73
     2
176
     1
 90
        0
176
     1
 40
0.6
176
     1
 41
30.0
176
     1
 63
     7
421
 16777215
176
     1
 74
     2
176
     1
 91
        2
176
     1
 64
     7
176
     1
 65
   257
176
     1
 75
     2
176
     1
175
     1
176
     1
 42
40.0
176
     1
 92
        0
176
     1
 66
   257
176
     1
 43
1.0
176
     1
 76
     1
176
     1
 77
     6
176
     1
 78
     2
176
     1
 67
     7
176
     1
 79
     3
176
     1
170
     0
176
     1
171
     0
176
     1
290
     0
176
     1
 93
        1
176
     1
 44
0.0
176
     1
173
     0
176
     1
1001
ACAD
1000
AcDbSavedByObjectVersion
1070
     0
  0
VISUALSTYLE
  5
3F
102
{ACAD_XDICTIONARY
360
1D2
102
}
102
{ACAD_REACTORS
330
29
102
}
330
29
100
AcDbVisualStyle
  2
JitterOff
 70
    20
177
     2
291
     1
 71
     2
176
     0
 72
     2
176
     0
 73
     0
176
     0
 90
        0
176
     0
 40
0.6
176
     0
 41
30.0
176
     0
 63
     7
421
 16777215
176
     0
 74
     1
176
     0
 91
        4
176
     0
 64
     7
176
     0
 65
   257
176
     0
 75
     1
176
     0
175
     1
176
     0
 42
1.0
176
     0
 92
       10
176
     2
 66
     7
176
     0
 43
1.0
176
     0
 76
     1
176
     0
 77
     6
176
     0
 78
     2
176
     0
 67
     7
176
     0
 79
     5
176
     0
170
     0
176
     0
171
     0
176
     0
290
     0
176
     0
 93
        1
176
     0
 44
0.0
176
     0
173
     0
176
     0
1001
ACAD
1000
AcDbSavedByObjectVersion
1070
     0
  0
VISUALSTYLE
  5
37
102
{ACAD_XDICTIONARY
360
1C2
102
}
102
{ACAD_REACTORS
330
29
102
}
330
29
100
AcDbVisualStyle
  2
Linepattern
 70
    14
177
     2
291
     1
 71
     2
176
     1
 72
     2
176
     1
 73
     0
176
     1
 90
        0
176
     1
 40
0.6
176
     1
 41
30.0
176
     1
 63
     7
421
 16777215
176
     1
 74
     1
176
     1
 91
        4
176
     1
 64
     7
176
     1
 65
   257
176
     1
 75
     7
176
     1
175
     7
176
     1
 42
1.0
176
     1
 92
        8
176
     1
 66
     7
176
     1
 43
1.0
176
     1
 76
     1
176
     1
 77
     6
176
     1
 78
     2
176
     1
 67
     7
176
     1
 79
     5
176
     1
170
     0
176
     1
171
     0
176
     1
290
     0
176
     1
 93
        1
176
     1
 44
0.0
176
     1
173
     0
176
     1
1001
ACAD
1000
AcDbSavedByObjectVersion
1070
     0
  0
VISUALSTYLE
  5
40
102
{ACAD_XDICTIONARY
360
1D4
102
}
102
{ACAD_REACTORS
330
29
102
}
330
29
100
AcDbVisualStyle
  2
OverhangOff
 70
    21
177
     2
291
     1
 71
     2
176
     0
 72
     2
176
     0
 73
     0
176
     0
 90
        0
176
     0
 40
0.6
176
     0
 41
30.0
176
     0
 63
     7
421
 16777215
176
     0
 74
     1
176
     0
 91
        4
176
     0
 64
     7
176
     0
 65
   257
176
     0
 75
     1
176
     0
175
     1
176
     0
 42
1.0
176
     0
 92
        9
176
     2
 66
     7
176
     0
 43
1.0
176
     0
 76
     1
176
     0
 77
     6
176
     0
 78
     2
176
     0
 67
     7
176
     0
 79
     5
176
     0
170
     0
176
     0
171
     0
176
     0
290
     0
176
     0
 93
        1
176
     0
 44
0.0
176
     0
173
     0
176
     0
1001
ACAD
1000
AcDbSavedByObjectVersion
1070
     0
  0
VISUALSTYLE
  5
33
102
{ACAD_XDICTIONARY
360
1BA
102
}
102
{ACAD_REACTORS
330
29
102
}
330
29
100
AcDbVisualStyle
  2
Realistic
 70
     8
177
     2
291
     0
 71
     2
176
     1
 72
     3
176
     1
 73
     0
176
     1
 90
        2
176
     1
 40
0.6
176
     1
 41
30.0
176
     1
 63
     7
421
 16777215
176
     1
 74
     0
176
     1
 91
        0
176
     1
 64
     7
176
     1
 65
   257
176
     1
 75
     1
176
     1
175
     1
176
     1
 42
1.0
176
     1
 92
        8
176
     1
 66
   257
176
     1
 43
1.0
176
     1
 76
     1
176
     1
 77
     6
176
     1
 78
     2
176
     1
 67
     7
176
     1
 79
     3
176
     1
170
     0
176
     1
171
     0
176
     1
290
     0
176
     1
 93
       13
176
     1
 44
0.0
176
     1
173
     0
176
     1
1001
ACAD
1000
AcDbSavedByObjectVersion
1070
     0
  0
VISUALSTYLE
  5
3E
102
{ACAD_XDICTIONARY
360
1D0
102
}
102
{ACAD_REACTORS
330
29
102
}
330
29
100
AcDbVisualStyle
  2
Shaded
 70
    27
177
     2
291
     0
 71
     2
176
     1
 72
     2
176
     1
 73
     1
176
     1
 90
        2
176
     1
 40
0.6
176
     1
 41
30.0
176
     1
 63
     7
421
 16777215
176
     1
 74
     0
176
     1
 91
        4
176
     1
 64
     7
176
     1
 65
   257
176
     1
 75
     1
176
     1
175
     1
176
     1
 42
1.0
176
     1
 92
        8
176
     1
 66
   257
176
     1
 43
1.0
176
     1
 76
     1
176
     1
 77
     6
176
     1
 78
     2
176
     1
 67
     8
425
  7895160
176
     1
 79
     3
176
     1
170
     0
176
     1
171
     0
176
     1
290
     0
176
     1
 93
        5
176
     1
 44
0.0
176
     1
173
     0
176
     1
1001
ACAD
1000
AcDbSavedByObjectVersion
1070
     0
  0
VISUALSTYLE
  5
3D
102
{ACAD_XDICTIONARY
360
1CE
102
}
102
{ACAD_REACTORS
330
29
102
}
330
29
100
AcDbVisualStyle
  2
Shaded with edges
 70
    26
177
     2
291
     0
 71
     2
176
     1
 72
     2
176
     1
 73
     1
176
     1
 90
        2
176
     1
 40
0.6
176
     1
 41
30.0
176
     1
 63
     7
421
 16777215
176
     1
 74
     1
176
     1
 91
        2
176
     1
 64
     7
176
     1
 65
   257
176
     1
 75
     2
176
     1
175
     1
176
     1
 42
1.0
176
     1
 92
        8
176
     1
 66
   257
176
     1
 43
1.0
176
     1
 76
     1
176
     1
 77
     6
176
     1
 78
     2
176
     1
 67
     7
176
     1
 79
     3
176
     1
170
     0
176
     1
171
     0
176
     1
290
     0
176
     1
 93
        5
176
     1
 44
0.0
176
     1
173
     0
176
     1
1001
ACAD
1000
AcDbSavedByObjectVersion
1070
     0
  0
VISUALSTYLE
  5
3A
102
{ACAD_XDICTIONARY
360
1C8
102
}
102
{ACAD_REACTORS
330
29
102
}
330
29
100
AcDbVisualStyle
  2
Shades of Gray
 70
    23
177
     2
291
     0
 71
     2
176
     1
 72
     2
176
     1
 73
     3
176
     1
 90
        0
176
     1
 40
0.6
176
     1
 41
30.0
176
     1
 63
     7
421
 16777215
176
     1
 74
     2
176
     1
 91
        2
176
     1
 64
     7
176
     1
 65
     7
176
     1
 75
     1
176
     1
175
     1
176
     1
 42
40.0
176
     1
 92
        8
176
     1
 66
     7
176
     1
 43
1.0
176
     1
 76
     1
176
     1
 77
     6
176
     1
 78
     2
176
     1
 67
     7
176
     1
 79
     3
176
     1
170
     0
176
     1
171
     0
176
     1
290
     0
176
     1
 93
        1
176
     1
 44
0.0
176
     1
173
     0
176
     1
1001
ACAD
1000
AcDbSavedByObjectVersion
1070
     0
  0
VISUALSTYLE
  5
3B
102
{ACAD_XDICTIONARY
360
1CA
102
}
102
{ACAD_REACTORS
330
29
102
}
330
29
100
AcDbVisualStyle
  2
Sketchy
 70
    24
177
     2
291
     0
 71
     1
176
     1
 72
     2
176
     1
 73
     2
176
     1
 90
        0
176
     1
 40
0.6
176
     1
 41
30.0
176
     1
 63
     7
421
 16777215
176
     1
 74
     2
176
     1
 91
        2
176
     1
 64
     7
176
     1
 65
     7
176
     1
 75
     1
176
     1
175
     1
176
     1
 42
40.0
176
     1
 92
       11
176
     1
 66
     7
176
     1
 43
1.0
176
     1
 76
     1
176
     1
 77
     6
176
     1
 78
     2
176
     1
 67
     7
176
     1
 79
     6
176
     1
170
     0
176
     1
171
     0
176
     1
290
     0
176
     1
 93
        1
176
     1
 44
0.0
176
     1
173
     0
176
     1
1001
ACAD
1000
AcDbSavedByObjectVersion
1070
     0
  0
VISUALSTYLE
  5
36
102
{ACAD_XDICTIONARY
360
1C0
102
}
102
{ACAD_REACTORS
330
29
102
}
330
29
100
AcDbVisualStyle
  2
Thicken
 70
    13
177
     2
291
     1
 71
     2
176
     1
 72
     2
176
     1
 73
     0
176
     1
 90
        0
176
     1
 40
0.6
176
     1
 41
30.0
176
     1
 63
     7
421
 16777215
176
     1
 74
     1
176
     1
 91
        4
176
     1
 64
     7
176
     1
 65
   257
176
     1
 75
     1
176
     1
175
     1
176
     1
 42
1.0
176
     1
 92
       12
176
     1
 66
     7
176
     1
 43
1.0
176
     1
 76
     1
176
     1
 77
     6
176
     1
 78
     2
176
     1
 67
     7
176
     1
 79
     5
176
     1
170
     0
176
     1
171
     0
176
     1
290
     0
176
     1
 93
        1
176
     1
 44
0.0
176
     1
173
     0
176
     1
1001
ACAD
1000
AcDbSavedByObjectVersion
1070
     0
  0
VISUALSTYLE
  5
30
102
{ACAD_XDICTIONARY
360
1B4
102
}
102
{ACAD_REACTORS
330
29
102
}
330
29
100
AcDbVisualStyle
  2
Wireframe
 70
     5
177
     2
291
     0
 71
     0
176
     1
 72
     2
176
     1
 73
     0
176
     1
 90
        0
176
     1
 40
0.6
176
     1
 41
30.0
176
     1
 63
     7
421
 16777215
176
     1
 74
     1
176
     1
 91
        4
176
     1
 64
     7
176
     1
 65
   257
176
     1
 75
     1
176
     1
175
     1
176
     1
 42
1.0
176
     1
 92
        0
176
     1
 66
   257
176
     1
 43
1.0
176
     1
 76
     1
176
     1
 77
     6
176
     1
 78
     2
176
     1
 67
     7
176
     1
 79
     3
176
     1
170
     0
176
     1
171
     0
176
     1
290
     0
176
     1
 93
        1
176
     1
 44
0.0
176
     1
173
     0
176
     1
1001
ACAD
1000
AcDbSavedByObjectVersion
1070
     0
  0
VISUALSTYLE
  5
3C
102
{ACAD_XDICTIONARY
360
1CC
102
}
102
{ACAD_REACTORS
330
29
102
}
330
29
100
AcDbVisualStyle
  2
X-Ray
 70
    25
177
     2
291
     0
 71
     2
176
     1
 72
     2
176
     1
 73
     1
176
     1
 90
        1
176
     1
 40
0.5
176
     1
 41
30.0
176
     1
 63
     7
421
 16777215
176
     1
 74
     1
176
     1
 91
        0
176
     1
 64
     7
176
     1
 65
   257
176
     1
 75
     1
176
     1
175
     1
176
     1
 42
1.0
176
     1
 92
        8
176
     1
 66
     7
176
     1
 43
1.0
176
     1
 76
     1
176
     1
 77
     6
176
     1
 78
     2
176
     1
 67
     7
176
     1
 79
     3
176
     1
170
     0
176
     1
171
     0
176
     1
290
     0
176
     1
 93
       13
176
     1
 44
0.0
176
     1
173
     0
176
     1
1001
ACAD
1000
AcDbSavedByObjectVersion
1070
     0
  0
DICTIONARYVAR
  5
1A4
102
{ACAD_REACTORS
330
19F
102
}
330
19F
100
DictionaryVariables
280
     0
  1
1:1
  0
DICTIONARYVAR
  5
1A1
102
{ACAD_REACTORS
330
19F
102
}
330
19F
100
DictionaryVariables
280
     0
  1
STANDARD
  0
DICTIONARYVAR
  5
1A0
102
{ACAD_REACTORS
330
19F
102
}
330
19F
100
DictionaryVariables
280
     0
  1
STANDARD
  0
DICTIONARYVAR
  5
1A2
102
{ACAD_REACTORS
330
19F
102
}
330
19F
100
DictionaryVariables
280
     0
  1
Imperial24
  0
DICTIONARYVAR
  5
1A3
102
{ACAD_REACTORS
330
19F
102
}
330
19F
100
DictionaryVariables
280
     0
  1
Imperial24
  0
DICTIONARY
  5
1DC
330
6B
100
AcDbDictionary
280
     1
281
     1
  3
ACAD_XREC_ROUNDTRIP
360
1DD
  0
DICTIONARY
  5
1A
330
19
100
AcDbDictionary
280
     1
281
     1
  3
BUMPTILE
360
1C
  3
DIFFUSETILE
360
1B
  3
OPACITYTILE
360
1F
  3
REFLECTIONTILE
360
1E
  3
REFRACTIONTILE
360
20
  3
SPECULARTILE
360
1D
  0
DICTIONARY
  5
12
330
11
100
AcDbDictionary
280
     1
281
     1
  3
BUMPTILE
360
14
  3
DIFFUSETILE
360
13
  3
OPACITYTILE
360
17
  3
REFLECTIONTILE
360
16
  3
REFRACTIONTILE
360
18
  3
SPECULARTILE
360
15
  0
DICTIONARY
  5
22
330
21
100
AcDbDictionary
280
     1
281
     1
  3
BUMPTILE
360
24
  3
DIFFUSETILE
360
23
  3
OPACITYTILE
360
27
  3
REFLECTIONTILE
360
26
  3
REFRACTIONTILE
360
28
  3
SPECULARTILE
360
25
  0
DICTIONARY
  5
1D8
330
67
100
AcDbDictionary
280
     1
281
     1
  3
ACAD_XREC_ROUNDTRIP
360
1D9
  0
DICTIONARY
  5
1DA
330
69
100
AcDbDictionary
280
     1
281
     1
  3
ACAD_XREC_ROUNDTRIP
360
1DB
  0
DICTIONARY
  5
1A5
330
65
100
AcDbDictionary
280
     1
281
     1
  3
ACAD_ROUNDTRIP_2008_TABLESTYLE_CELLSTYLEMAP
360
1A6
  0
DICTIONARY
  5
1B2
330
2F
100
AcDbDictionary
280
     1
281
     1
  3
ACAD_XREC_ROUNDTRIP
360
1B3
  0
DICTIONARY
  5
1B0
330
2E
100
AcDbDictionary
280
     1
281
     1
  3
ACAD_XREC_ROUNDTRIP
360
1B1
  0
DICTIONARY
  5
1BE
330
35
100
AcDbDictionary
280
     1
281
     1
  3
ACAD_XREC_ROUNDTRIP
360
1BF
  0
DICTIONARY
  5
1C6
330
39
100
AcDbDictionary
280
     1
281
     1
  3
ACAD_XREC_ROUNDTRIP
360
1C7
  0
DICTIONARY
  5
1B8
330
32
100
AcDbDictionary
280
     1
281
     1
  3
ACAD_XREC_ROUNDTRIP
360
1B9
  0
DICTIONARY
  5
1BC
330
34
100
AcDbDictionary
280
     1
281
     1
  3
ACAD_XREC_ROUNDTRIP
360
1BD
  0
DICTIONARY
  5
1D6
330
41
100
AcDbDictionary
280
     1
281
     1
  3
ACAD_XREC_ROUNDTRIP
360
1D7
  0
DICTIONARY
  5
1C4
330
38
100
AcDbDictionary
280
     1
281
     1
  3
ACAD_XREC_ROUNDTRIP
360
1C5
  0
DICTIONARY
  5
1A8
330
2A
100
AcDbDictionary
280
     1
281
     1
  3
ACAD_XREC_ROUNDTRIP
360
1A9
  0
DICTIONARY
  5
1AA
330
2B
100
AcDbDictionary
280
     1
281
     1
  3
ACAD_XREC_ROUNDTRIP
360
1AB
  0
DICTIONARY
  5
1AC
330
2C
100
AcDbDictionary
280
     1
281
     1
  3
ACAD_XREC_ROUNDTRIP
360
1AD
  0
DICTIONARY
  5
1AE
330
2D
100
AcDbDictionary
280
     1
281
     1
  3
ACAD_XREC_ROUNDTRIP
360
1AF
  0
DICTIONARY
  5
1B6
330
31
100
AcDbDictionary
280
     1
281
     1
  3
ACAD_XREC_ROUNDTRIP
360
1B7
  0
DICTIONARY
  5
1D2
330
3F
100
AcDbDictionary
280
     1
281
     1
  3
ACAD_XREC_ROUNDTRIP
360
1D3
  0
DICTIONARY
  5
1C2
330
37
100
AcDbDictionary
280
     1
281
     1
  3
ACAD_XREC_ROUNDTRIP
360
1C3
  0
DICTIONARY
  5
1D4
330
40
100
AcDbDictionary
280
     1
281
     1
  3
ACAD_XREC_ROUNDTRIP
360
1D5
  0
DICTIONARY
  5
1BA
330
33
100
AcDbDictionary
280
     1
281
     1
  3
ACAD_XREC_ROUNDTRIP
360
1BB
  0
DICTIONARY
  5
1D0
330
3E
100
AcDbDictionary
280
     1
281
     1
  3
ACAD_XREC_ROUNDTRIP
360
1D1
  0
DICTIONARY
  5
1CE
330
3D
100
AcDbDictionary
280
     1
281
     1
  3
ACAD_XREC_ROUNDTRIP
360
1CF
  0
DICTIONARY
  5
1C8
330
3A
100
AcDbDictionary
280
     1
281
     1
  3
ACAD_XREC_ROUNDTRIP
360
1C9
  0
DICTIONARY
  5
1CA
330
3B
100
AcDbDictionary
280
     1
281
     1
  3
ACAD_XREC_ROUNDTRIP
360
1CB
  0
DICTIONARY
  5
1C0
330
36
100
AcDbDictionary
280
     1
281
     1
  3
ACAD_XREC_ROUNDTRIP
360
1C1
  0
DICTIONARY
  5
1B4
330
30
100
AcDbDictionary
280
     1
281
     1
  3
ACAD_XREC_ROUNDTRIP
360
1B5
  0
DICTIONARY
  5
1CC
330
3C
100
AcDbDictionary
280
     1
281
     1
  3
ACAD_XREC_ROUNDTRIP
360
1CD
  0
XRECORD
  5
1DD
102
{ACAD_REACTORS
330
1DC
102
}
330
1DC
100
AcDbXrecord
280
     1
102
DISPLAYNAME
  1
Imperial24
102
FLAGS
 90
        0
  0
XRECORD
  5
1C
102
{ACAD_REACTORS
330
1A
102
}
330
1A
100
AcDbXrecord
280
     1
270
     1
271
     1
  0
XRECORD
  5
1B
102
{ACAD_REACTORS
330
1A
102
}
330
1A
100
AcDbXrecord
280
     1
270
     1
271
     1
  0
XRECORD
  5
1F
102
{ACAD_REACTORS
330
1A
102
}
330
1A
100
AcDbXrecord
280
     1
270
     1
271
     1
  0
XRECORD
  5
1E
102
{ACAD_REACTORS
330
1A
102
}
330
1A
100
AcDbXrecord
280
     1
270
     1
271
     1
  0
XRECORD
  5
20
102
{ACAD_REACTORS
330
1A
102
}
330
1A
100
AcDbXrecord
280
     1
270
     1
271
     1
  0
XRECORD
  5
1D
102
{ACAD_REACTORS
330
1A
102
}
330
1A
100
AcDbXrecord
280
     1
270
     1
271
     1
  0
XRECORD
  5
14
102
{ACAD_REACTORS
330
12
102
}
330
12
100
AcDbXrecord
280
     1
270
     1
271
     1
  0
XRECORD
  5
13
102
{ACAD_REACTORS
330
12
102
}
330
12
100
AcDbXrecord
280
     1
270
     1
271
     1
  0
XRECORD
  5
17
102
{ACAD_REACTORS
330
12
102
}
330
12
100
AcDbXrecord
280
     1
270
     1
271
     1
  0
XRECORD
  5
16
102
{ACAD_REACTORS
330
12
102
}
330
12
100
AcDbXrecord
280
     1
270
     1
271
     1
  0
XRECORD
  5
18
102
{ACAD_REACTORS
330
12
102
}
330
12
100
AcDbXrecord
280
     1
270
     1
271
     1
  0
XRECORD
  5
15
102
{ACAD_REACTORS
330
12
102
}
330
12
100
AcDbXrecord
280
     1
270
     1
271
     1
  0
XRECORD
  5
24
102
{ACAD_REACTORS
330
22
102
}
330
22
100
AcDbXrecord
280
     1
270
     1
271
     1
  0
XRECORD
  5
23
102
{ACAD_REACTORS
330
22
102
}
330
22
100
AcDbXrecord
280
     1
270
     1
271
     1
  0
XRECORD
  5
27
102
{ACAD_REACTORS
330
22
102
}
330
22
100
AcDbXrecord
280
     1
270
     1
271
     1
  0
XRECORD
  5
26
102
{ACAD_REACTORS
330
22
102
}
330
22
100
AcDbXrecord
280
     1
270
     1
271
     1
  0
XRECORD
  5
28
102
{ACAD_REACTORS
330
22
102
}
330
22
100
AcDbXrecord
280
     1
270
     1
271
     1
  0
XRECORD
  5
25
102
{ACAD_REACTORS
330
22
102
}
330
22
100
AcDbXrecord
280
     1
270
     1
271
     1
  0
XRECORD
  5
1D9
102
{ACAD_REACTORS
330
1D8
102
}
330
1D8
100
AcDbXrecord
280
     1
102
ACAD_ROUNDTRIP_2012_MLEADER_STYLE
298
     1
  0
XRECORD
  5
1DB
102
{ACAD_REACTORS
330
1DA
102
}
330
1DA
100
AcDbXrecord
280
     1
102
DISPLAYNAME
  1
Imperial24
102
FLAGS
 90
        0
  0
CELLSTYLEMAP
  5
1A6
102
{ACAD_REACTORS
330
1A5
102
}
330
1A5
100
AcDbCellStyleMap
 90
        3
300
CELLSTYLE
  1
TABLEFORMAT_BEGIN
 90
        5
170
     1
 91
        0
 92
    32768
 62
   257
 93
        1
300
CONTENTFORMAT
  1
CONTENTFORMAT_BEGIN
 90
        0
 91
        0
 92
      512
 93
        0
300

 40
0.0
140
1.0
 94
        5
 62
     0
340
55
144
0.25
309
CONTENTFORMAT_END
171
     0
 94
        0
309
TABLEFORMAT_END
  1
CELLSTYLE_BEGIN
 90
        1
 91
        1
300
_TITLE
309
CELLSTYLE_END
300
CELLSTYLE
  1
TABLEFORMAT_BEGIN
 90
        5
170
     1
 91
        0
 92
        0
 62
   257
 93
        1
300
CONTENTFORMAT
  1
CONTENTFORMAT_BEGIN
 90
        0
 91
        0
 92
      512
 93
        0
300

 40
0.0
140
1.0
 94
        5
 62
     0
340
55
144
0.18
309
CONTENTFORMAT_END
171
     0
 94
        0
309
TABLEFORMAT_END
  1
CELLSTYLE_BEGIN
 90
        2
 91
        1
300
_HEADER
309
CELLSTYLE_END
300
CELLSTYLE
  1
TABLEFORMAT_BEGIN
 90
        5
170
     1
 91
        0
 92
        0
 62
   257
 93
        1
300
CONTENTFORMAT
  1
CONTENTFORMAT_BEGIN
 90
        0
 91
        0
 92
      512
 93
        0
300

 40
0.0
140
1.0
 94
        2
 62
     0
340
55
144
0.18
309
CONTENTFORMAT_END
171
     0
 94
        0
309
TABLEFORMAT_END
  1
CELLSTYLE_BEGIN
 90
        3
 91
        2
300
_DATA
309
CELLSTYLE_END
  0
XRECORD
  5
1B3
102
{ACAD_REACTORS
330
1B2
102
}
330
1B2
100
AcDbXrecord
280
     1
102
RTVSPost2010Prop28
280
     1
102
RTVSPost2010PropOp28
 70
     1
102
RTVSPost2010Prop29
280
     1
102
RTVSPost2010PropOp29
 70
     1
102
RTVSPost2010Prop30
280
     0
102
RTVSPost2010PropOp30
 70
     1
102
RTVSPost2010Prop31
280
     0
102
RTVSPost2010PropOp31
 70
     1
102
RTVSPost2010Prop32
280
     0
102
RTVSPost2010PropOp32
 70
     1
102
RTVSPost2010Prop33
280
     0
102
RTVSPost2010PropOp33
 70
     1
102
RTVSPost2010Prop34
280
     0
102
RTVSPost2010PropOp34
 70
     1
102
RTVSPost2010Prop35
280
     0
102
RTVSPost2010PropOp35
 70
     1
102
RTVSPost2010Prop36
280
     0
102
RTVSPost2010PropOp36
 70
     1
102
RTVSPost2010Prop37
 90
       50
102
RTVSPost2010PropOp37
 70
     1
102
RTVSPost2010Prop38
140
0.0
102
RTVSPost2010PropOp38
 70
     1
102
RTVSPost2010Prop39
140
1.0
102
RTVSPost2010PropOp39
 70
     1
102
RTVSPost2010Prop40
 90
        0
102
RTVSPost2010PropOp40
 70
     1
102
RTVSPost2010Prop41ColorIndex
 90
       18
102
RTVSPost2010Prop41ColorRGB
 90
        0
102
RTVSPost2010PropOp41
 70
     1
102
RTVSPost2010Prop42
 90
       50
102
RTVSPost2010PropOp42
 70
     1
102
RTVSPost2010Prop43
 90
        3
102
RTVSPost2010PropOp43
 70
     1
102
RTVSPost2010Prop44ColorIndex
 90
        5
102
RTVSPost2010Prop44ColorRGB
 90
      255
102
RTVSPost2010PropOp44
 70
     1
102
RTVSPost2010Prop45
280
     0
102
RTVSPost2010PropOp45
 70
     1
102
RTVSPost2010Prop46
 90
       50
102
RTVSPost2010PropOp46
 70
     1
102
RTVSPost2010Prop47
 90
       50
102
RTVSPost2010PropOp47
 70
     1
102
RTVSPost2010Prop48
 90
       50
102
RTVSPost2010PropOp48
 70
     1
102
RTVSPost2010Prop49
280
     0
102
RTVSPost2010PropOp49
 70
     1
102
RTVSPost2010Prop50
 90
       50
102
RTVSPost2010PropOp50
 70
     1
102
RTVSPost2010Prop51ColorIndex
 90
      256
102
RTVSPost2010Prop51ColorRGB
 90
-16777216
102
RTVSPost2010PropOp51
 70
     0
102
RTVSPost2010Prop52
140
1.0
102
RTVSPost2010PropOp52
 70
     0
102
RTVSPost2010Prop53
 90
        2
102
RTVSPost2010PropOp53
 70
     1
102
RTVSPost2010Prop54
  1
strokes_ogs.tif
102
RTVSPost2010PropOp54
 70
     1
102
RTVSPost2010Prop55
280
     0
102
RTVSPost2010PropOp55
 70
     1
102
RTVSPost2010Prop56
140
1.0
102
RTVSPost2010PropOp56
 70
     1
102
RTVSPost2010Prop57
140
1.0
102
RTVSPost2010PropOp57
 70
     1
  0
XRECORD
  5
1B1
102
{ACAD_REACTORS
330
1B0
102
}
330
1B0
100
AcDbXrecord
280
     1
102
RTVSPost2010Prop28
280
     0
102
RTVSPost2010PropOp28
 70
     1
102
RTVSPost2010Prop29
280
     1
102
RTVSPost2010PropOp29
 70
     1
102
RTVSPost2010Prop30
280
     1
102
RTVSPost2010PropOp30
 70
     1
102
RTVSPost2010Prop31
280
     0
102
RTVSPost2010PropOp31
 70
     1
102
RTVSPost2010Prop32
280
     0
102
RTVSPost2010PropOp32
 70
     1
102
RTVSPost2010Prop33
280
     0
102
RTVSPost2010PropOp33
 70
     1
102
RTVSPost2010Prop34
280
     0
102
RTVSPost2010PropOp34
 70
     1
102
RTVSPost2010Prop35
280
     0
102
RTVSPost2010PropOp35
 70
     1
102
RTVSPost2010Prop36
280
     0
102
RTVSPost2010PropOp36
 70
     1
102
RTVSPost2010Prop37
 90
       50
102
RTVSPost2010PropOp37
 70
     1
102
RTVSPost2010Prop38
140
0.0
102
RTVSPost2010PropOp38
 70
     1
102
RTVSPost2010Prop39
140
1.0
102
RTVSPost2010PropOp39
 70
     1
102
RTVSPost2010Prop40
 90
        0
102
RTVSPost2010PropOp40
 70
     1
102
RTVSPost2010Prop41ColorIndex
 90
       18
102
RTVSPost2010Prop41ColorRGB
 90
        0
102
RTVSPost2010PropOp41
 70
     1
102
RTVSPost2010Prop42
 90
       50
102
RTVSPost2010PropOp42
 70
     1
102
RTVSPost2010Prop43
 90
        3
102
RTVSPost2010PropOp43
 70
     1
102
RTVSPost2010Prop44ColorIndex
 90
        5
102
RTVSPost2010Prop44ColorRGB
 90
      255
102
RTVSPost2010PropOp44
 70
     1
102
RTVSPost2010Prop45
280
     0
102
RTVSPost2010PropOp45
 70
     1
102
RTVSPost2010Prop46
 90
       50
102
RTVSPost2010PropOp46
 70
     1
102
RTVSPost2010Prop47
 90
       50
102
RTVSPost2010PropOp47
 70
     1
102
RTVSPost2010Prop48
 90
       50
102
RTVSPost2010PropOp48
 70
     1
102
RTVSPost2010Prop49
280
     0
102
RTVSPost2010PropOp49
 70
     1
102
RTVSPost2010Prop50
 90
       50
102
RTVSPost2010PropOp50
 70
     1
102
RTVSPost2010Prop51ColorIndex
 90
      256
102
RTVSPost2010Prop51ColorRGB
 90
-16777216
102
RTVSPost2010PropOp51
 70
     0
102
RTVSPost2010Prop52
140
1.0
102
RTVSPost2010PropOp52
 70
     0
102
RTVSPost2010Prop53
 90
        2
102
RTVSPost2010PropOp53
 70
     1
102
RTVSPost2010Prop54
  1
strokes_ogs.tif
102
RTVSPost2010PropOp54
 70
     1
102
RTVSPost2010Prop55
280
     0
102
RTVSPost2010PropOp55
 70
     1
102
RTVSPost2010Prop56
140
1.0
102
RTVSPost2010PropOp56
 70
     1
102
RTVSPost2010Prop57
140
1.0
102
RTVSPost2010PropOp57
 70
     1
  0
XRECORD
  5
1BF
102
{ACAD_REACTORS
330
1BE
102
}
330
1BE
100
AcDbXrecord
280
     1
102
RTVSPost2010Prop28
280
     0
102
RTVSPost2010PropOp28
 70
     1
102
RTVSPost2010Prop29
280
     1
102
RTVSPost2010PropOp29
 70
     1
102
RTVSPost2010Prop30
280
     1
102
RTVSPost2010PropOp30
 70
     1
102
RTVSPost2010Prop31
280
     0
102
RTVSPost2010PropOp31
 70
     1
102
RTVSPost2010Prop32
280
     0
102
RTVSPost2010PropOp32
 70
     1
102
RTVSPost2010Prop33
280
     0
102
RTVSPost2010PropOp33
 70
     1
102
RTVSPost2010Prop34
280
     0
102
RTVSPost2010PropOp34
 70
     1
102
RTVSPost2010Prop35
280
     0
102
RTVSPost2010PropOp35
 70
     1
102
RTVSPost2010Prop36
280
     0
102
RTVSPost2010PropOp36
 70
     1
102
RTVSPost2010Prop37
 90
       50
102
RTVSPost2010PropOp37
 70
     1
102
RTVSPost2010Prop38
140
0.0
102
RTVSPost2010PropOp38
 70
     1
102
RTVSPost2010Prop39
140
1.0
102
RTVSPost2010PropOp39
 70
     1
102
RTVSPost2010Prop40
 90
        0
102
RTVSPost2010PropOp40
 70
     1
102
RTVSPost2010Prop41ColorIndex
 90
       18
102
RTVSPost2010Prop41ColorRGB
 90
        0
102
RTVSPost2010PropOp41
 70
     1
102
RTVSPost2010Prop42
 90
       50
102
RTVSPost2010PropOp42
 70
     1
102
RTVSPost2010Prop43
 90
        3
102
RTVSPost2010PropOp43
 70
     1
102
RTVSPost2010Prop44ColorIndex
 90
        5
102
RTVSPost2010Prop44ColorRGB
 90
      255
102
RTVSPost2010PropOp44
 70
     1
102
RTVSPost2010Prop45
280
     0
102
RTVSPost2010PropOp45
 70
     1
102
RTVSPost2010Prop46
 90
       50
102
RTVSPost2010PropOp46
 70
     1
102
RTVSPost2010Prop47
 90
       50
102
RTVSPost2010PropOp47
 70
     1
102
RTVSPost2010Prop48
 90
       50
102
RTVSPost2010PropOp48
 70
     1
102
RTVSPost2010Prop49
280
     0
102
RTVSPost2010PropOp49
 70
     1
102
RTVSPost2010Prop50
 90
       50
102
RTVSPost2010PropOp50
 70
     1
102
RTVSPost2010Prop51ColorIndex
 90
      256
102
RTVSPost2010Prop51ColorRGB
 90
-16777216
102
RTVSPost2010PropOp51
 70
     0
102
RTVSPost2010Prop52
140
1.0
102
RTVSPost2010PropOp52
 70
     0
102
RTVSPost2010Prop53
 90
        2
102
RTVSPost2010PropOp53
 70
     1
102
RTVSPost2010Prop54
  1
strokes_ogs.tif
102
RTVSPost2010PropOp54
 70
     1
102
RTVSPost2010Prop55
280
     0
102
RTVSPost2010PropOp55
 70
     1
102
RTVSPost2010Prop56
140
1.0
102
RTVSPost2010PropOp56
 70
     1
102
RTVSPost2010Prop57
140
1.0
102
RTVSPost2010PropOp57
 70
     1
  0
XRECORD
  5
1C7
102
{ACAD_REACTORS
330
1C6
102
}
330
1C6
100
AcDbXrecord
280
     1
102
RTVSPost2010Prop28
280
     0
102
RTVSPost2010PropOp28
 70
     1
102
RTVSPost2010Prop29
280
     1
102
RTVSPost2010PropOp29
 70
     1
102
RTVSPost2010Prop30
280
     1
102
RTVSPost2010PropOp30
 70
     1
102
RTVSPost2010Prop31
280
     0
102
RTVSPost2010PropOp31
 70
     1
102
RTVSPost2010Prop32
280
     0
102
RTVSPost2010PropOp32
 70
     1
102
RTVSPost2010Prop33
280
     0
102
RTVSPost2010PropOp33
 70
     1
102
RTVSPost2010Prop34
280
     0
102
RTVSPost2010PropOp34
 70
     1
102
RTVSPost2010Prop35
280
     0
102
RTVSPost2010PropOp35
 70
     1
102
RTVSPost2010Prop36
280
     0
102
RTVSPost2010PropOp36
 70
     1
102
RTVSPost2010Prop37
 90
       50
102
RTVSPost2010PropOp37
 70
     1
102
RTVSPost2010Prop38
140
0.0
102
RTVSPost2010PropOp38
 70
     1
102
RTVSPost2010Prop39
140
1.0
102
RTVSPost2010PropOp39
 70
     1
102
RTVSPost2010Prop40
 90
        0
102
RTVSPost2010PropOp40
 70
     1
102
RTVSPost2010Prop41ColorIndex
 90
       18
102
RTVSPost2010Prop41ColorRGB
 90
        0
102
RTVSPost2010PropOp41
 70
     1
102
RTVSPost2010Prop42
 90
       50
102
RTVSPost2010PropOp42
 70
     1
102
RTVSPost2010Prop43
 90
        3
102
RTVSPost2010PropOp43
 70
     1
102
RTVSPost2010Prop44ColorIndex
 90
        5
102
RTVSPost2010Prop44ColorRGB
 90
      255
102
RTVSPost2010PropOp44
 70
     1
102
RTVSPost2010Prop45
280
     0
102
RTVSPost2010PropOp45
 70
     1
102
RTVSPost2010Prop46
 90
       50
102
RTVSPost2010PropOp46
 70
     1
102
RTVSPost2010Prop47
 90
       50
102
RTVSPost2010PropOp47
 70
     1
102
RTVSPost2010Prop48
 90
       50
102
RTVSPost2010PropOp48
 70
     1
102
RTVSPost2010Prop49
280
     0
102
RTVSPost2010PropOp49
 70
     1
102
RTVSPost2010Prop50
 90
       50
102
RTVSPost2010PropOp50
 70
     1
102
RTVSPost2010Prop51ColorIndex
 90
      256
102
RTVSPost2010Prop51ColorRGB
 90
-16777216
102
RTVSPost2010PropOp51
 70
     0
102
RTVSPost2010Prop52
140
1.0
102
RTVSPost2010PropOp52
 70
     0
102
RTVSPost2010Prop53
 90
        2
102
RTVSPost2010PropOp53
 70
     1
102
RTVSPost2010Prop54
  1
strokes_ogs.tif
102
RTVSPost2010PropOp54
 70
     1
102
RTVSPost2010Prop55
280
     0
102
RTVSPost2010PropOp55
 70
     1
102
RTVSPost2010Prop56
140
1.0
102
RTVSPost2010PropOp56
 70
     1
102
RTVSPost2010Prop57
140
1.0
102
RTVSPost2010PropOp57
 70
     1
  0
XRECORD
  5
1B9
102
{ACAD_REACTORS
330
1B8
102
}
330
1B8
100
AcDbXrecord
280
     1
102
RTVSPost2010Prop28
280
     0
102
RTVSPost2010PropOp28
 70
     1
102
RTVSPost2010Prop29
280
     1
102
RTVSPost2010PropOp29
 70
     1
102
RTVSPost2010Prop30
280
     1
102
RTVSPost2010PropOp30
 70
     1
102
RTVSPost2010Prop31
280
     0
102
RTVSPost2010PropOp31
 70
     1
102
RTVSPost2010Prop32
280
     0
102
RTVSPost2010PropOp32
 70
     1
102
RTVSPost2010Prop33
280
     0
102
RTVSPost2010PropOp33
 70
     1
102
RTVSPost2010Prop34
280
     0
102
RTVSPost2010PropOp34
 70
     1
102
RTVSPost2010Prop35
280
     0
102
RTVSPost2010PropOp35
 70
     1
102
RTVSPost2010Prop36
280
     0
102
RTVSPost2010PropOp36
 70
     1
102
RTVSPost2010Prop37
 90
       50
102
RTVSPost2010PropOp37
 70
     1
102
RTVSPost2010Prop38
140
0.0
102
RTVSPost2010PropOp38
 70
     1
102
RTVSPost2010Prop39
140
1.0
102
RTVSPost2010PropOp39
 70
     1
102
RTVSPost2010Prop40
 90
        0
102
RTVSPost2010PropOp40
 70
     1
102
RTVSPost2010Prop41ColorIndex
 90
       18
102
RTVSPost2010Prop41ColorRGB
 90
        0
102
RTVSPost2010PropOp41
 70
     1
102
RTVSPost2010Prop42
 90
       50
102
RTVSPost2010PropOp42
 70
     1
102
RTVSPost2010Prop43
 90
        3
102
RTVSPost2010PropOp43
 70
     1
102
RTVSPost2010Prop44ColorIndex
 90
        5
102
RTVSPost2010Prop44ColorRGB
 90
      255
102
RTVSPost2010PropOp44
 70
     1
102
RTVSPost2010Prop45
280
     0
102
RTVSPost2010PropOp45
 70
     1
102
RTVSPost2010Prop46
 90
       50
102
RTVSPost2010PropOp46
 70
     1
102
RTVSPost2010Prop47
 90
       50
102
RTVSPost2010PropOp47
 70
     1
102
RTVSPost2010Prop48
 90
       50
102
RTVSPost2010PropOp48
 70
     1
102
RTVSPost2010Prop49
280
     0
102
RTVSPost2010PropOp49
 70
     1
102
RTVSPost2010Prop50
 90
       50
102
RTVSPost2010PropOp50
 70
     1
102
RTVSPost2010Prop51ColorIndex
 90
      256
102
RTVSPost2010Prop51ColorRGB
 90
-16777216
102
RTVSPost2010PropOp51
 70
     0
102
RTVSPost2010Prop52
140
1.0
102
RTVSPost2010PropOp52
 70
     0
102
RTVSPost2010Prop53
 90
        2
102
RTVSPost2010PropOp53
 70
     1
102
RTVSPost2010Prop54
  1
strokes_ogs.tif
102
RTVSPost2010PropOp54
 70
     1
102
RTVSPost2010Prop55
280
     0
102
RTVSPost2010PropOp55
 70
     1
102
RTVSPost2010Prop56
140
1.0
102
RTVSPost2010PropOp56
 70
     1
102
RTVSPost2010Prop57
140
1.0
102
RTVSPost2010PropOp57
 70
     1
  0
XRECORD
  5
1BD
102
{ACAD_REACTORS
330
1BC
102
}
330
1BC
100
AcDbXrecord
280
     1
102
RTVSPost2010Prop28
280
     0
102
RTVSPost2010PropOp28
 70
     1
102
RTVSPost2010Prop29
280
     1
102
RTVSPost2010PropOp29
 70
     1
102
RTVSPost2010Prop30
280
     1
102
RTVSPost2010PropOp30
 70
     1
102
RTVSPost2010Prop31
280
     0
102
RTVSPost2010PropOp31
 70
     1
102
RTVSPost2010Prop32
280
     0
102
RTVSPost2010PropOp32
 70
     1
102
RTVSPost2010Prop33
280
     0
102
RTVSPost2010PropOp33
 70
     1
102
RTVSPost2010Prop34
280
     0
102
RTVSPost2010PropOp34
 70
     1
102
RTVSPost2010Prop35
280
     0
102
RTVSPost2010PropOp35
 70
     1
102
RTVSPost2010Prop36
280
     0
102
RTVSPost2010PropOp36
 70
     1
102
RTVSPost2010Prop37
 90
       50
102
RTVSPost2010PropOp37
 70
     1
102
RTVSPost2010Prop38
140
0.0
102
RTVSPost2010PropOp38
 70
     1
102
RTVSPost2010Prop39
140
1.0
102
RTVSPost2010PropOp39
 70
     1
102
RTVSPost2010Prop40
 90
        0
102
RTVSPost2010PropOp40
 70
     1
102
RTVSPost2010Prop41ColorIndex
 90
       18
102
RTVSPost2010Prop41ColorRGB
 90
        0
102
RTVSPost2010PropOp41
 70
     1
102
RTVSPost2010Prop42
 90
       50
102
RTVSPost2010PropOp42
 70
     1
102
RTVSPost2010Prop43
 90
        3
102
RTVSPost2010PropOp43
 70
     1
102
RTVSPost2010Prop44ColorIndex
 90
        5
102
RTVSPost2010Prop44ColorRGB
 90
      255
102
RTVSPost2010PropOp44
 70
     1
102
RTVSPost2010Prop45
280
     0
102
RTVSPost2010PropOp45
 70
     1
102
RTVSPost2010Prop46
 90
       50
102
RTVSPost2010PropOp46
 70
     1
102
RTVSPost2010Prop47
 90
       50
102
RTVSPost2010PropOp47
 70
     1
102
RTVSPost2010Prop48
 90
       50
102
RTVSPost2010PropOp48
 70
     1
102
RTVSPost2010Prop49
280
     0
102
RTVSPost2010PropOp49
 70
     1
102
RTVSPost2010Prop50
 90
       50
102
RTVSPost2010PropOp50
 70
     1
102
RTVSPost2010Prop51ColorIndex
 90
      256
102
RTVSPost2010Prop51ColorRGB
 90
-16777216
102
RTVSPost2010PropOp51
 70
     0
102
RTVSPost2010Prop52
140
1.0
102
RTVSPost2010PropOp52
 70
     0
102
RTVSPost2010Prop53
 90
        2
102
RTVSPost2010PropOp53
 70
     1
102
RTVSPost2010Prop54
  1
strokes_ogs.tif
102
RTVSPost2010PropOp54
 70
     1
102
RTVSPost2010Prop55
280
     0
102
RTVSPost2010PropOp55
 70
     1
102
RTVSPost2010Prop56
140
1.0
102
RTVSPost2010PropOp56
 70
     1
102
RTVSPost2010Prop57
140
1.0
102
RTVSPost2010PropOp57
 70
     1
  0
XRECORD
  5
1D7
102
{ACAD_REACTORS
330
1D6
102
}
330
1D6
100
AcDbXrecord
280
     1
102
RTVSPost2010Prop28
280
     0
102
RTVSPost2010PropOp28
 70
     0
102
RTVSPost2010Prop29
280
     1
102
RTVSPost2010PropOp29
 70
     0
102
RTVSPost2010Prop30
280
     1
102
RTVSPost2010PropOp30
 70
     0
102
RTVSPost2010Prop31
280
     0
102
RTVSPost2010PropOp31
 70
     0
102
RTVSPost2010Prop32
280
     0
102
RTVSPost2010PropOp32
 70
     0
102
RTVSPost2010Prop33
280
     0
102
RTVSPost2010PropOp33
 70
     0
102
RTVSPost2010Prop34
280
     0
102
RTVSPost2010PropOp34
 70
     0
102
RTVSPost2010Prop35
280
     0
102
RTVSPost2010PropOp35
 70
     0
102
RTVSPost2010Prop36
280
     0
102
RTVSPost2010PropOp36
 70
     0
102
RTVSPost2010Prop37
 90
       50
102
RTVSPost2010PropOp37
 70
     0
102
RTVSPost2010Prop38
140
0.0
102
RTVSPost2010PropOp38
 70
     0
102
RTVSPost2010Prop39
140
1.0
102
RTVSPost2010PropOp39
 70
     0
102
RTVSPost2010Prop40
 90
        0
102
RTVSPost2010PropOp40
 70
     0
102
RTVSPost2010Prop41ColorIndex
 90
       18
102
RTVSPost2010Prop41ColorRGB
 90
        0
102
RTVSPost2010PropOp41
 70
     0
102
RTVSPost2010Prop42
 90
       50
102
RTVSPost2010PropOp42
 70
     0
102
RTVSPost2010Prop43
 90
        3
102
RTVSPost2010PropOp43
 70
     0
102
RTVSPost2010Prop44ColorIndex
 90
        5
102
RTVSPost2010Prop44ColorRGB
 90
      255
102
RTVSPost2010PropOp44
 70
     0
102
RTVSPost2010Prop45
280
     0
102
RTVSPost2010PropOp45
 70
     0
102
RTVSPost2010Prop46
 90
       50
102
RTVSPost2010PropOp46
 70
     0
102
RTVSPost2010Prop47
 90
       50
102
RTVSPost2010PropOp47
 70
     0
102
RTVSPost2010Prop48
 90
       50
102
RTVSPost2010PropOp48
 70
     0
102
RTVSPost2010Prop49
280
     0
102
RTVSPost2010PropOp49
 70
     0
102
RTVSPost2010Prop50
 90
       50
102
RTVSPost2010PropOp50
 70
     0
102
RTVSPost2010Prop51ColorIndex
 90
      256
102
RTVSPost2010Prop51ColorRGB
 90
-16777216
102
RTVSPost2010PropOp51
 70
     0
102
RTVSPost2010Prop52
140
1.0
102
RTVSPost2010PropOp52
 70
     0
102
RTVSPost2010Prop53
 90
        2
102
RTVSPost2010PropOp53
 70
     0
102
RTVSPost2010Prop54
  1
strokes_ogs.tif
102
RTVSPost2010PropOp54
 70
     0
102
RTVSPost2010Prop55
280
     0
102
RTVSPost2010PropOp55
 70
     0
102
RTVSPost2010Prop56
140
1.0
102
RTVSPost2010PropOp56
 70
     0
102
RTVSPost2010Prop57
140
1.0
102
RTVSPost2010PropOp57
 70
     0
  0
XRECORD
  5
1C5
102
{ACAD_REACTORS
330
1C4
102
}
330
1C4
100
AcDbXrecord
280
     1
102
RTVSPost2010Prop28
280
     0
102
RTVSPost2010PropOp28
 70
     1
102
RTVSPost2010Prop29
280
     1
102
RTVSPost2010PropOp29
 70
     1
102
RTVSPost2010Prop30
280
     1
102
RTVSPost2010PropOp30
 70
     1
102
RTVSPost2010Prop31
280
     0
102
RTVSPost2010PropOp31
 70
     1
102
RTVSPost2010Prop32
280
     0
102
RTVSPost2010PropOp32
 70
     1
102
RTVSPost2010Prop33
280
     0
102
RTVSPost2010PropOp33
 70
     1
102
RTVSPost2010Prop34
280
     0
102
RTVSPost2010PropOp34
 70
     1
102
RTVSPost2010Prop35
280
     0
102
RTVSPost2010PropOp35
 70
     1
102
RTVSPost2010Prop36
280
     0
102
RTVSPost2010PropOp36
 70
     1
102
RTVSPost2010Prop37
 90
       50
102
RTVSPost2010PropOp37
 70
     1
102
RTVSPost2010Prop38
140
0.0
102
RTVSPost2010PropOp38
 70
     1
102
RTVSPost2010Prop39
140
1.0
102
RTVSPost2010PropOp39
 70
     1
102
RTVSPost2010Prop40
 90
        0
102
RTVSPost2010PropOp40
 70
     1
102
RTVSPost2010Prop41ColorIndex
 90
       18
102
RTVSPost2010Prop41ColorRGB
 90
        0
102
RTVSPost2010PropOp41
 70
     1
102
RTVSPost2010Prop42
 90
       50
102
RTVSPost2010PropOp42
 70
     1
102
RTVSPost2010Prop43
 90
        3
102
RTVSPost2010PropOp43
 70
     1
102
RTVSPost2010Prop44ColorIndex
 90
        5
102
RTVSPost2010Prop44ColorRGB
 90
      255
102
RTVSPost2010PropOp44
 70
     1
102
RTVSPost2010Prop45
280
     0
102
RTVSPost2010PropOp45
 70
     1
102
RTVSPost2010Prop46
 90
       50
102
RTVSPost2010PropOp46
 70
     1
102
RTVSPost2010Prop47
 90
       50
102
RTVSPost2010PropOp47
 70
     1
102
RTVSPost2010Prop48
 90
       50
102
RTVSPost2010PropOp48
 70
     1
102
RTVSPost2010Prop49
280
     0
102
RTVSPost2010PropOp49
 70
     1
102
RTVSPost2010Prop50
 90
       50
102
RTVSPost2010PropOp50
 70
     1
102
RTVSPost2010Prop51ColorIndex
 90
      256
102
RTVSPost2010Prop51ColorRGB
 90
-16777216
102
RTVSPost2010PropOp51
 70
     0
102
RTVSPost2010Prop52
140
1.0
102
RTVSPost2010PropOp52
 70
     0
102
RTVSPost2010Prop53
 90
        2
102
RTVSPost2010PropOp53
 70
     1
102
RTVSPost2010Prop54
  1
strokes_ogs.tif
102
RTVSPost2010PropOp54
 70
     1
102
RTVSPost2010Prop55
280
     0
102
RTVSPost2010PropOp55
 70
     1
102
RTVSPost2010Prop56
140
1.0
102
RTVSPost2010PropOp56
 70
     1
102
RTVSPost2010Prop57
140
1.0
102
RTVSPost2010PropOp57
 70
     1
  0
XRECORD
  5
1A9
102
{ACAD_REACTORS
330
1A8
102
}
330
1A8
100
AcDbXrecord
280
     1
102
RTVSPost2010Prop28
280
     0
102
RTVSPost2010PropOp28
 70
     1
102
RTVSPost2010Prop29
280
     1
102
RTVSPost2010PropOp29
 70
     1
102
RTVSPost2010Prop30
280
     1
102
RTVSPost2010PropOp30
 70
     1
102
RTVSPost2010Prop31
280
     0
102
RTVSPost2010PropOp31
 70
     1
102
RTVSPost2010Prop32
280
     0
102
RTVSPost2010PropOp32
 70
     1
102
RTVSPost2010Prop33
280
     0
102
RTVSPost2010PropOp33
 70
     1
102
RTVSPost2010Prop34
280
     0
102
RTVSPost2010PropOp34
 70
     1
102
RTVSPost2010Prop35
280
     0
102
RTVSPost2010PropOp35
 70
     1
102
RTVSPost2010Prop36
280
     0
102
RTVSPost2010PropOp36
 70
     1
102
RTVSPost2010Prop37
 90
       50
102
RTVSPost2010PropOp37
 70
     1
102
RTVSPost2010Prop38
140
0.0
102
RTVSPost2010PropOp38
 70
     1
102
RTVSPost2010Prop39
140
1.0
102
RTVSPost2010PropOp39
 70
     1
102
RTVSPost2010Prop40
 90
        0
102
RTVSPost2010PropOp40
 70
     1
102
RTVSPost2010Prop41ColorIndex
 90
       18
102
RTVSPost2010Prop41ColorRGB
 90
        0
102
RTVSPost2010PropOp41
 70
     1
102
RTVSPost2010Prop42
 90
       50
102
RTVSPost2010PropOp42
 70
     1
102
RTVSPost2010Prop43
 90
        3
102
RTVSPost2010PropOp43
 70
     1
102
RTVSPost2010Prop44ColorIndex
 90
        5
102
RTVSPost2010Prop44ColorRGB
 90
      255
102
RTVSPost2010PropOp44
 70
     1
102
RTVSPost2010Prop45
280
     0
102
RTVSPost2010PropOp45
 70
     1
102
RTVSPost2010Prop46
 90
       50
102
RTVSPost2010PropOp46
 70
     1
102
RTVSPost2010Prop47
 90
       50
102
RTVSPost2010PropOp47
 70
     1
102
RTVSPost2010Prop48
 90
       50
102
RTVSPost2010PropOp48
 70
     1
102
RTVSPost2010Prop49
280
     0
102
RTVSPost2010PropOp49
 70
     1
102
RTVSPost2010Prop50
 90
       50
102
RTVSPost2010PropOp50
 70
     1
102
RTVSPost2010Prop51ColorIndex
 90
      256
102
RTVSPost2010Prop51ColorRGB
 90
-16777216
102
RTVSPost2010PropOp51
 70
     0
102
RTVSPost2010Prop52
140
1.0
102
RTVSPost2010PropOp52
 70
     0
102
RTVSPost2010Prop53
 90
        2
102
RTVSPost2010PropOp53
 70
     1
102
RTVSPost2010Prop54
  1
strokes_ogs.tif
102
RTVSPost2010PropOp54
 70
     1
102
RTVSPost2010Prop55
280
     0
102
RTVSPost2010PropOp55
 70
     1
102
RTVSPost2010Prop56
140
1.0
102
RTVSPost2010PropOp56
 70
     1
102
RTVSPost2010Prop57
140
1.0
102
RTVSPost2010PropOp57
 70
     1
  0
XRECORD
  5
1AB
102
{ACAD_REACTORS
330
1AA
102
}
330
1AA
100
AcDbXrecord
280
     1
102
RTVSPost2010Prop28
280
     0
102
RTVSPost2010PropOp28
 70
     1
102
RTVSPost2010Prop29
280
     1
102
RTVSPost2010PropOp29
 70
     1
102
RTVSPost2010Prop30
280
     1
102
RTVSPost2010PropOp30
 70
     1
102
RTVSPost2010Prop31
280
     0
102
RTVSPost2010PropOp31
 70
     1
102
RTVSPost2010Prop32
280
     0
102
RTVSPost2010PropOp32
 70
     1
102
RTVSPost2010Prop33
280
     0
102
RTVSPost2010PropOp33
 70
     1
102
RTVSPost2010Prop34
280
     0
102
RTVSPost2010PropOp34
 70
     1
102
RTVSPost2010Prop35
280
     0
102
RTVSPost2010PropOp35
 70
     1
102
RTVSPost2010Prop36
280
     0
102
RTVSPost2010PropOp36
 70
     1
102
RTVSPost2010Prop37
 90
       50
102
RTVSPost2010PropOp37
 70
     1
102
RTVSPost2010Prop38
140
0.0
102
RTVSPost2010PropOp38
 70
     1
102
RTVSPost2010Prop39
140
1.0
102
RTVSPost2010PropOp39
 70
     1
102
RTVSPost2010Prop40
 90
        0
102
RTVSPost2010PropOp40
 70
     1
102
RTVSPost2010Prop41ColorIndex
 90
       18
102
RTVSPost2010Prop41ColorRGB
 90
        0
102
RTVSPost2010PropOp41
 70
     1
102
RTVSPost2010Prop42
 90
       50
102
RTVSPost2010PropOp42
 70
     1
102
RTVSPost2010Prop43
 90
        3
102
RTVSPost2010PropOp43
 70
     1
102
RTVSPost2010Prop44ColorIndex
 90
        5
102
RTVSPost2010Prop44ColorRGB
 90
      255
102
RTVSPost2010PropOp44
 70
     1
102
RTVSPost2010Prop45
280
     0
102
RTVSPost2010PropOp45
 70
     1
102
RTVSPost2010Prop46
 90
       50
102
RTVSPost2010PropOp46
 70
     1
102
RTVSPost2010Prop47
 90
       50
102
RTVSPost2010PropOp47
 70
     1
102
RTVSPost2010Prop48
 90
       50
102
RTVSPost2010PropOp48
 70
     1
102
RTVSPost2010Prop49
280
     0
102
RTVSPost2010PropOp49
 70
     1
102
RTVSPost2010Prop50
 90
       50
102
RTVSPost2010PropOp50
 70
     1
102
RTVSPost2010Prop51ColorIndex
 90
      256
102
RTVSPost2010Prop51ColorRGB
 90
-16777216
102
RTVSPost2010PropOp51
 70
     0
102
RTVSPost2010Prop52
140
1.0
102
RTVSPost2010PropOp52
 70
     0
102
RTVSPost2010Prop53
 90
        2
102
RTVSPost2010PropOp53
 70
     1
102
RTVSPost2010Prop54
  1
strokes_ogs.tif
102
RTVSPost2010PropOp54
 70
     1
102
RTVSPost2010Prop55
280
     0
102
RTVSPost2010PropOp55
 70
     1
102
RTVSPost2010Prop56
140
1.0
102
RTVSPost2010PropOp56
 70
     1
102
RTVSPost2010Prop57
140
1.0
102
RTVSPost2010PropOp57
 70
     1
  0
XRECORD
  5
1AD
102
{ACAD_REACTORS
330
1AC
102
}
330
1AC
100
AcDbXrecord
280
     1
102
RTVSPost2010Prop28
280
     0
102
RTVSPost2010PropOp28
 70
     1
102
RTVSPost2010Prop29
280
     1
102
RTVSPost2010PropOp29
 70
     1
102
RTVSPost2010Prop30
280
     1
102
RTVSPost2010PropOp30
 70
     1
102
RTVSPost2010Prop31
280
     0
102
RTVSPost2010PropOp31
 70
     1
102
RTVSPost2010Prop32
280
     0
102
RTVSPost2010PropOp32
 70
     1
102
RTVSPost2010Prop33
280
     0
102
RTVSPost2010PropOp33
 70
     1
102
RTVSPost2010Prop34
280
     0
102
RTVSPost2010PropOp34
 70
     1
102
RTVSPost2010Prop35
280
     0
102
RTVSPost2010PropOp35
 70
     1
102
RTVSPost2010Prop36
280
     0
102
RTVSPost2010PropOp36
 70
     1
102
RTVSPost2010Prop37
 90
       50
102
RTVSPost2010PropOp37
 70
     1
102
RTVSPost2010Prop38
140
0.0
102
RTVSPost2010PropOp38
 70
     1
102
RTVSPost2010Prop39
140
1.0
102
RTVSPost2010PropOp39
 70
     1
102
RTVSPost2010Prop40
 90
        0
102
RTVSPost2010PropOp40
 70
     1
102
RTVSPost2010Prop41ColorIndex
 90
       18
102
RTVSPost2010Prop41ColorRGB
 90
        0
102
RTVSPost2010PropOp41
 70
     1
102
RTVSPost2010Prop42
 90
       50
102
RTVSPost2010PropOp42
 70
     1
102
RTVSPost2010Prop43
 90
        3
102
RTVSPost2010PropOp43
 70
     1
102
RTVSPost2010Prop44ColorIndex
 90
        5
102
RTVSPost2010Prop44ColorRGB
 90
      255
102
RTVSPost2010PropOp44
 70
     1
102
RTVSPost2010Prop45
280
     0
102
RTVSPost2010PropOp45
 70
     1
102
RTVSPost2010Prop46
 90
       50
102
RTVSPost2010PropOp46
 70
     1
102
RTVSPost2010Prop47
 90
       50
102
RTVSPost2010PropOp47
 70
     1
102
RTVSPost2010Prop48
 90
       50
102
RTVSPost2010PropOp48
 70
     1
102
RTVSPost2010Prop49
280
     0
102
RTVSPost2010PropOp49
 70
     1
102
RTVSPost2010Prop50
 90
       50
102
RTVSPost2010PropOp50
 70
     1
102
RTVSPost2010Prop51ColorIndex
 90
      256
102
RTVSPost2010Prop51ColorRGB
 90
-16777216
102
RTVSPost2010PropOp51
 70
     0
102
RTVSPost2010Prop52
140
1.0
102
RTVSPost2010PropOp52
 70
     0
102
RTVSPost2010Prop53
 90
        2
102
RTVSPost2010PropOp53
 70
     1
102
RTVSPost2010Prop54
  1
strokes_ogs.tif
102
RTVSPost2010PropOp54
 70
     1
102
RTVSPost2010Prop55
280
     0
102
RTVSPost2010PropOp55
 70
     1
102
RTVSPost2010Prop56
140
1.0
102
RTVSPost2010PropOp56
 70
     1
102
RTVSPost2010Prop57
140
1.0
102
RTVSPost2010PropOp57
 70
     1
  0
XRECORD
  5
1AF
102
{ACAD_REACTORS
330
1AE
102
}
330
1AE
100
AcDbXrecord
280
     1
102
RTVSPost2010Prop28
280
     0
102
RTVSPost2010PropOp28
 70
     1
102
RTVSPost2010Prop29
280
     1
102
RTVSPost2010PropOp29
 70
     1
102
RTVSPost2010Prop30
280
     1
102
RTVSPost2010PropOp30
 70
     1
102
RTVSPost2010Prop31
280
     0
102
RTVSPost2010PropOp31
 70
     1
102
RTVSPost2010Prop32
280
     0
102
RTVSPost2010PropOp32
 70
     1
102
RTVSPost2010Prop33
280
     0
102
RTVSPost2010PropOp33
 70
     1
102
RTVSPost2010Prop34
280
     0
102
RTVSPost2010PropOp34
 70
     1
102
RTVSPost2010Prop35
280
     0
102
RTVSPost2010PropOp35
 70
     1
102
RTVSPost2010Prop36
280
     0
102
RTVSPost2010PropOp36
 70
     1
102
RTVSPost2010Prop37
 90
       50
102
RTVSPost2010PropOp37
 70
     1
102
RTVSPost2010Prop38
140
0.0
102
RTVSPost2010PropOp38
 70
     1
102
RTVSPost2010Prop39
140
1.0
102
RTVSPost2010PropOp39
 70
     1
102
RTVSPost2010Prop40
 90
        0
102
RTVSPost2010PropOp40
 70
     1
102
RTVSPost2010Prop41ColorIndex
 90
       18
102
RTVSPost2010Prop41ColorRGB
 90
        0
102
RTVSPost2010PropOp41
 70
     1
102
RTVSPost2010Prop42
 90
       50
102
RTVSPost2010PropOp42
 70
     1
102
RTVSPost2010Prop43
 90
        3
102
RTVSPost2010PropOp43
 70
     1
102
RTVSPost2010Prop44ColorIndex
 90
        5
102
RTVSPost2010Prop44ColorRGB
 90
      255
102
RTVSPost2010PropOp44
 70
     1
102
RTVSPost2010Prop45
280
     0
102
RTVSPost2010PropOp45
 70
     1
102
RTVSPost2010Prop46
 90
       50
102
RTVSPost2010PropOp46
 70
     1
102
RTVSPost2010Prop47
 90
       50
102
RTVSPost2010PropOp47
 70
     1
102
RTVSPost2010Prop48
 90
       50
102
RTVSPost2010PropOp48
 70
     1
102
RTVSPost2010Prop49
280
     0
102
RTVSPost2010PropOp49
 70
     1
102
RTVSPost2010Prop50
 90
       50
102
RTVSPost2010PropOp50
 70
     1
102
RTVSPost2010Prop51ColorIndex
 90
      256
102
RTVSPost2010Prop51ColorRGB
 90
-16777216
102
RTVSPost2010PropOp51
 70
     0
102
RTVSPost2010Prop52
140
1.0
102
RTVSPost2010PropOp52
 70
     0
102
RTVSPost2010Prop53
 90
        2
102
RTVSPost2010PropOp53
 70
     1
102
RTVSPost2010Prop54
  1
strokes_ogs.tif
102
RTVSPost2010PropOp54
 70
     1
102
RTVSPost2010Prop55
280
     0
102
RTVSPost2010PropOp55
 70
     1
102
RTVSPost2010Prop56
140
1.0
102
RTVSPost2010PropOp56
 70
     1
102
RTVSPost2010Prop57
140
1.0
102
RTVSPost2010PropOp57
 70
     1
  0
XRECORD
  5
1B7
102
{ACAD_REACTORS
330
1B6
102
}
330
1B6
100
AcDbXrecord
280
     1
102
RTVSPost2010Prop28
280
     0
102
RTVSPost2010PropOp28
 70
     1
102
RTVSPost2010Prop29
280
     1
102
RTVSPost2010PropOp29
 70
     1
102
RTVSPost2010Prop30
280
     1
102
RTVSPost2010PropOp30
 70
     1
102
RTVSPost2010Prop31
280
     0
102
RTVSPost2010PropOp31
 70
     1
102
RTVSPost2010Prop32
280
     0
102
RTVSPost2010PropOp32
 70
     1
102
RTVSPost2010Prop33
280
     0
102
RTVSPost2010PropOp33
 70
     1
102
RTVSPost2010Prop34
280
     0
102
RTVSPost2010PropOp34
 70
     1
102
RTVSPost2010Prop35
280
     0
102
RTVSPost2010PropOp35
 70
     1
102
RTVSPost2010Prop36
280
     0
102
RTVSPost2010PropOp36
 70
     1
102
RTVSPost2010Prop37
 90
       50
102
RTVSPost2010PropOp37
 70
     1
102
RTVSPost2010Prop38
140
0.0
102
RTVSPost2010PropOp38
 70
     1
102
RTVSPost2010Prop39
140
1.0
102
RTVSPost2010PropOp39
 70
     1
102
RTVSPost2010Prop40
 90
        0
102
RTVSPost2010PropOp40
 70
     1
102
RTVSPost2010Prop41ColorIndex
 90
       18
102
RTVSPost2010Prop41ColorRGB
 90
        0
102
RTVSPost2010PropOp41
 70
     1
102
RTVSPost2010Prop42
 90
       50
102
RTVSPost2010PropOp42
 70
     1
102
RTVSPost2010Prop43
 90
        3
102
RTVSPost2010PropOp43
 70
     1
102
RTVSPost2010Prop44ColorIndex
 90
        5
102
RTVSPost2010Prop44ColorRGB
 90
      255
102
RTVSPost2010PropOp44
 70
     1
102
RTVSPost2010Prop45
280
     0
102
RTVSPost2010PropOp45
 70
     1
102
RTVSPost2010Prop46
 90
       50
102
RTVSPost2010PropOp46
 70
     1
102
RTVSPost2010Prop47
 90
       50
102
RTVSPost2010PropOp47
 70
     1
102
RTVSPost2010Prop48
 90
       50
102
RTVSPost2010PropOp48
 70
     1
102
RTVSPost2010Prop49
280
     0
102
RTVSPost2010PropOp49
 70
     1
102
RTVSPost2010Prop50
 90
       50
102
RTVSPost2010PropOp50
 70
     1
102
RTVSPost2010Prop51ColorIndex
 90
      256
102
RTVSPost2010Prop51ColorRGB
 90
-16777216
102
RTVSPost2010PropOp51
 70
     0
102
RTVSPost2010Prop52
140
1.0
102
RTVSPost2010PropOp52
 70
     0
102
RTVSPost2010Prop53
 90
        2
102
RTVSPost2010PropOp53
 70
     1
102
RTVSPost2010Prop54
  1
strokes_ogs.tif
102
RTVSPost2010PropOp54
 70
     1
102
RTVSPost2010Prop55
280
     0
102
RTVSPost2010PropOp55
 70
     1
102
RTVSPost2010Prop56
140
1.0
102
RTVSPost2010PropOp56
 70
     1
102
RTVSPost2010Prop57
140
1.0
102
RTVSPost2010PropOp57
 70
     1
  0
XRECORD
  5
1D3
102
{ACAD_REACTORS
330
1D2
102
}
330
1D2
100
AcDbXrecord
280
     1
102
RTVSPost2010Prop28
280
     0
102
RTVSPost2010PropOp28
 70
     0
102
RTVSPost2010Prop29
280
     1
102
RTVSPost2010PropOp29
 70
     0
102
RTVSPost2010Prop30
280
     1
102
RTVSPost2010PropOp30
 70
     0
102
RTVSPost2010Prop31
280
     0
102
RTVSPost2010PropOp31
 70
     0
102
RTVSPost2010Prop32
280
     0
102
RTVSPost2010PropOp32
 70
     0
102
RTVSPost2010Prop33
280
     0
102
RTVSPost2010PropOp33
 70
     0
102
RTVSPost2010Prop34
280
     0
102
RTVSPost2010PropOp34
 70
     0
102
RTVSPost2010Prop35
280
     0
102
RTVSPost2010PropOp35
 70
     0
102
RTVSPost2010Prop36
280
     0
102
RTVSPost2010PropOp36
 70
     0
102
RTVSPost2010Prop37
 90
       50
102
RTVSPost2010PropOp37
 70
     0
102
RTVSPost2010Prop38
140
0.0
102
RTVSPost2010PropOp38
 70
     0
102
RTVSPost2010Prop39
140
1.0
102
RTVSPost2010PropOp39
 70
     0
102
RTVSPost2010Prop40
 90
        0
102
RTVSPost2010PropOp40
 70
     0
102
RTVSPost2010Prop41ColorIndex
 90
       18
102
RTVSPost2010Prop41ColorRGB
 90
        0
102
RTVSPost2010PropOp41
 70
     0
102
RTVSPost2010Prop42
 90
       50
102
RTVSPost2010PropOp42
 70
     0
102
RTVSPost2010Prop43
 90
        3
102
RTVSPost2010PropOp43
 70
     0
102
RTVSPost2010Prop44ColorIndex
 90
        5
102
RTVSPost2010Prop44ColorRGB
 90
      255
102
RTVSPost2010PropOp44
 70
     0
102
RTVSPost2010Prop45
280
     0
102
RTVSPost2010PropOp45
 70
     0
102
RTVSPost2010Prop46
 90
       50
102
RTVSPost2010PropOp46
 70
     0
102
RTVSPost2010Prop47
 90
       50
102
RTVSPost2010PropOp47
 70
     0
102
RTVSPost2010Prop48
 90
       50
102
RTVSPost2010PropOp48
 70
     0
102
RTVSPost2010Prop49
280
     0
102
RTVSPost2010PropOp49
 70
     0
102
RTVSPost2010Prop50
 90
       50
102
RTVSPost2010PropOp50
 70
     0
102
RTVSPost2010Prop51ColorIndex
 90
      256
102
RTVSPost2010Prop51ColorRGB
 90
-16777216
102
RTVSPost2010PropOp51
 70
     0
102
RTVSPost2010Prop52
140
1.0
102
RTVSPost2010PropOp52
 70
     0
102
RTVSPost2010Prop53
 90
        2
102
RTVSPost2010PropOp53
 70
     0
102
RTVSPost2010Prop54
  1
strokes_ogs.tif
102
RTVSPost2010PropOp54
 70
     0
102
RTVSPost2010Prop55
280
     0
102
RTVSPost2010PropOp55
 70
     0
102
RTVSPost2010Prop56
140
1.0
102
RTVSPost2010PropOp56
 70
     0
102
RTVSPost2010Prop57
140
1.0
102
RTVSPost2010PropOp57
 70
     0
  0
XRECORD
  5
1C3
102
{ACAD_REACTORS
330
1C2
102
}
330
1C2
100
AcDbXrecord
280
     1
102
RTVSPost2010Prop28
280
     0
102
RTVSPost2010PropOp28
 70
     1
102
RTVSPost2010Prop29
280
     1
102
RTVSPost2010PropOp29
 70
     1
102
RTVSPost2010Prop30
280
     1
102
RTVSPost2010PropOp30
 70
     1
102
RTVSPost2010Prop31
280
     0
102
RTVSPost2010PropOp31
 70
     1
102
RTVSPost2010Prop32
280
     0
102
RTVSPost2010PropOp32
 70
     1
102
RTVSPost2010Prop33
280
     0
102
RTVSPost2010PropOp33
 70
     1
102
RTVSPost2010Prop34
280
     0
102
RTVSPost2010PropOp34
 70
     1
102
RTVSPost2010Prop35
280
     0
102
RTVSPost2010PropOp35
 70
     1
102
RTVSPost2010Prop36
280
     0
102
RTVSPost2010PropOp36
 70
     1
102
RTVSPost2010Prop37
 90
       50
102
RTVSPost2010PropOp37
 70
     1
102
RTVSPost2010Prop38
140
0.0
102
RTVSPost2010PropOp38
 70
     1
102
RTVSPost2010Prop39
140
1.0
102
RTVSPost2010PropOp39
 70
     1
102
RTVSPost2010Prop40
 90
        0
102
RTVSPost2010PropOp40
 70
     1
102
RTVSPost2010Prop41ColorIndex
 90
       18
102
RTVSPost2010Prop41ColorRGB
 90
        0
102
RTVSPost2010PropOp41
 70
     1
102
RTVSPost2010Prop42
 90
       50
102
RTVSPost2010PropOp42
 70
     1
102
RTVSPost2010Prop43
 90
        3
102
RTVSPost2010PropOp43
 70
     1
102
RTVSPost2010Prop44ColorIndex
 90
        5
102
RTVSPost2010Prop44ColorRGB
 90
      255
102
RTVSPost2010PropOp44
 70
     1
102
RTVSPost2010Prop45
280
     0
102
RTVSPost2010PropOp45
 70
     1
102
RTVSPost2010Prop46
 90
       50
102
RTVSPost2010PropOp46
 70
     1
102
RTVSPost2010Prop47
 90
       50
102
RTVSPost2010PropOp47
 70
     1
102
RTVSPost2010Prop48
 90
       50
102
RTVSPost2010PropOp48
 70
     1
102
RTVSPost2010Prop49
280
     0
102
RTVSPost2010PropOp49
 70
     1
102
RTVSPost2010Prop50
 90
       50
102
RTVSPost2010PropOp50
 70
     1
102
RTVSPost2010Prop51ColorIndex
 90
      256
102
RTVSPost2010Prop51ColorRGB
 90
-16777216
102
RTVSPost2010PropOp51
 70
     0
102
RTVSPost2010Prop52
140
1.0
102
RTVSPost2010PropOp52
 70
     0
102
RTVSPost2010Prop53
 90
        2
102
RTVSPost2010PropOp53
 70
     1
102
RTVSPost2010Prop54
  1
strokes_ogs.tif
102
RTVSPost2010PropOp54
 70
     1
102
RTVSPost2010Prop55
280
     0
102
RTVSPost2010PropOp55
 70
     1
102
RTVSPost2010Prop56
140
1.0
102
RTVSPost2010PropOp56
 70
     1
102
RTVSPost2010Prop57
140
1.0
102
RTVSPost2010PropOp57
 70
     1
  0
XRECORD
  5
1D5
102
{ACAD_REACTORS
330
1D4
102
}
330
1D4
100
AcDbXrecord
280
     1
102
RTVSPost2010Prop28
280
     0
102
RTVSPost2010PropOp28
 70
     0
102
RTVSPost2010Prop29
280
     1
102
RTVSPost2010PropOp29
 70
     0
102
RTVSPost2010Prop30
280
     1
102
RTVSPost2010PropOp30
 70
     0
102
RTVSPost2010Prop31
280
     0
102
RTVSPost2010PropOp31
 70
     0
102
RTVSPost2010Prop32
280
     0
102
RTVSPost2010PropOp32
 70
     0
102
RTVSPost2010Prop33
280
     0
102
RTVSPost2010PropOp33
 70
     0
102
RTVSPost2010Prop34
280
     0
102
RTVSPost2010PropOp34
 70
     0
102
RTVSPost2010Prop35
280
     0
102
RTVSPost2010PropOp35
 70
     0
102
RTVSPost2010Prop36
280
     0
102
RTVSPost2010PropOp36
 70
     0
102
RTVSPost2010Prop37
 90
       50
102
RTVSPost2010PropOp37
 70
     0
102
RTVSPost2010Prop38
140
0.0
102
RTVSPost2010PropOp38
 70
     0
102
RTVSPost2010Prop39
140
1.0
102
RTVSPost2010PropOp39
 70
     0
102
RTVSPost2010Prop40
 90
        0
102
RTVSPost2010PropOp40
 70
     0
102
RTVSPost2010Prop41ColorIndex
 90
       18
102
RTVSPost2010Prop41ColorRGB
 90
        0
102
RTVSPost2010PropOp41
 70
     0
102
RTVSPost2010Prop42
 90
       50
102
RTVSPost2010PropOp42
 70
     0
102
RTVSPost2010Prop43
 90
        3
102
RTVSPost2010PropOp43
 70
     0
102
RTVSPost2010Prop44ColorIndex
 90
        5
102
RTVSPost2010Prop44ColorRGB
 90
      255
102
RTVSPost2010PropOp44
 70
     0
102
RTVSPost2010Prop45
280
     0
102
RTVSPost2010PropOp45
 70
     0
102
RTVSPost2010Prop46
 90
       50
102
RTVSPost2010PropOp46
 70
     0
102
RTVSPost2010Prop47
 90
       50
102
RTVSPost2010PropOp47
 70
     0
102
RTVSPost2010Prop48
 90
       50
102
RTVSPost2010PropOp48
 70
     0
102
RTVSPost2010Prop49
280
     0
102
RTVSPost2010PropOp49
 70
     0
102
RTVSPost2010Prop50
 90
       50
102
RTVSPost2010PropOp50
 70
     0
102
RTVSPost2010Prop51ColorIndex
 90
      256
102
RTVSPost2010Prop51ColorRGB
 90
-16777216
102
RTVSPost2010PropOp51
 70
     0
102
RTVSPost2010Prop52
140
1.0
102
RTVSPost2010PropOp52
 70
     0
102
RTVSPost2010Prop53
 90
        2
102
RTVSPost2010PropOp53
 70
     0
102
RTVSPost2010Prop54
  1
strokes_ogs.tif
102
RTVSPost2010PropOp54
 70
     0
102
RTVSPost2010Prop55
280
     0
102
RTVSPost2010PropOp55
 70
     0
102
RTVSPost2010Prop56
140
1.0
102
RTVSPost2010PropOp56
 70
     0
102
RTVSPost2010Prop57
140
1.0
102
RTVSPost2010PropOp57
 70
     0
  0
XRECORD
  5
1BB
102
{ACAD_REACTORS
330
1BA
102
}
330
1BA
100
AcDbXrecord
280
     1
102
RTVSPost2010Prop28
280
     0
102
RTVSPost2010PropOp28
 70
     1
102
RTVSPost2010Prop29
280
     1
102
RTVSPost2010PropOp29
 70
     1
102
RTVSPost2010Prop30
280
     1
102
RTVSPost2010PropOp30
 70
     1
102
RTVSPost2010Prop31
280
     0
102
RTVSPost2010PropOp31
 70
     1
102
RTVSPost2010Prop32
280
     0
102
RTVSPost2010PropOp32
 70
     1
102
RTVSPost2010Prop33
280
     0
102
RTVSPost2010PropOp33
 70
     1
102
RTVSPost2010Prop34
280
     0
102
RTVSPost2010PropOp34
 70
     1
102
RTVSPost2010Prop35
280
     0
102
RTVSPost2010PropOp35
 70
     1
102
RTVSPost2010Prop36
280
     0
102
RTVSPost2010PropOp36
 70
     1
102
RTVSPost2010Prop37
 90
       50
102
RTVSPost2010PropOp37
 70
     1
102
RTVSPost2010Prop38
140
0.0
102
RTVSPost2010PropOp38
 70
     1
102
RTVSPost2010Prop39
140
1.0
102
RTVSPost2010PropOp39
 70
     1
102
RTVSPost2010Prop40
 90
        0
102
RTVSPost2010PropOp40
 70
     1
102
RTVSPost2010Prop41ColorIndex
 90
       18
102
RTVSPost2010Prop41ColorRGB
 90
        0
102
RTVSPost2010PropOp41
 70
     1
102
RTVSPost2010Prop42
 90
       50
102
RTVSPost2010PropOp42
 70
     1
102
RTVSPost2010Prop43
 90
        3
102
RTVSPost2010PropOp43
 70
     1
102
RTVSPost2010Prop44ColorIndex
 90
        5
102
RTVSPost2010Prop44ColorRGB
 90
      255
102
RTVSPost2010PropOp44
 70
     1
102
RTVSPost2010Prop45
280
     0
102
RTVSPost2010PropOp45
 70
     1
102
RTVSPost2010Prop46
 90
       50
102
RTVSPost2010PropOp46
 70
     1
102
RTVSPost2010Prop47
 90
       50
102
RTVSPost2010PropOp47
 70
     1
102
RTVSPost2010Prop48
 90
       50
102
RTVSPost2010PropOp48
 70
     1
102
RTVSPost2010Prop49
280
     0
102
RTVSPost2010PropOp49
 70
     1
102
RTVSPost2010Prop50
 90
       50
102
RTVSPost2010PropOp50
 70
     1
102
RTVSPost2010Prop51ColorIndex
 90
      256
102
RTVSPost2010Prop51ColorRGB
 90
-16777216
102
RTVSPost2010PropOp51
 70
     0
102
RTVSPost2010Prop52
140
1.0
102
RTVSPost2010PropOp52
 70
     0
102
RTVSPost2010Prop53
 90
        2
102
RTVSPost2010PropOp53
 70
     1
102
RTVSPost2010Prop54
  1
strokes_ogs.tif
102
RTVSPost2010PropOp54
 70
     1
102
RTVSPost2010Prop55
280
     0
102
RTVSPost2010PropOp55
 70
     1
102
RTVSPost2010Prop56
140
1.0
102
RTVSPost2010PropOp56
 70
     1
102
RTVSPost2010Prop57
140
1.0
102
RTVSPost2010PropOp57
 70
     1
  0
XRECORD
  5
1D1
102
{ACAD_REACTORS
330
1D0
102
}
330
1D0
100
AcDbXrecord
280
     1
102
RTVSPost2010Prop28
280
     0
102
RTVSPost2010PropOp28
 70
     1
102
RTVSPost2010Prop29
280
     1
102
RTVSPost2010PropOp29
 70
     1
102
RTVSPost2010Prop30
280
     1
102
RTVSPost2010PropOp30
 70
     1
102
RTVSPost2010Prop31
280
     0
102
RTVSPost2010PropOp31
 70
     1
102
RTVSPost2010Prop32
280
     0
102
RTVSPost2010PropOp32
 70
     1
102
RTVSPost2010Prop33
280
     0
102
RTVSPost2010PropOp33
 70
     1
102
RTVSPost2010Prop34
280
     0
102
RTVSPost2010PropOp34
 70
     1
102
RTVSPost2010Prop35
280
     0
102
RTVSPost2010PropOp35
 70
     1
102
RTVSPost2010Prop36
280
     0
102
RTVSPost2010PropOp36
 70
     1
102
RTVSPost2010Prop37
 90
       50
102
RTVSPost2010PropOp37
 70
     1
102
RTVSPost2010Prop38
140
0.0
102
RTVSPost2010PropOp38
 70
     1
102
RTVSPost2010Prop39
140
1.0
102
RTVSPost2010PropOp39
 70
     1
102
RTVSPost2010Prop40
 90
        0
102
RTVSPost2010PropOp40
 70
     1
102
RTVSPost2010Prop41ColorIndex
 90
       18
102
RTVSPost2010Prop41ColorRGB
 90
        0
102
RTVSPost2010PropOp41
 70
     1
102
RTVSPost2010Prop42
 90
       50
102
RTVSPost2010PropOp42
 70
     1
102
RTVSPost2010Prop43
 90
        3
102
RTVSPost2010PropOp43
 70
     1
102
RTVSPost2010Prop44ColorIndex
 90
        5
102
RTVSPost2010Prop44ColorRGB
 90
      255
102
RTVSPost2010PropOp44
 70
     1
102
RTVSPost2010Prop45
280
     0
102
RTVSPost2010PropOp45
 70
     1
102
RTVSPost2010Prop46
 90
       50
102
RTVSPost2010PropOp46
 70
     1
102
RTVSPost2010Prop47
 90
       50
102
RTVSPost2010PropOp47
 70
     1
102
RTVSPost2010Prop48
 90
       50
102
RTVSPost2010PropOp48
 70
     1
102
RTVSPost2010Prop49
280
     0
102
RTVSPost2010PropOp49
 70
     1
102
RTVSPost2010Prop50
 90
       50
102
RTVSPost2010PropOp50
 70
     1
102
RTVSPost2010Prop51ColorIndex
 90
      256
102
RTVSPost2010Prop51ColorRGB
 90
-16777216
102
RTVSPost2010PropOp51
 70
     0
102
RTVSPost2010Prop52
140
1.0
102
RTVSPost2010PropOp52
 70
     0
102
RTVSPost2010Prop53
 90
        2
102
RTVSPost2010PropOp53
 70
     1
102
RTVSPost2010Prop54
  1
strokes_ogs.tif
102
RTVSPost2010PropOp54
 70
     1
102
RTVSPost2010Prop55
280
     0
102
RTVSPost2010PropOp55
 70
     1
102
RTVSPost2010Prop56
140
1.0
102
RTVSPost2010PropOp56
 70
     1
102
RTVSPost2010Prop57
140
1.0
102
RTVSPost2010PropOp57
 70
     1
  0
XRECORD
  5
1CF
102
{ACAD_REACTORS
330
1CE
102
}
330
1CE
100
AcDbXrecord
280
     1
102
RTVSPost2010Prop28
280
     0
102
RTVSPost2010PropOp28
 70
     1
102
RTVSPost2010Prop29
280
     1
102
RTVSPost2010PropOp29
 70
     1
102
RTVSPost2010Prop30
280
     1
102
RTVSPost2010PropOp30
 70
     1
102
RTVSPost2010Prop31
280
     0
102
RTVSPost2010PropOp31
 70
     1
102
RTVSPost2010Prop32
280
     0
102
RTVSPost2010PropOp32
 70
     1
102
RTVSPost2010Prop33
280
     0
102
RTVSPost2010PropOp33
 70
     1
102
RTVSPost2010Prop34
280
     0
102
RTVSPost2010PropOp34
 70
     1
102
RTVSPost2010Prop35
280
     0
102
RTVSPost2010PropOp35
 70
     1
102
RTVSPost2010Prop36
280
     0
102
RTVSPost2010PropOp36
 70
     1
102
RTVSPost2010Prop37
 90
       50
102
RTVSPost2010PropOp37
 70
     1
102
RTVSPost2010Prop38
140
0.0
102
RTVSPost2010PropOp38
 70
     1
102
RTVSPost2010Prop39
140
1.0
102
RTVSPost2010PropOp39
 70
     1
102
RTVSPost2010Prop40
 90
        0
102
RTVSPost2010PropOp40
 70
     1
102
RTVSPost2010Prop41ColorIndex
 90
       18
102
RTVSPost2010Prop41ColorRGB
 90
        0
102
RTVSPost2010PropOp41
 70
     1
102
RTVSPost2010Prop42
 90
       50
102
RTVSPost2010PropOp42
 70
     1
102
RTVSPost2010Prop43
 90
        3
102
RTVSPost2010PropOp43
 70
     1
102
RTVSPost2010Prop44ColorIndex
 90
        5
102
RTVSPost2010Prop44ColorRGB
 90
      255
102
RTVSPost2010PropOp44
 70
     1
102
RTVSPost2010Prop45
280
     0
102
RTVSPost2010PropOp45
 70
     1
102
RTVSPost2010Prop46
 90
       50
102
RTVSPost2010PropOp46
 70
     1
102
RTVSPost2010Prop47
 90
       50
102
RTVSPost2010PropOp47
 70
     1
102
RTVSPost2010Prop48
 90
       50
102
RTVSPost2010PropOp48
 70
     1
102
RTVSPost2010Prop49
280
     0
102
RTVSPost2010PropOp49
 70
     1
102
RTVSPost2010Prop50
 90
       50
102
RTVSPost2010PropOp50
 70
     1
102
RTVSPost2010Prop51ColorIndex
 90
      256
102
RTVSPost2010Prop51ColorRGB
 90
-16777216
102
RTVSPost2010PropOp51
 70
     0
102
RTVSPost2010Prop52
140
1.0
102
RTVSPost2010PropOp52
 70
     0
102
RTVSPost2010Prop53
 90
        2
102
RTVSPost2010PropOp53
 70
     1
102
RTVSPost2010Prop54
  1
strokes_ogs.tif
102
RTVSPost2010PropOp54
 70
     1
102
RTVSPost2010Prop55
280
     0
102
RTVSPost2010PropOp55
 70
     1
102
RTVSPost2010Prop56
140
1.0
102
RTVSPost2010PropOp56
 70
     1
102
RTVSPost2010Prop57
140
1.0
102
RTVSPost2010PropOp57
 70
     1
  0
XRECORD
  5
1C9
102
{ACAD_REACTORS
330
1C8
102
}
330
1C8
100
AcDbXrecord
280
     1
102
RTVSPost2010Prop28
280
     0
102
RTVSPost2010PropOp28
 70
     1
102
RTVSPost2010Prop29
280
     1
102
RTVSPost2010PropOp29
 70
     1
102
RTVSPost2010Prop30
280
     1
102
RTVSPost2010PropOp30
 70
     1
102
RTVSPost2010Prop31
280
     0
102
RTVSPost2010PropOp31
 70
     1
102
RTVSPost2010Prop32
280
     0
102
RTVSPost2010PropOp32
 70
     1
102
RTVSPost2010Prop33
280
     0
102
RTVSPost2010PropOp33
 70
     1
102
RTVSPost2010Prop34
280
     0
102
RTVSPost2010PropOp34
 70
     1
102
RTVSPost2010Prop35
280
     0
102
RTVSPost2010PropOp35
 70
     1
102
RTVSPost2010Prop36
280
     0
102
RTVSPost2010PropOp36
 70
     1
102
RTVSPost2010Prop37
 90
       50
102
RTVSPost2010PropOp37
 70
     1
102
RTVSPost2010Prop38
140
0.0
102
RTVSPost2010PropOp38
 70
     1
102
RTVSPost2010Prop39
140
1.0
102
RTVSPost2010PropOp39
 70
     1
102
RTVSPost2010Prop40
 90
        0
102
RTVSPost2010PropOp40
 70
     1
102
RTVSPost2010Prop41ColorIndex
 90
       18
102
RTVSPost2010Prop41ColorRGB
 90
        0
102
RTVSPost2010PropOp41
 70
     1
102
RTVSPost2010Prop42
 90
       50
102
RTVSPost2010PropOp42
 70
     1
102
RTVSPost2010Prop43
 90
        3
102
RTVSPost2010PropOp43
 70
     1
102
RTVSPost2010Prop44ColorIndex
 90
        5
102
RTVSPost2010Prop44ColorRGB
 90
      255
102
RTVSPost2010PropOp44
 70
     1
102
RTVSPost2010Prop45
280
     0
102
RTVSPost2010PropOp45
 70
     1
102
RTVSPost2010Prop46
 90
       50
102
RTVSPost2010PropOp46
 70
     1
102
RTVSPost2010Prop47
 90
       50
102
RTVSPost2010PropOp47
 70
     1
102
RTVSPost2010Prop48
 90
       50
102
RTVSPost2010PropOp48
 70
     1
102
RTVSPost2010Prop49
280
     0
102
RTVSPost2010PropOp49
 70
     1
102
RTVSPost2010Prop50
 90
       50
102
RTVSPost2010PropOp50
 70
     1
102
RTVSPost2010Prop51ColorIndex
 90
      256
102
RTVSPost2010Prop51ColorRGB
 90
-16777216
102
RTVSPost2010PropOp51
 70
     0
102
RTVSPost2010Prop52
140
1.0
102
RTVSPost2010PropOp52
 70
     0
102
RTVSPost2010Prop53
 90
        2
102
RTVSPost2010PropOp53
 70
     1
102
RTVSPost2010Prop54
  1
strokes_ogs.tif
102
RTVSPost2010PropOp54
 70
     1
102
RTVSPost2010Prop55
280
     0
102
RTVSPost2010PropOp55
 70
     1
102
RTVSPost2010Prop56
140
1.0
102
RTVSPost2010PropOp56
 70
     1
102
RTVSPost2010Prop57
140
1.0
102
RTVSPost2010PropOp57
 70
     1
  0
XRECORD
  5
1CB
102
{ACAD_REACTORS
330
1CA
102
}
330
1CA
100
AcDbXrecord
280
     1
102
RTVSPost2010Prop28
280
     0
102
RTVSPost2010PropOp28
 70
     1
102
RTVSPost2010Prop29
280
     1
102
RTVSPost2010PropOp29
 70
     1
102
RTVSPost2010Prop30
280
     1
102
RTVSPost2010PropOp30
 70
     1
102
RTVSPost2010Prop31
280
     0
102
RTVSPost2010PropOp31
 70
     1
102
RTVSPost2010Prop32
280
     0
102
RTVSPost2010PropOp32
 70
     1
102
RTVSPost2010Prop33
280
     0
102
RTVSPost2010PropOp33
 70
     1
102
RTVSPost2010Prop34
280
     0
102
RTVSPost2010PropOp34
 70
     1
102
RTVSPost2010Prop35
280
     0
102
RTVSPost2010PropOp35
 70
     1
102
RTVSPost2010Prop36
280
     0
102
RTVSPost2010PropOp36
 70
     1
102
RTVSPost2010Prop37
 90
       50
102
RTVSPost2010PropOp37
 70
     1
102
RTVSPost2010Prop38
140
0.0
102
RTVSPost2010PropOp38
 70
     1
102
RTVSPost2010Prop39
140
1.0
102
RTVSPost2010PropOp39
 70
     1
102
RTVSPost2010Prop40
 90
        0
102
RTVSPost2010PropOp40
 70
     1
102
RTVSPost2010Prop41ColorIndex
 90
       18
102
RTVSPost2010Prop41ColorRGB
 90
        0
102
RTVSPost2010PropOp41
 70
     1
102
RTVSPost2010Prop42
 90
       50
102
RTVSPost2010PropOp42
 70
     1
102
RTVSPost2010Prop43
 90
        3
102
RTVSPost2010PropOp43
 70
     1
102
RTVSPost2010Prop44ColorIndex
 90
        5
102
RTVSPost2010Prop44ColorRGB
 90
      255
102
RTVSPost2010PropOp44
 70
     1
102
RTVSPost2010Prop45
280
     0
102
RTVSPost2010PropOp45
 70
     1
102
RTVSPost2010Prop46
 90
       50
102
RTVSPost2010PropOp46
 70
     1
102
RTVSPost2010Prop47
 90
       50
102
RTVSPost2010PropOp47
 70
     1
102
RTVSPost2010Prop48
 90
       50
102
RTVSPost2010PropOp48
 70
     1
102
RTVSPost2010Prop49
280
     0
102
RTVSPost2010PropOp49
 70
     1
102
RTVSPost2010Prop50
 90
       50
102
RTVSPost2010PropOp50
 70
     1
102
RTVSPost2010Prop51ColorIndex
 90
      256
102
RTVSPost2010Prop51ColorRGB
 90
-16777216
102
RTVSPost2010PropOp51
 70
     0
102
RTVSPost2010Prop52
140
1.0
102
RTVSPost2010PropOp52
 70
     0
102
RTVSPost2010Prop53
 90
        2
102
RTVSPost2010PropOp53
 70
     1
102
RTVSPost2010Prop54
  1
strokes_ogs.tif
102
RTVSPost2010PropOp54
 70
     1
102
RTVSPost2010Prop55
280
     0
102
RTVSPost2010PropOp55
 70
     1
102
RTVSPost2010Prop56
140
1.0
102
RTVSPost2010PropOp56
 70
     1
102
RTVSPost2010Prop57
140
1.0
102
RTVSPost2010PropOp57
 70
     1
  0
XRECORD
  5
1C1
102
{ACAD_REACTORS
330
1C0
102
}
330
1C0
100
AcDbXrecord
280
     1
102
RTVSPost2010Prop28
280
     0
102
RTVSPost2010PropOp28
 70
     1
102
RTVSPost2010Prop29
280
     1
102
RTVSPost2010PropOp29
 70
     1
102
RTVSPost2010Prop30
280
     1
102
RTVSPost2010PropOp30
 70
     1
102
RTVSPost2010Prop31
280
     0
102
RTVSPost2010PropOp31
 70
     1
102
RTVSPost2010Prop32
280
     0
102
RTVSPost2010PropOp32
 70
     1
102
RTVSPost2010Prop33
280
     0
102
RTVSPost2010PropOp33
 70
     1
102
RTVSPost2010Prop34
280
     0
102
RTVSPost2010PropOp34
 70
     1
102
RTVSPost2010Prop35
280
     0
102
RTVSPost2010PropOp35
 70
     1
102
RTVSPost2010Prop36
280
     0
102
RTVSPost2010PropOp36
 70
     1
102
RTVSPost2010Prop37
 90
       50
102
RTVSPost2010PropOp37
 70
     1
102
RTVSPost2010Prop38
140
0.0
102
RTVSPost2010PropOp38
 70
     1
102
RTVSPost2010Prop39
140
1.0
102
RTVSPost2010PropOp39
 70
     1
102
RTVSPost2010Prop40
 90
        0
102
RTVSPost2010PropOp40
 70
     1
102
RTVSPost2010Prop41ColorIndex
 90
       18
102
RTVSPost2010Prop41ColorRGB
 90
        0
102
RTVSPost2010PropOp41
 70
     1
102
RTVSPost2010Prop42
 90
       50
102
RTVSPost2010PropOp42
 70
     1
102
RTVSPost2010Prop43
 90
        3
102
RTVSPost2010PropOp43
 70
     1
102
RTVSPost2010Prop44ColorIndex
 90
        5
102
RTVSPost2010Prop44ColorRGB
 90
      255
102
RTVSPost2010PropOp44
 70
     1
102
RTVSPost2010Prop45
280
     0
102
RTVSPost2010PropOp45
 70
     1
102
RTVSPost2010Prop46
 90
       50
102
RTVSPost2010PropOp46
 70
     1
102
RTVSPost2010Prop47
 90
       50
102
RTVSPost2010PropOp47
 70
     1
102
RTVSPost2010Prop48
 90
       50
102
RTVSPost2010PropOp48
 70
     1
102
RTVSPost2010Prop49
280
     0
102
RTVSPost2010PropOp49
 70
     1
102
RTVSPost2010Prop50
 90
       50
102
RTVSPost2010PropOp50
 70
     1
102
RTVSPost2010Prop51ColorIndex
 90
      256
102
RTVSPost2010Prop51ColorRGB
 90
-16777216
102
RTVSPost2010PropOp51
 70
     0
102
RTVSPost2010Prop52
140
1.0
102
RTVSPost2010PropOp52
 70
     0
102
RTVSPost2010Prop53
 90
        2
102
RTVSPost2010PropOp53
 70
     1
102
RTVSPost2010Prop54
  1
strokes_ogs.tif
102
RTVSPost2010PropOp54
 70
     1
102
RTVSPost2010Prop55
280
     0
102
RTVSPost2010PropOp55
 70
     1
102
RTVSPost2010Prop56
140
1.0
102
RTVSPost2010PropOp56
 70
     1
102
RTVSPost2010Prop57
140
1.0
102
RTVSPost2010PropOp57
 70
     1
  0
XRECORD
  5
1B5
102
{ACAD_REACTORS
330
1B4
102
}
330
1B4
100
AcDbXrecord
280
     1
102
RTVSPost2010Prop28
280
     0
102
RTVSPost2010PropOp28
 70
     1
102
RTVSPost2010Prop29
280
     1
102
RTVSPost2010PropOp29
 70
     1
102
RTVSPost2010Prop30
280
     1
102
RTVSPost2010PropOp30
 70
     1
102
RTVSPost2010Prop31
280
     0
102
RTVSPost2010PropOp31
 70
     1
102
RTVSPost2010Prop32
280
     0
102
RTVSPost2010PropOp32
 70
     1
102
RTVSPost2010Prop33
280
     0
102
RTVSPost2010PropOp33
 70
     1
102
RTVSPost2010Prop34
280
     0
102
RTVSPost2010PropOp34
 70
     1
102
RTVSPost2010Prop35
280
     0
102
RTVSPost2010PropOp35
 70
     1
102
RTVSPost2010Prop36
280
     0
102
RTVSPost2010PropOp36
 70
     1
102
RTVSPost2010Prop37
 90
       50
102
RTVSPost2010PropOp37
 70
     1
102
RTVSPost2010Prop38
140
0.0
102
RTVSPost2010PropOp38
 70
     1
102
RTVSPost2010Prop39
140
1.0
102
RTVSPost2010PropOp39
 70
     1
102
RTVSPost2010Prop40
 90
        0
102
RTVSPost2010PropOp40
 70
     1
102
RTVSPost2010Prop41ColorIndex
 90
       18
102
RTVSPost2010Prop41ColorRGB
 90
        0
102
RTVSPost2010PropOp41
 70
     1
102
RTVSPost2010Prop42
 90
       50
102
RTVSPost2010PropOp42
 70
     1
102
RTVSPost2010Prop43
 90
        3
102
RTVSPost2010PropOp43
 70
     1
102
RTVSPost2010Prop44ColorIndex
 90
        5
102
RTVSPost2010Prop44ColorRGB
 90
      255
102
RTVSPost2010PropOp44
 70
     1
102
RTVSPost2010Prop45
280
     0
102
RTVSPost2010PropOp45
 70
     1
102
RTVSPost2010Prop46
 90
       50
102
RTVSPost2010PropOp46
 70
     1
102
RTVSPost2010Prop47
 90
       50
102
RTVSPost2010PropOp47
 70
     1
102
RTVSPost2010Prop48
 90
       50
102
RTVSPost2010PropOp48
 70
     1
102
RTVSPost2010Prop49
280
     0
102
RTVSPost2010PropOp49
 70
     1
102
RTVSPost2010Prop50
 90
       50
102
RTVSPost2010PropOp50
 70
     1
102
RTVSPost2010Prop51ColorIndex
 90
      256
102
RTVSPost2010Prop51ColorRGB
 90
-16777216
102
RTVSPost2010PropOp51
 70
     0
102
RTVSPost2010Prop52
140
1.0
102
RTVSPost2010PropOp52
 70
     0
102
RTVSPost2010Prop53
 90
        2
102
RTVSPost2010PropOp53
 70
     1
102
RTVSPost2010Prop54
  1
strokes_ogs.tif
102
RTVSPost2010PropOp54
 70
     1
102
RTVSPost2010Prop55
280
     0
102
RTVSPost2010PropOp55
 70
     1
102
RTVSPost2010Prop56
140
1.0
102
RTVSPost2010PropOp56
 70
     1
102
RTVSPost2010Prop57
140
1.0
102
RTVSPost2010PropOp57
 70
     1
  0
XRECORD
  5
1CD
102
{ACAD_REACTORS
330
1CC
102
}
330
1CC
100
AcDbXrecord
280
     1
102
RTVSPost2010Prop28
280
     0
102
RTVSPost2010PropOp28
 70
     1
102
RTVSPost2010Prop29
280
     1
102
RTVSPost2010PropOp29
 70
     1
102
RTVSPost2010Prop30
280
     1
102
RTVSPost2010PropOp30
 70
     1
102
RTVSPost2010Prop31
280
     0
102
RTVSPost2010PropOp31
 70
     1
102
RTVSPost2010Prop32
280
     0
102
RTVSPost2010PropOp32
 70
     1
102
RTVSPost2010Prop33
280
     0
102
RTVSPost2010PropOp33
 70
     1
102
RTVSPost2010Prop34
280
     0
102
RTVSPost2010PropOp34
 70
     1
102
RTVSPost2010Prop35
280
     0
102
RTVSPost2010PropOp35
 70
     1
102
RTVSPost2010Prop36
280
     0
102
RTVSPost2010PropOp36
 70
     1
102
RTVSPost2010Prop37
 90
       50
102
RTVSPost2010PropOp37
 70
     1
102
RTVSPost2010Prop38
140
0.0
102
RTVSPost2010PropOp38
 70
     1
102
RTVSPost2010Prop39
140
1.0
102
RTVSPost2010PropOp39
 70
     1
102
RTVSPost2010Prop40
 90
        0
102
RTVSPost2010PropOp40
 70
     1
102
RTVSPost2010Prop41ColorIndex
 90
       18
102
RTVSPost2010Prop41ColorRGB
 90
        0
102
RTVSPost2010PropOp41
 70
     1
102
RTVSPost2010Prop42
 90
       50
102
RTVSPost2010PropOp42
 70
     1
102
RTVSPost2010Prop43
 90
        3
102
RTVSPost2010PropOp43
 70
     1
102
RTVSPost2010Prop44ColorIndex
 90
        5
102
RTVSPost2010Prop44ColorRGB
 90
      255
102
RTVSPost2010PropOp44
 70
     1
102
RTVSPost2010Prop45
280
     0
102
RTVSPost2010PropOp45
 70
     1
102
RTVSPost2010Prop46
 90
       50
102
RTVSPost2010PropOp46
 70
     1
102
RTVSPost2010Prop47
 90
       50
102
RTVSPost2010PropOp47
 70
     1
102
RTVSPost2010Prop48
 90
       50
102
RTVSPost2010PropOp48
 70
     1
102
RTVSPost2010Prop49
280
     0
102
RTVSPost2010PropOp49
 70
     1
102
RTVSPost2010Prop50
 90
       50
102
RTVSPost2010PropOp50
 70
     1
102
RTVSPost2010Prop51ColorIndex
 90
      256
102
RTVSPost2010Prop51ColorRGB
 90
-16777216
102
RTVSPost2010PropOp51
 70
     0
102
RTVSPost2010Prop52
140
1.0
102
RTVSPost2010PropOp52
 70
     0
102
RTVSPost2010Prop53
 90
        2
102
RTVSPost2010PropOp53
 70
     1
102
RTVSPost2010Prop54
  1
strokes_ogs.tif
102
RTVSPost2010PropOp54
 70
     1
102
RTVSPost2010Prop55
280
     0
102
RTVSPost2010PropOp55
 70
     1
102
RTVSPost2010Prop56
140
1.0
102
RTVSPost2010PropOp56
 70
     1
102
RTVSPost2010Prop57
140
1.0
102
RTVSPost2010PropOp57
 70
     1
  0
ENDSEC
  0
EOF
