  0
SECTION
  2
HEADER
  9
$ACADVER
  1
AC1024
  9
$ACADMAINTVER
 70
   226
  9
$DWGCODEPAGE
  3
ANSI_932
  9
$INSBASE
 10
0.0
 20
0.0
 30
0.0
  9
$EXTMIN
 10
1.000000000000000E+20
 20
1.000000000000000E+20
 30
1.000000000000000E+20
  9
$EXTMAX
 10
-1.000000000000000E+20
 20
-1.000000000000000E+20
 30
-1.000000000000000E+20
  9
$LIMMIN
 10
0.0
 20
0.0
  9
$LIMMAX
 10
12.0
 20
9.0
  9
$ORTHOMODE
 70
     0
  9
$REGENMODE
 70
     1
  9
$FILLMODE
 70
     1
  9
$QTEXTMODE
 70
     0
  9
$MIRRTEXT
 70
     0
  9
$LTSCALE
 40
1.0
  9
$ATTMODE
 70
     1
  9
$TEXTSIZE
 40
0.2
  9
$TRACEWID
 40
0.05
  9
$TEXTSTYLE
  7
Standard
  9
$CLAYER
  8
0
  9
$CELTYPE
  6
ByLayer
  9
$CECOLOR
 62
   256
  9
$CELTSCALE
 40
1.0
  9
$DISPSILH
 70
     0
  9
$DIMSCALE
 40
1.0
  9
$DIMASZ
 40
0.18
  9
$DIMEXO
 40
0.0625
  9
$DIMDLI
 40
0.38
  9
$DIMRND
 40
0.0
  9
$DIMDLE
 40
0.0
  9
$DIMEXE
 40
0.18
  9
$DIMTP
 40
0.0
  9
$DIMTM
 40
0.0
  9
$DIMTXT
 40
0.18
  9
$DIMCEN
 40
0.09
  9
$DIMTSZ
 40
0.0
  9
$DIMTOL
 70
     0
  9
$DIMLIM
 70
     0
  9
$DIMTIH
 70
     1
  9
$DIMTOH
 70
     1
  9
$DIMSE1
 70
     0
  9
$DIMSE2
 70
     0
  9
$DIMTAD
 70
     0
  9
$DIMZIN
 70
     0
  9
$DIMBLK
  1

  9
$DIMASO
 70
     1
  9
$DIMSHO
 70
     1
  9
$DIMPOST
  1

  9
$DIMAPOST
  1

  9
$DIMALT
 70
     0
  9
$DIMALTD
 70
     2
  9
$DIMALTF
 40
25.4
  9
$DIMLFAC
 40
1.0
  9
$DIMTOFL
 70
     0
  9
$DIMTVP
 40
0.0
  9
$DIMTIX
 70
     0
  9
$DIMSOXD
 70
     0
  9
$DIMSAH
 70
     0
  9
$DIMBLK1
  1

  9
$DIMBLK2
  1

  9
$DIMSTYLE
  2
Standard
  9
$DIMCLRD
 70
     0
  9
$DIMCLRE
 70
     0
  9
$DIMCLRT
 70
     0
  9
$DIMTFAC
 40
1.0
  9
$DIMGAP
 40
0.09
  9
$DIMJUST
 70
     0
  9
$DIMSD1
 70
     0
  9
$DIMSD2
 70
     0
  9
$DIMTOLJ
 70
     1
  9
$DIMTZIN
 70
     0
  9
$DIMALTZ
 70
     0
  9
$DIMALTTZ
 70
     0
  9
$DIMUPT
 70
     0
  9
$DIMDEC
 70
     4
  9
$DIMTDEC
 70
     4
  9
$DIMALTU
 70
     2
  9
$DIMALTTD
 70
     2
  9
$DIMTXSTY
  7
Standard
  9
$DIMAUNIT
 70
     0
  9
$DIMADEC
 70
     0
  9
$DIMALTRND
 40
0.0
  9
$DIMAZIN
 70
     0
  9
$DIMDSEP
 70
    46
  9
$DIMATFIT
 70
     3
  9
$DIMFRAC
 70
     0
  9
$DIMLDRBLK
  1

  9
$DIMLUNIT
 70
     2
  9
$DIMLWD
 70
    -2
  9
$DIMLWE
 70
    -2
  9
$DIMTMOVE
 70
     0
  9
$DIMFXL
 40
1.0
  9
$DIMFXLON
 70
     0
  9
$DIMJOGANG
 40
0.7853981633974483
  9
$DIMTFILL
 70
     0
  9
$DIMTFILLCLR
 70
     0
  9
$DIMARCSYM
 70
     0
  9
$DIMLTYPE
  6

  9
$DIMLTEX1
  6

  9
$DIMLTEX2
  6

  9
$DIMTXTDIRECTION
 70
     0
  9
$LUNITS
 70
     2
  9
$LUPREC
 70
     4
  9
$SKETCHINC
 40
0.1
  9
$FILLETRAD
 40
0.0
  9
$AUNITS
 70
     0
  9
$AUPREC
 70
     0
  9
$MENU
  1
.
  9
$ELEVATION
 40
0.0
  9
$PELEVATION
 40
0.0
  9
$THICKNESS
 40
0.0
  9
$LIMCHECK
 70
     0
  9
$CHAMFERA
 40
0.0
  9
$CHAMFERB
 40
0.0
  9
$CHAMFERC
 40
0.0
  9
$CHAMFERD
 40
0.0
  9
$SKPOLY
 70
     0
  9
$TDCREATE
 40
2459569.503148149
  9
$TDUCREATE
 40
2459569.128148149
  9
$TDUPDATE
 40
2459569.503148149
  9
$TDUUPDATE
 40
2459569.128148149
  9
$TDINDWG
 40
0.0000000000
  9
$TDUSRTIMER
 40
0.0000000000
  9
$USRTIMER
 70
     1
  9
$ANGBASE
 50
0.0
  9
$ANGDIR
 70
     0
  9
$PDMODE
 70
     0
  9
$PDSIZE
 40
0.0
  9
$PLINEWID
 40
0.0
  9
$SPLFRAME
 70
     0
  9
$SPLINETYPE
 70
     6
  9
$SPLINESEGS
 70
     8
  9
$HANDSEED
  5
1A4
  9
$SURFTAB1
 70
     6
  9
$SURFTAB2
 70
     6
  9
$SURFTYPE
 70
     6
  9
$SURFU
 70
     6
  9
$SURFV
 70
     6
  9
$UCSBASE
  2

  9
$UCSNAME
  2

  9
$UCSORG
 10
0.0
 20
0.0
 30
0.0
  9
$UCSXDIR
 10
1.0
 20
0.0
 30
0.0
  9
$UCSYDIR
 10
0.0
 20
1.0
 30
0.0
  9
$UCSORTHOREF
  2

  9
$UCSORTHOVIEW
 70
     0
  9
$UCSORGTOP
 10
0.0
 20
0.0
 30
0.0
  9
$UCSORGBOTTOM
 10
0.0
 20
0.0
 30
0.0
  9
$UCSORGLEFT
 10
0.0
 20
0.0
 30
0.0
  9
$UCSORGRIGHT
 10
0.0
 20
0.0
 30
0.0
  9
$UCSORGFRONT
 10
0.0
 20
0.0
 30
0.0
  9
$UCSORGBACK
 10
0.0
 20
0.0
 30
0.0
  9
$PUCSBASE
  2

  9
$PUCSNAME
  2

  9
$PUCSORG
 10
0.0
 20
0.0
 30
0.0
  9
$PUCSXDIR
 10
1.0
 20
0.0
 30
0.0
  9
$PUCSYDIR
 10
0.0
 20
1.0
 30
0.0
  9
$PUCSORTHOREF
  2

  9
$PUCSORTHOVIEW
 70
     0
  9
$PUCSORGTOP
 10
0.0
 20
0.0
 30
0.0
  9
$PUCSORGBOTTOM
 10
0.0
 20
0.0
 30
0.0
  9
$PUCSORGLEFT
 10
0.0
 20
0.0
 30
0.0
  9
$PUCSORGRIGHT
 10
0.0
 20
0.0
 30
0.0
  9
$PUCSORGFRONT
 10
0.0
 20
0.0
 30
0.0
  9
$PUCSORGBACK
 10
0.0
 20
0.0
 30
0.0
  9
$USERI1
 70
     0
  9
$USERI2
 70
     0
  9
$USERI3
 70
     0
  9
$USERI4
 70
     0
  9
$USERI5
 70
     0
  9
$USERR1
 40
0.0
  9
$USERR2
 40
0.0
  9
$USERR3
 40
0.0
  9
$USERR4
 40
0.0
  9
$USERR5
 40
0.0
  9
$WORLDVIEW
 70
     1
  9
$SHADEDGE
 70
     3
  9
$SHADEDIF
 70
    70
  9
$TILEMODE
 70
     1
  9
$MAXACTVP
 70
    64
  9
$PINSBASE
 10
0.0
 20
0.0
 30
0.0
  9
$PLIMCHECK
 70
     0
  9
$PEXTMIN
 10
1.000000000000000E+20
 20
1.000000000000000E+20
 30
1.000000000000000E+20
  9
$PEXTMAX
 10
-1.000000000000000E+20
 20
-1.000000000000000E+20
 30
-1.000000000000000E+20
  9
$PLIMMIN
 10
0.0
 20
0.0
  9
$PLIMMAX
 10
12.0
 20
9.0
  9
$UNITMODE
 70
     0
  9
$VISRETAIN
 70
     1
  9
$PLINEGEN
 70
     0
  9
$PSLTSCALE
 70
     1
  9
$TREEDEPTH
 70
  3020
  9
$CMLSTYLE
  2
Standard
  9
$CMLJUST
 70
     0
  9
$CMLSCALE
 40
1.0
  9
$PROXYGRAPHICS
 70
     1
  9
$MEASUREMENT
 70
     0
  9
$CELWEIGHT
370
    -1
  9
$ENDCAPS
280
     0
  9
$JOINSTYLE
280
     0
  9
$LWDISPLAY
290
     1
  9
$INSUNITS
 70
     4
  9
$HYPERLINKBASE
  1

  9
$STYLESHEET
  1

  9
$XEDIT
290
     1
  9
$CEPSNTYPE
380
     0
  9
$PSTYLEMODE
290
     1
  9
$FINGERPRINTGUID
  2
{51157954-E72E-904A-851D-1E18FE081F38}
  9
$VERSIONGUID
  2
{475180FB-A424-5C44-BCE7-9E285E790EDD}
  9
$EXTNAMES
290
     1
  9
$PSVPSCALE
 40
0.0
  9
$OLESTARTUP
290
     0
  9
$SORTENTS
280
   127
  9
$INDEXCTL
280
     0
  9
$HIDETEXT
280
     1
  9
$XCLIPFRAME
280
     2
  9
$HALOGAP
280
     0
  9
$OBSCOLOR
 70
   257
  9
$OBSLTYPE
280
     0
  9
$INTERSECTIONDISPLAY
280
     0
  9
$INTERSECTIONCOLOR
 70
   257
  9
$DIMASSOC
280
     2
  9
$PROJECTNAME
  1

  9
$CAMERADISPLAY
290
     0
  9
$LENSLENGTH
 40
50.0
  9
$CAMERAHEIGHT
 40
0.0
  9
$STEPSPERSEC
 40
2.0
  9
$STEPSIZE
 40
6.0
  9
$3DDWFPREC
 40
2.0
  9
$PSOLWIDTH
 40
0.25
  9
$PSOLHEIGHT
 40
4.0
  9
$LOFTANG1
 40
1.570796326794896
  9
$LOFTANG2
 40
1.570796326794896
  9
$LOFTMAG1
 40
0.0
  9
$LOFTMAG2
 40
0.0
  9
$LOFTPARAM
 70
     7
  9
$LOFTNORMALS
280
     1
  9
$LATITUDE
 40
37.795
  9
$LONGITUDE
 40
-122.394
  9
$NORTHDIRECTION
 40
0.0
  9
$TIMEZONE
 70
 -8000
  9
$LIGHTGLYPHDISPLAY
280
     1
  9
$TILEMODELIGHTSYNCH
280
     1
  9
$CMATERIAL
347
11
  9
$SOLIDHIST
280
     0
  9
$SHOWHIST
280
     1
  9
$DWFFRAME
280
     2
  9
$DGNFRAME
280
     0
  9
$REALWORLDSCALE
290
     1
  9
$INTERFERECOLOR
 62
     1
  9
$INTERFEREOBJVS
345
33
  9
$INTERFEREVPVS
346
30
  9
$CSHADOW
280
     0
  9
$SHADOWPLANELOCATION
 40
0.0
  0
ENDSEC
  0
SECTION
  2
CLASSES
  0
CLASS
  1
ACDBDICTIONARYWDFLT
  2
AcDbDictionaryWithDefault
  3
ObjectDBX Classes
 90
        0
 91
        1
280
     0
281
     0
  0
CLASS
  1
MATERIAL
  2
AcDbMaterial
  3
ObjectDBX Classes
 90
     1153
 91
        3
280
     0
281
     0
  0
CLASS
  1
VISUALSTYLE
  2
AcDbVisualStyle
  3
ObjectDBX Classes
 90
     4095
 91
       24
280
     0
281
     0
  0
CLASS
  1
SCALE
  2
AcDbScale
  3
ObjectDBX Classes
 90
     1153
 91
       17
280
     0
281
     0
  0
CLASS
  1
TABLESTYLE
  2
AcDbTableStyle
  3
ObjectDBX Classes
 90
     4095
 91
        1
280
     0
281
     0
  0
CLASS
  1
MLEADERSTYLE
  2
AcDbMLeaderStyle
  3
ACDB_MLEADERSTYLE_CLASS
 90
     4095
 91
        1
280
     0
281
     0
  0
CLASS
  1
ACDBSECTIONVIEWSTYLE
  2
AcDbSectionViewStyle
  3
ObjectDBX Classes
 90
     1025
 91
        1
280
     0
281
     0
  0
CLASS
  1
ACDBDETAILVIEWSTYLE
  2
AcDbDetailViewStyle
  3
ObjectDBX Classes
 90
     1025
 91
        1
280
     0
281
     0
  0
CLASS
  1
DICTIONARYVAR
  2
AcDbDictionaryVar
  3
ObjectDBX Classes
 90
        0
 91
        5
280
     0
281
     0
  0
CLASS
  1
CELLSTYLEMAP
  2
AcDbCellStyleMap
  3
ObjectDBX Classes
 90
     1152
 91
        1
280
     0
281
     0
  0
ENDSEC
  0
SECTION
  2
TABLES
  0
TABLE
  2
VPORT
  5
8
330
0
100
AcDbSymbolTable
 70
     1
  0
VPORT
  5
57
330
8
100
AcDbSymbolTableRecord
100
AcDbViewportTableRecord
  2
*Active
 70
     0
 10
0.0
 20
0.0
 11
1.0
 21
1.0
 12
0.0
 22
0.0
 13
0.0
 23
0.0
 14
1.0
 24
1.0
 15
0.0
 25
0.0
 16
0.0
 26
0.0
 36
1.0
 17
104.9999999737534
 27
-148.4999999628701
 37
0.0
 40
302.939999924255
 41
0.7070707070707534
 42
50.0
 43
0.0
 44
0.0
 50
0.0
 51
0.0
 71
     0
 72
   100
 73
     1
 74
     0
 75
     1
 76
     0
 77
     0
 78
     0
281
     0
 65
     1
110
0.0
120
0.0
130
0.0
111
1.0
121
0.0
131
0.0
112
0.0
122
1.0
132
0.0
 79
     0
146
0.0
 60
     3
 61
     5
292
     1
282
     1
141
0.0
142
0.0
 63
   250
421
  3355443
  0
ENDTAB
  0
TABLE
  2
LTYPE
  5
5
330
0
100
AcDbSymbolTable
 70
     3
  0
LTYPE
  5
5B
330
5
100
AcDbSymbolTableRecord
100
AcDbLinetypeTableRecord
  2
ByBlock
 70
     0
  3

 72
    65
 73
     0
 40
0.0
  0
LTYPE
  5
5C
330
5
100
AcDbSymbolTableRecord
100
AcDbLinetypeTableRecord
  2
ByLayer
 70
     0
  3

 72
    65
 73
     0
 40
0.0
  0
LTYPE
  5
5D
330
5
100
AcDbSymbolTableRecord
100
AcDbLinetypeTableRecord
  2
Continuous
 70
     0
  3
Solid line
 72
    65
 73
     0
 40
0.0
  0
LTYPE
  5
7A
330
5
100
AcDbSymbolTableRecord
100
AcDbLinetypeTableRecord
  2
AI-Linetype-0
 70
     0
  3
Adobe Illustrator Linetype No. 0
 72
    65
 73
     2
 40
1.411111110758333
 49
0.7055555553791667
 74
     0
 49
-0.7055555553791667
 74
     0
  0
LTYPE
  5
7C
330
5
100
AcDbSymbolTableRecord
100
AcDbLinetypeTableRecord
  2
AI-Linetype-1
 70
     0
  3
Adobe Illustrator Linetype No. 1
 72
    65
 73
     2
 40
1.411111110758333
 49
0.7055555553791667
 74
     0
 49
-0.7055555553791667
 74
     0
  0
ENDTAB
  0
TABLE
  2
LAYER
  5
2
330
0
100
AcDbSymbolTable
 70
     2
  0
LAYER
  5
54
330
2
100
AcDbSymbolTableRecord
100
AcDbLayerTableRecord
  2
0
 70
     0
 62
     7
  6
Continuous
370
    -3
390
F
347
21
  0
LAYER
  5
78
330
2
100
AcDbSymbolTableRecord
100
AcDbLayerTableRecord
  2
レイヤー 1
 70
     0
 62
     7
  6
Continuous
370
     0
390
F
347
21
  0
ENDTAB
  0
TABLE
  2
STYLE
  5
3
330
0
100
AcDbSymbolTable
 70
     2
  0
STYLE
  5
55
330
3
100
AcDbSymbolTableRecord
100
AcDbTextStyleTableRecord
  2
Standard
 70
     0
 40
0.0
 41
1.0
 50
0.0
 71
     0
 42
0.2
  3
txt
  4

  0
STYLE
  5
5A
330
3
100
AcDbSymbolTableRecord
100
AcDbTextStyleTableRecord
  2
Annotative
 70
     0
 40
0.0
 41
1.0
 50
0.0
 71
     0
 42
0.2
  3
txt
  4

1001
AcadAnnotative
1000
AnnotativeData
1002
{
1070
     1
1070
     1
1002
}
  0
ENDTAB
  0
TABLE
  2
VIEW
  5
6
330
0
100
AcDbSymbolTable
 70
     0
  0
ENDTAB
  0
TABLE
  2
UCS
  5
7
330
0
100
AcDbSymbolTable
 70
     0
  0
ENDTAB
  0
TABLE
  2
APPID
  5
9
330
0
100
AcDbSymbolTable
 70
     2
  0
APPID
  5
56
330
9
100
AcDbSymbolTableRecord
100
AcDbRegAppTableRecord
  2
ACAD
 70
     0
  0
APPID
  5
5E
330
9
100
AcDbSymbolTableRecord
100
AcDbRegAppTableRecord
  2
AcadAnnotative
 70
     0
  0
ENDTAB
  0
TABLE
  2
DIMSTYLE
  5
A
330
0
100
AcDbSymbolTable
 70
     2
100
AcDbDimStyleTable
 71
     0
  0
DIMSTYLE
105
58
330
A
100
AcDbSymbolTableRecord
100
AcDbDimStyleTableRecord
  2
Standard
 70
     0
340
55
  0
DIMSTYLE
105
59
330
A
100
AcDbSymbolTableRecord
100
AcDbDimStyleTableRecord
  2
Annotative
 70
     0
340
55
1001
AcadAnnotative
1000
AnnotativeData
1002
{
1070
     1
1070
     1
1002
}
  0
ENDTAB
  0
TABLE
  2
BLOCK_RECORD
  5
1
330
0
100
AcDbSymbolTable
 70
    17
  0
BLOCK_RECORD
  5
70
330
1
100
AcDbSymbolTableRecord
100
AcDbBlockTableRecord
  2
*Model_Space
340
73
 70
     0
280
     1
281
     0
  0
BLOCK_RECORD
  5
6C
330
1
100
AcDbSymbolTableRecord
100
AcDbBlockTableRecord
  2
*Paper_Space
340
6F
 70
     0
280
     1
281
     0
  0
BLOCK_RECORD
  5
74
330
1
100
AcDbSymbolTableRecord
100
AcDbBlockTableRecord
  2
*Paper_Space0
340
77
 70
     0
280
     1
281
     0
  0
BLOCK_RECORD
  5
E4
330
1
100
AcDbSymbolTableRecord
100
AcDbBlockTableRecord
  2
Block_0
340
0
102
{BLKREFS
331
E5
102
}
 70
     0
280
     1
281
     0
  0
BLOCK_RECORD
  5
E8
330
1
100
AcDbSymbolTableRecord
100
AcDbBlockTableRecord
  2
Block_1
340
0
102
{BLKREFS
331
E9
102
}
 70
     0
280
     1
281
     0
  0
BLOCK_RECORD
  5
F5
330
1
100
AcDbSymbolTableRecord
100
AcDbBlockTableRecord
  2
Block_2
340
0
102
{BLKREFS
331
F6
102
}
 70
     0
280
     1
281
     0
  0
BLOCK_RECORD
  5
F9
330
1
100
AcDbSymbolTableRecord
100
AcDbBlockTableRecord
  2
Block_3
340
0
102
{BLKREFS
331
FA
102
}
 70
     0
280
     1
281
     0
  0
BLOCK_RECORD
  5
103
330
1
100
AcDbSymbolTableRecord
100
AcDbBlockTableRecord
  2
Block_4
340
0
102
{BLKREFS
331
104
102
}
 70
     0
280
     1
281
     0
  0
BLOCK_RECORD
  5
10B
330
1
100
AcDbSymbolTableRecord
100
AcDbBlockTableRecord
  2
Block_5
340
0
102
{BLKREFS
331
10C
102
}
 70
     0
280
     1
281
     0
  0
BLOCK_RECORD
  5
10F
330
1
100
AcDbSymbolTableRecord
100
AcDbBlockTableRecord
  2
Block_6
340
0
102
{BLKREFS
331
110
102
}
 70
     0
280
     1
281
     0
  0
BLOCK_RECORD
  5
11A
330
1
100
AcDbSymbolTableRecord
100
AcDbBlockTableRecord
  2
Block_7
340
0
102
{BLKREFS
331
11B
102
}
 70
     0
280
     1
281
     0
  0
BLOCK_RECORD
  5
11E
330
1
100
AcDbSymbolTableRecord
100
AcDbBlockTableRecord
  2
Block_8
340
0
102
{BLKREFS
331
11F
102
}
 70
     0
280
     1
281
     0
  0
BLOCK_RECORD
  5
12C
330
1
100
AcDbSymbolTableRecord
100
AcDbBlockTableRecord
  2
Block_9
340
0
102
{BLKREFS
331
12D
102
}
 70
     0
280
     1
281
     0
  0
BLOCK_RECORD
  5
130
330
1
100
AcDbSymbolTableRecord
100
AcDbBlockTableRecord
  2
Block_10
340
0
102
{BLKREFS
331
131
102
}
 70
     0
280
     1
281
     0
  0
BLOCK_RECORD
  5
139
330
1
100
AcDbSymbolTableRecord
100
AcDbBlockTableRecord
  2
Block_11
340
0
102
{BLKREFS
331
13A
102
}
 70
     0
280
     1
281
     0
  0
BLOCK_RECORD
  5
13F
330
1
100
AcDbSymbolTableRecord
100
AcDbBlockTableRecord
  2
Block_12
340
0
102
{BLKREFS
331
140
102
}
 70
     0
280
     1
281
     0
  0
BLOCK_RECORD
  5
143
330
1
100
AcDbSymbolTableRecord
100
AcDbBlockTableRecord
  2
Block_13
340
0
102
{BLKREFS
331
144
102
}
 70
     0
280
     1
281
     0
  0
BLOCK_RECORD
  5
14A
330
1
100
AcDbSymbolTableRecord
100
AcDbBlockTableRecord
  2
Block_14
340
0
102
{BLKREFS
331
14B
102
}
 70
     0
280
     1
281
     0
  0
BLOCK_RECORD
  5
14E
330
1
100
AcDbSymbolTableRecord
100
AcDbBlockTableRecord
  2
Block_15
340
0
102
{BLKREFS
331
14F
102
}
 70
     0
280
     1
281
     0
  0
ENDTAB
  0
ENDSEC
  0
SECTION
  2
BLOCKS
  0
BLOCK
  5
71
330
70
100
AcDbEntity
  8
0
100
AcDbBlockBegin
  2
*Model_Space
 70
     0
 10
0.0
 20
0.0
 30
0.0
  3
*Model_Space
  1

  0
ENDBLK
  5
72
330
70
100
AcDbEntity
  8
0
100
AcDbBlockEnd
  0
BLOCK
  5
6D
330
6C
100
AcDbEntity
 67
     1
  8
0
100
AcDbBlockBegin
  2
*Paper_Space
 70
     0
 10
0.0
 20
0.0
 30
0.0
  3
*Paper_Space
  1

  0
ENDBLK
  5
6E
330
6C
100
AcDbEntity
 67
     1
  8
0
100
AcDbBlockEnd
  0
BLOCK
  5
75
330
74
100
AcDbEntity
 67
     1
  8
0
100
AcDbBlockBegin
  2
*Paper_Space0
 70
     0
 10
0.0
 20
0.0
 30
0.0
  3
*Paper_Space0
  1

  0
ENDBLK
  5
76
330
74
100
AcDbEntity
 67
     1
  8
0
100
AcDbBlockEnd
  0
BLOCK
  5
E6
330
E4
100
AcDbEntity
  8
0
100
AcDbBlockBegin
  2
Block_0
 70
     0
 10
0.0
 20
0.0
 30
0.0
  3
Block_0
  1

  0
INSERT
  5
E9
330
E4
100
AcDbEntity
  8
レイヤー 1
100
AcDbBlockReference
  2
Block_1
 10
0.0
 20
0.0
 30
0.0
  0
ENDBLK
  5
E7
330
E4
100
AcDbEntity
  8
0
100
AcDbBlockEnd
  0
BLOCK
  5
EA
330
E8
100
AcDbEntity
  8
0
100
AcDbBlockBegin
  2
Block_1
 70
     0
 10
0.0
 20
0.0
 30
0.0
  3
Block_1
  1

  0
SPLINE
  5
EC
330
E8
100
AcDbEntity
  8
レイヤー 1
100
AcDbSpline
210
0.0
220
0.0
230
1.0
 70
     9
 71
     3
 72
    17
 73
    13
 74
     0
 42
0.0000000001
 43
0.0000000001
 40
0.0
 40
0.0
 40
0.0
 40
0.0
 40
1.0
 40
1.0
 40
1.0
 40
2.0
 40
2.0
 40
2.0
 40
3.0
 40
3.0
 40
3.0
 40
4.0
 40
4.0
 40
4.0
 40
4.0
 10
71.50330130590891
 20
-148.3125664234253
 30
0.0
 10
71.50330130590891
 20
-148.5623358461059
 30
0.0
 10
71.7866604095707
 20
-148.6088446351568
 30
0.0
 10
72.1315144676442
 20
-148.6088446351568
 30
0.0
 10
72.45104707390114
 20
-148.6088446351568
 30
0.0
 10
72.75989988415378
 20
-148.5726711325617
 30
0.0
 10
72.75989988415378
 20
-148.3125664234253
 30
0.0
 10
72.75989988415378
 20
-148.0648640580358
 30
0.0
 10
72.47843558300886
 20
-148.0162882116938
 30
0.0
 10
72.1315144676442
 20
-148.0162882116938
 30
0.0
 10
71.81215411616155
 20
-148.0162882116938
 30
0.0
 10
71.50330130590891
 20
-148.0545287715801
 30
0.0
 10
71.50330130590891
 20
-148.3125664234253
 30
0.0
  0
SPLINE
  5
ED
330
E8
100
AcDbEntity
  8
レイヤー 1
100
AcDbSpline
210
0.0
220
0.0
230
1.0
 70
     9
 71
     3
 72
    29
 73
    25
 74
     0
 42
0.0000000001
 43
0.0000000001
 40
0.0
 40
0.0
 40
0.0
 40
0.0
 40
1.0
 40
1.0
 40
1.0
 40
2.0
 40
2.0
 40
2.0
 40
3.0
 40
3.0
 40
3.0
 40
4.0
 40
4.0
 40
4.0
 40
5.0
 40
5.0
 40
5.0
 40
6.0
 40
6.0
 40
6.0
 40
7.0
 40
7.0
 40
7.0
 40
8.0
 40
8.0
 40
8.0
 40
8.0
 10
72.72596569362406
 20
-147.914657894879
 30
0.0
 10
72.93542749912726
 20
-148.0228338931158
 30
0.0
 10
72.95454777907039
 20
-148.1961221960238
 30
0.0
 10
72.95454777907039
 20
-148.3125664234253
 30
0.0
 10
72.95454777907039
 20
-148.4734523825865
 30
0.0
 10
72.90803899001952
 20
-148.6150458070302
 30
0.0
 10
72.72596569362406
 20
-148.7101304424232
 30
0.0
 10
72.53149005348172
 20
-148.8138278165292
 30
0.0
 10
72.29446748409653
 20
-148.8331203512466
 30
0.0
 10
72.1315144676442
 20
-148.8331203512466
 30
0.0
 10
71.98768173113503
 20
-148.8331203512466
 30
0.0
 10
71.73601750593753
 20
-148.8158948738203
 30
0.0
 10
71.53706324166434
 20
-148.7101304424232
 30
0.0
 10
71.33397486280887
 20
-148.6022989537348
 30
0.0
 10
71.31072046828343
 20
-148.4414129945736
 30
0.0
 10
71.31072046828343
 20
-148.3125664234253
 30
0.0
 10
71.31072046828343
 20
-148.1537475215553
 30
0.0
 10
71.35516220004316
 20
-148.0100870398204
 30
0.0
 10
71.53706324166434
 20
-147.914657894879
 30
0.0
 10
71.72964407928981
 20
-147.8154391449038
 30
0.0
 10
71.95805390996188
 20
-147.7920124956041
 30
0.0
 10
72.1315144676442
 20
-147.7920124956041
 30
0.0
 10
72.30290796803538
 20
-147.7920124956041
 30
0.0
 10
72.53355711077286
 20
-147.8133720876126
 30
0.0
 10
72.72596569362406
 20
-147.914657894879
 30
0.0
  0
HATCH
  5
EE
330
E8
100
AcDbEntity
  8
レイヤー 1
 62
   250
420
  2299925
440
 33554687
100
AcDbHatch
 10
0.0
 20
0.0
 30
0.0
210
0.0
220
0.0
230
1.0
  2
SOLID
 70
     1
 71
     1
 91
        2
 92
        1
 93
        1
 72
     4
 94
        3
 73
     0
 74
     0
 95
       17
 96
       13
 40
0.0
 40
0.0
 40
0.0
 40
0.0
 40
1.0
 40
1.0
 40
1.0
 40
2.0
 40
2.0
 40
2.0
 40
3.0
 40
3.0
 40
3.0
 40
4.0
 40
4.0
 40
4.0
 40
4.0
 10
71.50330130590891
 20
-148.3125664234253
 10
71.50330130590891
 20
-148.5623358461059
 10
71.7866604095707
 20
-148.6088446351568
 10
72.1315144676442
 20
-148.6088446351568
 10
72.45104707390114
 20
-148.6088446351568
 10
72.75989988415378
 20
-148.5726711325617
 10
72.75989988415378
 20
-148.3125664234253
 10
72.75989988415378
 20
-148.0648640580358
 10
72.47843558300886
 20
-148.0162882116938
 10
72.1315144676442
 20
-148.0162882116938
 10
71.81215411616155
 20
-148.0162882116938
 10
71.50330130590891
 20
-148.0545287715801
 10
71.50330130590891
 20
-148.3125664234253
 97
        0
 97
        1
330
EC
 92
        1
 93
        1
 72
     4
 94
        3
 73
     0
 74
     0
 95
       29
 96
       25
 40
0.0
 40
0.0
 40
0.0
 40
0.0
 40
1.0
 40
1.0
 40
1.0
 40
2.0
 40
2.0
 40
2.0
 40
3.0
 40
3.0
 40
3.0
 40
4.0
 40
4.0
 40
4.0
 40
5.0
 40
5.0
 40
5.0
 40
6.0
 40
6.0
 40
6.0
 40
7.0
 40
7.0
 40
7.0
 40
8.0
 40
8.0
 40
8.0
 40
8.0
 10
72.72596569362406
 20
-147.914657894879
 10
72.93542749912726
 20
-148.0228338931158
 10
72.95454777907039
 20
-148.1961221960238
 10
72.95454777907039
 20
-148.3125664234253
 10
72.95454777907039
 20
-148.4734523825865
 10
72.90803899001952
 20
-148.6150458070302
 10
72.72596569362406
 20
-148.7101304424232
 10
72.53149005348172
 20
-148.8138278165292
 10
72.29446748409653
 20
-148.8331203512466
 10
72.1315144676442
 20
-148.8331203512466
 10
71.98768173113503
 20
-148.8331203512466
 10
71.73601750593753
 20
-148.8158948738203
 10
71.53706324166434
 20
-148.7101304424232
 10
71.33397486280887
 20
-148.6022989537348
 10
71.31072046828343
 20
-148.4414129945736
 10
71.31072046828343
 20
-148.3125664234253
 10
71.31072046828343
 20
-148.1537475215553
 10
71.35516220004316
 20
-148.0100870398204
 10
71.53706324166434
 20
-147.914657894879
 10
71.72964407928981
 20
-147.8154391449038
 10
71.95805390996188
 20
-147.7920124956041
 10
72.1315144676442
 20
-147.7920124956041
 10
72.30290796803538
 20
-147.7920124956041
 10
72.53355711077286
 20
-147.8133720876126
 10
72.72596569362406
 20
-147.914657894879
 97
        0
 97
        1
330
ED
 75
     2
 76
     1
 98
        1
 10
0.0
 20
0.0
450
        0
451
        0
460
0.0
461
0.0
452
        0
462
0.0
453
        0
470

  0
SPLINE
  5
EF
330
E8
100
AcDbEntity
  8
レイヤー 1
100
AcDbSpline
210
0.0
220
0.0
230
1.0
 70
    11
 71
     3
 72
    17
 73
    13
 74
     0
 42
0.0000000001
 43
0.0000000001
 40
0.0
 40
0.0
 40
0.0
 40
0.0
 40
1.0
 40
1.0
 40
1.0
 40
2.0
 40
2.0
 40
2.0
 40
3.0
 40
3.0
 40
3.0
 40
4.0
 40
4.0
 40
4.0
 40
4.0
 10
72.90373262066296
 20
-147.5756604991304
 30
0.0
 10
72.90373262066296
 20
-147.5756604991304
 30
0.0
 10
72.65206839546547
 20
-147.5756604991304
 30
0.0
 10
72.65206839546547
 20
-147.5756604991304
 30
0.0
 10
72.65206839546547
 20
-147.5756604991304
 30
0.0
 10
72.65206839546547
 20
-147.3238240191586
 30
0.0
 10
72.65206839546547
 20
-147.3238240191586
 30
0.0
 10
72.65206839546547
 20
-147.3238240191586
 30
0.0
 10
72.90373262066296
 20
-147.3238240191586
 30
0.0
 10
72.90373262066296
 20
-147.3238240191586
 30
0.0
 10
72.90373262066296
 20
-147.3238240191586
 30
0.0
 10
72.90373262066296
 20
-147.5756604991304
 30
0.0
 10
72.90373262066296
 20
-147.5756604991304
 30
0.0
  0
HATCH
  5
F0
330
E8
100
AcDbEntity
  8
レイヤー 1
 62
   250
420
  2299925
440
 33554687
100
AcDbHatch
 10
0.0
 20
0.0
 30
0.0
210
0.0
220
0.0
230
1.0
  2
SOLID
 70
     1
 71
     1
 91
        1
 92
        1
 93
        1
 72
     4
 94
        3
 73
     0
 74
     0
 95
       17
 96
       13
 40
0.0
 40
0.0
 40
0.0
 40
0.0
 40
1.0
 40
1.0
 40
1.0
 40
2.0
 40
2.0
 40
2.0
 40
3.0
 40
3.0
 40
3.0
 40
4.0
 40
4.0
 40
4.0
 40
4.0
 10
72.90373262066296
 20
-147.5756604991304
 10
72.90373262066296
 20
-147.5756604991304
 10
72.65206839546547
 20
-147.5756604991304
 10
72.65206839546547
 20
-147.5756604991304
 10
72.65206839546547
 20
-147.5756604991304
 10
72.65206839546547
 20
-147.3238240191586
 10
72.65206839546547
 20
-147.3238240191586
 10
72.65206839546547
 20
-147.3238240191586
 10
72.90373262066296
 20
-147.3238240191586
 10
72.90373262066296
 20
-147.3238240191586
 10
72.90373262066296
 20
-147.3238240191586
 10
72.90373262066296
 20
-147.5756604991304
 10
72.90373262066296
 20
-147.5756604991304
 97
        0
 97
        1
330
EF
 75
     2
 76
     1
 98
        1
 10
0.0
 20
0.0
450
        0
451
        0
460
0.0
461
0.0
452
        0
462
0.0
453
        0
470

  0
SPLINE
  5
F1
330
E8
100
AcDbEntity
  8
レイヤー 1
100
AcDbSpline
210
0.0
220
0.0
230
1.0
 70
     9
 71
     3
 72
    53
 73
    49
 74
     0
 42
0.0000000001
 43
0.0000000001
 40
0.0
 40
0.0
 40
0.0
 40
0.0
 40
1.0
 40
1.0
 40
1.0
 40
2.0
 40
2.0
 40
2.0
 40
3.0
 40
3.0
 40
3.0
 40
4.0
 40
4.0
 40
4.0
 40
5.0
 40
5.0
 40
5.0
 40
6.0
 40
6.0
 40
6.0
 40
7.0
 40
7.0
 40
7.0
 40
8.0
 40
8.0
 40
8.0
 40
9.0
 40
9.0
 40
9.0
 40
10.0
 40
10.0
 40
10.0
 40
11.0
 40
11.0
 40
11.0
 40
12.0
 40
12.0
 40
12.0
 40
13.0
 40
13.0
 40
13.0
 40
14.0
 40
14.0
 40
14.0
 40
15.0
 40
15.0
 40
15.0
 40
16.0
 40
16.0
 40
16.0
 40
16.0
 10
72.95454777907039
 20
-146.6065551391296
 30
0.0
 10
72.95454777907039
 20
-146.6847588066448
 30
0.0
 10
72.93766681119267
 20
-146.7863891234596
 30
0.0
 10
72.87410479948981
 20
-146.8880194402745
 30
0.0
 10
72.76403399873608
 20
-147.0613077431826
 30
0.0
 10
72.63294811552232
 20
-147.0826673351911
 30
0.0
 10
72.525116626834
 20
-147.10161536036
 30
0.0
 10
72.525116626834
 20
-147.10161536036
 30
0.0
 10
72.525116626834
 20
-146.8794067015614
 30
0.0
 10
72.525116626834
 20
-146.8794067015614
 30
0.0
 10
72.72389863633292
 20
-146.8246296833459
 30
0.0
 10
72.75352645750607
 20
-146.6975056599402
 30
0.0
 10
72.75352645750607
 20
-146.6044880818385
 30
0.0
 10
72.75352645750607
 20
-146.4649617146858
 30
0.0
 10
72.6541354527566
 20
-146.3126884942378
 30
0.0
 10
72.42141925272798
 20
-146.3126884942378
 30
0.0
 10
72.16544865817391
 20
-146.3126884942378
 30
0.0
 10
72.09568547459761
 20
-146.4925224785678
 30
0.0
 10
72.09568547459761
 20
-146.6131008205516
 30
0.0
 10
72.09568547459761
 20
-146.6447956990159
 30
0.0
 10
72.09568547459761
 20
-146.7863891234596
 30
0.0
 10
72.22470430052021
 20
-146.8752725869791
 30
0.0
 10
72.22470430052021
 20
-146.8752725869791
 30
0.0
 10
72.20558402057708
 20
-147.0509724567268
 30
0.0
 10
72.20558402057708
 20
-147.0509724567268
 30
0.0
 10
72.20558402057708
 20
-147.0509724567268
 30
0.0
 10
71.35946856939972
 20
-146.9303941147431
 30
0.0
 10
71.35946856939972
 20
-146.9303941147431
 30
0.0
 10
71.35946856939972
 20
-146.9303941147431
 30
0.0
 10
71.35946856939972
 20
-146.1518025350766
 30
0.0
 10
71.35946856939972
 20
-146.1518025350766
 30
0.0
 10
71.35946856939972
 20
-146.1518025350766
 30
0.0
 10
71.55411646431634
 20
-146.1518025350766
 30
0.0
 10
71.55411646431634
 20
-146.1518025350766
 30
0.0
 10
71.55411646431634
 20
-146.1518025350766
 30
0.0
 10
71.55411646431634
 20
-146.7674410982908
 30
0.0
 10
71.55411646431634
 20
-146.7674410982908
 30
0.0
 10
71.55411646431634
 20
-146.7674410982908
 30
0.0
 10
71.97717418990501
 20
-146.8328979125105
 30
0.0
 10
71.97717418990501
 20
-146.8328979125105
 30
0.0
 10
71.9432399993753
 20
-146.771575212873
 30
0.0
 10
71.90310463697215
 20
-146.6892374307756
 30
0.0
 10
71.90310463697215
 20
-146.570726146083
 30
0.0
 10
71.90310463697215
 20
-146.3168226088201
 30
0.0
 10
72.0893120479499
 20
-146.0798000394349
 30
0.0
 10
72.40229897278485
 20
-146.0798000394349
 30
0.0
 10
72.71976452175062
 20
-146.0798000394349
 30
0.0
 10
72.95454777907039
 20
-146.3040757555247
 30
0.0
 10
72.95454777907039
 20
-146.6065551391296
 30
0.0
  0
HATCH
  5
F2
330
E8
100
AcDbEntity
  8
レイヤー 1
 62
   250
420
  2299925
440
 33554687
100
AcDbHatch
 10
0.0
 20
0.0
 30
0.0
210
0.0
220
0.0
230
1.0
  2
SOLID
 70
     1
 71
     1
 91
        1
 92
        1
 93
        1
 72
     4
 94
        3
 73
     0
 74
     0
 95
       53
 96
       49
 40
0.0
 40
0.0
 40
0.0
 40
0.0
 40
1.0
 40
1.0
 40
1.0
 40
2.0
 40
2.0
 40
2.0
 40
3.0
 40
3.0
 40
3.0
 40
4.0
 40
4.0
 40
4.0
 40
5.0
 40
5.0
 40
5.0
 40
6.0
 40
6.0
 40
6.0
 40
7.0
 40
7.0
 40
7.0
 40
8.0
 40
8.0
 40
8.0
 40
9.0
 40
9.0
 40
9.0
 40
10.0
 40
10.0
 40
10.0
 40
11.0
 40
11.0
 40
11.0
 40
12.0
 40
12.0
 40
12.0
 40
13.0
 40
13.0
 40
13.0
 40
14.0
 40
14.0
 40
14.0
 40
15.0
 40
15.0
 40
15.0
 40
16.0
 40
16.0
 40
16.0
 40
16.0
 10
72.95454777907039
 20
-146.6065551391296
 10
72.95454777907039
 20
-146.6847588066448
 10
72.93766681119267
 20
-146.7863891234596
 10
72.87410479948981
 20
-146.8880194402745
 10
72.76403399873608
 20
-147.0613077431826
 10
72.63294811552232
 20
-147.0826673351911
 10
72.525116626834
 20
-147.10161536036
 10
72.525116626834
 20
-147.10161536036
 10
72.525116626834
 20
-146.8794067015614
 10
72.525116626834
 20
-146.8794067015614
 10
72.72389863633292
 20
-146.8246296833459
 10
72.75352645750607
 20
-146.6975056599402
 10
72.75352645750607
 20
-146.6044880818385
 10
72.75352645750607
 20
-146.4649617146858
 10
72.6541354527566
 20
-146.3126884942378
 10
72.42141925272798
 20
-146.3126884942378
 10
72.16544865817391
 20
-146.3126884942378
 10
72.09568547459761
 20
-146.4925224785678
 10
72.09568547459761
 20
-146.6131008205516
 10
72.09568547459761
 20
-146.6447956990159
 10
72.09568547459761
 20
-146.7863891234596
 10
72.22470430052021
 20
-146.8752725869791
 10
72.22470430052021
 20
-146.8752725869791
 10
72.20558402057708
 20
-147.0509724567268
 10
72.20558402057708
 20
-147.0509724567268
 10
72.20558402057708
 20
-147.0509724567268
 10
71.35946856939972
 20
-146.9303941147431
 10
71.35946856939972
 20
-146.9303941147431
 10
71.35946856939972
 20
-146.9303941147431
 10
71.35946856939972
 20
-146.1518025350766
 10
71.35946856939972
 20
-146.1518025350766
 10
71.35946856939972
 20
-146.1518025350766
 10
71.55411646431634
 20
-146.1518025350766
 10
71.55411646431634
 20
-146.1518025350766
 10
71.55411646431634
 20
-146.1518025350766
 10
71.55411646431634
 20
-146.7674410982908
 10
71.55411646431634
 20
-146.7674410982908
 10
71.55411646431634
 20
-146.7674410982908
 10
71.97717418990501
 20
-146.8328979125105
 10
71.97717418990501
 20
-146.8328979125105
 10
71.9432399993753
 20
-146.771575212873
 10
71.90310463697215
 20
-146.6892374307756
 10
71.90310463697215
 20
-146.570726146083
 10
71.90310463697215
 20
-146.3168226088201
 10
72.0893120479499
 20
-146.0798000394349
 10
72.40229897278485
 20
-146.0798000394349
 10
72.71976452175062
 20
-146.0798000394349
 10
72.95454777907039
 20
-146.3040757555247
 10
72.95454777907039
 20
-146.6065551391296
 97
        0
 97
        1
330
F1
 75
     2
 76
     1
 98
        1
 10
0.0
 20
0.0
450
        0
451
        0
460
0.0
461
0.0
452
        0
462
0.0
453
        0
470

  0
ENDBLK
  5
EB
330
E8
100
AcDbEntity
  8
0
100
AcDbBlockEnd
  0
BLOCK
  5
F7
330
F5
100
AcDbEntity
  8
0
100
AcDbBlockBegin
  2
Block_2
 70
     0
 10
0.0
 20
0.0
 30
0.0
  3
Block_2
  1

  0
INSERT
  5
FA
330
F5
100
AcDbEntity
  8
レイヤー 1
100
AcDbBlockReference
  2
Block_3
 10
0.0
 20
0.0
 30
0.0
  0
ENDBLK
  5
F8
330
F5
100
AcDbEntity
  8
0
100
AcDbBlockEnd
  0
BLOCK
  5
FB
330
F9
100
AcDbEntity
  8
0
100
AcDbBlockBegin
  2
Block_3
 70
     0
 10
0.0
 20
0.0
 30
0.0
  3
Block_3
  1

  0
SPLINE
  5
FD
330
F9
100
AcDbEntity
  8
レイヤー 1
100
AcDbSpline
210
0.0
220
0.0
230
1.0
 70
     9
 71
     3
 72
    44
 73
    40
 74
     0
 42
0.0000000001
 43
0.0000000001
 40
0.0
 40
0.0
 40
0.0
 40
0.0
 40
1.0
 40
1.0
 40
1.0
 40
2.0
 40
2.0
 40
2.0
 40
3.0
 40
3.0
 40
3.0
 40
4.0
 40
4.0
 40
4.0
 40
5.0
 40
5.0
 40
5.0
 40
6.0
 40
6.0
 40
6.0
 40
7.0
 40
7.0
 40
7.0
 40
8.0
 40
8.0
 40
8.0
 40
9.0
 40
9.0
 40
9.0
 40
10.0
 40
10.0
 40
10.0
 40
11.0
 40
11.0
 40
11.0
 40
12.0
 40
12.0
 40
12.0
 40
13.0
 40
13.0
 40
13.0
 40
13.0
 10
86.50651988939769
 20
-141.1002590250548
 30
0.0
 10
86.28861759995563
 20
-141.2589056721505
 30
0.0
 10
86.19542776707962
 20
-141.3329752250834
 30
0.0
 10
86.14685192073761
 20
-141.4768079615926
 30
0.0
 10
86.14685192073761
 20
-141.4768079615926
 30
0.0
 10
86.9252712456298
 20
-141.4768079615926
 30
0.0
 10
86.9252712456298
 20
-141.4768079615926
 30
0.0
 10
86.9252712456298
 20
-141.4768079615926
 30
0.0
 10
86.9252712456298
 20
-141.6819633977392
 30
0.0
 10
86.9252712456298
 20
-141.6819633977392
 30
0.0
 10
86.9252712456298
 20
-141.6819633977392
 30
0.0
 10
85.89725475283124
 20
-141.6819633977392
 30
0.0
 10
85.89725475283124
 20
-141.6819633977392
 30
0.0
 10
85.92894963129554
 20
-141.3243624863703
 30
0.0
 10
85.99457870028954
 20
-141.2461588188551
 30
0.0
 10
86.37956812076621
 20
-140.9478135498325
 30
0.0
 10
86.63553871532029
 20
-140.7490315403336
 30
0.0
 10
86.70099552954004
 20
-140.6813354140484
 30
0.0
 10
86.70099552954004
 20
-140.5438761041869
 30
0.0
 10
86.70099552954004
 20
-140.4253648194943
 30
0.0
 10
86.62916528867256
 20
-140.2941066815063
 30
0.0
 10
86.43245033646481
 20
-140.2941066815063
 30
0.0
 10
86.17217337255418
 20
-140.2941066815063
 30
0.0
 10
86.16373288861531
 20
-140.5247558242438
 30
0.0
 10
86.15942651925875
 20
-140.6412000516452
 30
0.0
 10
86.15942651925875
 20
-140.6412000516452
 30
0.0
 10
85.93532305794324
 20
-140.6412000516452
 30
0.0
 10
85.93532305794324
 20
-140.6412000516452
 30
0.0
 10
85.94376354188211
 20
-140.5142482830138
 30
0.0
 10
85.95427108311213
 20
-140.4021104249689
 30
0.0
 10
86.03471406269271
 20
-140.2835991402763
 30
0.0
 10
86.14461260867219
 20
-140.1228854358894
 30
0.0
 10
86.33082001964993
 20
-140.0889512453597
 30
0.0
 10
86.44726424705138
 20
-140.0889512453597
 30
0.0
 10
86.72442217883974
 20
-140.0889512453597
 30
0.0
 10
86.93164467227751
 20
-140.2730915990463
 30
0.0
 10
86.93164467227751
 20
-140.5459431614781
 30
0.0
 10
86.93164467227751
 20
-140.7743529921502
 30
0.0
 10
86.81537269965032
 20
-140.8739162516738
 30
0.0
 10
86.50651988939769
 20
-141.1002590250548
 30
0.0
  0
HATCH
  5
FE
330
F9
100
AcDbEntity
  8
レイヤー 1
 62
   250
420
  2299925
440
 33554687
100
AcDbHatch
 10
0.0
 20
0.0
 30
0.0
210
0.0
220
0.0
230
1.0
  2
SOLID
 70
     1
 71
     1
 91
        1
 92
        1
 93
        1
 72
     4
 94
        3
 73
     0
 74
     0
 95
       44
 96
       40
 40
0.0
 40
0.0
 40
0.0
 40
0.0
 40
1.0
 40
1.0
 40
1.0
 40
2.0
 40
2.0
 40
2.0
 40
3.0
 40
3.0
 40
3.0
 40
4.0
 40
4.0
 40
4.0
 40
5.0
 40
5.0
 40
5.0
 40
6.0
 40
6.0
 40
6.0
 40
7.0
 40
7.0
 40
7.0
 40
8.0
 40
8.0
 40
8.0
 40
9.0
 40
9.0
 40
9.0
 40
10.0
 40
10.0
 40
10.0
 40
11.0
 40
11.0
 40
11.0
 40
12.0
 40
12.0
 40
12.0
 40
13.0
 40
13.0
 40
13.0
 40
13.0
 10
86.50651988939769
 20
-141.1002590250548
 10
86.28861759995563
 20
-141.2589056721505
 10
86.19542776707962
 20
-141.3329752250834
 10
86.14685192073761
 20
-141.4768079615926
 10
86.14685192073761
 20
-141.4768079615926
 10
86.9252712456298
 20
-141.4768079615926
 10
86.9252712456298
 20
-141.4768079615926
 10
86.9252712456298
 20
-141.4768079615926
 10
86.9252712456298
 20
-141.6819633977392
 10
86.9252712456298
 20
-141.6819633977392
 10
86.9252712456298
 20
-141.6819633977392
 10
85.89725475283124
 20
-141.6819633977392
 10
85.89725475283124
 20
-141.6819633977392
 10
85.92894963129554
 20
-141.3243624863703
 10
85.99457870028954
 20
-141.2461588188551
 10
86.37956812076621
 20
-140.9478135498325
 10
86.63553871532029
 20
-140.7490315403336
 10
86.70099552954004
 20
-140.6813354140484
 10
86.70099552954004
 20
-140.5438761041869
 10
86.70099552954004
 20
-140.4253648194943
 10
86.62916528867256
 20
-140.2941066815063
 10
86.43245033646481
 20
-140.2941066815063
 10
86.17217337255418
 20
-140.2941066815063
 10
86.16373288861531
 20
-140.5247558242438
 10
86.15942651925875
 20
-140.6412000516452
 10
86.15942651925875
 20
-140.6412000516452
 10
85.93532305794324
 20
-140.6412000516452
 10
85.93532305794324
 20
-140.6412000516452
 10
85.94376354188211
 20
-140.5142482830138
 10
85.95427108311213
 20
-140.4021104249689
 10
86.03471406269271
 20
-140.2835991402763
 10
86.14461260867219
 20
-140.1228854358894
 10
86.33082001964993
 20
-140.0889512453597
 10
86.44726424705138
 20
-140.0889512453597
 10
86.72442217883974
 20
-140.0889512453597
 10
86.93164467227751
 20
-140.2730915990463
 10
86.93164467227751
 20
-140.5459431614781
 10
86.93164467227751
 20
-140.7743529921502
 10
86.81537269965032
 20
-140.8739162516738
 10
86.50651988939769
 20
-141.1002590250548
 97
        0
 97
        1
330
FD
 75
     2
 76
     1
 98
        1
 10
0.0
 20
0.0
450
        0
451
        0
460
0.0
461
0.0
452
        0
462
0.0
453
        0
470

  0
SPLINE
  5
FF
330
F9
100
AcDbEntity
  8
レイヤー 1
100
AcDbSpline
210
0.0
220
0.0
230
1.0
 70
    11
 71
     3
 72
    26
 73
    22
 74
     0
 42
0.0000000001
 43
0.0000000001
 40
0.0
 40
0.0
 40
0.0
 40
0.0
 40
1.0
 40
1.0
 40
1.0
 40
2.0
 40
2.0
 40
2.0
 40
3.0
 40
3.0
 40
3.0
 40
4.0
 40
4.0
 40
4.0
 40
5.0
 40
5.0
 40
5.0
 40
6.0
 40
6.0
 40
6.0
 40
7.0
 40
7.0
 40
7.0
 40
7.0
 10
87.54159882794098
 20
-141.6819633977392
 30
0.0
 10
87.54159882794098
 20
-141.6819633977392
 30
0.0
 10
87.54159882794098
 20
-140.5776380399424
 30
0.0
 10
87.54159882794098
 20
-140.5776380399424
 30
0.0
 10
87.54159882794098
 20
-140.5776380399424
 30
0.0
 10
87.21155868045405
 20
-140.5776380399424
 30
0.0
 10
87.21155868045405
 20
-140.5776380399424
 30
0.0
 10
87.21155868045405
 20
-140.5776380399424
 30
0.0
 10
87.21155868045405
 20
-140.4294989340766
 30
0.0
 10
87.21155868045405
 20
-140.4294989340766
 30
0.0
 10
87.54366588523215
 20
-140.4148572782643
 30
0.0
 10
87.59017467428302
 20
-140.251904261812
 30
0.0
 10
87.61980249545617
 20
-140.137699346476
 30
0.0
 10
87.61980249545617
 20
-140.137699346476
 30
0.0
 10
87.76587454403076
 20
-140.137699346476
 30
0.0
 10
87.76587454403076
 20
-140.137699346476
 30
0.0
 10
87.76587454403076
 20
-140.137699346476
 30
0.0
 10
87.76587454403076
 20
-141.6819633977392
 30
0.0
 10
87.76587454403076
 20
-141.6819633977392
 30
0.0
 10
87.76587454403076
 20
-141.6819633977392
 30
0.0
 10
87.54159882794098
 20
-141.6819633977392
 30
0.0
 10
87.54159882794098
 20
-141.6819633977392
 30
0.0
  0
HATCH
  5
100
330
F9
100
AcDbEntity
  8
レイヤー 1
 62
   250
420
  2299925
440
 33554687
100
AcDbHatch
 10
0.0
 20
0.0
 30
0.0
210
0.0
220
0.0
230
1.0
  2
SOLID
 70
     1
 71
     1
 91
        1
 92
        1
 93
        1
 72
     4
 94
        3
 73
     0
 74
     0
 95
       26
 96
       22
 40
0.0
 40
0.0
 40
0.0
 40
0.0
 40
1.0
 40
1.0
 40
1.0
 40
2.0
 40
2.0
 40
2.0
 40
3.0
 40
3.0
 40
3.0
 40
4.0
 40
4.0
 40
4.0
 40
5.0
 40
5.0
 40
5.0
 40
6.0
 40
6.0
 40
6.0
 40
7.0
 40
7.0
 40
7.0
 40
7.0
 10
87.54159882794098
 20
-141.6819633977392
 10
87.54159882794098
 20
-141.6819633977392
 10
87.54159882794098
 20
-140.5776380399424
 10
87.54159882794098
 20
-140.5776380399424
 10
87.54159882794098
 20
-140.5776380399424
 10
87.21155868045405
 20
-140.5776380399424
 10
87.21155868045405
 20
-140.5776380399424
 10
87.21155868045405
 20
-140.5776380399424
 10
87.21155868045405
 20
-140.4294989340766
 10
87.21155868045405
 20
-140.4294989340766
 10
87.54366588523215
 20
-140.4148572782643
 10
87.59017467428302
 20
-140.251904261812
 10
87.61980249545617
 20
-140.137699346476
 10
87.61980249545617
 20
-140.137699346476
 10
87.76587454403076
 20
-140.137699346476
 10
87.76587454403076
 20
-140.137699346476
 10
87.76587454403076
 20
-140.137699346476
 10
87.76587454403076
 20
-141.6819633977392
 10
87.76587454403076
 20
-141.6819633977392
 10
87.76587454403076
 20
-141.6819633977392
 10
87.54159882794098
 20
-141.6819633977392
 10
87.54159882794098
 20
-141.6819633977392
 97
        0
 97
        1
330
FF
 75
     2
 76
     1
 98
        1
 10
0.0
 20
0.0
450
        0
451
        0
460
0.0
461
0.0
452
        0
462
0.0
453
        0
470

  0
ENDBLK
  5
FC
330
F9
100
AcDbEntity
  8
0
100
AcDbBlockEnd
  0
BLOCK
  5
105
330
103
100
AcDbEntity
  8
0
100
AcDbBlockBegin
  2
Block_4
 70
     0
 10
0.0
 20
0.0
 30
0.0
  3
Block_4
  1

  0
SPLINE
  5
107
330
103
100
AcDbEntity
  8
レイヤー 1
100
AcDbSpline
210
0.0
220
0.0
230
1.0
 70
     9
 71
     3
 72
    53
 73
    49
 74
     0
 42
0.0000000001
 43
0.0000000001
 40
0.0
 40
0.0
 40
0.0
 40
0.0
 40
1.0
 40
1.0
 40
1.0
 40
2.0
 40
2.0
 40
2.0
 40
3.0
 40
3.0
 40
3.0
 40
4.0
 40
4.0
 40
4.0
 40
5.0
 40
5.0
 40
5.0
 40
6.0
 40
6.0
 40
6.0
 40
7.0
 40
7.0
 40
7.0
 40
8.0
 40
8.0
 40
8.0
 40
9.0
 40
9.0
 40
9.0
 40
10.0
 40
10.0
 40
10.0
 40
11.0
 40
11.0
 40
11.0
 40
12.0
 40
12.0
 40
12.0
 40
13.0
 40
13.0
 40
13.0
 40
14.0
 40
14.0
 40
14.0
 40
15.0
 40
15.0
 40
15.0
 40
16.0
 40
16.0
 40
16.0
 40
16.0
 10
73.68559704104041
 20
-151.0271294110279
 30
0.0
 10
73.68559704104041
 20
-151.1053330785431
 30
0.0
 10
73.66854381838843
 20
-151.206963395358
 30
0.0
 10
73.60515406145982
 20
-151.3085937121728
 30
0.0
 10
73.49508326070609
 20
-151.4818820150809
 30
0.0
 10
73.36399737749234
 20
-151.5032416070894
 30
0.0
 10
73.25616588880402
 20
-151.5221896322583
 30
0.0
 10
73.25616588880402
 20
-151.5221896322583
 30
0.0
 10
73.25616588880402
 20
-151.2999809734597
 30
0.0
 10
73.25616588880402
 20
-151.2999809734597
 30
0.0
 10
73.45494789830294
 20
-151.2452039552442
 30
0.0
 10
73.48457571947609
 20
-151.1180799318385
 30
0.0
 10
73.48457571947609
 20
-151.0250623537368
 30
0.0
 10
73.48457571947609
 20
-150.8855359865842
 30
0.0
 10
73.38518471472662
 20
-150.7332627661361
 30
0.0
 10
73.152468514698
 20
-150.7332627661361
 30
0.0
 10
72.89649792014393
 20
-150.7332627661361
 30
0.0
 10
72.82673473656763
 20
-150.9130967504662
 30
0.0
 10
72.82673473656763
 20
-151.0336750924499
 30
0.0
 10
72.82673473656763
 20
-151.0653699709142
 30
0.0
 10
72.82673473656763
 20
-151.206963395358
 30
0.0
 10
72.95575356249023
 20
-151.2958468588774
 30
0.0
 10
72.95575356249023
 20
-151.2958468588774
 30
0.0
 10
72.93663328254709
 20
-151.4715467286252
 30
0.0
 10
72.93663328254709
 20
-151.4715467286252
 30
0.0
 10
72.93663328254709
 20
-151.4715467286252
 30
0.0
 10
72.09051783136974
 20
-151.3509683866414
 30
0.0
 10
72.09051783136974
 20
-151.3509683866414
 30
0.0
 10
72.09051783136974
 20
-151.3509683866414
 30
0.0
 10
72.09051783136974
 20
-150.5723768069749
 30
0.0
 10
72.09051783136974
 20
-150.5723768069749
 30
0.0
 10
72.09051783136974
 20
-150.5723768069749
 30
0.0
 10
72.28516572628635
 20
-150.5723768069749
 30
0.0
 10
72.28516572628635
 20
-150.5723768069749
 30
0.0
 10
72.28516572628635
 20
-150.5723768069749
 30
0.0
 10
72.28516572628635
 20
-151.1880153701891
 30
0.0
 10
72.28516572628635
 20
-151.1880153701891
 30
0.0
 10
72.28516572628635
 20
-151.1880153701891
 30
0.0
 10
72.70822345187503
 20
-151.2534721844088
 30
0.0
 10
72.70822345187503
 20
-151.2534721844088
 30
0.0
 10
72.67428926134532
 20
-151.1921494847714
 30
0.0
 10
72.63415389894216
 20
-151.1098117026739
 30
0.0
 10
72.63415389894216
 20
-150.9913004179813
 30
0.0
 10
72.63415389894216
 20
-150.7373968807184
 30
0.0
 10
72.82036130991992
 20
-150.5003743113332
 30
0.0
 10
73.13334823475486
 20
-150.5003743113332
 30
0.0
 10
73.45081378372063
 20
-150.5003743113332
 30
0.0
 10
73.68559704104041
 20
-150.724650027423
 30
0.0
 10
73.68559704104041
 20
-151.0271294110279
 30
0.0
  0
HATCH
  5
108
330
103
100
AcDbEntity
  8
レイヤー 1
 62
   250
420
  2299925
440
 33554687
100
AcDbHatch
 10
0.0
 20
0.0
 30
0.0
210
0.0
220
0.0
230
1.0
  2
SOLID
 70
     1
 71
     1
 91
        1
 92
        1
 93
        1
 72
     4
 94
        3
 73
     0
 74
     0
 95
       53
 96
       49
 40
0.0
 40
0.0
 40
0.0
 40
0.0
 40
1.0
 40
1.0
 40
1.0
 40
2.0
 40
2.0
 40
2.0
 40
3.0
 40
3.0
 40
3.0
 40
4.0
 40
4.0
 40
4.0
 40
5.0
 40
5.0
 40
5.0
 40
6.0
 40
6.0
 40
6.0
 40
7.0
 40
7.0
 40
7.0
 40
8.0
 40
8.0
 40
8.0
 40
9.0
 40
9.0
 40
9.0
 40
10.0
 40
10.0
 40
10.0
 40
11.0
 40
11.0
 40
11.0
 40
12.0
 40
12.0
 40
12.0
 40
13.0
 40
13.0
 40
13.0
 40
14.0
 40
14.0
 40
14.0
 40
15.0
 40
15.0
 40
15.0
 40
16.0
 40
16.0
 40
16.0
 40
16.0
 10
73.68559704104041
 20
-151.0271294110279
 10
73.68559704104041
 20
-151.1053330785431
 10
73.66854381838843
 20
-151.206963395358
 10
73.60515406145982
 20
-151.3085937121728
 10
73.49508326070609
 20
-151.4818820150809
 10
73.36399737749234
 20
-151.5032416070894
 10
73.25616588880402
 20
-151.5221896322583
 10
73.25616588880402
 20
-151.5221896322583
 10
73.25616588880402
 20
-151.2999809734597
 10
73.25616588880402
 20
-151.2999809734597
 10
73.45494789830294
 20
-151.2452039552442
 10
73.48457571947609
 20
-151.1180799318385
 10
73.48457571947609
 20
-151.0250623537368
 10
73.48457571947609
 20
-150.8855359865842
 10
73.38518471472662
 20
-150.7332627661361
 10
73.152468514698
 20
-150.7332627661361
 10
72.89649792014393
 20
-150.7332627661361
 10
72.82673473656763
 20
-150.9130967504662
 10
72.82673473656763
 20
-151.0336750924499
 10
72.82673473656763
 20
-151.0653699709142
 10
72.82673473656763
 20
-151.206963395358
 10
72.95575356249023
 20
-151.2958468588774
 10
72.95575356249023
 20
-151.2958468588774
 10
72.93663328254709
 20
-151.4715467286252
 10
72.93663328254709
 20
-151.4715467286252
 10
72.93663328254709
 20
-151.4715467286252
 10
72.09051783136974
 20
-151.3509683866414
 10
72.09051783136974
 20
-151.3509683866414
 10
72.09051783136974
 20
-151.3509683866414
 10
72.09051783136974
 20
-150.5723768069749
 10
72.09051783136974
 20
-150.5723768069749
 10
72.09051783136974
 20
-150.5723768069749
 10
72.28516572628635
 20
-150.5723768069749
 10
72.28516572628635
 20
-150.5723768069749
 10
72.28516572628635
 20
-150.5723768069749
 10
72.28516572628635
 20
-151.1880153701891
 10
72.28516572628635
 20
-151.1880153701891
 10
72.28516572628635
 20
-151.1880153701891
 10
72.70822345187503
 20
-151.2534721844088
 10
72.70822345187503
 20
-151.2534721844088
 10
72.67428926134532
 20
-151.1921494847714
 10
72.63415389894216
 20
-151.1098117026739
 10
72.63415389894216
 20
-150.9913004179813
 10
72.63415389894216
 20
-150.7373968807184
 10
72.82036130991992
 20
-150.5003743113332
 10
73.13334823475486
 20
-150.5003743113332
 10
73.45081378372063
 20
-150.5003743113332
 10
73.68559704104041
 20
-150.724650027423
 10
73.68559704104041
 20
-151.0271294110279
 97
        0
 97
        1
330
107
 75
     2
 76
     1
 98
        1
 10
0.0
 20
0.0
450
        0
451
        0
460
0.0
461
0.0
452
        0
462
0.0
453
        0
470

  0
ENDBLK
  5
106
330
103
100
AcDbEntity
  8
0
100
AcDbBlockEnd
  0
BLOCK
  5
10D
330
10B
100
AcDbEntity
  8
0
100
AcDbBlockBegin
  2
Block_5
 70
     0
 10
0.0
 20
0.0
 30
0.0
  3
Block_5
  1

  0
INSERT
  5
110
330
10B
100
AcDbEntity
  8
レイヤー 1
100
AcDbBlockReference
  2
Block_6
 10
0.0
 20
0.0
 30
0.0
  0
ENDBLK
  5
10E
330
10B
100
AcDbEntity
  8
0
100
AcDbBlockEnd
  0
BLOCK
  5
111
330
10F
100
AcDbEntity
  8
0
100
AcDbBlockBegin
  2
Block_6
 70
     0
 10
0.0
 20
0.0
 30
0.0
  3
Block_6
  1

  0
SPLINE
  5
113
330
10F
100
AcDbEntity
  8
レイヤー 1
100
AcDbSpline
210
0.0
220
0.0
230
1.0
 70
     9
 71
     3
 72
    44
 73
    40
 74
     0
 42
0.0000000001
 43
0.0000000001
 40
0.0
 40
0.0
 40
0.0
 40
0.0
 40
1.0
 40
1.0
 40
1.0
 40
2.0
 40
2.0
 40
2.0
 40
3.0
 40
3.0
 40
3.0
 40
4.0
 40
4.0
 40
4.0
 40
5.0
 40
5.0
 40
5.0
 40
6.0
 40
6.0
 40
6.0
 40
7.0
 40
7.0
 40
7.0
 40
8.0
 40
8.0
 40
8.0
 40
9.0
 40
9.0
 40
9.0
 40
10.0
 40
10.0
 40
10.0
 40
11.0
 40
11.0
 40
11.0
 40
12.0
 40
12.0
 40
12.0
 40
13.0
 40
13.0
 40
13.0
 40
13.0
 10
117.5077283777411
 20
-141.1002590250548
 30
0.0
 10
117.2899983430733
 20
-141.2589056721505
 30
0.0
 10
117.1969807649716
 20
-141.3329752250834
 30
0.0
 10
117.148060409081
 20
-141.4768079615926
 30
0.0
 10
117.148060409081
 20
-141.4768079615926
 30
0.0
 10
117.9266519887475
 20
-141.4768079615926
 30
0.0
 10
117.9266519887475
 20
-141.4768079615926
 30
0.0
 10
117.9266519887475
 20
-141.4768079615926
 30
0.0
 10
117.9266519887475
 20
-141.6819633977392
 30
0.0
 10
117.9266519887475
 20
-141.6819633977392
 30
0.0
 10
117.9266519887475
 20
-141.6819633977392
 30
0.0
 10
116.8986354959489
 20
-141.6819633977392
 30
0.0
 10
116.8986354959489
 20
-141.6819633977392
 30
0.0
 10
116.9303303744132
 20
-141.3243624863703
 30
0.0
 10
116.995787188633
 20
-141.2461588188551
 30
0.0
 10
117.3809488638839
 20
-140.9478135498325
 30
0.0
 10
117.636919458438
 20
-140.7490315403336
 30
0.0
 10
117.7023762726577
 20
-140.6813354140484
 30
0.0
 10
117.7023762726577
 20
-140.5438761041869
 30
0.0
 10
117.7023762726577
 20
-140.4253648194943
 30
0.0
 10
117.630373777016
 20
-140.2941066815063
 30
0.0
 10
117.4336588248082
 20
-140.2941066815063
 30
0.0
 10
117.1735541156719
 20
-140.2941066815063
 30
0.0
 10
117.1652858865073
 20
-140.5247558242438
 30
0.0
 10
117.1608072623764
 20
-140.6412000516452
 30
0.0
 10
117.1608072623764
 20
-140.6412000516452
 30
0.0
 10
116.9365315462867
 20
-140.6412000516452
 30
0.0
 10
116.9365315462867
 20
-140.6412000516452
 30
0.0
 10
116.9451442849998
 20
-140.5142482830138
 30
0.0
 10
116.9558240810041
 20
-140.4021104249689
 30
0.0
 10
117.0360948058104
 20
-140.2835991402763
 30
0.0
 10
117.1459933517899
 20
-140.1228854358894
 30
0.0
 10
117.3323730175419
 20
-140.0889512453597
 30
0.0
 10
117.4484727353948
 20
-140.0889512453597
 30
0.0
 10
117.7258029219574
 20
-140.0889512453597
 30
0.0
 10
117.9331976701694
 20
-140.2730915990463
 30
0.0
 10
117.9331976701694
 20
-140.5459431614781
 30
0.0
 10
117.9331976701694
 20
-140.7743529921502
 30
0.0
 10
117.816753442768
 20
-140.8739162516738
 30
0.0
 10
117.5077283777411
 20
-141.1002590250548
 30
0.0
  0
HATCH
  5
114
330
10F
100
AcDbEntity
  8
レイヤー 1
 62
   250
420
  2299925
440
 33554687
100
AcDbHatch
 10
0.0
 20
0.0
 30
0.0
210
0.0
220
0.0
230
1.0
  2
SOLID
 70
     1
 71
     1
 91
        1
 92
        1
 93
        1
 72
     4
 94
        3
 73
     0
 74
     0
 95
       44
 96
       40
 40
0.0
 40
0.0
 40
0.0
 40
0.0
 40
1.0
 40
1.0
 40
1.0
 40
2.0
 40
2.0
 40
2.0
 40
3.0
 40
3.0
 40
3.0
 40
4.0
 40
4.0
 40
4.0
 40
5.0
 40
5.0
 40
5.0
 40
6.0
 40
6.0
 40
6.0
 40
7.0
 40
7.0
 40
7.0
 40
8.0
 40
8.0
 40
8.0
 40
9.0
 40
9.0
 40
9.0
 40
10.0
 40
10.0
 40
10.0
 40
11.0
 40
11.0
 40
11.0
 40
12.0
 40
12.0
 40
12.0
 40
13.0
 40
13.0
 40
13.0
 40
13.0
 10
117.5077283777411
 20
-141.1002590250548
 10
117.2899983430733
 20
-141.2589056721505
 10
117.1969807649716
 20
-141.3329752250834
 10
117.148060409081
 20
-141.4768079615926
 10
117.148060409081
 20
-141.4768079615926
 10
117.9266519887475
 20
-141.4768079615926
 10
117.9266519887475
 20
-141.4768079615926
 10
117.9266519887475
 20
-141.4768079615926
 10
117.9266519887475
 20
-141.6819633977392
 10
117.9266519887475
 20
-141.6819633977392
 10
117.9266519887475
 20
-141.6819633977392
 10
116.8986354959489
 20
-141.6819633977392
 10
116.8986354959489
 20
-141.6819633977392
 10
116.9303303744132
 20
-141.3243624863703
 10
116.995787188633
 20
-141.2461588188551
 10
117.3809488638839
 20
-140.9478135498325
 10
117.636919458438
 20
-140.7490315403336
 10
117.7023762726577
 20
-140.6813354140484
 10
117.7023762726577
 20
-140.5438761041869
 10
117.7023762726577
 20
-140.4253648194943
 10
117.630373777016
 20
-140.2941066815063
 10
117.4336588248082
 20
-140.2941066815063
 10
117.1735541156719
 20
-140.2941066815063
 10
117.1652858865073
 20
-140.5247558242438
 10
117.1608072623764
 20
-140.6412000516452
 10
117.1608072623764
 20
-140.6412000516452
 10
116.9365315462867
 20
-140.6412000516452
 10
116.9365315462867
 20
-140.6412000516452
 10
116.9451442849998
 20
-140.5142482830138
 10
116.9558240810041
 20
-140.4021104249689
 10
117.0360948058104
 20
-140.2835991402763
 10
117.1459933517899
 20
-140.1228854358894
 10
117.3323730175419
 20
-140.0889512453597
 10
117.4484727353948
 20
-140.0889512453597
 10
117.7258029219574
 20
-140.0889512453597
 10
117.9331976701694
 20
-140.2730915990463
 10
117.9331976701694
 20
-140.5459431614781
 10
117.9331976701694
 20
-140.7743529921502
 10
117.816753442768
 20
-140.8739162516738
 10
117.5077283777411
 20
-141.1002590250548
 97
        0
 97
        1
330
113
 75
     2
 76
     1
 98
        1
 10
0.0
 20
0.0
450
        0
451
        0
460
0.0
461
0.0
452
        0
462
0.0
453
        0
470

  0
SPLINE
  5
115
330
10F
100
AcDbEntity
  8
レイヤー 1
100
AcDbSpline
210
0.0
220
0.0
230
1.0
 70
    11
 71
     3
 72
    26
 73
    22
 74
     0
 42
0.0000000001
 43
0.0000000001
 40
0.0
 40
0.0
 40
0.0
 40
0.0
 40
1.0
 40
1.0
 40
1.0
 40
2.0
 40
2.0
 40
2.0
 40
3.0
 40
3.0
 40
3.0
 40
4.0
 40
4.0
 40
4.0
 40
5.0
 40
5.0
 40
5.0
 40
6.0
 40
6.0
 40
6.0
 40
7.0
 40
7.0
 40
7.0
 40
7.0
 10
118.5429795710587
 20
-141.6819633977392
 30
0.0
 10
118.5429795710587
 20
-141.6819633977392
 30
0.0
 10
118.5429795710587
 20
-140.5776380399424
 30
0.0
 10
118.5429795710587
 20
-140.5776380399424
 30
0.0
 10
118.5429795710587
 20
-140.5776380399424
 30
0.0
 10
118.2129394235717
 20
-140.5776380399424
 30
0.0
 10
118.2129394235717
 20
-140.5776380399424
 30
0.0
 10
118.2129394235717
 20
-140.5776380399424
 30
0.0
 10
118.2129394235717
 20
-140.4294989340766
 30
0.0
 10
118.2129394235717
 20
-140.4294989340766
 30
0.0
 10
118.5450466283498
 20
-140.4148572782643
 30
0.0
 10
118.5915554174007
 20
-140.251904261812
 30
0.0
 10
118.6211832385739
 20
-140.137699346476
 30
0.0
 10
118.6211832385739
 20
-140.137699346476
 30
0.0
 10
118.7672552871484
 20
-140.137699346476
 30
0.0
 10
118.7672552871484
 20
-140.137699346476
 30
0.0
 10
118.7672552871484
 20
-140.137699346476
 30
0.0
 10
118.7672552871484
 20
-141.6819633977392
 30
0.0
 10
118.7672552871484
 20
-141.6819633977392
 30
0.0
 10
118.7672552871484
 20
-141.6819633977392
 30
0.0
 10
118.5429795710587
 20
-141.6819633977392
 30
0.0
 10
118.5429795710587
 20
-141.6819633977392
 30
0.0
  0
HATCH
  5
116
330
10F
100
AcDbEntity
  8
レイヤー 1
 62
   250
420
  2299925
440
 33554687
100
AcDbHatch
 10
0.0
 20
0.0
 30
0.0
210
0.0
220
0.0
230
1.0
  2
SOLID
 70
     1
 71
     1
 91
        1
 92
        1
 93
        1
 72
     4
 94
        3
 73
     0
 74
     0
 95
       26
 96
       22
 40
0.0
 40
0.0
 40
0.0
 40
0.0
 40
1.0
 40
1.0
 40
1.0
 40
2.0
 40
2.0
 40
2.0
 40
3.0
 40
3.0
 40
3.0
 40
4.0
 40
4.0
 40
4.0
 40
5.0
 40
5.0
 40
5.0
 40
6.0
 40
6.0
 40
6.0
 40
7.0
 40
7.0
 40
7.0
 40
7.0
 10
118.5429795710587
 20
-141.6819633977392
 10
118.5429795710587
 20
-141.6819633977392
 10
118.5429795710587
 20
-140.5776380399424
 10
118.5429795710587
 20
-140.5776380399424
 10
118.5429795710587
 20
-140.5776380399424
 10
118.2129394235717
 20
-140.5776380399424
 10
118.2129394235717
 20
-140.5776380399424
 10
118.2129394235717
 20
-140.5776380399424
 10
118.2129394235717
 20
-140.4294989340766
 10
118.2129394235717
 20
-140.4294989340766
 10
118.5450466283498
 20
-140.4148572782643
 10
118.5915554174007
 20
-140.251904261812
 10
118.6211832385739
 20
-140.137699346476
 10
118.6211832385739
 20
-140.137699346476
 10
118.7672552871484
 20
-140.137699346476
 10
118.7672552871484
 20
-140.137699346476
 10
118.7672552871484
 20
-140.137699346476
 10
118.7672552871484
 20
-141.6819633977392
 10
118.7672552871484
 20
-141.6819633977392
 10
118.7672552871484
 20
-141.6819633977392
 10
118.5429795710587
 20
-141.6819633977392
 10
118.5429795710587
 20
-141.6819633977392
 97
        0
 97
        1
330
115
 75
     2
 76
     1
 98
        1
 10
0.0
 20
0.0
450
        0
451
        0
460
0.0
461
0.0
452
        0
462
0.0
453
        0
470

  0
ENDBLK
  5
112
330
10F
100
AcDbEntity
  8
0
100
AcDbBlockEnd
  0
BLOCK
  5
11C
330
11A
100
AcDbEntity
  8
0
100
AcDbBlockBegin
  2
Block_7
 70
     0
 10
0.0
 20
0.0
 30
0.0
  3
Block_7
  1

  0
INSERT
  5
11F
330
11A
100
AcDbEntity
  8
レイヤー 1
100
AcDbBlockReference
  2
Block_8
 10
0.0
 20
0.0
 30
0.0
  0
ENDBLK
  5
11D
330
11A
100
AcDbEntity
  8
0
100
AcDbBlockEnd
  0
BLOCK
  5
120
330
11E
100
AcDbEntity
  8
0
100
AcDbBlockBegin
  2
Block_8
 70
     0
 10
0.0
 20
0.0
 30
0.0
  3
Block_8
  1

  0
SPLINE
  5
122
330
11E
100
AcDbEntity
  8
レイヤー 1
100
AcDbSpline
210
0.0
220
0.0
230
1.0
 70
    11
 71
     3
 72
    26
 73
    22
 74
     0
 42
0.0000000001
 43
0.0000000001
 40
0.0
 40
0.0
 40
0.0
 40
0.0
 40
1.0
 40
1.0
 40
1.0
 40
2.0
 40
2.0
 40
2.0
 40
3.0
 40
3.0
 40
3.0
 40
4.0
 40
4.0
 40
4.0
 40
5.0
 40
5.0
 40
5.0
 40
6.0
 40
6.0
 40
6.0
 40
7.0
 40
7.0
 40
7.0
 40
7.0
 10
101.8654445817385
 20
-141.6819633977392
 30
0.0
 10
101.8654445817385
 20
-141.6819633977392
 30
0.0
 10
101.8654445817385
 20
-140.5776380399424
 30
0.0
 10
101.8654445817385
 20
-140.5776380399424
 30
0.0
 10
101.8654445817385
 20
-140.5776380399424
 30
0.0
 10
101.5354044342515
 20
-140.5776380399424
 30
0.0
 10
101.5354044342515
 20
-140.5776380399424
 30
0.0
 10
101.5354044342515
 20
-140.5776380399424
 30
0.0
 10
101.5354044342515
 20
-140.4294989340766
 30
0.0
 10
101.5354044342515
 20
-140.4294989340766
 30
0.0
 10
101.8675116390296
 20
-140.4148572782643
 30
0.0
 10
101.9140204280805
 20
-140.251904261812
 30
0.0
 10
101.9436482492537
 20
-140.137699346476
 30
0.0
 10
101.9436482492537
 20
-140.137699346476
 30
0.0
 10
102.0897202978282
 20
-140.137699346476
 30
0.0
 10
102.0897202978282
 20
-140.137699346476
 30
0.0
 10
102.0897202978282
 20
-140.137699346476
 30
0.0
 10
102.0897202978282
 20
-141.6819633977392
 30
0.0
 10
102.0897202978282
 20
-141.6819633977392
 30
0.0
 10
102.0897202978282
 20
-141.6819633977392
 30
0.0
 10
101.8654445817385
 20
-141.6819633977392
 30
0.0
 10
101.8654445817385
 20
-141.6819633977392
 30
0.0
  0
HATCH
  5
123
330
11E
100
AcDbEntity
  8
レイヤー 1
 62
   250
420
  2299925
440
 33554687
100
AcDbHatch
 10
0.0
 20
0.0
 30
0.0
210
0.0
220
0.0
230
1.0
  2
SOLID
 70
     1
 71
     1
 91
        1
 92
        1
 93
        1
 72
     4
 94
        3
 73
     0
 74
     0
 95
       26
 96
       22
 40
0.0
 40
0.0
 40
0.0
 40
0.0
 40
1.0
 40
1.0
 40
1.0
 40
2.0
 40
2.0
 40
2.0
 40
3.0
 40
3.0
 40
3.0
 40
4.0
 40
4.0
 40
4.0
 40
5.0
 40
5.0
 40
5.0
 40
6.0
 40
6.0
 40
6.0
 40
7.0
 40
7.0
 40
7.0
 40
7.0
 10
101.8654445817385
 20
-141.6819633977392
 10
101.8654445817385
 20
-141.6819633977392
 10
101.8654445817385
 20
-140.5776380399424
 10
101.8654445817385
 20
-140.5776380399424
 10
101.8654445817385
 20
-140.5776380399424
 10
101.5354044342515
 20
-140.5776380399424
 10
101.5354044342515
 20
-140.5776380399424
 10
101.5354044342515
 20
-140.5776380399424
 10
101.5354044342515
 20
-140.4294989340766
 10
101.5354044342515
 20
-140.4294989340766
 10
101.8675116390296
 20
-140.4148572782643
 10
101.9140204280805
 20
-140.251904261812
 10
101.9436482492537
 20
-140.137699346476
 10
101.9436482492537
 20
-140.137699346476
 10
102.0897202978282
 20
-140.137699346476
 10
102.0897202978282
 20
-140.137699346476
 10
102.0897202978282
 20
-140.137699346476
 10
102.0897202978282
 20
-141.6819633977392
 10
102.0897202978282
 20
-141.6819633977392
 10
102.0897202978282
 20
-141.6819633977392
 10
101.8654445817385
 20
-141.6819633977392
 10
101.8654445817385
 20
-141.6819633977392
 97
        0
 97
        1
330
122
 75
     2
 76
     1
 98
        1
 10
0.0
 20
0.0
450
        0
451
        0
460
0.0
461
0.0
452
        0
462
0.0
453
        0
470

  0
SPLINE
  5
124
330
11E
100
AcDbEntity
  8
レイヤー 1
100
AcDbSpline
210
0.0
220
0.0
230
1.0
 70
     9
 71
     3
 72
    17
 73
    13
 74
     0
 42
0.0000000001
 43
0.0000000001
 40
0.0
 40
0.0
 40
0.0
 40
0.0
 40
1.0
 40
1.0
 40
1.0
 40
2.0
 40
2.0
 40
2.0
 40
3.0
 40
3.0
 40
3.0
 40
4.0
 40
4.0
 40
4.0
 40
4.0
 10
103.0908650458418
 20
-140.2815320829851
 30
0.0
 10
102.8410956231612
 20
-140.2815320829851
 30
0.0
 10
102.7945868341104
 20
-140.5648911866469
 30
0.0
 10
102.7945868341104
 20
-140.9097452447205
 30
0.0
 10
102.7945868341104
 20
-141.2292778509774
 30
0.0
 10
102.8307603367055
 20
-141.53813066123
 30
0.0
 10
103.0908650458418
 20
-141.53813066123
 30
0.0
 10
103.3385674112313
 20
-141.53813066123
 30
0.0
 10
103.3871432575733
 20
-141.2566663600851
 30
0.0
 10
103.3871432575733
 20
-140.9097452447205
 30
0.0
 10
103.3871432575733
 20
-140.5903848932378
 30
0.0
 10
103.3489026976871
 20
-140.2815320829851
 30
0.0
 10
103.0908650458418
 20
-140.2815320829851
 30
0.0
  0
SPLINE
  5
125
330
11E
100
AcDbEntity
  8
レイヤー 1
100
AcDbSpline
210
0.0
220
0.0
230
1.0
 70
     9
 71
     3
 72
    29
 73
    25
 74
     0
 42
0.0000000001
 43
0.0000000001
 40
0.0
 40
0.0
 40
0.0
 40
0.0
 40
1.0
 40
1.0
 40
1.0
 40
2.0
 40
2.0
 40
2.0
 40
3.0
 40
3.0
 40
3.0
 40
4.0
 40
4.0
 40
4.0
 40
5.0
 40
5.0
 40
5.0
 40
6.0
 40
6.0
 40
6.0
 40
7.0
 40
7.0
 40
7.0
 40
8.0
 40
8.0
 40
8.0
 40
8.0
 10
103.4887735743882
 20
-141.5041964707003
 30
0.0
 10
103.3805975761514
 20
-141.7136582762035
 30
0.0
 10
103.2073092732433
 20
-141.7327785561466
 30
0.0
 10
103.0908650458418
 20
-141.7327785561466
 30
0.0
 10
102.9299790866807
 20
-141.7327785561466
 30
0.0
 10
102.7883856622369
 20
-141.6862697670958
 30
0.0
 10
102.693301026844
 20
-141.5041964707003
 30
0.0
 10
102.589603652738
 20
-141.309720830558
 30
0.0
 10
102.5703111180206
 20
-141.0726982611728
 30
0.0
 10
102.5703111180206
 20
-140.9097452447205
 30
0.0
 10
102.5703111180206
 20
-140.7659125082113
 30
0.0
 10
102.5875365954469
 20
-140.5142482830138
 30
0.0
 10
102.693301026844
 20
-140.3152940187406
 30
0.0
 10
102.8011325155323
 20
-140.1122056398851
 30
0.0
 10
102.9620184746935
 20
-140.0889512453597
 30
0.0
 10
103.0908650458418
 20
-140.0889512453597
 30
0.0
 10
103.2496839477119
 20
-140.0889512453597
 30
0.0
 10
103.3933444294468
 20
-140.1333929771194
 30
0.0
 10
103.4887735743882
 20
-140.3152940187406
 30
0.0
 10
103.5879923243634
 20
-140.5078748563661
 30
0.0
 10
103.6114189736631
 20
-140.7362846870381
 30
0.0
 10
103.6114189736631
 20
-140.9097452447205
 30
0.0
 10
103.6114189736631
 20
-141.0811387451117
 30
0.0
 10
103.5900593816545
 20
-141.3117878878491
 30
0.0
 10
103.4887735743882
 20
-141.5041964707003
 30
0.0
  0
HATCH
  5
126
330
11E
100
AcDbEntity
  8
レイヤー 1
 62
   250
420
  2299925
440
 33554687
100
AcDbHatch
 10
0.0
 20
0.0
 30
0.0
210
0.0
220
0.0
230
1.0
  2
SOLID
 70
     1
 71
     1
 91
        2
 92
        1
 93
        1
 72
     4
 94
        3
 73
     0
 74
     0
 95
       17
 96
       13
 40
0.0
 40
0.0
 40
0.0
 40
0.0
 40
1.0
 40
1.0
 40
1.0
 40
2.0
 40
2.0
 40
2.0
 40
3.0
 40
3.0
 40
3.0
 40
4.0
 40
4.0
 40
4.0
 40
4.0
 10
103.0908650458418
 20
-140.2815320829851
 10
102.8410956231612
 20
-140.2815320829851
 10
102.7945868341104
 20
-140.5648911866469
 10
102.7945868341104
 20
-140.9097452447205
 10
102.7945868341104
 20
-141.2292778509774
 10
102.8307603367055
 20
-141.53813066123
 10
103.0908650458418
 20
-141.53813066123
 10
103.3385674112313
 20
-141.53813066123
 10
103.3871432575733
 20
-141.2566663600851
 10
103.3871432575733
 20
-140.9097452447205
 10
103.3871432575733
 20
-140.5903848932378
 10
103.3489026976871
 20
-140.2815320829851
 10
103.0908650458418
 20
-140.2815320829851
 97
        0
 97
        1
330
124
 92
        1
 93
        1
 72
     4
 94
        3
 73
     0
 74
     0
 95
       29
 96
       25
 40
0.0
 40
0.0
 40
0.0
 40
0.0
 40
1.0
 40
1.0
 40
1.0
 40
2.0
 40
2.0
 40
2.0
 40
3.0
 40
3.0
 40
3.0
 40
4.0
 40
4.0
 40
4.0
 40
5.0
 40
5.0
 40
5.0
 40
6.0
 40
6.0
 40
6.0
 40
7.0
 40
7.0
 40
7.0
 40
8.0
 40
8.0
 40
8.0
 40
8.0
 10
103.4887735743882
 20
-141.5041964707003
 10
103.3805975761514
 20
-141.7136582762035
 10
103.2073092732433
 20
-141.7327785561466
 10
103.0908650458418
 20
-141.7327785561466
 10
102.9299790866807
 20
-141.7327785561466
 10
102.7883856622369
 20
-141.6862697670958
 10
102.693301026844
 20
-141.5041964707003
 10
102.589603652738
 20
-141.309720830558
 10
102.5703111180206
 20
-141.0726982611728
 10
102.5703111180206
 20
-140.9097452447205
 10
102.5703111180206
 20
-140.7659125082113
 10
102.5875365954469
 20
-140.5142482830138
 10
102.693301026844
 20
-140.3152940187406
 10
102.8011325155323
 20
-140.1122056398851
 10
102.9620184746935
 20
-140.0889512453597
 10
103.0908650458418
 20
-140.0889512453597
 10
103.2496839477119
 20
-140.0889512453597
 10
103.3933444294468
 20
-140.1333929771194
 10
103.4887735743882
 20
-140.3152940187406
 10
103.5879923243634
 20
-140.5078748563661
 10
103.6114189736631
 20
-140.7362846870381
 10
103.6114189736631
 20
-140.9097452447205
 10
103.6114189736631
 20
-141.0811387451117
 10
103.5900593816545
 20
-141.3117878878491
 10
103.4887735743882
 20
-141.5041964707003
 97
        0
 97
        1
330
125
 75
     2
 76
     1
 98
        1
 10
0.0
 20
0.0
450
        0
451
        0
460
0.0
461
0.0
452
        0
462
0.0
453
        0
470

  0
ENDBLK
  5
121
330
11E
100
AcDbEntity
  8
0
100
AcDbBlockEnd
  0
BLOCK
  5
12E
330
12C
100
AcDbEntity
  8
0
100
AcDbBlockBegin
  2
Block_9
 70
     0
 10
0.0
 20
0.0
 30
0.0
  3
Block_9
  1

  0
INSERT
  5
131
330
12C
100
AcDbEntity
  8
レイヤー 1
100
AcDbBlockReference
  2
Block_10
 10
0.0
 20
0.0
 30
0.0
  0
ENDBLK
  5
12F
330
12C
100
AcDbEntity
  8
0
100
AcDbBlockEnd
  0
BLOCK
  5
132
330
130
100
AcDbEntity
  8
0
100
AcDbBlockBegin
  2
Block_10
 70
     0
 10
0.0
 20
0.0
 30
0.0
  3
Block_10
  1

  0
SPLINE
  5
134
330
130
100
AcDbEntity
  8
レイヤー 1
100
AcDbSpline
210
0.0
220
0.0
230
1.0
 70
    11
 71
     3
 72
    26
 73
    22
 74
     0
 42
0.0000000001
 43
0.0000000001
 40
0.0
 40
0.0
 40
0.0
 40
0.0
 40
1.0
 40
1.0
 40
1.0
 40
2.0
 40
2.0
 40
2.0
 40
3.0
 40
3.0
 40
3.0
 40
4.0
 40
4.0
 40
4.0
 40
5.0
 40
5.0
 40
5.0
 40
6.0
 40
6.0
 40
6.0
 40
7.0
 40
7.0
 40
7.0
 40
7.0
 10
102.1823933663815
 20
-156.0573133290412
 30
0.0
 10
102.1823933663815
 20
-156.0573133290412
 30
0.0
 10
102.1823933663815
 20
-154.9531602260186
 30
0.0
 10
102.1823933663815
 20
-154.9531602260186
 30
0.0
 10
102.1823933663815
 20
-154.9531602260186
 30
0.0
 10
101.8523532188945
 20
-154.9531602260186
 30
0.0
 10
101.8523532188945
 20
-154.9531602260186
 30
0.0
 10
101.8523532188945
 20
-154.9531602260186
 30
0.0
 10
101.8523532188945
 20
-154.8050211201529
 30
0.0
 10
101.8523532188945
 20
-154.8050211201529
 30
0.0
 10
102.1844604236726
 20
-154.7902072095663
 30
0.0
 10
102.2309692127235
 20
-154.627254193114
 30
0.0
 10
102.2605970338966
 20
-154.5128770230037
 30
0.0
 10
102.2605970338966
 20
-154.5128770230037
 30
0.0
 10
102.4066690824712
 20
-154.5128770230037
 30
0.0
 10
102.4066690824712
 20
-154.5128770230037
 30
0.0
 10
102.4066690824712
 20
-154.5128770230037
 30
0.0
 10
102.4066690824712
 20
-156.0573133290412
 30
0.0
 10
102.4066690824712
 20
-156.0573133290412
 30
0.0
 10
102.4066690824712
 20
-156.0573133290412
 30
0.0
 10
102.1823933663815
 20
-156.0573133290412
 30
0.0
 10
102.1823933663815
 20
-156.0573133290412
 30
0.0
  0
HATCH
  5
135
330
130
100
AcDbEntity
  8
レイヤー 1
 62
   250
420
  2299925
440
 33554687
100
AcDbHatch
 10
0.0
 20
0.0
 30
0.0
210
0.0
220
0.0
230
1.0
  2
SOLID
 70
     1
 71
     1
 91
        1
 92
        1
 93
        1
 72
     4
 94
        3
 73
     0
 74
     0
 95
       26
 96
       22
 40
0.0
 40
0.0
 40
0.0
 40
0.0
 40
1.0
 40
1.0
 40
1.0
 40
2.0
 40
2.0
 40
2.0
 40
3.0
 40
3.0
 40
3.0
 40
4.0
 40
4.0
 40
4.0
 40
5.0
 40
5.0
 40
5.0
 40
6.0
 40
6.0
 40
6.0
 40
7.0
 40
7.0
 40
7.0
 40
7.0
 10
102.1823933663815
 20
-156.0573133290412
 10
102.1823933663815
 20
-156.0573133290412
 10
102.1823933663815
 20
-154.9531602260186
 10
102.1823933663815
 20
-154.9531602260186
 10
102.1823933663815
 20
-154.9531602260186
 10
101.8523532188945
 20
-154.9531602260186
 10
101.8523532188945
 20
-154.9531602260186
 10
101.8523532188945
 20
-154.9531602260186
 10
101.8523532188945
 20
-154.8050211201529
 10
101.8523532188945
 20
-154.8050211201529
 10
102.1844604236726
 20
-154.7902072095663
 10
102.2309692127235
 20
-154.627254193114
 10
102.2605970338966
 20
-154.5128770230037
 10
102.2605970338966
 20
-154.5128770230037
 10
102.4066690824712
 20
-154.5128770230037
 10
102.4066690824712
 20
-154.5128770230037
 10
102.4066690824712
 20
-154.5128770230037
 10
102.4066690824712
 20
-156.0573133290412
 10
102.4066690824712
 20
-156.0573133290412
 10
102.4066690824712
 20
-156.0573133290412
 10
102.1823933663815
 20
-156.0573133290412
 10
102.1823933663815
 20
-156.0573133290412
 97
        0
 97
        1
330
134
 75
     2
 76
     1
 98
        1
 10
0.0
 20
0.0
450
        0
451
        0
460
0.0
461
0.0
452
        0
462
0.0
453
        0
470

  0
SPLINE
  5
136
330
130
100
AcDbEntity
  8
レイヤー 1
100
AcDbSpline
210
0.0
220
0.0
230
1.0
 70
     9
 71
     3
 72
    44
 73
    40
 74
     0
 42
0.0000000001
 43
0.0000000001
 40
0.0
 40
0.0
 40
0.0
 40
0.0
 40
1.0
 40
1.0
 40
1.0
 40
2.0
 40
2.0
 40
2.0
 40
3.0
 40
3.0
 40
3.0
 40
4.0
 40
4.0
 40
4.0
 40
5.0
 40
5.0
 40
5.0
 40
6.0
 40
6.0
 40
6.0
 40
7.0
 40
7.0
 40
7.0
 40
8.0
 40
8.0
 40
8.0
 40
9.0
 40
9.0
 40
9.0
 40
10.0
 40
10.0
 40
10.0
 40
11.0
 40
11.0
 40
11.0
 40
12.0
 40
12.0
 40
12.0
 40
13.0
 40
13.0
 40
13.0
 40
13.0
 10
103.5008314085866
 20
-155.4754367015825
 30
0.0
 10
103.2831013739188
 20
-155.6342556034525
 30
0.0
 10
103.190083795817
 20
-155.7083251563854
 30
0.0
 10
103.1411634399265
 20
-155.8519856381203
 30
0.0
 10
103.1411634399265
 20
-155.8519856381203
 30
0.0
 10
103.919755019593
 20
-155.8519856381203
 30
0.0
 10
103.919755019593
 20
-155.8519856381203
 30
0.0
 10
103.919755019593
 20
-155.8519856381203
 30
0.0
 10
103.919755019593
 20
-156.0573133290412
 30
0.0
 10
103.919755019593
 20
-156.0573133290412
 30
0.0
 10
103.919755019593
 20
-156.0573133290412
 30
0.0
 10
102.8917385267944
 20
-156.0573133290412
 30
0.0
 10
102.8917385267944
 20
-156.0573133290412
 30
0.0
 10
102.9234334052587
 20
-155.6997124176723
 30
0.0
 10
102.9888902194785
 20
-155.6215087501571
 30
0.0
 10
103.3740518947294
 20
-155.3231634811345
 30
0.0
 10
103.6300224892835
 20
-155.1243814716356
 30
0.0
 10
103.6954793035032
 20
-155.0565130905761
 30
0.0
 10
103.6954793035032
 20
-154.9190537807147
 30
0.0
 10
103.6954793035032
 20
-154.8005424960221
 30
0.0
 10
103.6234768078615
 20
-154.6696288675826
 30
0.0
 10
103.4267618556537
 20
-154.6696288675826
 30
0.0
 10
103.1666571465173
 20
-154.6696288675826
 30
0.0
 10
103.1580444078042
 20
-154.9001057555458
 30
0.0
 10
103.1539102932219
 20
-155.0165499829472
 30
0.0
 10
103.1539102932219
 20
-155.0165499829472
 30
0.0
 10
102.9296345771322
 20
-155.0165499829472
 30
0.0
 10
102.9296345771322
 20
-155.0165499829472
 30
0.0
 10
102.9382473158453
 20
-154.8894259595415
 30
0.0
 10
102.9489271118496
 20
-154.7774603562709
 30
0.0
 10
103.0291978366559
 20
-154.6589490715783
 30
0.0
 10
103.1390963826353
 20
-154.4980631124171
 30
0.0
 10
103.3254760483874
 20
-154.4643011766617
 30
0.0
 10
103.4415757662403
 20
-154.4643011766617
 30
0.0
 10
103.7189059528029
 20
-154.4643011766617
 30
0.0
 10
103.9263007010149
 20
-154.648269275574
 30
0.0
 10
103.9263007010149
 20
-154.9211208380058
 30
0.0
 10
103.9263007010149
 20
-155.1498751782264
 30
0.0
 10
103.8098564736135
 20
-155.2490939282016
 30
0.0
 10
103.5008314085866
 20
-155.4754367015825
 30
0.0
  0
HATCH
  5
137
330
130
100
AcDbEntity
  8
レイヤー 1
 62
   250
420
  2299925
440
 33554687
100
AcDbHatch
 10
0.0
 20
0.0
 30
0.0
210
0.0
220
0.0
230
1.0
  2
SOLID
 70
     1
 71
     1
 91
        1
 92
        1
 93
        1
 72
     4
 94
        3
 73
     0
 74
     0
 95
       44
 96
       40
 40
0.0
 40
0.0
 40
0.0
 40
0.0
 40
1.0
 40
1.0
 40
1.0
 40
2.0
 40
2.0
 40
2.0
 40
3.0
 40
3.0
 40
3.0
 40
4.0
 40
4.0
 40
4.0
 40
5.0
 40
5.0
 40
5.0
 40
6.0
 40
6.0
 40
6.0
 40
7.0
 40
7.0
 40
7.0
 40
8.0
 40
8.0
 40
8.0
 40
9.0
 40
9.0
 40
9.0
 40
10.0
 40
10.0
 40
10.0
 40
11.0
 40
11.0
 40
11.0
 40
12.0
 40
12.0
 40
12.0
 40
13.0
 40
13.0
 40
13.0
 40
13.0
 10
103.5008314085866
 20
-155.4754367015825
 10
103.2831013739188
 20
-155.6342556034525
 10
103.190083795817
 20
-155.7083251563854
 10
103.1411634399265
 20
-155.8519856381203
 10
103.1411634399265
 20
-155.8519856381203
 10
103.919755019593
 20
-155.8519856381203
 10
103.919755019593
 20
-155.8519856381203
 10
103.919755019593
 20
-155.8519856381203
 10
103.919755019593
 20
-156.0573133290412
 10
103.919755019593
 20
-156.0573133290412
 10
103.919755019593
 20
-156.0573133290412
 10
102.8917385267944
 20
-156.0573133290412
 10
102.8917385267944
 20
-156.0573133290412
 10
102.9234334052587
 20
-155.6997124176723
 10
102.9888902194785
 20
-155.6215087501571
 10
103.3740518947294
 20
-155.3231634811345
 10
103.6300224892835
 20
-155.1243814716356
 10
103.6954793035032
 20
-155.0565130905761
 10
103.6954793035032
 20
-154.9190537807147
 10
103.6954793035032
 20
-154.8005424960221
 10
103.6234768078615
 20
-154.6696288675826
 10
103.4267618556537
 20
-154.6696288675826
 10
103.1666571465173
 20
-154.6696288675826
 10
103.1580444078042
 20
-154.9001057555458
 10
103.1539102932219
 20
-155.0165499829472
 10
103.1539102932219
 20
-155.0165499829472
 10
102.9296345771322
 20
-155.0165499829472
 10
102.9296345771322
 20
-155.0165499829472
 10
102.9382473158453
 20
-154.8894259595415
 10
102.9489271118496
 20
-154.7774603562709
 10
103.0291978366559
 20
-154.6589490715783
 10
103.1390963826353
 20
-154.4980631124171
 10
103.3254760483874
 20
-154.4643011766617
 10
103.4415757662403
 20
-154.4643011766617
 10
103.7189059528029
 20
-154.4643011766617
 10
103.9263007010149
 20
-154.648269275574
 10
103.9263007010149
 20
-154.9211208380058
 10
103.9263007010149
 20
-155.1498751782264
 10
103.8098564736135
 20
-155.2490939282016
 10
103.5008314085866
 20
-155.4754367015825
 97
        0
 97
        1
330
136
 75
     2
 76
     1
 98
        1
 10
0.0
 20
0.0
450
        0
451
        0
460
0.0
461
0.0
452
        0
462
0.0
453
        0
470

  0
ENDBLK
  5
133
330
130
100
AcDbEntity
  8
0
100
AcDbBlockEnd
  0
BLOCK
  5
13B
330
139
100
AcDbEntity
  8
0
100
AcDbBlockBegin
  2
Block_11
 70
     0
 10
0.0
 20
0.0
 30
0.0
  3
Block_11
  1

  0
SPLINE
  5
13D
330
139
100
AcDbEntity
  8
レイヤー 1
100
AcDbSpline
210
0.0
220
0.0
230
1.0
 70
    11
 71
     3
 72
    26
 73
    22
 74
     0
 42
0.0000000001
 43
0.0000000001
 40
0.0
 40
0.0
 40
0.0
 40
0.0
 40
1.0
 40
1.0
 40
1.0
 40
2.0
 40
2.0
 40
2.0
 40
3.0
 40
3.0
 40
3.0
 40
4.0
 40
4.0
 40
4.0
 40
5.0
 40
5.0
 40
5.0
 40
6.0
 40
6.0
 40
6.0
 40
7.0
 40
7.0
 40
7.0
 40
7.0
 10
110.5145290522325
 20
-149.9171196456804
 30
0.0
 10
110.5145290522325
 20
-149.9171196456804
 30
0.0
 10
110.5145290522325
 20
-148.8127942878836
 30
0.0
 10
110.5145290522325
 20
-148.8127942878836
 30
0.0
 10
110.5145290522325
 20
-148.8127942878836
 30
0.0
 10
110.1844889047455
 20
-148.8127942878836
 30
0.0
 10
110.1844889047455
 20
-148.8127942878836
 30
0.0
 10
110.1844889047455
 20
-148.8127942878836
 30
0.0
 10
110.1844889047455
 20
-148.6646551820179
 30
0.0
 10
110.1844889047455
 20
-148.6646551820179
 30
0.0
 10
110.5165961095236
 20
-148.6500135262055
 30
0.0
 10
110.5631048985745
 20
-148.4870605097532
 30
0.0
 10
110.5927327197476
 20
-148.3728555944172
 30
0.0
 10
110.5927327197476
 20
-148.3728555944172
 30
0.0
 10
110.7388047683222
 20
-148.3728555944172
 30
0.0
 10
110.7388047683222
 20
-148.3728555944172
 30
0.0
 10
110.7388047683222
 20
-148.3728555944172
 30
0.0
 10
110.7388047683222
 20
-149.9171196456804
 30
0.0
 10
110.7388047683222
 20
-149.9171196456804
 30
0.0
 10
110.7388047683222
 20
-149.9171196456804
 30
0.0
 10
110.5145290522325
 20
-149.9171196456804
 30
0.0
 10
110.5145290522325
 20
-149.9171196456804
 30
0.0
  0
HATCH
  5
13E
330
139
100
AcDbEntity
  8
レイヤー 1
 62
   250
420
  2299925
440
 33554687
100
AcDbHatch
 10
0.0
 20
0.0
 30
0.0
210
0.0
220
0.0
230
1.0
  2
SOLID
 70
     1
 71
     1
 91
        1
 92
        1
 93
        1
 72
     4
 94
        3
 73
     0
 74
     0
 95
       26
 96
       22
 40
0.0
 40
0.0
 40
0.0
 40
0.0
 40
1.0
 40
1.0
 40
1.0
 40
2.0
 40
2.0
 40
2.0
 40
3.0
 40
3.0
 40
3.0
 40
4.0
 40
4.0
 40
4.0
 40
5.0
 40
5.0
 40
5.0
 40
6.0
 40
6.0
 40
6.0
 40
7.0
 40
7.0
 40
7.0
 40
7.0
 10
110.5145290522325
 20
-149.9171196456804
 10
110.5145290522325
 20
-149.9171196456804
 10
110.5145290522325
 20
-148.8127942878836
 10
110.5145290522325
 20
-148.8127942878836
 10
110.5145290522325
 20
-148.8127942878836
 10
110.1844889047455
 20
-148.8127942878836
 10
110.1844889047455
 20
-148.8127942878836
 10
110.1844889047455
 20
-148.8127942878836
 10
110.1844889047455
 20
-148.6646551820179
 10
110.1844889047455
 20
-148.6646551820179
 10
110.5165961095236
 20
-148.6500135262055
 10
110.5631048985745
 20
-148.4870605097532
 10
110.5927327197476
 20
-148.3728555944172
 10
110.5927327197476
 20
-148.3728555944172
 10
110.7388047683222
 20
-148.3728555944172
 10
110.7388047683222
 20
-148.3728555944172
 10
110.7388047683222
 20
-148.3728555944172
 10
110.7388047683222
 20
-149.9171196456804
 10
110.7388047683222
 20
-149.9171196456804
 10
110.7388047683222
 20
-149.9171196456804
 10
110.5145290522325
 20
-149.9171196456804
 10
110.5145290522325
 20
-149.9171196456804
 97
        0
 97
        1
330
13D
 75
     2
 76
     1
 98
        1
 10
0.0
 20
0.0
450
        0
451
        0
460
0.0
461
0.0
452
        0
462
0.0
453
        0
470

  0
ENDBLK
  5
13C
330
139
100
AcDbEntity
  8
0
100
AcDbBlockEnd
  0
BLOCK
  5
141
330
13F
100
AcDbEntity
  8
0
100
AcDbBlockBegin
  2
Block_12
 70
     0
 10
0.0
 20
0.0
 30
0.0
  3
Block_12
  1

  0
INSERT
  5
144
330
13F
100
AcDbEntity
  8
レイヤー 1
100
AcDbBlockReference
  2
Block_13
 10
0.0
 20
0.0
 30
0.0
  0
INSERT
  5
14B
330
13F
100
AcDbEntity
  8
レイヤー 1
100
AcDbBlockReference
  2
Block_14
 10
0.0
 20
0.0
 30
0.0
  0
ENDBLK
  5
142
330
13F
100
AcDbEntity
  8
0
100
AcDbBlockEnd
  0
BLOCK
  5
145
330
143
100
AcDbEntity
  8
0
100
AcDbBlockBegin
  2
Block_13
 70
     0
 10
0.0
 20
0.0
 30
0.0
  3
Block_13
  1

  0
LINE
  5
147
330
143
100
AcDbEntity
  8
レイヤー 1
 62
    18
420
        0
370
     9
100
AcDbLine
 10
122.6731713906815
 20
-148.7882052624034
 30
0.0
 11
123.4844897033164
 21
-149.3728285955905
 31
0.0
  0
LINE
  5
148
330
143
100
AcDbEntity
  8
レイヤー 1
 62
    18
420
        0
370
     9
100
AcDbLine
 10
122.6731713906815
 20
-148.7882052624034
 30
0.0
 11
125.2507774360324
 21
-151.9452841505027
 31
0.0
  0
LINE
  5
149
330
143
100
AcDbEntity
  8
レイヤー 1
 62
    18
420
        0
370
     9
100
AcDbLine
 10
122.6731713906815
 20
-148.7882052624034
 30
0.0
 11
123.0834872135468
 21
-149.7003122066195
 31
0.0
  0
ENDBLK
  5
146
330
143
100
AcDbEntity
  8
0
100
AcDbBlockEnd
  0
BLOCK
  5
14C
330
14A
100
AcDbEntity
  8
0
100
AcDbBlockBegin
  2
Block_14
 70
     0
 10
0.0
 20
0.0
 30
0.0
  3
Block_14
  1

  0
INSERT
  5
14F
330
14A
100
AcDbEntity
  8
レイヤー 1
100
AcDbBlockReference
  2
Block_15
 10
0.0
 20
0.0
 30
0.0
  0
ENDBLK
  5
14D
330
14A
100
AcDbEntity
  8
0
100
AcDbBlockEnd
  0
BLOCK
  5
150
330
14E
100
AcDbEntity
  8
0
100
AcDbBlockBegin
  2
Block_15
 70
     0
 10
0.0
 20
0.0
 30
0.0
  3
Block_15
  1

  0
SPLINE
  5
152
330
14E
100
AcDbEntity
  8
レイヤー 1
100
AcDbSpline
210
0.0
220
0.0
230
1.0
 70
     9
 71
     3
 72
    17
 73
    13
 74
     0
 42
0.0000000001
 43
0.0000000001
 40
0.0
 40
0.0
 40
0.0
 40
0.0
 40
1.0
 40
1.0
 40
1.0
 40
2.0
 40
2.0
 40
2.0
 40
3.0
 40
3.0
 40
3.0
 40
4.0
 40
4.0
 40
4.0
 40
4.0
 10
126.917317676604
 20
-152.392765261381
 30
0.0
 10
126.9004367087263
 20
-152.4223930825541
 30
0.0
 10
126.8497938050931
 20
-152.5154106606558
 30
0.0
 10
126.8391140090888
 20
-152.5343586858247
 30
0.0
 10
127.0296277894231
 20
-152.593614328171
 30
0.0
 10
127.0506428718832
 20
-152.600160009593
 30
0.0
 10
127.1226453675249
 20
-152.6273762639265
 30
0.0
 10
127.1774223857403
 20
-152.5409043672467
 30
0.0
 10
127.20084903504
 20
-152.4668348143138
 30
0.0
 10
127.2156629456266
 20
-152.392765261381
 30
0.0
 10
127.2156629456266
 20
-152.392765261381
 30
0.0
 10
126.917317676604
 20
-152.392765261381
 30
0.0
 10
126.917317676604
 20
-152.392765261381
 30
0.0
  0
SPLINE
  5
153
330
14E
100
AcDbEntity
  8
レイヤー 1
100
AcDbSpline
210
0.0
220
0.0
230
1.0
 70
    11
 71
     3
 72
    20
 73
    16
 74
     0
 42
0.0000000001
 43
0.0000000001
 40
0.0
 40
0.0
 40
0.0
 40
0.0
 40
1.0
 40
1.0
 40
1.0
 40
2.0
 40
2.0
 40
2.0
 40
3.0
 40
3.0
 40
3.0
 40
4.0
 40
4.0
 40
4.0
 40
5.0
 40
5.0
 40
5.0
 40
5.0
 10
126.8539279196754
 20
-151.5421711860728
 30
0.0
 10
126.8539279196754
 20
-151.5421711860728
 30
0.0
 10
126.8222330412111
 20
-151.5421711860728
 30
0.0
 10
126.8222330412111
 20
-151.5421711860728
 30
0.0
 10
126.8687418302619
 20
-151.6417344455965
 30
0.0
 10
126.9004367087263
 20
-151.7220051704028
 30
0.0
 10
126.9341986444817
 20
-151.8491291938085
 30
0.0
 10
126.9341986444817
 20
-151.8491291938085
 30
0.0
 10
127.1415933926937
 20
-151.8491291938085
 30
0.0
 10
127.1415933926937
 20
-151.8491291938085
 30
0.0
 10
127.1732882711581
 20
-151.7561116157068
 30
0.0
 10
127.1967149204577
 20
-151.6713622667696
 30
0.0
 10
127.2197970602089
 20
-151.5421711860728
 30
0.0
 10
127.2197970602089
 20
-151.5421711860728
 30
0.0
 10
126.8539279196754
 20
-151.5421711860728
 30
0.0
 10
126.8539279196754
 20
-151.5421711860728
 30
0.0
  0
SPLINE
  5
154
330
14E
100
AcDbEntity
  8
レイヤー 1
100
AcDbSpline
210
0.0
220
0.0
230
1.0
 70
     9
 71
     3
 72
   242
 73
   238
 74
     0
 42
0.0000000001
 43
0.0000000001
 40
0.0
 40
0.0
 40
0.0
 40
0.0
 40
1.0
 40
1.0
 40
1.0
 40
2.0
 40
2.0
 40
2.0
 40
3.0
 40
3.0
 40
3.0
 40
4.0
 40
4.0
 40
4.0
 40
5.0
 40
5.0
 40
5.0
 40
6.0
 40
6.0
 40
6.0
 40
7.0
 40
7.0
 40
7.0
 40
8.0
 40
8.0
 40
8.0
 40
9.0
 40
9.0
 40
9.0
 40
10.0
 40
10.0
 40
10.0
 40
11.0
 40
11.0
 40
11.0
 40
12.0
 40
12.0
 40
12.0
 40
13.0
 40
13.0
 40
13.0
 40
14.0
 40
14.0
 40
14.0
 40
15.0
 40
15.0
 40
15.0
 40
16.0
 40
16.0
 40
16.0
 40
17.0
 40
17.0
 40
17.0
 40
18.0
 40
18.0
 40
18.0
 40
19.0
 40
19.0
 40
19.0
 40
20.0
 40
20.0
 40
20.0
 40
21.0
 40
21.0
 40
21.0
 40
22.0
 40
22.0
 40
22.0
 40
23.0
 40
23.0
 40
23.0
 40
24.0
 40
24.0
 40
24.0
 40
25.0
 40
25.0
 40
25.0
 40
26.0
 40
26.0
 40
26.0
 40
27.0
 40
27.0
 40
27.0
 40
28.0
 40
28.0
 40
28.0
 40
29.0
 40
29.0
 40
29.0
 40
30.0
 40
30.0
 40
30.0
 40
31.0
 40
31.0
 40
31.0
 40
32.0
 40
32.0
 40
32.0
 40
33.0
 40
33.0
 40
33.0
 40
34.0
 40
34.0
 40
34.0
 40
35.0
 40
35.0
 40
35.0
 40
36.0
 40
36.0
 40
36.0
 40
37.0
 40
37.0
 40
37.0
 40
38.0
 40
38.0
 40
38.0
 40
39.0
 40
39.0
 40
39.0
 40
40.0
 40
40.0
 40
40.0
 40
41.0
 40
41.0
 40
41.0
 40
42.0
 40
42.0
 40
42.0
 40
43.0
 40
43.0
 40
43.0
 40
44.0
 40
44.0
 40
44.0
 40
45.0
 40
45.0
 40
45.0
 40
46.0
 40
46.0
 40
46.0
 40
47.0
 40
47.0
 40
47.0
 40
48.0
 40
48.0
 40
48.0
 40
49.0
 40
49.0
 40
49.0
 40
50.0
 40
50.0
 40
50.0
 40
51.0
 40
51.0
 40
51.0
 40
52.0
 40
52.0
 40
52.0
 40
53.0
 40
53.0
 40
53.0
 40
54.0
 40
54.0
 40
54.0
 40
55.0
 40
55.0
 40
55.0
 40
56.0
 40
56.0
 40
56.0
 40
57.0
 40
57.0
 40
57.0
 40
58.0
 40
58.0
 40
58.0
 40
59.0
 40
59.0
 40
59.0
 40
60.0
 40
60.0
 40
60.0
 40
61.0
 40
61.0
 40
61.0
 40
62.0
 40
62.0
 40
62.0
 40
63.0
 40
63.0
 40
63.0
 40
64.0
 40
64.0
 40
64.0
 40
65.0
 40
65.0
 40
65.0
 40
66.0
 40
66.0
 40
66.0
 40
67.0
 40
67.0
 40
67.0
 40
68.0
 40
68.0
 40
68.0
 40
69.0
 40
69.0
 40
69.0
 40
70.0
 40
70.0
 40
70.0
 40
71.0
 40
71.0
 40
71.0
 40
72.0
 40
72.0
 40
72.0
 40
73.0
 40
73.0
 40
73.0
 40
74.0
 40
74.0
 40
74.0
 40
75.0
 40
75.0
 40
75.0
 40
76.0
 40
76.0
 40
76.0
 40
77.0
 40
77.0
 40
77.0
 40
78.0
 40
78.0
 40
78.0
 40
79.0
 40
79.0
 40
79.0
 40
79.0
 10
127.482313336185
 20
-152.00760358613
 30
0.0
 10
127.482313336185
 20
-152.00760358613
 30
0.0
 10
127.228409798922
 20
-152.00760358613
 30
0.0
 10
127.228409798922
 20
-152.00760358613
 30
0.0
 10
127.228409798922
 20
-152.00760358613
 30
0.0
 10
126.9510796123594
 20
-152.00760358613
 30
0.0
 10
126.9510796123594
 20
-152.00760358613
 30
0.0
 10
126.9510796123594
 20
-152.00760358613
 30
0.0
 10
127.0782036357652
 20
-152.0499782605986
 30
0.0
 10
127.0782036357652
 20
-152.0499782605986
 30
0.0
 10
127.0888834317694
 20
-152.0541123751809
 30
0.0
 10
127.1012857755163
 20
-152.0606580566029
 30
0.0
 10
127.1012857755163
 20
-152.0734049098983
 30
0.0
 10
127.1012857755163
 20
-152.0944199923583
 30
0.0
 10
127.069590897052
 20
-152.1006211642318
 30
0.0
 10
127.048575814592
 20
-152.1050997883626
 30
0.0
 10
127.0378960185877
 20
-152.1281819281138
 30
0.0
 10
127.0082681974146
 20
-152.193983251882
 30
0.0
 10
126.9893201722457
 20
-152.2384249836417
 30
0.0
 10
126.9893201722457
 20
-152.2384249836417
 30
0.0
 10
127.2601046773863
 20
-152.2384249836417
 30
0.0
 10
127.2601046773863
 20
-152.2384249836417
 30
0.0
 10
127.3510551981969
 20
-152.2384249836417
 30
0.0
 10
127.5477701504047
 20
-152.2339463595109
 30
0.0
 10
127.6893635748485
 20
-152.2256781303463
 30
0.0
 10
127.6893635748485
 20
-152.2256781303463
 30
0.0
 10
127.6893635748485
 20
-152.4034450573852
 30
0.0
 10
127.6893635748485
 20
-152.4034450573852
 30
0.0
 10
127.607025792751
 20
-152.3989664332544
 30
0.0
 10
127.586010710291
 20
-152.3989664332544
 30
0.0
 10
127.4061767259609
 20
-152.3948323186721
 30
0.0
 10
127.3744818474966
 20
-152.5491725964113
 30
0.0
 10
127.3300401157369
 20
-152.6297878307661
 30
0.0
 10
127.2855983839772
 20
-152.6993787595682
 30
0.0
 10
127.4061767259609
 20
-152.7586344019145
 30
0.0
 10
127.5119411573581
 20
-152.8265027829739
 30
0.0
 10
127.6156385314641
 20
-152.9088405650714
 30
0.0
 10
127.6156385314641
 20
-152.9088405650714
 30
0.0
 10
127.4971272467715
 20
-153.075927696106
 30
0.0
 10
127.4971272467715
 20
-153.075927696106
 30
0.0
 10
127.4737005974718
 20
-153.0569796709371
 30
0.0
 10
127.4609537441764
 20
-153.048366932224
 30
0.0
 10
127.3489881409058
 20
-152.9639620928354
 30
0.0
 10
127.3004122945638
 20
-152.9257215329491
 30
0.0
 10
127.2411566522175
 20
-152.8898925399025
 30
0.0
 10
127.1605414178626
 20
-152.8454508081428
 30
0.0
 10
126.9490125550683
 20
-153.0314859643463
 30
0.0
 10
126.7440293736959
 20
-153.054912613646
 30
0.0
 10
126.4539523338379
 20
-153.0845404348191
 30
0.0
 10
126.4539523338379
 20
-153.0845404348191
 30
0.0
 10
126.3502549597319
 20
-152.9047064504891
 30
0.0
 10
126.3502549597319
 20
-152.9047064504891
 30
0.0
 10
126.6678927634719
 20
-152.9005723359068
 30
0.0
 10
126.8432481236711
 20
-152.8750786293159
 30
0.0
 10
126.9955213441191
 20
-152.7651800833365
 30
0.0
 10
126.8770100594265
 20
-152.7141926701548
 30
0.0
 10
126.7884711054557
 20
-152.6866319062728
 30
0.0
 10
126.7522976028605
 20
-152.6742295625258
 30
0.0
 10
126.7333495776916
 20
-152.7014458168594
 30
0.0
 10
126.7185356671051
 20
-152.7207383515767
 30
0.0
 10
126.6909749032231
 20
-152.7545002873322
 30
0.0
 10
126.6909749032231
 20
-152.7545002873322
 30
0.0
 10
126.4942599510153
 20
-152.6718179956862
 30
0.0
 10
126.4942599510153
 20
-152.6718179956862
 30
0.0
 10
126.5769422426613
 20
-152.5915472708799
 30
0.0
 10
126.6382649422987
 20
-152.496462635487
 30
0.0
 10
126.6951090178054
 20
-152.3948323186721
 30
0.0
 10
126.5049397470196
 20
-152.3989664332544
 30
0.0
 10
126.483580155011
 20
-152.3989664332544
 30
0.0
 10
126.4012423729136
 20
-152.4034450573852
 30
0.0
 10
126.4012423729136
 20
-152.4034450573852
 30
0.0
 10
126.4012423729136
 20
-152.2256781303463
 30
0.0
 10
126.4012423729136
 20
-152.2256781303463
 30
0.0
 10
126.5407687400662
 20
-152.2318793022198
 30
0.0
 10
126.7502305455694
 20
-152.2360134168021
 30
0.0
 10
126.7757242521602
 20
-152.2360134168021
 30
0.0
 10
126.7926052200379
 20
-152.2022514810466
 30
0.0
 10
126.8477267478019
 20
-152.0816731390629
 30
0.0
 10
126.8666747729708
 20
-152.00760358613
 30
0.0
 10
126.8477267478019
 20
-152.00760358613
 30
0.0
 10
126.6699598207631
 20
-152.014149267552
 30
0.0
 10
126.4753119258464
 20
-152.0268961208474
 30
0.0
 10
126.4753119258464
 20
-152.0268961208474
 30
0.0
 10
126.4753119258464
 20
-152.1598768065781
 30
0.0
 10
126.4753119258464
 20
-152.1598768065781
 30
0.0
 10
126.4267360795044
 20
-152.1853705131689
 30
0.0
 10
126.3674804371581
 20
-152.2170653916332
 30
0.0
 10
126.2341552418789
 20
-152.2828667154015
 30
0.0
 10
126.2341552418789
 20
-152.2828667154015
 30
0.0
 10
126.2341552418789
 20
-152.4285942544276
 30
0.0
 10
126.2341552418789
 20
-152.4285942544276
 30
0.0
 10
126.2341552418789
 20
-152.4285942544276
 30
0.0
 10
126.2341552418789
 20
-152.896093711776
 30
0.0
 10
126.2341552418789
 20
-152.896093711776
 30
0.0
 10
126.2341552418789
 20
-153.0232177351817
 30
0.0
 10
126.1979817392838
 20
-153.082473377528
 30
0.0
 10
125.9144503808478
 20
-153.0738606388148
 30
0.0
 10
125.9144503808478
 20
-153.0738606388148
 30
0.0
 10
125.8110975162903
 20
-152.8664658906028
 30
0.0
 10
125.8110975162903
 20
-152.8664658906028
 30
0.0
 10
125.8744872732189
 20
-152.8792127438982
 30
0.0
 10
125.9230631195609
 20
-152.8836913680291
 30
0.0
 10
125.9633707367383
 20
-152.8836913680291
 30
0.0
 10
126.0395073469623
 20
-152.8836913680291
 30
0.0
 10
126.0498426334181
 20
-152.8602647187294
 30
0.0
 10
126.0498426334181
 20
-152.7948079045096
 30
0.0
 10
126.0498426334181
 20
-152.7948079045096
 30
0.0
 10
126.0498426334181
 20
-152.365204497499
 30
0.0
 10
126.0498426334181
 20
-152.365204497499
 30
0.0
 10
125.952690940734
 20
-152.4055121146764
 30
0.0
 10
125.9358099728563
 20
-152.4117132865498
 30
0.0
 10
125.8893011838054
 20
-152.4306613117187
 30
0.0
 10
125.8851670692231
 20
-152.4520209037273
 30
0.0
 10
125.8806884450923
 20
-152.4816487249004
 30
0.0
 10
125.8617404199234
 20
-152.4816487249004
 30
0.0
 10
125.8531276812103
 20
-152.4816487249004
 30
0.0
 10
125.8427923947545
 20
-152.4771701007696
 30
0.0
 10
125.8362467133326
 20
-152.4540879610184
 30
0.0
 10
125.8362467133326
 20
-152.4540879610184
 30
0.0
 10
125.7835367524082
 20
-152.2615071233929
 30
0.0
 10
125.7835367524082
 20
-152.2615071233929
 30
0.0
 10
125.9292642914343
 20
-152.2149983343421
 30
0.0
 10
125.9950656152026
 20
-152.1919161945909
 30
0.0
 10
126.0498426334181
 20
-152.1705566025823
 30
0.0
 10
126.0498426334181
 20
-152.1705566025823
 30
0.0
 10
126.0498426334181
 20
-151.7581786729979
 30
0.0
 10
126.0498426334181
 20
-151.7581786729979
 30
0.0
 10
126.0498426334181
 20
-151.7581786729979
 30
0.0
 10
125.9971326724937
 20
-151.7581786729979
 30
0.0
 10
125.9971326724937
 20
-151.7581786729979
 30
0.0
 10
125.9971326724937
 20
-151.7581786729979
 30
0.0
 10
125.9189290049786
 20
-151.7581786729979
 30
0.0
 10
125.9189290049786
 20
-151.7581786729979
 30
0.0
 10
125.8510606239191
 20
-151.7581786729979
 30
0.0
 10
125.8427923947545
 20
-151.7581786729979
 30
0.0
 10
125.8066188921594
 20
-151.7643798448714
 30
0.0
 10
125.8066188921594
 20
-151.7643798448714
 30
0.0
 10
125.8066188921594
 20
-151.5697319499548
 30
0.0
 10
125.8066188921594
 20
-151.5697319499548
 30
0.0
 10
125.8341796560414
 20
-151.5762776313767
 30
0.0
 10
125.8427923947545
 20
-151.5762776313767
 30
0.0
 10
125.9123833235566
 20
-151.5762776313767
 30
0.0
 10
125.9123833235566
 20
-151.5762776313767
 30
0.0
 10
126.0457085188358
 20
-151.5762776313767
 30
0.0
 10
126.0457085188358
 20
-151.5762776313767
 30
0.0
 10
126.0457085188358
 20
-151.5063421930262
 30
0.0
 10
126.0457085188358
 20
-151.4236599013802
 30
0.0
 10
126.0436414615446
 20
-151.4195257867979
 30
0.0
 10
126.03537323238
 20
-151.2396918024678
 30
0.0
 10
126.03537323238
 20
-151.220743777299
 30
0.0
 10
126.0329616655403
 20
-151.1742349882481
 30
0.0
 10
126.0329616655403
 20
-151.1742349882481
 30
0.0
 10
126.2489691524655
 20
-151.1825032174127
 30
0.0
 10
126.2489691524655
 20
-151.1825032174127
 30
0.0
 10
126.2593044389213
 20
-151.1825032174127
 30
0.0
 10
126.2806640309298
 20
-151.1849147842523
 30
0.0
 10
126.2806640309298
 20
-151.2017957521301
 30
0.0
 10
126.2806640309298
 20
-151.220743777299
 30
0.0
 10
126.2658501203432
 20
-151.2314235733032
 30
0.0
 10
126.2403564137524
 20
-151.2503715984721
 30
0.0
 10
126.2403564137524
 20
-151.3010145021053
 30
0.0
 10
126.2341552418789
 20
-151.5297688423259
 30
0.0
 10
126.2362222991701
 20
-151.5762776313767
 30
0.0
 10
126.3650688703184
 20
-151.5762776313767
 30
0.0
 10
126.3778157236139
 20
-151.5762776313767
 30
0.0
 10
126.4753119258464
 20
-151.5676648926636
 30
0.0
 10
126.4753119258464
 20
-151.5676648926636
 30
0.0
 10
126.4753119258464
 20
-151.7623127875802
 30
0.0
 10
126.4753119258464
 20
-151.7623127875802
 30
0.0
 10
126.4370713659602
 20
-151.7602457302891
 30
0.0
 10
126.3695474944493
 20
-151.7561116157068
 30
0.0
 10
126.2341552418789
 20
-151.7581786729979
 30
0.0
 10
126.2341552418789
 20
-151.7581786729979
 30
0.0
 10
126.2341552418789
 20
-152.0964870496495
 30
0.0
 10
126.2341552418789
 20
-152.0964870496495
 30
0.0
 10
126.2889322600944
 20
-152.0734049098983
 30
0.0
 10
126.3547335838627
 20
-152.0458441460163
 30
0.0
 10
126.4033094302047
 20
-152.0224174967166
 30
0.0
 10
126.4033094302047
 20
-152.0224174967166
 30
0.0
 10
126.4033094302047
 20
-151.8446505696777
 30
0.0
 10
126.4033094302047
 20
-151.8446505696777
 30
0.0
 10
126.517686600315
 20
-151.8573974229731
 30
0.0
 10
126.6358533754591
 20
-151.8573974229731
 30
0.0
 10
126.7522976028605
 20
-151.8573974229731
 30
0.0
 10
126.7292154631094
 20
-151.7623127875802
 30
0.0
 10
126.7016546992274
 20
-151.6796304959342
 30
0.0
 10
126.6382649422987
 20
-151.5466498102036
 30
0.0
 10
126.593823210539
 20
-151.5487168674947
 30
0.0
 10
126.511140918893
 20
-151.552850982077
 30
0.0
 10
126.4732448685553
 20
-151.5549180393682
 30
0.0
 10
126.4732448685553
 20
-151.5549180393682
 30
0.0
 10
126.4732448685553
 20
-151.3750840550381
 30
0.0
 10
126.4732448685553
 20
-151.3750840550381
 30
0.0
 10
126.5979573251213
 20
-151.3836967937513
 30
0.0
 10
126.7712456280294
 20
-151.3878309083336
 30
0.0
 10
126.8539279196754
 20
-151.3878309083336
 30
0.0
 10
126.8539279196754
 20
-151.3878309083336
 30
0.0
 10
126.9362657017728
 20
-151.3878309083336
 30
0.0
 10
126.9362657017728
 20
-151.3878309083336
 30
0.0
 10
126.9362657017728
 20
-151.2248778918813
 30
0.0
 10
126.9362657017728
 20
-151.2145426054255
 30
0.0
 10
126.9341986444817
 20
-151.1594210776615
 30
0.0
 10
126.9341986444817
 20
-151.1594210776615
 30
0.0
 10
127.1584743605715
 20
-151.1849147842523
 30
0.0
 10
127.1584743605715
 20
-151.1849147842523
 30
0.0
 10
127.1626084751538
 20
-151.1849147842523
 30
0.0
 10
127.1839680671623
 20
-151.1869818415435
 30
0.0
 10
127.1839680671623
 20
-151.2038628094212
 30
0.0
 10
127.1839680671623
 20
-151.2186767200078
 30
0.0
 10
127.1732882711581
 20
-151.2269449491724
 30
0.0
 10
127.1457275072761
 20
-151.241758859759
 30
0.0
 10
127.1395263354026
 20
-151.3075601835272
 30
0.0
 10
127.1374592781115
 20
-151.3285752659873
 30
0.0
 10
127.1374592781115
 20
-151.3878309083336
 30
0.0
 10
127.1374592781115
 20
-151.3878309083336
 30
0.0
 10
127.2325439135044
 20
-151.3878309083336
 30
0.0
 10
127.2325439135044
 20
-151.3878309083336
 30
0.0
 10
127.3152262051503
 20
-151.3878309083336
 30
0.0
 10
127.4885145080584
 20
-151.3836967937513
 30
0.0
 10
127.6132269646244
 20
-151.3750840550381
 30
0.0
 10
127.6132269646244
 20
-151.3750840550381
 30
0.0
 10
127.6132269646244
 20
-151.5549180393682
 30
0.0
 10
127.6132269646244
 20
-151.5549180393682
 30
0.0
 10
127.5835991434513
 20
-151.552850982077
 30
0.0
 10
127.4654323683072
 20
-151.5487168674947
 30
0.0
 10
127.4251247511298
 20
-151.5466498102036
 30
0.0
 10
127.4103108405432
 20
-151.5972927138368
 30
0.0
 10
127.3765489047878
 20
-151.7092583171074
 30
0.0
 10
127.3107475810195
 20
-151.8491291938085
 30
0.0
 10
127.3531222554881
 20
-151.8491291938085
 30
0.0
 10
127.6304524420507
 20
-151.8298366590911
 30
0.0
 10
127.6917751416881
 20
-151.8277696018
 30
0.0
 10
127.6917751416881
 20
-151.8277696018
 30
0.0
 10
127.6917751416881
 20
-152.0120822102609
 30
0.0
 10
127.6917751416881
 20
-152.0120822102609
 30
0.0
 10
127.662147320515
 20
-152.0120822102609
 30
0.0
 10
127.6452663526373
 20
-152.00760358613
 30
0.0
 10
127.482313336185
 20
-152.00760358613
 30
0.0
  0
HATCH
  5
155
330
14E
100
AcDbEntity
  8
レイヤー 1
 62
    18
420
        0
440
 33554687
100
AcDbHatch
 10
0.0
 20
0.0
 30
0.0
210
0.0
220
0.0
230
1.0
  2
SOLID
 70
     1
 71
     1
 91
        3
 92
        1
 93
        1
 72
     4
 94
        3
 73
     0
 74
     0
 95
       17
 96
       13
 40
0.0
 40
0.0
 40
0.0
 40
0.0
 40
1.0
 40
1.0
 40
1.0
 40
2.0
 40
2.0
 40
2.0
 40
3.0
 40
3.0
 40
3.0
 40
4.0
 40
4.0
 40
4.0
 40
4.0
 10
126.917317676604
 20
-152.392765261381
 10
126.9004367087263
 20
-152.4223930825541
 10
126.8497938050931
 20
-152.5154106606558
 10
126.8391140090888
 20
-152.5343586858247
 10
127.0296277894231
 20
-152.593614328171
 10
127.0506428718832
 20
-152.600160009593
 10
127.1226453675249
 20
-152.6273762639265
 10
127.1774223857403
 20
-152.5409043672467
 10
127.20084903504
 20
-152.4668348143138
 10
127.2156629456266
 20
-152.392765261381
 10
127.2156629456266
 20
-152.392765261381
 10
126.917317676604
 20
-152.392765261381
 10
126.917317676604
 20
-152.392765261381
 97
        0
 97
        1
330
152
 92
        1
 93
        1
 72
     4
 94
        3
 73
     0
 74
     0
 95
       20
 96
       16
 40
0.0
 40
0.0
 40
0.0
 40
0.0
 40
1.0
 40
1.0
 40
1.0
 40
2.0
 40
2.0
 40
2.0
 40
3.0
 40
3.0
 40
3.0
 40
4.0
 40
4.0
 40
4.0
 40
5.0
 40
5.0
 40
5.0
 40
5.0
 10
126.8539279196754
 20
-151.5421711860728
 10
126.8539279196754
 20
-151.5421711860728
 10
126.8222330412111
 20
-151.5421711860728
 10
126.8222330412111
 20
-151.5421711860728
 10
126.8687418302619
 20
-151.6417344455965
 10
126.9004367087263
 20
-151.7220051704028
 10
126.9341986444817
 20
-151.8491291938085
 10
126.9341986444817
 20
-151.8491291938085
 10
127.1415933926937
 20
-151.8491291938085
 10
127.1415933926937
 20
-151.8491291938085
 10
127.1732882711581
 20
-151.7561116157068
 10
127.1967149204577
 20
-151.6713622667696
 10
127.2197970602089
 20
-151.5421711860728
 10
127.2197970602089
 20
-151.5421711860728
 10
126.8539279196754
 20
-151.5421711860728
 10
126.8539279196754
 20
-151.5421711860728
 97
        0
 97
        1
330
153
 92
        1
 93
        1
 72
     4
 94
        3
 73
     0
 74
     0
 95
      242
 96
      238
 40
0.0
 40
0.0
 40
0.0
 40
0.0
 40
1.0
 40
1.0
 40
1.0
 40
2.0
 40
2.0
 40
2.0
 40
3.0
 40
3.0
 40
3.0
 40
4.0
 40
4.0
 40
4.0
 40
5.0
 40
5.0
 40
5.0
 40
6.0
 40
6.0
 40
6.0
 40
7.0
 40
7.0
 40
7.0
 40
8.0
 40
8.0
 40
8.0
 40
9.0
 40
9.0
 40
9.0
 40
10.0
 40
10.0
 40
10.0
 40
11.0
 40
11.0
 40
11.0
 40
12.0
 40
12.0
 40
12.0
 40
13.0
 40
13.0
 40
13.0
 40
14.0
 40
14.0
 40
14.0
 40
15.0
 40
15.0
 40
15.0
 40
16.0
 40
16.0
 40
16.0
 40
17.0
 40
17.0
 40
17.0
 40
18.0
 40
18.0
 40
18.0
 40
19.0
 40
19.0
 40
19.0
 40
20.0
 40
20.0
 40
20.0
 40
21.0
 40
21.0
 40
21.0
 40
22.0
 40
22.0
 40
22.0
 40
23.0
 40
23.0
 40
23.0
 40
24.0
 40
24.0
 40
24.0
 40
25.0
 40
25.0
 40
25.0
 40
26.0
 40
26.0
 40
26.0
 40
27.0
 40
27.0
 40
27.0
 40
28.0
 40
28.0
 40
28.0
 40
29.0
 40
29.0
 40
29.0
 40
30.0
 40
30.0
 40
30.0
 40
31.0
 40
31.0
 40
31.0
 40
32.0
 40
32.0
 40
32.0
 40
33.0
 40
33.0
 40
33.0
 40
34.0
 40
34.0
 40
34.0
 40
35.0
 40
35.0
 40
35.0
 40
36.0
 40
36.0
 40
36.0
 40
37.0
 40
37.0
 40
37.0
 40
38.0
 40
38.0
 40
38.0
 40
39.0
 40
39.0
 40
39.0
 40
40.0
 40
40.0
 40
40.0
 40
41.0
 40
41.0
 40
41.0
 40
42.0
 40
42.0
 40
42.0
 40
43.0
 40
43.0
 40
43.0
 40
44.0
 40
44.0
 40
44.0
 40
45.0
 40
45.0
 40
45.0
 40
46.0
 40
46.0
 40
46.0
 40
47.0
 40
47.0
 40
47.0
 40
48.0
 40
48.0
 40
48.0
 40
49.0
 40
49.0
 40
49.0
 40
50.0
 40
50.0
 40
50.0
 40
51.0
 40
51.0
 40
51.0
 40
52.0
 40
52.0
 40
52.0
 40
53.0
 40
53.0
 40
53.0
 40
54.0
 40
54.0
 40
54.0
 40
55.0
 40
55.0
 40
55.0
 40
56.0
 40
56.0
 40
56.0
 40
57.0
 40
57.0
 40
57.0
 40
58.0
 40
58.0
 40
58.0
 40
59.0
 40
59.0
 40
59.0
 40
60.0
 40
60.0
 40
60.0
 40
61.0
 40
61.0
 40
61.0
 40
62.0
 40
62.0
 40
62.0
 40
63.0
 40
63.0
 40
63.0
 40
64.0
 40
64.0
 40
64.0
 40
65.0
 40
65.0
 40
65.0
 40
66.0
 40
66.0
 40
66.0
 40
67.0
 40
67.0
 40
67.0
 40
68.0
 40
68.0
 40
68.0
 40
69.0
 40
69.0
 40
69.0
 40
70.0
 40
70.0
 40
70.0
 40
71.0
 40
71.0
 40
71.0
 40
72.0
 40
72.0
 40
72.0
 40
73.0
 40
73.0
 40
73.0
 40
74.0
 40
74.0
 40
74.0
 40
75.0
 40
75.0
 40
75.0
 40
76.0
 40
76.0
 40
76.0
 40
77.0
 40
77.0
 40
77.0
 40
78.0
 40
78.0
 40
78.0
 40
79.0
 40
79.0
 40
79.0
 40
79.0
 10
127.482313336185
 20
-152.00760358613
 10
127.482313336185
 20
-152.00760358613
 10
127.228409798922
 20
-152.00760358613
 10
127.228409798922
 20
-152.00760358613
 10
127.228409798922
 20
-152.00760358613
 10
126.9510796123594
 20
-152.00760358613
 10
126.9510796123594
 20
-152.00760358613
 10
126.9510796123594
 20
-152.00760358613
 10
127.0782036357652
 20
-152.0499782605986
 10
127.0782036357652
 20
-152.0499782605986
 10
127.0888834317694
 20
-152.0541123751809
 10
127.1012857755163
 20
-152.0606580566029
 10
127.1012857755163
 20
-152.0734049098983
 10
127.1012857755163
 20
-152.0944199923583
 10
127.069590897052
 20
-152.1006211642318
 10
127.048575814592
 20
-152.1050997883626
 10
127.0378960185877
 20
-152.1281819281138
 10
127.0082681974146
 20
-152.193983251882
 10
126.9893201722457
 20
-152.2384249836417
 10
126.9893201722457
 20
-152.2384249836417
 10
127.2601046773863
 20
-152.2384249836417
 10
127.2601046773863
 20
-152.2384249836417
 10
127.3510551981969
 20
-152.2384249836417
 10
127.5477701504047
 20
-152.2339463595109
 10
127.6893635748485
 20
-152.2256781303463
 10
127.6893635748485
 20
-152.2256781303463
 10
127.6893635748485
 20
-152.4034450573852
 10
127.6893635748485
 20
-152.4034450573852
 10
127.607025792751
 20
-152.3989664332544
 10
127.586010710291
 20
-152.3989664332544
 10
127.4061767259609
 20
-152.3948323186721
 10
127.3744818474966
 20
-152.5491725964113
 10
127.3300401157369
 20
-152.6297878307661
 10
127.2855983839772
 20
-152.6993787595682
 10
127.4061767259609
 20
-152.7586344019145
 10
127.5119411573581
 20
-152.8265027829739
 10
127.6156385314641
 20
-152.9088405650714
 10
127.6156385314641
 20
-152.9088405650714
 10
127.4971272467715
 20
-153.075927696106
 10
127.4971272467715
 20
-153.075927696106
 10
127.4737005974718
 20
-153.0569796709371
 10
127.4609537441764
 20
-153.048366932224
 10
127.3489881409058
 20
-152.9639620928354
 10
127.3004122945638
 20
-152.9257215329491
 10
127.2411566522175
 20
-152.8898925399025
 10
127.1605414178626
 20
-152.8454508081428
 10
126.9490125550683
 20
-153.0314859643463
 10
126.7440293736959
 20
-153.054912613646
 10
126.4539523338379
 20
-153.0845404348191
 10
126.4539523338379
 20
-153.0845404348191
 10
126.3502549597319
 20
-152.9047064504891
 10
126.3502549597319
 20
-152.9047064504891
 10
126.6678927634719
 20
-152.9005723359068
 10
126.8432481236711
 20
-152.8750786293159
 10
126.9955213441191
 20
-152.7651800833365
 10
126.8770100594265
 20
-152.7141926701548
 10
126.7884711054557
 20
-152.6866319062728
 10
126.7522976028605
 20
-152.6742295625258
 10
126.7333495776916
 20
-152.7014458168594
 10
126.7185356671051
 20
-152.7207383515767
 10
126.6909749032231
 20
-152.7545002873322
 10
126.6909749032231
 20
-152.7545002873322
 10
126.4942599510153
 20
-152.6718179956862
 10
126.4942599510153
 20
-152.6718179956862
 10
126.5769422426613
 20
-152.5915472708799
 10
126.6382649422987
 20
-152.496462635487
 10
126.6951090178054
 20
-152.3948323186721
 10
126.5049397470196
 20
-152.3989664332544
 10
126.483580155011
 20
-152.3989664332544
 10
126.4012423729136
 20
-152.4034450573852
 10
126.4012423729136
 20
-152.4034450573852
 10
126.4012423729136
 20
-152.2256781303463
 10
126.4012423729136
 20
-152.2256781303463
 10
126.5407687400662
 20
-152.2318793022198
 10
126.7502305455694
 20
-152.2360134168021
 10
126.7757242521602
 20
-152.2360134168021
 10
126.7926052200379
 20
-152.2022514810466
 10
126.8477267478019
 20
-152.0816731390629
 10
126.8666747729708
 20
-152.00760358613
 10
126.8477267478019
 20
-152.00760358613
 10
126.6699598207631
 20
-152.014149267552
 10
126.4753119258464
 20
-152.0268961208474
 10
126.4753119258464
 20
-152.0268961208474
 10
126.4753119258464
 20
-152.1598768065781
 10
126.4753119258464
 20
-152.1598768065781
 10
126.4267360795044
 20
-152.1853705131689
 10
126.3674804371581
 20
-152.2170653916332
 10
126.2341552418789
 20
-152.2828667154015
 10
126.2341552418789
 20
-152.2828667154015
 10
126.2341552418789
 20
-152.4285942544276
 10
126.2341552418789
 20
-152.4285942544276
 10
126.2341552418789
 20
-152.4285942544276
 10
126.2341552418789
 20
-152.896093711776
 10
126.2341552418789
 20
-152.896093711776
 10
126.2341552418789
 20
-153.0232177351817
 10
126.1979817392838
 20
-153.082473377528
 10
125.9144503808478
 20
-153.0738606388148
 10
125.9144503808478
 20
-153.0738606388148
 10
125.8110975162903
 20
-152.8664658906028
 10
125.8110975162903
 20
-152.8664658906028
 10
125.8744872732189
 20
-152.8792127438982
 10
125.9230631195609
 20
-152.8836913680291
 10
125.9633707367383
 20
-152.8836913680291
 10
126.0395073469623
 20
-152.8836913680291
 10
126.0498426334181
 20
-152.8602647187294
 10
126.0498426334181
 20
-152.7948079045096
 10
126.0498426334181
 20
-152.7948079045096
 10
126.0498426334181
 20
-152.365204497499
 10
126.0498426334181
 20
-152.365204497499
 10
125.952690940734
 20
-152.4055121146764
 10
125.9358099728563
 20
-152.4117132865498
 10
125.8893011838054
 20
-152.4306613117187
 10
125.8851670692231
 20
-152.4520209037273
 10
125.8806884450923
 20
-152.4816487249004
 10
125.8617404199234
 20
-152.4816487249004
 10
125.8531276812103
 20
-152.4816487249004
 10
125.8427923947545
 20
-152.4771701007696
 10
125.8362467133326
 20
-152.4540879610184
 10
125.8362467133326
 20
-152.4540879610184
 10
125.7835367524082
 20
-152.2615071233929
 10
125.7835367524082
 20
-152.2615071233929
 10
125.9292642914343
 20
-152.2149983343421
 10
125.9950656152026
 20
-152.1919161945909
 10
126.0498426334181
 20
-152.1705566025823
 10
126.0498426334181
 20
-152.1705566025823
 10
126.0498426334181
 20
-151.7581786729979
 10
126.0498426334181
 20
-151.7581786729979
 10
126.0498426334181
 20
-151.7581786729979
 10
125.9971326724937
 20
-151.7581786729979
 10
125.9971326724937
 20
-151.7581786729979
 10
125.9971326724937
 20
-151.7581786729979
 10
125.9189290049786
 20
-151.7581786729979
 10
125.9189290049786
 20
-151.7581786729979
 10
125.8510606239191
 20
-151.7581786729979
 10
125.8427923947545
 20
-151.7581786729979
 10
125.8066188921594
 20
-151.7643798448714
 10
125.8066188921594
 20
-151.7643798448714
 10
125.8066188921594
 20
-151.5697319499548
 10
125.8066188921594
 20
-151.5697319499548
 10
125.8341796560414
 20
-151.5762776313767
 10
125.8427923947545
 20
-151.5762776313767
 10
125.9123833235566
 20
-151.5762776313767
 10
125.9123833235566
 20
-151.5762776313767
 10
126.0457085188358
 20
-151.5762776313767
 10
126.0457085188358
 20
-151.5762776313767
 10
126.0457085188358
 20
-151.5063421930262
 10
126.0457085188358
 20
-151.4236599013802
 10
126.0436414615446
 20
-151.4195257867979
 10
126.03537323238
 20
-151.2396918024678
 10
126.03537323238
 20
-151.220743777299
 10
126.0329616655403
 20
-151.1742349882481
 10
126.0329616655403
 20
-151.1742349882481
 10
126.2489691524655
 20
-151.1825032174127
 10
126.2489691524655
 20
-151.1825032174127
 10
126.2593044389213
 20
-151.1825032174127
 10
126.2806640309298
 20
-151.1849147842523
 10
126.2806640309298
 20
-151.2017957521301
 10
126.2806640309298
 20
-151.220743777299
 10
126.2658501203432
 20
-151.2314235733032
 10
126.2403564137524
 20
-151.2503715984721
 10
126.2403564137524
 20
-151.3010145021053
 10
126.2341552418789
 20
-151.5297688423259
 10
126.2362222991701
 20
-151.5762776313767
 10
126.3650688703184
 20
-151.5762776313767
 10
126.3778157236139
 20
-151.5762776313767
 10
126.4753119258464
 20
-151.5676648926636
 10
126.4753119258464
 20
-151.5676648926636
 10
126.4753119258464
 20
-151.7623127875802
 10
126.4753119258464
 20
-151.7623127875802
 10
126.4370713659602
 20
-151.7602457302891
 10
126.3695474944493
 20
-151.7561116157068
 10
126.2341552418789
 20
-151.7581786729979
 10
126.2341552418789
 20
-151.7581786729979
 10
126.2341552418789
 20
-152.0964870496495
 10
126.2341552418789
 20
-152.0964870496495
 10
126.2889322600944
 20
-152.0734049098983
 10
126.3547335838627
 20
-152.0458441460163
 10
126.4033094302047
 20
-152.0224174967166
 10
126.4033094302047
 20
-152.0224174967166
 10
126.4033094302047
 20
-151.8446505696777
 10
126.4033094302047
 20
-151.8446505696777
 10
126.517686600315
 20
-151.8573974229731
 10
126.6358533754591
 20
-151.8573974229731
 10
126.7522976028605
 20
-151.8573974229731
 10
126.7292154631094
 20
-151.7623127875802
 10
126.7016546992274
 20
-151.6796304959342
 10
126.6382649422987
 20
-151.5466498102036
 10
126.593823210539
 20
-151.5487168674947
 10
126.511140918893
 20
-151.552850982077
 10
126.4732448685553
 20
-151.5549180393682
 10
126.4732448685553
 20
-151.5549180393682
 10
126.4732448685553
 20
-151.3750840550381
 10
126.4732448685553
 20
-151.3750840550381
 10
126.5979573251213
 20
-151.3836967937513
 10
126.7712456280294
 20
-151.3878309083336
 10
126.8539279196754
 20
-151.3878309083336
 10
126.8539279196754
 20
-151.3878309083336
 10
126.9362657017728
 20
-151.3878309083336
 10
126.9362657017728
 20
-151.3878309083336
 10
126.9362657017728
 20
-151.2248778918813
 10
126.9362657017728
 20
-151.2145426054255
 10
126.9341986444817
 20
-151.1594210776615
 10
126.9341986444817
 20
-151.1594210776615
 10
127.1584743605715
 20
-151.1849147842523
 10
127.1584743605715
 20
-151.1849147842523
 10
127.1626084751538
 20
-151.1849147842523
 10
127.1839680671623
 20
-151.1869818415435
 10
127.1839680671623
 20
-151.2038628094212
 10
127.1839680671623
 20
-151.2186767200078
 10
127.1732882711581
 20
-151.2269449491724
 10
127.1457275072761
 20
-151.241758859759
 10
127.1395263354026
 20
-151.3075601835272
 10
127.1374592781115
 20
-151.3285752659873
 10
127.1374592781115
 20
-151.3878309083336
 10
127.1374592781115
 20
-151.3878309083336
 10
127.2325439135044
 20
-151.3878309083336
 10
127.2325439135044
 20
-151.3878309083336
 10
127.3152262051503
 20
-151.3878309083336
 10
127.4885145080584
 20
-151.3836967937513
 10
127.6132269646244
 20
-151.3750840550381
 10
127.6132269646244
 20
-151.3750840550381
 10
127.6132269646244
 20
-151.5549180393682
 10
127.6132269646244
 20
-151.5549180393682
 10
127.5835991434513
 20
-151.552850982077
 10
127.4654323683072
 20
-151.5487168674947
 10
127.4251247511298
 20
-151.5466498102036
 10
127.4103108405432
 20
-151.5972927138368
 10
127.3765489047878
 20
-151.7092583171074
 10
127.3107475810195
 20
-151.8491291938085
 10
127.3531222554881
 20
-151.8491291938085
 10
127.6304524420507
 20
-151.8298366590911
 10
127.6917751416881
 20
-151.8277696018
 10
127.6917751416881
 20
-151.8277696018
 10
127.6917751416881
 20
-152.0120822102609
 10
127.6917751416881
 20
-152.0120822102609
 10
127.662147320515
 20
-152.0120822102609
 10
127.6452663526373
 20
-152.00760358613
 10
127.482313336185
 20
-152.00760358613
 97
        0
 97
        1
330
154
 75
     2
 76
     1
 98
        1
 10
0.0
 20
0.0
450
        0
451
        0
460
0.0
461
0.0
452
        0
462
0.0
453
        0
470

  0
SPLINE
  5
156
330
14E
100
AcDbEntity
  8
レイヤー 1
100
AcDbSpline
210
0.0
220
0.0
230
1.0
 70
    11
 71
     3
 72
    17
 73
    13
 74
     0
 42
0.0000000001
 43
0.0000000001
 40
0.0
 40
0.0
 40
0.0
 40
0.0
 40
1.0
 40
1.0
 40
1.0
 40
2.0
 40
2.0
 40
2.0
 40
3.0
 40
3.0
 40
3.0
 40
4.0
 40
4.0
 40
4.0
 40
4.0
 10
129.3385307836376
 20
-152.8072102482565
 30
0.0
 10
129.3385307836376
 20
-152.8072102482565
 30
0.0
 10
128.6319416996128
 20
-152.8072102482565
 30
0.0
 10
128.6319416996128
 20
-152.8072102482565
 30
0.0
 10
128.6319416996128
 20
-152.8072102482565
 30
0.0
 10
128.6319416996128
 20
-152.9215874183668
 30
0.0
 10
128.6319416996128
 20
-152.9215874183668
 30
0.0
 10
128.6319416996128
 20
-152.9215874183668
 30
0.0
 10
129.3385307836376
 20
-152.9215874183668
 30
0.0
 10
129.3385307836376
 20
-152.9215874183668
 30
0.0
 10
129.3385307836376
 20
-152.9215874183668
 30
0.0
 10
129.3385307836376
 20
-152.8072102482565
 30
0.0
 10
129.3385307836376
 20
-152.8072102482565
 30
0.0
  0
SPLINE
  5
157
330
14E
100
AcDbEntity
  8
レイヤー 1
100
AcDbSpline
210
0.0
220
0.0
230
1.0
 70
    11
 71
     3
 72
    17
 73
    13
 74
     0
 42
0.0000000001
 43
0.0000000001
 40
0.0
 40
0.0
 40
0.0
 40
0.0
 40
1.0
 40
1.0
 40
1.0
 40
2.0
 40
2.0
 40
2.0
 40
3.0
 40
3.0
 40
3.0
 40
4.0
 40
4.0
 40
4.0
 40
4.0
 10
129.3385307836376
 20
-152.5639865069979
 30
0.0
 10
129.3385307836376
 20
-152.5639865069979
 30
0.0
 10
128.6319416996128
 20
-152.5639865069979
 30
0.0
 10
128.6319416996128
 20
-152.5639865069979
 30
0.0
 10
128.6319416996128
 20
-152.5639865069979
 30
0.0
 10
128.6319416996128
 20
-152.6783636771082
 30
0.0
 10
128.6319416996128
 20
-152.6783636771082
 30
0.0
 10
128.6319416996128
 20
-152.6783636771082
 30
0.0
 10
129.3385307836376
 20
-152.6783636771082
 30
0.0
 10
129.3385307836376
 20
-152.6783636771082
 30
0.0
 10
129.3385307836376
 20
-152.6783636771082
 30
0.0
 10
129.3385307836376
 20
-152.5639865069979
 30
0.0
 10
129.3385307836376
 20
-152.5639865069979
 30
0.0
  0
SPLINE
  5
158
330
14E
100
AcDbEntity
  8
レイヤー 1
100
AcDbSpline
210
0.0
220
0.0
230
1.0
 70
    11
 71
     3
 72
    17
 73
    13
 74
     0
 42
0.0000000001
 43
0.0000000001
 40
0.0
 40
0.0
 40
0.0
 40
0.0
 40
1.0
 40
1.0
 40
1.0
 40
2.0
 40
2.0
 40
2.0
 40
3.0
 40
3.0
 40
3.0
 40
4.0
 40
4.0
 40
4.0
 40
4.0
 10
129.3385307836376
 20
-152.3314425617435
 30
0.0
 10
129.3385307836376
 20
-152.3314425617435
 30
0.0
 10
128.6319416996128
 20
-152.3314425617435
 30
0.0
 10
128.6319416996128
 20
-152.3314425617435
 30
0.0
 10
128.6319416996128
 20
-152.3314425617435
 30
0.0
 10
128.6319416996128
 20
-152.4392740504318
 30
0.0
 10
128.6319416996128
 20
-152.4392740504318
 30
0.0
 10
128.6319416996128
 20
-152.4392740504318
 30
0.0
 10
129.3385307836376
 20
-152.4392740504318
 30
0.0
 10
129.3385307836376
 20
-152.4392740504318
 30
0.0
 10
129.3385307836376
 20
-152.4392740504318
 30
0.0
 10
129.3385307836376
 20
-152.3314425617435
 30
0.0
 10
129.3385307836376
 20
-152.3314425617435
 30
0.0
  0
SPLINE
  5
159
330
14E
100
AcDbEntity
  8
レイヤー 1
100
AcDbSpline
210
0.0
220
0.0
230
1.0
 70
     9
 71
     3
 72
   203
 73
   199
 74
     0
 42
0.0000000001
 43
0.0000000001
 40
0.0
 40
0.0
 40
0.0
 40
0.0
 40
1.0
 40
1.0
 40
1.0
 40
2.0
 40
2.0
 40
2.0
 40
3.0
 40
3.0
 40
3.0
 40
4.0
 40
4.0
 40
4.0
 40
5.0
 40
5.0
 40
5.0
 40
6.0
 40
6.0
 40
6.0
 40
7.0
 40
7.0
 40
7.0
 40
8.0
 40
8.0
 40
8.0
 40
9.0
 40
9.0
 40
9.0
 40
10.0
 40
10.0
 40
10.0
 40
11.0
 40
11.0
 40
11.0
 40
12.0
 40
12.0
 40
12.0
 40
13.0
 40
13.0
 40
13.0
 40
14.0
 40
14.0
 40
14.0
 40
15.0
 40
15.0
 40
15.0
 40
16.0
 40
16.0
 40
16.0
 40
17.0
 40
17.0
 40
17.0
 40
18.0
 40
18.0
 40
18.0
 40
19.0
 40
19.0
 40
19.0
 40
20.0
 40
20.0
 40
20.0
 40
21.0
 40
21.0
 40
21.0
 40
22.0
 40
22.0
 40
22.0
 40
23.0
 40
23.0
 40
23.0
 40
24.0
 40
24.0
 40
24.0
 40
25.0
 40
25.0
 40
25.0
 40
26.0
 40
26.0
 40
26.0
 40
27.0
 40
27.0
 40
27.0
 40
28.0
 40
28.0
 40
28.0
 40
29.0
 40
29.0
 40
29.0
 40
30.0
 40
30.0
 40
30.0
 40
31.0
 40
31.0
 40
31.0
 40
32.0
 40
32.0
 40
32.0
 40
33.0
 40
33.0
 40
33.0
 40
34.0
 40
34.0
 40
34.0
 40
35.0
 40
35.0
 40
35.0
 40
36.0
 40
36.0
 40
36.0
 40
37.0
 40
37.0
 40
37.0
 40
38.0
 40
38.0
 40
38.0
 40
39.0
 40
39.0
 40
39.0
 40
40.0
 40
40.0
 40
40.0
 40
41.0
 40
41.0
 40
41.0
 40
42.0
 40
42.0
 40
42.0
 40
43.0
 40
43.0
 40
43.0
 40
44.0
 40
44.0
 40
44.0
 40
45.0
 40
45.0
 40
45.0
 40
46.0
 40
46.0
 40
46.0
 40
47.0
 40
47.0
 40
47.0
 40
48.0
 40
48.0
 40
48.0
 40
49.0
 40
49.0
 40
49.0
 40
50.0
 40
50.0
 40
50.0
 40
51.0
 40
51.0
 40
51.0
 40
52.0
 40
52.0
 40
52.0
 40
53.0
 40
53.0
 40
53.0
 40
54.0
 40
54.0
 40
54.0
 40
55.0
 40
55.0
 40
55.0
 40
56.0
 40
56.0
 40
56.0
 40
57.0
 40
57.0
 40
57.0
 40
58.0
 40
58.0
 40
58.0
 40
59.0
 40
59.0
 40
59.0
 40
60.0
 40
60.0
 40
60.0
 40
61.0
 40
61.0
 40
61.0
 40
62.0
 40
62.0
 40
62.0
 40
63.0
 40
63.0
 40
63.0
 40
64.0
 40
64.0
 40
64.0
 40
65.0
 40
65.0
 40
65.0
 40
66.0
 40
66.0
 40
66.0
 40
66.0
 10
129.1735107098941
 20
-152.0754719671895
 30
0.0
 10
129.1735107098941
 20
-152.0754719671895
 30
0.0
 10
128.6150607317351
 20
-152.0754719671895
 30
0.0
 10
128.6150607317351
 20
-152.0754719671895
 30
0.0
 10
128.6047254452793
 20
-152.1199136989492
 30
0.0
 10
128.5961127065662
 20
-152.1516085774135
 30
0.0
 10
128.5833658532708
 20
-152.1895046277512
 30
0.0
 10
128.6088595598616
 20
-152.1895046277512
 30
0.0
 10
128.6236734704482
 20
-152.1919161945909
 30
0.0
 10
128.6298746423217
 20
-152.1919161945909
 30
0.0
 10
128.6298746423217
 20
-152.1919161945909
 30
0.0
 10
128.8183213653649
 20
-152.1919161945909
 30
0.0
 10
128.8183213653649
 20
-152.1919161945909
 30
0.0
 10
128.8183213653649
 20
-152.1919161945909
 30
0.0
 10
129.1928032446115
 20
-152.1919161945909
 30
0.0
 10
129.1928032446115
 20
-152.1919161945909
 30
0.0
 10
129.2434461482447
 20
-152.1919161945909
 30
0.0
 10
129.5269775066807
 20
-152.1791693412955
 30
0.0
 10
129.558672385145
 20
-152.1791693412955
 30
0.0
 10
129.5566053278539
 20
-152.206385595629
 30
0.0
 10
129.5545382705628
 20
-152.2256781303463
 30
0.0
 10
129.5545382705628
 20
-152.2553059515195
 30
0.0
 10
129.5524712132716
 20
-152.2870008299838
 30
0.0
 10
129.5524712132716
 20
-152.4223930825541
 30
0.0
 10
129.5524712132716
 20
-152.4499538464361
 30
0.0
 10
129.5524712132716
 20
-152.4499538464361
 30
0.0
 10
129.5524712132716
 20
-152.6952446449859
 30
0.0
 10
129.5524712132716
 20
-152.6952446449859
 30
0.0
 10
129.5524712132716
 20
-152.7396863767456
 30
0.0
 10
129.5566053278539
 20
-152.9364013289534
 30
0.0
 10
129.5607394424362
 20
-153.0886745494014
 30
0.0
 10
129.5607394424362
 20
-153.0886745494014
 30
0.0
 10
129.3343966690553
 20
-153.0886745494014
 30
0.0
 10
129.3343966690553
 20
-153.0886745494014
 30
0.0
 10
129.3343966690553
 20
-153.0886745494014
 30
0.0
 10
129.3364637263464
 20
-153.054912613646
 30
0.0
 10
129.3364637263464
 20
-153.054912613646
 30
0.0
 10
129.3364637263464
 20
-153.054912613646
 30
0.0
 10
128.6343532664525
 20
-153.054912613646
 30
0.0
 10
128.6343532664525
 20
-153.054912613646
 30
0.0
 10
128.6343532664525
 20
-153.054912613646
 30
0.0
 10
128.6364203237437
 20
-153.0886745494014
 30
0.0
 10
128.6364203237437
 20
-153.0886745494014
 30
0.0
 10
128.6364203237437
 20
-153.0886745494014
 30
0.0
 10
128.4183457795273
 20
-153.0886745494014
 30
0.0
 10
128.4183457795273
 20
-153.0886745494014
 30
0.0
 10
128.4228244036581
 20
-153.0335530216374
 30
0.0
 10
128.4228244036581
 20
-153.0211506778905
 30
0.0
 10
128.4290255755316
 20
-152.9067735077802
 30
0.0
 10
128.4310926328227
 20
-152.8792127438982
 30
0.0
 10
128.4331596901139
 20
-152.7458875486191
 30
0.0
 10
128.4331596901139
 20
-152.7269395234502
 30
0.0
 10
128.4331596901139
 20
-152.7269395234502
 30
0.0
 10
128.4331596901139
 20
-152.524023399369
 30
0.0
 10
128.4331596901139
 20
-152.524023399369
 30
0.0
 10
128.2936333229613
 20
-152.7734483125011
 30
0.0
 10
128.1244791346355
 20
-152.9047064504891
 30
0.0
 10
128.0187147032384
 20
-152.9701632647088
 30
0.0
 10
128.0187147032384
 20
-152.9701632647088
 30
0.0
 10
127.8450818907818
 20
-152.8306368975562
 30
0.0
 10
127.8450818907818
 20
-152.8306368975562
 30
0.0
 10
127.9339653543012
 20
-152.779993993923
 30
0.0
 10
128.0779703455847
 20
-152.6931775876948
 30
0.0
 10
128.2154296554461
 20
-152.4985296927781
 30
0.0
 10
128.3063801762567
 20
-152.3714056693724
 30
0.0
 10
128.3718369904764
 20
-152.2277451876375
 30
0.0
 10
128.4055989262319
 20
-152.0754719671895
 30
0.0
 10
128.1771890955598
 20
-152.0775390244806
 30
0.0
 10
127.9973551112298
 20
-152.0837401963541
 30
0.0
 10
127.9022704758369
 20
-152.0858072536452
 30
0.0
 10
127.9022704758369
 20
-152.0858072536452
 30
0.0
 10
127.9022704758369
 20
-151.9083848361548
 30
0.0
 10
127.9022704758369
 20
-151.9083848361548
 30
0.0
 10
128.0989854280447
 20
-151.9145860080283
 30
0.0
 10
128.3825167864808
 20
-151.9187201226106
 30
0.0
 10
128.5327229496376
 20
-151.9187201226106
 30
0.0
 10
128.5327229496376
 20
-151.9187201226106
 30
0.0
 10
128.7463188697231
 20
-151.9187201226106
 30
0.0
 10
128.7463188697231
 20
-151.9187201226106
 30
0.0
 10
128.7463188697231
 20
-151.9187201226106
 30
0.0
 10
128.7463188697231
 20
-151.8108886339222
 30
0.0
 10
128.7463188697231
 20
-151.8108886339222
 30
0.0
 10
128.7463188697231
 20
-151.8108886339222
 30
0.0
 10
128.6002468211485
 20
-151.8108886339222
 30
0.0
 10
128.6002468211485
 20
-151.8108886339222
 30
0.0
 10
128.4310926328227
 20
-151.8108886339222
 30
0.0
 10
128.261938444497
 20
-151.8150227485046
 30
0.0
 10
128.0948513134624
 20
-151.8215684299265
 30
0.0
 10
128.0948513134624
 20
-151.8215684299265
 30
0.0
 10
128.0948513134624
 20
-151.6503471843096
 30
0.0
 10
128.0948513134624
 20
-151.6503471843096
 30
0.0
 10
128.2491915912016
 20
-151.6606824707654
 30
0.0
 10
128.4352267474051
 20
-151.6606824707654
 30
0.0
 10
128.6002468211485
 20
-151.6606824707654
 30
0.0
 10
128.6002468211485
 20
-151.6606824707654
 30
0.0
 10
128.7463188697231
 20
-151.6606824707654
 30
0.0
 10
128.7463188697231
 20
-151.6606824707654
 30
0.0
 10
128.7463188697231
 20
-151.6606824707654
 30
0.0
 10
128.7463188697231
 20
-151.5421711860728
 30
0.0
 10
128.7463188697231
 20
-151.5421711860728
 30
0.0
 10
128.7463188697231
 20
-151.5421711860728
 30
0.0
 10
128.6150607317351
 20
-151.5421711860728
 30
0.0
 10
128.6150607317351
 20
-151.5421711860728
 30
0.0
 10
128.5685519426842
 20
-151.5421711860728
 30
0.0
 10
128.365635818603
 20
-151.5507839247859
 30
0.0
 10
128.3232611441345
 20
-151.5507839247859
 30
0.0
 10
128.1200005105047
 20
-151.5549180393682
 30
0.0
 10
128.0438639002807
 20
-151.5569850966593
 30
0.0
 10
127.9656602327655
 20
-151.5590521539505
 30
0.0
 10
127.9656602327655
 20
-151.5590521539505
 30
0.0
 10
127.9656602327655
 20
-151.3750840550381
 30
0.0
 10
127.9656602327655
 20
-151.3750840550381
 30
0.0
 10
128.0800374028758
 20
-151.3836967937513
 30
0.0
 10
128.1244791346355
 20
-151.3836967937513
 30
0.0
 10
128.5072292430468
 20
-151.3919650229159
 30
0.0
 10
128.4438394861182
 20
-151.296880387523
 30
0.0
 10
128.4162787222362
 20
-151.269319623641
 30
0.0
 10
128.3804497291896
 20
-151.2334906305944
 30
0.0
 10
128.3804497291896
 20
-151.2334906305944
 30
0.0
 10
128.5558050893888
 20
-151.1508083389484
 30
0.0
 10
128.5558050893888
 20
-151.1508083389484
 30
0.0
 10
128.5961127065662
 20
-151.1869818415435
 30
0.0
 10
128.640554438326
 20
-151.2293565160121
 30
0.0
 10
128.7146239912588
 20
-151.3392550619916
 30
0.0
 10
128.7146239912588
 20
-151.3392550619916
 30
0.0
 10
128.6002468211485
 20
-151.394032080207
 30
0.0
 10
128.6002468211485
 20
-151.394032080207
 30
0.0
 10
128.6002468211485
 20
-151.394032080207
 30
0.0
 10
128.6109266171528
 20
-151.394032080207
 30
0.0
 10
128.6109266171528
 20
-151.394032080207
 30
0.0
 10
128.6109266171528
 20
-151.394032080207
 30
0.0
 10
129.1335476022652
 20
-151.394032080207
 30
0.0
 10
129.1335476022652
 20
-151.394032080207
 30
0.0
 10
129.1335476022652
 20
-151.394032080207
 30
0.0
 10
129.0381184573238
 20
-151.3499348579958
 30
0.0
 10
129.0381184573238
 20
-151.3499348579958
 30
0.0
 10
129.0656792212058
 20
-151.3116942981096
 30
0.0
 10
129.1228678062609
 20
-151.2314235733032
 30
0.0
 10
129.1376817168475
 20
-151.1573540203704
 30
0.0
 10
129.1376817168475
 20
-151.1573540203704
 30
0.0
 10
129.351277636933
 20
-151.220743777299
 30
0.0
 10
129.351277636933
 20
-151.220743777299
 30
0.0
 10
129.3598903756461
 20
-151.2228108345901
 30
0.0
 10
129.3809054581061
 20
-151.2334906305944
 30
0.0
 10
129.3809054581061
 20
-151.2545057130544
 30
0.0
 10
129.3809054581061
 20
-151.2927462729407
 30
0.0
 10
129.3154486438864
 20
-151.2927462729407
 30
0.0
 10
129.2965006187175
 20
-151.2927462729407
 30
0.0
 10
129.2858208227132
 20
-151.3116942981096
 30
0.0
 10
129.2623941734136
 20
-151.352001915287
 30
0.0
 10
129.2327663522404
 20
-151.3919650229159
 30
0.0
 10
129.6327419380779
 20
-151.3857638510424
 30
0.0
 10
129.662369759251
 20
-151.3836967937513
 30
0.0
 10
129.7385063694751
 20
-151.3771511123293
 30
0.0
 10
129.7385063694751
 20
-151.3771511123293
 30
0.0
 10
129.7385063694751
 20
-151.5590521539505
 30
0.0
 10
129.7385063694751
 20
-151.5590521539505
 30
0.0
 10
129.7195583443062
 20
-151.5590521539505
 30
0.0
 10
129.6940646377153
 20
-151.5569850966593
 30
0.0
 10
129.4739230362079
 20
-151.5487168674947
 30
0.0
 10
129.4232801325747
 20
-151.5466498102036
 30
0.0
 10
129.2031385310673
 20
-151.5421711860728
 30
0.0
 10
129.1586967993075
 20
-151.5421711860728
 30
0.0
 10
129.1586967993075
 20
-151.5421711860728
 30
0.0
 10
128.9430338219309
 20
-151.5421711860728
 30
0.0
 10
128.9430338219309
 20
-151.5421711860728
 30
0.0
 10
128.9430338219309
 20
-151.5421711860728
 30
0.0
 10
128.9430338219309
 20
-151.6606824707654
 30
0.0
 10
128.9430338219309
 20
-151.6606824707654
 30
0.0
 10
128.9430338219309
 20
-151.6606824707654
 30
0.0
 10
129.1166666343875
 20
-151.6606824707654
 30
0.0
 10
129.1166666343875
 20
-151.6606824707654
 30
0.0
 10
129.2792751412913
 20
-151.6606824707654
 30
0.0
 10
129.4697889216256
 20
-151.6606824707654
 30
0.0
 10
129.6265407662045
 20
-151.6503471843096
 30
0.0
 10
129.6265407662045
 20
-151.6503471843096
 30
0.0
 10
129.6265407662045
 20
-151.8215684299265
 30
0.0
 10
129.6265407662045
 20
-151.8215684299265
 30
0.0
 10
129.4170789607013
 20
-151.8129556912134
 30
0.0
 10
129.2203640084935
 20
-151.8108886339222
 30
0.0
 10
129.1166666343875
 20
-151.8108886339222
 30
0.0
 10
129.1166666343875
 20
-151.8108886339222
 30
0.0
 10
128.9430338219309
 20
-151.8108886339222
 30
0.0
 10
128.9430338219309
 20
-151.8108886339222
 30
0.0
 10
128.9430338219309
 20
-151.8108886339222
 30
0.0
 10
128.9430338219309
 20
-151.9187201226106
 30
0.0
 10
128.9430338219309
 20
-151.9187201226106
 30
0.0
 10
128.9430338219309
 20
-151.9187201226106
 30
0.0
 10
129.1735107098941
 20
-151.9187201226106
 30
0.0
 10
129.1735107098941
 20
-151.9187201226106
 30
0.0
 10
129.3068359051733
 20
-151.9187201226106
 30
0.0
 10
129.5945013781916
 20
-151.9145860080283
 30
0.0
 10
129.8039631836948
 20
-151.9083848361548
 30
0.0
 10
129.8039631836948
 20
-151.9083848361548
 30
0.0
 10
129.8039631836948
 20
-152.0858072536452
 30
0.0
 10
129.8039631836948
 20
-152.0858072536452
 30
0.0
 10
129.6117268556179
 20
-152.0796060817717
 30
0.0
 10
129.2985676760087
 20
-152.0754719671895
 30
0.0
 10
129.1735107098941
 20
-152.0754719671895
 30
0.0
  0
HATCH
  5
15A
330
14E
100
AcDbEntity
  8
レイヤー 1
 62
    18
420
        0
440
 33554687
100
AcDbHatch
 10
0.0
 20
0.0
 30
0.0
210
0.0
220
0.0
230
1.0
  2
SOLID
 70
     1
 71
     1
 91
        4
 92
        1
 93
        1
 72
     4
 94
        3
 73
     0
 74
     0
 95
       17
 96
       13
 40
0.0
 40
0.0
 40
0.0
 40
0.0
 40
1.0
 40
1.0
 40
1.0
 40
2.0
 40
2.0
 40
2.0
 40
3.0
 40
3.0
 40
3.0
 40
4.0
 40
4.0
 40
4.0
 40
4.0
 10
129.3385307836376
 20
-152.8072102482565
 10
129.3385307836376
 20
-152.8072102482565
 10
128.6319416996128
 20
-152.8072102482565
 10
128.6319416996128
 20
-152.8072102482565
 10
128.6319416996128
 20
-152.8072102482565
 10
128.6319416996128
 20
-152.9215874183668
 10
128.6319416996128
 20
-152.9215874183668
 10
128.6319416996128
 20
-152.9215874183668
 10
129.3385307836376
 20
-152.9215874183668
 10
129.3385307836376
 20
-152.9215874183668
 10
129.3385307836376
 20
-152.9215874183668
 10
129.3385307836376
 20
-152.8072102482565
 10
129.3385307836376
 20
-152.8072102482565
 97
        0
 97
        1
330
156
 92
        1
 93
        1
 72
     4
 94
        3
 73
     0
 74
     0
 95
       17
 96
       13
 40
0.0
 40
0.0
 40
0.0
 40
0.0
 40
1.0
 40
1.0
 40
1.0
 40
2.0
 40
2.0
 40
2.0
 40
3.0
 40
3.0
 40
3.0
 40
4.0
 40
4.0
 40
4.0
 40
4.0
 10
129.3385307836376
 20
-152.5639865069979
 10
129.3385307836376
 20
-152.5639865069979
 10
128.6319416996128
 20
-152.5639865069979
 10
128.6319416996128
 20
-152.5639865069979
 10
128.6319416996128
 20
-152.5639865069979
 10
128.6319416996128
 20
-152.6783636771082
 10
128.6319416996128
 20
-152.6783636771082
 10
128.6319416996128
 20
-152.6783636771082
 10
129.3385307836376
 20
-152.6783636771082
 10
129.3385307836376
 20
-152.6783636771082
 10
129.3385307836376
 20
-152.6783636771082
 10
129.3385307836376
 20
-152.5639865069979
 10
129.3385307836376
 20
-152.5639865069979
 97
        0
 97
        1
330
157
 92
        1
 93
        1
 72
     4
 94
        3
 73
     0
 74
     0
 95
       17
 96
       13
 40
0.0
 40
0.0
 40
0.0
 40
0.0
 40
1.0
 40
1.0
 40
1.0
 40
2.0
 40
2.0
 40
2.0
 40
3.0
 40
3.0
 40
3.0
 40
4.0
 40
4.0
 40
4.0
 40
4.0
 10
129.3385307836376
 20
-152.3314425617435
 10
129.3385307836376
 20
-152.3314425617435
 10
128.6319416996128
 20
-152.3314425617435
 10
128.6319416996128
 20
-152.3314425617435
 10
128.6319416996128
 20
-152.3314425617435
 10
128.6319416996128
 20
-152.4392740504318
 10
128.6319416996128
 20
-152.4392740504318
 10
128.6319416996128
 20
-152.4392740504318
 10
129.3385307836376
 20
-152.4392740504318
 10
129.3385307836376
 20
-152.4392740504318
 10
129.3385307836376
 20
-152.4392740504318
 10
129.3385307836376
 20
-152.3314425617435
 10
129.3385307836376
 20
-152.3314425617435
 97
        0
 97
        1
330
158
 92
        1
 93
        1
 72
     4
 94
        3
 73
     0
 74
     0
 95
      203
 96
      199
 40
0.0
 40
0.0
 40
0.0
 40
0.0
 40
1.0
 40
1.0
 40
1.0
 40
2.0
 40
2.0
 40
2.0
 40
3.0
 40
3.0
 40
3.0
 40
4.0
 40
4.0
 40
4.0
 40
5.0
 40
5.0
 40
5.0
 40
6.0
 40
6.0
 40
6.0
 40
7.0
 40
7.0
 40
7.0
 40
8.0
 40
8.0
 40
8.0
 40
9.0
 40
9.0
 40
9.0
 40
10.0
 40
10.0
 40
10.0
 40
11.0
 40
11.0
 40
11.0
 40
12.0
 40
12.0
 40
12.0
 40
13.0
 40
13.0
 40
13.0
 40
14.0
 40
14.0
 40
14.0
 40
15.0
 40
15.0
 40
15.0
 40
16.0
 40
16.0
 40
16.0
 40
17.0
 40
17.0
 40
17.0
 40
18.0
 40
18.0
 40
18.0
 40
19.0
 40
19.0
 40
19.0
 40
20.0
 40
20.0
 40
20.0
 40
21.0
 40
21.0
 40
21.0
 40
22.0
 40
22.0
 40
22.0
 40
23.0
 40
23.0
 40
23.0
 40
24.0
 40
24.0
 40
24.0
 40
25.0
 40
25.0
 40
25.0
 40
26.0
 40
26.0
 40
26.0
 40
27.0
 40
27.0
 40
27.0
 40
28.0
 40
28.0
 40
28.0
 40
29.0
 40
29.0
 40
29.0
 40
30.0
 40
30.0
 40
30.0
 40
31.0
 40
31.0
 40
31.0
 40
32.0
 40
32.0
 40
32.0
 40
33.0
 40
33.0
 40
33.0
 40
34.0
 40
34.0
 40
34.0
 40
35.0
 40
35.0
 40
35.0
 40
36.0
 40
36.0
 40
36.0
 40
37.0
 40
37.0
 40
37.0
 40
38.0
 40
38.0
 40
38.0
 40
39.0
 40
39.0
 40
39.0
 40
40.0
 40
40.0
 40
40.0
 40
41.0
 40
41.0
 40
41.0
 40
42.0
 40
42.0
 40
42.0
 40
43.0
 40
43.0
 40
43.0
 40
44.0
 40
44.0
 40
44.0
 40
45.0
 40
45.0
 40
45.0
 40
46.0
 40
46.0
 40
46.0
 40
47.0
 40
47.0
 40
47.0
 40
48.0
 40
48.0
 40
48.0
 40
49.0
 40
49.0
 40
49.0
 40
50.0
 40
50.0
 40
50.0
 40
51.0
 40
51.0
 40
51.0
 40
52.0
 40
52.0
 40
52.0
 40
53.0
 40
53.0
 40
53.0
 40
54.0
 40
54.0
 40
54.0
 40
55.0
 40
55.0
 40
55.0
 40
56.0
 40
56.0
 40
56.0
 40
57.0
 40
57.0
 40
57.0
 40
58.0
 40
58.0
 40
58.0
 40
59.0
 40
59.0
 40
59.0
 40
60.0
 40
60.0
 40
60.0
 40
61.0
 40
61.0
 40
61.0
 40
62.0
 40
62.0
 40
62.0
 40
63.0
 40
63.0
 40
63.0
 40
64.0
 40
64.0
 40
64.0
 40
65.0
 40
65.0
 40
65.0
 40
66.0
 40
66.0
 40
66.0
 40
66.0
 10
129.1735107098941
 20
-152.0754719671895
 10
129.1735107098941
 20
-152.0754719671895
 10
128.6150607317351
 20
-152.0754719671895
 10
128.6150607317351
 20
-152.0754719671895
 10
128.6047254452793
 20
-152.1199136989492
 10
128.5961127065662
 20
-152.1516085774135
 10
128.5833658532708
 20
-152.1895046277512
 10
128.6088595598616
 20
-152.1895046277512
 10
128.6236734704482
 20
-152.1919161945909
 10
128.6298746423217
 20
-152.1919161945909
 10
128.6298746423217
 20
-152.1919161945909
 10
128.8183213653649
 20
-152.1919161945909
 10
128.8183213653649
 20
-152.1919161945909
 10
128.8183213653649
 20
-152.1919161945909
 10
129.1928032446115
 20
-152.1919161945909
 10
129.1928032446115
 20
-152.1919161945909
 10
129.2434461482447
 20
-152.1919161945909
 10
129.5269775066807
 20
-152.1791693412955
 10
129.558672385145
 20
-152.1791693412955
 10
129.5566053278539
 20
-152.206385595629
 10
129.5545382705628
 20
-152.2256781303463
 10
129.5545382705628
 20
-152.2553059515195
 10
129.5524712132716
 20
-152.2870008299838
 10
129.5524712132716
 20
-152.4223930825541
 10
129.5524712132716
 20
-152.4499538464361
 10
129.5524712132716
 20
-152.4499538464361
 10
129.5524712132716
 20
-152.6952446449859
 10
129.5524712132716
 20
-152.6952446449859
 10
129.5524712132716
 20
-152.7396863767456
 10
129.5566053278539
 20
-152.9364013289534
 10
129.5607394424362
 20
-153.0886745494014
 10
129.5607394424362
 20
-153.0886745494014
 10
129.3343966690553
 20
-153.0886745494014
 10
129.3343966690553
 20
-153.0886745494014
 10
129.3343966690553
 20
-153.0886745494014
 10
129.3364637263464
 20
-153.054912613646
 10
129.3364637263464
 20
-153.054912613646
 10
129.3364637263464
 20
-153.054912613646
 10
128.6343532664525
 20
-153.054912613646
 10
128.6343532664525
 20
-153.054912613646
 10
128.6343532664525
 20
-153.054912613646
 10
128.6364203237437
 20
-153.0886745494014
 10
128.6364203237437
 20
-153.0886745494014
 10
128.6364203237437
 20
-153.0886745494014
 10
128.4183457795273
 20
-153.0886745494014
 10
128.4183457795273
 20
-153.0886745494014
 10
128.4228244036581
 20
-153.0335530216374
 10
128.4228244036581
 20
-153.0211506778905
 10
128.4290255755316
 20
-152.9067735077802
 10
128.4310926328227
 20
-152.8792127438982
 10
128.4331596901139
 20
-152.7458875486191
 10
128.4331596901139
 20
-152.7269395234502
 10
128.4331596901139
 20
-152.7269395234502
 10
128.4331596901139
 20
-152.524023399369
 10
128.4331596901139
 20
-152.524023399369
 10
128.2936333229613
 20
-152.7734483125011
 10
128.1244791346355
 20
-152.9047064504891
 10
128.0187147032384
 20
-152.9701632647088
 10
128.0187147032384
 20
-152.9701632647088
 10
127.8450818907818
 20
-152.8306368975562
 10
127.8450818907818
 20
-152.8306368975562
 10
127.9339653543012
 20
-152.779993993923
 10
128.0779703455847
 20
-152.6931775876948
 10
128.2154296554461
 20
-152.4985296927781
 10
128.3063801762567
 20
-152.3714056693724
 10
128.3718369904764
 20
-152.2277451876375
 10
128.4055989262319
 20
-152.0754719671895
 10
128.1771890955598
 20
-152.0775390244806
 10
127.9973551112298
 20
-152.0837401963541
 10
127.9022704758369
 20
-152.0858072536452
 10
127.9022704758369
 20
-152.0858072536452
 10
127.9022704758369
 20
-151.9083848361548
 10
127.9022704758369
 20
-151.9083848361548
 10
128.0989854280447
 20
-151.9145860080283
 10
128.3825167864808
 20
-151.9187201226106
 10
128.5327229496376
 20
-151.9187201226106
 10
128.5327229496376
 20
-151.9187201226106
 10
128.7463188697231
 20
-151.9187201226106
 10
128.7463188697231
 20
-151.9187201226106
 10
128.7463188697231
 20
-151.9187201226106
 10
128.7463188697231
 20
-151.8108886339222
 10
128.7463188697231
 20
-151.8108886339222
 10
128.7463188697231
 20
-151.8108886339222
 10
128.6002468211485
 20
-151.8108886339222
 10
128.6002468211485
 20
-151.8108886339222
 10
128.4310926328227
 20
-151.8108886339222
 10
128.261938444497
 20
-151.8150227485046
 10
128.0948513134624
 20
-151.8215684299265
 10
128.0948513134624
 20
-151.8215684299265
 10
128.0948513134624
 20
-151.6503471843096
 10
128.0948513134624
 20
-151.6503471843096
 10
128.2491915912016
 20
-151.6606824707654
 10
128.4352267474051
 20
-151.6606824707654
 10
128.6002468211485
 20
-151.6606824707654
 10
128.6002468211485
 20
-151.6606824707654
 10
128.7463188697231
 20
-151.6606824707654
 10
128.7463188697231
 20
-151.6606824707654
 10
128.7463188697231
 20
-151.6606824707654
 10
128.7463188697231
 20
-151.5421711860728
 10
128.7463188697231
 20
-151.5421711860728
 10
128.7463188697231
 20
-151.5421711860728
 10
128.6150607317351
 20
-151.5421711860728
 10
128.6150607317351
 20
-151.5421711860728
 10
128.5685519426842
 20
-151.5421711860728
 10
128.365635818603
 20
-151.5507839247859
 10
128.3232611441345
 20
-151.5507839247859
 10
128.1200005105047
 20
-151.5549180393682
 10
128.0438639002807
 20
-151.5569850966593
 10
127.9656602327655
 20
-151.5590521539505
 10
127.9656602327655
 20
-151.5590521539505
 10
127.9656602327655
 20
-151.3750840550381
 10
127.9656602327655
 20
-151.3750840550381
 10
128.0800374028758
 20
-151.3836967937513
 10
128.1244791346355
 20
-151.3836967937513
 10
128.5072292430468
 20
-151.3919650229159
 10
128.4438394861182
 20
-151.296880387523
 10
128.4162787222362
 20
-151.269319623641
 10
128.3804497291896
 20
-151.2334906305944
 10
128.3804497291896
 20
-151.2334906305944
 10
128.5558050893888
 20
-151.1508083389484
 10
128.5558050893888
 20
-151.1508083389484
 10
128.5961127065662
 20
-151.1869818415435
 10
128.640554438326
 20
-151.2293565160121
 10
128.7146239912588
 20
-151.3392550619916
 10
128.7146239912588
 20
-151.3392550619916
 10
128.6002468211485
 20
-151.394032080207
 10
128.6002468211485
 20
-151.394032080207
 10
128.6002468211485
 20
-151.394032080207
 10
128.6109266171528
 20
-151.394032080207
 10
128.6109266171528
 20
-151.394032080207
 10
128.6109266171528
 20
-151.394032080207
 10
129.1335476022652
 20
-151.394032080207
 10
129.1335476022652
 20
-151.394032080207
 10
129.1335476022652
 20
-151.394032080207
 10
129.0381184573238
 20
-151.3499348579958
 10
129.0381184573238
 20
-151.3499348579958
 10
129.0656792212058
 20
-151.3116942981096
 10
129.1228678062609
 20
-151.2314235733032
 10
129.1376817168475
 20
-151.1573540203704
 10
129.1376817168475
 20
-151.1573540203704
 10
129.351277636933
 20
-151.220743777299
 10
129.351277636933
 20
-151.220743777299
 10
129.3598903756461
 20
-151.2228108345901
 10
129.3809054581061
 20
-151.2334906305944
 10
129.3809054581061
 20
-151.2545057130544
 10
129.3809054581061
 20
-151.2927462729407
 10
129.3154486438864
 20
-151.2927462729407
 10
129.2965006187175
 20
-151.2927462729407
 10
129.2858208227132
 20
-151.3116942981096
 10
129.2623941734136
 20
-151.352001915287
 10
129.2327663522404
 20
-151.3919650229159
 10
129.6327419380779
 20
-151.3857638510424
 10
129.662369759251
 20
-151.3836967937513
 10
129.7385063694751
 20
-151.3771511123293
 10
129.7385063694751
 20
-151.3771511123293
 10
129.7385063694751
 20
-151.5590521539505
 10
129.7385063694751
 20
-151.5590521539505
 10
129.7195583443062
 20
-151.5590521539505
 10
129.6940646377153
 20
-151.5569850966593
 10
129.4739230362079
 20
-151.5487168674947
 10
129.4232801325747
 20
-151.5466498102036
 10
129.2031385310673
 20
-151.5421711860728
 10
129.1586967993075
 20
-151.5421711860728
 10
129.1586967993075
 20
-151.5421711860728
 10
128.9430338219309
 20
-151.5421711860728
 10
128.9430338219309
 20
-151.5421711860728
 10
128.9430338219309
 20
-151.5421711860728
 10
128.9430338219309
 20
-151.6606824707654
 10
128.9430338219309
 20
-151.6606824707654
 10
128.9430338219309
 20
-151.6606824707654
 10
129.1166666343875
 20
-151.6606824707654
 10
129.1166666343875
 20
-151.6606824707654
 10
129.2792751412913
 20
-151.6606824707654
 10
129.4697889216256
 20
-151.6606824707654
 10
129.6265407662045
 20
-151.6503471843096
 10
129.6265407662045
 20
-151.6503471843096
 10
129.6265407662045
 20
-151.8215684299265
 10
129.6265407662045
 20
-151.8215684299265
 10
129.4170789607013
 20
-151.8129556912134
 10
129.2203640084935
 20
-151.8108886339222
 10
129.1166666343875
 20
-151.8108886339222
 10
129.1166666343875
 20
-151.8108886339222
 10
128.9430338219309
 20
-151.8108886339222
 10
128.9430338219309
 20
-151.8108886339222
 10
128.9430338219309
 20
-151.8108886339222
 10
128.9430338219309
 20
-151.9187201226106
 10
128.9430338219309
 20
-151.9187201226106
 10
128.9430338219309
 20
-151.9187201226106
 10
129.1735107098941
 20
-151.9187201226106
 10
129.1735107098941
 20
-151.9187201226106
 10
129.3068359051733
 20
-151.9187201226106
 10
129.5945013781916
 20
-151.9145860080283
 10
129.8039631836948
 20
-151.9083848361548
 10
129.8039631836948
 20
-151.9083848361548
 10
129.8039631836948
 20
-152.0858072536452
 10
129.8039631836948
 20
-152.0858072536452
 10
129.6117268556179
 20
-152.0796060817717
 10
129.2985676760087
 20
-152.0754719671895
 10
129.1735107098941
 20
-152.0754719671895
 97
        0
 97
        1
330
159
 75
     2
 76
     1
 98
        1
 10
0.0
 20
0.0
450
        0
451
        0
460
0.0
461
0.0
452
        0
462
0.0
453
        0
470

  0
SPLINE
  5
15B
330
14E
100
AcDbEntity
  8
レイヤー 1
100
AcDbSpline
210
0.0
220
0.0
230
1.0
 70
     9
 71
     3
 72
    29
 73
    25
 74
     0
 42
0.0000000001
 43
0.0000000001
 40
0.0
 40
0.0
 40
0.0
 40
0.0
 40
1.0
 40
1.0
 40
1.0
 40
2.0
 40
2.0
 40
2.0
 40
3.0
 40
3.0
 40
3.0
 40
4.0
 40
4.0
 40
4.0
 40
5.0
 40
5.0
 40
5.0
 40
6.0
 40
6.0
 40
6.0
 40
7.0
 40
7.0
 40
7.0
 40
8.0
 40
8.0
 40
8.0
 40
8.0
 10
131.0490206920641
 20
-151.5232231609039
 30
0.0
 10
131.0490206920641
 20
-151.5232231609039
 30
0.0
 10
130.695898404826
 20
-151.5232231609039
 30
0.0
 10
130.695898404826
 20
-151.5232231609039
 30
0.0
 10
130.5835882920069
 20
-151.5232231609039
 30
0.0
 10
130.4440619248543
 20
-151.5297688423259
 30
0.0
 10
130.3362304361659
 20
-151.5421711860728
 30
0.0
 10
130.3362304361659
 20
-151.5421711860728
 30
0.0
 10
130.3362304361659
 20
-151.3075601835272
 30
0.0
 10
130.3362304361659
 20
-151.3075601835272
 30
0.0
 10
130.4547417208585
 20
-151.3223740941138
 30
0.0
 10
130.6387098197709
 20
-151.3265082086961
 30
0.0
 10
130.695898404826
 20
-151.3265082086961
 30
0.0
 10
130.695898404826
 20
-151.3265082086961
 30
0.0
 10
131.0490206920641
 20
-151.3265082086961
 30
0.0
 10
131.0490206920641
 20
-151.3265082086961
 30
0.0
 10
131.0683132267815
 20
-151.3265082086961
 30
0.0
 10
131.2712293508627
 20
-151.3265082086961
 30
0.0
 10
131.4128227753065
 20
-151.3075601835272
 30
0.0
 10
131.4128227753065
 20
-151.3075601835272
 30
0.0
 10
131.4128227753065
 20
-151.5421711860728
 30
0.0
 10
131.4128227753065
 20
-151.5421711860728
 30
0.0
 10
131.2564154402762
 20
-151.5232231609039
 30
0.0
 10
131.0659016599418
 20
-151.5232231609039
 30
0.0
 10
131.0490206920641
 20
-151.5232231609039
 30
0.0
  0
SPLINE
  5
15C
330
14E
100
AcDbEntity
  8
レイヤー 1
100
AcDbSpline
210
0.0
220
0.0
230
1.0
 70
     9
 71
     3
 72
    47
 73
    43
 74
     0
 42
0.0000000001
 43
0.0000000001
 40
0.0
 40
0.0
 40
0.0
 40
0.0
 40
1.0
 40
1.0
 40
1.0
 40
2.0
 40
2.0
 40
2.0
 40
3.0
 40
3.0
 40
3.0
 40
4.0
 40
4.0
 40
4.0
 40
5.0
 40
5.0
 40
5.0
 40
6.0
 40
6.0
 40
6.0
 40
7.0
 40
7.0
 40
7.0
 40
8.0
 40
8.0
 40
8.0
 40
9.0
 40
9.0
 40
9.0
 40
10.0
 40
10.0
 40
10.0
 40
11.0
 40
11.0
 40
11.0
 40
12.0
 40
12.0
 40
12.0
 40
13.0
 40
13.0
 40
13.0
 40
14.0
 40
14.0
 40
14.0
 40
14.0
 10
131.150651008879
 20
-152.0520453178897
 30
0.0
 10
131.150651008879
 20
-152.0520453178897
 30
0.0
 10
131.0490206920641
 20
-152.0520453178897
 30
0.0
 10
131.0490206920641
 20
-152.0520453178897
 30
0.0
 10
131.0490206920641
 20
-152.138861724118
 30
0.0
 10
131.0280056096041
 20
-152.5281575139513
 30
0.0
 10
130.8312906573963
 20
-152.7479546059102
 30
0.0
 10
130.6790174369483
 20
-152.9174533037845
 30
0.0
 10
130.4716226887362
 20
-152.9870442325865
 30
0.0
 10
130.3868733397991
 20
-153.0146049964686
 30
0.0
 10
130.3868733397991
 20
-153.0146049964686
 30
0.0
 10
130.1922254448825
 20
-152.8475178654339
 30
0.0
 10
130.1922254448825
 20
-152.8475178654339
 30
0.0
 10
130.289721647115
 20
-152.8347710121385
 30
0.0
 10
130.4650770073143
 20
-152.8116888723873
 30
0.0
 10
130.6535237303574
 20
-152.6232421493442
 30
0.0
 10
130.7275932832903
 20
-152.5512396537024
 30
0.0
 10
130.8312906573963
 20
-152.4117132865498
 30
0.0
 10
130.8312906573963
 20
-152.0520453178897
 30
0.0
 10
130.8312906573963
 20
-152.0520453178897
 30
0.0
 10
130.6004692598846
 20
-152.0520453178897
 30
0.0
 10
130.6004692598846
 20
-152.0520453178897
 30
0.0
 10
130.4144341036811
 20
-152.0520453178897
 30
0.0
 10
130.2283989474776
 20
-152.0565239420206
 30
0.0
 10
130.0420192817256
 20
-152.0713378526072
 30
0.0
 10
130.0420192817256
 20
-152.0713378526072
 30
0.0
 10
130.0420192817256
 20
-151.8511962510997
 30
0.0
 10
130.0420192817256
 20
-151.8511962510997
 30
0.0
 10
130.2304660047687
 20
-151.8660101616863
 30
0.0
 10
130.516064420496
 20
-151.8701442762685
 30
0.0
 10
130.6004692598846
 20
-151.8701442762685
 30
0.0
 10
130.6004692598846
 20
-151.8701442762685
 30
0.0
 10
131.150651008879
 20
-151.8701442762685
 30
0.0
 10
131.150651008879
 20
-151.8701442762685
 30
0.0
 10
131.1695990340479
 20
-151.8701442762685
 30
0.0
 10
131.4868923282394
 20
-151.8701442762685
 30
0.0
 10
131.71564666846
 20
-151.8511962510997
 30
0.0
 10
131.71564666846
 20
-151.8511962510997
 30
0.0
 10
131.71564666846
 20
-152.0713378526072
 30
0.0
 10
131.71564666846
 20
-152.0713378526072
 30
0.0
 10
131.5271999454168
 20
-152.0565239420206
 30
0.0
 10
131.3390977319222
 20
-152.0520453178897
 30
0.0
 10
131.150651008879
 20
-152.0520453178897
 30
0.0
  0
HATCH
  5
15D
330
14E
100
AcDbEntity
  8
レイヤー 1
 62
    18
420
        0
440
 33554687
100
AcDbHatch
 10
0.0
 20
0.0
 30
0.0
210
0.0
220
0.0
230
1.0
  2
SOLID
 70
     1
 71
     1
 91
        2
 92
        1
 93
        1
 72
     4
 94
        3
 73
     0
 74
     0
 95
       29
 96
       25
 40
0.0
 40
0.0
 40
0.0
 40
0.0
 40
1.0
 40
1.0
 40
1.0
 40
2.0
 40
2.0
 40
2.0
 40
3.0
 40
3.0
 40
3.0
 40
4.0
 40
4.0
 40
4.0
 40
5.0
 40
5.0
 40
5.0
 40
6.0
 40
6.0
 40
6.0
 40
7.0
 40
7.0
 40
7.0
 40
8.0
 40
8.0
 40
8.0
 40
8.0
 10
131.0490206920641
 20
-151.5232231609039
 10
131.0490206920641
 20
-151.5232231609039
 10
130.695898404826
 20
-151.5232231609039
 10
130.695898404826
 20
-151.5232231609039
 10
130.5835882920069
 20
-151.5232231609039
 10
130.4440619248543
 20
-151.5297688423259
 10
130.3362304361659
 20
-151.5421711860728
 10
130.3362304361659
 20
-151.5421711860728
 10
130.3362304361659
 20
-151.3075601835272
 10
130.3362304361659
 20
-151.3075601835272
 10
130.4547417208585
 20
-151.3223740941138
 10
130.6387098197709
 20
-151.3265082086961
 10
130.695898404826
 20
-151.3265082086961
 10
130.695898404826
 20
-151.3265082086961
 10
131.0490206920641
 20
-151.3265082086961
 10
131.0490206920641
 20
-151.3265082086961
 10
131.0683132267815
 20
-151.3265082086961
 10
131.2712293508627
 20
-151.3265082086961
 10
131.4128227753065
 20
-151.3075601835272
 10
131.4128227753065
 20
-151.3075601835272
 10
131.4128227753065
 20
-151.5421711860728
 10
131.4128227753065
 20
-151.5421711860728
 10
131.2564154402762
 20
-151.5232231609039
 10
131.0659016599418
 20
-151.5232231609039
 10
131.0490206920641
 20
-151.5232231609039
 97
        0
 97
        1
330
15B
 92
        1
 93
        1
 72
     4
 94
        3
 73
     0
 74
     0
 95
       47
 96
       43
 40
0.0
 40
0.0
 40
0.0
 40
0.0
 40
1.0
 40
1.0
 40
1.0
 40
2.0
 40
2.0
 40
2.0
 40
3.0
 40
3.0
 40
3.0
 40
4.0
 40
4.0
 40
4.0
 40
5.0
 40
5.0
 40
5.0
 40
6.0
 40
6.0
 40
6.0
 40
7.0
 40
7.0
 40
7.0
 40
8.0
 40
8.0
 40
8.0
 40
9.0
 40
9.0
 40
9.0
 40
10.0
 40
10.0
 40
10.0
 40
11.0
 40
11.0
 40
11.0
 40
12.0
 40
12.0
 40
12.0
 40
13.0
 40
13.0
 40
13.0
 40
14.0
 40
14.0
 40
14.0
 40
14.0
 10
131.150651008879
 20
-152.0520453178897
 10
131.150651008879
 20
-152.0520453178897
 10
131.0490206920641
 20
-152.0520453178897
 10
131.0490206920641
 20
-152.0520453178897
 10
131.0490206920641
 20
-152.138861724118
 10
131.0280056096041
 20
-152.5281575139513
 10
130.8312906573963
 20
-152.7479546059102
 10
130.6790174369483
 20
-152.9174533037845
 10
130.4716226887362
 20
-152.9870442325865
 10
130.3868733397991
 20
-153.0146049964686
 10
130.3868733397991
 20
-153.0146049964686
 10
130.1922254448825
 20
-152.8475178654339
 10
130.1922254448825
 20
-152.8475178654339
 10
130.289721647115
 20
-152.8347710121385
 10
130.4650770073143
 20
-152.8116888723873
 10
130.6535237303574
 20
-152.6232421493442
 10
130.7275932832903
 20
-152.5512396537024
 10
130.8312906573963
 20
-152.4117132865498
 10
130.8312906573963
 20
-152.0520453178897
 10
130.8312906573963
 20
-152.0520453178897
 10
130.6004692598846
 20
-152.0520453178897
 10
130.6004692598846
 20
-152.0520453178897
 10
130.4144341036811
 20
-152.0520453178897
 10
130.2283989474776
 20
-152.0565239420206
 10
130.0420192817256
 20
-152.0713378526072
 10
130.0420192817256
 20
-152.0713378526072
 10
130.0420192817256
 20
-151.8511962510997
 10
130.0420192817256
 20
-151.8511962510997
 10
130.2304660047687
 20
-151.8660101616863
 10
130.516064420496
 20
-151.8701442762685
 10
130.6004692598846
 20
-151.8701442762685
 10
130.6004692598846
 20
-151.8701442762685
 10
131.150651008879
 20
-151.8701442762685
 10
131.150651008879
 20
-151.8701442762685
 10
131.1695990340479
 20
-151.8701442762685
 10
131.4868923282394
 20
-151.8701442762685
 10
131.71564666846
 20
-151.8511962510997
 10
131.71564666846
 20
-151.8511962510997
 10
131.71564666846
 20
-152.0713378526072
 10
131.71564666846
 20
-152.0713378526072
 10
131.5271999454168
 20
-152.0565239420206
 10
131.3390977319222
 20
-152.0520453178897
 10
131.150651008879
 20
-152.0520453178897
 97
        0
 97
        1
330
15C
 75
     2
 76
     1
 98
        1
 10
0.0
 20
0.0
450
        0
451
        0
460
0.0
461
0.0
452
        0
462
0.0
453
        0
470

  0
SPLINE
  5
15E
330
14E
100
AcDbEntity
  8
レイヤー 1
100
AcDbSpline
210
0.0
220
0.0
230
1.0
 70
     9
 71
     3
 72
    29
 73
    25
 74
     0
 42
0.0000000001
 43
0.0000000001
 40
0.0
 40
0.0
 40
0.0
 40
0.0
 40
1.0
 40
1.0
 40
1.0
 40
2.0
 40
2.0
 40
2.0
 40
3.0
 40
3.0
 40
3.0
 40
4.0
 40
4.0
 40
4.0
 40
5.0
 40
5.0
 40
5.0
 40
6.0
 40
6.0
 40
6.0
 40
7.0
 40
7.0
 40
7.0
 40
8.0
 40
8.0
 40
8.0
 40
8.0
 10
132.9965331698758
 20
-152.2149983343421
 30
0.0
 10
132.9965331698758
 20
-152.2149983343421
 30
0.0
 10
132.5121527446497
 20
-152.2149983343421
 30
0.0
 10
132.5121527446497
 20
-152.2149983343421
 30
0.0
 10
132.4845919807677
 20
-152.2149983343421
 30
0.0
 10
132.1672986865762
 20
-152.2149983343421
 30
0.0
 10
131.9557698237819
 20
-152.2404920409329
 30
0.0
 10
131.9557698237819
 20
-152.2404920409329
 30
0.0
 10
131.9557698237819
 20
-152.0096706434212
 30
0.0
 10
131.9557698237819
 20
-152.0096706434212
 30
0.0
 10
132.1142442161034
 20
-152.0330972927209
 30
0.0
 10
132.3047579964377
 20
-152.035164350012
 30
0.0
 10
132.5121527446497
 20
-152.035164350012
 30
0.0
 10
132.5121527446497
 20
-152.035164350012
 30
0.0
 10
132.9965331698758
 20
-152.035164350012
 30
0.0
 10
132.9965331698758
 20
-152.035164350012
 30
0.0
 10
133.1825683260793
 20
-152.035164350012
 30
0.0
 10
133.3686034822828
 20
-152.0330972927209
 30
0.0
 10
133.5529160907437
 20
-152.0096706434212
 30
0.0
 10
133.5529160907437
 20
-152.0096706434212
 30
0.0
 10
133.5529160907437
 20
-152.2404920409329
 30
0.0
 10
133.5529160907437
 20
-152.2404920409329
 30
0.0
 10
133.3686034822828
 20
-152.2170653916332
 30
0.0
 10
133.1212456264419
 20
-152.2149983343421
 30
0.0
 10
132.9965331698758
 20
-152.2149983343421
 30
0.0
  0
HATCH
  5
15F
330
14E
100
AcDbEntity
  8
レイヤー 1
 62
    18
420
        0
440
 33554687
100
AcDbHatch
 10
0.0
 20
0.0
 30
0.0
210
0.0
220
0.0
230
1.0
  2
SOLID
 70
     1
 71
     1
 91
        1
 92
        1
 93
        1
 72
     4
 94
        3
 73
     0
 74
     0
 95
       29
 96
       25
 40
0.0
 40
0.0
 40
0.0
 40
0.0
 40
1.0
 40
1.0
 40
1.0
 40
2.0
 40
2.0
 40
2.0
 40
3.0
 40
3.0
 40
3.0
 40
4.0
 40
4.0
 40
4.0
 40
5.0
 40
5.0
 40
5.0
 40
6.0
 40
6.0
 40
6.0
 40
7.0
 40
7.0
 40
7.0
 40
8.0
 40
8.0
 40
8.0
 40
8.0
 10
132.9965331698758
 20
-152.2149983343421
 10
132.9965331698758
 20
-152.2149983343421
 10
132.5121527446497
 20
-152.2149983343421
 10
132.5121527446497
 20
-152.2149983343421
 10
132.4845919807677
 20
-152.2149983343421
 10
132.1672986865762
 20
-152.2149983343421
 10
131.9557698237819
 20
-152.2404920409329
 10
131.9557698237819
 20
-152.2404920409329
 10
131.9557698237819
 20
-152.0096706434212
 10
131.9557698237819
 20
-152.0096706434212
 10
132.1142442161034
 20
-152.0330972927209
 10
132.3047579964377
 20
-152.035164350012
 10
132.5121527446497
 20
-152.035164350012
 10
132.5121527446497
 20
-152.035164350012
 10
132.9965331698758
 20
-152.035164350012
 10
132.9965331698758
 20
-152.035164350012
 10
133.1825683260793
 20
-152.035164350012
 10
133.3686034822828
 20
-152.0330972927209
 10
133.5529160907437
 20
-152.0096706434212
 10
133.5529160907437
 20
-152.0096706434212
 10
133.5529160907437
 20
-152.2404920409329
 10
133.5529160907437
 20
-152.2404920409329
 10
133.3686034822828
 20
-152.2170653916332
 10
133.1212456264419
 20
-152.2149983343421
 10
132.9965331698758
 20
-152.2149983343421
 97
        0
 97
        1
330
15E
 75
     2
 76
     1
 98
        1
 10
0.0
 20
0.0
450
        0
451
        0
460
0.0
461
0.0
452
        0
462
0.0
453
        0
470

  0
SPLINE
  5
160
330
14E
100
AcDbEntity
  8
レイヤー 1
100
AcDbSpline
210
0.0
220
0.0
230
1.0
 70
     9
 71
     3
 72
    47
 73
    43
 74
     0
 42
0.0000000001
 43
0.0000000001
 40
0.0
 40
0.0
 40
0.0
 40
0.0
 40
1.0
 40
1.0
 40
1.0
 40
2.0
 40
2.0
 40
2.0
 40
3.0
 40
3.0
 40
3.0
 40
4.0
 40
4.0
 40
4.0
 40
5.0
 40
5.0
 40
5.0
 40
6.0
 40
6.0
 40
6.0
 40
7.0
 40
7.0
 40
7.0
 40
8.0
 40
8.0
 40
8.0
 40
9.0
 40
9.0
 40
9.0
 40
10.0
 40
10.0
 40
10.0
 40
11.0
 40
11.0
 40
11.0
 40
12.0
 40
12.0
 40
12.0
 40
13.0
 40
13.0
 40
13.0
 40
14.0
 40
14.0
 40
14.0
 40
14.0
 10
135.2165527005708
 20
-151.6207193631364
 30
0.0
 10
135.1469617717688
 20
-151.8997720974417
 30
0.0
 10
135.0704806519962
 20
-152.2043185383378
 30
0.0
 10
134.7576659819356
 20
-152.5364257431159
 30
0.0
 10
134.5206434125504
 20
-152.7861951657965
 30
0.0
 10
134.2753526140006
 20
-152.8857584253202
 30
0.0
 10
134.1695881826034
 20
-152.9277885902402
 30
0.0
 10
134.1695881826034
 20
-152.9277885902402
 30
0.0
 10
133.9749402876868
 20
-152.7458875486191
 30
0.0
 10
133.9749402876868
 20
-152.7458875486191
 30
0.0
 10
134.1609754438903
 20
-152.6993787595682
 30
0.0
 10
134.5227104698415
 20
-152.6063611814664
 30
0.0
 10
134.818988681573
 20
-152.111300960236
 30
0.0
 10
134.9795301311856
 20
-151.8446505696777
 30
0.0
 10
134.9922769844811
 20
-151.6713622667696
 30
0.0
 10
135.0008897231942
 20
-151.5804117459591
 30
0.0
 10
135.0008897231942
 20
-151.5804117459591
 30
0.0
 10
134.4951497059595
 20
-151.5804117459591
 30
0.0
 10
134.4951497059595
 20
-151.5804117459591
 30
0.0
 10
134.3766384212669
 20
-151.5804117459591
 30
0.0
 10
133.9556477529694
 20
-151.5993597711279
 30
0.0
 10
133.8033745325214
 20
-151.6100395671322
 30
0.0
 10
133.8033745325214
 20
-151.6100395671322
 30
0.0
 10
133.8033745325214
 20
-151.400577761629
 30
0.0
 10
133.8033745325214
 20
-151.400577761629
 30
0.0
 10
133.9453124665137
 20
-151.4133246149244
 30
0.0
 10
134.2222981435277
 20
-151.4174587295067
 30
0.0
 10
134.3387423709292
 20
-151.4174587295067
 30
0.0
 10
134.3387423709292
 20
-151.4174587295067
 30
0.0
 10
134.6939317154584
 20
-151.4174587295067
 30
0.0
 10
134.6939317154584
 20
-151.4174587295067
 30
0.0
 10
134.7214924793404
 20
-151.4174587295067
 30
0.0
 10
134.8823784385016
 20
-151.4153916722156
 30
0.0
 10
134.9922769844811
 20
-151.400577761629
 30
0.0
 10
135.0494655695362
 20
-151.394032080207
 30
0.0
 10
135.066346537414
 20
-151.3750840550381
 30
0.0
 10
135.0897731867136
 20
-151.352001915287
 30
0.0
 10
135.0897731867136
 20
-151.352001915287
 30
0.0
 10
135.2778754002083
 20
-151.5022080784438
 30
0.0
 10
135.2778754002083
 20
-151.5022080784438
 30
0.0
 10
135.2630614896217
 20
-151.531835899617
 30
0.0
 10
135.252726203166
 20
-151.5507839247859
 30
0.0
 10
135.2165527005708
 20
-151.6207193631364
 30
0.0
  0
HATCH
  5
161
330
14E
100
AcDbEntity
  8
レイヤー 1
 62
    18
420
        0
440
 33554687
100
AcDbHatch
 10
0.0
 20
0.0
 30
0.0
210
0.0
220
0.0
230
1.0
  2
SOLID
 70
     1
 71
     1
 91
        1
 92
        1
 93
        1
 72
     4
 94
        3
 73
     0
 74
     0
 95
       47
 96
       43
 40
0.0
 40
0.0
 40
0.0
 40
0.0
 40
1.0
 40
1.0
 40
1.0
 40
2.0
 40
2.0
 40
2.0
 40
3.0
 40
3.0
 40
3.0
 40
4.0
 40
4.0
 40
4.0
 40
5.0
 40
5.0
 40
5.0
 40
6.0
 40
6.0
 40
6.0
 40
7.0
 40
7.0
 40
7.0
 40
8.0
 40
8.0
 40
8.0
 40
9.0
 40
9.0
 40
9.0
 40
10.0
 40
10.0
 40
10.0
 40
11.0
 40
11.0
 40
11.0
 40
12.0
 40
12.0
 40
12.0
 40
13.0
 40
13.0
 40
13.0
 40
14.0
 40
14.0
 40
14.0
 40
14.0
 10
135.2165527005708
 20
-151.6207193631364
 10
135.1469617717688
 20
-151.8997720974417
 10
135.0704806519962
 20
-152.2043185383378
 10
134.7576659819356
 20
-152.5364257431159
 10
134.5206434125504
 20
-152.7861951657965
 10
134.2753526140006
 20
-152.8857584253202
 10
134.1695881826034
 20
-152.9277885902402
 10
134.1695881826034
 20
-152.9277885902402
 10
133.9749402876868
 20
-152.7458875486191
 10
133.9749402876868
 20
-152.7458875486191
 10
134.1609754438903
 20
-152.6993787595682
 10
134.5227104698415
 20
-152.6063611814664
 10
134.818988681573
 20
-152.111300960236
 10
134.9795301311856
 20
-151.8446505696777
 10
134.9922769844811
 20
-151.6713622667696
 10
135.0008897231942
 20
-151.5804117459591
 10
135.0008897231942
 20
-151.5804117459591
 10
134.4951497059595
 20
-151.5804117459591
 10
134.4951497059595
 20
-151.5804117459591
 10
134.3766384212669
 20
-151.5804117459591
 10
133.9556477529694
 20
-151.5993597711279
 10
133.8033745325214
 20
-151.6100395671322
 10
133.8033745325214
 20
-151.6100395671322
 10
133.8033745325214
 20
-151.400577761629
 10
133.8033745325214
 20
-151.400577761629
 10
133.9453124665137
 20
-151.4133246149244
 10
134.2222981435277
 20
-151.4174587295067
 10
134.3387423709292
 20
-151.4174587295067
 10
134.3387423709292
 20
-151.4174587295067
 10
134.6939317154584
 20
-151.4174587295067
 10
134.6939317154584
 20
-151.4174587295067
 10
134.7214924793404
 20
-151.4174587295067
 10
134.8823784385016
 20
-151.4153916722156
 10
134.9922769844811
 20
-151.400577761629
 10
135.0494655695362
 20
-151.394032080207
 10
135.066346537414
 20
-151.3750840550381
 10
135.0897731867136
 20
-151.352001915287
 10
135.0897731867136
 20
-151.352001915287
 10
135.2778754002083
 20
-151.5022080784438
 10
135.2778754002083
 20
-151.5022080784438
 10
135.2630614896217
 20
-151.531835899617
 10
135.252726203166
 20
-151.5507839247859
 10
135.2165527005708
 20
-151.6207193631364
 97
        0
 97
        1
330
160
 75
     2
 76
     1
 98
        1
 10
0.0
 20
0.0
450
        0
451
        0
460
0.0
461
0.0
452
        0
462
0.0
453
        0
470

  0
SPLINE
  5
162
330
14E
100
AcDbEntity
  8
レイヤー 1
100
AcDbSpline
210
0.0
220
0.0
230
1.0
 70
    11
 71
     3
 72
    17
 73
    13
 74
     0
 42
0.0000000001
 43
0.0000000001
 40
0.0
 40
0.0
 40
0.0
 40
0.0
 40
1.0
 40
1.0
 40
1.0
 40
2.0
 40
2.0
 40
2.0
 40
3.0
 40
3.0
 40
3.0
 40
4.0
 40
4.0
 40
4.0
 40
4.0
 10
135.6068820190496
 20
-151.4026448189202
 30
0.0
 10
135.6068820190496
 20
-151.4619004612665
 30
0.0
 10
135.6533908081005
 20
-151.5084092503173
 30
0.0
 10
135.7126464504468
 20
-151.5084092503173
 30
0.0
 10
135.7719020927931
 20
-151.5084092503173
 30
0.0
 10
135.8204779391352
 20
-151.4619004612665
 30
0.0
 10
135.8204779391352
 20
-151.4026448189202
 30
0.0
 10
135.8204779391352
 20
-151.3433891765739
 30
0.0
 10
135.7719020927931
 20
-151.2948133302318
 30
0.0
 10
135.7126464504468
 20
-151.2948133302318
 30
0.0
 10
135.6533908081005
 20
-151.2948133302318
 30
0.0
 10
135.6068820190496
 20
-151.3433891765739
 30
0.0
 10
135.6068820190496
 20
-151.4026448189202
 30
0.0
  0
SPLINE
  5
163
330
14E
100
AcDbEntity
  8
レイヤー 1
100
AcDbSpline
210
0.0
220
0.0
230
1.0
 70
     9
 71
     3
 72
    17
 73
    13
 74
     0
 42
0.0000000001
 43
0.0000000001
 40
0.0
 40
0.0
 40
0.0
 40
0.0
 40
1.0
 40
1.0
 40
1.0
 40
2.0
 40
2.0
 40
2.0
 40
3.0
 40
3.0
 40
3.0
 40
4.0
 40
4.0
 40
4.0
 40
4.0
 10
135.92210825595
 20
-151.4026448189202
 30
0.0
 10
135.92210825595
 20
-151.5170219890304
 30
0.0
 10
135.8290906778483
 20
-151.6121066244233
 30
0.0
 10
135.7126464504468
 20
-151.6121066244233
 30
0.0
 10
135.5982692803365
 20
-151.6121066244233
 30
0.0
 10
135.5031846449436
 20
-151.5170219890304
 30
0.0
 10
135.5031846449436
 20
-151.4026448189202
 30
0.0
 10
135.5031846449436
 20
-151.2862005915187
 30
0.0
 10
135.5982692803365
 20
-151.193183013417
 30
0.0
 10
135.7126464504468
 20
-151.193183013417
 30
0.0
 10
135.8270236205571
 20
-151.193183013417
 30
0.0
 10
135.92210825595
 20
-151.2862005915187
 30
0.0
 10
135.92210825595
 20
-151.4026448189202
 30
0.0
  0
HATCH
  5
164
330
14E
100
AcDbEntity
  8
レイヤー 1
 62
    18
420
        0
440
 33554687
100
AcDbHatch
 10
0.0
 20
0.0
 30
0.0
210
0.0
220
0.0
230
1.0
  2
SOLID
 70
     1
 71
     1
 91
        2
 92
        1
 93
        1
 72
     4
 94
        3
 73
     0
 74
     0
 95
       17
 96
       13
 40
0.0
 40
0.0
 40
0.0
 40
0.0
 40
1.0
 40
1.0
 40
1.0
 40
2.0
 40
2.0
 40
2.0
 40
3.0
 40
3.0
 40
3.0
 40
4.0
 40
4.0
 40
4.0
 40
4.0
 10
135.6068820190496
 20
-151.4026448189202
 10
135.6068820190496
 20
-151.4619004612665
 10
135.6533908081005
 20
-151.5084092503173
 10
135.7126464504468
 20
-151.5084092503173
 10
135.7719020927931
 20
-151.5084092503173
 10
135.8204779391352
 20
-151.4619004612665
 10
135.8204779391352
 20
-151.4026448189202
 10
135.8204779391352
 20
-151.3433891765739
 10
135.7719020927931
 20
-151.2948133302318
 10
135.7126464504468
 20
-151.2948133302318
 10
135.6533908081005
 20
-151.2948133302318
 10
135.6068820190496
 20
-151.3433891765739
 10
135.6068820190496
 20
-151.4026448189202
 97
        0
 97
        1
330
162
 92
        1
 93
        1
 72
     4
 94
        3
 73
     0
 74
     0
 95
       17
 96
       13
 40
0.0
 40
0.0
 40
0.0
 40
0.0
 40
1.0
 40
1.0
 40
1.0
 40
2.0
 40
2.0
 40
2.0
 40
3.0
 40
3.0
 40
3.0
 40
4.0
 40
4.0
 40
4.0
 40
4.0
 10
135.92210825595
 20
-151.4026448189202
 10
135.92210825595
 20
-151.5170219890304
 10
135.8290906778483
 20
-151.6121066244233
 10
135.7126464504468
 20
-151.6121066244233
 10
135.5982692803365
 20
-151.6121066244233
 10
135.5031846449436
 20
-151.5170219890304
 10
135.5031846449436
 20
-151.4026448189202
 10
135.5031846449436
 20
-151.2862005915187
 10
135.5982692803365
 20
-151.193183013417
 10
135.7126464504468
 20
-151.193183013417
 10
135.8270236205571
 20
-151.193183013417
 10
135.92210825595
 20
-151.2862005915187
 10
135.92210825595
 20
-151.4026448189202
 97
        0
 97
        1
330
163
 75
     2
 76
     1
 98
        1
 10
0.0
 20
0.0
450
        0
451
        0
460
0.0
461
0.0
452
        0
462
0.0
453
        0
470

  0
ENDBLK
  5
151
330
14E
100
AcDbEntity
  8
0
100
AcDbBlockEnd
  0
ENDSEC
  0
SECTION
  2
ENTITIES
  0
LINE
  5
79
330
70
100
AcDbEntity
  8
レイヤー 1
  6
AI-Linetype-0
 62
   154
420
    23468
370
    25
100
AcDbLine
 10
76.57728784446327
 20
-148.3203513736313
 30
0.0
 11
86.57716175601157
 21
-148.3203513736313
 31
0.0
  0
LINE
  5
7B
330
70
100
AcDbEntity
  8
レイヤー 1
  6
AI-Linetype-1
 62
   154
420
    23468
370
    25
100
AcDbLine
 10
118.0798284523119
 20
-148.3203513736313
 30
0.0
 11
128.5797648511028
 21
-148.3203513736313
 31
0.0
  0
LINE
  5
7D
330
70
100
AcDbEntity
  8
レイヤー 1
 62
   250
420
  2299925
370
    25
100
AcDbLine
 10
108.5779003613929
 20
-152.6577541503251
 30
0.0
 11
96.57795288975904
 21
-152.6577541503251
 31
0.0
  0
LINE
  5
7E
330
70
100
AcDbEntity
  8
レイヤー 1
 62
   250
420
  2299925
370
    25
100
AcDbLine
 10
76.57728784446327
 20
-147.1573135961446
 30
0.0
 11
76.57728784446327
 21
-147.6575172071305
 31
0.0
  0
LINE
  5
7F
330
70
100
AcDbEntity
  8
レイヤー 1
 62
   250
420
  2299925
370
    25
100
AcDbLine
 10
96.57795288975904
 20
-147.6575172071305
 30
0.0
 11
76.57728784446327
 21
-147.6575172071305
 31
0.0
  0
LINE
  5
80
330
70
100
AcDbEntity
  8
レイヤー 1
 62
   250
420
  2299925
370
    25
100
AcDbLine
 10
76.57728784446327
 20
-147.1573135961446
 30
0.0
 11
77.09128505357201
 21
-147.5397247071597
 31
0.0
  0
LINE
  5
81
330
70
100
AcDbEntity
  8
レイヤー 1
 62
   250
420
  2299925
370
    25
100
AcDbLine
 10
77.09128505357201
 20
-147.5397247071597
 30
0.0
 11
77.5763544856413
 21
-147.1221769294865
 31
0.0
  0
LINE
  5
82
330
70
100
AcDbEntity
  8
レイヤー 1
 62
   250
420
  2299925
370
    25
100
AcDbLine
 10
78.09035169475037
 20
-147.5038824849465
 30
0.0
 11
78.57612668235721
 21
-147.0863347072733
 31
0.0
  0
LINE
  5
83
330
70
100
AcDbEntity
  8
レイヤー 1
 62
   250
420
  2299925
370
    25
100
AcDbLine
 10
77.5763544856413
 20
-147.1221769294865
 30
0.0
 11
78.09035169475037
 21
-147.5038824849465
 31
0.0
  0
LINE
  5
84
330
70
100
AcDbEntity
  8
レイヤー 1
 62
   250
420
  2299925
370
    25
100
AcDbLine
 10
78.57612668235721
 20
-147.0863347072733
 30
0.0
 11
79.09012389146628
 21
-147.4680402627332
 31
0.0
  0
LINE
  5
85
330
70
100
AcDbEntity
  8
レイヤー 1
 62
   250
420
  2299925
370
    25
100
AcDbLine
 10
79.09012389146628
 20
-147.4680402627332
 30
0.0
 11
79.57519332353588
 21
-147.0504924850597
 31
0.0
  0
LINE
  5
86
330
70
100
AcDbEntity
  8
レイヤー 1
 62
   250
420
  2299925
370
    25
100
AcDbLine
 10
79.57519332353588
 20
-147.0504924850597
 30
0.0
 11
80.08919053264461
 21
-147.4322333182978
 31
0.0
  0
LINE
  5
87
330
70
100
AcDbEntity
  8
レイヤー 1
 62
   250
420
  2299925
370
    25
100
AcDbLine
 10
80.08919053264461
 20
-147.4322333182978
 30
0.0
 11
80.57425996471392
 21
-147.0146855406243
 31
0.0
  0
LINE
  5
88
330
70
100
AcDbEntity
  8
レイヤー 1
 62
   250
420
  2299925
370
    25
100
AcDbLine
 10
80.57425996471392
 20
-147.0146855406243
 30
0.0
 11
81.08829245159986
 21
-147.3963910960845
 31
0.0
  0
LINE
  5
89
330
70
100
AcDbEntity
  8
レイヤー 1
 62
   250
420
  2299925
370
    25
100
AcDbLine
 10
81.08829245159986
 20
-147.3963910960845
 30
0.0
 11
81.57403216142983
 21
-146.9788433184111
 31
0.0
  0
LINE
  5
8A
330
70
100
AcDbEntity
  8
レイヤー 1
 62
   250
420
  2299925
370
    25
100
AcDbLine
 10
81.57403216142983
 20
-146.9788433184111
 30
0.0
 11
82.08802937053889
 21
-147.3612544294265
 31
0.0
  0
LINE
  5
8B
330
70
100
AcDbEntity
  8
レイヤー 1
 62
   250
420
  2299925
370
    25
100
AcDbLine
 10
82.08802937053889
 20
-147.3612544294265
 30
0.0
 11
82.57309880260786
 21
-146.9437066517533
 31
0.0
  0
LINE
  5
8C
330
70
100
AcDbEntity
  8
レイヤー 1
 62
   250
420
  2299925
370
    25
100
AcDbLine
 10
82.57309880260786
 20
-146.9437066517533
 30
0.0
 11
83.08713128949412
 21
-147.3254122072133
 31
0.0
  0
LINE
  5
8D
330
70
100
AcDbEntity
  8
レイヤー 1
 62
   250
420
  2299925
370
    25
100
AcDbLine
 10
83.08713128949412
 20
-147.3254122072133
 30
0.0
 11
83.5728709993241
 21
-146.9078644295401
 31
0.0
  0
LINE
  5
8E
330
70
100
AcDbEntity
  8
レイヤー 1
 62
   250
420
  2299925
370
    25
100
AcDbLine
 10
84.08690348621004
 20
-147.2896052627782
 30
0.0
 11
84.57197291827931
 21
-146.8720574851044
 31
0.0
  0
LINE
  5
8F
330
70
100
AcDbEntity
  8
レイヤー 1
 62
   250
420
  2299925
370
    25
100
AcDbLine
 10
83.5728709993241
 20
-146.9078644295401
 30
0.0
 11
84.08690348621004
 21
-147.2896052627782
 31
0.0
  0
LINE
  5
90
330
70
100
AcDbEntity
  8
レイヤー 1
 62
   250
420
  2299925
370
    25
100
AcDbLine
 10
84.57197291827931
 20
-146.8720574851044
 30
0.0
 11
85.08597012738837
 21
-147.2537630405646
 31
0.0
  0
LINE
  5
91
330
70
100
AcDbEntity
  8
レイヤー 1
 62
   250
420
  2299925
370
    25
100
AcDbLine
 10
85.08597012738837
 20
-147.2537630405646
 30
0.0
 11
85.57170983721835
 21
-146.8362152628911
 31
0.0
  0
LINE
  5
92
330
70
100
AcDbEntity
  8
レイヤー 1
 62
   250
420
  2299925
370
    25
100
AcDbLine
 10
86.0850367685664
 20
-147.2179208183514
 30
0.0
 11
86.5708117561739
 21
-146.8004083184557
 31
0.0
  0
LINE
  5
93
330
70
100
AcDbEntity
  8
レイヤー 1
 62
   250
420
  2299925
370
    25
100
AcDbLine
 10
85.57170983721835
 20
-146.8362152628911
 30
0.0
 11
86.0850367685664
 21
-147.2179208183514
 31
0.0
  0
LINE
  5
94
330
70
100
AcDbEntity
  8
レイヤー 1
 62
   250
420
  2299925
370
    25
100
AcDbLine
 10
87.08480896528264
 20
-147.1827841516933
 30
0.0
 11
87.56970200846755
 21
-146.7652363740201
 31
0.0
  0
LINE
  5
95
330
70
100
AcDbEntity
  8
レイヤー 1
 62
   250
420
  2299925
370
    25
100
AcDbLine
 10
86.5708117561739
 20
-146.8004083184557
 30
0.0
 11
87.08480896528264
 21
-147.1827841516933
 31
0.0
  0
LINE
  5
96
330
70
100
AcDbEntity
  8
レイヤー 1
 62
   250
420
  2299925
370
    25
100
AcDbLine
 10
87.56970200846755
 20
-146.7652363740201
 30
0.0
 11
88.08373449535348
 21
-147.1469772072579
 31
0.0
  0
LINE
  5
97
330
70
100
AcDbEntity
  8
レイヤー 1
 62
   250
420
  2299925
370
    25
100
AcDbLine
 10
88.08373449535348
 20
-147.1469772072579
 30
0.0
 11
88.56947420518345
 21
-146.7294294295848
 31
0.0
  0
LINE
  5
98
330
70
100
AcDbEntity
  8
レイヤー 1
 62
   250
420
  2299925
370
    25
100
AcDbLine
 10
88.56947420518345
 20
-146.7294294295848
 30
0.0
 11
89.08347141429251
 21
-147.1111349850447
 31
0.0
  0
LINE
  5
99
330
70
100
AcDbEntity
  8
レイヤー 1
 62
   250
420
  2299925
370
    25
100
AcDbLine
 10
89.08347141429251
 20
-147.1111349850447
 30
0.0
 11
89.56854084636182
 21
-146.6935872073715
 31
0.0
  0
LINE
  5
9A
330
70
100
AcDbEntity
  8
レイヤー 1
 62
   250
420
  2299925
370
    25
100
AcDbLine
 10
89.56854084636182
 20
-146.6935872073715
 30
0.0
 11
90.08257333324776
 21
-147.0753280406093
 31
0.0
  0
LINE
  5
9B
330
70
100
AcDbEntity
  8
レイヤー 1
 62
   250
420
  2299925
370
    25
100
AcDbLine
 10
90.08257333324776
 20
-147.0753280406093
 30
0.0
 11
90.56831304307772
 21
-146.6577802629357
 31
0.0
  0
LINE
  5
9C
330
70
100
AcDbEntity
  8
レイヤー 1
 62
   250
420
  2299925
370
    25
100
AcDbLine
 10
90.56831304307772
 20
-146.6577802629357
 30
0.0
 11
91.08234552996366
 21
-147.039485818396
 31
0.0
  0
LINE
  5
9D
330
70
100
AcDbEntity
  8
レイヤー 1
 62
   250
420
  2299925
370
    25
100
AcDbLine
 10
91.08234552996366
 20
-147.039485818396
 30
0.0
 11
91.56741496203293
 21
-146.6219380407225
 31
0.0
  0
LINE
  5
9E
330
70
100
AcDbEntity
  8
レイヤー 1
 62
   250
420
  2299925
370
    25
100
AcDbLine
 10
91.56741496203293
 20
-146.6219380407225
 30
0.0
 11
92.08141217114201
 21
-147.004349151738
 31
0.0
  0
LINE
  5
9F
330
70
100
AcDbEntity
  8
レイヤー 1
 62
   250
420
  2299925
370
    25
100
AcDbLine
 10
92.08141217114201
 20
-147.004349151738
 30
0.0
 11
92.56648160321162
 21
-146.5868013740648
 31
0.0
  0
LINE
  5
A0
330
70
100
AcDbEntity
  8
レイヤー 1
 62
   250
420
  2299925
370
    25
100
AcDbLine
 10
92.56648160321162
 20
-146.5868013740648
 30
0.0
 11
93.08047881232036
 21
-146.9685069295247
 31
0.0
  0
LINE
  5
A1
330
70
100
AcDbEntity
  8
レイヤー 1
 62
   250
420
  2299925
370
    25
100
AcDbLine
 10
93.08047881232036
 20
-146.9685069295247
 30
0.0
 11
93.56625379992721
 21
-146.5509591518515
 31
0.0
  0
LINE
  5
A2
330
70
100
AcDbEntity
  8
レイヤー 1
 62
   250
420
  2299925
370
    25
100
AcDbLine
 10
93.56625379992721
 20
-146.5509591518515
 30
0.0
 11
94.08025100903627
 21
-146.9326999850893
 31
0.0
  0
LINE
  5
A3
330
70
100
AcDbEntity
  8
レイヤー 1
 62
   250
420
  2299925
370
    25
100
AcDbLine
 10
94.08025100903627
 20
-146.9326999850893
 30
0.0
 11
94.56532044110558
 21
-146.5151522074158
 31
0.0
  0
LINE
  5
A4
330
70
100
AcDbEntity
  8
レイヤー 1
 62
   250
420
  2299925
370
    25
100
AcDbLine
 10
94.56532044110558
 20
-146.5151522074158
 30
0.0
 11
95.0793176502143
 21
-146.8968577628761
 31
0.0
  0
LINE
  5
A5
330
70
100
AcDbEntity
  8
レイヤー 1
 62
   250
420
  2299925
370
    25
100
AcDbLine
 10
95.0793176502143
 20
-146.8968577628761
 30
0.0
 11
95.56438708228391
 21
-146.4793099852025
 31
0.0
  0
LINE
  5
A6
330
70
100
AcDbEntity
  8
レイヤー 1
 62
   250
420
  2299925
370
    25
100
AcDbLine
 10
95.56438708228391
 20
-146.4793099852025
 30
0.0
 11
96.07841956916985
 21
-146.8610155406628
 31
0.0
  0
LINE
  5
A7
330
70
100
AcDbEntity
  8
レイヤー 1
 62
   250
420
  2299925
370
    25
100
AcDbLine
 10
96.07841956916985
 20
-146.8610155406628
 30
0.0
 11
96.56415927899983
 21
-146.4434677629893
 31
0.0
  0
LINE
  5
A8
330
70
100
AcDbEntity
  8
レイヤー 1
 62
   250
420
  2299925
370
    25
100
AcDbLine
 10
96.63815648821783
 20
-146.3952430407791
 30
0.0
 11
97.57839536423595
 21
-146.3952430407791
 31
0.0
  0
LINE
  5
A9
330
70
100
AcDbEntity
  8
レイヤー 1
 62
   250
420
  2299925
370
    25
100
AcDbLine
 10
97.57839536423595
 20
-146.3952430407791
 30
0.0
 11
97.57839536423595
 21
-151.657276372797
 31
0.0
  0
LINE
  5
AA
330
70
100
AcDbEntity
  8
レイヤー 1
 62
   250
420
  2299925
370
    25
100
AcDbLine
 10
96.57795288975904
 20
-147.6575172071305
 30
0.0
 11
96.57795288975904
 21
-152.6577541503251
 31
0.0
  0
LINE
  5
AB
330
70
100
AcDbEntity
  8
レイヤー 1
 62
   250
420
  2299925
370
    25
100
AcDbLine
 10
107.578128164677
 20
-151.657276372797
 30
0.0
 11
97.57839536423595
 21
-151.657276372797
 31
0.0
  0
LINE
  5
AC
330
70
100
AcDbEntity
  8
レイヤー 1
 62
   250
420
  2299925
370
    25
100
AcDbLine
 10
118.5858881616235
 20
-146.8004083184557
 30
0.0
 11
118.0718909525144
 21
-147.1827841516933
 31
0.0
  0
LINE
  5
AD
330
70
100
AcDbEntity
  8
レイヤー 1
 62
   250
420
  2299925
370
    25
100
AcDbLine
 10
123.5826677563672
 20
-146.9788433184111
 30
0.0
 11
123.0686705472582
 21
-147.3612544294265
 31
0.0
  0
LINE
  5
AE
330
70
100
AcDbEntity
  8
レイヤー 1
 62
   250
420
  2299925
370
    25
100
AcDbLine
 10
119.0709575936927
 20
-147.2179208183514
 30
0.0
 11
118.5858881616235
 21
-146.8004083184557
 31
0.0
  0
LINE
  5
AF
330
70
100
AcDbEntity
  8
レイヤー 1
 62
   250
420
  2299925
370
    25
100
AcDbLine
 10
120.0707297904086
 20
-147.2537630405646
 30
0.0
 11
119.5849900805787
 21
-146.8362152628911
 31
0.0
  0
LINE
  5
B0
330
70
100
AcDbEntity
  8
レイヤー 1
 62
   250
420
  2299925
370
    25
100
AcDbLine
 10
118.0718909525144
 20
-147.1827841516933
 30
0.0
 11
117.5861512426844
 21
-146.7652363740201
 31
0.0
  0
LINE
  5
B1
330
70
100
AcDbEntity
  8
レイヤー 1
 62
   250
420
  2299925
370
    25
100
AcDbLine
 10
119.5849900805787
 20
-146.8362152628911
 30
0.0
 11
119.0709575936927
 21
-147.2179208183514
 31
0.0
  0
LINE
  5
B2
330
70
100
AcDbEntity
  8
レイヤー 1
 62
   250
420
  2299925
370
    25
100
AcDbLine
 10
127.5803454321557
 20
-147.1221769294865
 30
0.0
 11
127.0663482230467
 21
-147.5038824849465
 31
0.0
  0
LINE
  5
B3
330
70
100
AcDbEntity
  8
レイヤー 1
 62
   250
420
  2299925
370
    25
100
AcDbLine
 10
120.5847622772946
 20
-146.8720574851044
 30
0.0
 11
120.0707297904086
 21
-147.2537630405646
 31
0.0
  0
LINE
  5
B4
330
70
100
AcDbEntity
  8
レイヤー 1
 62
   250
420
  2299925
370
    25
100
AcDbLine
 10
121.5838289184729
 20
-146.9078644295401
 30
0.0
 11
121.0698317093639
 21
-147.2896052627782
 31
0.0
  0
LINE
  5
B5
330
70
100
AcDbEntity
  8
レイヤー 1
 62
   250
420
  2299925
370
    25
100
AcDbLine
 10
107.578128164677
 20
-146.3952430407791
 30
0.0
 11
107.578128164677
 21
-151.657276372797
 31
0.0
  0
LINE
  5
B6
330
70
100
AcDbEntity
  8
レイヤー 1
 62
   250
420
  2299925
370
    25
100
AcDbLine
 10
121.0698317093639
 20
-147.2896052627782
 30
0.0
 11
120.5847622772946
 21
-146.8720574851044
 31
0.0
  0
LINE
  5
B7
330
70
100
AcDbEntity
  8
レイヤー 1
 62
   250
420
  2299925
370
    25
100
AcDbLine
 10
122.0695686283029
 20
-147.3254122072133
 30
0.0
 11
121.5838289184729
 21
-146.9078644295401
 31
0.0
  0
LINE
  5
B8
330
70
100
AcDbEntity
  8
レイヤー 1
 62
   250
420
  2299925
370
    25
100
AcDbLine
 10
127.0663482230467
 20
-147.5038824849465
 30
0.0
 11
126.5806085132167
 21
-147.0863347072733
 31
0.0
  0
LINE
  5
B9
330
70
100
AcDbEntity
  8
レイヤー 1
 62
   250
420
  2299925
370
    25
100
AcDbLine
 10
122.5828955596513
 20
-146.9437066517533
 30
0.0
 11
122.0695686283029
 21
-147.3254122072133
 31
0.0
  0
LINE
  5
BA
330
70
100
AcDbEntity
  8
レイヤー 1
 62
   250
420
  2299925
370
    25
100
AcDbLine
 10
123.0686705472582
 20
-147.3612544294265
 30
0.0
 11
122.5828955596513
 21
-146.9437066517533
 31
0.0
  0
LINE
  5
BB
330
70
100
AcDbEntity
  8
レイヤー 1
 62
   250
420
  2299925
370
    25
100
AcDbLine
 10
128.065414864225
 20
-147.5397247071597
 30
0.0
 11
127.5803454321557
 21
-147.1221769294865
 31
0.0
  0
LINE
  5
BC
330
70
100
AcDbEntity
  8
レイヤー 1
 62
   250
420
  2299925
370
    25
100
AcDbLine
 10
124.5817343975456
 20
-147.0146855406243
 30
0.0
 11
124.0677371884365
 21
-147.3963910960845
 31
0.0
  0
LINE
  5
BD
330
70
100
AcDbEntity
  8
レイヤー 1
 62
   250
420
  2299925
370
    25
100
AcDbLine
 10
125.5815065942615
 20
-147.0504924850597
 30
0.0
 11
125.0675093851524
 21
-147.4322333182978
 31
0.0
  0
LINE
  5
BE
330
70
100
AcDbEntity
  8
レイヤー 1
 62
   250
420
  2299925
370
    25
100
AcDbLine
 10
125.0675093851524
 20
-147.4322333182978
 30
0.0
 11
124.5817343975456
 21
-147.0146855406243
 31
0.0
  0
LINE
  5
BF
330
70
100
AcDbEntity
  8
レイヤー 1
 62
   250
420
  2299925
370
    25
100
AcDbLine
 10
128.579447351111
 20
-147.1573135961446
 30
0.0
 11
128.065414864225
 21
-147.5397247071597
 31
0.0
  0
LINE
  5
C0
330
70
100
AcDbEntity
  8
レイヤー 1
 62
   250
420
  2299925
370
    25
100
AcDbLine
 10
124.0677371884365
 20
-147.3963910960845
 30
0.0
 11
123.5826677563672
 21
-146.9788433184111
 31
0.0
  0
LINE
  5
C1
330
70
100
AcDbEntity
  8
レイヤー 1
 62
   250
420
  2299925
370
    25
100
AcDbLine
 10
126.5806085132167
 20
-147.0863347072733
 30
0.0
 11
126.0665760263308
 21
-147.4680402627332
 31
0.0
  0
LINE
  5
C2
330
70
100
AcDbEntity
  8
レイヤー 1
 62
   250
420
  2299925
370
    25
100
AcDbLine
 10
126.0665760263308
 20
-147.4680402627332
 30
0.0
 11
125.5815065942615
 21
-147.0504924850597
 31
0.0
  0
LINE
  5
C3
330
70
100
AcDbEntity
  8
レイヤー 1
 62
   250
420
  2299925
370
    25
100
AcDbLine
 10
128.579447351111
 20
-147.1573135961446
 30
0.0
 11
128.579447351111
 21
-147.6575172071305
 31
0.0
  0
LINE
  5
C4
330
70
100
AcDbEntity
  8
レイヤー 1
 62
   250
420
  2299925
370
    25
100
AcDbLine
 10
108.5779003613929
 20
-147.6575172071305
 30
0.0
 11
128.579447351111
 21
-147.6575172071305
 31
0.0
  0
LINE
  5
C5
330
70
100
AcDbEntity
  8
レイヤー 1
 62
   250
420
  2299925
370
    25
100
AcDbLine
 10
117.5861512426844
 20
-146.7652363740201
 30
0.0
 11
117.0721187557985
 21
-147.1469772072579
 31
0.0
  0
LINE
  5
C6
330
70
100
AcDbEntity
  8
レイヤー 1
 62
   250
420
  2299925
370
    25
100
AcDbLine
 10
117.0721187557985
 20
-147.1469772072579
 30
0.0
 11
116.5870493237292
 21
-146.7294294295848
 31
0.0
  0
LINE
  5
C7
330
70
100
AcDbEntity
  8
レイヤー 1
 62
   250
420
  2299925
370
    25
100
AcDbLine
 10
116.5870493237292
 20
-146.7294294295848
 30
0.0
 11
116.0730521146201
 21
-147.1111349850447
 31
0.0
  0
LINE
  5
C8
330
70
100
AcDbEntity
  8
レイヤー 1
 62
   250
420
  2299925
370
    25
100
AcDbLine
 10
116.0730521146201
 20
-147.1111349850447
 30
0.0
 11
115.5879826825508
 21
-146.6935872073715
 31
0.0
  0
LINE
  5
C9
330
70
100
AcDbEntity
  8
レイヤー 1
 62
   250
420
  2299925
370
    25
100
AcDbLine
 10
115.5879826825508
 20
-146.6935872073715
 30
0.0
 11
115.0739854734418
 21
-147.0753280406093
 31
0.0
  0
LINE
  5
CA
330
70
100
AcDbEntity
  8
レイヤー 1
 62
   250
420
  2299925
370
    25
100
AcDbLine
 10
115.0739854734418
 20
-147.0753280406093
 30
0.0
 11
114.5882104858349
 21
-146.6577802629357
 31
0.0
  0
LINE
  5
CB
330
70
100
AcDbEntity
  8
レイヤー 1
 62
   250
420
  2299925
370
    25
100
AcDbLine
 10
114.5882104858349
 20
-146.6577802629357
 30
0.0
 11
114.0742132767259
 21
-147.039485818396
 31
0.0
  0
LINE
  5
CC
330
70
100
AcDbEntity
  8
レイヤー 1
 62
   250
420
  2299925
370
    25
100
AcDbLine
 10
114.0742132767259
 20
-147.039485818396
 30
0.0
 11
113.5891438446566
 21
-146.6219380407225
 31
0.0
  0
LINE
  5
CD
330
70
100
AcDbEntity
  8
レイヤー 1
 62
   250
420
  2299925
370
    25
100
AcDbLine
 10
113.5891438446566
 20
-146.6219380407225
 30
0.0
 11
113.0751113577706
 21
-147.004349151738
 31
0.0
  0
LINE
  5
CE
330
70
100
AcDbEntity
  8
レイヤー 1
 62
   250
420
  2299925
370
    25
100
AcDbLine
 10
113.0751113577706
 20
-147.004349151738
 30
0.0
 11
112.5893716479407
 21
-146.5868013740648
 31
0.0
  0
LINE
  5
CF
330
70
100
AcDbEntity
  8
レイヤー 1
 62
   250
420
  2299925
370
    25
100
AcDbLine
 10
112.5893716479407
 20
-146.5868013740648
 30
0.0
 11
112.0753744388316
 21
-146.9685069295247
 31
0.0
  0
LINE
  5
D0
330
70
100
AcDbEntity
  8
レイヤー 1
 62
   250
420
  2299925
370
    25
100
AcDbLine
 10
112.0753744388316
 20
-146.9685069295247
 30
0.0
 11
111.5903050067623
 21
-146.5509591518515
 31
0.0
  0
LINE
  5
D1
330
70
100
AcDbEntity
  8
レイヤー 1
 62
   250
420
  2299925
370
    25
100
AcDbLine
 10
111.5903050067623
 20
-146.5509591518515
 30
0.0
 11
111.0762725198764
 21
-146.9326999850893
 31
0.0
  0
LINE
  5
D2
330
70
100
AcDbEntity
  8
レイヤー 1
 62
   250
420
  2299925
370
    25
100
AcDbLine
 10
111.0762725198764
 20
-146.9326999850893
 30
0.0
 11
110.5912030878071
 21
-146.5151522074158
 31
0.0
  0
LINE
  5
D3
330
70
100
AcDbEntity
  8
レイヤー 1
 62
   250
420
  2299925
370
    25
100
AcDbLine
 10
110.5912030878071
 20
-146.5151522074158
 30
0.0
 11
110.077205878698
 21
-146.8968577628761
 31
0.0
  0
LINE
  5
D4
330
70
100
AcDbEntity
  8
レイヤー 1
 62
   250
420
  2299925
370
    25
100
AcDbLine
 10
110.077205878698
 20
-146.8968577628761
 30
0.0
 11
109.5914308910912
 21
-146.4793099852025
 31
0.0
  0
LINE
  5
D5
330
70
100
AcDbEntity
  8
レイヤー 1
 62
   250
420
  2299925
370
    25
100
AcDbLine
 10
109.5914308910912
 20
-146.4793099852025
 30
0.0
 11
109.0774336819821
 21
-146.8610155406628
 31
0.0
  0
LINE
  5
D6
330
70
100
AcDbEntity
  8
レイヤー 1
 62
   250
420
  2299925
370
    25
100
AcDbLine
 10
109.0774336819821
 20
-146.8610155406628
 30
0.0
 11
108.5923642499128
 21
-146.4434677629893
 31
0.0
  0
LINE
  5
D7
330
70
100
AcDbEntity
  8
レイヤー 1
 62
   250
420
  2299925
370
    25
100
AcDbLine
 10
108.5183670406948
 20
-146.3952430407791
 30
0.0
 11
107.578128164677
 21
-146.3952430407791
 31
0.0
  0
LINE
  5
D8
330
70
100
AcDbEntity
  8
レイヤー 1
 62
   250
420
  2299925
370
    25
100
AcDbLine
 10
108.5779003613929
 20
-147.6575172071305
 30
0.0
 11
108.5779003613929
 21
-152.6577541503251
 31
0.0
  0
SPLINE
  5
D9
330
70
100
AcDbEntity
  8
レイヤー 1
 62
   250
420
  2299925
370
     9
100
AcDbSpline
210
0.0
220
0.0
230
1.0
 70
     9
 71
     3
 72
    17
 73
    13
 74
     0
 42
0.0000000001
 43
0.0000000001
 40
0.0
 40
0.0
 40
0.0
 40
0.0
 40
1.0
 40
1.0
 40
1.0
 40
2.0
 40
2.0
 40
2.0
 40
3.0
 40
3.0
 40
3.0
 40
4.0
 40
4.0
 40
4.0
 40
4.0
 10
76.67719450858078
 20
-142.3954838751126
 30
0.0
 10
76.67719450858078
 20
-142.3403799862373
 30
0.0
 10
76.63239173194603
 20
-142.2955772084709
 30
0.0
 10
76.57728784446327
 20
-142.2955772084709
 30
0.0
 10
76.52214867920332
 20
-142.2955772084709
 30
0.0
 10
76.47734590256823
 20
-142.3403799862373
 30
0.0
 10
76.47734590256823
 20
-142.3954838751126
 30
0.0
 10
76.47734590256823
 20
-142.4506230417653
 30
0.0
 10
76.52214867920332
 20
-142.4953905417542
 30
0.0
 10
76.57728784446327
 20
-142.4953905417542
 30
0.0
 10
76.63239173194603
 20
-142.4953905417542
 30
0.0
 10
76.67719450858078
 20
-142.4506230417653
 30
0.0
 10
76.67719450858078
 20
-142.3954838751126
 30
0.0
  0
CIRCLE
  5
DA
330
70
100
AcDbEntity
  8
レイヤー 1
 62
   250
420
  2299925
370
     9
100
AcDbCircle
 10
74.34759123468066
 20
-147.1573135961444
 30
0.0
 40
0.0999066653796964
  0
CIRCLE
  5
DB
330
70
100
AcDbEntity
  8
レイヤー 1
 62
   250
420
  2299925
370
     9
100
AcDbCircle
 10
74.34759123468066
 20
-147.6575172071304
 30
0.0
 40
0.0999066653797365
  0
CIRCLE
  5
DC
330
70
100
AcDbEntity
  8
レイヤー 1
 62
   250
420
  2299925
370
     9
100
AcDbCircle
 10
74.34759123468066
 20
-152.6577541503248
 30
0.0
 40
0.0999066653797766
  0
SPLINE
  5
DD
330
70
100
AcDbEntity
  8
レイヤー 1
 62
   250
420
  2299925
370
     9
100
AcDbSpline
210
0.0
220
0.0
230
1.0
 70
     9
 71
     3
 72
    17
 73
    13
 74
     0
 42
0.0000000001
 43
0.0000000001
 40
0.0
 40
0.0
 40
0.0
 40
0.0
 40
1.0
 40
1.0
 40
1.0
 40
2.0
 40
2.0
 40
2.0
 40
3.0
 40
3.0
 40
3.0
 40
4.0
 40
4.0
 40
4.0
 40
4.0
 10
97.67830494959914
 20
-142.3954838751126
 30
0.0
 10
97.67830494959914
 20
-142.3403799862373
 30
0.0
 10
97.63353452949557
 20
-142.2955772084709
 30
0.0
 10
97.57839536423595
 20
-142.2955772084709
 30
0.0
 10
97.52258592121499
 20
-142.2955772084709
 30
0.0
 10
97.4778184223571
 20
-142.3403799862373
 30
0.0
 10
97.4778184223571
 20
-142.3954838751126
 30
0.0
 10
97.4778184223571
 20
-142.4506230417653
 30
0.0
 10
97.52258592121499
 20
-142.4953905417542
 30
0.0
 10
97.57839536423595
 20
-142.4953905417542
 30
0.0
 10
97.63353452949557
 20
-142.4953905417542
 30
0.0
 10
97.67830494959914
 20
-142.4506230417653
 30
0.0
 10
97.67830494959914
 20
-142.3954838751126
 30
0.0
  0
SPLINE
  5
DE
330
70
100
AcDbEntity
  8
レイヤー 1
 62
   250
420
  2299925
370
     9
100
AcDbSpline
210
0.0
220
0.0
230
1.0
 70
     9
 71
     3
 72
    17
 73
    13
 74
     0
 42
0.0000000001
 43
0.0000000001
 40
0.0
 40
0.0
 40
0.0
 40
0.0
 40
1.0
 40
1.0
 40
1.0
 40
2.0
 40
2.0
 40
2.0
 40
3.0
 40
3.0
 40
3.0
 40
4.0
 40
4.0
 40
4.0
 40
4.0
 10
128.6793577196264
 20
-142.3954838751126
 30
0.0
 10
128.6793577196264
 20
-142.3403799862373
 30
0.0
 10
128.6345549418597
 20
-142.2955772084709
 30
0.0
 10
128.579447351111
 20
-142.2955772084709
 30
0.0
 10
128.524308185851
 20
-142.2955772084709
 30
0.0
 10
128.4795406869931
 20
-142.3403799862373
 30
0.0
 10
128.4795406869931
 20
-142.3954838751126
 30
0.0
 10
128.4795406869931
 20
-142.4506230417653
 30
0.0
 10
128.524308185851
 20
-142.4953905417542
 30
0.0
 10
128.579447351111
 20
-142.4953905417542
 30
0.0
 10
128.6345549418597
 20
-142.4953905417542
 30
0.0
 10
128.6793577196264
 20
-142.4506230417653
 30
0.0
 10
128.6793577196264
 20
-142.3954838751126
 30
0.0
  0
CIRCLE
  5
DF
330
70
100
AcDbEntity
  8
レイヤー 1
 62
   250
420
  2299925
370
     9
100
AcDbCircle
 10
107.578128164677
 20
-142.3954838751126
 30
0.0
 40
0.0999066653797365
  0
LINE
  5
E0
330
70
100
AcDbEntity
  8
レイヤー 1
 62
   250
420
  2299925
370
     9
100
AcDbLine
 10
74.34759123468058
 20
-147.1573135961446
 30
0.0
 11
74.34759123468058
 21
-141.9000780419031
 31
0.0
  0
LINE
  5
E1
330
70
100
AcDbEntity
  8
レイヤー 1
 62
   250
420
  2299925
370
     9
100
AcDbLine
 10
74.34759123468058
 20
-147.1573135961446
 30
0.0
 11
74.34759123468058
 21
-147.6575172071305
 31
0.0
  0
LINE
  5
E2
330
70
100
AcDbEntity
  8
レイヤー 1
 62
   250
420
  2299925
370
     9
100
AcDbLine
 10
75.80763258632072
 20
-147.1573135961446
 30
0.0
 11
73.34785431574156
 21
-147.1573135961446
 31
0.0
  0
LINE
  5
E3
330
70
100
AcDbEntity
  8
レイヤー 1
 62
   250
420
  2299925
370
     9
100
AcDbLine
 10
75.80763258632072
 20
-147.6575172071305
 30
0.0
 11
73.34785431574156
 21
-147.6575172071305
 31
0.0
  0
INSERT
  5
E5
330
70
100
AcDbEntity
  8
レイヤー 1
100
AcDbBlockReference
  2
Block_0
 10
0.0
 20
0.0
 30
0.0
  0
LINE
  5
F3
330
70
100
AcDbEntity
  8
レイヤー 1
 62
   250
420
  2299925
370
     9
100
AcDbLine
 10
76.57728784446327
 20
-142.3954838751126
 30
0.0
 11
97.57839536423595
 21
-142.3954838751126
 31
0.0
  0
LINE
  5
F4
330
70
100
AcDbEntity
  8
レイヤー 1
 62
   250
420
  2299925
370
     9
100
AcDbLine
 10
76.57728784446327
 20
-144.6175958190014
 30
0.0
 11
76.57728784446327
 21
-141.3957116531403
 31
0.0
  0
INSERT
  5
F6
330
70
100
AcDbEntity
  8
レイヤー 1
100
AcDbBlockReference
  2
Block_2
 10
0.0
 20
0.0
 30
0.0
  0
LINE
  5
101
330
70
100
AcDbEntity
  8
レイヤー 1
 62
   250
420
  2299925
370
     9
100
AcDbLine
 10
74.34759123468058
 20
-147.6575172071305
 30
0.0
 11
74.34759123468058
 21
-152.6577541503251
 31
0.0
  0
LINE
  5
102
330
70
100
AcDbEntity
  8
レイヤー 1
 62
   250
420
  2299925
370
     9
100
AcDbLine
 10
95.80900318715434
 20
-152.6577541503251
 30
0.0
 11
73.34785431574156
 21
-152.6577541503251
 31
0.0
  0
INSERT
  5
104
330
70
100
AcDbEntity
  8
レイヤー 1
100
AcDbBlockReference
  2
Block_4
 10
0.0
 20
0.0
 30
0.0
  0
LINE
  5
109
330
70
100
AcDbEntity
  8
レイヤー 1
 62
   250
420
  2299925
370
     9
100
AcDbLine
 10
128.579447351111
 20
-142.3954838751126
 30
0.0
 11
107.578128164677
 21
-142.3954838751126
 31
0.0
  0
LINE
  5
10A
330
70
100
AcDbEntity
  8
レイヤー 1
 62
   250
420
  2299925
370
     9
100
AcDbLine
 10
128.579447351111
 20
-144.6175958190014
 30
0.0
 11
128.579447351111
 21
-141.3957116531403
 31
0.0
  0
INSERT
  5
10C
330
70
100
AcDbEntity
  8
レイヤー 1
100
AcDbBlockReference
  2
Block_5
 10
0.0
 20
0.0
 30
0.0
  0
LINE
  5
117
330
70
100
AcDbEntity
  8
レイヤー 1
 62
   250
420
  2299925
370
     9
100
AcDbLine
 10
97.57839536423595
 20
-142.3954838751126
 30
0.0
 11
107.578128164677
 21
-142.3954838751126
 31
0.0
  0
LINE
  5
118
330
70
100
AcDbEntity
  8
レイヤー 1
 62
   250
420
  2299925
370
     9
100
AcDbLine
 10
97.57839536423595
 20
-143.8555252636363
 30
0.0
 11
97.57839536423595
 21
-141.3957116531403
 31
0.0
  0
LINE
  5
119
330
70
100
AcDbEntity
  8
レイヤー 1
 62
   250
420
  2299925
370
     9
100
AcDbLine
 10
107.578128164677
 20
-143.8555252636363
 30
0.0
 11
107.578128164677
 21
-141.3957116531403
 31
0.0
  0
INSERT
  5
11B
330
70
100
AcDbEntity
  8
レイヤー 1
100
AcDbBlockReference
  2
Block_7
 10
0.0
 20
0.0
 30
0.0
  0
SPLINE
  5
127
330
70
100
AcDbEntity
  8
レイヤー 1
 62
   250
420
  2299925
370
     9
100
AcDbSpline
210
0.0
220
0.0
230
1.0
 70
     9
 71
     3
 72
    17
 73
    13
 74
     0
 42
0.0000000001
 43
0.0000000001
 40
0.0
 40
0.0
 40
0.0
 40
0.0
 40
1.0
 40
1.0
 40
1.0
 40
2.0
 40
2.0
 40
2.0
 40
3.0
 40
3.0
 40
3.0
 40
4.0
 40
4.0
 40
4.0
 40
4.0
 10
96.89143121509518
 20
-156.7711783159631
 30
0.0
 10
96.89143121509518
 20
-156.7160744270882
 30
0.0
 10
96.80806982833271
 20
-156.6712716493215
 30
0.0
 10
96.7054114976184
 20
-156.6712716493215
 30
0.0
 10
96.60412900020233
 20
-156.6712716493215
 30
0.0
 10
96.52076761344018
 20
-156.7160744270882
 30
0.0
 10
96.52076761344018
 20
-156.7711783159631
 30
0.0
 10
96.52076761344018
 20
-156.8263174826162
 30
0.0
 10
96.60412900020233
 20
-156.8710849826048
 30
0.0
 10
96.7054114976184
 20
-156.8710849826048
 30
0.0
 10
96.80806982833271
 20
-156.8710849826048
 30
0.0
 10
96.89143121509518
 20
-156.8263174826162
 30
0.0
 10
96.89143121509518
 20
-156.7711783159631
 30
0.0
  0
SPLINE
  5
128
330
70
100
AcDbEntity
  8
レイヤー 1
 62
   250
420
  2299925
370
     9
100
AcDbSpline
210
0.0
220
0.0
230
1.0
 70
     9
 71
     3
 72
    17
 73
    13
 74
     0
 42
0.0000000001
 43
0.0000000001
 40
0.0
 40
0.0
 40
0.0
 40
0.0
 40
1.0
 40
1.0
 40
1.0
 40
2.0
 40
2.0
 40
2.0
 40
3.0
 40
3.0
 40
3.0
 40
4.0
 40
4.0
 40
4.0
 40
4.0
 10
108.9341353523046
 20
-156.7711783159631
 30
0.0
 10
108.9341353523046
 20
-156.7160744270882
 30
0.0
 10
108.8514442433031
 20
-156.6712716493215
 30
0.0
 10
108.7494561903495
 20
-156.6712716493215
 30
0.0
 10
108.6461275818745
 20
-156.6712716493215
 30
0.0
 10
108.563436472873
 20
-156.7160744270882
 30
0.0
 10
108.563436472873
 20
-156.7711783159631
 30
0.0
 10
108.563436472873
 20
-156.8263174826162
 30
0.0
 10
108.6461275818745
 20
-156.8710849826048
 30
0.0
 10
108.7494561903495
 20
-156.8710849826048
 30
0.0
 10
108.8514442433031
 20
-156.8710849826048
 30
0.0
 10
108.9341353523046
 20
-156.8263174826162
 30
0.0
 10
108.9341353523046
 20
-156.7711783159631
 30
0.0
  0
LINE
  5
129
330
70
100
AcDbEntity
  8
レイヤー 1
 62
   250
420
  2299925
370
     9
100
AcDbLine
 10
108.7494561903495
 20
-156.7711783159631
 30
0.0
 11
96.7054114976184
 21
-156.7711783159631
 31
0.0
  0
LINE
  5
12A
330
70
100
AcDbEntity
  8
レイヤー 1
 62
   250
420
  2299925
370
     9
100
AcDbLine
 10
108.7494561903495
 20
-155.3111722052169
 30
0.0
 11
108.7494561903495
 21
-157.7709505379357
 31
0.0
  0
LINE
  5
12B
330
70
100
AcDbEntity
  8
レイヤー 1
 62
   250
420
  2299925
370
     9
100
AcDbLine
 10
96.7054114976184
 20
-155.3111722052169
 30
0.0
 11
96.7054114976184
 21
-157.7709505379357
 31
0.0
  0
INSERT
  5
12D
330
70
100
AcDbEntity
  8
レイヤー 1
100
AcDbBlockReference
  2
Block_9
 10
0.0
 20
0.0
 30
0.0
  0
LINE
  5
138
330
70
100
AcDbEntity
  8
レイヤー 1
 62
   250
420
  2299925
370
     9
100
AcDbLine
 10
105.5544890496377
 20
-150.6857616508178
 30
0.0
 11
113.554677456647
 21
-150.6857616508178
 31
0.0
  0
INSERT
  5
13A
330
70
100
AcDbEntity
  8
レイヤー 1
100
AcDbBlockReference
  2
Block_11
 10
0.0
 20
0.0
 30
0.0
  0
INSERT
  5
140
330
70
100
AcDbEntity
  8
レイヤー 1
100
AcDbBlockReference
  2
Block_12
 10
0.0
 20
0.0
 30
0.0
  0
ENDSEC
  0
SECTION
  2
OBJECTS
  0
DICTIONARY
  5
C
330
0
100
AcDbDictionary
281
     1
  3
ACAD_COLOR
350
63
  3
ACAD_DETAILVIEWSTYLE
350
6A
  3
ACAD_GROUP
350
D
  3
ACAD_LAYOUT
350
62
  3
ACAD_MATERIAL
350
10
  3
ACAD_MLEADERSTYLE
350
66
  3
ACAD_MLINESTYLE
350
5F
  3
ACAD_PLOTSETTINGS
350
61
  3
ACAD_PLOTSTYLENAME
350
E
  3
ACAD_SCALELIST
350
42
  3
ACAD_SECTIONVIEWSTYLE
350
68
  3
ACAD_TABLESTYLE
350
64
  3
ACAD_VISUALSTYLE
350
29
  3
ACDB_RECOMPOSE_DATA
350
16D
  3
AcDbVariableDictionary
350
165
  0
DICTIONARY
  5
63
102
{ACAD_REACTORS
330
C
102
}
330
C
100
AcDbDictionary
281
     1
  0
DICTIONARY
  5
6A
102
{ACAD_REACTORS
330
C
102
}
330
C
100
AcDbDictionary
281
     1
  3
Imperial24
350
6B
  0
DICTIONARY
  5
D
102
{ACAD_REACTORS
330
C
102
}
330
C
100
AcDbDictionary
281
     1
  0
DICTIONARY
  5
62
102
{ACAD_REACTORS
330
C
102
}
330
C
100
AcDbDictionary
281
     1
  3
Layout1
350
6F
  3
Layout2
350
77
  3
Model
350
73
  0
DICTIONARY
  5
10
102
{ACAD_REACTORS
330
C
102
}
330
C
100
AcDbDictionary
281
     1
  3
ByBlock
350
19
  3
ByLayer
350
11
  3
Global
350
21
  0
DICTIONARY
  5
66
102
{ACAD_REACTORS
330
C
102
}
330
C
100
AcDbDictionary
281
     1
  3
Standard
350
67
  0
DICTIONARY
  5
5F
102
{ACAD_REACTORS
330
C
102
}
330
C
100
AcDbDictionary
281
     1
  3
Standard
350
60
  0
DICTIONARY
  5
61
102
{ACAD_REACTORS
330
C
102
}
330
C
100
AcDbDictionary
281
     1
  0
ACDBDICTIONARYWDFLT
  5
E
102
{ACAD_REACTORS
330
C
102
}
330
C
100
AcDbDictionary
281
     1
  3
Normal
350
F
100
AcDbDictionaryWithDefault
340
F
  0
DICTIONARY
  5
42
102
{ACAD_REACTORS
330
C
102
}
330
C
100
AcDbDictionary
281
     1
  3
A0
350
43
  3
A1
350
44
  3
A2
350
45
  3
A3
350
46
  3
A4
350
47
  3
A5
350
48
  3
A6
350
49
  3
A7
350
4A
  3
A8
350
4B
  3
A9
350
4C
  3
B0
350
4D
  3
B1
350
4E
  3
B2
350
4F
  3
B3
350
50
  3
B4
350
51
  3
B5
350
52
  3
B6
350
53
  0
DICTIONARY
  5
68
102
{ACAD_REACTORS
330
C
102
}
330
C
100
AcDbDictionary
281
     1
  3
Imperial24
350
69
  0
DICTIONARY
  5
64
102
{ACAD_REACTORS
330
C
102
}
330
C
100
AcDbDictionary
281
     1
  3
Standard
350
65
  0
DICTIONARY
  5
29
102
{ACAD_REACTORS
330
C
102
}
330
C
100
AcDbDictionary
281
     1
  3
2dWireframe
350
2F
  3
Basic
350
2E
  3
Brighten
350
35
  3
ColorChange
350
39
  3
Conceptual
350
32
  3
Dim
350
34
  3
EdgeColorOff
350
41
  3
Facepattern
350
38
  3
Flat
350
2A
  3
FlatWithEdges
350
2B
  3
Gouraud
350
2C
  3
GouraudWithEdges
350
2D
  3
Hidden
350
31
  3
JitterOff
350
3F
  3
Linepattern
350
37
  3
OverhangOff
350
40
  3
Realistic
350
33
  3
Shaded
350
3E
  3
Shaded with edges
350
3D
  3
Shades of Gray
350
3A
  3
Sketchy
350
3B
  3
Thicken
350
36
  3
Wireframe
350
30
  3
X-Ray
350
3C
  0
XRECORD
  5
16D
102
{ACAD_REACTORS
330
C
102
}
330
C
100
AcDbXrecord
280
     1
 90
        1
330
65
  0
DICTIONARY
  5
165
102
{ACAD_REACTORS
330
C
102
}
330
C
100
AcDbDictionary
281
     1
  3
CANNOSCALE
350
16A
  3
CMLEADERSTYLE
350
167
  3
CTABLESTYLE
350
166
  3
CVIEWDETAILSTYLE
350
168
  3
CVIEWSECTIONSTYLE
350
169
  0
ACDBDETAILVIEWSTYLE
  5
6B
102
{ACAD_XDICTIONARY
360
1A2
102
}
102
{ACAD_REACTORS
330
6A
102
}
330
6A
100
AcDbModelDocViewStyle
 70
     0
  3
Imperial24
290
     0
100
AcDbDetailViewStyle
 70
     0
 71
     0
 90
        3
 71
     1
340
55
 62
   256
 40
0.24
340
0
 62
   256
 40
0.24
300

 40
0.36
280
     3
 71
     2
340
5D
 90
       25
 62
   256
 71
     3
340
55
 62
   256
 40
0.24
 90
        1
 40
0.75
 90
        1
300
%<\AcVar ViewType \f "%tc1">% %<\AcVar ViewDetailId>%\PSCALE %<\AcVar ViewScale \f "%sn">%
 71
     4
340
5D
 90
       25
 62
   256
340
5D
 90
       25
 62
   256
280
     0
  0
LAYOUT
  5
6F
102
{ACAD_REACTORS
330
62
102
}
330
62
100
AcDbPlotSettings
  1

  2

  4

  6

 40
0.0
 41
0.0
 42
0.0
 43
0.0
 44
0.0
 45
0.0
 46
0.0
 47
0.0
 48
0.0
 49
0.0
140
0.0
141
0.0
142
1.0
143
1.0
 70
   688
 72
     0
 73
     0
 74
     5
  7

 75
    16
147
1.0
 76
     0
 77
     2
 78
   300
148
0.0
149
0.0
100
AcDbLayout
  1
Layout1
 70
     1
 71
     1
 10
0.0
 20
0.0
 11
12.0
 21
9.0
 12
0.0
 22
0.0
 32
0.0
 14
0.0
 24
0.0
 34
0.0
 15
0.0
 25
0.0
 35
0.0
146
0.0
 13
0.0
 23
0.0
 33
0.0
 16
1.0
 26
0.0
 36
0.0
 17
0.0
 27
1.0
 37
0.0
 76
     0
330
6C
  0
LAYOUT
  5
77
102
{ACAD_REACTORS
330
62
102
}
330
62
100
AcDbPlotSettings
  1

  2

  4

  6

 40
0.0
 41
0.0
 42
0.0
 43
0.0
 44
0.0
 45
0.0
 46
0.0
 47
0.0
 48
0.0
 49
0.0
140
0.0
141
0.0
142
1.0
143
1.0
 70
   688
 72
     0
 73
     0
 74
     5
  7

 75
    16
147
1.0
 76
     0
 77
     2
 78
   300
148
0.0
149
0.0
100
AcDbLayout
  1
Layout2
 70
     1
 71
     2
 10
0.0
 20
0.0
 11
12.0
 21
9.0
 12
0.0
 22
0.0
 32
0.0
 14
0.0
 24
0.0
 34
0.0
 15
0.0
 25
0.0
 35
0.0
146
0.0
 13
0.0
 23
0.0
 33
0.0
 16
1.0
 26
0.0
 36
0.0
 17
0.0
 27
1.0
 37
0.0
 76
     0
330
74
  0
LAYOUT
  5
73
102
{ACAD_REACTORS
330
62
102
}
330
62
100
AcDbPlotSettings
  1

  2

  4

  6

 40
0.0
 41
0.0
 42
0.0
 43
0.0
 44
0.0
 45
0.0
 46
0.0
 47
0.0
 48
0.0
 49
0.0
140
0.0
141
0.0
142
1.0
143
1.0
 70
  1712
 72
     0
 73
     0
 74
     0
  7

 75
     0
147
1.0
 76
     0
 77
     2
 78
   300
148
0.0
149
0.0
100
AcDbLayout
  1
Model
 70
     1
 71
     0
 10
0.0
 20
0.0
 11
12.0
 21
9.0
 12
0.0
 22
0.0
 32
0.0
 14
0.0
 24
0.0
 34
0.0
 15
0.0
 25
0.0
 35
0.0
146
0.0
 13
0.0
 23
0.0
 33
0.0
 16
1.0
 26
0.0
 36
0.0
 17
0.0
 27
1.0
 37
0.0
 76
     0
330
70
  0
MATERIAL
  5
19
102
{ACAD_XDICTIONARY
360
1A
102
}
102
{ACAD_REACTORS
330
10
102
}
330
10
100
AcDbMaterial
  1
ByBlock
 72
     0
 43
0.0208333333333333
 43
0.0
 43
0.0
 43
0.0
 43
0.0
 43
0.0208333333333333
 43
0.0
 43
0.0
 43
0.0
 43
0.0
 43
1.0
 43
0.0
 43
0.0
 43
0.0
 43
0.0
 43
1.0
 77
     0
 47
0.0208333333333333
 47
0.0
 47
0.0
 47
0.0
 47
0.0
 47
0.0208333333333333
 47
0.0
 47
0.0
 47
0.0
 47
0.0
 47
1.0
 47
0.0
 47
0.0
 47
0.0
 47
0.0
 47
1.0
171
     0
 49
0.0208333333333333
 49
0.0
 49
0.0
 49
0.0
 49
0.0
 49
0.0208333333333333
 49
0.0
 49
0.0
 49
0.0
 49
0.0
 49
1.0
 49
0.0
 49
0.0
 49
0.0
 49
0.0
 49
1.0
175
     0
142
0.0208333333333333
142
0.0
142
0.0
142
0.0
142
0.0
142
0.0208333333333333
142
0.0
142
0.0
142
0.0
142
0.0
142
1.0
142
0.0
142
0.0
142
0.0
142
0.0
142
1.0
179
     0
144
0.0208333333333333
144
0.0
144
0.0
144
0.0
144
0.0
144
0.0208333333333333
144
0.0
144
0.0
144
0.0
144
0.0
144
1.0
144
0.0
144
0.0
144
0.0
144
0.0
144
1.0
147
0.0208333333333333
147
0.0
147
0.0
147
0.0
147
0.0
147
0.0208333333333333
147
0.0
147
0.0
147
0.0
147
0.0
147
1.0
147
0.0
147
0.0
147
0.0
147
0.0
147
1.0
  0
MATERIAL
  5
11
102
{ACAD_XDICTIONARY
360
12
102
}
102
{ACAD_REACTORS
330
10
102
}
330
10
100
AcDbMaterial
  1
ByLayer
 72
     0
 43
0.0208333333333333
 43
0.0
 43
0.0
 43
0.0
 43
0.0
 43
0.0208333333333333
 43
0.0
 43
0.0
 43
0.0
 43
0.0
 43
1.0
 43
0.0
 43
0.0
 43
0.0
 43
0.0
 43
1.0
 77
     0
 47
0.0208333333333333
 47
0.0
 47
0.0
 47
0.0
 47
0.0
 47
0.0208333333333333
 47
0.0
 47
0.0
 47
0.0
 47
0.0
 47
1.0
 47
0.0
 47
0.0
 47
0.0
 47
0.0
 47
1.0
171
     0
 49
0.0208333333333333
 49
0.0
 49
0.0
 49
0.0
 49
0.0
 49
0.0208333333333333
 49
0.0
 49
0.0
 49
0.0
 49
0.0
 49
1.0
 49
0.0
 49
0.0
 49
0.0
 49
0.0
 49
1.0
175
     0
142
0.0208333333333333
142
0.0
142
0.0
142
0.0
142
0.0
142
0.0208333333333333
142
0.0
142
0.0
142
0.0
142
0.0
142
1.0
142
0.0
142
0.0
142
0.0
142
0.0
142
1.0
179
     0
144
0.0208333333333333
144
0.0
144
0.0
144
0.0
144
0.0
144
0.0208333333333333
144
0.0
144
0.0
144
0.0
144
0.0
144
1.0
144
0.0
144
0.0
144
0.0
144
0.0
144
1.0
147
0.0208333333333333
147
0.0
147
0.0
147
0.0
147
0.0
147
0.0208333333333333
147
0.0
147
0.0
147
0.0
147
0.0
147
1.0
147
0.0
147
0.0
147
0.0
147
0.0
147
1.0
  0
MATERIAL
  5
21
102
{ACAD_XDICTIONARY
360
22
102
}
102
{ACAD_REACTORS
330
10
102
}
330
10
100
AcDbMaterial
  1
Global
 72
     0
 43
0.0208333333333333
 43
0.0
 43
0.0
 43
0.0
 43
0.0
 43
0.0208333333333333
 43
0.0
 43
0.0
 43
0.0
 43
0.0
 43
1.0
 43
0.0
 43
0.0
 43
0.0
 43
0.0
 43
1.0
 77
     0
 47
0.0208333333333333
 47
0.0
 47
0.0
 47
0.0
 47
0.0
 47
0.0208333333333333
 47
0.0
 47
0.0
 47
0.0
 47
0.0
 47
1.0
 47
0.0
 47
0.0
 47
0.0
 47
0.0
 47
1.0
171
     0
 49
0.0208333333333333
 49
0.0
 49
0.0
 49
0.0
 49
0.0
 49
0.0208333333333333
 49
0.0
 49
0.0
 49
0.0
 49
0.0
 49
1.0
 49
0.0
 49
0.0
 49
0.0
 49
0.0
 49
1.0
175
     0
142
0.0208333333333333
142
0.0
142
0.0
142
0.0
142
0.0
142
0.0208333333333333
142
0.0
142
0.0
142
0.0
142
0.0
142
1.0
142
0.0
142
0.0
142
0.0
142
0.0
142
1.0
179
     0
144
0.0208333333333333
144
0.0
144
0.0
144
0.0
144
0.0
144
0.0208333333333333
144
0.0
144
0.0
144
0.0
144
0.0
144
1.0
144
0.0
144
0.0
144
0.0
144
0.0
144
1.0
147
0.0208333333333333
147
0.0
147
0.0
147
0.0
147
0.0
147
0.0208333333333333
147
0.0
147
0.0
147
0.0
147
0.0
147
1.0
147
0.0
147
0.0
147
0.0
147
0.0
147
1.0
  0
MLEADERSTYLE
  5
67
102
{ACAD_XDICTIONARY
360
19E
102
}
102
{ACAD_REACTORS
330
66
102
}
330
66
100
AcDbMLeaderStyle
179
     2
170
     2
171
     1
172
     0
 90
        2
 40
0.0
 41
0.0
173
     1
 91
-1056964608
340
5B
 92
       -2
290
     1
 42
0.09
291
     1
 43
0.36
  3
Standard
 44
0.18
300

342
55
174
     1
178
     6
175
     1
176
     0
 93
-1056964608
 45
0.18
292
     0
297
     0
 46
0.18
 94
-1056964608
 47
1.0
 49
1.0
140
1.0
293
     1
141
0.0
294
     1
177
     0
142
1.0
295
     0
296
     0
143
0.125
271
     0
272
     9
273
     9
  0
MLINESTYLE
  5
60
102
{ACAD_REACTORS
330
5F
102
}
330
5F
100
AcDbMlineStyle
  2
STANDARD
 70
     0
  3

 62
   256
 51
90.0
 52
90.0
 71
     2
 49
0.5
 62
   256
  6
BYLAYER
 49
-0.5
 62
   256
  6
BYLAYER
  0
ACDBPLACEHOLDER
  5
F
102
{ACAD_REACTORS
330
E
102
}
330
E
  0
SCALE
  5
43
102
{ACAD_REACTORS
330
42
102
}
330
42
100
AcDbScale
 70
     0
300
1:1
140
1.0
141
1.0
290
     1
  0
SCALE
  5
44
102
{ACAD_REACTORS
330
42
102
}
330
42
100
AcDbScale
 70
     0
300
1/128" = 1'-0"
140
0.0078125
141
12.0
290
     0
  0
SCALE
  5
45
102
{ACAD_REACTORS
330
42
102
}
330
42
100
AcDbScale
 70
     0
300
1/64" = 1'-0"
140
0.015625
141
12.0
290
     0
  0
SCALE
  5
46
102
{ACAD_REACTORS
330
42
102
}
330
42
100
AcDbScale
 70
     0
300
1/32" = 1'-0"
140
0.03125
141
12.0
290
     0
  0
SCALE
  5
47
102
{ACAD_REACTORS
330
42
102
}
330
42
100
AcDbScale
 70
     0
300
1/16" = 1'-0"
140
0.0625
141
12.0
290
     0
  0
SCALE
  5
48
102
{ACAD_REACTORS
330
42
102
}
330
42
100
AcDbScale
 70
     0
300
3/32" = 1'-0"
140
0.09375
141
12.0
290
     0
  0
SCALE
  5
49
102
{ACAD_REACTORS
330
42
102
}
330
42
100
AcDbScale
 70
     0
300
1/8" = 1'-0"
140
0.125
141
12.0
290
     0
  0
SCALE
  5
4A
102
{ACAD_REACTORS
330
42
102
}
330
42
100
AcDbScale
 70
     0
300
3/16" = 1'-0"
140
0.1875
141
12.0
290
     0
  0
SCALE
  5
4B
102
{ACAD_REACTORS
330
42
102
}
330
42
100
AcDbScale
 70
     0
300
1/4" = 1'-0"
140
0.25
141
12.0
290
     0
  0
SCALE
  5
4C
102
{ACAD_REACTORS
330
42
102
}
330
42
100
AcDbScale
 70
     0
300
3/8" = 1'-0"
140
0.375
141
12.0
290
     0
  0
SCALE
  5
4D
102
{ACAD_REACTORS
330
42
102
}
330
42
100
AcDbScale
 70
     0
300
1/2" = 1'-0"
140
0.5
141
12.0
290
     0
  0
SCALE
  5
4E
102
{ACAD_REACTORS
330
42
102
}
330
42
100
AcDbScale
 70
     0
300
3/4" = 1'-0"
140
0.75
141
12.0
290
     0
  0
SCALE
  5
4F
102
{ACAD_REACTORS
330
42
102
}
330
42
100
AcDbScale
 70
     0
300
1" = 1'-0"
140
1.0
141
12.0
290
     0
  0
SCALE
  5
50
102
{ACAD_REACTORS
330
42
102
}
330
42
100
AcDbScale
 70
     0
300
1-1/2" = 1'-0"
140
1.5
141
12.0
290
     0
  0
SCALE
  5
51
102
{ACAD_REACTORS
330
42
102
}
330
42
100
AcDbScale
 70
     0
300
3" = 1'-0"
140
3.0
141
12.0
290
     0
  0
SCALE
  5
52
102
{ACAD_REACTORS
330
42
102
}
330
42
100
AcDbScale
 70
     0
300
6" = 1'-0"
140
6.0
141
12.0
290
     0
  0
SCALE
  5
53
102
{ACAD_REACTORS
330
42
102
}
330
42
100
AcDbScale
 70
     0
300
1'-0" = 1'-0"
140
12.0
141
12.0
290
     0
  0
ACDBSECTIONVIEWSTYLE
  5
69
102
{ACAD_XDICTIONARY
360
1A0
102
}
102
{ACAD_REACTORS
330
68
102
}
330
68
100
AcDbModelDocViewStyle
 70
     0
  3
Imperial24
290
     0
100
AcDbSectionViewStyle
 70
     0
 71
     0
 90
       78
 71
     1
340
55
 62
   256
 40
0.24
340
0
340
0
 62
   256
 40
0.24
300
I, O, Q, S, X, Z
 40
0.48
 90
        3
 40
0.18
 90
        1
 71
     2
340
5D
 90
       25
 62
   256
340
5D
 90
       50
 62
   256
 40
0.24
 40
0.0
 40
0.24
 71
     3
340
55
 62
   256
 40
0.24
 90
        1
 40
0.75
 90
        1
300
%<\AcVar ViewType \f "%tc1">% %<\AcVar ViewSectionStartId>%-%<\AcVar ViewSectionEndId>%\PSCALE %<\AcVar ViewScale \f "%sn">%
 71
     4
 62
   256
 62
   257
300
ANSI31
 40
1.0
 90
        0
290
     0
290
     0
 90
        6
 40
0.0
 40
1.570796326794896
 40
0.2617993877991494
 40
1.308996938995747
 40
-0.2617993877991494
 40
1.832595714594046
  0
TABLESTYLE
  5
65
102
{ACAD_XDICTIONARY
360
16B
102
}
102
{ACAD_REACTORS
330
64
102
}
330
64
100
AcDbTableStyle
280
     0
  3
Standard
 70
     0
 71
     0
 40
0.06
 41
0.06
280
     0
281
     0
  7
Standard
140
0.18
170
     2
 62
     0
 63
     7
283
     0
 90
      512
 91
        0
  1

274
    -2
284
     1
 64
     0
275
    -2
285
     1
 65
     0
276
    -2
286
     1
 66
     0
277
    -2
287
     1
 67
     0
278
    -2
288
     1
 68
     0
279
    -2
289
     1
 69
     0
  7
Standard
140
0.25
170
     5
 62
     0
 63
     7
283
     0
 90
      512
 91
        0
  1

274
    -2
284
     1
 64
     0
275
    -2
285
     1
 65
     0
276
    -2
286
     1
 66
     0
277
    -2
287
     1
 67
     0
278
    -2
288
     1
 68
     0
279
    -2
289
     1
 69
     0
  7
Standard
140
0.18
170
     5
 62
     0
 63
     7
283
     0
 90
      512
 91
        0
  1

274
    -2
284
     1
 64
     0
275
    -2
285
     1
 65
     0
276
    -2
286
     1
 66
     0
277
    -2
287
     1
 67
     0
278
    -2
288
     1
 68
     0
279
    -2
289
     1
 69
     0
  0
VISUALSTYLE
  5
2F
102
{ACAD_XDICTIONARY
360
178
102
}
102
{ACAD_REACTORS
330
29
102
}
330
29
100
AcDbVisualStyle
  2
2dWireframe
 70
     4
177
     2
291
     0
 71
     0
176
     1
 72
     2
176
     1
 73
     0
176
     1
 90
        0
176
     1
 40
0.6
176
     1
 41
30.0
176
     1
 63
     7
421
 16777215
176
     1
 74
     1
176
     1
 91
        4
176
     1
 64
     7
176
     1
 65
   257
176
     1
 75
     1
176
     1
175
     1
176
     1
 42
1.0
176
     1
 92
        0
176
     1
 66
   257
176
     1
 43
1.0
176
     1
 76
     1
176
     1
 77
     6
176
     1
 78
     2
176
     1
 67
     7
176
     1
 79
     5
176
     1
170
     0
176
     1
171
     0
176
     1
290
     0
176
     1
 93
        1
176
     1
 44
0.0
176
     1
173
     0
176
     1
1001
ACAD
1000
AcDbSavedByObjectVersion
1070
     0
  0
VISUALSTYLE
  5
2E
102
{ACAD_XDICTIONARY
360
176
102
}
102
{ACAD_REACTORS
330
29
102
}
330
29
100
AcDbVisualStyle
  2
Basic
 70
     7
177
     2
291
     1
 71
     1
176
     1
 72
     0
176
     1
 73
     1
176
     1
 90
        0
176
     1
 40
0.6
176
     1
 41
30.0
176
     1
 63
     7
421
 16777215
176
     1
 74
     0
176
     1
 91
        4
176
     1
 64
     7
176
     1
 65
   257
176
     1
 75
     1
176
     1
175
     1
176
     1
 42
1.0
176
     1
 92
        8
176
     1
 66
     7
176
     1
 43
1.0
176
     1
 76
     1
176
     1
 77
     6
176
     1
 78
     2
176
     1
 67
     7
176
     1
 79
     5
176
     1
170
     0
176
     1
171
     0
176
     1
290
     0
176
     1
 93
        1
176
     1
 44
0.0
176
     1
173
     0
176
     1
1001
ACAD
1000
AcDbSavedByObjectVersion
1070
     0
  0
VISUALSTYLE
  5
35
102
{ACAD_XDICTIONARY
360
184
102
}
102
{ACAD_REACTORS
330
29
102
}
330
29
100
AcDbVisualStyle
  2
Brighten
 70
    12
177
     2
291
     1
 71
     2
176
     1
 72
     2
176
     1
 73
     0
176
     1
 90
        0
176
     1
 40
0.6
176
     1
 41
30.0
176
     1
 63
     7
421
 16777215
176
     1
 74
     1
176
     1
 91
        4
176
     1
 64
     7
176
     1
 65
   257
176
     1
 75
     1
176
     1
175
     1
176
     1
 42
1.0
176
     1
 92
        8
176
     1
 66
     7
176
     1
 43
1.0
176
     1
 76
     1
176
     1
 77
     6
176
     1
 78
     2
176
     1
 67
     7
176
     1
 79
     5
176
     1
170
     0
176
     1
171
     0
176
     1
290
     0
176
     1
 93
        1
176
     1
 44
50.0
176
     1
173
     0
176
     1
1001
ACAD
1000
AcDbSavedByObjectVersion
1070
     0
  0
VISUALSTYLE
  5
39
102
{ACAD_XDICTIONARY
360
18C
102
}
102
{ACAD_REACTORS
330
29
102
}
330
29
100
AcDbVisualStyle
  2
ColorChange
 70
    16
177
     2
291
     1
 71
     2
176
     1
 72
     2
176
     1
 73
     3
176
     1
 90
        0
176
     1
 40
0.6
176
     1
 41
30.0
176
     1
 63
     8
421
  8421504
176
     1
 74
     1
176
     1
 91
        4
176
     1
 64
     7
176
     1
 65
   257
176
     1
 75
     1
176
     1
175
     1
176
     1
 42
1.0
176
     1
 92
        8
176
     1
 66
     8
424
  8421504
176
     1
 43
1.0
176
     1
 76
     1
176
     1
 77
     6
176
     1
 78
     2
176
     1
 67
     7
176
     1
 79
     5
176
     1
170
     0
176
     1
171
     0
176
     1
290
     0
176
     1
 93
        1
176
     1
 44
0.0
176
     1
173
     0
176
     1
1001
ACAD
1000
AcDbSavedByObjectVersion
1070
     0
  0
VISUALSTYLE
  5
32
102
{ACAD_XDICTIONARY
360
17E
102
}
102
{ACAD_REACTORS
330
29
102
}
330
29
100
AcDbVisualStyle
  2
Conceptual
 70
     9
177
     2
291
     0
 71
     3
176
     1
 72
     2
176
     1
 73
     0
176
     1
 90
        0
176
     1
 40
0.6
176
     1
 41
30.0
176
     1
 63
     7
421
 16777215
176
     1
 74
     2
176
     1
 91
        2
176
     1
 64
     7
176
     1
 65
   257
176
     1
 75
     1
176
     1
175
     1
176
     1
 42
179.0
176
     1
 92
        8
176
     1
 66
     7
176
     1
 43
1.0
176
     1
 76
     1
176
     1
 77
     6
176
     1
 78
     2
176
     1
 67
     7
176
     1
 79
     3
176
     1
170
     0
176
     1
171
     0
176
     1
290
     0
176
     1
 93
        1
176
     1
 44
0.0
176
     1
173
     0
176
     1
1001
ACAD
1000
AcDbSavedByObjectVersion
1070
     0
  0
VISUALSTYLE
  5
34
102
{ACAD_XDICTIONARY
360
182
102
}
102
{ACAD_REACTORS
330
29
102
}
330
29
100
AcDbVisualStyle
  2
Dim
 70
    11
177
     2
291
     1
 71
     2
176
     1
 72
     2
176
     1
 73
     0
176
     1
 90
        0
176
     1
 40
0.6
176
     1
 41
30.0
176
     1
 63
     7
421
 16777215
176
     1
 74
     1
176
     1
 91
        4
176
     1
 64
     7
176
     1
 65
   257
176
     1
 75
     1
176
     1
175
     1
176
     1
 42
1.0
176
     1
 92
        8
176
     1
 66
     7
176
     1
 43
1.0
176
     1
 76
     1
176
     1
 77
     6
176
     1
 78
     2
176
     1
 67
     7
176
     1
 79
     5
176
     1
170
     0
176
     1
171
     0
176
     1
290
     0
176
     1
 93
        1
176
     1
 44
-50.0
176
     1
173
     0
176
     1
1001
ACAD
1000
AcDbSavedByObjectVersion
1070
     0
  0
VISUALSTYLE
  5
41
102
{ACAD_XDICTIONARY
360
19C
102
}
102
{ACAD_REACTORS
330
29
102
}
330
29
100
AcDbVisualStyle
  2
EdgeColorOff
 70
    22
177
     2
291
     1
 71
     2
176
     0
 72
     2
176
     0
 73
     0
176
     0
 90
        0
176
     0
 40
0.6
176
     0
 41
30.0
176
     0
 63
     7
421
 16777215
176
     0
 74
     1
176
     0
 91
        4
176
     0
 64
     7
176
     0
 65
   257
176
     0
 75
     1
176
     0
175
     1
176
     0
 42
1.0
176
     0
 92
        8
176
     2
 66
     7
176
     0
 43
1.0
176
     0
 76
     1
176
     0
 77
     6
176
     0
 78
     2
176
     0
 67
     7
176
     0
 79
     5
176
     0
170
     0
176
     0
171
     0
176
     0
290
     0
176
     0
 93
        1
176
     0
 44
0.0
176
     0
173
     0
176
     0
1001
ACAD
1000
AcDbSavedByObjectVersion
1070
     0
  0
VISUALSTYLE
  5
38
102
{ACAD_XDICTIONARY
360
18A
102
}
102
{ACAD_REACTORS
330
29
102
}
330
29
100
AcDbVisualStyle
  2
Facepattern
 70
    15
177
     2
291
     1
 71
     2
176
     1
 72
     2
176
     1
 73
     0
176
     1
 90
        0
176
     1
 40
0.6
176
     1
 41
30.0
176
     1
 63
     7
421
 16777215
176
     1
 74
     1
176
     1
 91
        4
176
     1
 64
     7
176
     1
 65
   257
176
     1
 75
     1
176
     1
175
     1
176
     1
 42
1.0
176
     1
 92
        8
176
     1
 66
     7
176
     1
 43
1.0
176
     1
 76
     1
176
     1
 77
     6
176
     1
 78
     2
176
     1
 67
     7
176
     1
 79
     5
176
     1
170
     0
176
     1
171
     0
176
     1
290
     0
176
     1
 93
        1
176
     1
 44
0.0
176
     1
173
     0
176
     1
1001
ACAD
1000
AcDbSavedByObjectVersion
1070
     0
  0
VISUALSTYLE
  5
2A
102
{ACAD_XDICTIONARY
360
16E
102
}
102
{ACAD_REACTORS
330
29
102
}
330
29
100
AcDbVisualStyle
  2
Flat
 70
     0
177
     2
291
     1
 71
     2
176
     1
 72
     1
176
     1
 73
     1
176
     1
 90
        2
176
     1
 40
0.6
176
     1
 41
30.0
176
     1
 63
     7
421
 16777215
176
     1
 74
     0
176
     1
 91
        0
176
     1
 64
     7
176
     1
 65
   257
176
     1
 75
     1
176
     1
175
     1
176
     1
 42
1.0
176
     1
 92
        8
176
     1
 66
     7
176
     1
 43
1.0
176
     1
 76
     1
176
     1
 77
     6
176
     1
 78
     2
176
     1
 67
     7
176
     1
 79
     5
176
     1
170
     0
176
     1
171
     0
176
     1
290
     0
176
     1
 93
       13
176
     1
 44
0.0
176
     1
173
     0
176
     1
1001
ACAD
1000
AcDbSavedByObjectVersion
1070
     0
  0
VISUALSTYLE
  5
2B
102
{ACAD_XDICTIONARY
360
170
102
}
102
{ACAD_REACTORS
330
29
102
}
330
29
100
AcDbVisualStyle
  2
FlatWithEdges
 70
     1
177
     2
291
     1
 71
     2
176
     1
 72
     1
176
     1
 73
     1
176
     1
 90
        2
176
     1
 40
0.6
176
     1
 41
30.0
176
     1
 63
     7
421
 16777215
176
     1
 74
     1
176
     1
 91
        0
176
     1
 64
     7
176
     1
 65
   257
176
     1
 75
     1
176
     1
175
     1
176
     1
 42
1.0
176
     1
 92
        0
176
     1
 66
   257
176
     1
 43
1.0
176
     1
 76
     1
176
     1
 77
     6
176
     1
 78
     2
176
     1
 67
     7
176
     1
 79
     5
176
     1
170
     0
176
     1
171
     0
176
     1
290
     0
176
     1
 93
       13
176
     1
 44
0.0
176
     1
173
     0
176
     1
1001
ACAD
1000
AcDbSavedByObjectVersion
1070
     0
  0
VISUALSTYLE
  5
2C
102
{ACAD_XDICTIONARY
360
172
102
}
102
{ACAD_REACTORS
330
29
102
}
330
29
100
AcDbVisualStyle
  2
Gouraud
 70
     2
177
     2
291
     1
 71
     2
176
     1
 72
     2
176
     1
 73
     1
176
     1
 90
        2
176
     1
 40
0.6
176
     1
 41
30.0
176
     1
 63
     7
421
 16777215
176
     1
 74
     0
176
     1
 91
        0
176
     1
 64
     7
176
     1
 65
   257
176
     1
 75
     1
176
     1
175
     1
176
     1
 42
1.0
176
     1
 92
        0
176
     1
 66
     7
176
     1
 43
1.0
176
     1
 76
     1
176
     1
 77
     6
176
     1
 78
     2
176
     1
 67
     7
176
     1
 79
     5
176
     1
170
     0
176
     1
171
     0
176
     1
290
     0
176
     1
 93
       13
176
     1
 44
0.0
176
     1
173
     0
176
     1
1001
ACAD
1000
AcDbSavedByObjectVersion
1070
     0
  0
VISUALSTYLE
  5
2D
102
{ACAD_XDICTIONARY
360
174
102
}
102
{ACAD_REACTORS
330
29
102
}
330
29
100
AcDbVisualStyle
  2
GouraudWithEdges
 70
     3
177
     2
291
     1
 71
     2
176
     1
 72
     2
176
     1
 73
     1
176
     1
 90
        2
176
     1
 40
0.6
176
     1
 41
30.0
176
     1
 63
     7
421
 16777215
176
     1
 74
     1
176
     1
 91
        0
176
     1
 64
     7
176
     1
 65
   257
176
     1
 75
     1
176
     1
175
     1
176
     1
 42
1.0
176
     1
 92
        0
176
     1
 66
   257
176
     1
 43
1.0
176
     1
 76
     1
176
     1
 77
     6
176
     1
 78
     2
176
     1
 67
     7
176
     1
 79
     5
176
     1
170
     0
176
     1
171
     0
176
     1
290
     0
176
     1
 93
       13
176
     1
 44
0.0
176
     1
173
     0
176
     1
1001
ACAD
1000
AcDbSavedByObjectVersion
1070
     0
  0
VISUALSTYLE
  5
31
102
{ACAD_XDICTIONARY
360
17C
102
}
102
{ACAD_REACTORS
330
29
102
}
330
29
100
AcDbVisualStyle
  2
Hidden
 70
     6
177
     2
291
     0
 71
     1
176
     1
 72
     2
176
     1
 73
     2
176
     1
 90
        0
176
     1
 40
0.6
176
     1
 41
30.0
176
     1
 63
     7
421
 16777215
176
     1
 74
     2
176
     1
 91
        2
176
     1
 64
     7
176
     1
 65
   257
176
     1
 75
     2
176
     1
175
     1
176
     1
 42
40.0
176
     1
 92
        0
176
     1
 66
   257
176
     1
 43
1.0
176
     1
 76
     1
176
     1
 77
     6
176
     1
 78
     2
176
     1
 67
     7
176
     1
 79
     3
176
     1
170
     0
176
     1
171
     0
176
     1
290
     0
176
     1
 93
        1
176
     1
 44
0.0
176
     1
173
     0
176
     1
1001
ACAD
1000
AcDbSavedByObjectVersion
1070
     0
  0
VISUALSTYLE
  5
3F
102
{ACAD_XDICTIONARY
360
198
102
}
102
{ACAD_REACTORS
330
29
102
}
330
29
100
AcDbVisualStyle
  2
JitterOff
 70
    20
177
     2
291
     1
 71
     2
176
     0
 72
     2
176
     0
 73
     0
176
     0
 90
        0
176
     0
 40
0.6
176
     0
 41
30.0
176
     0
 63
     7
421
 16777215
176
     0
 74
     1
176
     0
 91
        4
176
     0
 64
     7
176
     0
 65
   257
176
     0
 75
     1
176
     0
175
     1
176
     0
 42
1.0
176
     0
 92
       10
176
     2
 66
     7
176
     0
 43
1.0
176
     0
 76
     1
176
     0
 77
     6
176
     0
 78
     2
176
     0
 67
     7
176
     0
 79
     5
176
     0
170
     0
176
     0
171
     0
176
     0
290
     0
176
     0
 93
        1
176
     0
 44
0.0
176
     0
173
     0
176
     0
1001
ACAD
1000
AcDbSavedByObjectVersion
1070
     0
  0
VISUALSTYLE
  5
37
102
{ACAD_XDICTIONARY
360
188
102
}
102
{ACAD_REACTORS
330
29
102
}
330
29
100
AcDbVisualStyle
  2
Linepattern
 70
    14
177
     2
291
     1
 71
     2
176
     1
 72
     2
176
     1
 73
     0
176
     1
 90
        0
176
     1
 40
0.6
176
     1
 41
30.0
176
     1
 63
     7
421
 16777215
176
     1
 74
     1
176
     1
 91
        4
176
     1
 64
     7
176
     1
 65
   257
176
     1
 75
     7
176
     1
175
     7
176
     1
 42
1.0
176
     1
 92
        8
176
     1
 66
     7
176
     1
 43
1.0
176
     1
 76
     1
176
     1
 77
     6
176
     1
 78
     2
176
     1
 67
     7
176
     1
 79
     5
176
     1
170
     0
176
     1
171
     0
176
     1
290
     0
176
     1
 93
        1
176
     1
 44
0.0
176
     1
173
     0
176
     1
1001
ACAD
1000
AcDbSavedByObjectVersion
1070
     0
  0
VISUALSTYLE
  5
40
102
{ACAD_XDICTIONARY
360
19A
102
}
102
{ACAD_REACTORS
330
29
102
}
330
29
100
AcDbVisualStyle
  2
OverhangOff
 70
    21
177
     2
291
     1
 71
     2
176
     0
 72
     2
176
     0
 73
     0
176
     0
 90
        0
176
     0
 40
0.6
176
     0
 41
30.0
176
     0
 63
     7
421
 16777215
176
     0
 74
     1
176
     0
 91
        4
176
     0
 64
     7
176
     0
 65
   257
176
     0
 75
     1
176
     0
175
     1
176
     0
 42
1.0
176
     0
 92
        9
176
     2
 66
     7
176
     0
 43
1.0
176
     0
 76
     1
176
     0
 77
     6
176
     0
 78
     2
176
     0
 67
     7
176
     0
 79
     5
176
     0
170
     0
176
     0
171
     0
176
     0
290
     0
176
     0
 93
        1
176
     0
 44
0.0
176
     0
173
     0
176
     0
1001
ACAD
1000
AcDbSavedByObjectVersion
1070
     0
  0
VISUALSTYLE
  5
33
102
{ACAD_XDICTIONARY
360
180
102
}
102
{ACAD_REACTORS
330
29
102
}
330
29
100
AcDbVisualStyle
  2
Realistic
 70
     8
177
     2
291
     0
 71
     2
176
     1
 72
     3
176
     1
 73
     0
176
     1
 90
        2
176
     1
 40
0.6
176
     1
 41
30.0
176
     1
 63
     7
421
 16777215
176
     1
 74
     0
176
     1
 91
        0
176
     1
 64
     7
176
     1
 65
   257
176
     1
 75
     1
176
     1
175
     1
176
     1
 42
1.0
176
     1
 92
        8
176
     1
 66
   257
176
     1
 43
1.0
176
     1
 76
     1
176
     1
 77
     6
176
     1
 78
     2
176
     1
 67
     7
176
     1
 79
     3
176
     1
170
     0
176
     1
171
     0
176
     1
290
     0
176
     1
 93
       13
176
     1
 44
0.0
176
     1
173
     0
176
     1
1001
ACAD
1000
AcDbSavedByObjectVersion
1070
     0
  0
VISUALSTYLE
  5
3E
102
{ACAD_XDICTIONARY
360
196
102
}
102
{ACAD_REACTORS
330
29
102
}
330
29
100
AcDbVisualStyle
  2
Shaded
 70
    27
177
     2
291
     0
 71
     2
176
     1
 72
     2
176
     1
 73
     1
176
     1
 90
        2
176
     1
 40
0.6
176
     1
 41
30.0
176
     1
 63
     7
421
 16777215
176
     1
 74
     0
176
     1
 91
        4
176
     1
 64
     7
176
     1
 65
   257
176
     1
 75
     1
176
     1
175
     1
176
     1
 42
1.0
176
     1
 92
        8
176
     1
 66
   257
176
     1
 43
1.0
176
     1
 76
     1
176
     1
 77
     6
176
     1
 78
     2
176
     1
 67
     8
425
  7895160
176
     1
 79
     3
176
     1
170
     0
176
     1
171
     0
176
     1
290
     0
176
     1
 93
        5
176
     1
 44
0.0
176
     1
173
     0
176
     1
1001
ACAD
1000
AcDbSavedByObjectVersion
1070
     0
  0
VISUALSTYLE
  5
3D
102
{ACAD_XDICTIONARY
360
194
102
}
102
{ACAD_REACTORS
330
29
102
}
330
29
100
AcDbVisualStyle
  2
Shaded with edges
 70
    26
177
     2
291
     0
 71
     2
176
     1
 72
     2
176
     1
 73
     1
176
     1
 90
        2
176
     1
 40
0.6
176
     1
 41
30.0
176
     1
 63
     7
421
 16777215
176
     1
 74
     1
176
     1
 91
        2
176
     1
 64
     7
176
     1
 65
   257
176
     1
 75
     2
176
     1
175
     1
176
     1
 42
1.0
176
     1
 92
        8
176
     1
 66
   257
176
     1
 43
1.0
176
     1
 76
     1
176
     1
 77
     6
176
     1
 78
     2
176
     1
 67
     7
176
     1
 79
     3
176
     1
170
     0
176
     1
171
     0
176
     1
290
     0
176
     1
 93
        5
176
     1
 44
0.0
176
     1
173
     0
176
     1
1001
ACAD
1000
AcDbSavedByObjectVersion
1070
     0
  0
VISUALSTYLE
  5
3A
102
{ACAD_XDICTIONARY
360
18E
102
}
102
{ACAD_REACTORS
330
29
102
}
330
29
100
AcDbVisualStyle
  2
Shades of Gray
 70
    23
177
     2
291
     0
 71
     2
176
     1
 72
     2
176
     1
 73
     3
176
     1
 90
        0
176
     1
 40
0.6
176
     1
 41
30.0
176
     1
 63
     7
421
 16777215
176
     1
 74
     2
176
     1
 91
        2
176
     1
 64
     7
176
     1
 65
     7
176
     1
 75
     1
176
     1
175
     1
176
     1
 42
40.0
176
     1
 92
        8
176
     1
 66
     7
176
     1
 43
1.0
176
     1
 76
     1
176
     1
 77
     6
176
     1
 78
     2
176
     1
 67
     7
176
     1
 79
     3
176
     1
170
     0
176
     1
171
     0
176
     1
290
     0
176
     1
 93
        1
176
     1
 44
0.0
176
     1
173
     0
176
     1
1001
ACAD
1000
AcDbSavedByObjectVersion
1070
     0
  0
VISUALSTYLE
  5
3B
102
{ACAD_XDICTIONARY
360
190
102
}
102
{ACAD_REACTORS
330
29
102
}
330
29
100
AcDbVisualStyle
  2
Sketchy
 70
    24
177
     2
291
     0
 71
     1
176
     1
 72
     2
176
     1
 73
     2
176
     1
 90
        0
176
     1
 40
0.6
176
     1
 41
30.0
176
     1
 63
     7
421
 16777215
176
     1
 74
     2
176
     1
 91
        2
176
     1
 64
     7
176
     1
 65
     7
176
     1
 75
     1
176
     1
175
     1
176
     1
 42
40.0
176
     1
 92
       11
176
     1
 66
     7
176
     1
 43
1.0
176
     1
 76
     1
176
     1
 77
     6
176
     1
 78
     2
176
     1
 67
     7
176
     1
 79
     6
176
     1
170
     0
176
     1
171
     0
176
     1
290
     0
176
     1
 93
        1
176
     1
 44
0.0
176
     1
173
     0
176
     1
1001
ACAD
1000
AcDbSavedByObjectVersion
1070
     0
  0
VISUALSTYLE
  5
36
102
{ACAD_XDICTIONARY
360
186
102
}
102
{ACAD_REACTORS
330
29
102
}
330
29
100
AcDbVisualStyle
  2
Thicken
 70
    13
177
     2
291
     1
 71
     2
176
     1
 72
     2
176
     1
 73
     0
176
     1
 90
        0
176
     1
 40
0.6
176
     1
 41
30.0
176
     1
 63
     7
421
 16777215
176
     1
 74
     1
176
     1
 91
        4
176
     1
 64
     7
176
     1
 65
   257
176
     1
 75
     1
176
     1
175
     1
176
     1
 42
1.0
176
     1
 92
       12
176
     1
 66
     7
176
     1
 43
1.0
176
     1
 76
     1
176
     1
 77
     6
176
     1
 78
     2
176
     1
 67
     7
176
     1
 79
     5
176
     1
170
     0
176
     1
171
     0
176
     1
290
     0
176
     1
 93
        1
176
     1
 44
0.0
176
     1
173
     0
176
     1
1001
ACAD
1000
AcDbSavedByObjectVersion
1070
     0
  0
VISUALSTYLE
  5
30
102
{ACAD_XDICTIONARY
360
17A
102
}
102
{ACAD_REACTORS
330
29
102
}
330
29
100
AcDbVisualStyle
  2
Wireframe
 70
     5
177
     2
291
     0
 71
     0
176
     1
 72
     2
176
     1
 73
     0
176
     1
 90
        0
176
     1
 40
0.6
176
     1
 41
30.0
176
     1
 63
     7
421
 16777215
176
     1
 74
     1
176
     1
 91
        4
176
     1
 64
     7
176
     1
 65
   257
176
     1
 75
     1
176
     1
175
     1
176
     1
 42
1.0
176
     1
 92
        0
176
     1
 66
   257
176
     1
 43
1.0
176
     1
 76
     1
176
     1
 77
     6
176
     1
 78
     2
176
     1
 67
     7
176
     1
 79
     3
176
     1
170
     0
176
     1
171
     0
176
     1
290
     0
176
     1
 93
        1
176
     1
 44
0.0
176
     1
173
     0
176
     1
1001
ACAD
1000
AcDbSavedByObjectVersion
1070
     0
  0
VISUALSTYLE
  5
3C
102
{ACAD_XDICTIONARY
360
192
102
}
102
{ACAD_REACTORS
330
29
102
}
330
29
100
AcDbVisualStyle
  2
X-Ray
 70
    25
177
     2
291
     0
 71
     2
176
     1
 72
     2
176
     1
 73
     1
176
     1
 90
        1
176
     1
 40
0.5
176
     1
 41
30.0
176
     1
 63
     7
421
 16777215
176
     1
 74
     1
176
     1
 91
        0
176
     1
 64
     7
176
     1
 65
   257
176
     1
 75
     1
176
     1
175
     1
176
     1
 42
1.0
176
     1
 92
        8
176
     1
 66
     7
176
     1
 43
1.0
176
     1
 76
     1
176
     1
 77
     6
176
     1
 78
     2
176
     1
 67
     7
176
     1
 79
     3
176
     1
170
     0
176
     1
171
     0
176
     1
290
     0
176
     1
 93
       13
176
     1
 44
0.0
176
     1
173
     0
176
     1
1001
ACAD
1000
AcDbSavedByObjectVersion
1070
     0
  0
DICTIONARYVAR
  5
16A
102
{ACAD_REACTORS
330
165
102
}
330
165
100
DictionaryVariables
280
     0
  1
1:1
  0
DICTIONARYVAR
  5
167
102
{ACAD_REACTORS
330
165
102
}
330
165
100
DictionaryVariables
280
     0
  1
STANDARD
  0
DICTIONARYVAR
  5
166
102
{ACAD_REACTORS
330
165
102
}
330
165
100
DictionaryVariables
280
     0
  1
STANDARD
  0
DICTIONARYVAR
  5
168
102
{ACAD_REACTORS
330
165
102
}
330
165
100
DictionaryVariables
280
     0
  1
Imperial24
  0
DICTIONARYVAR
  5
169
102
{ACAD_REACTORS
330
165
102
}
330
165
100
DictionaryVariables
280
     0
  1
Imperial24
  0
DICTIONARY
  5
1A2
330
6B
100
AcDbDictionary
280
     1
281
     1
  3
ACAD_XREC_ROUNDTRIP
360
1A3
  0
DICTIONARY
  5
1A
330
19
100
AcDbDictionary
280
     1
281
     1
  3
BUMPTILE
360
1C
  3
DIFFUSETILE
360
1B
  3
OPACITYTILE
360
1F
  3
REFLECTIONTILE
360
1E
  3
REFRACTIONTILE
360
20
  3
SPECULARTILE
360
1D
  0
DICTIONARY
  5
12
330
11
100
AcDbDictionary
280
     1
281
     1
  3
BUMPTILE
360
14
  3
DIFFUSETILE
360
13
  3
OPACITYTILE
360
17
  3
REFLECTIONTILE
360
16
  3
REFRACTIONTILE
360
18
  3
SPECULARTILE
360
15
  0
DICTIONARY
  5
22
330
21
100
AcDbDictionary
280
     1
281
     1
  3
BUMPTILE
360
24
  3
DIFFUSETILE
360
23
  3
OPACITYTILE
360
27
  3
REFLECTIONTILE
360
26
  3
REFRACTIONTILE
360
28
  3
SPECULARTILE
360
25
  0
DICTIONARY
  5
19E
330
67
100
AcDbDictionary
280
     1
281
     1
  3
ACAD_XREC_ROUNDTRIP
360
19F
  0
DICTIONARY
  5
1A0
330
69
100
AcDbDictionary
280
     1
281
     1
  3
ACAD_XREC_ROUNDTRIP
360
1A1
  0
DICTIONARY
  5
16B
330
65
100
AcDbDictionary
280
     1
281
     1
  3
ACAD_ROUNDTRIP_2008_TABLESTYLE_CELLSTYLEMAP
360
16C
  0
DICTIONARY
  5
178
330
2F
100
AcDbDictionary
280
     1
281
     1
  3
ACAD_XREC_ROUNDTRIP
360
179
  0
DICTIONARY
  5
176
330
2E
100
AcDbDictionary
280
     1
281
     1
  3
ACAD_XREC_ROUNDTRIP
360
177
  0
DICTIONARY
  5
184
330
35
100
AcDbDictionary
280
     1
281
     1
  3
ACAD_XREC_ROUNDTRIP
360
185
  0
DICTIONARY
  5
18C
330
39
100
AcDbDictionary
280
     1
281
     1
  3
ACAD_XREC_ROUNDTRIP
360
18D
  0
DICTIONARY
  5
17E
330
32
100
AcDbDictionary
280
     1
281
     1
  3
ACAD_XREC_ROUNDTRIP
360
17F
  0
DICTIONARY
  5
182
330
34
100
AcDbDictionary
280
     1
281
     1
  3
ACAD_XREC_ROUNDTRIP
360
183
  0
DICTIONARY
  5
19C
330
41
100
AcDbDictionary
280
     1
281
     1
  3
ACAD_XREC_ROUNDTRIP
360
19D
  0
DICTIONARY
  5
18A
330
38
100
AcDbDictionary
280
     1
281
     1
  3
ACAD_XREC_ROUNDTRIP
360
18B
  0
DICTIONARY
  5
16E
330
2A
100
AcDbDictionary
280
     1
281
     1
  3
ACAD_XREC_ROUNDTRIP
360
16F
  0
DICTIONARY
  5
170
330
2B
100
AcDbDictionary
280
     1
281
     1
  3
ACAD_XREC_ROUNDTRIP
360
171
  0
DICTIONARY
  5
172
330
2C
100
AcDbDictionary
280
     1
281
     1
  3
ACAD_XREC_ROUNDTRIP
360
173
  0
DICTIONARY
  5
174
330
2D
100
AcDbDictionary
280
     1
281
     1
  3
ACAD_XREC_ROUNDTRIP
360
175
  0
DICTIONARY
  5
17C
330
31
100
AcDbDictionary
280
     1
281
     1
  3
ACAD_XREC_ROUNDTRIP
360
17D
  0
DICTIONARY
  5
198
330
3F
100
AcDbDictionary
280
     1
281
     1
  3
ACAD_XREC_ROUNDTRIP
360
199
  0
DICTIONARY
  5
188
330
37
100
AcDbDictionary
280
     1
281
     1
  3
ACAD_XREC_ROUNDTRIP
360
189
  0
DICTIONARY
  5
19A
330
40
100
AcDbDictionary
280
     1
281
     1
  3
ACAD_XREC_ROUNDTRIP
360
19B
  0
DICTIONARY
  5
180
330
33
100
AcDbDictionary
280
     1
281
     1
  3
ACAD_XREC_ROUNDTRIP
360
181
  0
DICTIONARY
  5
196
330
3E
100
AcDbDictionary
280
     1
281
     1
  3
ACAD_XREC_ROUNDTRIP
360
197
  0
DICTIONARY
  5
194
330
3D
100
AcDbDictionary
280
     1
281
     1
  3
ACAD_XREC_ROUNDTRIP
360
195
  0
DICTIONARY
  5
18E
330
3A
100
AcDbDictionary
280
     1
281
     1
  3
ACAD_XREC_ROUNDTRIP
360
18F
  0
DICTIONARY
  5
190
330
3B
100
AcDbDictionary
280
     1
281
     1
  3
ACAD_XREC_ROUNDTRIP
360
191
  0
DICTIONARY
  5
186
330
36
100
AcDbDictionary
280
     1
281
     1
  3
ACAD_XREC_ROUNDTRIP
360
187
  0
DICTIONARY
  5
17A
330
30
100
AcDbDictionary
280
     1
281
     1
  3
ACAD_XREC_ROUNDTRIP
360
17B
  0
DICTIONARY
  5
192
330
3C
100
AcDbDictionary
280
     1
281
     1
  3
ACAD_XREC_ROUNDTRIP
360
193
  0
XRECORD
  5
1A3
102
{ACAD_REACTORS
330
1A2
102
}
330
1A2
100
AcDbXrecord
280
     1
102
DISPLAYNAME
  1
Imperial24
102
FLAGS
 90
        0
  0
XRECORD
  5
1C
102
{ACAD_REACTORS
330
1A
102
}
330
1A
100
AcDbXrecord
280
     1
270
     1
271
     1
  0
XRECORD
  5
1B
102
{ACAD_REACTORS
330
1A
102
}
330
1A
100
AcDbXrecord
280
     1
270
     1
271
     1
  0
XRECORD
  5
1F
102
{ACAD_REACTORS
330
1A
102
}
330
1A
100
AcDbXrecord
280
     1
270
     1
271
     1
  0
XRECORD
  5
1E
102
{ACAD_REACTORS
330
1A
102
}
330
1A
100
AcDbXrecord
280
     1
270
     1
271
     1
  0
XRECORD
  5
20
102
{ACAD_REACTORS
330
1A
102
}
330
1A
100
AcDbXrecord
280
     1
270
     1
271
     1
  0
XRECORD
  5
1D
102
{ACAD_REACTORS
330
1A
102
}
330
1A
100
AcDbXrecord
280
     1
270
     1
271
     1
  0
XRECORD
  5
14
102
{ACAD_REACTORS
330
12
102
}
330
12
100
AcDbXrecord
280
     1
270
     1
271
     1
  0
XRECORD
  5
13
102
{ACAD_REACTORS
330
12
102
}
330
12
100
AcDbXrecord
280
     1
270
     1
271
     1
  0
XRECORD
  5
17
102
{ACAD_REACTORS
330
12
102
}
330
12
100
AcDbXrecord
280
     1
270
     1
271
     1
  0
XRECORD
  5
16
102
{ACAD_REACTORS
330
12
102
}
330
12
100
AcDbXrecord
280
     1
270
     1
271
     1
  0
XRECORD
  5
18
102
{ACAD_REACTORS
330
12
102
}
330
12
100
AcDbXrecord
280
     1
270
     1
271
     1
  0
XRECORD
  5
15
102
{ACAD_REACTORS
330
12
102
}
330
12
100
AcDbXrecord
280
     1
270
     1
271
     1
  0
XRECORD
  5
24
102
{ACAD_REACTORS
330
22
102
}
330
22
100
AcDbXrecord
280
     1
270
     1
271
     1
  0
XRECORD
  5
23
102
{ACAD_REACTORS
330
22
102
}
330
22
100
AcDbXrecord
280
     1
270
     1
271
     1
  0
XRECORD
  5
27
102
{ACAD_REACTORS
330
22
102
}
330
22
100
AcDbXrecord
280
     1
270
     1
271
     1
  0
XRECORD
  5
26
102
{ACAD_REACTORS
330
22
102
}
330
22
100
AcDbXrecord
280
     1
270
     1
271
     1
  0
XRECORD
  5
28
102
{ACAD_REACTORS
330
22
102
}
330
22
100
AcDbXrecord
280
     1
270
     1
271
     1
  0
XRECORD
  5
25
102
{ACAD_REACTORS
330
22
102
}
330
22
100
AcDbXrecord
280
     1
270
     1
271
     1
  0
XRECORD
  5
19F
102
{ACAD_REACTORS
330
19E
102
}
330
19E
100
AcDbXrecord
280
     1
102
ACAD_ROUNDTRIP_2012_MLEADER_STYLE
298
     1
  0
XRECORD
  5
1A1
102
{ACAD_REACTORS
330
1A0
102
}
330
1A0
100
AcDbXrecord
280
     1
102
DISPLAYNAME
  1
Imperial24
102
FLAGS
 90
        0
  0
CELLSTYLEMAP
  5
16C
102
{ACAD_REACTORS
330
16B
102
}
330
16B
100
AcDbCellStyleMap
 90
        3
300
CELLSTYLE
  1
TABLEFORMAT_BEGIN
 90
        5
170
     1
 91
        0
 92
    32768
 62
   257
 93
        1
300
CONTENTFORMAT
  1
CONTENTFORMAT_BEGIN
 90
        0
 91
        0
 92
      512
 93
        0
300

 40
0.0
140
1.0
 94
        5
 62
     0
340
55
144
0.25
309
CONTENTFORMAT_END
171
     0
 94
        0
309
TABLEFORMAT_END
  1
CELLSTYLE_BEGIN
 90
        1
 91
        1
300
_TITLE
309
CELLSTYLE_END
300
CELLSTYLE
  1
TABLEFORMAT_BEGIN
 90
        5
170
     1
 91
        0
 92
        0
 62
   257
 93
        1
300
CONTENTFORMAT
  1
CONTENTFORMAT_BEGIN
 90
        0
 91
        0
 92
      512
 93
        0
300

 40
0.0
140
1.0
 94
        5
 62
     0
340
55
144
0.18
309
CONTENTFORMAT_END
171
     0
 94
        0
309
TABLEFORMAT_END
  1
CELLSTYLE_BEGIN
 90
        2
 91
        1
300
_HEADER
309
CELLSTYLE_END
300
CELLSTYLE
  1
TABLEFORMAT_BEGIN
 90
        5
170
     1
 91
        0
 92
        0
 62
   257
 93
        1
300
CONTENTFORMAT
  1
CONTENTFORMAT_BEGIN
 90
        0
 91
        0
 92
      512
 93
        0
300

 40
0.0
140
1.0
 94
        2
 62
     0
340
55
144
0.18
309
CONTENTFORMAT_END
171
     0
 94
        0
309
TABLEFORMAT_END
  1
CELLSTYLE_BEGIN
 90
        3
 91
        2
300
_DATA
309
CELLSTYLE_END
  0
XRECORD
  5
179
102
{ACAD_REACTORS
330
178
102
}
330
178
100
AcDbXrecord
280
     1
102
RTVSPost2010Prop28
280
     1
102
RTVSPost2010PropOp28
 70
     1
102
RTVSPost2010Prop29
280
     1
102
RTVSPost2010PropOp29
 70
     1
102
RTVSPost2010Prop30
280
     0
102
RTVSPost2010PropOp30
 70
     1
102
RTVSPost2010Prop31
280
     0
102
RTVSPost2010PropOp31
 70
     1
102
RTVSPost2010Prop32
280
     0
102
RTVSPost2010PropOp32
 70
     1
102
RTVSPost2010Prop33
280
     0
102
RTVSPost2010PropOp33
 70
     1
102
RTVSPost2010Prop34
280
     0
102
RTVSPost2010PropOp34
 70
     1
102
RTVSPost2010Prop35
280
     0
102
RTVSPost2010PropOp35
 70
     1
102
RTVSPost2010Prop36
280
     0
102
RTVSPost2010PropOp36
 70
     1
102
RTVSPost2010Prop37
 90
       50
102
RTVSPost2010PropOp37
 70
     1
102
RTVSPost2010Prop38
140
0.0
102
RTVSPost2010PropOp38
 70
     1
102
RTVSPost2010Prop39
140
1.0
102
RTVSPost2010PropOp39
 70
     1
102
RTVSPost2010Prop40
 90
        0
102
RTVSPost2010PropOp40
 70
     1
102
RTVSPost2010Prop41ColorIndex
 90
       18
102
RTVSPost2010Prop41ColorRGB
 90
        0
102
RTVSPost2010PropOp41
 70
     1
102
RTVSPost2010Prop42
 90
       50
102
RTVSPost2010PropOp42
 70
     1
102
RTVSPost2010Prop43
 90
        3
102
RTVSPost2010PropOp43
 70
     1
102
RTVSPost2010Prop44ColorIndex
 90
        5
102
RTVSPost2010Prop44ColorRGB
 90
      255
102
RTVSPost2010PropOp44
 70
     1
102
RTVSPost2010Prop45
280
     0
102
RTVSPost2010PropOp45
 70
     1
102
RTVSPost2010Prop46
 90
       50
102
RTVSPost2010PropOp46
 70
     1
102
RTVSPost2010Prop47
 90
       50
102
RTVSPost2010PropOp47
 70
     1
102
RTVSPost2010Prop48
 90
       50
102
RTVSPost2010PropOp48
 70
     1
102
RTVSPost2010Prop49
280
     0
102
RTVSPost2010PropOp49
 70
     1
102
RTVSPost2010Prop50
 90
       50
102
RTVSPost2010PropOp50
 70
     1
102
RTVSPost2010Prop51ColorIndex
 90
      256
102
RTVSPost2010Prop51ColorRGB
 90
-16777216
102
RTVSPost2010PropOp51
 70
     0
102
RTVSPost2010Prop52
140
1.0
102
RTVSPost2010PropOp52
 70
     0
102
RTVSPost2010Prop53
 90
        2
102
RTVSPost2010PropOp53
 70
     1
102
RTVSPost2010Prop54
  1
strokes_ogs.tif
102
RTVSPost2010PropOp54
 70
     1
102
RTVSPost2010Prop55
280
     0
102
RTVSPost2010PropOp55
 70
     1
102
RTVSPost2010Prop56
140
1.0
102
RTVSPost2010PropOp56
 70
     1
102
RTVSPost2010Prop57
140
1.0
102
RTVSPost2010PropOp57
 70
     1
  0
XRECORD
  5
177
102
{ACAD_REACTORS
330
176
102
}
330
176
100
AcDbXrecord
280
     1
102
RTVSPost2010Prop28
280
     0
102
RTVSPost2010PropOp28
 70
     1
102
RTVSPost2010Prop29
280
     1
102
RTVSPost2010PropOp29
 70
     1
102
RTVSPost2010Prop30
280
     1
102
RTVSPost2010PropOp30
 70
     1
102
RTVSPost2010Prop31
280
     0
102
RTVSPost2010PropOp31
 70
     1
102
RTVSPost2010Prop32
280
     0
102
RTVSPost2010PropOp32
 70
     1
102
RTVSPost2010Prop33
280
     0
102
RTVSPost2010PropOp33
 70
     1
102
RTVSPost2010Prop34
280
     0
102
RTVSPost2010PropOp34
 70
     1
102
RTVSPost2010Prop35
280
     0
102
RTVSPost2010PropOp35
 70
     1
102
RTVSPost2010Prop36
280
     0
102
RTVSPost2010PropOp36
 70
     1
102
RTVSPost2010Prop37
 90
       50
102
RTVSPost2010PropOp37
 70
     1
102
RTVSPost2010Prop38
140
0.0
102
RTVSPost2010PropOp38
 70
     1
102
RTVSPost2010Prop39
140
1.0
102
RTVSPost2010PropOp39
 70
     1
102
RTVSPost2010Prop40
 90
        0
102
RTVSPost2010PropOp40
 70
     1
102
RTVSPost2010Prop41ColorIndex
 90
       18
102
RTVSPost2010Prop41ColorRGB
 90
        0
102
RTVSPost2010PropOp41
 70
     1
102
RTVSPost2010Prop42
 90
       50
102
RTVSPost2010PropOp42
 70
     1
102
RTVSPost2010Prop43
 90
        3
102
RTVSPost2010PropOp43
 70
     1
102
RTVSPost2010Prop44ColorIndex
 90
        5
102
RTVSPost2010Prop44ColorRGB
 90
      255
102
RTVSPost2010PropOp44
 70
     1
102
RTVSPost2010Prop45
280
     0
102
RTVSPost2010PropOp45
 70
     1
102
RTVSPost2010Prop46
 90
       50
102
RTVSPost2010PropOp46
 70
     1
102
RTVSPost2010Prop47
 90
       50
102
RTVSPost2010PropOp47
 70
     1
102
RTVSPost2010Prop48
 90
       50
102
RTVSPost2010PropOp48
 70
     1
102
RTVSPost2010Prop49
280
     0
102
RTVSPost2010PropOp49
 70
     1
102
RTVSPost2010Prop50
 90
       50
102
RTVSPost2010PropOp50
 70
     1
102
RTVSPost2010Prop51ColorIndex
 90
      256
102
RTVSPost2010Prop51ColorRGB
 90
-16777216
102
RTVSPost2010PropOp51
 70
     0
102
RTVSPost2010Prop52
140
1.0
102
RTVSPost2010PropOp52
 70
     0
102
RTVSPost2010Prop53
 90
        2
102
RTVSPost2010PropOp53
 70
     1
102
RTVSPost2010Prop54
  1
strokes_ogs.tif
102
RTVSPost2010PropOp54
 70
     1
102
RTVSPost2010Prop55
280
     0
102
RTVSPost2010PropOp55
 70
     1
102
RTVSPost2010Prop56
140
1.0
102
RTVSPost2010PropOp56
 70
     1
102
RTVSPost2010Prop57
140
1.0
102
RTVSPost2010PropOp57
 70
     1
  0
XRECORD
  5
185
102
{ACAD_REACTORS
330
184
102
}
330
184
100
AcDbXrecord
280
     1
102
RTVSPost2010Prop28
280
     0
102
RTVSPost2010PropOp28
 70
     1
102
RTVSPost2010Prop29
280
     1
102
RTVSPost2010PropOp29
 70
     1
102
RTVSPost2010Prop30
280
     1
102
RTVSPost2010PropOp30
 70
     1
102
RTVSPost2010Prop31
280
     0
102
RTVSPost2010PropOp31
 70
     1
102
RTVSPost2010Prop32
280
     0
102
RTVSPost2010PropOp32
 70
     1
102
RTVSPost2010Prop33
280
     0
102
RTVSPost2010PropOp33
 70
     1
102
RTVSPost2010Prop34
280
     0
102
RTVSPost2010PropOp34
 70
     1
102
RTVSPost2010Prop35
280
     0
102
RTVSPost2010PropOp35
 70
     1
102
RTVSPost2010Prop36
280
     0
102
RTVSPost2010PropOp36
 70
     1
102
RTVSPost2010Prop37
 90
       50
102
RTVSPost2010PropOp37
 70
     1
102
RTVSPost2010Prop38
140
0.0
102
RTVSPost2010PropOp38
 70
     1
102
RTVSPost2010Prop39
140
1.0
102
RTVSPost2010PropOp39
 70
     1
102
RTVSPost2010Prop40
 90
        0
102
RTVSPost2010PropOp40
 70
     1
102
RTVSPost2010Prop41ColorIndex
 90
       18
102
RTVSPost2010Prop41ColorRGB
 90
        0
102
RTVSPost2010PropOp41
 70
     1
102
RTVSPost2010Prop42
 90
       50
102
RTVSPost2010PropOp42
 70
     1
102
RTVSPost2010Prop43
 90
        3
102
RTVSPost2010PropOp43
 70
     1
102
RTVSPost2010Prop44ColorIndex
 90
        5
102
RTVSPost2010Prop44ColorRGB
 90
      255
102
RTVSPost2010PropOp44
 70
     1
102
RTVSPost2010Prop45
280
     0
102
RTVSPost2010PropOp45
 70
     1
102
RTVSPost2010Prop46
 90
       50
102
RTVSPost2010PropOp46
 70
     1
102
RTVSPost2010Prop47
 90
       50
102
RTVSPost2010PropOp47
 70
     1
102
RTVSPost2010Prop48
 90
       50
102
RTVSPost2010PropOp48
 70
     1
102
RTVSPost2010Prop49
280
     0
102
RTVSPost2010PropOp49
 70
     1
102
RTVSPost2010Prop50
 90
       50
102
RTVSPost2010PropOp50
 70
     1
102
RTVSPost2010Prop51ColorIndex
 90
      256
102
RTVSPost2010Prop51ColorRGB
 90
-16777216
102
RTVSPost2010PropOp51
 70
     0
102
RTVSPost2010Prop52
140
1.0
102
RTVSPost2010PropOp52
 70
     0
102
RTVSPost2010Prop53
 90
        2
102
RTVSPost2010PropOp53
 70
     1
102
RTVSPost2010Prop54
  1
strokes_ogs.tif
102
RTVSPost2010PropOp54
 70
     1
102
RTVSPost2010Prop55
280
     0
102
RTVSPost2010PropOp55
 70
     1
102
RTVSPost2010Prop56
140
1.0
102
RTVSPost2010PropOp56
 70
     1
102
RTVSPost2010Prop57
140
1.0
102
RTVSPost2010PropOp57
 70
     1
  0
XRECORD
  5
18D
102
{ACAD_REACTORS
330
18C
102
}
330
18C
100
AcDbXrecord
280
     1
102
RTVSPost2010Prop28
280
     0
102
RTVSPost2010PropOp28
 70
     1
102
RTVSPost2010Prop29
280
     1
102
RTVSPost2010PropOp29
 70
     1
102
RTVSPost2010Prop30
280
     1
102
RTVSPost2010PropOp30
 70
     1
102
RTVSPost2010Prop31
280
     0
102
RTVSPost2010PropOp31
 70
     1
102
RTVSPost2010Prop32
280
     0
102
RTVSPost2010PropOp32
 70
     1
102
RTVSPost2010Prop33
280
     0
102
RTVSPost2010PropOp33
 70
     1
102
RTVSPost2010Prop34
280
     0
102
RTVSPost2010PropOp34
 70
     1
102
RTVSPost2010Prop35
280
     0
102
RTVSPost2010PropOp35
 70
     1
102
RTVSPost2010Prop36
280
     0
102
RTVSPost2010PropOp36
 70
     1
102
RTVSPost2010Prop37
 90
       50
102
RTVSPost2010PropOp37
 70
     1
102
RTVSPost2010Prop38
140
0.0
102
RTVSPost2010PropOp38
 70
     1
102
RTVSPost2010Prop39
140
1.0
102
RTVSPost2010PropOp39
 70
     1
102
RTVSPost2010Prop40
 90
        0
102
RTVSPost2010PropOp40
 70
     1
102
RTVSPost2010Prop41ColorIndex
 90
       18
102
RTVSPost2010Prop41ColorRGB
 90
        0
102
RTVSPost2010PropOp41
 70
     1
102
RTVSPost2010Prop42
 90
       50
102
RTVSPost2010PropOp42
 70
     1
102
RTVSPost2010Prop43
 90
        3
102
RTVSPost2010PropOp43
 70
     1
102
RTVSPost2010Prop44ColorIndex
 90
        5
102
RTVSPost2010Prop44ColorRGB
 90
      255
102
RTVSPost2010PropOp44
 70
     1
102
RTVSPost2010Prop45
280
     0
102
RTVSPost2010PropOp45
 70
     1
102
RTVSPost2010Prop46
 90
       50
102
RTVSPost2010PropOp46
 70
     1
102
RTVSPost2010Prop47
 90
       50
102
RTVSPost2010PropOp47
 70
     1
102
RTVSPost2010Prop48
 90
       50
102
RTVSPost2010PropOp48
 70
     1
102
RTVSPost2010Prop49
280
     0
102
RTVSPost2010PropOp49
 70
     1
102
RTVSPost2010Prop50
 90
       50
102
RTVSPost2010PropOp50
 70
     1
102
RTVSPost2010Prop51ColorIndex
 90
      256
102
RTVSPost2010Prop51ColorRGB
 90
-16777216
102
RTVSPost2010PropOp51
 70
     0
102
RTVSPost2010Prop52
140
1.0
102
RTVSPost2010PropOp52
 70
     0
102
RTVSPost2010Prop53
 90
        2
102
RTVSPost2010PropOp53
 70
     1
102
RTVSPost2010Prop54
  1
strokes_ogs.tif
102
RTVSPost2010PropOp54
 70
     1
102
RTVSPost2010Prop55
280
     0
102
RTVSPost2010PropOp55
 70
     1
102
RTVSPost2010Prop56
140
1.0
102
RTVSPost2010PropOp56
 70
     1
102
RTVSPost2010Prop57
140
1.0
102
RTVSPost2010PropOp57
 70
     1
  0
XRECORD
  5
17F
102
{ACAD_REACTORS
330
17E
102
}
330
17E
100
AcDbXrecord
280
     1
102
RTVSPost2010Prop28
280
     0
102
RTVSPost2010PropOp28
 70
     1
102
RTVSPost2010Prop29
280
     1
102
RTVSPost2010PropOp29
 70
     1
102
RTVSPost2010Prop30
280
     1
102
RTVSPost2010PropOp30
 70
     1
102
RTVSPost2010Prop31
280
     0
102
RTVSPost2010PropOp31
 70
     1
102
RTVSPost2010Prop32
280
     0
102
RTVSPost2010PropOp32
 70
     1
102
RTVSPost2010Prop33
280
     0
102
RTVSPost2010PropOp33
 70
     1
102
RTVSPost2010Prop34
280
     0
102
RTVSPost2010PropOp34
 70
     1
102
RTVSPost2010Prop35
280
     0
102
RTVSPost2010PropOp35
 70
     1
102
RTVSPost2010Prop36
280
     0
102
RTVSPost2010PropOp36
 70
     1
102
RTVSPost2010Prop37
 90
       50
102
RTVSPost2010PropOp37
 70
     1
102
RTVSPost2010Prop38
140
0.0
102
RTVSPost2010PropOp38
 70
     1
102
RTVSPost2010Prop39
140
1.0
102
RTVSPost2010PropOp39
 70
     1
102
RTVSPost2010Prop40
 90
        0
102
RTVSPost2010PropOp40
 70
     1
102
RTVSPost2010Prop41ColorIndex
 90
       18
102
RTVSPost2010Prop41ColorRGB
 90
        0
102
RTVSPost2010PropOp41
 70
     1
102
RTVSPost2010Prop42
 90
       50
102
RTVSPost2010PropOp42
 70
     1
102
RTVSPost2010Prop43
 90
        3
102
RTVSPost2010PropOp43
 70
     1
102
RTVSPost2010Prop44ColorIndex
 90
        5
102
RTVSPost2010Prop44ColorRGB
 90
      255
102
RTVSPost2010PropOp44
 70
     1
102
RTVSPost2010Prop45
280
     0
102
RTVSPost2010PropOp45
 70
     1
102
RTVSPost2010Prop46
 90
       50
102
RTVSPost2010PropOp46
 70
     1
102
RTVSPost2010Prop47
 90
       50
102
RTVSPost2010PropOp47
 70
     1
102
RTVSPost2010Prop48
 90
       50
102
RTVSPost2010PropOp48
 70
     1
102
RTVSPost2010Prop49
280
     0
102
RTVSPost2010PropOp49
 70
     1
102
RTVSPost2010Prop50
 90
       50
102
RTVSPost2010PropOp50
 70
     1
102
RTVSPost2010Prop51ColorIndex
 90
      256
102
RTVSPost2010Prop51ColorRGB
 90
-16777216
102
RTVSPost2010PropOp51
 70
     0
102
RTVSPost2010Prop52
140
1.0
102
RTVSPost2010PropOp52
 70
     0
102
RTVSPost2010Prop53
 90
        2
102
RTVSPost2010PropOp53
 70
     1
102
RTVSPost2010Prop54
  1
strokes_ogs.tif
102
RTVSPost2010PropOp54
 70
     1
102
RTVSPost2010Prop55
280
     0
102
RTVSPost2010PropOp55
 70
     1
102
RTVSPost2010Prop56
140
1.0
102
RTVSPost2010PropOp56
 70
     1
102
RTVSPost2010Prop57
140
1.0
102
RTVSPost2010PropOp57
 70
     1
  0
XRECORD
  5
183
102
{ACAD_REACTORS
330
182
102
}
330
182
100
AcDbXrecord
280
     1
102
RTVSPost2010Prop28
280
     0
102
RTVSPost2010PropOp28
 70
     1
102
RTVSPost2010Prop29
280
     1
102
RTVSPost2010PropOp29
 70
     1
102
RTVSPost2010Prop30
280
     1
102
RTVSPost2010PropOp30
 70
     1
102
RTVSPost2010Prop31
280
     0
102
RTVSPost2010PropOp31
 70
     1
102
RTVSPost2010Prop32
280
     0
102
RTVSPost2010PropOp32
 70
     1
102
RTVSPost2010Prop33
280
     0
102
RTVSPost2010PropOp33
 70
     1
102
RTVSPost2010Prop34
280
     0
102
RTVSPost2010PropOp34
 70
     1
102
RTVSPost2010Prop35
280
     0
102
RTVSPost2010PropOp35
 70
     1
102
RTVSPost2010Prop36
280
     0
102
RTVSPost2010PropOp36
 70
     1
102
RTVSPost2010Prop37
 90
       50
102
RTVSPost2010PropOp37
 70
     1
102
RTVSPost2010Prop38
140
0.0
102
RTVSPost2010PropOp38
 70
     1
102
RTVSPost2010Prop39
140
1.0
102
RTVSPost2010PropOp39
 70
     1
102
RTVSPost2010Prop40
 90
        0
102
RTVSPost2010PropOp40
 70
     1
102
RTVSPost2010Prop41ColorIndex
 90
       18
102
RTVSPost2010Prop41ColorRGB
 90
        0
102
RTVSPost2010PropOp41
 70
     1
102
RTVSPost2010Prop42
 90
       50
102
RTVSPost2010PropOp42
 70
     1
102
RTVSPost2010Prop43
 90
        3
102
RTVSPost2010PropOp43
 70
     1
102
RTVSPost2010Prop44ColorIndex
 90
        5
102
RTVSPost2010Prop44ColorRGB
 90
      255
102
RTVSPost2010PropOp44
 70
     1
102
RTVSPost2010Prop45
280
     0
102
RTVSPost2010PropOp45
 70
     1
102
RTVSPost2010Prop46
 90
       50
102
RTVSPost2010PropOp46
 70
     1
102
RTVSPost2010Prop47
 90
       50
102
RTVSPost2010PropOp47
 70
     1
102
RTVSPost2010Prop48
 90
       50
102
RTVSPost2010PropOp48
 70
     1
102
RTVSPost2010Prop49
280
     0
102
RTVSPost2010PropOp49
 70
     1
102
RTVSPost2010Prop50
 90
       50
102
RTVSPost2010PropOp50
 70
     1
102
RTVSPost2010Prop51ColorIndex
 90
      256
102
RTVSPost2010Prop51ColorRGB
 90
-16777216
102
RTVSPost2010PropOp51
 70
     0
102
RTVSPost2010Prop52
140
1.0
102
RTVSPost2010PropOp52
 70
     0
102
RTVSPost2010Prop53
 90
        2
102
RTVSPost2010PropOp53
 70
     1
102
RTVSPost2010Prop54
  1
strokes_ogs.tif
102
RTVSPost2010PropOp54
 70
     1
102
RTVSPost2010Prop55
280
     0
102
RTVSPost2010PropOp55
 70
     1
102
RTVSPost2010Prop56
140
1.0
102
RTVSPost2010PropOp56
 70
     1
102
RTVSPost2010Prop57
140
1.0
102
RTVSPost2010PropOp57
 70
     1
  0
XRECORD
  5
19D
102
{ACAD_REACTORS
330
19C
102
}
330
19C
100
AcDbXrecord
280
     1
102
RTVSPost2010Prop28
280
     0
102
RTVSPost2010PropOp28
 70
     0
102
RTVSPost2010Prop29
280
     1
102
RTVSPost2010PropOp29
 70
     0
102
RTVSPost2010Prop30
280
     1
102
RTVSPost2010PropOp30
 70
     0
102
RTVSPost2010Prop31
280
     0
102
RTVSPost2010PropOp31
 70
     0
102
RTVSPost2010Prop32
280
     0
102
RTVSPost2010PropOp32
 70
     0
102
RTVSPost2010Prop33
280
     0
102
RTVSPost2010PropOp33
 70
     0
102
RTVSPost2010Prop34
280
     0
102
RTVSPost2010PropOp34
 70
     0
102
RTVSPost2010Prop35
280
     0
102
RTVSPost2010PropOp35
 70
     0
102
RTVSPost2010Prop36
280
     0
102
RTVSPost2010PropOp36
 70
     0
102
RTVSPost2010Prop37
 90
       50
102
RTVSPost2010PropOp37
 70
     0
102
RTVSPost2010Prop38
140
0.0
102
RTVSPost2010PropOp38
 70
     0
102
RTVSPost2010Prop39
140
1.0
102
RTVSPost2010PropOp39
 70
     0
102
RTVSPost2010Prop40
 90
        0
102
RTVSPost2010PropOp40
 70
     0
102
RTVSPost2010Prop41ColorIndex
 90
       18
102
RTVSPost2010Prop41ColorRGB
 90
        0
102
RTVSPost2010PropOp41
 70
     0
102
RTVSPost2010Prop42
 90
       50
102
RTVSPost2010PropOp42
 70
     0
102
RTVSPost2010Prop43
 90
        3
102
RTVSPost2010PropOp43
 70
     0
102
RTVSPost2010Prop44ColorIndex
 90
        5
102
RTVSPost2010Prop44ColorRGB
 90
      255
102
RTVSPost2010PropOp44
 70
     0
102
RTVSPost2010Prop45
280
     0
102
RTVSPost2010PropOp45
 70
     0
102
RTVSPost2010Prop46
 90
       50
102
RTVSPost2010PropOp46
 70
     0
102
RTVSPost2010Prop47
 90
       50
102
RTVSPost2010PropOp47
 70
     0
102
RTVSPost2010Prop48
 90
       50
102
RTVSPost2010PropOp48
 70
     0
102
RTVSPost2010Prop49
280
     0
102
RTVSPost2010PropOp49
 70
     0
102
RTVSPost2010Prop50
 90
       50
102
RTVSPost2010PropOp50
 70
     0
102
RTVSPost2010Prop51ColorIndex
 90
      256
102
RTVSPost2010Prop51ColorRGB
 90
-16777216
102
RTVSPost2010PropOp51
 70
     0
102
RTVSPost2010Prop52
140
1.0
102
RTVSPost2010PropOp52
 70
     0
102
RTVSPost2010Prop53
 90
        2
102
RTVSPost2010PropOp53
 70
     0
102
RTVSPost2010Prop54
  1
strokes_ogs.tif
102
RTVSPost2010PropOp54
 70
     0
102
RTVSPost2010Prop55
280
     0
102
RTVSPost2010PropOp55
 70
     0
102
RTVSPost2010Prop56
140
1.0
102
RTVSPost2010PropOp56
 70
     0
102
RTVSPost2010Prop57
140
1.0
102
RTVSPost2010PropOp57
 70
     0
  0
XRECORD
  5
18B
102
{ACAD_REACTORS
330
18A
102
}
330
18A
100
AcDbXrecord
280
     1
102
RTVSPost2010Prop28
280
     0
102
RTVSPost2010PropOp28
 70
     1
102
RTVSPost2010Prop29
280
     1
102
RTVSPost2010PropOp29
 70
     1
102
RTVSPost2010Prop30
280
     1
102
RTVSPost2010PropOp30
 70
     1
102
RTVSPost2010Prop31
280
     0
102
RTVSPost2010PropOp31
 70
     1
102
RTVSPost2010Prop32
280
     0
102
RTVSPost2010PropOp32
 70
     1
102
RTVSPost2010Prop33
280
     0
102
RTVSPost2010PropOp33
 70
     1
102
RTVSPost2010Prop34
280
     0
102
RTVSPost2010PropOp34
 70
     1
102
RTVSPost2010Prop35
280
     0
102
RTVSPost2010PropOp35
 70
     1
102
RTVSPost2010Prop36
280
     0
102
RTVSPost2010PropOp36
 70
     1
102
RTVSPost2010Prop37
 90
       50
102
RTVSPost2010PropOp37
 70
     1
102
RTVSPost2010Prop38
140
0.0
102
RTVSPost2010PropOp38
 70
     1
102
RTVSPost2010Prop39
140
1.0
102
RTVSPost2010PropOp39
 70
     1
102
RTVSPost2010Prop40
 90
        0
102
RTVSPost2010PropOp40
 70
     1
102
RTVSPost2010Prop41ColorIndex
 90
       18
102
RTVSPost2010Prop41ColorRGB
 90
        0
102
RTVSPost2010PropOp41
 70
     1
102
RTVSPost2010Prop42
 90
       50
102
RTVSPost2010PropOp42
 70
     1
102
RTVSPost2010Prop43
 90
        3
102
RTVSPost2010PropOp43
 70
     1
102
RTVSPost2010Prop44ColorIndex
 90
        5
102
RTVSPost2010Prop44ColorRGB
 90
      255
102
RTVSPost2010PropOp44
 70
     1
102
RTVSPost2010Prop45
280
     0
102
RTVSPost2010PropOp45
 70
     1
102
RTVSPost2010Prop46
 90
       50
102
RTVSPost2010PropOp46
 70
     1
102
RTVSPost2010Prop47
 90
       50
102
RTVSPost2010PropOp47
 70
     1
102
RTVSPost2010Prop48
 90
       50
102
RTVSPost2010PropOp48
 70
     1
102
RTVSPost2010Prop49
280
     0
102
RTVSPost2010PropOp49
 70
     1
102
RTVSPost2010Prop50
 90
       50
102
RTVSPost2010PropOp50
 70
     1
102
RTVSPost2010Prop51ColorIndex
 90
      256
102
RTVSPost2010Prop51ColorRGB
 90
-16777216
102
RTVSPost2010PropOp51
 70
     0
102
RTVSPost2010Prop52
140
1.0
102
RTVSPost2010PropOp52
 70
     0
102
RTVSPost2010Prop53
 90
        2
102
RTVSPost2010PropOp53
 70
     1
102
RTVSPost2010Prop54
  1
strokes_ogs.tif
102
RTVSPost2010PropOp54
 70
     1
102
RTVSPost2010Prop55
280
     0
102
RTVSPost2010PropOp55
 70
     1
102
RTVSPost2010Prop56
140
1.0
102
RTVSPost2010PropOp56
 70
     1
102
RTVSPost2010Prop57
140
1.0
102
RTVSPost2010PropOp57
 70
     1
  0
XRECORD
  5
16F
102
{ACAD_REACTORS
330
16E
102
}
330
16E
100
AcDbXrecord
280
     1
102
RTVSPost2010Prop28
280
     0
102
RTVSPost2010PropOp28
 70
     1
102
RTVSPost2010Prop29
280
     1
102
RTVSPost2010PropOp29
 70
     1
102
RTVSPost2010Prop30
280
     1
102
RTVSPost2010PropOp30
 70
     1
102
RTVSPost2010Prop31
280
     0
102
RTVSPost2010PropOp31
 70
     1
102
RTVSPost2010Prop32
280
     0
102
RTVSPost2010PropOp32
 70
     1
102
RTVSPost2010Prop33
280
     0
102
RTVSPost2010PropOp33
 70
     1
102
RTVSPost2010Prop34
280
     0
102
RTVSPost2010PropOp34
 70
     1
102
RTVSPost2010Prop35
280
     0
102
RTVSPost2010PropOp35
 70
     1
102
RTVSPost2010Prop36
280
     0
102
RTVSPost2010PropOp36
 70
     1
102
RTVSPost2010Prop37
 90
       50
102
RTVSPost2010PropOp37
 70
     1
102
RTVSPost2010Prop38
140
0.0
102
RTVSPost2010PropOp38
 70
     1
102
RTVSPost2010Prop39
140
1.0
102
RTVSPost2010PropOp39
 70
     1
102
RTVSPost2010Prop40
 90
        0
102
RTVSPost2010PropOp40
 70
     1
102
RTVSPost2010Prop41ColorIndex
 90
       18
102
RTVSPost2010Prop41ColorRGB
 90
        0
102
RTVSPost2010PropOp41
 70
     1
102
RTVSPost2010Prop42
 90
       50
102
RTVSPost2010PropOp42
 70
     1
102
RTVSPost2010Prop43
 90
        3
102
RTVSPost2010PropOp43
 70
     1
102
RTVSPost2010Prop44ColorIndex
 90
        5
102
RTVSPost2010Prop44ColorRGB
 90
      255
102
RTVSPost2010PropOp44
 70
     1
102
RTVSPost2010Prop45
280
     0
102
RTVSPost2010PropOp45
 70
     1
102
RTVSPost2010Prop46
 90
       50
102
RTVSPost2010PropOp46
 70
     1
102
RTVSPost2010Prop47
 90
       50
102
RTVSPost2010PropOp47
 70
     1
102
RTVSPost2010Prop48
 90
       50
102
RTVSPost2010PropOp48
 70
     1
102
RTVSPost2010Prop49
280
     0
102
RTVSPost2010PropOp49
 70
     1
102
RTVSPost2010Prop50
 90
       50
102
RTVSPost2010PropOp50
 70
     1
102
RTVSPost2010Prop51ColorIndex
 90
      256
102
RTVSPost2010Prop51ColorRGB
 90
-16777216
102
RTVSPost2010PropOp51
 70
     0
102
RTVSPost2010Prop52
140
1.0
102
RTVSPost2010PropOp52
 70
     0
102
RTVSPost2010Prop53
 90
        2
102
RTVSPost2010PropOp53
 70
     1
102
RTVSPost2010Prop54
  1
strokes_ogs.tif
102
RTVSPost2010PropOp54
 70
     1
102
RTVSPost2010Prop55
280
     0
102
RTVSPost2010PropOp55
 70
     1
102
RTVSPost2010Prop56
140
1.0
102
RTVSPost2010PropOp56
 70
     1
102
RTVSPost2010Prop57
140
1.0
102
RTVSPost2010PropOp57
 70
     1
  0
XRECORD
  5
171
102
{ACAD_REACTORS
330
170
102
}
330
170
100
AcDbXrecord
280
     1
102
RTVSPost2010Prop28
280
     0
102
RTVSPost2010PropOp28
 70
     1
102
RTVSPost2010Prop29
280
     1
102
RTVSPost2010PropOp29
 70
     1
102
RTVSPost2010Prop30
280
     1
102
RTVSPost2010PropOp30
 70
     1
102
RTVSPost2010Prop31
280
     0
102
RTVSPost2010PropOp31
 70
     1
102
RTVSPost2010Prop32
280
     0
102
RTVSPost2010PropOp32
 70
     1
102
RTVSPost2010Prop33
280
     0
102
RTVSPost2010PropOp33
 70
     1
102
RTVSPost2010Prop34
280
     0
102
RTVSPost2010PropOp34
 70
     1
102
RTVSPost2010Prop35
280
     0
102
RTVSPost2010PropOp35
 70
     1
102
RTVSPost2010Prop36
280
     0
102
RTVSPost2010PropOp36
 70
     1
102
RTVSPost2010Prop37
 90
       50
102
RTVSPost2010PropOp37
 70
     1
102
RTVSPost2010Prop38
140
0.0
102
RTVSPost2010PropOp38
 70
     1
102
RTVSPost2010Prop39
140
1.0
102
RTVSPost2010PropOp39
 70
     1
102
RTVSPost2010Prop40
 90
        0
102
RTVSPost2010PropOp40
 70
     1
102
RTVSPost2010Prop41ColorIndex
 90
       18
102
RTVSPost2010Prop41ColorRGB
 90
        0
102
RTVSPost2010PropOp41
 70
     1
102
RTVSPost2010Prop42
 90
       50
102
RTVSPost2010PropOp42
 70
     1
102
RTVSPost2010Prop43
 90
        3
102
RTVSPost2010PropOp43
 70
     1
102
RTVSPost2010Prop44ColorIndex
 90
        5
102
RTVSPost2010Prop44ColorRGB
 90
      255
102
RTVSPost2010PropOp44
 70
     1
102
RTVSPost2010Prop45
280
     0
102
RTVSPost2010PropOp45
 70
     1
102
RTVSPost2010Prop46
 90
       50
102
RTVSPost2010PropOp46
 70
     1
102
RTVSPost2010Prop47
 90
       50
102
RTVSPost2010PropOp47
 70
     1
102
RTVSPost2010Prop48
 90
       50
102
RTVSPost2010PropOp48
 70
     1
102
RTVSPost2010Prop49
280
     0
102
RTVSPost2010PropOp49
 70
     1
102
RTVSPost2010Prop50
 90
       50
102
RTVSPost2010PropOp50
 70
     1
102
RTVSPost2010Prop51ColorIndex
 90
      256
102
RTVSPost2010Prop51ColorRGB
 90
-16777216
102
RTVSPost2010PropOp51
 70
     0
102
RTVSPost2010Prop52
140
1.0
102
RTVSPost2010PropOp52
 70
     0
102
RTVSPost2010Prop53
 90
        2
102
RTVSPost2010PropOp53
 70
     1
102
RTVSPost2010Prop54
  1
strokes_ogs.tif
102
RTVSPost2010PropOp54
 70
     1
102
RTVSPost2010Prop55
280
     0
102
RTVSPost2010PropOp55
 70
     1
102
RTVSPost2010Prop56
140
1.0
102
RTVSPost2010PropOp56
 70
     1
102
RTVSPost2010Prop57
140
1.0
102
RTVSPost2010PropOp57
 70
     1
  0
XRECORD
  5
173
102
{ACAD_REACTORS
330
172
102
}
330
172
100
AcDbXrecord
280
     1
102
RTVSPost2010Prop28
280
     0
102
RTVSPost2010PropOp28
 70
     1
102
RTVSPost2010Prop29
280
     1
102
RTVSPost2010PropOp29
 70
     1
102
RTVSPost2010Prop30
280
     1
102
RTVSPost2010PropOp30
 70
     1
102
RTVSPost2010Prop31
280
     0
102
RTVSPost2010PropOp31
 70
     1
102
RTVSPost2010Prop32
280
     0
102
RTVSPost2010PropOp32
 70
     1
102
RTVSPost2010Prop33
280
     0
102
RTVSPost2010PropOp33
 70
     1
102
RTVSPost2010Prop34
280
     0
102
RTVSPost2010PropOp34
 70
     1
102
RTVSPost2010Prop35
280
     0
102
RTVSPost2010PropOp35
 70
     1
102
RTVSPost2010Prop36
280
     0
102
RTVSPost2010PropOp36
 70
     1
102
RTVSPost2010Prop37
 90
       50
102
RTVSPost2010PropOp37
 70
     1
102
RTVSPost2010Prop38
140
0.0
102
RTVSPost2010PropOp38
 70
     1
102
RTVSPost2010Prop39
140
1.0
102
RTVSPost2010PropOp39
 70
     1
102
RTVSPost2010Prop40
 90
        0
102
RTVSPost2010PropOp40
 70
     1
102
RTVSPost2010Prop41ColorIndex
 90
       18
102
RTVSPost2010Prop41ColorRGB
 90
        0
102
RTVSPost2010PropOp41
 70
     1
102
RTVSPost2010Prop42
 90
       50
102
RTVSPost2010PropOp42
 70
     1
102
RTVSPost2010Prop43
 90
        3
102
RTVSPost2010PropOp43
 70
     1
102
RTVSPost2010Prop44ColorIndex
 90
        5
102
RTVSPost2010Prop44ColorRGB
 90
      255
102
RTVSPost2010PropOp44
 70
     1
102
RTVSPost2010Prop45
280
     0
102
RTVSPost2010PropOp45
 70
     1
102
RTVSPost2010Prop46
 90
       50
102
RTVSPost2010PropOp46
 70
     1
102
RTVSPost2010Prop47
 90
       50
102
RTVSPost2010PropOp47
 70
     1
102
RTVSPost2010Prop48
 90
       50
102
RTVSPost2010PropOp48
 70
     1
102
RTVSPost2010Prop49
280
     0
102
RTVSPost2010PropOp49
 70
     1
102
RTVSPost2010Prop50
 90
       50
102
RTVSPost2010PropOp50
 70
     1
102
RTVSPost2010Prop51ColorIndex
 90
      256
102
RTVSPost2010Prop51ColorRGB
 90
-16777216
102
RTVSPost2010PropOp51
 70
     0
102
RTVSPost2010Prop52
140
1.0
102
RTVSPost2010PropOp52
 70
     0
102
RTVSPost2010Prop53
 90
        2
102
RTVSPost2010PropOp53
 70
     1
102
RTVSPost2010Prop54
  1
strokes_ogs.tif
102
RTVSPost2010PropOp54
 70
     1
102
RTVSPost2010Prop55
280
     0
102
RTVSPost2010PropOp55
 70
     1
102
RTVSPost2010Prop56
140
1.0
102
RTVSPost2010PropOp56
 70
     1
102
RTVSPost2010Prop57
140
1.0
102
RTVSPost2010PropOp57
 70
     1
  0
XRECORD
  5
175
102
{ACAD_REACTORS
330
174
102
}
330
174
100
AcDbXrecord
280
     1
102
RTVSPost2010Prop28
280
     0
102
RTVSPost2010PropOp28
 70
     1
102
RTVSPost2010Prop29
280
     1
102
RTVSPost2010PropOp29
 70
     1
102
RTVSPost2010Prop30
280
     1
102
RTVSPost2010PropOp30
 70
     1
102
RTVSPost2010Prop31
280
     0
102
RTVSPost2010PropOp31
 70
     1
102
RTVSPost2010Prop32
280
     0
102
RTVSPost2010PropOp32
 70
     1
102
RTVSPost2010Prop33
280
     0
102
RTVSPost2010PropOp33
 70
     1
102
RTVSPost2010Prop34
280
     0
102
RTVSPost2010PropOp34
 70
     1
102
RTVSPost2010Prop35
280
     0
102
RTVSPost2010PropOp35
 70
     1
102
RTVSPost2010Prop36
280
     0
102
RTVSPost2010PropOp36
 70
     1
102
RTVSPost2010Prop37
 90
       50
102
RTVSPost2010PropOp37
 70
     1
102
RTVSPost2010Prop38
140
0.0
102
RTVSPost2010PropOp38
 70
     1
102
RTVSPost2010Prop39
140
1.0
102
RTVSPost2010PropOp39
 70
     1
102
RTVSPost2010Prop40
 90
        0
102
RTVSPost2010PropOp40
 70
     1
102
RTVSPost2010Prop41ColorIndex
 90
       18
102
RTVSPost2010Prop41ColorRGB
 90
        0
102
RTVSPost2010PropOp41
 70
     1
102
RTVSPost2010Prop42
 90
       50
102
RTVSPost2010PropOp42
 70
     1
102
RTVSPost2010Prop43
 90
        3
102
RTVSPost2010PropOp43
 70
     1
102
RTVSPost2010Prop44ColorIndex
 90
        5
102
RTVSPost2010Prop44ColorRGB
 90
      255
102
RTVSPost2010PropOp44
 70
     1
102
RTVSPost2010Prop45
280
     0
102
RTVSPost2010PropOp45
 70
     1
102
RTVSPost2010Prop46
 90
       50
102
RTVSPost2010PropOp46
 70
     1
102
RTVSPost2010Prop47
 90
       50
102
RTVSPost2010PropOp47
 70
     1
102
RTVSPost2010Prop48
 90
       50
102
RTVSPost2010PropOp48
 70
     1
102
RTVSPost2010Prop49
280
     0
102
RTVSPost2010PropOp49
 70
     1
102
RTVSPost2010Prop50
 90
       50
102
RTVSPost2010PropOp50
 70
     1
102
RTVSPost2010Prop51ColorIndex
 90
      256
102
RTVSPost2010Prop51ColorRGB
 90
-16777216
102
RTVSPost2010PropOp51
 70
     0
102
RTVSPost2010Prop52
140
1.0
102
RTVSPost2010PropOp52
 70
     0
102
RTVSPost2010Prop53
 90
        2
102
RTVSPost2010PropOp53
 70
     1
102
RTVSPost2010Prop54
  1
strokes_ogs.tif
102
RTVSPost2010PropOp54
 70
     1
102
RTVSPost2010Prop55
280
     0
102
RTVSPost2010PropOp55
 70
     1
102
RTVSPost2010Prop56
140
1.0
102
RTVSPost2010PropOp56
 70
     1
102
RTVSPost2010Prop57
140
1.0
102
RTVSPost2010PropOp57
 70
     1
  0
XRECORD
  5
17D
102
{ACAD_REACTORS
330
17C
102
}
330
17C
100
AcDbXrecord
280
     1
102
RTVSPost2010Prop28
280
     0
102
RTVSPost2010PropOp28
 70
     1
102
RTVSPost2010Prop29
280
     1
102
RTVSPost2010PropOp29
 70
     1
102
RTVSPost2010Prop30
280
     1
102
RTVSPost2010PropOp30
 70
     1
102
RTVSPost2010Prop31
280
     0
102
RTVSPost2010PropOp31
 70
     1
102
RTVSPost2010Prop32
280
     0
102
RTVSPost2010PropOp32
 70
     1
102
RTVSPost2010Prop33
280
     0
102
RTVSPost2010PropOp33
 70
     1
102
RTVSPost2010Prop34
280
     0
102
RTVSPost2010PropOp34
 70
     1
102
RTVSPost2010Prop35
280
     0
102
RTVSPost2010PropOp35
 70
     1
102
RTVSPost2010Prop36
280
     0
102
RTVSPost2010PropOp36
 70
     1
102
RTVSPost2010Prop37
 90
       50
102
RTVSPost2010PropOp37
 70
     1
102
RTVSPost2010Prop38
140
0.0
102
RTVSPost2010PropOp38
 70
     1
102
RTVSPost2010Prop39
140
1.0
102
RTVSPost2010PropOp39
 70
     1
102
RTVSPost2010Prop40
 90
        0
102
RTVSPost2010PropOp40
 70
     1
102
RTVSPost2010Prop41ColorIndex
 90
       18
102
RTVSPost2010Prop41ColorRGB
 90
        0
102
RTVSPost2010PropOp41
 70
     1
102
RTVSPost2010Prop42
 90
       50
102
RTVSPost2010PropOp42
 70
     1
102
RTVSPost2010Prop43
 90
        3
102
RTVSPost2010PropOp43
 70
     1
102
RTVSPost2010Prop44ColorIndex
 90
        5
102
RTVSPost2010Prop44ColorRGB
 90
      255
102
RTVSPost2010PropOp44
 70
     1
102
RTVSPost2010Prop45
280
     0
102
RTVSPost2010PropOp45
 70
     1
102
RTVSPost2010Prop46
 90
       50
102
RTVSPost2010PropOp46
 70
     1
102
RTVSPost2010Prop47
 90
       50
102
RTVSPost2010PropOp47
 70
     1
102
RTVSPost2010Prop48
 90
       50
102
RTVSPost2010PropOp48
 70
     1
102
RTVSPost2010Prop49
280
     0
102
RTVSPost2010PropOp49
 70
     1
102
RTVSPost2010Prop50
 90
       50
102
RTVSPost2010PropOp50
 70
     1
102
RTVSPost2010Prop51ColorIndex
 90
      256
102
RTVSPost2010Prop51ColorRGB
 90
-16777216
102
RTVSPost2010PropOp51
 70
     0
102
RTVSPost2010Prop52
140
1.0
102
RTVSPost2010PropOp52
 70
     0
102
RTVSPost2010Prop53
 90
        2
102
RTVSPost2010PropOp53
 70
     1
102
RTVSPost2010Prop54
  1
strokes_ogs.tif
102
RTVSPost2010PropOp54
 70
     1
102
RTVSPost2010Prop55
280
     0
102
RTVSPost2010PropOp55
 70
     1
102
RTVSPost2010Prop56
140
1.0
102
RTVSPost2010PropOp56
 70
     1
102
RTVSPost2010Prop57
140
1.0
102
RTVSPost2010PropOp57
 70
     1
  0
XRECORD
  5
199
102
{ACAD_REACTORS
330
198
102
}
330
198
100
AcDbXrecord
280
     1
102
RTVSPost2010Prop28
280
     0
102
RTVSPost2010PropOp28
 70
     0
102
RTVSPost2010Prop29
280
     1
102
RTVSPost2010PropOp29
 70
     0
102
RTVSPost2010Prop30
280
     1
102
RTVSPost2010PropOp30
 70
     0
102
RTVSPost2010Prop31
280
     0
102
RTVSPost2010PropOp31
 70
     0
102
RTVSPost2010Prop32
280
     0
102
RTVSPost2010PropOp32
 70
     0
102
RTVSPost2010Prop33
280
     0
102
RTVSPost2010PropOp33
 70
     0
102
RTVSPost2010Prop34
280
     0
102
RTVSPost2010PropOp34
 70
     0
102
RTVSPost2010Prop35
280
     0
102
RTVSPost2010PropOp35
 70
     0
102
RTVSPost2010Prop36
280
     0
102
RTVSPost2010PropOp36
 70
     0
102
RTVSPost2010Prop37
 90
       50
102
RTVSPost2010PropOp37
 70
     0
102
RTVSPost2010Prop38
140
0.0
102
RTVSPost2010PropOp38
 70
     0
102
RTVSPost2010Prop39
140
1.0
102
RTVSPost2010PropOp39
 70
     0
102
RTVSPost2010Prop40
 90
        0
102
RTVSPost2010PropOp40
 70
     0
102
RTVSPost2010Prop41ColorIndex
 90
       18
102
RTVSPost2010Prop41ColorRGB
 90
        0
102
RTVSPost2010PropOp41
 70
     0
102
RTVSPost2010Prop42
 90
       50
102
RTVSPost2010PropOp42
 70
     0
102
RTVSPost2010Prop43
 90
        3
102
RTVSPost2010PropOp43
 70
     0
102
RTVSPost2010Prop44ColorIndex
 90
        5
102
RTVSPost2010Prop44ColorRGB
 90
      255
102
RTVSPost2010PropOp44
 70
     0
102
RTVSPost2010Prop45
280
     0
102
RTVSPost2010PropOp45
 70
     0
102
RTVSPost2010Prop46
 90
       50
102
RTVSPost2010PropOp46
 70
     0
102
RTVSPost2010Prop47
 90
       50
102
RTVSPost2010PropOp47
 70
     0
102
RTVSPost2010Prop48
 90
       50
102
RTVSPost2010PropOp48
 70
     0
102
RTVSPost2010Prop49
280
     0
102
RTVSPost2010PropOp49
 70
     0
102
RTVSPost2010Prop50
 90
       50
102
RTVSPost2010PropOp50
 70
     0
102
RTVSPost2010Prop51ColorIndex
 90
      256
102
RTVSPost2010Prop51ColorRGB
 90
-16777216
102
RTVSPost2010PropOp51
 70
     0
102
RTVSPost2010Prop52
140
1.0
102
RTVSPost2010PropOp52
 70
     0
102
RTVSPost2010Prop53
 90
        2
102
RTVSPost2010PropOp53
 70
     0
102
RTVSPost2010Prop54
  1
strokes_ogs.tif
102
RTVSPost2010PropOp54
 70
     0
102
RTVSPost2010Prop55
280
     0
102
RTVSPost2010PropOp55
 70
     0
102
RTVSPost2010Prop56
140
1.0
102
RTVSPost2010PropOp56
 70
     0
102
RTVSPost2010Prop57
140
1.0
102
RTVSPost2010PropOp57
 70
     0
  0
XRECORD
  5
189
102
{ACAD_REACTORS
330
188
102
}
330
188
100
AcDbXrecord
280
     1
102
RTVSPost2010Prop28
280
     0
102
RTVSPost2010PropOp28
 70
     1
102
RTVSPost2010Prop29
280
     1
102
RTVSPost2010PropOp29
 70
     1
102
RTVSPost2010Prop30
280
     1
102
RTVSPost2010PropOp30
 70
     1
102
RTVSPost2010Prop31
280
     0
102
RTVSPost2010PropOp31
 70
     1
102
RTVSPost2010Prop32
280
     0
102
RTVSPost2010PropOp32
 70
     1
102
RTVSPost2010Prop33
280
     0
102
RTVSPost2010PropOp33
 70
     1
102
RTVSPost2010Prop34
280
     0
102
RTVSPost2010PropOp34
 70
     1
102
RTVSPost2010Prop35
280
     0
102
RTVSPost2010PropOp35
 70
     1
102
RTVSPost2010Prop36
280
     0
102
RTVSPost2010PropOp36
 70
     1
102
RTVSPost2010Prop37
 90
       50
102
RTVSPost2010PropOp37
 70
     1
102
RTVSPost2010Prop38
140
0.0
102
RTVSPost2010PropOp38
 70
     1
102
RTVSPost2010Prop39
140
1.0
102
RTVSPost2010PropOp39
 70
     1
102
RTVSPost2010Prop40
 90
        0
102
RTVSPost2010PropOp40
 70
     1
102
RTVSPost2010Prop41ColorIndex
 90
       18
102
RTVSPost2010Prop41ColorRGB
 90
        0
102
RTVSPost2010PropOp41
 70
     1
102
RTVSPost2010Prop42
 90
       50
102
RTVSPost2010PropOp42
 70
     1
102
RTVSPost2010Prop43
 90
        3
102
RTVSPost2010PropOp43
 70
     1
102
RTVSPost2010Prop44ColorIndex
 90
        5
102
RTVSPost2010Prop44ColorRGB
 90
      255
102
RTVSPost2010PropOp44
 70
     1
102
RTVSPost2010Prop45
280
     0
102
RTVSPost2010PropOp45
 70
     1
102
RTVSPost2010Prop46
 90
       50
102
RTVSPost2010PropOp46
 70
     1
102
RTVSPost2010Prop47
 90
       50
102
RTVSPost2010PropOp47
 70
     1
102
RTVSPost2010Prop48
 90
       50
102
RTVSPost2010PropOp48
 70
     1
102
RTVSPost2010Prop49
280
     0
102
RTVSPost2010PropOp49
 70
     1
102
RTVSPost2010Prop50
 90
       50
102
RTVSPost2010PropOp50
 70
     1
102
RTVSPost2010Prop51ColorIndex
 90
      256
102
RTVSPost2010Prop51ColorRGB
 90
-16777216
102
RTVSPost2010PropOp51
 70
     0
102
RTVSPost2010Prop52
140
1.0
102
RTVSPost2010PropOp52
 70
     0
102
RTVSPost2010Prop53
 90
        2
102
RTVSPost2010PropOp53
 70
     1
102
RTVSPost2010Prop54
  1
strokes_ogs.tif
102
RTVSPost2010PropOp54
 70
     1
102
RTVSPost2010Prop55
280
     0
102
RTVSPost2010PropOp55
 70
     1
102
RTVSPost2010Prop56
140
1.0
102
RTVSPost2010PropOp56
 70
     1
102
RTVSPost2010Prop57
140
1.0
102
RTVSPost2010PropOp57
 70
     1
  0
XRECORD
  5
19B
102
{ACAD_REACTORS
330
19A
102
}
330
19A
100
AcDbXrecord
280
     1
102
RTVSPost2010Prop28
280
     0
102
RTVSPost2010PropOp28
 70
     0
102
RTVSPost2010Prop29
280
     1
102
RTVSPost2010PropOp29
 70
     0
102
RTVSPost2010Prop30
280
     1
102
RTVSPost2010PropOp30
 70
     0
102
RTVSPost2010Prop31
280
     0
102
RTVSPost2010PropOp31
 70
     0
102
RTVSPost2010Prop32
280
     0
102
RTVSPost2010PropOp32
 70
     0
102
RTVSPost2010Prop33
280
     0
102
RTVSPost2010PropOp33
 70
     0
102
RTVSPost2010Prop34
280
     0
102
RTVSPost2010PropOp34
 70
     0
102
RTVSPost2010Prop35
280
     0
102
RTVSPost2010PropOp35
 70
     0
102
RTVSPost2010Prop36
280
     0
102
RTVSPost2010PropOp36
 70
     0
102
RTVSPost2010Prop37
 90
       50
102
RTVSPost2010PropOp37
 70
     0
102
RTVSPost2010Prop38
140
0.0
102
RTVSPost2010PropOp38
 70
     0
102
RTVSPost2010Prop39
140
1.0
102
RTVSPost2010PropOp39
 70
     0
102
RTVSPost2010Prop40
 90
        0
102
RTVSPost2010PropOp40
 70
     0
102
RTVSPost2010Prop41ColorIndex
 90
       18
102
RTVSPost2010Prop41ColorRGB
 90
        0
102
RTVSPost2010PropOp41
 70
     0
102
RTVSPost2010Prop42
 90
       50
102
RTVSPost2010PropOp42
 70
     0
102
RTVSPost2010Prop43
 90
        3
102
RTVSPost2010PropOp43
 70
     0
102
RTVSPost2010Prop44ColorIndex
 90
        5
102
RTVSPost2010Prop44ColorRGB
 90
      255
102
RTVSPost2010PropOp44
 70
     0
102
RTVSPost2010Prop45
280
     0
102
RTVSPost2010PropOp45
 70
     0
102
RTVSPost2010Prop46
 90
       50
102
RTVSPost2010PropOp46
 70
     0
102
RTVSPost2010Prop47
 90
       50
102
RTVSPost2010PropOp47
 70
     0
102
RTVSPost2010Prop48
 90
       50
102
RTVSPost2010PropOp48
 70
     0
102
RTVSPost2010Prop49
280
     0
102
RTVSPost2010PropOp49
 70
     0
102
RTVSPost2010Prop50
 90
       50
102
RTVSPost2010PropOp50
 70
     0
102
RTVSPost2010Prop51ColorIndex
 90
      256
102
RTVSPost2010Prop51ColorRGB
 90
-16777216
102
RTVSPost2010PropOp51
 70
     0
102
RTVSPost2010Prop52
140
1.0
102
RTVSPost2010PropOp52
 70
     0
102
RTVSPost2010Prop53
 90
        2
102
RTVSPost2010PropOp53
 70
     0
102
RTVSPost2010Prop54
  1
strokes_ogs.tif
102
RTVSPost2010PropOp54
 70
     0
102
RTVSPost2010Prop55
280
     0
102
RTVSPost2010PropOp55
 70
     0
102
RTVSPost2010Prop56
140
1.0
102
RTVSPost2010PropOp56
 70
     0
102
RTVSPost2010Prop57
140
1.0
102
RTVSPost2010PropOp57
 70
     0
  0
XRECORD
  5
181
102
{ACAD_REACTORS
330
180
102
}
330
180
100
AcDbXrecord
280
     1
102
RTVSPost2010Prop28
280
     0
102
RTVSPost2010PropOp28
 70
     1
102
RTVSPost2010Prop29
280
     1
102
RTVSPost2010PropOp29
 70
     1
102
RTVSPost2010Prop30
280
     1
102
RTVSPost2010PropOp30
 70
     1
102
RTVSPost2010Prop31
280
     0
102
RTVSPost2010PropOp31
 70
     1
102
RTVSPost2010Prop32
280
     0
102
RTVSPost2010PropOp32
 70
     1
102
RTVSPost2010Prop33
280
     0
102
RTVSPost2010PropOp33
 70
     1
102
RTVSPost2010Prop34
280
     0
102
RTVSPost2010PropOp34
 70
     1
102
RTVSPost2010Prop35
280
     0
102
RTVSPost2010PropOp35
 70
     1
102
RTVSPost2010Prop36
280
     0
102
RTVSPost2010PropOp36
 70
     1
102
RTVSPost2010Prop37
 90
       50
102
RTVSPost2010PropOp37
 70
     1
102
RTVSPost2010Prop38
140
0.0
102
RTVSPost2010PropOp38
 70
     1
102
RTVSPost2010Prop39
140
1.0
102
RTVSPost2010PropOp39
 70
     1
102
RTVSPost2010Prop40
 90
        0
102
RTVSPost2010PropOp40
 70
     1
102
RTVSPost2010Prop41ColorIndex
 90
       18
102
RTVSPost2010Prop41ColorRGB
 90
        0
102
RTVSPost2010PropOp41
 70
     1
102
RTVSPost2010Prop42
 90
       50
102
RTVSPost2010PropOp42
 70
     1
102
RTVSPost2010Prop43
 90
        3
102
RTVSPost2010PropOp43
 70
     1
102
RTVSPost2010Prop44ColorIndex
 90
        5
102
RTVSPost2010Prop44ColorRGB
 90
      255
102
RTVSPost2010PropOp44
 70
     1
102
RTVSPost2010Prop45
280
     0
102
RTVSPost2010PropOp45
 70
     1
102
RTVSPost2010Prop46
 90
       50
102
RTVSPost2010PropOp46
 70
     1
102
RTVSPost2010Prop47
 90
       50
102
RTVSPost2010PropOp47
 70
     1
102
RTVSPost2010Prop48
 90
       50
102
RTVSPost2010PropOp48
 70
     1
102
RTVSPost2010Prop49
280
     0
102
RTVSPost2010PropOp49
 70
     1
102
RTVSPost2010Prop50
 90
       50
102
RTVSPost2010PropOp50
 70
     1
102
RTVSPost2010Prop51ColorIndex
 90
      256
102
RTVSPost2010Prop51ColorRGB
 90
-16777216
102
RTVSPost2010PropOp51
 70
     0
102
RTVSPost2010Prop52
140
1.0
102
RTVSPost2010PropOp52
 70
     0
102
RTVSPost2010Prop53
 90
        2
102
RTVSPost2010PropOp53
 70
     1
102
RTVSPost2010Prop54
  1
strokes_ogs.tif
102
RTVSPost2010PropOp54
 70
     1
102
RTVSPost2010Prop55
280
     0
102
RTVSPost2010PropOp55
 70
     1
102
RTVSPost2010Prop56
140
1.0
102
RTVSPost2010PropOp56
 70
     1
102
RTVSPost2010Prop57
140
1.0
102
RTVSPost2010PropOp57
 70
     1
  0
XRECORD
  5
197
102
{ACAD_REACTORS
330
196
102
}
330
196
100
AcDbXrecord
280
     1
102
RTVSPost2010Prop28
280
     0
102
RTVSPost2010PropOp28
 70
     1
102
RTVSPost2010Prop29
280
     1
102
RTVSPost2010PropOp29
 70
     1
102
RTVSPost2010Prop30
280
     1
102
RTVSPost2010PropOp30
 70
     1
102
RTVSPost2010Prop31
280
     0
102
RTVSPost2010PropOp31
 70
     1
102
RTVSPost2010Prop32
280
     0
102
RTVSPost2010PropOp32
 70
     1
102
RTVSPost2010Prop33
280
     0
102
RTVSPost2010PropOp33
 70
     1
102
RTVSPost2010Prop34
280
     0
102
RTVSPost2010PropOp34
 70
     1
102
RTVSPost2010Prop35
280
     0
102
RTVSPost2010PropOp35
 70
     1
102
RTVSPost2010Prop36
280
     0
102
RTVSPost2010PropOp36
 70
     1
102
RTVSPost2010Prop37
 90
       50
102
RTVSPost2010PropOp37
 70
     1
102
RTVSPost2010Prop38
140
0.0
102
RTVSPost2010PropOp38
 70
     1
102
RTVSPost2010Prop39
140
1.0
102
RTVSPost2010PropOp39
 70
     1
102
RTVSPost2010Prop40
 90
        0
102
RTVSPost2010PropOp40
 70
     1
102
RTVSPost2010Prop41ColorIndex
 90
       18
102
RTVSPost2010Prop41ColorRGB
 90
        0
102
RTVSPost2010PropOp41
 70
     1
102
RTVSPost2010Prop42
 90
       50
102
RTVSPost2010PropOp42
 70
     1
102
RTVSPost2010Prop43
 90
        3
102
RTVSPost2010PropOp43
 70
     1
102
RTVSPost2010Prop44ColorIndex
 90
        5
102
RTVSPost2010Prop44ColorRGB
 90
      255
102
RTVSPost2010PropOp44
 70
     1
102
RTVSPost2010Prop45
280
     0
102
RTVSPost2010PropOp45
 70
     1
102
RTVSPost2010Prop46
 90
       50
102
RTVSPost2010PropOp46
 70
     1
102
RTVSPost2010Prop47
 90
       50
102
RTVSPost2010PropOp47
 70
     1
102
RTVSPost2010Prop48
 90
       50
102
RTVSPost2010PropOp48
 70
     1
102
RTVSPost2010Prop49
280
     0
102
RTVSPost2010PropOp49
 70
     1
102
RTVSPost2010Prop50
 90
       50
102
RTVSPost2010PropOp50
 70
     1
102
RTVSPost2010Prop51ColorIndex
 90
      256
102
RTVSPost2010Prop51ColorRGB
 90
-16777216
102
RTVSPost2010PropOp51
 70
     0
102
RTVSPost2010Prop52
140
1.0
102
RTVSPost2010PropOp52
 70
     0
102
RTVSPost2010Prop53
 90
        2
102
RTVSPost2010PropOp53
 70
     1
102
RTVSPost2010Prop54
  1
strokes_ogs.tif
102
RTVSPost2010PropOp54
 70
     1
102
RTVSPost2010Prop55
280
     0
102
RTVSPost2010PropOp55
 70
     1
102
RTVSPost2010Prop56
140
1.0
102
RTVSPost2010PropOp56
 70
     1
102
RTVSPost2010Prop57
140
1.0
102
RTVSPost2010PropOp57
 70
     1
  0
XRECORD
  5
195
102
{ACAD_REACTORS
330
194
102
}
330
194
100
AcDbXrecord
280
     1
102
RTVSPost2010Prop28
280
     0
102
RTVSPost2010PropOp28
 70
     1
102
RTVSPost2010Prop29
280
     1
102
RTVSPost2010PropOp29
 70
     1
102
RTVSPost2010Prop30
280
     1
102
RTVSPost2010PropOp30
 70
     1
102
RTVSPost2010Prop31
280
     0
102
RTVSPost2010PropOp31
 70
     1
102
RTVSPost2010Prop32
280
     0
102
RTVSPost2010PropOp32
 70
     1
102
RTVSPost2010Prop33
280
     0
102
RTVSPost2010PropOp33
 70
     1
102
RTVSPost2010Prop34
280
     0
102
RTVSPost2010PropOp34
 70
     1
102
RTVSPost2010Prop35
280
     0
102
RTVSPost2010PropOp35
 70
     1
102
RTVSPost2010Prop36
280
     0
102
RTVSPost2010PropOp36
 70
     1
102
RTVSPost2010Prop37
 90
       50
102
RTVSPost2010PropOp37
 70
     1
102
RTVSPost2010Prop38
140
0.0
102
RTVSPost2010PropOp38
 70
     1
102
RTVSPost2010Prop39
140
1.0
102
RTVSPost2010PropOp39
 70
     1
102
RTVSPost2010Prop40
 90
        0
102
RTVSPost2010PropOp40
 70
     1
102
RTVSPost2010Prop41ColorIndex
 90
       18
102
RTVSPost2010Prop41ColorRGB
 90
        0
102
RTVSPost2010PropOp41
 70
     1
102
RTVSPost2010Prop42
 90
       50
102
RTVSPost2010PropOp42
 70
     1
102
RTVSPost2010Prop43
 90
        3
102
RTVSPost2010PropOp43
 70
     1
102
RTVSPost2010Prop44ColorIndex
 90
        5
102
RTVSPost2010Prop44ColorRGB
 90
      255
102
RTVSPost2010PropOp44
 70
     1
102
RTVSPost2010Prop45
280
     0
102
RTVSPost2010PropOp45
 70
     1
102
RTVSPost2010Prop46
 90
       50
102
RTVSPost2010PropOp46
 70
     1
102
RTVSPost2010Prop47
 90
       50
102
RTVSPost2010PropOp47
 70
     1
102
RTVSPost2010Prop48
 90
       50
102
RTVSPost2010PropOp48
 70
     1
102
RTVSPost2010Prop49
280
     0
102
RTVSPost2010PropOp49
 70
     1
102
RTVSPost2010Prop50
 90
       50
102
RTVSPost2010PropOp50
 70
     1
102
RTVSPost2010Prop51ColorIndex
 90
      256
102
RTVSPost2010Prop51ColorRGB
 90
-16777216
102
RTVSPost2010PropOp51
 70
     0
102
RTVSPost2010Prop52
140
1.0
102
RTVSPost2010PropOp52
 70
     0
102
RTVSPost2010Prop53
 90
        2
102
RTVSPost2010PropOp53
 70
     1
102
RTVSPost2010Prop54
  1
strokes_ogs.tif
102
RTVSPost2010PropOp54
 70
     1
102
RTVSPost2010Prop55
280
     0
102
RTVSPost2010PropOp55
 70
     1
102
RTVSPost2010Prop56
140
1.0
102
RTVSPost2010PropOp56
 70
     1
102
RTVSPost2010Prop57
140
1.0
102
RTVSPost2010PropOp57
 70
     1
  0
XRECORD
  5
18F
102
{ACAD_REACTORS
330
18E
102
}
330
18E
100
AcDbXrecord
280
     1
102
RTVSPost2010Prop28
280
     0
102
RTVSPost2010PropOp28
 70
     1
102
RTVSPost2010Prop29
280
     1
102
RTVSPost2010PropOp29
 70
     1
102
RTVSPost2010Prop30
280
     1
102
RTVSPost2010PropOp30
 70
     1
102
RTVSPost2010Prop31
280
     0
102
RTVSPost2010PropOp31
 70
     1
102
RTVSPost2010Prop32
280
     0
102
RTVSPost2010PropOp32
 70
     1
102
RTVSPost2010Prop33
280
     0
102
RTVSPost2010PropOp33
 70
     1
102
RTVSPost2010Prop34
280
     0
102
RTVSPost2010PropOp34
 70
     1
102
RTVSPost2010Prop35
280
     0
102
RTVSPost2010PropOp35
 70
     1
102
RTVSPost2010Prop36
280
     0
102
RTVSPost2010PropOp36
 70
     1
102
RTVSPost2010Prop37
 90
       50
102
RTVSPost2010PropOp37
 70
     1
102
RTVSPost2010Prop38
140
0.0
102
RTVSPost2010PropOp38
 70
     1
102
RTVSPost2010Prop39
140
1.0
102
RTVSPost2010PropOp39
 70
     1
102
RTVSPost2010Prop40
 90
        0
102
RTVSPost2010PropOp40
 70
     1
102
RTVSPost2010Prop41ColorIndex
 90
       18
102
RTVSPost2010Prop41ColorRGB
 90
        0
102
RTVSPost2010PropOp41
 70
     1
102
RTVSPost2010Prop42
 90
       50
102
RTVSPost2010PropOp42
 70
     1
102
RTVSPost2010Prop43
 90
        3
102
RTVSPost2010PropOp43
 70
     1
102
RTVSPost2010Prop44ColorIndex
 90
        5
102
RTVSPost2010Prop44ColorRGB
 90
      255
102
RTVSPost2010PropOp44
 70
     1
102
RTVSPost2010Prop45
280
     0
102
RTVSPost2010PropOp45
 70
     1
102
RTVSPost2010Prop46
 90
       50
102
RTVSPost2010PropOp46
 70
     1
102
RTVSPost2010Prop47
 90
       50
102
RTVSPost2010PropOp47
 70
     1
102
RTVSPost2010Prop48
 90
       50
102
RTVSPost2010PropOp48
 70
     1
102
RTVSPost2010Prop49
280
     0
102
RTVSPost2010PropOp49
 70
     1
102
RTVSPost2010Prop50
 90
       50
102
RTVSPost2010PropOp50
 70
     1
102
RTVSPost2010Prop51ColorIndex
 90
      256
102
RTVSPost2010Prop51ColorRGB
 90
-16777216
102
RTVSPost2010PropOp51
 70
     0
102
RTVSPost2010Prop52
140
1.0
102
RTVSPost2010PropOp52
 70
     0
102
RTVSPost2010Prop53
 90
        2
102
RTVSPost2010PropOp53
 70
     1
102
RTVSPost2010Prop54
  1
strokes_ogs.tif
102
RTVSPost2010PropOp54
 70
     1
102
RTVSPost2010Prop55
280
     0
102
RTVSPost2010PropOp55
 70
     1
102
RTVSPost2010Prop56
140
1.0
102
RTVSPost2010PropOp56
 70
     1
102
RTVSPost2010Prop57
140
1.0
102
RTVSPost2010PropOp57
 70
     1
  0
XRECORD
  5
191
102
{ACAD_REACTORS
330
190
102
}
330
190
100
AcDbXrecord
280
     1
102
RTVSPost2010Prop28
280
     0
102
RTVSPost2010PropOp28
 70
     1
102
RTVSPost2010Prop29
280
     1
102
RTVSPost2010PropOp29
 70
     1
102
RTVSPost2010Prop30
280
     1
102
RTVSPost2010PropOp30
 70
     1
102
RTVSPost2010Prop31
280
     0
102
RTVSPost2010PropOp31
 70
     1
102
RTVSPost2010Prop32
280
     0
102
RTVSPost2010PropOp32
 70
     1
102
RTVSPost2010Prop33
280
     0
102
RTVSPost2010PropOp33
 70
     1
102
RTVSPost2010Prop34
280
     0
102
RTVSPost2010PropOp34
 70
     1
102
RTVSPost2010Prop35
280
     0
102
RTVSPost2010PropOp35
 70
     1
102
RTVSPost2010Prop36
280
     0
102
RTVSPost2010PropOp36
 70
     1
102
RTVSPost2010Prop37
 90
       50
102
RTVSPost2010PropOp37
 70
     1
102
RTVSPost2010Prop38
140
0.0
102
RTVSPost2010PropOp38
 70
     1
102
RTVSPost2010Prop39
140
1.0
102
RTVSPost2010PropOp39
 70
     1
102
RTVSPost2010Prop40
 90
        0
102
RTVSPost2010PropOp40
 70
     1
102
RTVSPost2010Prop41ColorIndex
 90
       18
102
RTVSPost2010Prop41ColorRGB
 90
        0
102
RTVSPost2010PropOp41
 70
     1
102
RTVSPost2010Prop42
 90
       50
102
RTVSPost2010PropOp42
 70
     1
102
RTVSPost2010Prop43
 90
        3
102
RTVSPost2010PropOp43
 70
     1
102
RTVSPost2010Prop44ColorIndex
 90
        5
102
RTVSPost2010Prop44ColorRGB
 90
      255
102
RTVSPost2010PropOp44
 70
     1
102
RTVSPost2010Prop45
280
     0
102
RTVSPost2010PropOp45
 70
     1
102
RTVSPost2010Prop46
 90
       50
102
RTVSPost2010PropOp46
 70
     1
102
RTVSPost2010Prop47
 90
       50
102
RTVSPost2010PropOp47
 70
     1
102
RTVSPost2010Prop48
 90
       50
102
RTVSPost2010PropOp48
 70
     1
102
RTVSPost2010Prop49
280
     0
102
RTVSPost2010PropOp49
 70
     1
102
RTVSPost2010Prop50
 90
       50
102
RTVSPost2010PropOp50
 70
     1
102
RTVSPost2010Prop51ColorIndex
 90
      256
102
RTVSPost2010Prop51ColorRGB
 90
-16777216
102
RTVSPost2010PropOp51
 70
     0
102
RTVSPost2010Prop52
140
1.0
102
RTVSPost2010PropOp52
 70
     0
102
RTVSPost2010Prop53
 90
        2
102
RTVSPost2010PropOp53
 70
     1
102
RTVSPost2010Prop54
  1
strokes_ogs.tif
102
RTVSPost2010PropOp54
 70
     1
102
RTVSPost2010Prop55
280
     0
102
RTVSPost2010PropOp55
 70
     1
102
RTVSPost2010Prop56
140
1.0
102
RTVSPost2010PropOp56
 70
     1
102
RTVSPost2010Prop57
140
1.0
102
RTVSPost2010PropOp57
 70
     1
  0
XRECORD
  5
187
102
{ACAD_REACTORS
330
186
102
}
330
186
100
AcDbXrecord
280
     1
102
RTVSPost2010Prop28
280
     0
102
RTVSPost2010PropOp28
 70
     1
102
RTVSPost2010Prop29
280
     1
102
RTVSPost2010PropOp29
 70
     1
102
RTVSPost2010Prop30
280
     1
102
RTVSPost2010PropOp30
 70
     1
102
RTVSPost2010Prop31
280
     0
102
RTVSPost2010PropOp31
 70
     1
102
RTVSPost2010Prop32
280
     0
102
RTVSPost2010PropOp32
 70
     1
102
RTVSPost2010Prop33
280
     0
102
RTVSPost2010PropOp33
 70
     1
102
RTVSPost2010Prop34
280
     0
102
RTVSPost2010PropOp34
 70
     1
102
RTVSPost2010Prop35
280
     0
102
RTVSPost2010PropOp35
 70
     1
102
RTVSPost2010Prop36
280
     0
102
RTVSPost2010PropOp36
 70
     1
102
RTVSPost2010Prop37
 90
       50
102
RTVSPost2010PropOp37
 70
     1
102
RTVSPost2010Prop38
140
0.0
102
RTVSPost2010PropOp38
 70
     1
102
RTVSPost2010Prop39
140
1.0
102
RTVSPost2010PropOp39
 70
     1
102
RTVSPost2010Prop40
 90
        0
102
RTVSPost2010PropOp40
 70
     1
102
RTVSPost2010Prop41ColorIndex
 90
       18
102
RTVSPost2010Prop41ColorRGB
 90
        0
102
RTVSPost2010PropOp41
 70
     1
102
RTVSPost2010Prop42
 90
       50
102
RTVSPost2010PropOp42
 70
     1
102
RTVSPost2010Prop43
 90
        3
102
RTVSPost2010PropOp43
 70
     1
102
RTVSPost2010Prop44ColorIndex
 90
        5
102
RTVSPost2010Prop44ColorRGB
 90
      255
102
RTVSPost2010PropOp44
 70
     1
102
RTVSPost2010Prop45
280
     0
102
RTVSPost2010PropOp45
 70
     1
102
RTVSPost2010Prop46
 90
       50
102
RTVSPost2010PropOp46
 70
     1
102
RTVSPost2010Prop47
 90
       50
102
RTVSPost2010PropOp47
 70
     1
102
RTVSPost2010Prop48
 90
       50
102
RTVSPost2010PropOp48
 70
     1
102
RTVSPost2010Prop49
280
     0
102
RTVSPost2010PropOp49
 70
     1
102
RTVSPost2010Prop50
 90
       50
102
RTVSPost2010PropOp50
 70
     1
102
RTVSPost2010Prop51ColorIndex
 90
      256
102
RTVSPost2010Prop51ColorRGB
 90
-16777216
102
RTVSPost2010PropOp51
 70
     0
102
RTVSPost2010Prop52
140
1.0
102
RTVSPost2010PropOp52
 70
     0
102
RTVSPost2010Prop53
 90
        2
102
RTVSPost2010PropOp53
 70
     1
102
RTVSPost2010Prop54
  1
strokes_ogs.tif
102
RTVSPost2010PropOp54
 70
     1
102
RTVSPost2010Prop55
280
     0
102
RTVSPost2010PropOp55
 70
     1
102
RTVSPost2010Prop56
140
1.0
102
RTVSPost2010PropOp56
 70
     1
102
RTVSPost2010Prop57
140
1.0
102
RTVSPost2010PropOp57
 70
     1
  0
XRECORD
  5
17B
102
{ACAD_REACTORS
330
17A
102
}
330
17A
100
AcDbXrecord
280
     1
102
RTVSPost2010Prop28
280
     0
102
RTVSPost2010PropOp28
 70
     1
102
RTVSPost2010Prop29
280
     1
102
RTVSPost2010PropOp29
 70
     1
102
RTVSPost2010Prop30
280
     1
102
RTVSPost2010PropOp30
 70
     1
102
RTVSPost2010Prop31
280
     0
102
RTVSPost2010PropOp31
 70
     1
102
RTVSPost2010Prop32
280
     0
102
RTVSPost2010PropOp32
 70
     1
102
RTVSPost2010Prop33
280
     0
102
RTVSPost2010PropOp33
 70
     1
102
RTVSPost2010Prop34
280
     0
102
RTVSPost2010PropOp34
 70
     1
102
RTVSPost2010Prop35
280
     0
102
RTVSPost2010PropOp35
 70
     1
102
RTVSPost2010Prop36
280
     0
102
RTVSPost2010PropOp36
 70
     1
102
RTVSPost2010Prop37
 90
       50
102
RTVSPost2010PropOp37
 70
     1
102
RTVSPost2010Prop38
140
0.0
102
RTVSPost2010PropOp38
 70
     1
102
RTVSPost2010Prop39
140
1.0
102
RTVSPost2010PropOp39
 70
     1
102
RTVSPost2010Prop40
 90
        0
102
RTVSPost2010PropOp40
 70
     1
102
RTVSPost2010Prop41ColorIndex
 90
       18
102
RTVSPost2010Prop41ColorRGB
 90
        0
102
RTVSPost2010PropOp41
 70
     1
102
RTVSPost2010Prop42
 90
       50
102
RTVSPost2010PropOp42
 70
     1
102
RTVSPost2010Prop43
 90
        3
102
RTVSPost2010PropOp43
 70
     1
102
RTVSPost2010Prop44ColorIndex
 90
        5
102
RTVSPost2010Prop44ColorRGB
 90
      255
102
RTVSPost2010PropOp44
 70
     1
102
RTVSPost2010Prop45
280
     0
102
RTVSPost2010PropOp45
 70
     1
102
RTVSPost2010Prop46
 90
       50
102
RTVSPost2010PropOp46
 70
     1
102
RTVSPost2010Prop47
 90
       50
102
RTVSPost2010PropOp47
 70
     1
102
RTVSPost2010Prop48
 90
       50
102
RTVSPost2010PropOp48
 70
     1
102
RTVSPost2010Prop49
280
     0
102
RTVSPost2010PropOp49
 70
     1
102
RTVSPost2010Prop50
 90
       50
102
RTVSPost2010PropOp50
 70
     1
102
RTVSPost2010Prop51ColorIndex
 90
      256
102
RTVSPost2010Prop51ColorRGB
 90
-16777216
102
RTVSPost2010PropOp51
 70
     0
102
RTVSPost2010Prop52
140
1.0
102
RTVSPost2010PropOp52
 70
     0
102
RTVSPost2010Prop53
 90
        2
102
RTVSPost2010PropOp53
 70
     1
102
RTVSPost2010Prop54
  1
strokes_ogs.tif
102
RTVSPost2010PropOp54
 70
     1
102
RTVSPost2010Prop55
280
     0
102
RTVSPost2010PropOp55
 70
     1
102
RTVSPost2010Prop56
140
1.0
102
RTVSPost2010PropOp56
 70
     1
102
RTVSPost2010Prop57
140
1.0
102
RTVSPost2010PropOp57
 70
     1
  0
XRECORD
  5
193
102
{ACAD_REACTORS
330
192
102
}
330
192
100
AcDbXrecord
280
     1
102
RTVSPost2010Prop28
280
     0
102
RTVSPost2010PropOp28
 70
     1
102
RTVSPost2010Prop29
280
     1
102
RTVSPost2010PropOp29
 70
     1
102
RTVSPost2010Prop30
280
     1
102
RTVSPost2010PropOp30
 70
     1
102
RTVSPost2010Prop31
280
     0
102
RTVSPost2010PropOp31
 70
     1
102
RTVSPost2010Prop32
280
     0
102
RTVSPost2010PropOp32
 70
     1
102
RTVSPost2010Prop33
280
     0
102
RTVSPost2010PropOp33
 70
     1
102
RTVSPost2010Prop34
280
     0
102
RTVSPost2010PropOp34
 70
     1
102
RTVSPost2010Prop35
280
     0
102
RTVSPost2010PropOp35
 70
     1
102
RTVSPost2010Prop36
280
     0
102
RTVSPost2010PropOp36
 70
     1
102
RTVSPost2010Prop37
 90
       50
102
RTVSPost2010PropOp37
 70
     1
102
RTVSPost2010Prop38
140
0.0
102
RTVSPost2010PropOp38
 70
     1
102
RTVSPost2010Prop39
140
1.0
102
RTVSPost2010PropOp39
 70
     1
102
RTVSPost2010Prop40
 90
        0
102
RTVSPost2010PropOp40
 70
     1
102
RTVSPost2010Prop41ColorIndex
 90
       18
102
RTVSPost2010Prop41ColorRGB
 90
        0
102
RTVSPost2010PropOp41
 70
     1
102
RTVSPost2010Prop42
 90
       50
102
RTVSPost2010PropOp42
 70
     1
102
RTVSPost2010Prop43
 90
        3
102
RTVSPost2010PropOp43
 70
     1
102
RTVSPost2010Prop44ColorIndex
 90
        5
102
RTVSPost2010Prop44ColorRGB
 90
      255
102
RTVSPost2010PropOp44
 70
     1
102
RTVSPost2010Prop45
280
     0
102
RTVSPost2010PropOp45
 70
     1
102
RTVSPost2010Prop46
 90
       50
102
RTVSPost2010PropOp46
 70
     1
102
RTVSPost2010Prop47
 90
       50
102
RTVSPost2010PropOp47
 70
     1
102
RTVSPost2010Prop48
 90
       50
102
RTVSPost2010PropOp48
 70
     1
102
RTVSPost2010Prop49
280
     0
102
RTVSPost2010PropOp49
 70
     1
102
RTVSPost2010Prop50
 90
       50
102
RTVSPost2010PropOp50
 70
     1
102
RTVSPost2010Prop51ColorIndex
 90
      256
102
RTVSPost2010Prop51ColorRGB
 90
-16777216
102
RTVSPost2010PropOp51
 70
     0
102
RTVSPost2010Prop52
140
1.0
102
RTVSPost2010PropOp52
 70
     0
102
RTVSPost2010Prop53
 90
        2
102
RTVSPost2010PropOp53
 70
     1
102
RTVSPost2010Prop54
  1
strokes_ogs.tif
102
RTVSPost2010PropOp54
 70
     1
102
RTVSPost2010Prop55
280
     0
102
RTVSPost2010PropOp55
 70
     1
102
RTVSPost2010Prop56
140
1.0
102
RTVSPost2010PropOp56
 70
     1
102
RTVSPost2010Prop57
140
1.0
102
RTVSPost2010PropOp57
 70
     1
  0
ENDSEC
  0
EOF
